  0
SECTION
  2
HEADER
  9
$ACADVER
  1
AC1015
  9
$ACADMAINTVER
 70
     6
  9
$DWGCODEPAGE
  3
ANSI_1252
  9
$INSBASE
 10
0.0
 20
0.0
 30
0.0
  9
$EXTMIN
 10
-12.0078740157
 20
-16.9291338583
 30
0.0
  9
$EXTMAX
 10
12.0078740157
 20
15.7480314961
 30
0.0
  9
$LIMMIN
 10
0.0
 20
0.0
  9
$LIMMAX
 10
12.0
 20
9.0
  9
$ORTHOMODE
 70
     0
  9
$REGENMODE
 70
     1
  9
$FILLMODE
 70
     1
  9
$QTEXTMODE
 70
     0
  9
$MIRRTEXT
 70
     1
  9
$LTSCALE
 40
1.0
  9
$ATTMODE
 70
     1
  9
$TEXTSIZE
 40
0.1377952756
  9
$TRACEWID
 40
0.05
  9
$TEXTSTYLE
  7
Standard
  9
$CLAYER
  8
0
  9
$CELTYPE
  6
ByLayer
  9
$CECOLOR
 62
   256
  9
$CELTSCALE
 40
1.0
  9
$DISPSILH
 70
     0
  9
$DIMSCALE
 40
1.0
  9
$DIMASZ
 40
0.13
  9
$DIMEXO
 40
0.0393700787
  9
$DIMDLI
 40
0.38
  9
$DIMRND
 40
0.0
  9
$DIMDLE
 40
0.0
  9
$DIMEXE
 40
0.0393700787
  9
$DIMTP
 40
0.0
  9
$DIMTM
 40
0.0
  9
$DIMTXT
 40
0.1377952756
  9
$DIMCEN
 40
0.09
  9
$DIMTSZ
 40
0.0
  9
$DIMTOL
 70
     0
  9
$DIMLIM
 70
     0
  9
$DIMTIH
 70
     1
  9
$DIMTOH
 70
     1
  9
$DIMSE1
 70
     0
  9
$DIMSE2
 70
     0
  9
$DIMTAD
 70
     1
  9
$DIMZIN
 70
     1
  9
$DIMBLK
  1

  9
$DIMASO
 70
     1
  9
$DIMSHO
 70
     1
  9
$DIMPOST
  1

  9
$DIMAPOST
  1

  9
$DIMALT
 70
     0
  9
$DIMALTD
 70
     2
  9
$DIMALTF
 40
25.4
  9
$DIMLFAC
 40
1.0
  9
$DIMTOFL
 70
     0
  9
$DIMTVP
 40
0.0
  9
$DIMTIX
 70
     0
  9
$DIMSOXD
 70
     0
  9
$DIMSAH
 70
     0
  9
$DIMBLK1
  1

  9
$DIMBLK2
  1

  9
$DIMSTYLE
  2
Standard
  9
$DIMCLRD
 70
     0
  9
$DIMCLRE
 70
     0
  9
$DIMCLRT
 70
     0
  9
$DIMTFAC
 40
1.0
  9
$DIMGAP
 40
0.06
  9
$DIMJUST
 70
     0
  9
$DIMSD1
 70
     0
  9
$DIMSD2
 70
     0
  9
$DIMTOLJ
 70
     1
  9
$DIMTZIN
 70
     1
  9
$DIMALTZ
 70
     0
  9
$DIMALTTZ
 70
     0
  9
$DIMUPT
 70
     0
  9
$DIMDEC
 70
     2
  9
$DIMTDEC
 70
     2
  9
$DIMALTU
 70
     2
  9
$DIMALTTD
 70
     2
  9
$DIMTXSTY
  7
Standard
  9
$DIMAUNIT
 70
     0
  9
$DIMADEC
 70
     2
  9
$DIMALTRND
 40
0.0
  9
$DIMAZIN
 70
     0
  9
$DIMDSEP
 70
    46
  9
$DIMATFIT
 70
     3
  9
$DIMFRAC
 70
     0
  9
$DIMLDRBLK
  1

  9
$DIMLUNIT
 70
     2
  9
$DIMLWD
 70
    -2
  9
$DIMLWE
 70
    -2
  9
$DIMTMOVE
 70
     0
  9
$LUNITS
 70
     2
  9
$LUPREC
 70
     2
  9
$SKETCHINC
 40
0.1
  9
$FILLETRAD
 40
0.5
  9
$AUNITS
 70
     0
  9
$AUPREC
 70
     2
  9
$MENU
  1
.
  9
$ELEVATION
 40
0.0
  9
$PELEVATION
 40
0.0
  9
$THICKNESS
 40
0.0
  9
$LIMCHECK
 70
     0
  9
$CHAMFERA
 40
0.0
  9
$CHAMFERB
 40
0.0
  9
$CHAMFERC
 40
0.0
  9
$CHAMFERD
 40
0.0
  9
$SKPOLY
 70
     0
  9
$TDCREATE
 40
2459786.645737465
  9
$TDUCREATE
 40
2459786.604070798
  9
$TDUPDATE
 40
2459786.645758657
  9
$TDUUPDATE
 40
2459786.604091991
  9
$TDINDWG
 40
0.0000000116
  9
$TDUSRTIMER
 40
0.0000000116
  9
$USRTIMER
 70
     1
  9
$ANGBASE
 50
0.0
  9
$ANGDIR
 70
     0
  9
$PDMODE
 70
     0
  9
$PDSIZE
 40
-1.0
  9
$PLINEWID
 40
0.0
  9
$SPLFRAME
 70
     0
  9
$SPLINETYPE
 70
     6
  9
$SPLINESEGS
 70
     8
  9
$HANDSEED
  5
385
  9
$SURFTAB1
 70
     6
  9
$SURFTAB2
 70
     6
  9
$SURFTYPE
 70
     6
  9
$SURFU
 70
     6
  9
$SURFV
 70
     6
  9
$UCSBASE
  2

  9
$UCSNAME
  2

  9
$UCSORG
 10
0.0
 20
0.0
 30
0.0
  9
$UCSXDIR
 10
1.0
 20
0.0
 30
0.0
  9
$UCSYDIR
 10
0.0
 20
1.0
 30
0.0
  9
$UCSORTHOREF
  2

  9
$UCSORTHOVIEW
 70
     0
  9
$UCSORGTOP
 10
0.0
 20
0.0
 30
0.0
  9
$UCSORGBOTTOM
 10
0.0
 20
0.0
 30
0.0
  9
$UCSORGLEFT
 10
0.0
 20
0.0
 30
0.0
  9
$UCSORGRIGHT
 10
0.0
 20
0.0
 30
0.0
  9
$UCSORGFRONT
 10
0.0
 20
0.0
 30
0.0
  9
$UCSORGBACK
 10
0.0
 20
0.0
 30
0.0
  9
$PUCSBASE
  2

  9
$PUCSNAME
  2

  9
$PUCSORG
 10
0.0
 20
0.0
 30
0.0
  9
$PUCSXDIR
 10
1.0
 20
0.0
 30
0.0
  9
$PUCSYDIR
 10
0.0
 20
1.0
 30
0.0
  9
$PUCSORTHOREF
  2

  9
$PUCSORTHOVIEW
 70
     0
  9
$PUCSORGTOP
 10
0.0
 20
0.0
 30
0.0
  9
$PUCSORGBOTTOM
 10
0.0
 20
0.0
 30
0.0
  9
$PUCSORGLEFT
 10
0.0
 20
0.0
 30
0.0
  9
$PUCSORGRIGHT
 10
0.0
 20
0.0
 30
0.0
  9
$PUCSORGFRONT
 10
0.0
 20
0.0
 30
0.0
  9
$PUCSORGBACK
 10
0.0
 20
0.0
 30
0.0
  9
$USERI1
 70
     0
  9
$USERI2
 70
     0
  9
$USERI3
 70
     0
  9
$USERI4
 70
     0
  9
$USERI5
 70
     0
  9
$USERR1
 40
0.0
  9
$USERR2
 40
0.0
  9
$USERR3
 40
0.0
  9
$USERR4
 40
0.0
  9
$USERR5
 40
0.0
  9
$WORLDVIEW
 70
     1
  9
$SHADEDGE
 70
     3
  9
$SHADEDIF
 70
    70
  9
$TILEMODE
 70
     1
  9
$MAXACTVP
 70
    64
  9
$PINSBASE
 10
0.0
 20
0.0
 30
0.0
  9
$PLIMCHECK
 70
     0
  9
$PEXTMIN
 10
-12.0078740157
 20
-16.9291338583
 30
0.0
  9
$PEXTMAX
 10
12.0078740157
 20
15.7480314961
 30
0.0
  9
$PLIMMIN
 10
-13.0290370915
 20
-17.9502953258
  9
$PLIMMAX
 10
31.9020674819
 20
16.7691945718
  9
$UNITMODE
 70
     0
  9
$VISRETAIN
 70
     1
  9
$PLINEGEN
 70
     0
  9
$PSLTSCALE
 70
     1
  9
$TREEDEPTH
 70
  3020
  9
$CMLSTYLE
  2
Standard
  9
$CMLJUST
 70
     0
  9
$CMLSCALE
 40
1.0
  9
$PROXYGRAPHICS
 70
     1
  9
$MEASUREMENT
 70
     0
  9
$CELWEIGHT
370
    -1
  9
$ENDCAPS
280
     0
  9
$JOINSTYLE
280
     0
  9
$LWDISPLAY
290
     1
  9
$INSUNITS
 70
     1
  9
$HYPERLINKBASE
  1

  9
$STYLESHEET
  1

  9
$XEDIT
290
     1
  9
$CEPSNTYPE
380
     0
  9
$PSTYLEMODE
290
     1
  9
$FINGERPRINTGUID
  2
{776b7e24-c942-4804-b3fa-7f17980742e8}
  9
$VERSIONGUID
  2
{FAEB1C32-E019-11D5-929B-00C0DF256EC4}
  9
$EXTNAMES
290
     1
  9
$PSVPSCALE
 40
0.0
  9
$OLESTARTUP
290
     0
  0
ENDSEC
  0
SECTION
  2
CLASSES
  0
CLASS
  1
ACDBDICTIONARYWDFLT
  2
AcDbDictionaryWithDefault
  3
ObjectDBX Classes
 90
        0
280
     0
281
     0
  0
CLASS
  1
VISUALSTYLE
  2
AcDbVisualStyle
  3
ObjectDBX Classes
 90
     4095
280
     0
281
     0
  0
CLASS
  1
MATERIAL
  2
AcDbMaterial
  3
ObjectDBX Classes
 90
     1153
280
     0
281
     0
  0
CLASS
  1
SCALE
  2
AcDbScale
  3
ObjectDBX Classes
 90
     1153
280
     0
281
     0
  0
CLASS
  1
TABLESTYLE
  2
AcDbTableStyle
  3
ObjectDBX Classes
 90
     4095
280
     0
281
     0
  0
CLASS
  1
MLEADERSTYLE
  2
AcDbMLeaderStyle
  3
ACDB_MLEADERSTYLE_CLASS
 90
     4095
280
     0
281
     0
  0
CLASS
  1
SUN
  2
AcDbSun
  3
SCENEOE
 90
     1153
280
     0
281
     0
  0
CLASS
  1
ACDBPLACEHOLDER
  2
AcDbPlaceHolder
  3
ObjectDBX Classes
 90
        0
280
     0
281
     0
  0
CLASS
  1
LAYOUT
  2
AcDbLayout
  3
ObjectDBX Classes
 90
        0
280
     0
281
     0
  0
ENDSEC
  0
SECTION
  2
TABLES
  0
TABLE
  2
VPORT
  5
8
330
0
100
AcDbSymbolTable
 70
     1
  0
VPORT
  5
29
330
8
100
AcDbSymbolTableRecord
100
AcDbViewportTableRecord
  2
*Active
 70
     0
 10
0.0
 20
0.0
 11
1.0
 21
1.0
 12
0.0
 22
-0.5905511811
 13
0.0
 23
0.0
 14
0.5
 24
0.5
 15
0.5
 25
0.5
 16
0.0
 26
0.0
 36
1.0
 17
0.0
 27
0.0
 37
0.0
 40
33.3307086614
 41
0.734939759
 42
50.0
 43
0.0
 44
0.0
 50
0.0
 51
0.0
 71
     0
 72
   100
 73
     1
 74
     3
 75
     0
 76
     0
 77
     0
 78
     0
281
     0
 65
     1
110
0.0
120
0.0
130
0.0
111
1.0
121
0.0
131
0.0
112
0.0
122
1.0
132
0.0
 79
     0
146
0.0
  0
ENDTAB
  0
TABLE
  2
LTYPE
  5
5
330
0
100
AcDbSymbolTable
 70
     6
  0
LTYPE
  5
14
330
5
100
AcDbSymbolTableRecord
100
AcDbLinetypeTableRecord
  2
ByBlock
 70
     0
  3

 72
    65
 73
     0
 40
0.0
  0
LTYPE
  5
15
330
5
100
AcDbSymbolTableRecord
100
AcDbLinetypeTableRecord
  2
ByLayer
 70
     0
  3

 72
    65
 73
     0
 40
0.0
  0
LTYPE
  5
16
330
5
100
AcDbSymbolTableRecord
100
AcDbLinetypeTableRecord
  2
Continuous
 70
     0
  3
Solid line
 72
    65
 73
     0
 40
0.0
  0
LTYPE
  5
6E
330
5
100
AcDbSymbolTableRecord
100
AcDbLinetypeTableRecord
  2
HIDDEN
 70
     0
  3
Hidden __ __ __ __ __ __ __ __ __ __ __ __ __ __
 72
    65
 73
     2
 40
0.075
 49
0.05
 74
     0
 49
-0.025
 74
     0
  0
LTYPE
  5
6F
330
5
100
AcDbSymbolTableRecord
100
AcDbLinetypeTableRecord
  2
PHANTOM
 70
     0
  3
Phantom ______  __  __  ______  __  __  ______
 72
    65
 73
     6
 40
0.5
 49
0.25
 74
     0
 49
-0.05
 74
     0
 49
0.05
 74
     0
 49
-0.05
 74
     0
 49
0.05
 74
     0
 49
-0.05
 74
     0
  0
LTYPE
  5
70
330
5
100
AcDbSymbolTableRecord
100
AcDbLinetypeTableRecord
  2
CENTER
 70
     0
  3
Center ____ _ ____ _ ____ _ ____ _ ____ _ ____
 72
    65
 73
     4
 40
0.4
 49
0.25
 74
     0
 49
-0.05
 74
     0
 49
0.05
 74
     0
 49
-0.05
 74
     0
  0
LTYPE
  5
71
330
5
100
AcDbSymbolTableRecord
100
AcDbLinetypeTableRecord
  2
CENTERX2
 70
     0
  3
Center (2x) ________  __  ________  __  _____
 72
    65
 73
     4
 40
0.8
 49
0.5
 74
     0
 49
-0.1
 74
     0
 49
0.1
 74
     0
 49
-0.1
 74
     0
  0
LTYPE
  5
72
330
5
100
AcDbSymbolTableRecord
100
AcDbLinetypeTableRecord
  2
DOT2
 70
     0
  3
Dot (.5x) ........................................
 72
    65
 73
     2
 40
0.025
 49
0.0
 74
     0
 49
-0.025
 74
     0
  0
ENDTAB
  0
TABLE
  2
LAYER
  5
2
330
0
100
AcDbSymbolTable
 70
     1
  0
LAYER
  5
10
330
2
100
AcDbSymbolTableRecord
100
AcDbLayerTableRecord
  2
0
 70
     0
 62
     7
  6
Continuous
370
    -3
390
F
  0
ENDTAB
  0
TABLE
  2
STYLE
  5
3
330
0
100
AcDbSymbolTable
 70
     1
  0
STYLE
  5
11
330
3
100
AcDbSymbolTableRecord
100
AcDbTextStyleTableRecord
  2
Standard
 70
     0
 40
0.0
 41
1.0
 50
0.0
 71
     0
 42
0.1377952756
  3
txt
  4

  0
ENDTAB
  0
TABLE
  2
VIEW
  5
6
330
0
100
AcDbSymbolTable
 70
     0
  0
ENDTAB
  0
TABLE
  2
UCS
  5
7
330
0
100
AcDbSymbolTable
 70
     0
  0
ENDTAB
  0
TABLE
  2
APPID
  5
9
330
0
100
AcDbSymbolTable
 70
     1
  0
APPID
  5
12
330
9
100
AcDbSymbolTableRecord
100
AcDbRegAppTableRecord
  2
ACAD
 70
     0
  0
ENDTAB
  0
TABLE
  2
DIMSTYLE
  5
A
330
0
100
AcDbSymbolTable
 70
     1
100
AcDbDimStyleTable
  0
DIMSTYLE
105
27
330
A
100
AcDbSymbolTableRecord
100
AcDbDimStyleTableRecord
  2
Standard
 70
     0
178
     0
340
11
  0
ENDTAB
  0
TABLE
  2
BLOCK_RECORD
  5
1
330
0
100
AcDbSymbolTable
 70
     4
  0
BLOCK_RECORD
  5
1F
330
1
100
AcDbSymbolTableRecord
100
AcDbBlockTableRecord
  2
*Model_Space
340
22
  0
BLOCK_RECORD
  5
1B
330
1
100
AcDbSymbolTableRecord
100
AcDbBlockTableRecord
  2
*Paper_Space
340
1E
  0
BLOCK_RECORD
  5
23
330
1
100
AcDbSymbolTableRecord
100
AcDbBlockTableRecord
  2
*Paper_Space0
340
26
  0
BLOCK_RECORD
  5
1DC
330
1
100
AcDbSymbolTableRecord
100
AcDbBlockTableRecord
  2
*Paper_Space1
340
1DD
  0
BLOCK_RECORD
  5
22B
330
1
100
AcDbSymbolTableRecord
100
AcDbBlockTableRecord
  2
*Paper_Space2
340
22C
  0
BLOCK_RECORD
  5
263
330
1
100
AcDbSymbolTableRecord
100
AcDbBlockTableRecord
  2
*Paper_Space3
340
264
  0
ENDTAB
  0
ENDSEC
  0
SECTION
  2
BLOCKS
  0
BLOCK
  5
20
330
1F
100
AcDbEntity
  8
0
100
AcDbBlockBegin
  2
*Model_Space
 70
     0
 10
0.0
 20
0.0
 30
0.0
  3
*Model_Space
  1

  0
ENDBLK
  5
21
330
1F
100
AcDbEntity
  8
0
100
AcDbBlockEnd
  0
BLOCK
  5
1C
330
1B
100
AcDbEntity
 67
     1
  8
0
100
AcDbBlockBegin
  2
*Paper_Space
 70
     0
 10
0.0
 20
0.0
 30
0.0
  3
*Paper_Space
  1

  0
ENDBLK
  5
1D
330
1B
100
AcDbEntity
 67
     1
  8
0
100
AcDbBlockEnd
  0
BLOCK
  5
24
330
23
100
AcDbEntity
  8
0
100
AcDbBlockBegin
  2
*Paper_Space0
 70
     0
 10
0.0
 20
0.0
 30
0.0
  3
*Paper_Space0
  1

  0
LINE
  5
1A8
330
23
100
AcDbEntity
  8
0
  6
Continuous
 62
     7
370
    25
100
AcDbLine
 10
-7.3228346457
 20
-16.8818897638
 30
0.0
 11
-7.3228346457
 21
-16.9291338583
 31
0.0
  0
LINE
  5
1A9
330
23
100
AcDbEntity
  8
0
  6
Continuous
 62
     7
370
    25
100
AcDbLine
 10
-6.1417322835
 20
-16.9291338583
 30
0.0
 11
-6.1417322835
 21
-16.8818897638
 31
0.0
  0
LINE
  5
1AA
330
23
100
AcDbEntity
  8
0
  6
Continuous
 62
     7
370
    25
100
AcDbLine
 10
-7.125984252
 20
-16.5511811024
 30
0.0
 11
-7.125984252
 21
-16.6929133858
 31
0.0
  0
LINE
  5
1AB
330
23
100
AcDbEntity
  8
0
  6
Continuous
 62
     7
370
    25
100
AcDbLine
 10
-6.3385826772
 20
-16.6929133858
 30
0.0
 11
-6.3385826772
 21
-16.5511811024
 31
0.0
  0
LINE
  5
1AC
330
23
100
AcDbEntity
  8
0
  6
Continuous
 62
     7
370
    25
100
AcDbLine
 10
6.8503937008
 20
-16.8818897638
 30
0.0
 11
6.8503937008
 21
-16.9291338583
 31
0.0
  0
LINE
  5
1AD
330
23
100
AcDbEntity
  8
0
  6
Continuous
 62
     7
370
    25
100
AcDbLine
 10
8.031496063
 20
-16.9291338583
 30
0.0
 11
8.031496063
 21
-16.8818897638
 31
0.0
  0
LINE
  5
1AE
330
23
100
AcDbEntity
  8
0
  6
Continuous
 62
     7
370
    25
100
AcDbLine
 10
7.0472440945
 20
-16.5511811024
 30
0.0
 11
7.0472440945
 21
-16.6929133858
 31
0.0
  0
LINE
  5
1AF
330
23
100
AcDbEntity
  8
0
  6
Continuous
 62
     7
370
    25
100
AcDbLine
 10
7.8346456693
 20
-16.6929133858
 30
0.0
 11
7.8346456693
 21
-16.5511811024
 31
0.0
  0
LINE
  5
1B0
330
23
100
AcDbEntity
  8
0
  6
Continuous
 62
     7
370
    25
100
AcDbLine
 10
8.6220472441
 20
-11.4173228346
 30
0.0
 11
8.6220472441
 21
-0.7874015748
 31
0.0
  0
LINE
  5
1B1
330
23
100
AcDbEntity
  8
0
  6
Continuous
 62
     7
370
    25
100
AcDbLine
 10
-7.9133858268
 20
-0.7874015748
 30
0.0
 11
8.6220472441
 21
-0.7874015748
 31
0.0
  0
LINE
  5
1B2
330
23
100
AcDbEntity
  8
0
  6
Continuous
 62
     7
370
    25
100
AcDbLine
 10
-7.9133858268
 20
-11.4173228346
 30
0.0
 11
-7.9133858268
 21
-0.7874015748
 31
0.0
  0
LINE
  5
1B3
330
23
100
AcDbEntity
  8
0
  6
Continuous
 62
     7
370
    25
100
AcDbLine
 10
8.6220472441
 20
-11.4173228346
 30
0.0
 11
-7.9133858268
 21
-11.4173228346
 31
0.0
  0
LINE
  5
1B4
330
23
100
AcDbEntity
  8
0
  6
Continuous
 62
     7
370
    25
100
AcDbLine
 10
9.4094488189
 20
-16.5354330709
 30
0.0
 11
9.4094488189
 21
15.7480314961
 31
0.0
  0
LINE
  5
1B5
330
23
100
AcDbEntity
  8
0
  6
Continuous
 62
     7
370
    25
100
AcDbLine
 10
9.4094488189
 20
-16.5354330709
 30
0.0
 11
-8.7007874016
 21
-16.5354330709
 31
0.0
  0
LINE
  5
1B6
330
23
100
AcDbEntity
  8
0
  6
Continuous
 62
     7
370
    25
100
AcDbLine
 10
-7.9133858268
 20
-15.7480314961
 30
0.0
 11
8.6220472441
 21
-15.7480314961
 31
0.0
  0
LINE
  5
1B7
330
23
100
AcDbEntity
  8
0
  6
Continuous
 62
     7
370
    25
100
AcDbLine
 10
8.6220472441
 20
-15.7480314961
 30
0.0
 11
8.6220472441
 21
-12.2047244094
 31
0.0
  0
LINE
  5
1B8
330
23
100
AcDbEntity
  8
0
  6
Continuous
 62
     7
370
    25
100
AcDbLine
 10
8.6220472441
 20
-12.2047244094
 30
0.0
 11
-7.9133858268
 21
-12.2047244094
 31
0.0
  0
LINE
  5
1B9
330
23
100
AcDbEntity
  8
0
  6
Continuous
 62
     7
370
    25
100
AcDbLine
 10
-7.9133858268
 20
-15.7480314961
 30
0.0
 11
-7.9133858268
 21
-12.2047244094
 31
0.0
  0
LINE
  5
1BA
330
23
100
AcDbEntity
  8
0
  6
Continuous
 62
     7
370
    25
100
AcDbLine
 10
-8.7007874016
 20
0.0
 30
0.0
 11
9.4094488189
 21
0.0
 31
0.0
  0
LINE
  5
1BB
330
23
100
AcDbEntity
  8
0
  6
Continuous
 62
     7
370
    25
100
AcDbLine
 10
-8.7007874016
 20
-16.5354330709
 30
0.0
 11
-8.7007874016
 21
15.7480314961
 31
0.0
  0
LINE
  5
1BC
330
23
100
AcDbEntity
  8
0
  6
Continuous
 62
     7
370
    25
100
AcDbLine
 10
-7.3228346457
 20
-16.9291338583
 30
0.0
 11
-6.1417390164
 21
-16.9291338583
 31
0.0
  0
LINE
  5
1BD
330
23
100
AcDbEntity
  8
0
  6
Continuous
 62
     7
370
    25
100
AcDbLine
 10
-7.2519685039
 20
-16.811023622
 30
0.0
 11
-6.2126043502
 21
-16.811023622
 31
0.0
  0
LINE
  5
1BE
330
23
100
AcDbEntity
  8
0
  6
Continuous
 62
     7
370
    25
100
AcDbLine
 10
6.8503937008
 20
-16.9291338583
 30
0.0
 11
8.0314884881
 21
-16.9291338583
 31
0.0
  0
LINE
  5
1BF
330
23
100
AcDbEntity
  8
0
  6
Continuous
 62
     7
370
    25
100
AcDbLine
 10
6.9212598425
 20
-16.811023622
 30
0.0
 11
7.9606232554
 21
-16.811023622
 31
0.0
  0
LINE
  5
1C0
330
23
100
AcDbEntity
  8
0
  6
Continuous
 62
     7
370
    25
100
AcDbLine
 10
-8.7007874016
 20
15.7480314961
 30
0.0
 11
9.4094488189
 21
15.7480314961
 31
0.0
  0
LINE
  5
1C1
330
23
100
AcDbEntity
  8
0
  6
Continuous
 62
     7
370
    25
100
AcDbLine
 10
8.7007874016
 20
15.7480314961
 30
0.0
 11
8.7007874016
 21
0.0
 31
0.0
  0
LINE
  5
1C2
330
23
100
AcDbEntity
  8
0
  6
Continuous
 62
     7
370
    25
100
AcDbLine
 10
7.3228346457
 20
14.3700787402
 30
0.0
 11
-7.3228346457
 21
14.3700787402
 31
0.0
  0
LINE
  5
1C3
330
23
100
AcDbEntity
  8
0
  6
Continuous
 62
     7
370
    25
100
AcDbLine
 10
-7.3228346457
 20
14.3700787402
 30
0.0
 11
-7.3228346457
 21
1.3779527559
 31
0.0
  0
LINE
  5
1C4
330
23
100
AcDbEntity
  8
0
  6
Continuous
 62
     7
370
    25
100
AcDbLine
 10
-7.3228346457
 20
1.3779527559
 30
0.0
 11
7.3228346457
 21
1.3779527559
 31
0.0
  0
LINE
  5
1C5
330
23
100
AcDbEntity
  8
0
  6
Continuous
 62
     7
370
    25
100
AcDbLine
 10
7.3228346457
 20
1.3779527559
 30
0.0
 11
7.3228346457
 21
14.3700787402
 31
0.0
  0
LINE
  5
1C6
330
23
100
AcDbEntity
  8
0
  6
Continuous
 62
     7
370
    25
100
AcDbLine
 10
7.2047244094
 20
14.2519685039
 30
0.0
 11
-7.2047244094
 21
14.2519685039
 31
0.0
  0
LINE
  5
1C7
330
23
100
AcDbEntity
  8
0
  6
Continuous
 62
     7
370
    25
100
AcDbLine
 10
7.2047244094
 20
1.4960629921
 30
0.0
 11
7.2047244094
 21
14.2519685039
 31
0.0
  0
LINE
  5
1C8
330
23
100
AcDbEntity
  8
0
  6
Continuous
 62
     7
370
    25
100
AcDbLine
 10
-7.2047244094
 20
1.4960629921
 30
0.0
 11
7.2047244094
 21
1.4960629921
 31
0.0
  0
LINE
  5
1C9
330
23
100
AcDbEntity
  8
0
  6
Continuous
 62
     7
370
    25
100
AcDbLine
 10
-7.2047244094
 20
14.2519685039
 30
0.0
 11
-7.2047244094
 21
1.4960629921
 31
0.0
  0
LINE
  5
1CA
330
23
100
AcDbEntity
  8
0
  6
Continuous
 62
     8
370
    25
100
AcDbLine
 10
-7.3228346457
 20
-16.8818897638
 30
0.0
 11
-6.1417390164
 21
-16.8818897638
 31
0.0
  0
LINE
  5
1CB
330
23
100
AcDbEntity
  8
0
  6
Continuous
 62
     8
370
    25
100
AcDbLine
 10
-7.125984252
 20
-16.6929133858
 30
0.0
 11
-6.3385871658
 21
-16.6929133858
 31
0.0
  0
LINE
  5
1CC
330
23
100
AcDbEntity
  8
0
  6
Continuous
 62
     8
370
    25
100
AcDbLine
 10
-6.3385871658
 20
-16.5511811024
 30
0.0
 11
-7.125984252
 21
-16.5511811024
 31
0.0
  0
LINE
  5
1CD
330
23
100
AcDbEntity
  8
0
  6
Continuous
 62
     8
370
    25
100
AcDbLine
 10
6.8503937008
 20
-16.8818897638
 30
0.0
 11
8.0314884881
 21
-16.8818897638
 31
0.0
  0
LINE
  5
1CE
330
23
100
AcDbEntity
  8
0
  6
Continuous
 62
     8
370
    25
100
AcDbLine
 10
7.0472440945
 20
-16.6929133858
 30
0.0
 11
7.8346406194
 21
-16.6929133858
 31
0.0
  0
LINE
  5
1CF
330
23
100
AcDbEntity
  8
0
  6
Continuous
 62
     8
370
    25
100
AcDbLine
 10
7.8346406194
 20
-16.5511811024
 30
0.0
 11
7.0472440945
 21
-16.5511811024
 31
0.0
  0
ARC
  5
1D0
330
23
100
AcDbEntity
  8
0
  6
Continuous
 62
     7
370
    25
100
AcDbCircle
 10
-7.2519685039
 20
-16.8818897638
 30
0.0
 40
0.0708661417322789
100
AcDbArc
 50
90.0
 51
180.0
  0
ARC
  5
1D1
330
23
100
AcDbEntity
  8
0
  6
Continuous
 62
     7
370
    25
100
AcDbCircle
 10
-6.2125984252
 20
-16.8818897638
 30
0.0
 40
0.070866141732286
100
AcDbArc
 50
0.0
 51
90.0
  0
ARC
  5
1D2
330
23
100
AcDbEntity
  8
0
  6
Continuous
 62
     7
370
    25
100
AcDbCircle
 10
-7.2440944882
 20
-16.6929133858
 30
0.0
 40
0.1181102362204776
100
AcDbArc
 50
270.0
 51
0.0
  0
ARC
  5
1D3
330
23
100
AcDbEntity
  8
0
  6
Continuous
 62
     7
370
    25
100
AcDbCircle
 10
-6.2204724409
 20
-16.6929133858
 30
0.0
 40
0.118110236220474
100
AcDbArc
 50
180.0
 51
270.0
  0
ARC
  5
1D4
330
23
100
AcDbEntity
  8
0
  6
Continuous
 62
     7
370
    25
100
AcDbCircle
 10
-7.1102362205
 20
-16.5511811024
 30
0.0
 40
0.0157480314960665
100
AcDbArc
 50
90.0
 51
180.0
  0
ARC
  5
1D5
330
23
100
AcDbEntity
  8
0
  6
Continuous
 62
     7
370
    25
100
AcDbCircle
 10
-6.3543307087
 20
-16.5511811024
 30
0.0
 40
0.0157480314960665
100
AcDbArc
 50
0.0
 51
90.0
  0
ARC
  5
1D6
330
23
100
AcDbEntity
  8
0
  6
Continuous
 62
     7
370
    25
100
AcDbCircle
 10
6.9212598425
 20
-16.8818897638
 30
0.0
 40
0.0708661417322816
100
AcDbArc
 50
90.0
 51
180.0
  0
ARC
  5
1D7
330
23
100
AcDbEntity
  8
0
  6
Continuous
 62
     7
370
    25
100
AcDbCircle
 10
7.9606299213
 20
-16.8818897638
 30
0.0
 40
0.0708661417322816
100
AcDbArc
 50
0.0
 51
90.0
  0
ARC
  5
1D8
330
23
100
AcDbEntity
  8
0
  6
Continuous
 62
     7
370
    25
100
AcDbCircle
 10
6.9291338583
 20
-16.6929133858
 30
0.0
 40
0.1181102362204776
100
AcDbArc
 50
270.0
 51
0.0
  0
ARC
  5
1D9
330
23
100
AcDbEntity
  8
0
  6
Continuous
 62
     7
370
    25
100
AcDbCircle
 10
7.9527559055
 20
-16.6929133858
 30
0.0
 40
0.1181102362204776
100
AcDbArc
 50
180.0
 51
270.0
  0
ARC
  5
1DA
330
23
100
AcDbEntity
  8
0
  6
Continuous
 62
     7
370
    25
100
AcDbCircle
 10
7.062992126
 20
-16.5511811024
 30
0.0
 40
0.0157480314960665
100
AcDbArc
 50
90.0
 51
180.0
  0
ARC
  5
1DB
330
23
100
AcDbEntity
  8
0
  6
Continuous
 62
     7
370
    25
100
AcDbCircle
 10
7.8188976378
 20
-16.5511811024
 30
0.0
 40
0.0157480314960674
100
AcDbArc
 50
0.0
 51
90.0
  0
VIEWPORT
  5
37D
330
23
100
AcDbEntity
  8
0
100
AcDbViewport
 10
0.0
 20
0.0
 30
0.0
 40
8.4
 41
6.4
 68
     1
 69
     1
 12
0.0
 22
-0.5905511811
 13
0.0
 23
0.0
 14
0.5
 24
0.5
 15
0.5
 25
0.5
 16
0.0
 26
0.0
 36
1.0
 17
0.0
 27
0.0
 37
0.0
 42
50.0
 43
0.0
 44
0.0
 45
33.3307086614
 50
0.0
 51
0.0
 72
   100
 90
   557152
  1

281
     0
 71
     1
 74
     0
110
0.0
120
0.0
130
0.0
111
1.0
121
0.0
131
0.0
112
0.0
122
1.0
132
0.0
 79
     0
146
0.0
  0
ENDBLK
  5
25
330
23
100
AcDbEntity
  8
0
100
AcDbBlockEnd
  0
BLOCK
  5
1DE
330
1DC
100
AcDbEntity
  8
0
100
AcDbBlockBegin
  2
*Paper_Space1
 70
     0
 10
0.0
 20
0.0
 30
0.0
  3
*Paper_Space1
  1

  0
LINE
  5
20E
330
1DC
100
AcDbEntity
  8
0
  6
Continuous
 62
     7
370
    25
100
AcDbLine
 10
11.811023622
 20
-9.4094488189
 30
0.0
 11
-11.811023622
 21
-9.4094488189
 31
0.0
  0
LINE
  5
20F
330
1DC
100
AcDbEntity
  8
0
  6
Continuous
 62
     7
370
    25
100
AcDbLine
 10
-11.811023622
 20
8.7007874016
 30
0.0
 11
-11.811023622
 21
-9.4094488189
 31
0.0
  0
LINE
  5
210
330
1DC
100
AcDbEntity
  8
0
  6
Continuous
 62
     7
370
    25
100
AcDbLine
 10
11.811023622
 20
-8.7007874016
 30
0.0
 11
-11.811023622
 21
-8.7007874016
 31
0.0
  0
LINE
  5
211
330
1DC
100
AcDbEntity
  8
0
  6
Continuous
 62
     7
370
    25
100
AcDbLine
 10
11.811023622
 20
-9.4094488189
 30
0.0
 11
11.811023622
 21
8.7007874016
 31
0.0
  0
LINE
  5
212
330
1DC
100
AcDbEntity
  8
0
  6
Continuous
 62
     7
370
    25
100
AcDbLine
 10
10.1968503937
 20
6.2598425197
 30
0.0
 11
10.1968503937
 21
-7.9921259843
 31
0.0
  0
LINE
  5
213
330
1DC
100
AcDbEntity
  8
0
  6
Continuous
 62
     7
370
    25
100
AcDbLine
 10
10.8267716535
 20
6.2598425197
 30
0.0
 11
10.8267716535
 21
-7.9921259843
 31
0.0
  0
LINE
  5
214
330
1DC
100
AcDbEntity
  8
0
  6
Continuous
 62
     7
370
    25
100
AcDbLine
 10
-10.8267716535
 20
6.2598425197
 30
0.0
 11
-10.8267716535
 21
-7.9921259843
 31
0.0
  0
LINE
  5
215
330
1DC
100
AcDbEntity
  8
0
  6
Continuous
 62
     7
370
    25
100
AcDbLine
 10
-10.8267716535
 20
6.2598425197
 30
0.0
 11
10.8267716535
 21
6.2598425197
 31
0.0
  0
LINE
  5
216
330
1DC
100
AcDbEntity
  8
0
  6
Continuous
 62
     7
370
    25
100
AcDbLine
 10
-10.1968503937
 20
6.2598425197
 30
0.0
 11
-10.1968503937
 21
-7.9921259843
 31
0.0
  0
LINE
  5
217
330
1DC
100
AcDbEntity
  8
0
  6
Continuous
 62
     7
370
    25
100
AcDbLine
 10
1.5748031496
 20
5.5511811024
 30
0.0
 11
1.5748031496
 21
6.2598425197
 31
0.0
  0
LINE
  5
218
330
1DC
100
AcDbEntity
  8
0
  6
Continuous
 62
     7
370
    25
100
AcDbLine
 10
-1.5748031496
 20
5.5511811024
 30
0.0
 11
-1.5748031496
 21
6.2598425197
 31
0.0
  0
LINE
  5
219
330
1DC
100
AcDbEntity
  8
0
  6
Continuous
 62
     7
370
    25
100
AcDbLine
 10
-10.1968503937
 20
5.5511811024
 30
0.0
 11
10.1968503937
 21
5.5511811024
 31
0.0
  0
LINE
  5
21A
330
1DC
100
AcDbEntity
  8
0
  6
Continuous
 62
     7
370
    25
100
AcDbLine
 10
-11.1023622047
 20
7.9921259843
 30
0.0
 11
11.1023622047
 21
7.9921259843
 31
0.0
  0
LINE
  5
21B
330
1DC
100
AcDbEntity
  8
0
  6
Continuous
 62
     7
370
    25
100
AcDbLine
 10
-11.811023622
 20
8.7007874016
 30
0.0
 11
11.811023622
 21
8.7007874016
 31
0.0
  0
LINE
  5
21C
330
1DC
100
AcDbEntity
  8
0
  6
Continuous
 62
     7
370
    25
100
AcDbLine
 10
-11.1023622047
 20
-7.9921259843
 30
0.0
 11
11.1023622047
 21
-7.9921259843
 31
0.0
  0
LINE
  5
21D
330
1DC
100
AcDbEntity
  8
0
  6
Continuous
 62
     7
370
    25
100
AcDbLine
 10
11.1023622047
 20
8.7007874016
 30
0.0
 11
11.1023622047
 21
-8.7007874016
 31
0.0
  0
LINE
  5
21E
330
1DC
100
AcDbEntity
  8
0
  6
Continuous
 62
     7
370
    25
100
AcDbLine
 10
-11.1023622047
 20
-8.7007874016
 30
0.0
 11
-11.1023622047
 21
8.7007874016
 31
0.0
  0
ARC
  5
21F
330
1DC
100
AcDbEntity
  8
0
  6
Continuous
 62
     7
370
    25
100
AcDbCircle
 10
-11.4173228346
 20
6.7322834646
 30
0.0
 40
0.5905511811023589
100
AcDbArc
 50
131.8103148958
 51
228.1896851042
  0
ARC
  5
220
330
1DC
100
AcDbEntity
  8
0
  6
Continuous
 62
     7
370
    25
100
AcDbCircle
 10
-11.4173228346
 20
-7.4409448819
 30
0.0
 40
0.5905511811023589
100
AcDbArc
 50
131.8103148958
 51
228.1896851042
  0
ARC
  5
221
330
1DC
100
AcDbEntity
  8
0
  6
Continuous
 62
     7
370
    25
100
AcDbCircle
 10
11.4173228346
 20
-7.4409448819
 30
0.0
 40
0.5905511811023606
100
AcDbArc
 50
311.8103148958
 51
48.1896851042
  0
ARC
  5
222
330
1DC
100
AcDbEntity
  8
0
  6
Continuous
 62
     7
370
    25
100
AcDbCircle
 10
11.4173228346
 20
6.7322834646
 30
0.0
 40
0.5905511811023626
100
AcDbArc
 50
311.8103148958
 51
48.1896851042
  0
ARC
  5
223
330
1DC
100
AcDbEntity
  8
0
  6
Continuous
 62
     8
370
    25
100
AcDbCircle
 10
-11.4173228346
 20
6.7322834646
 30
0.0
 40
0.5118110236220582
100
AcDbArc
 50
140.2848627682
 51
219.7151372318
  0
ARC
  5
224
330
1DC
100
AcDbEntity
  8
0
  6
Continuous
 62
     8
370
    25
100
AcDbCircle
 10
-11.4173228346
 20
6.7322834646
 30
0.0
 40
0.5196850393700775
100
AcDbArc
 50
139.2509456225
 51
220.7490543775
  0
ARC
  5
225
330
1DC
100
AcDbEntity
  8
0
  6
Continuous
 62
     8
370
    25
100
AcDbCircle
 10
-11.4173228346
 20
-7.4409448819
 30
0.0
 40
0.5118110236220426
100
AcDbArc
 50
140.2848627682
 51
219.7151372318
  0
ARC
  5
226
330
1DC
100
AcDbEntity
  8
0
  6
Continuous
 62
     8
370
    25
100
AcDbCircle
 10
-11.4173228346
 20
-7.4409448819
 30
0.0
 40
0.5196850393700767
100
AcDbArc
 50
139.2509456225
 51
220.7490543775
  0
ARC
  5
227
330
1DC
100
AcDbEntity
  8
0
  6
Continuous
 62
     8
370
    25
100
AcDbCircle
 10
11.4173228346
 20
-7.4409448819
 30
0.0
 40
0.5118110236220498
100
AcDbArc
 50
320.2848627682
 51
39.7151372318
  0
ARC
  5
228
330
1DC
100
AcDbEntity
  8
0
  6
Continuous
 62
     8
370
    25
100
AcDbCircle
 10
11.4173228346
 20
-7.4409448819
 30
0.0
 40
0.5196850393700817
100
AcDbArc
 50
319.2509456225
 51
40.7490543775
  0
ARC
  5
229
330
1DC
100
AcDbEntity
  8
0
  6
Continuous
 62
     8
370
    25
100
AcDbCircle
 10
11.4173228346
 20
6.7322834646
 30
0.0
 40
0.5118110236220548
100
AcDbArc
 50
320.2848627682
 51
39.7151372318
  0
ARC
  5
22A
330
1DC
100
AcDbEntity
  8
0
  6
Continuous
 62
     8
370
    25
100
AcDbCircle
 10
11.4173228346
 20
6.7322834646
 30
0.0
 40
0.519685039370082
100
AcDbArc
 50
319.2509456225
 51
40.7490543775
  0
VIEWPORT
  5
37F
330
1DC
100
AcDbEntity
  8
0
100
AcDbViewport
 10
0.0
 20
0.0
 30
0.0
 40
8.4
 41
6.4
 68
     1
 69
     1
 12
0.0
 22
-0.5905511811
 13
0.0
 23
0.0
 14
0.5
 24
0.5
 15
0.5
 25
0.5
 16
0.0
 26
0.0
 36
1.0
 17
0.0
 27
0.0
 37
0.0
 42
50.0
 43
0.0
 44
0.0
 45
33.3307086614
 50
0.0
 51
0.0
 72
   100
 90
   557152
  1

281
     0
 71
     1
 74
     0
110
0.0
120
0.0
130
0.0
111
1.0
121
0.0
131
0.0
112
0.0
122
1.0
132
0.0
 79
     0
146
0.0
  0
ENDBLK
  5
1DF
330
1DC
100
AcDbEntity
  8
0
100
AcDbBlockEnd
  0
BLOCK
  5
22D
330
22B
100
AcDbEntity
  8
0
100
AcDbBlockBegin
  2
*Paper_Space2
 70
     0
 10
0.0
 20
0.0
 30
0.0
  3
*Paper_Space2
  1

  0
CIRCLE
  5
245
330
22B
100
AcDbEntity
  8
0
  6
Continuous
 62
     7
370
    25
100
AcDbCircle
 10
-11.4173228346
 20
-6.7322834646
 30
0.0
 40
0.5118110236220482
  0
CIRCLE
  5
246
330
22B
100
AcDbEntity
  8
0
  6
Continuous
 62
     7
370
    25
100
AcDbCircle
 10
-11.4173228346
 20
-6.7322834646
 30
0.0
 40
0.5905511811023633
  0
CIRCLE
  5
247
330
22B
100
AcDbEntity
  8
0
  6
Continuous
 62
     7
370
    25
100
AcDbCircle
 10
-11.4173228346
 20
-6.7322834646
 30
0.0
 40
0.4436200469461092
  0
CIRCLE
  5
248
330
22B
100
AcDbEntity
  8
0
  6
Continuous
 62
     7
370
    25
100
AcDbCircle
 10
-11.4173228346
 20
7.4409448819
 30
0.0
 40
0.4436200469461132
  0
CIRCLE
  5
249
330
22B
100
AcDbEntity
  8
0
  6
Continuous
 62
     7
370
    25
100
AcDbCircle
 10
-11.4173228346
 20
7.4409448819
 30
0.0
 40
0.511811023622047
  0
CIRCLE
  5
24A
330
22B
100
AcDbEntity
  8
0
  6
Continuous
 62
     7
370
    25
100
AcDbCircle
 10
-11.4173228346
 20
7.4409448819
 30
0.0
 40
0.5905511811023647
  0
CIRCLE
  5
24B
330
22B
100
AcDbEntity
  8
0
  6
Continuous
 62
     7
370
    25
100
AcDbCircle
 10
11.4173228346
 20
7.4409448819
 30
0.0
 40
0.4436200469461067
  0
CIRCLE
  5
24C
330
22B
100
AcDbEntity
  8
0
  6
Continuous
 62
     7
370
    25
100
AcDbCircle
 10
11.4173228346
 20
7.4409448819
 30
0.0
 40
0.5118110236220526
  0
CIRCLE
  5
24D
330
22B
100
AcDbEntity
  8
0
  6
Continuous
 62
     7
370
    25
100
AcDbCircle
 10
11.4173228346
 20
7.4409448819
 30
0.0
 40
0.5905511811023656
  0
CIRCLE
  5
24E
330
22B
100
AcDbEntity
  8
0
  6
Continuous
 62
     7
370
    25
100
AcDbCircle
 10
11.4173228346
 20
-6.7322834646
 30
0.0
 40
0.4436200469461147
  0
CIRCLE
  5
24F
330
22B
100
AcDbEntity
  8
0
  6
Continuous
 62
     7
370
    25
100
AcDbCircle
 10
11.4173228346
 20
-6.7322834646
 30
0.0
 40
0.5118110236220454
  0
CIRCLE
  5
250
330
22B
100
AcDbEntity
  8
0
  6
Continuous
 62
     7
370
    25
100
AcDbCircle
 10
11.4173228346
 20
-6.7322834646
 30
0.0
 40
0.5905511811023612
  0
LINE
  5
251
330
22B
100
AcDbEntity
  8
0
  6
Continuous
 62
     7
370
    25
100
AcDbLine
 10
11.811023622
 20
-8.7007874016
 30
0.0
 11
11.811023622
 21
-7.1724543263
 31
0.0
  0
LINE
  5
252
330
22B
100
AcDbEntity
  8
0
  6
Continuous
 62
     7
370
    25
100
AcDbLine
 10
11.811023622
 20
-6.2921126029
 30
0.0
 11
11.811023622
 21
7.0007740202
 31
0.0
  0
LINE
  5
253
330
22B
100
AcDbEntity
  8
0
  6
Continuous
 62
     7
370
    25
100
AcDbLine
 10
11.811023622
 20
7.8811157436
 30
0.0
 11
11.811023622
 21
9.4094488189
 31
0.0
  0
LINE
  5
254
330
22B
100
AcDbEntity
  8
0
  6
Continuous
 62
     7
370
    25
100
AcDbLine
 10
11.0236220472
 20
9.4094488189
 30
0.0
 11
11.0236220472
 21
7.8811157436
 31
0.0
  0
LINE
  5
255
330
22B
100
AcDbEntity
  8
0
  6
Continuous
 62
     7
370
    25
100
AcDbLine
 10
11.0236220472
 20
7.0007740202
 30
0.0
 11
11.0236220472
 21
-6.2921126029
 31
0.0
  0
LINE
  5
256
330
22B
100
AcDbEntity
  8
0
  6
Continuous
 62
     7
370
    25
100
AcDbLine
 10
11.0236220472
 20
-7.1724543263
 30
0.0
 11
11.0236220472
 21
-8.7007874016
 31
0.0
  0
LINE
  5
257
330
22B
100
AcDbEntity
  8
0
  6
Continuous
 62
     7
370
    25
100
AcDbLine
 10
11.811023622
 20
9.4094488189
 30
0.0
 11
-11.811023622
 21
9.4094488189
 31
0.0
  0
LINE
  5
258
330
22B
100
AcDbEntity
  8
0
  6
Continuous
 62
     7
370
    25
100
AcDbLine
 10
-11.0236220472
 20
-8.7007874016
 30
0.0
 11
-11.0236220472
 21
-7.1724543263
 31
0.0
  0
LINE
  5
259
330
22B
100
AcDbEntity
  8
0
  6
Continuous
 62
     7
370
    25
100
AcDbLine
 10
-11.0236220472
 20
-6.2921126029
 30
0.0
 11
-11.0236220472
 21
7.0007740202
 31
0.0
  0
LINE
  5
25A
330
22B
100
AcDbEntity
  8
0
  6
Continuous
 62
     7
370
    25
100
AcDbLine
 10
-11.0236220472
 20
7.8811157436
 30
0.0
 11
-11.0236220472
 21
9.4094488189
 31
0.0
  0
LINE
  5
25B
330
22B
100
AcDbEntity
  8
0
  6
Continuous
 62
     7
370
    25
100
AcDbLine
 10
-11.811023622
 20
9.4094488189
 30
0.0
 11
-11.811023622
 21
7.8811157436
 31
0.0
  0
LINE
  5
25C
330
22B
100
AcDbEntity
  8
0
  6
Continuous
 62
     7
370
    25
100
AcDbLine
 10
-11.811023622
 20
7.0007740202
 30
0.0
 11
-11.811023622
 21
-6.2921126029
 31
0.0
  0
LINE
  5
25D
330
22B
100
AcDbEntity
  8
0
  6
Continuous
 62
     7
370
    25
100
AcDbLine
 10
-11.811023622
 20
-7.1724543263
 30
0.0
 11
-11.811023622
 21
-8.7007874016
 31
0.0
  0
LINE
  5
25E
330
22B
100
AcDbEntity
  8
0
  6
Continuous
 62
     7
370
    25
100
AcDbLine
 10
-11.811023622
 20
-8.7007874016
 30
0.0
 11
11.811023622
 21
-8.7007874016
 31
0.0
  0
LINE
  5
25F
330
22B
100
AcDbEntity
  8
0
  6
Continuous
 62
     7
370
    25
100
AcDbLine
 10
-10.8267716535
 20
-7.7165354331
 30
0.0
 11
10.8267716535
 21
-7.7165354331
 31
0.0
  0
LINE
  5
260
330
22B
100
AcDbEntity
  8
0
  6
Continuous
 62
     7
370
    25
100
AcDbLine
 10
-10.8267716535
 20
8.4251968504
 30
0.0
 11
-10.8267716535
 21
-7.7165354331
 31
0.0
  0
LINE
  5
261
330
22B
100
AcDbEntity
  8
0
  6
Continuous
 62
     7
370
    25
100
AcDbLine
 10
10.8267716535
 20
8.4251968504
 30
0.0
 11
-10.8267716535
 21
8.4251968504
 31
0.0
  0
LINE
  5
262
330
22B
100
AcDbEntity
  8
0
  6
Continuous
 62
     7
370
    25
100
AcDbLine
 10
10.8267716535
 20
-7.7165354331
 30
0.0
 11
10.8267716535
 21
8.4251968504
 31
0.0
  0
VIEWPORT
  5
381
330
22B
100
AcDbEntity
  8
0
100
AcDbViewport
 10
0.0
 20
0.0
 30
0.0
 40
8.4
 41
6.4
 68
     1
 69
     1
 12
0.0
 22
-0.5905511811
 13
0.0
 23
0.0
 14
0.5
 24
0.5
 15
0.5
 25
0.5
 16
0.0
 26
0.0
 36
1.0
 17
0.0
 27
0.0
 37
0.0
 42
50.0
 43
0.0
 44
0.0
 45
33.3307086614
 50
0.0
 51
0.0
 72
   100
 90
   557152
  1

281
     0
 71
     1
 74
     0
110
0.0
120
0.0
130
0.0
111
1.0
121
0.0
131
0.0
112
0.0
122
1.0
132
0.0
 79
     0
146
0.0
  0
ENDBLK
  5
22E
330
22B
100
AcDbEntity
  8
0
100
AcDbBlockEnd
  0
BLOCK
  5
265
330
263
100
AcDbEntity
  8
0
100
AcDbBlockBegin
  2
*Paper_Space3
 70
     0
 10
0.0
 20
0.0
 30
0.0
  3
*Paper_Space3
  1

  0
SPLINE
  5
267
330
263
100
AcDbEntity
  8
0
  6
Continuous
 62
     7
370
    25
100
AcDbSpline
210
0.0
220
0.0
230
1.0
 70
     8
 71
     3
 72
    12
 73
     8
 74
     0
 42
0.000000001
 43
0.00000001
 40
0.0
 40
0.0
 40
0.0
 40
0.0
 40
0.1517957082726484
 40
0.3723888231235203
 40
0.5954378307756102
 40
0.8247322792403509
 40
1.0
 40
1.0
 40
1.0
 40
1.0
 10
-12.74583875038407
 20
-12.15111970612904
 30
0.0
 10
-12.74641315821547
 20
-12.13851642079997
 30
0.0
 10
-12.74782230909835
 20
-12.10759774302844
 30
0.0
 10
-12.76412391996442
 20
-12.05979478961766
 30
0.0
 10
-12.79225855180549
 20
-12.00941657543079
 30
0.0
 10
-12.8273559584838
 20
-11.96601916817072
 30
0.0
 10
-12.85682710947989
 20
-11.94196247981865
 30
0.0
 10
-12.86959484174995
 20
-11.9315404451915
 30
0.0
  0
SPLINE
  5
26A
330
263
100
AcDbEntity
  8
0
  6
Continuous
 62
     7
370
    25
100
AcDbSpline
210
0.0
220
0.0
230
1.0
 70
     8
 71
     3
 72
    12
 73
     8
 74
     0
 42
0.000000001
 43
0.00000001
 40
0.0
 40
0.0
 40
0.0
 40
0.0
 40
0.1467680267238434
 40
0.3667664936731788
 40
0.5890519487948519
 40
0.8174817318205178
 40
1.0
 40
1.0
 40
1.0
 40
1.0
 10
3.400674475086888
 20
-21.4729940264635
 30
0.0
 10
3.400202517689885
 20
-21.46077255568802
 30
0.0
 10
3.39902311803775
 20
-21.43023166688608
 30
0.0
 10
3.383144692002696
 20
-21.38272904391844
 30
0.0
 10
3.355410077769925
 20
-21.3322353084254
 30
0.0
 10
3.320148948608088
 20
-21.28821095315994
 30
0.0
 10
3.29028364124488
 20
-21.26361327698238
 30
0.0
 10
3.277019278115294
 20
-21.25268847701312
 30
0.0
  0
SPLINE
  5
26D
330
263
100
AcDbEntity
  8
0
  6
Continuous
 62
     7
370
    25
100
AcDbSpline
210
0.0
220
0.0
230
1.0
 70
     8
 71
     3
 72
    12
 73
     8
 74
     0
 42
0.000000001
 43
0.00000001
 40
0.0
 40
0.0
 40
0.0
 40
0.0
 40
0.1467680267238428
 40
0.3667664936731737
 40
0.5890519487948421
 40
0.8174817318205032
 40
0.9999999999999999
 40
0.9999999999999999
 40
0.9999999999999999
 40
0.9999999999999999
 10
13.42266035017184
 20
-15.68742473008211
 30
0.0
 10
13.42218839277484
 20
-15.67520325930663
 30
0.0
 10
13.4210089931227
 20
-15.64466237050469
 30
0.0
 10
13.40513056708765
 20
-15.59715974753705
 30
0.0
 10
13.37739595285487
 20
-15.546666012044
 30
0.0
 10
13.34213482369304
 20
-15.50264165677854
 30
0.0
 10
13.31226951632983
 20
-15.47804398060098
 30
0.0
 10
13.29900515320024
 20
-15.46711918063173
 30
0.0
  0
LWPOLYLINE
  5
2A9
330
263
100
AcDbEntity
  8
0
  6
Continuous
 62
     7
370
    25
100
AcDbPolyline
 90
       17
 70
   128
 43
0.0
 10
-13.7502713498
 20
-12.4424383688
 10
-13.6813365608
 20
-12.4762105172
 10
-13.604279459
 20
-12.5035121604
 10
-13.5209061978
 20
-12.5237033713
 10
-13.4331709755
 20
-12.5363108848
 10
-13.3431302316
 20
-12.5410391915
 10
-13.2528944446
 20
-12.537777464
 10
-13.1645786651
 20
-12.5266021544
 10
-13.0802529399
 20
-12.5077752024
 10
-13.0018937926
 20
-12.4817378959
 10
-12.9313378953
 20
-12.4491005272
 10
-12.8702390183
 20
-12.4106280887
 10
-12.8200292675
 20
-12.3672223416
 10
-12.781885517
 20
-12.3199006799
 10
-12.7567018239
 20
-12.2697722832
 10
-12.7450684726
 20
-12.2180121187
 10
-12.7442578027
 20
-12.200155097
  0
LWPOLYLINE
  5
2AC
330
263
100
AcDbEntity
  8
0
  6
Continuous
 62
     7
370
    25
100
AcDbPolyline
 90
       17
 70
   128
 43
0.0
 10
2.3941410702
 20
-21.7624154619
 10
2.4627786701
 20
-21.7963887365
 10
2.5395952484
 20
-21.823915338
 10
2.6227902897
 20
-21.8443500662
 10
2.7104137727
 20
-21.8572139484
 10
2.8004118772
 20
-21.862205466
 10
2.890675124
 20
-21.8592076221
 10
2.979087819
 20
-21.8482906837
 10
3.0635776436
 20
-21.8297105344
 10
3.1421642279
 20
-21.8039026774
 10
3.213005569
 20
-21.7714720268
 10
3.2744412058
 20
-21.7331787297
 10
3.3250311393
 20
-21.6899203484
 10
3.3635895841
 20
-21.6427108228
 10
3.389212763
 20
-21.5926567041
 10
3.4013000904
 20
-21.5409312184
 10
3.4022749961
 20
-21.5213500745
  0
LWPOLYLINE
  5
2AF
330
263
100
AcDbEntity
  8
0
  6
Continuous
 62
     7
370
    25
100
AcDbPolyline
 90
       17
 70
   128
 43
0.0
 10
12.4161269452
 20
-15.9768461655
 10
12.4847645451
 20
-16.0108194401
 10
12.5615811235
 20
-16.0383460416
 10
12.6447761648
 20
-16.0587807698
 10
12.7323996478
 20
-16.071644652
 10
12.8223977523
 20
-16.0766361696
 10
12.9126609991
 20
-16.0736383257
 10
13.0010736941
 20
-16.0627213873
 10
13.0855635186
 20
-16.0441412381
 10
13.1641501029
 20
-16.018333381
 10
13.234991444
 20
-15.9859027305
 10
13.2964270809
 20
-15.9476094333
 10
13.3470170144
 20
-15.904351052
 10
13.3855754592
 20
-15.8571415264
 10
13.4111986381
 20
-15.8070874077
 10
13.4232859655
 20
-15.755361922
 10
13.4242608711
 20
-15.7357807781
  0
LWPOLYLINE
  5
2F9
330
263
100
AcDbEntity
  8
0
  6
Continuous
 62
     8
370
    25
100
AcDbPolyline
 90
       18
 70
   128
 43
0.0
 10
-13.6091879745
 20
-12.3584984727
 10
-13.5606852418
 20
-12.3739014682
 10
-13.4805693119
 20
-12.3916788617
 10
-13.3964774203
 20
-12.4016013046
 10
-13.3107033745
 20
-12.4033981383
 10
-13.2255868669
 20
-12.39702035
 10
-13.1434496539
 20
-12.3826419092
 10
-13.0665322246
 20
-12.3606550222
 10
-12.9969326859
 20
-12.3316594339
 10
-12.9365495319
 20
-12.2964460684
 10
-12.8870298575
 20
-12.2559754546
 10
-12.8497244304
 20
-12.2113515253
 10
-12.8256508454
 20
-12.163791505
 10
-12.8154657672
 20
-12.1145927069
 10
-12.819447018
 20
-12.0650971462
 10
-12.8374859999
 20
-12.0166549326
 10
-12.8690906563
 20
-11.9705874435
 10
-12.8934602446
 20
-11.945317649
  0
LWPOLYLINE
  5
2FA
330
263
100
AcDbEntity
  8
0
  6
Continuous
 62
     8
370
    25
100
AcDbPolyline
 90
       17
 70
   128
 43
0.0
 10
-13.7176897129
 20
-12.421135193
 10
-13.6813365608
 20
-12.4376337859
 10
-13.604279459
 20
-12.4649354292
 10
-13.5209061978
 20
-12.48512664
 10
-13.4331709755
 20
-12.4977341535
 10
-13.3431302316
 20
-12.5024624603
 10
-13.2528944446
 20
-12.4992007328
 10
-13.1645786651
 20
-12.4880254231
 10
-13.0802529399
 20
-12.4691984712
 10
-13.0018937926
 20
-12.4431611646
 10
-12.9313378953
 20
-12.410523796
 10
-12.8702390183
 20
-12.3720513574
 10
-12.8200292675
 20
-12.3286456103
 10
-12.781885517
 20
-12.2813239486
 10
-12.7567018239
 20
-12.231195552
 10
-12.7450684726
 20
-12.1794353874
 10
-12.7442578027
 20
-12.1615783657
  0
LWPOLYLINE
  5
2FB
330
263
100
AcDbEntity
  8
0
  6
Continuous
 62
     8
370
    25
100
AcDbPolyline
 90
       11
 70
   128
 43
0.0
 10
-13.3905183567
 20
-12.2322631893
 10
-13.3421845382
 20
-12.2345101812
 10
-13.2675559643
 20
-12.2312094783
 10
-13.1953580897
 20
-12.2198150712
 10
-13.1282003337
 20
-12.2007387835
 10
-13.0685099527
 20
-12.174670082
 10
-13.0184443125
 20
-12.1425511575
 10
-12.9798129158
 20
-12.1055428715
 10
-12.9540120019
 20
-12.0649828
 10
-12.9419740831
 20
-12.0223368895
 10
-12.941111445
 20
-12.0081947351
  0
LWPOLYLINE
  5
2FC
330
263
100
AcDbEntity
  8
0
  6
Continuous
 62
     8
370
    25
100
AcDbPolyline
 90
       18
 70
   128
 43
0.0
 10
-13.6034683098
 20
-12.3551965805
 10
-13.5572628742
 20
-12.3698077076
 10
-13.4783608221
 20
-12.3873157467
 10
-13.3955430501
 20
-12.3970878495
 10
-13.311068611
 20
-12.3988574585
 10
-13.2272417474
 20
-12.3925763034
 10
-13.1463490377
 20
-12.3784157177
 10
-13.070597024
 20
-12.3567619653
 10
-13.0020520237
 20
-12.3282057041
 10
-12.942583766
 20
-12.2935258745
 10
-12.8938143897
 20
-12.2536684518
 10
-12.8570741964
 20
-12.2097206426
 10
-12.8333653627
 20
-12.1628812286
 10
-12.8233346038
 20
-12.114427867
 10
-12.8272555327
 20
-12.065682239
 10
-12.8450211966
 20
-12.0179739983
 10
-12.8761469946
 20
-11.9726045015
 10
-12.8991799094
 20
-11.9486195412
  0
LWPOLYLINE
  5
2FD
330
263
100
AcDbEntity
  8
0
  6
Continuous
 62
     8
370
    25
100
AcDbPolyline
 90
       18
 70
   128
 43
0.0
 10
2.5373448242
 20
-21.6796934502
 10
2.5834799184
 20
-21.694432537
 10
2.663438848
 20
-21.7124439547
 10
2.747442605
 20
-21.7226121478
 10
2.8331997858
 20
-21.7246597546
 10
2.9183711581
 20
-21.7185309216
 10
3.0006334689
 20
-21.7043928274
 10
3.0777428168
 20
-21.6826311224
 10
3.1475958598
 20
-21.6538394092
 10
3.208287189
 20
-21.6188030507
 10
3.2581613031
 20
-21.5784777473
 10
3.2958577662
 20
-21.5339634683
 10
3.3203483173
 20
-21.4864744471
 10
3.3309649177
 20
-21.4373060604
 10
3.3274179745
 20
-21.3877994937
 10
3.3098042389
 20
-21.339305157
 10
3.2786041677
 20
-21.2931458495
 10
3.2530725541
 20
-21.2665126265
  0
LWPOLYLINE
  5
2FE
330
263
100
AcDbEntity
  8
0
  6
Continuous
 62
     8
370
    25
100
AcDbPolyline
 90
       17
 70
   128
 43
0.0
 10
2.4288430858
 20
-21.7423301705
 10
2.4627786701
 20
-21.7578120052
 10
2.5395952484
 20
-21.7853386068
 10
2.6227902897
 20
-21.8057733349
 10
2.7104137727
 20
-21.8186372171
 10
2.8004118772
 20
-21.8236287347
 10
2.890675124
 20
-21.8206308908
 10
2.979087819
 20
-21.8097139524
 10
3.0635776436
 20
-21.7911338032
 10
3.1421642279
 20
-21.7653259461
 10
3.213005569
 20
-21.7328952956
 10
3.2744412058
 20
-21.6946019984
 10
3.3250311393
 20
-21.6513436172
 10
3.3635895841
 20
-21.6041340915
 10
3.389212763
 20
-21.5540799728
 10
3.4013000904
 20
-21.5023544872
 10
3.4022749961
 20
-21.4827733432
  0
LWPOLYLINE
  5
2FF
330
263
100
AcDbEntity
  8
0
  6
Continuous
 62
     8
370
    25
100
AcDbPolyline
 90
       11
 70
   128
 43
0.0
 10
2.7560144421
 20
-21.5534581668
 10
2.8023546427
 20
-21.5556806784
 10
2.8770112186
 20
-21.5525982255
 10
2.9493081376
 20
-21.541415065
 10
3.0166324008
 20
-21.5225353857
 10
3.0765507337
 20
-21.4966415482
 10
3.1268975319
 20
-21.4646694233
 10
3.1658531307
 20
-21.4277745669
 10
3.1920095733
 20
-21.3872904553
 10
3.2044214979
 20
-21.3446802897
 10
3.20542147
 20
-21.3293730427
  0
LWPOLYLINE
  5
300
330
263
100
AcDbEntity
  8
0
  6
Continuous
 62
     8
370
    25
100
AcDbPolyline
 90
       18
 70
   128
 43
0.0
 10
2.543064489
 20
-21.676391558
 10
2.5869381592
 20
-21.6903488356
 10
2.6656855899
 20
-21.7080873531
 10
2.7484165627
 20
-21.7181014827
 10
2.8328743923
 20
-21.7201180651
 10
2.9167552893
 20
-21.7140820932
 10
2.9977712015
 20
-21.7001582125
 10
3.0737122259
 20
-21.6787262304
 10
3.1425068895
 20
-21.6503707552
 10
3.202278653
 20
-21.6158652506
 10
3.2513970987
 20
-21.5761509367
 10
3.2885224033
 20
-21.5323111164
 10
3.3126418854
 20
-21.4855416259
 10
3.3230976283
 20
-21.4371182147
 10
3.3196044266
 20
-21.3883617475
 10
3.3022575658
 20
-21.3406021735
 10
3.271530223
 20
-21.2951422494
 10
3.2473528894
 20
-21.2698145187
  0
LWPOLYLINE
  5
301
330
263
100
AcDbEntity
  8
0
  6
Continuous
 62
     8
370
    25
100
AcDbPolyline
 90
       18
 70
   128
 43
0.0
 10
12.5593306993
 20
-15.8941241538
 10
12.6054657935
 20
-15.9088632406
 10
12.6854247231
 20
-15.9268746583
 10
12.7694284801
 20
-15.9370428514
 10
12.8551856609
 20
-15.9390904582
 10
12.9403570332
 20
-15.9329616252
 10
13.022619344
 20
-15.918823531
 10
13.0997286919
 20
-15.897061826
 10
13.1695817349
 20
-15.8682701128
 10
13.2302730641
 20
-15.8332337543
 10
13.2801471781
 20
-15.7929084509
 10
13.3178436413
 20
-15.7483941719
 10
13.3423341923
 20
-15.7009051507
 10
13.3529507928
 20
-15.651736764
 10
13.3494038496
 20
-15.6022301973
 10
13.331790114
 20
-15.5537358607
 10
13.3005900428
 20
-15.5075765531
 10
13.2750584292
 20
-15.4809433301
  0
LWPOLYLINE
  5
302
330
263
100
AcDbEntity
  8
0
  6
Continuous
 62
     8
370
    25
100
AcDbPolyline
 90
       17
 70
   128
 43
0.0
 10
12.4508289609
 20
-15.9567608741
 10
12.4847645451
 20
-15.9722427088
 10
12.5615811235
 20
-15.9997693104
 10
12.6447761648
 20
-16.0202040386
 10
12.7323996478
 20
-16.0330679207
 10
12.8223977523
 20
-16.0380594383
 10
12.9126609991
 20
-16.0350615944
 10
13.0010736941
 20
-16.024144656
 10
13.0855635186
 20
-16.0055645068
 10
13.1641501029
 20
-15.9797566498
 10
13.234991444
 20
-15.9473259992
 10
13.2964270809
 20
-15.909032702
 10
13.3470170144
 20
-15.8657743208
 10
13.3855754592
 20
-15.8185647951
 10
13.4111986381
 20
-15.7685106764
 10
13.4232859655
 20
-15.7167851908
 10
13.4242608711
 20
-15.6972040469
  0
LWPOLYLINE
  5
303
330
263
100
AcDbEntity
  8
0
  6
Continuous
 62
     8
370
    25
100
AcDbPolyline
 90
       11
 70
   128
 43
0.0
 10
12.7780003171
 20
-15.7678888704
 10
12.8243405178
 20
-15.7701113821
 10
12.8989970937
 20
-15.7670289291
 10
12.9712940127
 20
-15.7558457687
 10
13.0386182759
 20
-15.7369660893
 10
13.0985366088
 20
-15.7110722518
 10
13.1488834069
 20
-15.6791001269
 10
13.1878390058
 20
-15.6422052705
 10
13.2139954484
 20
-15.6017211589
 10
13.226407373
 20
-15.5591109934
 10
13.2274073451
 20
-15.5438037464
  0
LWPOLYLINE
  5
304
330
263
100
AcDbEntity
  8
0
  6
Continuous
 62
     8
370
    25
100
AcDbPolyline
 90
       18
 70
   128
 43
0.0
 10
12.5650503641
 20
-15.8908222616
 10
12.6089240343
 20
-15.9047795393
 10
12.687671465
 20
-15.9225180567
 10
12.7704024378
 20
-15.9325321863
 10
12.8548602674
 20
-15.9345487687
 10
12.9387411644
 20
-15.9285127968
 10
13.0197570765
 20
-15.9145889162
 10
13.095698101
 20
-15.893156934
 10
13.1644927645
 20
-15.8648014589
 10
13.2242645281
 20
-15.8302959542
 10
13.2733829738
 20
-15.7905816403
 10
13.3105082784
 20
-15.74674182
 10
13.3346277605
 20
-15.6999723295
 10
13.3450835034
 20
-15.6515489184
 10
13.3415903017
 20
-15.6027924512
 10
13.3242434409
 20
-15.5550328772
 10
13.2935160981
 20
-15.5095729531
 10
13.2693387644
 20
-15.4842452223
  0
LINE
  5
305
330
263
100
AcDbEntity
  8
0
  6
Continuous
 62
     7
370
    25
100
AcDbLine
 10
-12.7442578027
 20
-12.200155097
 30
0.0
 11
-12.7442578027
 21
-12.1615783657
 31
0.0
  0
LINE
  5
306
330
263
100
AcDbEntity
  8
0
  6
Continuous
 62
     7
370
    25
100
AcDbLine
 10
-12.9411081964
 20
-12.0072714407
 30
0.0
 11
-12.9411081964
 21
-11.9728242261
 31
0.0
  0
LINE
  5
307
330
263
100
AcDbEntity
  8
0
  6
Continuous
 62
     7
370
    25
100
AcDbLine
 10
3.4022749961
 20
-21.5213500745
 30
0.0
 11
3.4022749961
 21
-21.4827733432
 31
0.0
  0
LINE
  5
308
330
263
100
AcDbEntity
  8
0
  6
Continuous
 62
     7
370
    25
100
AcDbLine
 10
3.2054246024
 20
-21.3284664182
 30
0.0
 11
3.2054246024
 21
-21.2940192036
 31
0.0
  0
LINE
  5
309
330
263
100
AcDbEntity
  8
0
  6
Continuous
 62
     7
370
    25
100
AcDbLine
 10
13.4242608711
 20
-15.7357807781
 30
0.0
 11
13.4242608711
 21
-15.6972040469
 31
0.0
  0
LINE
  5
30A
330
263
100
AcDbEntity
  8
0
  6
Continuous
 62
     7
370
    25
100
AcDbLine
 10
13.2274104774
 20
-15.5428971218
 30
0.0
 11
13.2274104774
 21
-15.5084499072
 31
0.0
  0
LINE
  5
30B
330
263
100
AcDbEntity
  8
0
  6
Continuous
 62
     7
370
    25
100
AcDbLine
 10
1.1413928358
 20
-17.0207314263
 30
0.0
 11
-13.8915859769
 21
-8.3423774817
 31
0.0
  0
LINE
  5
30C
330
263
100
AcDbEntity
  8
0
  6
Continuous
 62
     7
370
    25
100
AcDbLine
 10
-6.9306518234
 20
-4.3239157303
 30
0.0
 11
-14.4483629699
 21
-8.6637979982
 31
0.0
  0
LINE
  5
30D
330
263
100
AcDbEntity
  8
0
  6
Continuous
 62
     7
370
    25
100
AcDbLine
 10
13.9472636762
 20
-10.9137416135
 30
0.0
 11
6.4295525296
 21
-6.5738593456
 31
0.0
  0
LINE
  5
30E
330
263
100
AcDbEntity
  8
0
  6
Continuous
 62
     7
370
    25
100
AcDbLine
 10
2.2549468219
 20
-17.0207314263
 30
0.0
 11
13.3904866831
 21
-10.592321097
 31
0.0
  0
LINE
  5
30F
330
263
100
AcDbEntity
  8
0
  6
Continuous
 62
     7
370
    25
100
AcDbLine
 10
11.4417672074
 20
-10.592321097
 30
0.0
 11
5.4551927918
 21
-7.1363452494
 31
0.0
  0
LINE
  5
310
330
263
100
AcDbEntity
  8
0
  6
Continuous
 62
     7
370
    25
100
AcDbLine
 10
-5.9562920855
 20
-4.8864016341
 30
0.0
 11
-11.9428665011
 21
-8.3423774817
 31
0.0
  0
LINE
  5
311
330
263
100
AcDbEntity
  8
0
  6
Continuous
 62
     7
370
    25
100
AcDbLine
 10
-11.9428665011
 20
-8.3423774817
 30
0.0
 11
1.1413928358
 21
-15.8957596187
 31
0.0
  0
LINE
  5
312
330
263
100
AcDbEntity
  8
0
  6
Continuous
 62
     7
370
    25
100
AcDbLine
 10
2.2549468219
 20
-15.8957596187
 30
0.0
 11
11.4417672074
 21
-10.592321097
 31
0.0
  0
LINE
  5
313
330
263
100
AcDbEntity
  8
0
  6
Continuous
 62
     7
370
    25
100
AcDbLine
 10
-11.7758334032
 20
-8.4066877071
 30
0.0
 11
-11.8036496281
 21
-8.4227456719
 31
0.0
  0
LINE
  5
314
330
263
100
AcDbEntity
  8
0
  6
Continuous
 62
     7
370
    25
100
AcDbLine
 10
11.3025503343
 20
-10.6726892871
 30
0.0
 11
11.2747341095
 21
-10.6566313224
 31
0.0
  0
LINE
  5
315
330
263
100
AcDbEntity
  8
0
  6
Continuous
 62
     7
370
    25
100
AcDbLine
 10
-11.7758334032
 20
-8.4388036367
 30
0.0
 11
-11.7758334032
 21
-8.3423774817
 31
0.0
  0
LINE
  5
316
330
263
100
AcDbEntity
  8
0
  6
Continuous
 62
     7
370
    25
100
AcDbLine
 10
-11.7758334032
 20
-8.3423774817
 30
0.0
 11
1.1413928358
 21
-15.7993334637
 31
0.0
  0
LINE
  5
317
330
263
100
AcDbEntity
  8
0
  6
Continuous
 62
     7
370
    25
100
AcDbLine
 10
11.2747341095
 20
-10.6887472519
 30
0.0
 11
11.2747341095
 21
-10.592321097
 31
0.0
  0
LINE
  5
318
330
263
100
AcDbEntity
  8
0
  6
Continuous
 62
     7
370
    25
100
AcDbLine
 10
2.2549468219
 20
-15.7993334637
 30
0.0
 11
11.2747341095
 21
-10.592321097
 31
0.0
  0
LINE
  5
319
330
263
100
AcDbEntity
  8
0
  6
Continuous
 62
     7
370
    25
100
AcDbLine
 10
-5.8727755366
 20
-4.9346147116
 30
0.0
 11
-11.7758334032
 21
-8.3423774817
 31
0.0
  0
LINE
  5
31A
330
263
100
AcDbEntity
  8
0
  6
Continuous
 62
     7
370
    25
100
AcDbLine
 10
11.2747341095
 20
-10.592321097
 30
0.0
 11
5.3716762428
 21
-7.1845583269
 31
0.0
  0
LINE
  5
31B
330
263
100
AcDbEntity
  8
0
  6
Continuous
 62
     7
370
    25
100
AcDbLine
 10
-15.005139963
 20
0.9803325752
 30
0.0
 11
1.6981698288
 21
-8.6622829187
 31
0.0
  0
LINE
  5
31C
330
263
100
AcDbEntity
  8
0
  6
Continuous
 62
     7
370
    25
100
AcDbLine
 10
1.6981698288
 20
-8.6622829187
 30
0.0
 11
14.5040406692
 21
-1.26961104
 31
0.0
  0
LINE
  5
31D
330
263
100
AcDbEntity
  8
0
  6
Continuous
 62
     7
370
    25
100
AcDbLine
 10
1.1413928358
 20
-17.6635724592
 30
0.0
 11
1.1413928358
 21
-8.9838079235
 31
0.0
  0
LINE
  5
31E
330
263
100
AcDbEntity
  8
0
  6
Continuous
 62
     7
370
    25
100
AcDbLine
 10
-14.4483629699
 20
0.0159665376
 30
0.0
 11
1.1413928358
 21
-8.9838079235
 31
0.0
  0
LINE
  5
31F
330
263
100
AcDbEntity
  8
0
  6
Continuous
 62
     7
370
    25
100
AcDbLine
 10
-14.4483629699
 20
-8.6637979982
 30
0.0
 11
-14.4483629699
 21
0.0159665376
 31
0.0
  0
LINE
  5
320
330
263
100
AcDbEntity
  8
0
  6
Continuous
 62
     7
370
    25
100
AcDbLine
 10
1.1413928358
 20
-17.6635724592
 30
0.0
 11
-14.4483629699
 21
-8.6637979982
 31
0.0
  0
LINE
  5
321
330
263
100
AcDbEntity
  8
0
  6
Continuous
 62
     7
370
    25
100
AcDbLine
 10
1.6981698288
 20
-22.1641388633
 30
0.0
 11
1.1413928358
 21
-21.8427183469
 31
0.0
  0
LINE
  5
322
330
263
100
AcDbEntity
  8
0
  6
Continuous
 62
     7
370
    25
100
AcDbLine
 10
1.1413928358
 20
-21.8427183469
 30
0.0
 11
1.1413928358
 21
-18.3065179804
 31
0.0
  0
LINE
  5
323
330
263
100
AcDbEntity
  8
0
  6
Continuous
 62
     7
370
    25
100
AcDbLine
 10
1.1413928358
 20
-18.3065179804
 30
0.0
 11
-14.4483629699
 21
-9.3067435194
 31
0.0
  0
LINE
  5
324
330
263
100
AcDbEntity
  8
0
  6
Continuous
 62
     7
370
    25
100
AcDbLine
 10
-14.4483629699
 20
-12.8429438858
 30
0.0
 11
-14.4483629699
 21
-9.3067435194
 31
0.0
  0
LINE
  5
325
330
263
100
AcDbEntity
  8
0
  6
Continuous
 62
     7
370
    25
100
AcDbLine
 10
-14.4483629699
 20
-12.8429438858
 30
0.0
 11
-15.005139963
 21
-12.5215233693
 31
0.0
  0
LINE
  5
326
330
263
100
AcDbEntity
  8
0
  6
Continuous
 62
     7
370
    25
100
AcDbLine
 10
-15.005139963
 20
-12.5215233693
 30
0.0
 11
-15.005139963
 21
13.8392429986
 31
0.0
  0
LINE
  5
327
330
263
100
AcDbEntity
  8
0
  6
Continuous
 62
     7
370
    25
100
AcDbLine
 10
1.6981698288
 20
-22.1641388633
 30
0.0
 11
1.6981698288
 21
4.1966275046
 31
0.0
  0
LINE
  5
328
330
263
100
AcDbEntity
  8
0
  6
Continuous
 62
     7
370
    25
100
AcDbLine
 10
13.9472636762
 20
-10.9137416135
 30
0.0
 11
13.9472636762
 21
-2.2339770777
 31
0.0
  0
LINE
  5
329
330
263
100
AcDbEntity
  8
0
  6
Continuous
 62
     7
370
    25
100
AcDbLine
 10
2.2549468219
 20
-8.9838079235
 30
0.0
 11
13.9472636762
 21
-2.2339770777
 31
0.0
  0
LINE
  5
32A
330
263
100
AcDbEntity
  8
0
  6
Continuous
 62
     7
370
    25
100
AcDbLine
 10
2.2549468219
 20
-17.6635724592
 30
0.0
 11
2.2549468219
 21
-8.9838079235
 31
0.0
  0
LINE
  5
32B
330
263
100
AcDbEntity
  8
0
  6
Continuous
 62
     7
370
    25
100
AcDbLine
 10
13.9472636762
 20
-10.9137416135
 30
0.0
 11
2.2549468219
 21
-17.6635724592
 31
0.0
  0
LINE
  5
32C
330
263
100
AcDbEntity
  8
0
  6
Continuous
 62
     7
370
    25
100
AcDbLine
 10
14.5040406692
 20
-14.7714669846
 30
0.0
 11
14.5040406692
 21
11.5892993834
 31
0.0
  0
LINE
  5
32D
330
263
100
AcDbEntity
  8
0
  6
Continuous
 62
     7
370
    25
100
AcDbLine
 10
14.5040406692
 20
-14.7714669846
 30
0.0
 11
1.6981698288
 21
-22.1641388633
 31
0.0
  0
LINE
  5
32E
330
263
100
AcDbEntity
  8
0
  6
Continuous
 62
     7
370
    25
100
AcDbLine
 10
13.9472636762
 20
-14.4499419799
 30
0.0
 11
2.2549468219
 21
-21.1997728257
 31
0.0
  0
LINE
  5
32F
330
263
100
AcDbEntity
  8
0
  6
Continuous
 62
     7
370
    25
100
AcDbLine
 10
13.9472636762
 20
-14.4499419799
 30
0.0
 11
13.9472636762
 21
-11.5566871346
 31
0.0
  0
LINE
  5
330
330
263
100
AcDbEntity
  8
0
  6
Continuous
 62
     7
370
    25
100
AcDbLine
 10
13.9472636762
 20
-11.5566871346
 30
0.0
 11
2.2549468219
 21
-18.3065179804
 31
0.0
  0
LINE
  5
331
330
263
100
AcDbEntity
  8
0
  6
Continuous
 62
     7
370
    25
100
AcDbLine
 10
2.2549468219
 20
-21.1997728257
 30
0.0
 11
2.2549468219
 21
-18.3065179804
 31
0.0
  0
LINE
  5
332
330
263
100
AcDbEntity
  8
0
  6
Continuous
 62
     7
370
    25
100
AcDbLine
 10
13.3904866831
 20
-14.1285214634
 30
0.0
 11
13.9472636762
 21
-14.4499419799
 31
0.0
  0
LINE
  5
333
330
263
100
AcDbEntity
  8
0
  6
Continuous
 62
     7
370
    25
100
AcDbLine
 10
13.3904866831
 20
-14.1285214634
 30
0.0
 11
2.2549468219
 21
-20.5569317927
 31
0.0
  0
LINE
  5
334
330
263
100
AcDbEntity
  8
0
  6
Continuous
 62
     7
370
    25
100
AcDbLine
 10
13.3904866831
 20
-10.592321097
 30
0.0
 11
13.3904866831
 21
-2.5553975941
 31
0.0
  0
LINE
  5
335
330
263
100
AcDbEntity
  8
0
  6
Continuous
 62
     7
370
    25
100
AcDbLine
 10
-13.8915859769
 20
-8.3423774817
 30
0.0
 11
-13.8915859769
 21
-0.3054539789
 31
0.0
  0
LINE
  5
336
330
263
100
AcDbEntity
  8
0
  6
Continuous
 62
     7
370
    25
100
AcDbLine
 10
13.3904866831
 20
-14.1285214634
 30
0.0
 11
13.3904866831
 21
-11.8781076511
 31
0.0
  0
LINE
  5
337
330
263
100
AcDbEntity
  8
0
  6
Continuous
 62
     7
370
    25
100
AcDbLine
 10
6.9863295227
 20
-6.2524388291
 30
0.0
 11
13.3904866831
 21
-9.9494800641
 31
0.0
  0
LINE
  5
338
330
263
100
AcDbEntity
  8
0
  6
Continuous
 62
     7
370
    25
100
AcDbLine
 10
-11.3855917621
 20
-11.0748437026
 30
0.0
 11
-14.4483629699
 21
-12.8429438858
 31
0.0
  0
LINE
  5
339
330
263
100
AcDbEntity
  8
0
  6
Continuous
 62
     7
370
    25
100
AcDbLine
 10
-13.8915859769
 20
-11.8785778482
 30
0.0
 11
-13.8915859769
 21
-9.6281640358
 31
0.0
  0
LINE
  5
33A
330
263
100
AcDbEntity
  8
0
  6
Continuous
 62
     7
370
    25
100
AcDbLine
 10
-11.9424592544
 20
-10.753370942
 30
0.0
 11
-13.8915859769
 21
-11.8785778482
 31
0.0
  0
LINE
  5
33B
330
263
100
AcDbEntity
  8
0
  6
Continuous
 62
     7
370
    25
100
AcDbLine
 10
-13.8915859769
 20
-7.6995364488
 30
0.0
 11
-7.4874288165
 21
-4.0024952138
 31
0.0
  0
LINE
  5
33C
330
263
100
AcDbEntity
  8
0
  6
Continuous
 62
     7
370
    25
100
AcDbLine
 10
-12.4992362475
 20
-10.4319504255
 30
0.0
 11
-13.8915859769
 21
-11.2357368152
 31
0.0
  0
LINE
  5
33D
330
263
100
AcDbEntity
  8
0
  6
Continuous
 62
     7
370
    25
100
AcDbLine
 10
-12.7442578027
 20
-12.1615783657
 30
0.0
 11
-12.7444410312
 21
-12.1530865812
 31
0.0
  0
LINE
  5
33E
330
263
100
AcDbEntity
  8
0
  6
Continuous
 62
     7
370
    25
100
AcDbLine
 10
3.4022749961
 20
-21.4827733432
 30
0.0
 11
3.4021149195
 21
-21.4748360848
 31
0.0
  0
LINE
  5
33F
330
263
100
AcDbEntity
  8
0
  6
Continuous
 62
     7
370
    25
100
AcDbLine
 10
13.4242608711
 20
-15.6972040469
 30
0.0
 11
13.4241007946
 21
-15.6892667884
 31
0.0
  0
LINE
  5
340
330
263
100
AcDbEntity
  8
0
  6
Continuous
 62
     7
370
    25
100
AcDbLine
 10
1.6981698288
 20
4.1966275046
 30
0.0
 11
14.5040406692
 21
11.5892993834
 31
0.0
  0
LINE
  5
341
330
263
100
AcDbEntity
  8
0
  6
Continuous
 62
     7
370
    25
100
AcDbLine
 10
1.6981698288
 20
4.1966275046
 30
0.0
 11
-15.005139963
 21
13.8392429986
 31
0.0
  0
LINE
  5
342
330
263
100
AcDbEntity
  8
0
  6
Continuous
 62
     7
370
    25
100
AcDbLine
 10
-2.1992691226
 20
21.2319148773
 30
0.0
 11
-15.005139963
 21
13.8392429986
 31
0.0
  0
LINE
  5
343
330
263
100
AcDbEntity
  8
0
  6
Continuous
 62
     7
370
    25
100
AcDbLine
 10
2.1992691226
 20
4.4859059695
 30
0.0
 11
-14.5040406692
 21
14.1285214634
 31
0.0
  0
LINE
  5
344
330
263
100
AcDbEntity
  8
0
  6
Continuous
 62
     7
370
    25
100
AcDbLine
 10
2.1992691226
 20
-8.3730044539
 30
0.0
 11
2.1992691226
 21
4.4859059695
 31
0.0
  0
LINE
  5
345
330
263
100
AcDbEntity
  8
0
  6
Continuous
 62
     7
370
    25
100
AcDbLine
 10
0.723810091
 20
3.6339587464
 30
0.0
 11
-14.0307802251
 21
12.1516024328
 31
0.0
  0
LINE
  5
346
330
263
100
AcDbEntity
  8
0
  6
Continuous
 62
     7
370
    25
100
AcDbLine
 10
-14.0307802251
 20
12.1516024328
 30
0.0
 11
-14.0307802251
 21
1.5430013335
 31
0.0
  0
LINE
  5
347
330
263
100
AcDbEntity
  8
0
  6
Continuous
 62
     7
370
    25
100
AcDbLine
 10
-14.0307802251
 20
1.5430013335
 30
0.0
 11
0.723810091
 21
-6.9746423529
 31
0.0
  0
LINE
  5
348
330
263
100
AcDbEntity
  8
0
  6
Continuous
 62
     7
370
    25
100
AcDbLine
 10
0.723810091
 20
-6.9746423529
 30
0.0
 11
0.723810091
 21
3.6339587464
 31
0.0
  0
LINE
  5
349
330
263
100
AcDbEntity
  8
0
  6
Continuous
 62
     7
370
    25
100
AcDbLine
 10
-13.8915859769
 20
12.0712473036
 30
0.0
 11
-13.8915859769
 21
12.0390895788
 31
0.0
  0
LINE
  5
34A
330
263
100
AcDbEntity
  8
0
  6
Continuous
 62
     7
370
    25
100
AcDbLine
 10
0.6959576664
 20
-6.7978532322
 30
0.0
 11
0.723810091
 21
-6.8139320947
 31
0.0
  0
LINE
  5
34B
330
263
100
AcDbEntity
  8
0
  6
Continuous
 62
     7
370
    25
100
AcDbLine
 10
-13.9472636762
 20
1.5912300842
 30
0.0
 11
0.640293542
 21
-6.8299874472
 31
0.0
  0
LINE
  5
34C
330
263
100
AcDbEntity
  8
0
  6
Continuous
 62
     7
370
    25
100
AcDbLine
 10
-13.9472636762
 20
12.0069475271
 30
0.0
 11
-13.9472636762
 21
1.5912300842
 31
0.0
  0
LINE
  5
34D
330
263
100
AcDbEntity
  8
0
  6
Continuous
 62
     7
370
    25
100
AcDbLine
 10
0.640293542
 20
3.5857299957
 30
0.0
 11
-13.9472636762
 21
12.0069475271
 31
0.0
  0
LINE
  5
34E
330
263
100
AcDbEntity
  8
0
  6
Continuous
 62
     7
370
    25
100
AcDbLine
 10
0.640293542
 20
-6.8299874472
 30
0.0
 11
0.640293542
 21
3.5857299957
 31
0.0
  0
LINE
  5
34F
330
263
100
AcDbEntity
  8
0
  6
Continuous
 62
     7
370
    25
100
AcDbLine
 10
0.723810091
 20
3.6339430732
 30
0.0
 11
0.640293542
 21
3.5857299957
 31
0.0
  0
LINE
  5
350
330
263
100
AcDbEntity
  8
0
  6
Continuous
 62
     7
370
    25
100
AcDbLine
 10
0.723810091
 20
-6.7817743698
 30
0.0
 11
0.640293542
 21
-6.8299874472
 31
0.0
  0
LINE
  5
351
330
263
100
AcDbEntity
  8
0
  6
Continuous
 62
     7
370
    25
100
AcDbLine
 10
-13.8637335523
 20
12.0551684412
 30
0.0
 11
-13.9472636762
 21
12.0069475271
 31
0.0
  0
LINE
  5
352
330
263
100
AcDbEntity
  8
0
  6
Continuous
 62
     7
370
    25
100
AcDbLine
 10
-13.9472501013
 20
1.5912222475
 30
0.0
 11
-14.0307802251
 21
1.5430013335
 31
0.0
  0
LINE
  5
353
330
263
100
AcDbEntity
  8
0
  6
Continuous
 62
     7
370
    25
100
AcDbLine
 10
-2.7838849653
 20
12.7453030551
 30
0.0
 11
-6.9448314336
 21
10.3432397883
 31
0.0
  0
LINE
  5
354
330
263
100
AcDbEntity
  8
0
  6
Continuous
 62
     7
370
    25
100
AcDbLine
 10
-3.2293065597
 20
13.0024394683
 30
0.0
 11
-7.3902530281
 21
10.6003762015
 31
0.0
  0
LINE
  5
355
330
263
100
AcDbEntity
  8
0
  6
Continuous
 62
     7
370
    25
100
AcDbLine
 10
-3.2293065597
 20
13.0024394683
 30
0.0
 11
3.3128231087
 21
9.2257483998
 31
0.0
  0
LINE
  5
356
330
263
100
AcDbEntity
  8
0
  6
Continuous
 62
     7
370
    25
100
AcDbLine
 10
5.0388317872
 20
7.6507878691
 30
0.0
 11
5.8591162972
 21
7.1772477011
 31
0.0
  0
LINE
  5
357
330
263
100
AcDbEntity
  8
0
  6
Continuous
 62
     7
370
    25
100
AcDbLine
 10
-3.2849842591
 20
12.4560245903
 30
0.0
 11
-3.2849842591
 21
8.2304549863
 31
0.0
  0
LINE
  5
358
330
263
100
AcDbEntity
  8
0
  6
Continuous
 62
     7
370
    25
100
AcDbLine
 10
-3.2849842591
 20
12.4560245903
 30
0.0
 11
2.811723815
 21
8.936469935
 31
0.0
  0
LINE
  5
359
330
263
100
AcDbEntity
  8
0
  6
Continuous
 62
     7
370
    25
100
AcDbLine
 10
2.811723815
 20
6.3646878503
 30
0.0
 11
2.811723815
 21
8.936469935
 31
0.0
  0
LINE
  5
35A
330
263
100
AcDbEntity
  8
0
  6
Continuous
 62
     7
370
    25
100
AcDbLine
 10
5.0388317872
 20
7.6507878691
 30
0.0
 11
5.0388317872
 21
6.7037075331
 31
0.0
  0
LINE
  5
35B
330
263
100
AcDbEntity
  8
0
  6
Continuous
 62
     7
370
    25
100
AcDbLine
 10
5.5399310809
 20
7.9400663339
 30
0.0
 11
6.3602155909
 21
7.4665261659
 31
0.0
  0
LINE
  5
35C
330
263
100
AcDbEntity
  8
0
  6
Continuous
 62
     7
370
    25
100
AcDbLine
 10
5.0388317872
 20
7.6507878691
 30
0.0
 11
5.5399310809
 21
7.9400663339
 31
0.0
  0
LINE
  5
35D
330
263
100
AcDbEntity
  8
0
  6
Continuous
 62
     7
370
    25
100
AcDbLine
 10
2.811723815
 20
6.3646878503
 30
0.0
 11
3.3128231087
 21
6.6539663151
 31
0.0
  0
LINE
  5
35E
330
263
100
AcDbEntity
  8
0
  6
Continuous
 62
     7
370
    25
100
AcDbLine
 10
2.811723815
 20
8.936469935
 30
0.0
 11
3.3128231087
 21
9.2257483998
 31
0.0
  0
LINE
  5
35F
330
263
100
AcDbEntity
  8
0
  6
Continuous
 62
     7
370
    25
100
AcDbLine
 10
3.3128231087
 20
6.6539663151
 30
0.0
 11
3.3128231087
 21
9.2257483998
 31
0.0
  0
LINE
  5
360
330
263
100
AcDbEntity
  8
0
  6
Continuous
 62
     7
370
    25
100
AcDbLine
 10
3.3128231087
 20
7.4413447044
 30
0.0
 11
4.8147092013
 21
6.5743243182
 31
0.0
  0
LINE
  5
361
330
263
100
AcDbEntity
  8
0
  6
Continuous
 62
     7
370
    25
100
AcDbLine
 10
3.3128231087
 20
8.0199016341
 30
0.0
 11
5.0388317872
 21
7.023498033
 31
0.0
  0
LINE
  5
362
330
263
100
AcDbEntity
  8
0
  6
Continuous
 62
     7
370
    25
100
AcDbLine
 10
14.0029413755
 20
11.8785778482
 30
0.0
 11
1.6981698288
 21
4.7751844343
 31
0.0
  0
LINE
  5
363
330
263
100
AcDbEntity
  8
0
  6
Continuous
 62
     7
370
    25
100
AcDbLine
 10
-14.0029413755
 20
13.8392429986
 30
0.0
 11
-1.6981698288
 21
20.9426364125
 31
0.0
  0
LINE
  5
364
330
263
100
AcDbEntity
  8
0
  6
Continuous
 62
     7
370
    25
100
AcDbLine
 10
-13.5018420817
 20
14.1285214634
 30
0.0
 11
2.1992691226
 21
5.0644628991
 31
0.0
  0
LINE
  5
365
330
263
100
AcDbEntity
  8
0
  6
Continuous
 62
     7
370
    25
100
AcDbLine
 10
-1.6981698288
 20
20.9426364125
 30
0.0
 11
-2.1992691226
 21
21.2319148773
 31
0.0
  0
LINE
  5
366
330
263
100
AcDbEntity
  8
0
  6
Continuous
 62
     7
370
    25
100
AcDbLine
 10
-1.6981698288
 20
20.9426364125
 30
0.0
 11
-1.6981698288
 21
12.118533048
 31
0.0
  0
LINE
  5
367
330
263
100
AcDbEntity
  8
0
  6
Continuous
 62
     7
370
    25
100
AcDbLine
 10
14.5040406692
 20
11.5892993834
 30
0.0
 11
14.0029413755
 21
11.8785778482
 31
0.0
  0
LINE
  5
368
330
263
100
AcDbEntity
  8
0
  6
Continuous
 62
     7
370
    25
100
AcDbLine
 10
13.5296809314
 20
-0.7069422818
 30
0.0
 11
13.5296809314
 21
9.9016588175
 31
0.0
  0
LINE
  5
369
330
263
100
AcDbEntity
  8
0
  6
Continuous
 62
     7
370
    25
100
AcDbLine
 10
13.5296809314
 20
9.9016588175
 30
0.0
 11
3.1736288604
 21
3.9232372112
 31
0.0
  0
LINE
  5
36A
330
263
100
AcDbEntity
  8
0
  6
Continuous
 62
     7
370
    25
100
AcDbLine
 10
3.1736288604
 20
3.9232372112
 30
0.0
 11
3.1736288604
 21
-6.6853638881
 31
0.0
  0
LINE
  5
36B
330
263
100
AcDbEntity
  8
0
  6
Continuous
 62
     7
370
    25
100
AcDbLine
 10
3.1736288604
 20
-6.6853638881
 30
0.0
 11
13.5296809314
 21
-0.7069422818
 31
0.0
  0
LINE
  5
36C
330
263
100
AcDbEntity
  8
0
  6
Continuous
 62
     7
370
    25
100
AcDbLine
 10
13.3904866831
 20
9.7891459635
 30
0.0
 11
13.3904866831
 21
9.8213036884
 31
0.0
  0
LINE
  5
36D
330
263
100
AcDbEntity
  8
0
  6
Continuous
 62
     7
370
    25
100
AcDbLine
 10
3.1736288604
 20
-6.5246536298
 30
0.0
 11
3.201481285
 21
-6.5085747674
 31
0.0
  0
LINE
  5
36E
330
263
100
AcDbEntity
  8
0
  6
Continuous
 62
     7
370
    25
100
AcDbLine
 10
3.1736288604
 20
3.923221538
 30
0.0
 11
3.2571454094
 21
3.8750084605
 31
0.0
  0
LINE
  5
36F
330
263
100
AcDbEntity
  8
0
  6
Continuous
 62
     7
370
    25
100
AcDbLine
 10
13.3626342586
 20
9.8052248259
 30
0.0
 11
13.4461643824
 21
9.7570039119
 31
0.0
  0
LINE
  5
370
330
263
100
AcDbEntity
  8
0
  6
Continuous
 62
     7
370
    25
100
AcDbLine
 10
13.4461643824
 20
9.7570039119
 30
0.0
 11
3.2571454094
 21
3.8750084605
 31
0.0
  0
LINE
  5
371
330
263
100
AcDbEntity
  8
0
  6
Continuous
 62
     7
370
    25
100
AcDbLine
 10
3.2571454094
 20
-6.5407089824
 30
0.0
 11
13.4461643824
 21
-0.6587135311
 31
0.0
  0
LINE
  5
372
330
263
100
AcDbEntity
  8
0
  6
Continuous
 62
     7
370
    25
100
AcDbLine
 10
3.2571454094
 20
3.8750084605
 30
0.0
 11
3.2571454094
 21
-6.5407089824
 31
0.0
  0
LINE
  5
373
330
263
100
AcDbEntity
  8
0
  6
Continuous
 62
     7
370
    25
100
AcDbLine
 10
13.4461643824
 20
-0.6587135311
 30
0.0
 11
13.4461643824
 21
9.7570039119
 31
0.0
  0
LINE
  5
374
330
263
100
AcDbEntity
  8
0
  6
Continuous
 62
     7
370
    25
100
AcDbLine
 10
3.1736288604
 20
-6.492495905
 30
0.0
 11
3.2571454094
 21
-6.5407089824
 31
0.0
  0
LINE
  5
375
330
263
100
AcDbEntity
  8
0
  6
Continuous
 62
     7
370
    25
100
AcDbLine
 10
13.4461508075
 20
-0.6587213677
 30
0.0
 11
13.5296809314
 21
-0.7069422818
 31
0.0
  0
ARC
  5
376
330
263
100
AcDbEntity
  8
0
  6
Continuous
 62
     7
370
    25
100
AcDbCircle
 10
-13.2496143905
 20
-11.730456679
 30
0.0
 40
0.3751027942792231
100
AcDbArc
 50
286.1127297435
 51
313.8818937238
  0
ARC
  5
377
330
263
100
AcDbEntity
  8
0
  6
Continuous
 62
     7
370
    25
100
AcDbCircle
 10
2.8964544854
 20
-21.0508480314
 30
0.0
 40
0.3760036685467233
100
AcDbArc
 50
286.1466604464
 51
313.8479630209
  0
ARC
  5
378
330
263
100
AcDbEntity
  8
0
  6
Continuous
 62
     7
370
    25
100
AcDbCircle
 10
12.9184403604
 20
-15.2652787351
 30
0.0
 40
0.3760036685466287
100
AcDbArc
 50
286.1466604464
 51
313.8479630209
  0
ARC
  5
379
330
263
100
AcDbEntity
  8
0
  6
Continuous
 62
     7
370
    25
100
AcDbCircle
 10
4.9195922062
 20
6.4121325446
 30
0.0
 40
2.108402275100315
100
AcDbArc
 50
181.2894172276
 51
204.7478296684
  0
ARC
  5
37A
330
263
100
AcDbEntity
  8
0
  6
Continuous
 62
     7
370
    25
100
AcDbCircle
 10
5.4206914999
 20
6.7014110095
 30
0.0
 40
2.108402275100382
100
AcDbArc
 50
181.2894172276
 51
204.7478296684
  0
VIEWPORT
  5
383
330
263
100
AcDbEntity
  8
0
100
AcDbViewport
 10
0.0
 20
0.0
 30
0.0
 40
8.4
 41
6.4
 68
     1
 69
     1
 12
0.0
 22
-0.5905511811
 13
0.0
 23
0.0
 14
0.5
 24
0.5
 15
0.5
 25
0.5
 16
0.0
 26
0.0
 36
1.0
 17
0.0
 27
0.0
 37
0.0
 42
50.0
 43
0.0
 44
0.0
 45
33.3307086614
 50
0.0
 51
0.0
 72
   100
 90
   557152
  1

281
     0
 71
     1
 74
     0
110
0.0
120
0.0
130
0.0
111
1.0
121
0.0
131
0.0
112
0.0
122
1.0
132
0.0
 79
     0
146
0.0
  0
ENDBLK
  5
266
330
263
100
AcDbEntity
  8
0
100
AcDbBlockEnd
  0
ENDSEC
  0
SECTION
  2
ENTITIES
  0
LINE
  5
B3
330
1F
100
AcDbEntity
  8
0
  6
Continuous
 62
     7
370
    25
100
AcDbLine
 10
-12.0078740157
 20
-16.8818897638
 30
0.0
 11
-12.0078740157
 21
-16.9291338583
 31
0.0
  0
LINE
  5
B4
330
1F
100
AcDbEntity
  8
0
  6
Continuous
 62
     7
370
    25
100
AcDbLine
 10
-10.8267716535
 20
-16.9291338583
 30
0.0
 11
-10.8267716535
 21
-16.8818897638
 31
0.0
  0
LINE
  5
B5
330
1F
100
AcDbEntity
  8
0
  6
Continuous
 62
     7
370
    25
100
AcDbLine
 10
-11.811023622
 20
-16.5511811024
 30
0.0
 11
-11.811023622
 21
-16.6929133858
 31
0.0
  0
LINE
  5
B6
330
1F
100
AcDbEntity
  8
0
  6
Continuous
 62
     7
370
    25
100
AcDbLine
 10
-11.0236220472
 20
-16.6929133858
 30
0.0
 11
-11.0236220472
 21
-16.5511811024
 31
0.0
  0
LINE
  5
B7
330
1F
100
AcDbEntity
  8
0
  6
Continuous
 62
     7
370
    25
100
AcDbLine
 10
10.8267716535
 20
-16.8818897638
 30
0.0
 11
10.8267716535
 21
-16.9291338583
 31
0.0
  0
LINE
  5
B8
330
1F
100
AcDbEntity
  8
0
  6
Continuous
 62
     7
370
    25
100
AcDbLine
 10
12.0078740157
 20
-16.9291338583
 30
0.0
 11
12.0078740157
 21
-16.8818897638
 31
0.0
  0
LINE
  5
B9
330
1F
100
AcDbEntity
  8
0
  6
Continuous
 62
     7
370
    25
100
AcDbLine
 10
11.0236220472
 20
-16.5511811024
 30
0.0
 11
11.0236220472
 21
-16.6929133858
 31
0.0
  0
LINE
  5
BA
330
1F
100
AcDbEntity
  8
0
  6
Continuous
 62
     7
370
    25
100
AcDbLine
 10
11.811023622
 20
-16.6929133858
 30
0.0
 11
11.811023622
 21
-16.5511811024
 31
0.0
  0
LINE
  5
BB
330
1F
100
AcDbEntity
  8
0
  6
Continuous
 62
     7
370
    25
100
AcDbLine
 10
-11.0236220472
 20
-0.7874015748
 30
0.0
 11
11.0236220472
 21
-0.7874015748
 31
0.0
  0
LINE
  5
BC
330
1F
100
AcDbEntity
  8
0
  6
Continuous
 62
     7
370
    25
100
AcDbLine
 10
11.0236220472
 20
-16.5354330709
 30
0.0
 11
11.0236220472
 21
-12.2047244094
 31
0.0
  0
LINE
  5
BD
330
1F
100
AcDbEntity
  8
0
  6
Continuous
 62
     7
370
    25
100
AcDbLine
 10
11.0236220472
 20
-12.2047244094
 30
0.0
 11
-11.0236220472
 21
-12.2047244094
 31
0.0
  0
LINE
  5
BE
330
1F
100
AcDbEntity
  8
0
  6
Continuous
 62
     7
370
    25
100
AcDbLine
 10
-11.0236220472
 20
-16.5354330709
 30
0.0
 11
-11.0236220472
 21
-12.2047244094
 31
0.0
  0
LINE
  5
BF
330
1F
100
AcDbEntity
  8
0
  6
Continuous
 62
     7
370
    25
100
AcDbLine
 10
11.811023622
 20
-16.5354330709
 30
0.0
 11
11.811023622
 21
15.7480314961
 31
0.0
  0
LINE
  5
C0
330
1F
100
AcDbEntity
  8
0
  6
Continuous
 62
     7
370
    25
100
AcDbLine
 10
11.0236220472
 20
-11.4173228346
 30
0.0
 11
11.0236220472
 21
-0.7874015748
 31
0.0
  0
LINE
  5
C1
330
1F
100
AcDbEntity
  8
0
  6
Continuous
 62
     7
370
    25
100
AcDbLine
 10
-11.0236220472
 20
-11.4173228346
 30
0.0
 11
-11.0236220472
 21
-0.7874015748
 31
0.0
  0
LINE
  5
C2
330
1F
100
AcDbEntity
  8
0
  6
Continuous
 62
     7
370
    25
100
AcDbLine
 10
11.811023622
 20
-16.5354330709
 30
0.0
 11
11.0236220472
 21
-16.5354330709
 31
0.0
  0
LINE
  5
C3
330
1F
100
AcDbEntity
  8
0
  6
Continuous
 62
     7
370
    25
100
AcDbLine
 10
11.0236220472
 20
-11.4173228346
 30
0.0
 11
-11.0236220472
 21
-11.4173228346
 31
0.0
  0
LINE
  5
C4
330
1F
100
AcDbEntity
  8
0
  6
Continuous
 62
     7
370
    25
100
AcDbLine
 10
-11.811023622
 20
0.0
 30
0.0
 11
11.811023622
 21
0.0
 31
0.0
  0
LINE
  5
C5
330
1F
100
AcDbEntity
  8
0
  6
Continuous
 62
     7
370
    25
100
AcDbLine
 10
-11.0236220472
 20
-16.5354330709
 30
0.0
 11
-11.811023622
 21
-16.5354330709
 31
0.0
  0
LINE
  5
C6
330
1F
100
AcDbEntity
  8
0
  6
Continuous
 62
     7
370
    25
100
AcDbLine
 10
-11.811023622
 20
-16.5354330709
 30
0.0
 11
-11.811023622
 21
15.7480314961
 31
0.0
  0
LINE
  5
C7
330
1F
100
AcDbEntity
  8
0
  6
Continuous
 62
     7
370
    25
100
AcDbLine
 10
-12.0078740157
 20
-16.9291338583
 30
0.0
 11
-10.8267716535
 21
-16.9291338583
 31
0.0
  0
LINE
  5
C8
330
1F
100
AcDbEntity
  8
0
  6
Continuous
 62
     7
370
    25
100
AcDbLine
 10
-11.937007874
 20
-16.811023622
 30
0.0
 11
-10.8976377953
 21
-16.811023622
 31
0.0
  0
LINE
  5
C9
330
1F
100
AcDbEntity
  8
0
  6
Continuous
 62
     7
370
    25
100
AcDbLine
 10
10.8267716535
 20
-16.9291338583
 30
0.0
 11
12.0078740157
 21
-16.9291338583
 31
0.0
  0
LINE
  5
CA
330
1F
100
AcDbEntity
  8
0
  6
Continuous
 62
     7
370
    25
100
AcDbLine
 10
10.8976377953
 20
-16.811023622
 30
0.0
 11
11.937007874
 21
-16.811023622
 31
0.0
  0
LINE
  5
CB
330
1F
100
AcDbEntity
  8
0
  6
Continuous
 62
     7
370
    25
100
AcDbLine
 10
-10.4330708661
 20
14.3700787402
 30
0.0
 11
-10.4330708661
 21
1.3779527559
 31
0.0
  0
LINE
  5
CC
330
1F
100
AcDbEntity
  8
0
  6
Continuous
 62
     7
370
    25
100
AcDbLine
 10
11.811023622
 20
15.7480314961
 30
0.0
 11
-11.811023622
 21
15.7480314961
 31
0.0
  0
LINE
  5
CD
330
1F
100
AcDbEntity
  8
0
  6
Continuous
 62
     7
370
    25
100
AcDbLine
 10
10.4330708661
 20
1.3779527559
 30
0.0
 11
10.4330708661
 21
14.3700787402
 31
0.0
  0
LINE
  5
CE
330
1F
100
AcDbEntity
  8
0
  6
Continuous
 62
     7
370
    25
100
AcDbLine
 10
10.4330708661
 20
14.3700787402
 30
0.0
 11
-10.4330708661
 21
14.3700787402
 31
0.0
  0
LINE
  5
CF
330
1F
100
AcDbEntity
  8
0
  6
Continuous
 62
     7
370
    25
100
AcDbLine
 10
-10.4330708661
 20
1.3779527559
 30
0.0
 11
10.4330708661
 21
1.3779527559
 31
0.0
  0
LINE
  5
D0
330
1F
100
AcDbEntity
  8
0
  6
Continuous
 62
     7
370
    25
100
AcDbLine
 10
10.3149606299
 20
14.2519685039
 30
0.0
 11
-10.3149606299
 21
14.2519685039
 31
0.0
  0
LINE
  5
D1
330
1F
100
AcDbEntity
  8
0
  6
Continuous
 62
     7
370
    25
100
AcDbLine
 10
-10.3149606299
 20
14.2519685039
 30
0.0
 11
-10.3149606299
 21
1.4960629921
 31
0.0
  0
LINE
  5
D2
330
1F
100
AcDbEntity
  8
0
  6
Continuous
 62
     7
370
    25
100
AcDbLine
 10
10.3149606299
 20
1.4960629921
 30
0.0
 11
10.3149606299
 21
14.2519685039
 31
0.0
  0
LINE
  5
D3
330
1F
100
AcDbEntity
  8
0
  6
Continuous
 62
     7
370
    25
100
AcDbLine
 10
-10.3149606299
 20
1.4960629921
 30
0.0
 11
10.3149606299
 21
1.4960629921
 31
0.0
  0
LINE
  5
D4
330
1F
100
AcDbEntity
  8
0
  6
Continuous
 62
     8
370
    25
100
AcDbLine
 10
-12.0078740157
 20
-16.8818897638
 30
0.0
 11
-10.8267716535
 21
-16.8818897638
 31
0.0
  0
LINE
  5
D5
330
1F
100
AcDbEntity
  8
0
  6
Continuous
 62
     8
370
    25
100
AcDbLine
 10
-11.811023622
 20
-16.6929133858
 30
0.0
 11
-11.0236220472
 21
-16.6929133858
 31
0.0
  0
LINE
  5
D6
330
1F
100
AcDbEntity
  8
0
  6
Continuous
 62
     8
370
    25
100
AcDbLine
 10
-11.0236220472
 20
-16.5511811024
 30
0.0
 11
-11.811023622
 21
-16.5511811024
 31
0.0
  0
LINE
  5
D7
330
1F
100
AcDbEntity
  8
0
  6
Continuous
 62
     8
370
    25
100
AcDbLine
 10
10.8267716535
 20
-16.8818897638
 30
0.0
 11
12.0078740157
 21
-16.8818897638
 31
0.0
  0
LINE
  5
D8
330
1F
100
AcDbEntity
  8
0
  6
Continuous
 62
     8
370
    25
100
AcDbLine
 10
11.0236220472
 20
-16.6929133858
 30
0.0
 11
11.811023622
 21
-16.6929133858
 31
0.0
  0
LINE
  5
D9
330
1F
100
AcDbEntity
  8
0
  6
Continuous
 62
     8
370
    25
100
AcDbLine
 10
11.811023622
 20
-16.5511811024
 30
0.0
 11
11.0236220472
 21
-16.5511811024
 31
0.0
  0
ARC
  5
DA
330
1F
100
AcDbEntity
  8
0
  6
Continuous
 62
     7
370
    25
100
AcDbCircle
 10
-11.937007874
 20
-16.8818897638
 30
0.0
 40
0.0708661417322833
100
AcDbArc
 50
90.0
 51
180.0
  0
ARC
  5
DB
330
1F
100
AcDbEntity
  8
0
  6
Continuous
 62
     7
370
    25
100
AcDbCircle
 10
-10.8976377953
 20
-16.8818897638
 30
0.0
 40
0.0708661417322851
100
AcDbArc
 50
0.0
 51
90.0
  0
ARC
  5
DC
330
1F
100
AcDbEntity
  8
0
  6
Continuous
 62
     7
370
    25
100
AcDbCircle
 10
-11.9291338583
 20
-16.6929133858
 30
0.0
 40
0.1181102362204776
100
AcDbArc
 50
270.0
 51
0.0
  0
ARC
  5
DD
330
1F
100
AcDbEntity
  8
0
  6
Continuous
 62
     7
370
    25
100
AcDbCircle
 10
-10.905511811
 20
-16.6929133858
 30
0.0
 40
0.1181102362204758
100
AcDbArc
 50
180.0
 51
270.0
  0
ARC
  5
DE
330
1F
100
AcDbEntity
  8
0
  6
Continuous
 62
     7
370
    25
100
AcDbCircle
 10
-11.7952755906
 20
-16.5511811024
 30
0.0
 40
0.0157480314960683
100
AcDbArc
 50
90.0
 51
180.0
  0
ARC
  5
DF
330
1F
100
AcDbEntity
  8
0
  6
Continuous
 62
     7
370
    25
100
AcDbCircle
 10
-11.0393700787
 20
-16.5511811024
 30
0.0
 40
0.0157480314960647
100
AcDbArc
 50
0.0
 51
90.0
  0
ARC
  5
E0
330
1F
100
AcDbEntity
  8
0
  6
Continuous
 62
     7
370
    25
100
AcDbCircle
 10
10.8976377953
 20
-16.8818897638
 30
0.0
 40
0.0708661417322816
100
AcDbArc
 50
90.0
 51
180.0
  0
ARC
  5
E1
330
1F
100
AcDbEntity
  8
0
  6
Continuous
 62
     7
370
    25
100
AcDbCircle
 10
11.937007874
 20
-16.8818897638
 30
0.0
 40
0.0708661417322851
100
AcDbArc
 50
0.0
 51
90.0
  0
ARC
  5
E2
330
1F
100
AcDbEntity
  8
0
  6
Continuous
 62
     7
370
    25
100
AcDbCircle
 10
10.905511811
 20
-16.6929133858
 30
0.0
 40
0.1181102362204776
100
AcDbArc
 50
270.0
 51
0.0
  0
ARC
  5
E3
330
1F
100
AcDbEntity
  8
0
  6
Continuous
 62
     7
370
    25
100
AcDbCircle
 10
11.9291338583
 20
-16.6929133858
 30
0.0
 40
0.1181102362204776
100
AcDbArc
 50
180.0
 51
270.0
  0
ARC
  5
E4
330
1F
100
AcDbEntity
  8
0
  6
Continuous
 62
     7
370
    25
100
AcDbCircle
 10
11.0393700787
 20
-16.5511811024
 30
0.0
 40
0.0157480314960665
100
AcDbArc
 50
90.0
 51
180.0
  0
ARC
  5
E5
330
1F
100
AcDbEntity
  8
0
  6
Continuous
 62
     7
370
    25
100
AcDbCircle
 10
11.7952755906
 20
-16.5511811024
 30
0.0
 40
0.0157480314960665
100
AcDbArc
 50
0.0
 51
90.0
  0
CIRCLE
  5
10A
330
1B
100
AcDbEntity
 67
     1
  8
0
  6
Continuous
 62
     7
370
    25
100
AcDbCircle
 10
3.1496062992
 20
7.874015748
 30
0.0
 40
0.0393700787401565
  0
CIRCLE
  5
10B
330
1B
100
AcDbEntity
 67
     1
  8
0
  6
Continuous
 62
     7
370
    25
100
AcDbCircle
 10
-6.2992125984
 20
7.874015748
 30
0.0
 40
0.0393700787401574
  0
CIRCLE
  5
10C
330
1B
100
AcDbEntity
 67
     1
  8
0
  6
Continuous
 62
     7
370
    25
100
AcDbCircle
 10
6.2992125984
 20
7.874015748
 30
0.0
 40
0.0393700787401556
  0
CIRCLE
  5
10D
330
1B
100
AcDbEntity
 67
     1
  8
0
  6
Continuous
 62
     7
370
    25
100
AcDbCircle
 10
-3.1496062992
 20
7.874015748
 30
0.0
 40
0.0393700787401583
  0
LINE
  5
134
330
1B
100
AcDbEntity
 67
     1
  8
0
  6
Continuous
 62
     7
370
    25
100
AcDbLine
 10
10.8267716535
 20
-16.8818897638
 30
0.0
 11
10.8267716535
 21
-16.9291338583
 31
0.0
  0
LINE
  5
135
330
1B
100
AcDbEntity
 67
     1
  8
0
  6
Continuous
 62
     7
370
    25
100
AcDbLine
 10
12.0078740157
 20
-16.9291338583
 30
0.0
 11
12.0078740157
 21
-16.8818897638
 31
0.0
  0
LINE
  5
136
330
1B
100
AcDbEntity
 67
     1
  8
0
  6
Continuous
 62
     7
370
    25
100
AcDbLine
 10
11.0236220472
 20
-16.5511811024
 30
0.0
 11
11.0236220472
 21
-16.6929133858
 31
0.0
  0
LINE
  5
137
330
1B
100
AcDbEntity
 67
     1
  8
0
  6
Continuous
 62
     7
370
    25
100
AcDbLine
 10
11.811023622
 20
-16.6929133858
 30
0.0
 11
11.811023622
 21
-16.5511811024
 31
0.0
  0
LINE
  5
138
330
1B
100
AcDbEntity
 67
     1
  8
0
  6
Continuous
 62
     7
370
    25
100
AcDbLine
 10
-12.0078740157
 20
-16.8818897638
 30
0.0
 11
-12.0078740157
 21
-16.9291338583
 31
0.0
  0
LINE
  5
139
330
1B
100
AcDbEntity
 67
     1
  8
0
  6
Continuous
 62
     7
370
    25
100
AcDbLine
 10
-10.8267716535
 20
-16.9291338583
 30
0.0
 11
-10.8267716535
 21
-16.8818897638
 31
0.0
  0
LINE
  5
13A
330
1B
100
AcDbEntity
 67
     1
  8
0
  6
Continuous
 62
     7
370
    25
100
AcDbLine
 10
-11.811023622
 20
-16.5511811024
 30
0.0
 11
-11.811023622
 21
-16.6929133858
 31
0.0
  0
LINE
  5
13B
330
1B
100
AcDbEntity
 67
     1
  8
0
  6
Continuous
 62
     7
370
    25
100
AcDbLine
 10
-11.0236220472
 20
-16.6929133858
 30
0.0
 11
-11.0236220472
 21
-16.5511811024
 31
0.0
  0
LINE
  5
13C
330
1B
100
AcDbEntity
 67
     1
  8
0
  6
Continuous
 62
     7
370
    25
100
AcDbLine
 10
11.0236220472
 20
-11.4173228346
 30
0.0
 11
11.0236220472
 21
-0.7874015748
 31
0.0
  0
LINE
  5
13D
330
1B
100
AcDbEntity
 67
     1
  8
0
  6
Continuous
 62
     7
370
    25
100
AcDbLine
 10
-11.0236220472
 20
-11.4173228346
 30
0.0
 11
-11.0236220472
 21
-0.7874015748
 31
0.0
  0
LINE
  5
13E
330
1B
100
AcDbEntity
 67
     1
  8
0
  6
Continuous
 62
     7
370
    25
100
AcDbLine
 10
11.0236220472
 20
-11.4173228346
 30
0.0
 11
-11.0236220472
 21
-11.4173228346
 31
0.0
  0
LINE
  5
13F
330
1B
100
AcDbEntity
 67
     1
  8
0
  6
Continuous
 62
     7
370
    25
100
AcDbLine
 10
11.0236220472
 20
-16.5354330709
 30
0.0
 11
11.0236220472
 21
-12.2047244094
 31
0.0
  0
LINE
  5
140
330
1B
100
AcDbEntity
 67
     1
  8
0
  6
Continuous
 62
     7
370
    25
100
AcDbLine
 10
-11.0236220472
 20
-16.5354330709
 30
0.0
 11
-11.811023622
 21
-16.5354330709
 31
0.0
  0
LINE
  5
141
330
1B
100
AcDbEntity
 67
     1
  8
0
  6
Continuous
 62
     7
370
    25
100
AcDbLine
 10
11.811023622
 20
-16.5354330709
 30
0.0
 11
11.811023622
 21
15.7480314961
 31
0.0
  0
LINE
  5
142
330
1B
100
AcDbEntity
 67
     1
  8
0
  6
Continuous
 62
     7
370
    25
100
AcDbLine
 10
11.0236220472
 20
-12.2047244094
 30
0.0
 11
-11.0236220472
 21
-12.2047244094
 31
0.0
  0
LINE
  5
143
330
1B
100
AcDbEntity
 67
     1
  8
0
  6
Continuous
 62
     7
370
    25
100
AcDbLine
 10
-11.0236220472
 20
-16.5354330709
 30
0.0
 11
-11.0236220472
 21
-12.2047244094
 31
0.0
  0
LINE
  5
144
330
1B
100
AcDbEntity
 67
     1
  8
0
  6
Continuous
 62
     7
370
    25
100
AcDbLine
 10
-11.811023622
 20
-16.5354330709
 30
0.0
 11
-11.811023622
 21
15.7480314961
 31
0.0
  0
LINE
  5
145
330
1B
100
AcDbEntity
 67
     1
  8
0
  6
Continuous
 62
     7
370
    25
100
AcDbLine
 10
-11.811023622
 20
0.0
 30
0.0
 11
11.811023622
 21
0.0
 31
0.0
  0
LINE
  5
146
330
1B
100
AcDbEntity
 67
     1
  8
0
  6
Continuous
 62
     7
370
    25
100
AcDbLine
 10
-11.0236220472
 20
-0.7874015748
 30
0.0
 11
11.0236220472
 21
-0.7874015748
 31
0.0
  0
LINE
  5
147
330
1B
100
AcDbEntity
 67
     1
  8
0
  6
Continuous
 62
     7
370
    25
100
AcDbLine
 10
11.811023622
 20
-16.5354330709
 30
0.0
 11
11.0236220472
 21
-16.5354330709
 31
0.0
  0
LINE
  5
148
330
1B
100
AcDbEntity
 67
     1
  8
0
  6
Continuous
 62
     7
370
    25
100
AcDbLine
 10
10.8267716535
 20
-16.9291338583
 30
0.0
 11
12.0078740157
 21
-16.9291338583
 31
0.0
  0
LINE
  5
149
330
1B
100
AcDbEntity
 67
     1
  8
0
  6
Continuous
 62
     7
370
    25
100
AcDbLine
 10
10.8976377953
 20
-16.811023622
 30
0.0
 11
11.937007874
 21
-16.811023622
 31
0.0
  0
LINE
  5
14A
330
1B
100
AcDbEntity
 67
     1
  8
0
  6
Continuous
 62
     7
370
    25
100
AcDbLine
 10
-12.0078740157
 20
-16.9291338583
 30
0.0
 11
-10.8267716535
 21
-16.9291338583
 31
0.0
  0
LINE
  5
14B
330
1B
100
AcDbEntity
 67
     1
  8
0
  6
Continuous
 62
     7
370
    25
100
AcDbLine
 10
-11.937007874
 20
-16.811023622
 30
0.0
 11
-10.8976377953
 21
-16.811023622
 31
0.0
  0
LINE
  5
14C
330
1B
100
AcDbEntity
 67
     1
  8
0
  6
Continuous
 62
     7
370
    25
100
AcDbLine
 10
-10.1968503937
 20
3.4645669291
 30
0.0
 11
-10.1968503937
 21
7.3818897638
 31
0.0
  0
LINE
  5
14D
330
1B
100
AcDbEntity
 67
     1
  8
0
  6
Continuous
 62
     7
370
    25
100
AcDbLine
 10
-10.8267716535
 20
7.3818897638
 30
0.0
 11
-10.8267716535
 21
3.4645669291
 31
0.0
  0
LINE
  5
14E
330
1B
100
AcDbEntity
 67
     1
  8
0
  6
Continuous
 62
     7
370
    25
100
AcDbLine
 10
-1.5748031496
 20
7.3818897638
 30
0.0
 11
-10.8267716535
 21
7.3818897638
 31
0.0
  0
LINE
  5
14F
330
1B
100
AcDbEntity
 67
     1
  8
0
  6
Continuous
 62
     7
370
    25
100
AcDbLine
 10
10.1968503937
 20
7.3818897638
 30
0.0
 11
10.1968503937
 21
3.4645669291
 31
0.0
  0
LINE
  5
150
330
1B
100
AcDbEntity
 67
     1
  8
0
  6
Continuous
 62
     7
370
    25
100
AcDbLine
 10
10.8267716535
 20
7.3818897638
 30
0.0
 11
1.5748031496
 21
7.3818897638
 31
0.0
  0
LINE
  5
151
330
1B
100
AcDbEntity
 67
     1
  8
0
  6
Continuous
 62
     7
370
    25
100
AcDbLine
 10
10.8267716535
 20
3.4645669291
 30
0.0
 11
10.8267716535
 21
7.3818897638
 31
0.0
  0
LINE
  5
152
330
1B
100
AcDbEntity
 67
     1
  8
0
  6
Continuous
 62
     7
370
    25
100
AcDbLine
 10
1.5748031496
 20
4.2322834646
 30
0.0
 11
1.5748031496
 21
7.3818897638
 31
0.0
  0
LINE
  5
153
330
1B
100
AcDbEntity
 67
     1
  8
0
  6
Continuous
 62
     7
370
    25
100
AcDbLine
 10
-1.5748031496
 20
7.3818897638
 30
0.0
 11
-1.5748031496
 21
4.2322834646
 31
0.0
  0
LINE
  5
154
330
1B
100
AcDbEntity
 67
     1
  8
0
  6
Continuous
 62
     7
370
    25
100
AcDbLine
 10
-11.1023622047
 20
15.7480314961
 30
0.0
 11
-11.1023622047
 21
0.0
 31
0.0
  0
LINE
  5
155
330
1B
100
AcDbEntity
 67
     1
  8
0
  6
Continuous
 62
     7
370
    25
100
AcDbLine
 10
11.1023622047
 20
0.7086614173
 30
0.0
 11
-11.1023622047
 21
0.7086614173
 31
0.0
  0
LINE
  5
156
330
1B
100
AcDbEntity
 67
     1
  8
0
  6
Continuous
 62
     7
370
    25
100
AcDbLine
 10
11.1023622047
 20
15.7480314961
 30
0.0
 11
11.1023622047
 21
0.0
 31
0.0
  0
LINE
  5
157
330
1B
100
AcDbEntity
 67
     1
  8
0
  6
Continuous
 62
     7
370
    25
100
AcDbLine
 10
11.1023622047
 20
3.4645669291
 30
0.0
 11
-11.1023622047
 21
3.4645669291
 31
0.0
  0
LINE
  5
158
330
1B
100
AcDbEntity
 67
     1
  8
0
  6
Continuous
 62
     7
370
    25
100
AcDbLine
 10
11.811023622
 20
15.7480314961
 30
0.0
 11
-11.811023622
 21
15.7480314961
 31
0.0
  0
LINE
  5
159
330
1B
100
AcDbEntity
 67
     1
  8
0
  6
Continuous
 62
     7
370
    25
100
AcDbLine
 10
11.1023622047
 20
12.9921259843
 30
0.0
 11
-11.1023622047
 21
12.9921259843
 31
0.0
  0
LINE
  5
15A
330
1B
100
AcDbEntity
 67
     1
  8
0
  6
Continuous
 62
     8
370
    25
100
AcDbLine
 10
10.8267716535
 20
-16.8818897638
 30
0.0
 11
12.0078740157
 21
-16.8818897638
 31
0.0
  0
LINE
  5
15B
330
1B
100
AcDbEntity
 67
     1
  8
0
  6
Continuous
 62
     8
370
    25
100
AcDbLine
 10
11.0236220472
 20
-16.6929133858
 30
0.0
 11
11.811023622
 21
-16.6929133858
 31
0.0
  0
LINE
  5
15C
330
1B
100
AcDbEntity
 67
     1
  8
0
  6
Continuous
 62
     8
370
    25
100
AcDbLine
 10
11.811023622
 20
-16.5511811024
 30
0.0
 11
11.0236220472
 21
-16.5511811024
 31
0.0
  0
LINE
  5
15D
330
1B
100
AcDbEntity
 67
     1
  8
0
  6
Continuous
 62
     8
370
    25
100
AcDbLine
 10
-12.0078740157
 20
-16.8818897638
 30
0.0
 11
-10.8267716535
 21
-16.8818897638
 31
0.0
  0
LINE
  5
15E
330
1B
100
AcDbEntity
 67
     1
  8
0
  6
Continuous
 62
     8
370
    25
100
AcDbLine
 10
-11.811023622
 20
-16.6929133858
 30
0.0
 11
-11.0236220472
 21
-16.6929133858
 31
0.0
  0
LINE
  5
15F
330
1B
100
AcDbEntity
 67
     1
  8
0
  6
Continuous
 62
     8
370
    25
100
AcDbLine
 10
-11.0236220472
 20
-16.5511811024
 30
0.0
 11
-11.811023622
 21
-16.5511811024
 31
0.0
  0
ARC
  5
160
330
1B
100
AcDbEntity
 67
     1
  8
0
  6
Continuous
 62
     7
370
    25
100
AcDbCircle
 10
10.8976377953
 20
-16.8818897638
 30
0.0
 40
0.0708661417322887
100
AcDbArc
 50
90.0
 51
180.0
  0
ARC
  5
161
330
1B
100
AcDbEntity
 67
     1
  8
0
  6
Continuous
 62
     7
370
    25
100
AcDbCircle
 10
11.937007874
 20
-16.8818897638
 30
0.0
 40
0.0708661417322833
100
AcDbArc
 50
0.0
 51
90.0
  0
ARC
  5
162
330
1B
100
AcDbEntity
 67
     1
  8
0
  6
Continuous
 62
     7
370
    25
100
AcDbCircle
 10
10.905511811
 20
-16.6929133858
 30
0.0
 40
0.1181102362204776
100
AcDbArc
 50
270.0
 51
0.0
  0
ARC
  5
163
330
1B
100
AcDbEntity
 67
     1
  8
0
  6
Continuous
 62
     7
370
    25
100
AcDbCircle
 10
11.9291338583
 20
-16.6929133858
 30
0.0
 40
0.118110236220474
100
AcDbArc
 50
180.0
 51
270.0
  0
ARC
  5
164
330
1B
100
AcDbEntity
 67
     1
  8
0
  6
Continuous
 62
     7
370
    25
100
AcDbCircle
 10
11.0393700787
 20
-16.5511811024
 30
0.0
 40
0.0157480314960683
100
AcDbArc
 50
90.0
 51
180.0
  0
ARC
  5
165
330
1B
100
AcDbEntity
 67
     1
  8
0
  6
Continuous
 62
     7
370
    25
100
AcDbCircle
 10
11.7952755906
 20
-16.5511811024
 30
0.0
 40
0.0157480314960665
100
AcDbArc
 50
0.0
 51
90.0
  0
ARC
  5
166
330
1B
100
AcDbEntity
 67
     1
  8
0
  6
Continuous
 62
     7
370
    25
100
AcDbCircle
 10
-11.937007874
 20
-16.8818897638
 30
0.0
 40
0.0708661417322833
100
AcDbArc
 50
90.0
 51
180.0
  0
ARC
  5
167
330
1B
100
AcDbEntity
 67
     1
  8
0
  6
Continuous
 62
     7
370
    25
100
AcDbCircle
 10
-10.8976377953
 20
-16.8818897638
 30
0.0
 40
0.0708661417322851
100
AcDbArc
 50
0.0
 51
90.0
  0
ARC
  5
168
330
1B
100
AcDbEntity
 67
     1
  8
0
  6
Continuous
 62
     7
370
    25
100
AcDbCircle
 10
-11.9291338583
 20
-16.6929133858
 30
0.0
 40
0.1181102362204776
100
AcDbArc
 50
270.0
 51
0.0
  0
ARC
  5
169
330
1B
100
AcDbEntity
 67
     1
  8
0
  6
Continuous
 62
     7
370
    25
100
AcDbCircle
 10
-10.905511811
 20
-16.6929133858
 30
0.0
 40
0.1181102362204776
100
AcDbArc
 50
180.0
 51
270.0
  0
ARC
  5
16A
330
1B
100
AcDbEntity
 67
     1
  8
0
  6
Continuous
 62
     7
370
    25
100
AcDbCircle
 10
-11.7952755906
 20
-16.5511811024
 30
0.0
 40
0.0157480314960683
100
AcDbArc
 50
90.0
 51
180.0
  0
ARC
  5
16B
330
1B
100
AcDbEntity
 67
     1
  8
0
  6
Continuous
 62
     7
370
    25
100
AcDbCircle
 10
-11.0393700787
 20
-16.5511811024
 30
0.0
 40
0.0157480314960647
100
AcDbArc
 50
0.0
 51
90.0
  0
ARC
  5
16C
330
1B
100
AcDbEntity
 67
     1
  8
0
  6
Continuous
 62
     7
370
    25
100
AcDbCircle
 10
0.0
 20
4.2322834646
 30
0.0
 40
1.574803149606297
100
AcDbArc
 50
180.0
 51
209.176395855
  0
ARC
  5
16D
330
1B
100
AcDbEntity
 67
     1
  8
0
  6
Continuous
 62
     7
370
    25
100
AcDbCircle
 10
0.0
 20
4.2322834646
 30
0.0
 40
1.574803149606285
100
AcDbArc
 50
330.823604145
 51
0.0
  0
VIEWPORT
  5
37B
330
1B
100
AcDbEntity
 67
     1
  8
0
100
AcDbViewport
 10
0.0
 20
0.0
 30
0.0
 40
8.4
 41
6.4
 68
     1
 69
     1
 12
0.0
 22
-0.5905511811
 13
0.0
 23
0.0
 14
0.5
 24
0.5
 15
0.5
 25
0.5
 16
0.0
 26
0.0
 36
1.0
 17
0.0
 27
0.0
 37
0.0
 42
50.0
 43
0.0
 44
0.0
 45
33.3307086614
 50
0.0
 51
0.0
 72
   100
 90
   557152
  1

281
     0
 71
     1
 74
     0
110
0.0
120
0.0
130
0.0
111
1.0
121
0.0
131
0.0
112
0.0
122
1.0
132
0.0
 79
     0
146
0.0
  0
ENDSEC
  0
SECTION
  2
OBJECTS
  0
DICTIONARY
  5
C
330
0
100
AcDbDictionary
281
     1
  3
ACAD_GROUP
350
D
  3
ACAD_LAYOUT
350
1A
  3
ACAD_MLINESTYLE
350
17
  3
ACAD_PLOTSETTINGS
350
19
  3
ACAD_PLOTSTYLENAME
350
E
  3
ACAD_SCALELIST
350
47
  0
DICTIONARY
  5
D
102
{ACAD_REACTORS
330
C
102
}
330
C
100
AcDbDictionary
281
     1
  0
DICTIONARY
  5
1A
102
{ACAD_REACTORS
330
C
102
}
330
C
100
AcDbDictionary
281
     1
  3
_Back
350
1E
  3
_Bottom
350
22C
  3
_Isometric
350
264
  3
_Left
350
26
  3
_Top
350
1DD
  3
Model
350
22
  0
DICTIONARY
  5
17
102
{ACAD_REACTORS
330
C
102
}
330
C
100
AcDbDictionary
281
     1
  3
Standard
350
18
  0
DICTIONARY
  5
19
102
{ACAD_REACTORS
330
C
102
}
330
C
100
AcDbDictionary
281
     1
  0
ACDBDICTIONARYWDFLT
  5
E
102
{ACAD_REACTORS
330
C
102
}
330
C
100
AcDbDictionary
281
     1
  3
Normal
350
F
100
AcDbDictionaryWithDefault
340
F
  0
DICTIONARY
  5
47
102
{ACAD_REACTORS
330
C
102
}
330
C
100
AcDbDictionary
281
     1
  3
A0
350
48
  3
A1
350
49
  3
A2
350
4A
  3
A3
350
4B
  3
A4
350
4C
  3
A5
350
4D
  3
A6
350
4E
  3
A7
350
4F
  3
A8
350
50
  3
A9
350
51
  3
B0
350
52
  3
B1
350
53
  3
B2
350
54
  3
B3
350
55
  3
B4
350
56
  3
B5
350
57
  3
B6
350
58
  3
B7
350
59
  3
B8
350
5A
  3
B9
350
5B
  3
C0
350
5C
  3
C1
350
5D
  3
C2
350
5E
  3
C3
350
5F
  3
C4
350
60
  3
C5
350
61
  3
C6
350
62
  3
C7
350
63
  3
C8
350
64
  3
C9
350
65
  3
D0
350
66
  3
D1
350
67
  3
D2
350
68
  0
LAYOUT
  5
1E
102
{ACAD_REACTORS
330
1A
102
}
330
1A
100
AcDbPlotSettings
  1

  2
none_device
  4
Letter_(8.50_x_11.00_Inches)
  6

 40
6.35
 41
6.35
 42
6.35001
 43
6.35001
 44
215.9
 45
279.4
 46
0.0
 47
0.0
 48
0.0
 49
0.0
140
0.0
141
0.0
142
1.0
143
4.0846458703
 70
   688
 72
     0
 73
     1
 74
     1
  7

 75
     0
147
0.2448192651
148
305.0
149
430.0
100
AcDbLayout
  1
_Back
 70
     1
 71
     1
 10
-13.0290370915
 20
-17.9502953258
 11
31.9020674819
 21
16.7691945718
 12
0.0
 22
0.0
 32
0.0
 14
-12.0078740157
 24
-16.9291338583
 34
0.0
 15
12.0078740157
 25
15.7480314961
 35
0.0
146
0.0
 13
0.0
 23
0.0
 33
0.0
 16
1.0
 26
0.0
 36
0.0
 17
0.0
 27
1.0
 37
0.0
 76
     0
330
1B
331
37B
  0
LAYOUT
  5
22C
102
{ACAD_REACTORS
330
1A
102
}
330
1A
100
AcDbPlotSettings
  1

  2
none_device
  4
Letter_(8.50_x_11.00_Inches)
  6

 40
6.35
 41
6.35
 42
6.35001
 43
6.35001
 44
215.9
 45
279.4
 46
0.0
 47
0.0
 48
0.0
 49
0.0
140
0.0
141
0.0
142
1.0
143
4.0846458703
 70
   688
 72
     0
 73
     1
 74
     1
  7

 75
     0
147
0.2448192651
148
305.0
149
430.0
100
AcDbLayout
  1
_Bottom
 70
     1
 71
     4
 10
0.0
 20
0.0
 11
0.0
 21
0.0
 12
0.0
 22
0.0
 32
0.0
 14
0.0
 24
0.0
 34
0.0
 15
0.0
 25
0.0
 35
0.0
146
0.0
 13
0.0
 23
0.0
 33
0.0
 16
1.0
 26
0.0
 36
0.0
 17
0.0
 27
1.0
 37
0.0
 76
     0
330
22B
331
381
  0
LAYOUT
  5
264
102
{ACAD_REACTORS
330
1A
102
}
330
1A
100
AcDbPlotSettings
  1

  2
none_device
  4
Letter_(8.50_x_11.00_Inches)
  6

 40
6.35
 41
6.35
 42
6.35001
 43
6.35001
 44
215.9
 45
279.4
 46
0.0
 47
0.0
 48
0.0
 49
0.0
140
0.0
141
0.0
142
1.0
143
4.0846458703
 70
   688
 72
     0
 73
     1
 74
     1
  7

 75
     0
147
0.2448192651
148
305.0
149
430.0
100
AcDbLayout
  1
_Isometric
 70
     1
 71
     5
 10
0.0
 20
0.0
 11
0.0
 21
0.0
 12
0.0
 22
0.0
 32
0.0
 14
0.0
 24
0.0
 34
0.0
 15
0.0
 25
0.0
 35
0.0
146
0.0
 13
0.0
 23
0.0
 33
0.0
 16
1.0
 26
0.0
 36
0.0
 17
0.0
 27
1.0
 37
0.0
 76
     0
330
263
331
383
  0
LAYOUT
  5
26
102
{ACAD_REACTORS
330
1A
102
}
330
1A
100
AcDbPlotSettings
  1

  2
none_device
  4
Letter_(8.50_x_11.00_Inches)
  6

 40
6.35
 41
6.35
 42
6.35001
 43
6.35001
 44
215.9
 45
279.4
 46
0.0
 47
0.0
 48
0.0
 49
0.0
140
0.0
141
0.0
142
1.0
143
4.0846458703
 70
   688
 72
     0
 73
     1
 74
     1
  7

 75
     0
147
0.2448192651
148
305.0
149
430.0
100
AcDbLayout
  1
_Left
 70
     1
 71
     2
 10
0.0
 20
0.0
 11
0.0
 21
0.0
 12
0.0
 22
0.0
 32
0.0
 14
0.0
 24
0.0
 34
0.0
 15
0.0
 25
0.0
 35
0.0
146
0.0
 13
0.0
 23
0.0
 33
0.0
 16
1.0
 26
0.0
 36
0.0
 17
0.0
 27
1.0
 37
0.0
 76
     0
330
23
331
37D
  0
LAYOUT
  5
1DD
102
{ACAD_REACTORS
330
1A
102
}
330
1A
100
AcDbPlotSettings
  1

  2
none_device
  4
Letter_(8.50_x_11.00_Inches)
  6

 40
6.35
 41
6.35
 42
6.35001
 43
6.35001
 44
215.9
 45
279.4
 46
0.0
 47
0.0
 48
0.0
 49
0.0
140
0.0
141
0.0
142
1.0
143
4.0846458703
 70
   688
 72
     0
 73
     1
 74
     1
  7

 75
     0
147
0.2448192651
148
305.0
149
430.0
100
AcDbLayout
  1
_Top
 70
     1
 71
     3
 10
0.0
 20
0.0
 11
0.0
 21
0.0
 12
0.0
 22
0.0
 32
0.0
 14
0.0
 24
0.0
 34
0.0
 15
0.0
 25
0.0
 35
0.0
146
0.0
 13
0.0
 23
0.0
 33
0.0
 16
1.0
 26
0.0
 36
0.0
 17
0.0
 27
1.0
 37
0.0
 76
     0
330
1DC
331
37F
  0
LAYOUT
  5
22
102
{ACAD_REACTORS
330
1A
102
}
330
1A
100
AcDbPlotSettings
  1

  2
none_device
  4
ANSI_A_(11.00_x_8.50_Inches)
  6

 40
6.35
 41
19.05
 42
6.35000508
 43
19.05000254
 44
279.4
 45
215.9
 46
133.34999746
 47
92.7627878866
 48
0.0
 49
0.0
140
0.0
141
0.0
142
0.2575192771
143
1.0
 70
  1696
 72
     0
 73
     0
 74
     0
  7

 75
     0
147
0.5913241897
148
-39.4088153714
149
0.0
100
AcDbLayout
  1
Model
 70
     1
 71
     0
 10
0.0
 20
0.0
 11
12.0
 21
9.0
 12
0.0
 22
0.0
 32
0.0
 14
-12.0078740157
 24
-16.9291338583
 34
0.0
 15
12.0078740157
 25
15.7480314961
 35
0.0
146
0.0
 13
0.0
 23
0.0
 33
0.0
 16
1.0
 26
0.0
 36
0.0
 17
0.0
 27
1.0
 37
0.0
 76
     0
330
1F
331
29
  0
MLINESTYLE
  5
18
102
{ACAD_REACTORS
330
17
102
}
330
17
100
AcDbMlineStyle
  2
Standard
 70
     0
  3

 62
   256
 51
90.0
 52
90.0
 71
     2
 49
0.5
 62
   256
  6
BYLAYER
 49
-0.5
 62
   256
  6
BYLAYER
  0
ACDBPLACEHOLDER
  5
F
102
{ACAD_REACTORS
330
E
102
}
330
E
  0
SCALE
  5
48
102
{ACAD_REACTORS
330
47
102
}
330
47
100
AcDbScale
 70
     0
300
1:1
140
1.0
141
1.0
290
     1
  0
SCALE
  5
49
102
{ACAD_REACTORS
330
47
102
}
330
47
100
AcDbScale
 70
     0
300
1:2
140
1.0
141
2.0
290
     0
  0
SCALE
  5
4A
102
{ACAD_REACTORS
330
47
102
}
330
47
100
AcDbScale
 70
     0
300
1:4
140
1.0
141
4.0
290
     0
  0
SCALE
  5
4B
102
{ACAD_REACTORS
330
47
102
}
330
47
100
AcDbScale
 70
     0
300
1:5
140
1.0
141
5.0
290
     0
  0
SCALE
  5
4C
102
{ACAD_REACTORS
330
47
102
}
330
47
100
AcDbScale
 70
     0
300
1:8
140
1.0
141
8.0
290
     0
  0
SCALE
  5
4D
102
{ACAD_REACTORS
330
47
102
}
330
47
100
AcDbScale
 70
     0
300
1:10
140
1.0
141
10.0
290
     0
  0
SCALE
  5
4E
102
{ACAD_REACTORS
330
47
102
}
330
47
100
AcDbScale
 70
     0
300
1:16
140
1.0
141
16.0
290
     0
  0
SCALE
  5
4F
102
{ACAD_REACTORS
330
47
102
}
330
47
100
AcDbScale
 70
     0
300
1:20
140
1.0
141
20.0
290
     0
  0
SCALE
  5
50
102
{ACAD_REACTORS
330
47
102
}
330
47
100
AcDbScale
 70
     0
300
1:30
140
1.0
141
30.0
290
     0
  0
SCALE
  5
51
102
{ACAD_REACTORS
330
47
102
}
330
47
100
AcDbScale
 70
     0
300
1:40
140
1.0
141
40.0
290
     0
  0
SCALE
  5
52
102
{ACAD_REACTORS
330
47
102
}
330
47
100
AcDbScale
 70
     0
300
1:50
140
1.0
141
50.0
290
     0
  0
SCALE
  5
53
102
{ACAD_REACTORS
330
47
102
}
330
47
100
AcDbScale
 70
     0
300
1:100
140
1.0
141
100.0
290
     0
  0
SCALE
  5
54
102
{ACAD_REACTORS
330
47
102
}
330
47
100
AcDbScale
 70
     0
300
2:1
140
2.0
141
1.0
290
     0
  0
SCALE
  5
55
102
{ACAD_REACTORS
330
47
102
}
330
47
100
AcDbScale
 70
     0
300
4:1
140
4.0
141
1.0
290
     0
  0
SCALE
  5
56
102
{ACAD_REACTORS
330
47
102
}
330
47
100
AcDbScale
 70
     0
300
8:1
140
8.0
141
1.0
290
     0
  0
SCALE
  5
57
102
{ACAD_REACTORS
330
47
102
}
330
47
100
AcDbScale
 70
     0
300
10:1
140
10.0
141
1.0
290
     0
  0
SCALE
  5
58
102
{ACAD_REACTORS
330
47
102
}
330
47
100
AcDbScale
 70
     0
300
100:1
140
100.0
141
1.0
290
     0
  0
SCALE
  5
59
102
{ACAD_REACTORS
330
47
102
}
330
47
100
AcDbScale
 70
     0
300
1/128" = 1'-0"
140
0.0078125
141
12.0
290
     0
  0
SCALE
  5
5A
102
{ACAD_REACTORS
330
47
102
}
330
47
100
AcDbScale
 70
     0
300
1/64" = 1'-0"
140
0.015625
141
12.0
290
     0
  0
SCALE
  5
5B
102
{ACAD_REACTORS
330
47
102
}
330
47
100
AcDbScale
 70
     0
300
1/32" = 1'-0"
140
0.03125
141
12.0
290
     0
  0
SCALE
  5
5C
102
{ACAD_REACTORS
330
47
102
}
330
47
100
AcDbScale
 70
     0
300
1/16" = 1'-0"
140
0.0625
141
12.0
290
     0
  0
SCALE
  5
5D
102
{ACAD_REACTORS
330
47
102
}
330
47
100
AcDbScale
 70
     0
300
3/32" = 1'-0"
140
0.09375
141
12.0
290
     0
  0
SCALE
  5
5E
102
{ACAD_REACTORS
330
47
102
}
330
47
100
AcDbScale
 70
     0
300
1/8" = 1'-0"
140
0.125
141
12.0
290
     0
  0
SCALE
  5
5F
102
{ACAD_REACTORS
330
47
102
}
330
47
100
AcDbScale
 70
     0
300
3/16" = 1'-0"
140
0.1875
141
12.0
290
     0
  0
SCALE
  5
60
102
{ACAD_REACTORS
330
47
102
}
330
47
100
AcDbScale
 70
     0
300
1/4" = 1'-0"
140
0.25
141
12.0
290
     0
  0
SCALE
  5
61
102
{ACAD_REACTORS
330
47
102
}
330
47
100
AcDbScale
 70
     0
300
3/8" = 1'-0"
140
0.375
141
12.0
290
     0
  0
SCALE
  5
62
102
{ACAD_REACTORS
330
47
102
}
330
47
100
AcDbScale
 70
     0
300
1/2" = 1'-0"
140
0.5
141
12.0
290
     0
  0
SCALE
  5
63
102
{ACAD_REACTORS
330
47
102
}
330
47
100
AcDbScale
 70
     0
300
3/4" = 1'-0"
140
0.75
141
12.0
290
     0
  0
SCALE
  5
64
102
{ACAD_REACTORS
330
47
102
}
330
47
100
AcDbScale
 70
     0
300
1" = 1'-0"
140
1.0
141
12.0
290
     0
  0
SCALE
  5
65
102
{ACAD_REACTORS
330
47
102
}
330
47
100
AcDbScale
 70
     0
300
1-1/2" = 1'-0"
140
1.5
141
12.0
290
     0
  0
SCALE
  5
66
102
{ACAD_REACTORS
330
47
102
}
330
47
100
AcDbScale
 70
     0
300
3" = 1'-0"
140
3.0
141
12.0
290
     0
  0
SCALE
  5
67
102
{ACAD_REACTORS
330
47
102
}
330
47
100
AcDbScale
 70
     0
300
6" = 1'-0"
140
6.0
141
12.0
290
     0
  0
SCALE
  5
68
102
{ACAD_REACTORS
330
47
102
}
330
47
100
AcDbScale
 70
     0
300
1'-0" = 1'-0"
140
12.0
141
12.0
290
     0
  0
ENDSEC
  0
EOF
