  0
SECTION
  2
HEADER
  9
$ACADVER
  1
AC1015
  9
$ACADMAINTVER
 70
     6
  9
$DWGCODEPAGE
  3
ANSI_1252
  9
$INSBASE
 10
0.0
 20
0.0
 30
0.0
  9
$EXTMIN
 10
-1.968503937
 20
-3.8385826772
 30
0.0
  9
$EXTMAX
 10
1.968503937
 20
6.9881889764
 30
0.0
  9
$LIMMIN
 10
0.0
 20
0.0
  9
$LIMMAX
 10
12.0
 20
9.0
  9
$ORTHOMODE
 70
     0
  9
$REGENMODE
 70
     1
  9
$FILLMODE
 70
     1
  9
$QTEXTMODE
 70
     0
  9
$MIRRTEXT
 70
     1
  9
$LTSCALE
 40
1.0
  9
$ATTMODE
 70
     1
  9
$TEXTSIZE
 40
0.1377952756
  9
$TRACEWID
 40
0.05
  9
$TEXTSTYLE
  7
Standard
  9
$CLAYER
  8
0
  9
$CELTYPE
  6
ByLayer
  9
$CECOLOR
 62
   256
  9
$CELTSCALE
 40
1.0
  9
$DISPSILH
 70
     0
  9
$DIMSCALE
 40
1.0
  9
$DIMASZ
 40
0.13
  9
$DIMEXO
 40
0.0393700787
  9
$DIMDLI
 40
0.38
  9
$DIMRND
 40
0.0
  9
$DIMDLE
 40
0.0
  9
$DIMEXE
 40
0.0393700787
  9
$DIMTP
 40
0.0
  9
$DIMTM
 40
0.0
  9
$DIMTXT
 40
0.1377952756
  9
$DIMCEN
 40
0.09
  9
$DIMTSZ
 40
0.0
  9
$DIMTOL
 70
     0
  9
$DIMLIM
 70
     0
  9
$DIMTIH
 70
     1
  9
$DIMTOH
 70
     1
  9
$DIMSE1
 70
     0
  9
$DIMSE2
 70
     0
  9
$DIMTAD
 70
     1
  9
$DIMZIN
 70
     1
  9
$DIMBLK
  1

  9
$DIMASO
 70
     1
  9
$DIMSHO
 70
     1
  9
$DIMPOST
  1

  9
$DIMAPOST
  1

  9
$DIMALT
 70
     0
  9
$DIMALTD
 70
     2
  9
$DIMALTF
 40
25.4
  9
$DIMLFAC
 40
1.0
  9
$DIMTOFL
 70
     0
  9
$DIMTVP
 40
0.0
  9
$DIMTIX
 70
     0
  9
$DIMSOXD
 70
     0
  9
$DIMSAH
 70
     0
  9
$DIMBLK1
  1

  9
$DIMBLK2
  1

  9
$DIMSTYLE
  2
Standard
  9
$DIMCLRD
 70
     0
  9
$DIMCLRE
 70
     0
  9
$DIMCLRT
 70
     0
  9
$DIMTFAC
 40
1.0
  9
$DIMGAP
 40
0.06
  9
$DIMJUST
 70
     0
  9
$DIMSD1
 70
     0
  9
$DIMSD2
 70
     0
  9
$DIMTOLJ
 70
     1
  9
$DIMTZIN
 70
     1
  9
$DIMALTZ
 70
     0
  9
$DIMALTTZ
 70
     0
  9
$DIMUPT
 70
     0
  9
$DIMDEC
 70
     2
  9
$DIMTDEC
 70
     2
  9
$DIMALTU
 70
     2
  9
$DIMALTTD
 70
     2
  9
$DIMTXSTY
  7
Standard
  9
$DIMAUNIT
 70
     0
  9
$DIMADEC
 70
     2
  9
$DIMALTRND
 40
0.0
  9
$DIMAZIN
 70
     0
  9
$DIMDSEP
 70
    46
  9
$DIMATFIT
 70
     3
  9
$DIMFRAC
 70
     0
  9
$DIMLDRBLK
  1

  9
$DIMLUNIT
 70
     2
  9
$DIMLWD
 70
    -2
  9
$DIMLWE
 70
    -2
  9
$DIMTMOVE
 70
     0
  9
$LUNITS
 70
     2
  9
$LUPREC
 70
     2
  9
$SKETCHINC
 40
0.1
  9
$FILLETRAD
 40
0.5
  9
$AUNITS
 70
     0
  9
$AUPREC
 70
     2
  9
$MENU
  1
.
  9
$ELEVATION
 40
0.0
  9
$PELEVATION
 40
0.0
  9
$THICKNESS
 40
0.0
  9
$LIMCHECK
 70
     0
  9
$CHAMFERA
 40
0.0
  9
$CHAMFERB
 40
0.0
  9
$CHAMFERC
 40
0.0
  9
$CHAMFERD
 40
0.0
  9
$SKPOLY
 70
     0
  9
$TDCREATE
 40
2460356.494351701
  9
$TDUCREATE
 40
2460356.494351701
  9
$TDUPDATE
 40
2460356.494387477
  9
$TDUUPDATE
 40
2460356.494387477
  9
$TDINDWG
 40
0.0000000116
  9
$TDUSRTIMER
 40
0.0000000116
  9
$USRTIMER
 70
     1
  9
$ANGBASE
 50
0.0
  9
$ANGDIR
 70
     0
  9
$PDMODE
 70
     0
  9
$PDSIZE
 40
-1.0
  9
$PLINEWID
 40
0.0
  9
$SPLFRAME
 70
     0
  9
$SPLINETYPE
 70
     6
  9
$SPLINESEGS
 70
     8
  9
$HANDSEED
  5
30D
  9
$SURFTAB1
 70
     6
  9
$SURFTAB2
 70
     6
  9
$SURFTYPE
 70
     6
  9
$SURFU
 70
     6
  9
$SURFV
 70
     6
  9
$UCSBASE
  2

  9
$UCSNAME
  2

  9
$UCSORG
 10
0.0
 20
0.0
 30
0.0
  9
$UCSXDIR
 10
1.0
 20
0.0
 30
0.0
  9
$UCSYDIR
 10
0.0
 20
1.0
 30
0.0
  9
$UCSORTHOREF
  2

  9
$UCSORTHOVIEW
 70
     0
  9
$UCSORGTOP
 10
0.0
 20
0.0
 30
0.0
  9
$UCSORGBOTTOM
 10
0.0
 20
0.0
 30
0.0
  9
$UCSORGLEFT
 10
0.0
 20
0.0
 30
0.0
  9
$UCSORGRIGHT
 10
0.0
 20
0.0
 30
0.0
  9
$UCSORGFRONT
 10
0.0
 20
0.0
 30
0.0
  9
$UCSORGBACK
 10
0.0
 20
0.0
 30
0.0
  9
$PUCSBASE
  2

  9
$PUCSNAME
  2

  9
$PUCSORG
 10
0.0
 20
0.0
 30
0.0
  9
$PUCSXDIR
 10
1.0
 20
0.0
 30
0.0
  9
$PUCSYDIR
 10
0.0
 20
1.0
 30
0.0
  9
$PUCSORTHOREF
  2

  9
$PUCSORTHOVIEW
 70
     0
  9
$PUCSORGTOP
 10
0.0
 20
0.0
 30
0.0
  9
$PUCSORGBOTTOM
 10
0.0
 20
0.0
 30
0.0
  9
$PUCSORGLEFT
 10
0.0
 20
0.0
 30
0.0
  9
$PUCSORGRIGHT
 10
0.0
 20
0.0
 30
0.0
  9
$PUCSORGFRONT
 10
0.0
 20
0.0
 30
0.0
  9
$PUCSORGBACK
 10
0.0
 20
0.0
 30
0.0
  9
$USERI1
 70
     0
  9
$USERI2
 70
     0
  9
$USERI3
 70
     0
  9
$USERI4
 70
     0
  9
$USERI5
 70
     0
  9
$USERR1
 40
0.0
  9
$USERR2
 40
0.0
  9
$USERR3
 40
0.0
  9
$USERR4
 40
0.0
  9
$USERR5
 40
0.0
  9
$WORLDVIEW
 70
     1
  9
$SHADEDGE
 70
     3
  9
$SHADEDIF
 70
    70
  9
$TILEMODE
 70
     1
  9
$MAXACTVP
 70
    64
  9
$PINSBASE
 10
0.0
 20
0.0
 30
0.0
  9
$PLIMCHECK
 70
     0
  9
$PEXTMIN
 10
-1.968503937
 20
-3.8385826772
 30
0.0
  9
$PEXTMAX
 10
1.968503937
 20
6.9881889764
 30
0.0
  9
$PLIMMIN
 10
-2.3068411006
 20
-4.176919308
  9
$PLIMMAX
 10
12.5799706556
 20
7.32652614
  9
$UNITMODE
 70
     0
  9
$VISRETAIN
 70
     1
  9
$PLINEGEN
 70
     0
  9
$PSLTSCALE
 70
     1
  9
$TREEDEPTH
 70
  3020
  9
$CMLSTYLE
  2
Standard
  9
$CMLJUST
 70
     0
  9
$CMLSCALE
 40
1.0
  9
$PROXYGRAPHICS
 70
     1
  9
$MEASUREMENT
 70
     0
  9
$CELWEIGHT
370
    -1
  9
$ENDCAPS
280
     0
  9
$JOINSTYLE
280
     0
  9
$LWDISPLAY
290
     1
  9
$INSUNITS
 70
     1
  9
$HYPERLINKBASE
  1

  9
$STYLESHEET
  1

  9
$XEDIT
290
     1
  9
$CEPSNTYPE
380
     0
  9
$PSTYLEMODE
290
     1
  9
$FINGERPRINTGUID
  2
{10b45920-ac18-47f9-9d58-75d73ce42e37}
  9
$VERSIONGUID
  2
{FAEB1C32-E019-11D5-929B-00C0DF256EC4}
  9
$EXTNAMES
290
     1
  9
$PSVPSCALE
 40
0.0
  9
$OLESTARTUP
290
     0
  0
ENDSEC
  0
SECTION
  2
CLASSES
  0
CLASS
  1
ACDBDICTIONARYWDFLT
  2
AcDbDictionaryWithDefault
  3
ObjectDBX Classes
 90
        0
280
     0
281
     0
  0
CLASS
  1
VISUALSTYLE
  2
AcDbVisualStyle
  3
ObjectDBX Classes
 90
     4095
280
     0
281
     0
  0
CLASS
  1
MATERIAL
  2
AcDbMaterial
  3
ObjectDBX Classes
 90
     1153
280
     0
281
     0
  0
CLASS
  1
SCALE
  2
AcDbScale
  3
ObjectDBX Classes
 90
     1153
280
     0
281
     0
  0
CLASS
  1
TABLESTYLE
  2
AcDbTableStyle
  3
ObjectDBX Classes
 90
     4095
280
     0
281
     0
  0
CLASS
  1
MLEADERSTYLE
  2
AcDbMLeaderStyle
  3
ACDB_MLEADERSTYLE_CLASS
 90
     4095
280
     0
281
     0
  0
CLASS
  1
SUN
  2
AcDbSun
  3
SCENEOE
 90
     1153
280
     0
281
     0
  0
CLASS
  1
ACDBPLACEHOLDER
  2
AcDbPlaceHolder
  3
ObjectDBX Classes
 90
        0
280
     0
281
     0
  0
CLASS
  1
LAYOUT
  2
AcDbLayout
  3
ObjectDBX Classes
 90
        0
280
     0
281
     0
  0
ENDSEC
  0
SECTION
  2
TABLES
  0
TABLE
  2
VPORT
  5
8
330
0
100
AcDbSymbolTable
 70
     1
  0
VPORT
  5
29
330
8
100
AcDbSymbolTableRecord
100
AcDbViewportTableRecord
  2
*Active
 70
     0
 10
0.0
 20
0.0
 11
1.0
 21
1.0
 12
0.0
 22
1.5748031496
 13
0.0
 23
0.0
 14
0.5
 24
0.5
 15
0.5
 25
0.5
 16
0.0
 26
0.0
 36
1.0
 17
0.0
 27
0.0
 37
0.0
 40
11.0433070866
 41
0.3636363636
 42
50.0
 43
0.0
 44
0.0
 50
0.0
 51
0.0
 71
     0
 72
   100
 73
     1
 74
     3
 75
     0
 76
     0
 77
     0
 78
     0
281
     0
 65
     1
110
0.0
120
0.0
130
0.0
111
1.0
121
0.0
131
0.0
112
0.0
122
1.0
132
0.0
 79
     0
146
0.0
  0
ENDTAB
  0
TABLE
  2
LTYPE
  5
5
330
0
100
AcDbSymbolTable
 70
     6
  0
LTYPE
  5
14
330
5
100
AcDbSymbolTableRecord
100
AcDbLinetypeTableRecord
  2
ByBlock
 70
     0
  3

 72
    65
 73
     0
 40
0.0
  0
LTYPE
  5
15
330
5
100
AcDbSymbolTableRecord
100
AcDbLinetypeTableRecord
  2
ByLayer
 70
     0
  3

 72
    65
 73
     0
 40
0.0
  0
LTYPE
  5
16
330
5
100
AcDbSymbolTableRecord
100
AcDbLinetypeTableRecord
  2
Continuous
 70
     0
  3
Solid line
 72
    65
 73
     0
 40
0.0
  0
LTYPE
  5
6E
330
5
100
AcDbSymbolTableRecord
100
AcDbLinetypeTableRecord
  2
HIDDEN
 70
     0
  3
Hidden __ __ __ __ __ __ __ __ __ __ __ __ __ __
 72
    65
 73
     2
 40
0.075
 49
0.05
 74
     0
 49
-0.025
 74
     0
  0
LTYPE
  5
6F
330
5
100
AcDbSymbolTableRecord
100
AcDbLinetypeTableRecord
  2
PHANTOM
 70
     0
  3
Phantom ______  __  __  ______  __  __  ______
 72
    65
 73
     6
 40
0.5
 49
0.25
 74
     0
 49
-0.05
 74
     0
 49
0.05
 74
     0
 49
-0.05
 74
     0
 49
0.05
 74
     0
 49
-0.05
 74
     0
  0
LTYPE
  5
70
330
5
100
AcDbSymbolTableRecord
100
AcDbLinetypeTableRecord
  2
CENTER
 70
     0
  3
Center ____ _ ____ _ ____ _ ____ _ ____ _ ____
 72
    65
 73
     4
 40
0.4
 49
0.25
 74
     0
 49
-0.05
 74
     0
 49
0.05
 74
     0
 49
-0.05
 74
     0
  0
LTYPE
  5
71
330
5
100
AcDbSymbolTableRecord
100
AcDbLinetypeTableRecord
  2
CENTERX2
 70
     0
  3
Center (2x) ________  __  ________  __  _____
 72
    65
 73
     4
 40
0.8
 49
0.5
 74
     0
 49
-0.1
 74
     0
 49
0.1
 74
     0
 49
-0.1
 74
     0
  0
LTYPE
  5
72
330
5
100
AcDbSymbolTableRecord
100
AcDbLinetypeTableRecord
  2
DOT2
 70
     0
  3
Dot (.5x) ........................................
 72
    65
 73
     2
 40
0.025
 49
0.0
 74
     0
 49
-0.025
 74
     0
  0
ENDTAB
  0
TABLE
  2
LAYER
  5
2
330
0
100
AcDbSymbolTable
 70
     1
  0
LAYER
  5
10
330
2
100
AcDbSymbolTableRecord
100
AcDbLayerTableRecord
  2
0
 70
     0
 62
     7
  6
Continuous
370
    -3
390
F
  0
ENDTAB
  0
TABLE
  2
STYLE
  5
3
330
0
100
AcDbSymbolTable
 70
     1
  0
STYLE
  5
11
330
3
100
AcDbSymbolTableRecord
100
AcDbTextStyleTableRecord
  2
Standard
 70
     0
 40
0.0
 41
1.0
 50
0.0
 71
     0
 42
0.1377952756
  3
txt
  4

  0
ENDTAB
  0
TABLE
  2
VIEW
  5
6
330
0
100
AcDbSymbolTable
 70
     0
  0
ENDTAB
  0
TABLE
  2
UCS
  5
7
330
0
100
AcDbSymbolTable
 70
     0
  0
ENDTAB
  0
TABLE
  2
APPID
  5
9
330
0
100
AcDbSymbolTable
 70
     1
  0
APPID
  5
12
330
9
100
AcDbSymbolTableRecord
100
AcDbRegAppTableRecord
  2
ACAD
 70
     0
  0
ENDTAB
  0
TABLE
  2
DIMSTYLE
  5
A
330
0
100
AcDbSymbolTable
 70
     1
100
AcDbDimStyleTable
  0
DIMSTYLE
105
27
330
A
100
AcDbSymbolTableRecord
100
AcDbDimStyleTableRecord
  2
Standard
 70
     0
178
     0
340
11
  0
ENDTAB
  0
TABLE
  2
BLOCK_RECORD
  5
1
330
0
100
AcDbSymbolTable
 70
     5
  0
BLOCK_RECORD
  5
1F
330
1
100
AcDbSymbolTableRecord
100
AcDbBlockTableRecord
  2
*Model_Space
340
22
  0
BLOCK_RECORD
  5
1B
330
1
100
AcDbSymbolTableRecord
100
AcDbBlockTableRecord
  2
*Paper_Space
340
1E
  0
BLOCK_RECORD
  5
23
330
1
100
AcDbSymbolTableRecord
100
AcDbBlockTableRecord
  2
*Paper_Space0
340
26
  0
BLOCK_RECORD
  5
182
330
1
100
AcDbSymbolTableRecord
100
AcDbBlockTableRecord
  2
*Paper_Space1
340
183
  0
BLOCK_RECORD
  5
1FD
330
1
100
AcDbSymbolTableRecord
100
AcDbBlockTableRecord
  2
*Paper_Space2
340
1FE
  0
BLOCK_RECORD
  5
229
330
1
100
AcDbSymbolTableRecord
100
AcDbBlockTableRecord
  2
*Paper_Space3
340
22A
  0
BLOCK_RECORD
  5
253
330
1
100
AcDbSymbolTableRecord
100
AcDbBlockTableRecord
  2
*Paper_Space4
340
254
  0
ENDTAB
  0
ENDSEC
  0
SECTION
  2
BLOCKS
  0
BLOCK
  5
20
330
1F
100
AcDbEntity
  8
0
100
AcDbBlockBegin
  2
*Model_Space
 70
     0
 10
0.0
 20
0.0
 30
0.0
  3
*Model_Space
  1

  0
ENDBLK
  5
21
330
1F
100
AcDbEntity
  8
0
100
AcDbBlockEnd
  0
BLOCK
  5
1C
330
1B
100
AcDbEntity
 67
     1
  8
0
100
AcDbBlockBegin
  2
*Paper_Space
 70
     0
 10
0.0
 20
0.0
 30
0.0
  3
*Paper_Space
  1

  0
ENDBLK
  5
1D
330
1B
100
AcDbEntity
 67
     1
  8
0
100
AcDbBlockEnd
  0
BLOCK
  5
24
330
23
100
AcDbEntity
  8
0
100
AcDbBlockBegin
  2
*Paper_Space0
 70
     0
 10
0.0
 20
0.0
 30
0.0
  3
*Paper_Space0
  1

  0
SPLINE
  5
12A
330
23
100
AcDbEntity
  8
0
  6
Continuous
 62
     7
370
    25
100
AcDbSpline
210
0.0
220
0.0
230
1.0
 70
     8
 71
     3
 72
    10
 73
     6
 74
     0
 42
0.000000001
 43
0.00000001
 40
0.0
 40
0.0
 40
0.0
 40
0.0
 40
0.4266149572753364
 40
0.8533055715303571
 40
0.9999999999999999
 40
0.9999999999999999
 40
0.9999999999999999
 40
0.9999999999999999
 10
1.480092952256102
 20
5.545515818848741
 30
0.0
 10
1.470519568903715
 20
5.546746829198006
 30
0.0
 10
1.451371104430828
 20
5.549209068207035
 30
0.0
 10
1.439380242755716
 20
5.551275613797338
 30
0.0
 10
1.441184683439951
 20
5.550975909531126
 30
0.0
 10
1.441646330283097
 20
5.550899233401186
 30
0.0
  0
SPLINE
  5
12B
330
23
100
AcDbEntity
  8
0
  6
Continuous
 62
     7
370
    25
100
AcDbSpline
210
0.0
220
0.0
230
1.0
 70
     8
 71
     3
 72
    15
 73
    11
 74
     0
 42
0.000000001
 43
0.00000001
 40
0.0
 40
0.0
 40
0.0
 40
0.0
 40
0.0430166330707145
 40
0.185893005706342
 40
0.3292251091584328
 40
0.4736395811908808
 40
0.6173734480184268
 40
0.758729210397608
 40
0.8989794196191515
 40
1.0
 40
1.0
 40
1.0
 40
1.0
 10
1.708077381291248
 20
5.550918835438552
 30
0.0
 10
1.708541241513237
 20
5.550994568882372
 30
0.0
 10
1.710545777078622
 20
5.55132184501951
 30
0.0
 10
1.698689783589462
 20
5.549362034161016
 30
0.0
 10
1.673485559292141
 20
5.545791055624145
 30
0.0
 10
1.635952209337695
 20
5.541924148493455
 30
0.0
 10
1.591744241690063
 20
5.539711660448523
 30
0.0
 10
1.546120085180644
 20
5.540069408569794
 30
0.0
 10
1.507487905318817
 20
5.542524776444925
 30
0.0
 10
1.488178035026483
 20
5.544633071382476
 30
0.0
 10
1.480092952256102
 20
5.545515818848741
 30
0.0
  0
SPLINE
  5
12F
330
23
100
AcDbEntity
  8
0
  6
Continuous
 62
     7
370
    25
100
AcDbSpline
210
0.0
220
0.0
230
1.0
 70
     8
 71
     3
 72
    17
 73
    13
 74
     0
 42
0.000000001
 43
0.00000001
 40
0.0
 40
0.0
 40
0.0
 40
0.0
 40
0.0701855963911181
 40
0.1770159135648154
 40
0.2845452382815534
 40
0.3925823255181026
 40
0.4994910592235307
 40
0.6046882165210689
 40
0.7098083614788468
 40
0.8165495372201202
 40
0.9245465299550151
 40
1.0
 40
1.0
 40
1.0
 40
1.0
 10
1.441646330283057
 20
0.748313365023984
 30
0.0
 10
1.441602749285067
 20
0.7483080460765386
 30
0.0
 10
1.441492833140304
 20
0.7482946310969746
 30
0.0
 10
1.458453599357761
 20
0.7510061743834923
 30
0.0
 10
1.488466485285697
 20
0.7548883599113051
 30
0.0
 10
1.528957363103865
 20
0.7583412795536469
 30
0.0
 10
1.574342080064296
 20
0.759681822822043
 30
0.0
 10
1.61933335840356
 20
0.7583992221576881
 30
0.0
 10
1.659386335945173
 20
0.755072749281293
 30
0.0
 10
1.689846073999394
 20
0.7512007899317238
 30
0.0
 10
1.707735226534582
 20
0.7483584741939431
 30
0.0
 10
1.707977665680873
 20
0.7483126220479283
 30
0.0
 10
1.708077381291208
 20
0.7482937629866133
 30
0.0
  0
SPLINE
  5
130
330
23
100
AcDbEntity
  8
0
  6
Continuous
 62
     7
370
    25
100
AcDbSpline
210
0.0
220
0.0
230
1.0
 70
     8
 71
     3
 72
    17
 73
    13
 74
     0
 42
0.000000001
 43
0.00000001
 40
0.0
 40
0.0
 40
0.0
 40
0.0
 40
0.1061568951630877
 40
0.2122721437434714
 40
0.3194743245616717
 40
0.4274694565326138
 40
0.5342583542286459
 40
0.6397173124736713
 40
0.745796841336478
 40
0.8534678735992773
 40
0.961245997838982
 40
0.9999999999999999
 40
0.9999999999999999
 40
0.9999999999999999
 40
0.9999999999999999
 10
1.352362204724396
 20
2.401574803149585
 30
0.0
 10
1.350714798172505
 20
2.401264597535746
 30
0.0
 10
1.347420631365442
 20
2.400644308005333
 30
0.0
 10
1.321775743261088
 20
2.396313244767446
 30
0.0
 10
1.283789399018766
 20
2.391407503641344
 30
0.0
 10
1.235925533840925
 20
2.387788830758492
 30
0.0
 10
1.184316090107935
 20
2.387191646214469
 30
0.0
 10
1.135002594899701
 20
2.38977938863742
 30
0.0
 10
1.092643608766559
 20
2.394464790518635
 30
0.0
 10
1.06310703559616
 20
2.399033441033674
 30
0.0
 10
1.04868864399532
 20
2.401669405000099
 30
0.0
 10
1.050652577754549
 20
2.401312845714535
 30
0.0
 10
1.051171988036913
 20
2.401218544896942
 30
0.0
  0
SPLINE
  5
145
330
23
100
AcDbEntity
  8
0
  6
Continuous
 62
     7
370
    25
100
AcDbSpline
210
0.0
220
0.0
230
1.0
 70
     8
 71
     3
 72
    10
 73
     6
 74
     0
 42
0.000000001
 43
0.00000001
 40
0.0
 40
0.0
 40
0.0
 40
0.0
 40
0.4266149572753364
 40
0.8533055715303571
 40
0.9999999999999999
 40
0.9999999999999999
 40
0.9999999999999999
 40
0.9999999999999999
 10
1.480092952256101
 20
-0.7536967795764773
 30
0.0
 10
1.470519568903713
 20
-0.7524657692272129
 30
0.0
 10
1.451371104430826
 20
-0.7500035302181836
 30
0.0
 10
1.439380242755715
 20
-0.7479369846278785
 30
0.0
 10
1.441184683439949
 20
-0.7482366888940915
 30
0.0
 10
1.441646330283095
 20
-0.748313365024032
 30
0.0
  0
SPLINE
  5
146
330
23
100
AcDbEntity
  8
0
  6
Continuous
 62
     7
370
    25
100
AcDbSpline
210
0.0
220
0.0
230
1.0
 70
     8
 71
     3
 72
    15
 73
    11
 74
     0
 42
0.000000001
 43
0.00000001
 40
0.0
 40
0.0
 40
0.0
 40
0.0
 40
0.0430166330707144
 40
0.1858930057063419
 40
0.3292251091584327
 40
0.4736395811908808
 40
0.6173734480184269
 40
0.7587292103976081
 40
0.8989794196191515
 40
1.0
 40
1.0
 40
1.0
 40
1.0
 10
1.708077381291246
 20
-0.7482937629866654
 30
0.0
 10
1.708541241513235
 20
-0.7482180295428461
 30
0.0
 10
1.71054577707862
 20
-0.7478907534057087
 30
0.0
 10
1.69868978358946
 20
-0.7498505642642048
 30
0.0
 10
1.673485559292138
 20
-0.7534215428010745
 30
0.0
 10
1.635952209337694
 20
-0.7572884499317635
 30
0.0
 10
1.591744241690061
 20
-0.7595009379766948
 30
0.0
 10
1.546120085180642
 20
-0.7591431898554252
 30
0.0
 10
1.507487905318815
 20
-0.7566878219802915
 30
0.0
 10
1.488178035026481
 20
-0.7545795270427422
 30
0.0
 10
1.480092952256101
 20
-0.7536967795764773
 30
0.0
  0
LINE
  5
150
330
23
100
AcDbEntity
  8
0
  6
Continuous
 62
     7
370
    25
100
AcDbLine
 10
0.3937007874
 20
3.8976377953
 30
0.0
 11
1.968503937
 21
3.8976377953
 31
0.0
  0
LINE
  5
151
330
23
100
AcDbEntity
  8
0
  6
Continuous
 62
     7
370
    25
100
AcDbLine
 10
1.4416463303
 20
5.5511811024
 30
0.0
 11
0.3937007874
 21
5.5511811024
 31
0.0
  0
LINE
  5
152
330
23
100
AcDbEntity
  8
0
  6
Continuous
 62
     7
370
    25
100
AcDbLine
 10
1.968503937
 20
5.5511811024
 30
0.0
 11
1.7080773813
 21
5.5511811024
 31
0.0
  0
LINE
  5
153
330
23
100
AcDbEntity
  8
0
  6
Continuous
 62
     7
370
    25
100
AcDbLine
 10
1.7096926393
 20
5.5510391337
 30
0.0
 11
1.6732283465
 21
6.0433070866
 31
0.0
  0
LINE
  5
154
330
23
100
AcDbEntity
  8
0
  6
Continuous
 62
     7
370
    25
100
AcDbLine
 10
1.4763779528
 20
6.0433070866
 30
0.0
 11
1.4399128389
 21
5.551028049
 31
0.0
  0
LINE
  5
155
330
23
100
AcDbEntity
  8
0
  6
Continuous
 62
     7
370
    25
100
AcDbLine
 10
1.7080773813
 20
0.7480314961
 30
0.0
 11
1.968503937
 21
0.7480314961
 31
0.0
  0
LINE
  5
156
330
23
100
AcDbEntity
  8
0
  6
Continuous
 62
     7
370
    25
100
AcDbLine
 10
0.3937007874
 20
0.7480314961
 30
0.0
 11
1.4416463303
 21
0.7480314961
 31
0.0
  0
LINE
  5
157
330
23
100
AcDbEntity
  8
0
  6
Continuous
 62
     7
370
    25
100
AcDbLine
 10
1.051171988
 20
2.4015748031
 30
0.0
 11
0.3937007874
 21
2.4015748031
 31
0.0
  0
LINE
  5
158
330
23
100
AcDbEntity
  8
0
  6
Continuous
 62
     7
370
    25
100
AcDbLine
 10
1.968503937
 20
2.4015748031
 30
0.0
 11
1.3523622047
 21
2.4015748031
 31
0.0
  0
LINE
  5
159
330
23
100
AcDbEntity
  8
0
  6
Continuous
 62
     7
370
    25
100
AcDbLine
 10
1.3523622047
 20
2.4015748031
 30
0.0
 11
1.3523622047
 21
2.5078606166
 31
0.0
  0
LINE
  5
15A
330
23
100
AcDbEntity
  8
0
  6
Continuous
 62
     7
370
    25
100
AcDbLine
 10
1.0492125984
 20
2.5078606166
 30
0.0
 11
1.0492125984
 21
2.4012192571
 31
0.0
  0
LINE
  5
15B
330
23
100
AcDbEntity
  8
0
  6
Continuous
 62
     7
370
    25
100
AcDbLine
 10
1.4399128389
 20
0.7481845494
 30
0.0
 11
1.4763779528
 21
0.2559055118
 31
0.0
  0
LINE
  5
15C
330
23
100
AcDbEntity
  8
0
  6
Continuous
 62
     7
370
    25
100
AcDbLine
 10
1.6732283465
 20
0.2559055118
 30
0.0
 11
1.7096926393
 21
0.7481734647
 31
0.0
  0
LINE
  5
15D
330
23
100
AcDbEntity
  8
0
  6
Continuous
 62
     7
370
    25
100
AcDbLine
 10
0.3937007874
 20
-2.4015748031
 30
0.0
 11
1.968503937
 21
-2.4015748031
 31
0.0
  0
LINE
  5
15E
330
23
100
AcDbEntity
  8
0
  6
Continuous
 62
     7
370
    25
100
AcDbLine
 10
1.4416463303
 20
-0.7480314961
 30
0.0
 11
0.3937007874
 21
-0.7480314961
 31
0.0
  0
LINE
  5
15F
330
23
100
AcDbEntity
  8
0
  6
Continuous
 62
     7
370
    25
100
AcDbLine
 10
1.968503937
 20
-0.7480314961
 30
0.0
 11
1.7080773813
 21
-0.7480314961
 31
0.0
  0
LINE
  5
160
330
23
100
AcDbEntity
  8
0
  6
Continuous
 62
     7
370
    25
100
AcDbLine
 10
1.7096926393
 20
-0.7481734647
 30
0.0
 11
1.6732283465
 21
-0.2559055118
 31
0.0
  0
LINE
  5
161
330
23
100
AcDbEntity
  8
0
  6
Continuous
 62
     7
370
    25
100
AcDbLine
 10
1.4763779528
 20
-0.2559055118
 30
0.0
 11
1.4399128389
 21
-0.7481845494
 31
0.0
  0
LINE
  5
162
330
23
100
AcDbEntity
  8
0
  6
Continuous
 62
     7
370
    25
100
AcDbLine
 10
2.0078740157
 20
5.5118110236
 30
0.0
 11
2.0078740157
 21
3.937007874
 31
0.0
  0
LINE
  5
163
330
23
100
AcDbEntity
  8
0
  6
Continuous
 62
     7
370
    25
100
AcDbLine
 10
1.4763779528
 20
6.0433070866
 30
0.0
 11
1.6732283465
 21
6.0433070866
 31
0.0
  0
LINE
  5
164
330
23
100
AcDbEntity
  8
0
  6
Continuous
 62
     7
370
    25
100
AcDbLine
 10
2.0078740157
 20
2.3622047244
 30
0.0
 11
2.0078740157
 21
0.7874015748
 31
0.0
  0
LINE
  5
165
330
23
100
AcDbEntity
  8
0
  6
Continuous
 62
     7
370
    25
100
AcDbLine
 10
1.6732283465
 20
0.2559055118
 30
0.0
 11
1.4763779528
 21
0.2559055118
 31
0.0
  0
LINE
  5
166
330
23
100
AcDbEntity
  8
0
  6
Continuous
 62
     7
370
    25
100
AcDbLine
 10
0.374015748
 20
6.9881889764
 30
0.0
 11
0.2362204724
 21
6.9881889764
 31
0.0
  0
LINE
  5
167
330
23
100
AcDbEntity
  8
0
  6
Continuous
 62
     7
370
    25
100
AcDbLine
 10
0.374015748
 20
-3.8385826772
 30
0.0
 11
0.374015748
 21
6.9881889764
 31
0.0
  0
LINE
  5
168
330
23
100
AcDbEntity
  8
0
  6
Continuous
 62
     7
370
    25
100
AcDbLine
 10
0.3937007874
 20
6.3976377953
 30
0.0
 11
0.2362204724
 21
6.3976377953
 31
0.0
  0
LINE
  5
169
330
23
100
AcDbEntity
  8
0
  6
Continuous
 62
     7
370
    25
100
AcDbLine
 10
0.2362204724
 20
6.9881889764
 30
0.0
 11
0.2362204724
 21
-3.8385826772
 31
0.0
  0
LINE
  5
16A
330
23
100
AcDbEntity
  8
0
  6
Continuous
 62
     7
370
    25
100
AcDbLine
 10
0.3937007874
 20
-3.2480314961
 30
0.0
 11
0.2362204724
 21
-3.2480314961
 31
0.0
  0
LINE
  5
16B
330
23
100
AcDbEntity
  8
0
  6
Continuous
 62
     7
370
    25
100
AcDbLine
 10
0.3937007874
 20
6.968503937
 30
0.0
 11
0.3937007874
 21
-3.8188976378
 31
0.0
  0
LINE
  5
16C
330
23
100
AcDbEntity
  8
0
  6
Continuous
 62
     7
370
    25
100
AcDbLine
 10
0.374015748
 20
-3.8385826772
 30
0.0
 11
0.2362204724
 21
-3.8385826772
 31
0.0
  0
LINE
  5
16D
330
23
100
AcDbEntity
  8
0
  6
Continuous
 62
     7
370
    25
100
AcDbLine
 10
2.0078740157
 20
-0.7874015748
 30
0.0
 11
2.0078740157
 21
-2.3622047244
 31
0.0
  0
LINE
  5
16E
330
23
100
AcDbEntity
  8
0
  6
Continuous
 62
     7
370
    25
100
AcDbLine
 10
1.4763779528
 20
-0.2559055118
 30
0.0
 11
1.6732283465
 21
-0.2559055118
 31
0.0
  0
LINE
  5
16F
330
23
100
AcDbEntity
  8
0
  6
Continuous
 62
     8
370
    25
100
AcDbLine
 10
1.968503937
 20
3.8976377953
 30
0.0
 11
1.968503937
 21
5.5511811024
 31
0.0
  0
LINE
  5
170
330
23
100
AcDbEntity
  8
0
  6
Continuous
 62
     8
370
    25
100
AcDbLine
 10
1.968503937
 20
0.7480314961
 30
0.0
 11
1.968503937
 21
2.4015748031
 31
0.0
  0
LINE
  5
171
330
23
100
AcDbEntity
  8
0
  6
Continuous
 62
     8
370
    25
100
AcDbLine
 10
1.3523622047
 20
2.5078606166
 30
0.0
 11
1.0492125984
 21
2.5078606166
 31
0.0
  0
LINE
  5
172
330
23
100
AcDbEntity
  8
0
  6
Continuous
 62
     8
370
    25
100
AcDbLine
 10
1.0599996945
 20
2.5254198701
 30
0.0
 11
1.3415751086
 21
2.5254198701
 31
0.0
  0
LINE
  5
173
330
23
100
AcDbEntity
  8
0
  6
Continuous
 62
     8
370
    25
100
AcDbLine
 10
1.968503937
 20
-2.4015748031
 30
0.0
 11
1.968503937
 21
-0.7480314961
 31
0.0
  0
ARC
  5
174
330
23
100
AcDbEntity
  8
0
  6
Continuous
 62
     7
370
    25
100
AcDbCircle
 10
1.968503937
 20
5.5118110236
 30
0.0
 40
0.0393700787401585
100
AcDbArc
 50
0.0
 51
90.0
  0
ARC
  5
175
330
23
100
AcDbEntity
  8
0
  6
Continuous
 62
     7
370
    25
100
AcDbCircle
 10
1.968503937
 20
3.937007874
 30
0.0
 40
0.0393700787401583
100
AcDbArc
 50
270.0
 51
0.0
  0
ARC
  5
176
330
23
100
AcDbEntity
  8
0
  6
Continuous
 62
     7
370
    25
100
AcDbCircle
 10
1.5748031496
 20
6.0433070866
 30
0.0
 40
0.0984251968503937
100
AcDbArc
 50
0.0
 51
180.0
  0
ARC
  5
177
330
23
100
AcDbEntity
  8
0
  6
Continuous
 62
     7
370
    25
100
AcDbCircle
 10
1.968503937
 20
2.3622047244
 30
0.0
 40
0.0393700787401579
100
AcDbArc
 50
0.0
 51
90.0
  0
ARC
  5
178
330
23
100
AcDbEntity
  8
0
  6
Continuous
 62
     7
370
    25
100
AcDbCircle
 10
1.968503937
 20
0.7874015748
 30
0.0
 40
0.0393700787401579
100
AcDbArc
 50
270.0
 51
360.0
  0
ARC
  5
179
330
23
100
AcDbEntity
  8
0
  6
Continuous
 62
     7
370
    25
100
AcDbCircle
 10
1.3326771654
 20
2.5078606166
 30
0.0
 40
0.0196850393700803
100
AcDbArc
 50
0.0
 51
63.12692886
  0
ARC
  5
17A
330
23
100
AcDbEntity
  8
0
  6
Continuous
 62
     7
370
    25
100
AcDbCircle
 10
1.0688976378
 20
2.5078606166
 30
0.0
 40
0.0196850393700795
100
AcDbArc
 50
116.87307114
 51
180.0
  0
ARC
  5
17B
330
23
100
AcDbEntity
  8
0
  6
Continuous
 62
     7
370
    25
100
AcDbCircle
 10
1.2007874016
 20
2.2475885827
 30
0.0
 40
0.3114665354330643
100
AcDbArc
 50
63.12692886
 51
116.8730711399
  0
ARC
  5
17C
330
23
100
AcDbEntity
  8
0
  6
Continuous
 62
     7
370
    25
100
AcDbCircle
 10
1.5748031496
 20
0.2559055118
 30
0.0
 40
0.0984251968503942
100
AcDbArc
 50
180.0
 51
0.0
  0
ARC
  5
17D
330
23
100
AcDbEntity
  8
0
  6
Continuous
 62
     7
370
    25
100
AcDbCircle
 10
1.968503937
 20
-0.7874015748
 30
0.0
 40
0.0393700787401572
100
AcDbArc
 50
0.0
 51
90.0
  0
ARC
  5
17E
330
23
100
AcDbEntity
  8
0
  6
Continuous
 62
     7
370
    25
100
AcDbCircle
 10
1.968503937
 20
-2.3622047244
 30
0.0
 40
0.0393700787401572
100
AcDbArc
 50
270.0
 51
0.0
  0
ARC
  5
17F
330
23
100
AcDbEntity
  8
0
  6
Continuous
 62
     7
370
    25
100
AcDbCircle
 10
1.5748031496
 20
-0.2559055118
 30
0.0
 40
0.0984251968503942
100
AcDbArc
 50
0.0
 51
180.0
  0
ARC
  5
180
330
23
100
AcDbEntity
  8
0
  6
Continuous
 62
     7
370
    25
100
AcDbCircle
 10
0.374015748
 20
6.968503937
 30
0.0
 40
0.0196850393700791
100
AcDbArc
 50
0.0
 51
90.0
  0
ARC
  5
181
330
23
100
AcDbEntity
  8
0
  6
Continuous
 62
     7
370
    25
100
AcDbCircle
 10
0.374015748
 20
-3.8188976378
 30
0.0
 40
0.0196850393700787
100
AcDbArc
 50
270.0
 51
360.0
  0
VIEWPORT
  5
303
330
23
100
AcDbEntity
  8
0
100
AcDbViewport
 10
0.0
 20
0.0
 30
0.0
 40
8.4
 41
6.4
 68
     1
 69
     1
 12
0.0
 22
1.5748031496
 13
0.0
 23
0.0
 14
0.5
 24
0.5
 15
0.5
 25
0.5
 16
0.0
 26
0.0
 36
1.0
 17
0.0
 27
0.0
 37
0.0
 42
50.0
 43
0.0
 44
0.0
 45
11.0433070866
 50
0.0
 51
0.0
 72
   100
 90
   557152
  1

281
     0
 71
     1
 74
     0
110
0.0
120
0.0
130
0.0
111
1.0
121
0.0
131
0.0
112
0.0
122
1.0
132
0.0
 79
     0
146
0.0
  0
ENDBLK
  5
25
330
23
100
AcDbEntity
  8
0
100
AcDbBlockEnd
  0
BLOCK
  5
184
330
182
100
AcDbEntity
  8
0
100
AcDbBlockBegin
  2
*Paper_Space1
 70
     0
 10
0.0
 20
0.0
 30
0.0
  3
*Paper_Space1
  1

  0
SPLINE
  5
1A4
330
182
100
AcDbEntity
  8
0
  6
Continuous
 62
     7
370
    25
100
AcDbSpline
210
0.0
220
0.0
230
1.0
 70
     8
 71
     3
 72
    17
 73
    13
 74
     0
 42
0.000000001
 43
0.00000001
 40
0.0
 40
0.0
 40
0.0
 40
0.0
 40
0.0701855963911107
 40
0.1770159135648076
 40
0.284545238281553
 40
0.3925823255181071
 40
0.4994910592235334
 40
0.6046882165210712
 40
0.7098083614788517
 40
0.8165495372201207
 40
0.9245465299550227
 40
0.9999999999999999
 40
0.9999999999999999
 40
0.9999999999999999
 40
0.9999999999999999
 10
-1.441646330283097
 20
5.550899233401186
 30
0.0
 10
-1.441602749285109
 20
5.550904552348632
 30
0.0
 10
-1.441492833140348
 20
5.550917967328192
 30
0.0
 10
-1.458453599357795
 20
5.54820642404168
 30
0.0
 10
-1.48846648528574
 20
5.544324238513862
 30
0.0
 10
-1.528957363103906
 20
5.540871318871527
 30
0.0
 10
-1.574342080064338
 20
5.539530775603121
 30
0.0
 10
-1.6193333584036
 20
5.540813376267478
 30
0.0
 10
-1.659386335945217
 20
5.544139849143874
 30
0.0
 10
-1.689846073999431
 20
5.548011808493444
 30
0.0
 10
-1.707735226534628
 20
5.550854124231224
 30
0.0
 10
-1.707977665680914
 20
5.550899976377237
 30
0.0
 10
-1.708077381291248
 20
5.550918835438552
 30
0.0
  0
SPLINE
  5
1A8
330
182
100
AcDbEntity
  8
0
  6
Continuous
 62
     7
370
    25
100
AcDbSpline
210
0.0
220
0.0
230
1.0
 70
     8
 71
     3
 72
    10
 73
     6
 74
     0
 42
0.000000001
 43
0.00000001
 40
0.0
 40
0.0
 40
0.0
 40
0.0
 40
0.4266149572753485
 40
0.8533055715303766
 40
1.0
 40
1.0
 40
1.0
 40
1.0
 10
-1.480092952256064
 20
0.7536967795764278
 30
0.0
 10
-1.470519568903675
 20
0.7524657692271635
 30
0.0
 10
-1.451371104430786
 20
0.7500035302181343
 30
0.0
 10
-1.43938024275568
 20
0.7479369846278326
 30
0.0
 10
-1.441184683439912
 20
0.7482366888940438
 30
0.0
 10
-1.441646330283057
 20
0.748313365023984
 30
0.0
  0
SPLINE
  5
1A9
330
182
100
AcDbEntity
  8
0
  6
Continuous
 62
     7
370
    25
100
AcDbSpline
210
0.0
220
0.0
230
1.0
 70
     8
 71
     3
 72
    15
 73
    11
 74
     0
 42
0.000000001
 43
0.00000001
 40
0.0
 40
0.0
 40
0.0
 40
0.0
 40
0.0430166330707049
 40
0.1858930057063413
 40
0.3292251091584226
 40
0.4736395811908862
 40
0.6173734480184238
 40
0.758729210397609
 40
0.8989794196191611
 40
1.0
 40
1.0
 40
1.0
 40
1.0
 10
-1.708077381291208
 20
0.7482937629866133
 30
0.0
 10
-1.708541241513198
 20
0.7482180295427941
 30
0.0
 10
-1.710545777078584
 20
0.7478907534056571
 30
0.0
 10
-1.698689783589418
 20
0.7498505642641505
 30
0.0
 10
-1.673485559292102
 20
0.753421542801021
 30
0.0
 10
-1.635952209337656
 20
0.7572884499317118
 30
0.0
 10
-1.591744241690023
 20
0.7595009379766443
 30
0.0
 10
-1.546120085180604
 20
0.759143189855377
 30
0.0
 10
-1.507487905318777
 20
0.7566878219802402
 30
0.0
 10
-1.488178035026444
 20
0.7545795270426922
 30
0.0
 10
-1.480092952256064
 20
0.753696779576428
 30
0.0
  0
SPLINE
  5
1BF
330
182
100
AcDbEntity
  8
0
  6
Continuous
 62
     7
370
    25
100
AcDbSpline
210
0.0
220
0.0
230
1.0
 70
     8
 71
     3
 72
    17
 73
    13
 74
     0
 42
0.000000001
 43
0.00000001
 40
0.0
 40
0.0
 40
0.0
 40
0.0
 40
0.0701855963911107
 40
0.1770159135648076
 40
0.284545238281553
 40
0.3925823255181071
 40
0.4994910592235334
 40
0.6046882165210712
 40
0.7098083614788517
 40
0.8165495372201207
 40
0.9245465299550227
 40
0.9999999999999999
 40
0.9999999999999999
 40
0.9999999999999999
 40
0.9999999999999999
 10
-1.441646330283095
 20
-0.748313365024032
 30
0.0
 10
-1.441602749285106
 20
-0.7483080460765875
 30
0.0
 10
-1.441492833140346
 20
-0.7482946310970255
 30
0.0
 10
-1.458453599357793
 20
-0.7510061743835391
 30
0.0
 10
-1.488466485285739
 20
-0.754888359911356
 30
0.0
 10
-1.528957363103904
 20
-0.7583412795536911
 30
0.0
 10
-1.574342080064336
 20
-0.7596818228220958
 30
0.0
 10
-1.619333358403598
 20
-0.758399222157739
 30
0.0
 10
-1.659386335945215
 20
-0.7550727492813467
 30
0.0
 10
-1.689846073999429
 20
-0.7512007899317729
 30
0.0
 10
-1.707735226534625
 20
-0.7483584741939966
 30
0.0
 10
-1.707977665680912
 20
-0.7483126220479807
 30
0.0
 10
-1.708077381291246
 20
-0.7482937629866654
 30
0.0
  0
LINE
  5
1CA
330
182
100
AcDbEntity
  8
0
  6
Continuous
 62
     7
370
    25
100
AcDbLine
 10
-1.7080773813
 20
5.5511811024
 30
0.0
 11
-1.968503937
 21
5.5511811024
 31
0.0
  0
LINE
  5
1CB
330
182
100
AcDbEntity
  8
0
  6
Continuous
 62
     7
370
    25
100
AcDbLine
 10
-0.3937007874
 20
5.5511811024
 30
0.0
 11
-1.4416463303
 21
5.5511811024
 31
0.0
  0
LINE
  5
1CC
330
182
100
AcDbEntity
  8
0
  6
Continuous
 62
     7
370
    25
100
AcDbLine
 10
-1.968503937
 20
3.8976377953
 30
0.0
 11
-0.3937007874
 21
3.8976377953
 31
0.0
  0
LINE
  5
1CD
330
182
100
AcDbEntity
  8
0
  6
Continuous
 62
     7
370
    25
100
AcDbLine
 10
-1.4399128389
 20
5.551028049
 30
0.0
 11
-1.4763779528
 21
6.0433070866
 31
0.0
  0
LINE
  5
1CE
330
182
100
AcDbEntity
  8
0
  6
Continuous
 62
     7
370
    25
100
AcDbLine
 10
-1.6732283465
 20
6.0433070866
 30
0.0
 11
-1.7096926393
 21
5.5510391337
 31
0.0
  0
LINE
  5
1CF
330
182
100
AcDbEntity
  8
0
  6
Continuous
 62
     7
370
    25
100
AcDbLine
 10
-1.3523622047
 20
2.4015748031
 30
0.0
 11
-1.968503937
 21
2.4015748031
 31
0.0
  0
LINE
  5
1D0
330
182
100
AcDbEntity
  8
0
  6
Continuous
 62
     7
370
    25
100
AcDbLine
 10
-0.3937007874
 20
2.4015748031
 30
0.0
 11
-1.051171988
 21
2.4015748031
 31
0.0
  0
LINE
  5
1D1
330
182
100
AcDbEntity
  8
0
  6
Continuous
 62
     7
370
    25
100
AcDbLine
 10
-1.4416463303
 20
0.7480314961
 30
0.0
 11
-0.3937007874
 21
0.7480314961
 31
0.0
  0
LINE
  5
1D2
330
182
100
AcDbEntity
  8
0
  6
Continuous
 62
     7
370
    25
100
AcDbLine
 10
-1.968503937
 20
0.7480314961
 30
0.0
 11
-1.7080773813
 21
0.7480314961
 31
0.0
  0
LINE
  5
1D3
330
182
100
AcDbEntity
  8
0
  6
Continuous
 62
     7
370
    25
100
AcDbLine
 10
-1.0492125984
 20
2.4012192571
 30
0.0
 11
-1.0492125984
 21
2.5078606166
 31
0.0
  0
LINE
  5
1D4
330
182
100
AcDbEntity
  8
0
  6
Continuous
 62
     7
370
    25
100
AcDbLine
 10
-1.3523622047
 20
2.5078606166
 30
0.0
 11
-1.3523622047
 21
2.4015748031
 31
0.0
  0
LINE
  5
1D5
330
182
100
AcDbEntity
  8
0
  6
Continuous
 62
     7
370
    25
100
AcDbLine
 10
-1.7096926393
 20
0.7481734647
 30
0.0
 11
-1.6732283465
 21
0.2559055118
 31
0.0
  0
LINE
  5
1D6
330
182
100
AcDbEntity
  8
0
  6
Continuous
 62
     7
370
    25
100
AcDbLine
 10
-1.4763779528
 20
0.2559055118
 30
0.0
 11
-1.4399128389
 21
0.7481845494
 31
0.0
  0
LINE
  5
1D7
330
182
100
AcDbEntity
  8
0
  6
Continuous
 62
     7
370
    25
100
AcDbLine
 10
-1.7080773813
 20
-0.7480314961
 30
0.0
 11
-1.968503937
 21
-0.7480314961
 31
0.0
  0
LINE
  5
1D8
330
182
100
AcDbEntity
  8
0
  6
Continuous
 62
     7
370
    25
100
AcDbLine
 10
-0.3937007874
 20
-0.7480314961
 30
0.0
 11
-1.4416463303
 21
-0.7480314961
 31
0.0
  0
LINE
  5
1D9
330
182
100
AcDbEntity
  8
0
  6
Continuous
 62
     7
370
    25
100
AcDbLine
 10
-1.968503937
 20
-2.4015748031
 30
0.0
 11
-0.3937007874
 21
-2.4015748031
 31
0.0
  0
LINE
  5
1DA
330
182
100
AcDbEntity
  8
0
  6
Continuous
 62
     7
370
    25
100
AcDbLine
 10
-1.4399128389
 20
-0.7481845494
 30
0.0
 11
-1.4763779528
 21
-0.2559055118
 31
0.0
  0
LINE
  5
1DB
330
182
100
AcDbEntity
  8
0
  6
Continuous
 62
     7
370
    25
100
AcDbLine
 10
-1.6732283465
 20
-0.2559055118
 30
0.0
 11
-1.7096926393
 21
-0.7481734647
 31
0.0
  0
LINE
  5
1DC
330
182
100
AcDbEntity
  8
0
  6
Continuous
 62
     7
370
    25
100
AcDbLine
 10
-2.0078740157
 20
3.937007874
 30
0.0
 11
-2.0078740157
 21
5.5118110236
 31
0.0
  0
LINE
  5
1DD
330
182
100
AcDbEntity
  8
0
  6
Continuous
 62
     7
370
    25
100
AcDbLine
 10
-1.6732283465
 20
6.0433070866
 30
0.0
 11
-1.4763779528
 21
6.0433070866
 31
0.0
  0
LINE
  5
1DE
330
182
100
AcDbEntity
  8
0
  6
Continuous
 62
     7
370
    25
100
AcDbLine
 10
-2.0078740157
 20
0.7874015748
 30
0.0
 11
-2.0078740157
 21
2.3622047244
 31
0.0
  0
LINE
  5
1DF
330
182
100
AcDbEntity
  8
0
  6
Continuous
 62
     7
370
    25
100
AcDbLine
 10
-1.4763779528
 20
0.2559055118
 30
0.0
 11
-1.6732283465
 21
0.2559055118
 31
0.0
  0
LINE
  5
1E0
330
182
100
AcDbEntity
  8
0
  6
Continuous
 62
     7
370
    25
100
AcDbLine
 10
-0.3937007874
 20
-3.2480314961
 30
0.0
 11
-0.2362204724
 21
-3.2480314961
 31
0.0
  0
LINE
  5
1E1
330
182
100
AcDbEntity
  8
0
  6
Continuous
 62
     7
370
    25
100
AcDbLine
 10
-0.3937007874
 20
-3.8188976378
 30
0.0
 11
-0.3937007874
 21
6.968503937
 31
0.0
  0
LINE
  5
1E2
330
182
100
AcDbEntity
  8
0
  6
Continuous
 62
     7
370
    25
100
AcDbLine
 10
-0.374015748
 20
6.9881889764
 30
0.0
 11
-0.374015748
 21
-3.8385826772
 31
0.0
  0
LINE
  5
1E3
330
182
100
AcDbEntity
  8
0
  6
Continuous
 62
     7
370
    25
100
AcDbLine
 10
-0.3937007874
 20
6.3976377953
 30
0.0
 11
-0.2362204724
 21
6.3976377953
 31
0.0
  0
LINE
  5
1E4
330
182
100
AcDbEntity
  8
0
  6
Continuous
 62
     7
370
    25
100
AcDbLine
 10
-0.374015748
 20
-3.8385826772
 30
0.0
 11
-0.2362204724
 21
-3.8385826772
 31
0.0
  0
LINE
  5
1E5
330
182
100
AcDbEntity
  8
0
  6
Continuous
 62
     7
370
    25
100
AcDbLine
 10
-0.2362204724
 20
-3.8385826772
 30
0.0
 11
-0.2362204724
 21
6.9881889764
 31
0.0
  0
LINE
  5
1E6
330
182
100
AcDbEntity
  8
0
  6
Continuous
 62
     7
370
    25
100
AcDbLine
 10
-0.374015748
 20
6.9881889764
 30
0.0
 11
-0.2362204724
 21
6.9881889764
 31
0.0
  0
LINE
  5
1E7
330
182
100
AcDbEntity
  8
0
  6
Continuous
 62
     7
370
    25
100
AcDbLine
 10
-2.0078740157
 20
-2.3622047244
 30
0.0
 11
-2.0078740157
 21
-0.7874015748
 31
0.0
  0
LINE
  5
1E8
330
182
100
AcDbEntity
  8
0
  6
Continuous
 62
     7
370
    25
100
AcDbLine
 10
-1.6732283465
 20
-0.2559055118
 30
0.0
 11
-1.4763779528
 21
-0.2559055118
 31
0.0
  0
LINE
  5
1E9
330
182
100
AcDbEntity
  8
0
  6
Continuous
 62
     8
370
    25
100
AcDbLine
 10
-1.968503937
 20
5.5511811024
 30
0.0
 11
-1.968503937
 21
3.8976377953
 31
0.0
  0
LINE
  5
1EA
330
182
100
AcDbEntity
  8
0
  6
Continuous
 62
     8
370
    25
100
AcDbLine
 10
-1.968503937
 20
2.4015748031
 30
0.0
 11
-1.968503937
 21
0.7480314961
 31
0.0
  0
LINE
  5
1EB
330
182
100
AcDbEntity
  8
0
  6
Continuous
 62
     8
370
    25
100
AcDbLine
 10
-1.0492125984
 20
2.5078606166
 30
0.0
 11
-1.3523622047
 21
2.5078606166
 31
0.0
  0
LINE
  5
1EC
330
182
100
AcDbEntity
  8
0
  6
Continuous
 62
     8
370
    25
100
AcDbLine
 10
-1.3415751086
 20
2.5254198701
 30
0.0
 11
-1.0599996945
 21
2.5254198701
 31
0.0
  0
LINE
  5
1ED
330
182
100
AcDbEntity
  8
0
  6
Continuous
 62
     8
370
    25
100
AcDbLine
 10
-1.968503937
 20
-0.7480314961
 30
0.0
 11
-1.968503937
 21
-2.4015748031
 31
0.0
  0
ARC
  5
1EE
330
182
100
AcDbEntity
  8
0
  6
Continuous
 62
     7
370
    25
100
AcDbCircle
 10
-1.968503937
 20
3.937007874
 30
0.0
 40
0.0393700787401587
100
AcDbArc
 50
180.0
 51
270.0
  0
ARC
  5
1EF
330
182
100
AcDbEntity
  8
0
  6
Continuous
 62
     7
370
    25
100
AcDbCircle
 10
-1.968503937
 20
5.5118110236
 30
0.0
 40
0.0393700787401585
100
AcDbArc
 50
90.0
 51
180.0
  0
ARC
  5
1F0
330
182
100
AcDbEntity
  8
0
  6
Continuous
 62
     7
370
    25
100
AcDbCircle
 10
-1.5748031496
 20
6.0433070866
 30
0.0
 40
0.0984251968503937
100
AcDbArc
 50
0.0
 51
180.0
  0
ARC
  5
1F1
330
182
100
AcDbEntity
  8
0
  6
Continuous
 62
     7
370
    25
100
AcDbCircle
 10
-1.968503937
 20
0.7874015748
 30
0.0
 40
0.0393700787401583
100
AcDbArc
 50
180.0
 51
270.0
  0
ARC
  5
1F2
330
182
100
AcDbEntity
  8
0
  6
Continuous
 62
     7
370
    25
100
AcDbCircle
 10
-1.968503937
 20
2.3622047244
 30
0.0
 40
0.0393700787401579
100
AcDbArc
 50
90.0
 51
180.0
  0
ARC
  5
1F3
330
182
100
AcDbEntity
  8
0
  6
Continuous
 62
     7
370
    25
100
AcDbCircle
 10
-1.0688976378
 20
2.5078606166
 30
0.0
 40
0.0196850393700769
100
AcDbArc
 50
0.0
 51
63.1269288601
  0
ARC
  5
1F4
330
182
100
AcDbEntity
  8
0
  6
Continuous
 62
     7
370
    25
100
AcDbCircle
 10
-1.3326771654
 20
2.5078606166
 30
0.0
 40
0.0196850393700796
100
AcDbArc
 50
116.87307114
 51
180.0
  0
ARC
  5
1F5
330
182
100
AcDbEntity
  8
0
  6
Continuous
 62
     7
370
    25
100
AcDbCircle
 10
-1.2007874016
 20
2.2475885827
 30
0.0
 40
0.3114665354330789
100
AcDbArc
 50
63.1269288601
 51
116.87307114
  0
ARC
  5
1F6
330
182
100
AcDbEntity
  8
0
  6
Continuous
 62
     7
370
    25
100
AcDbCircle
 10
-1.5748031496
 20
0.2559055118
 30
0.0
 40
0.0984251968503942
100
AcDbArc
 50
180.0
 51
0.0
  0
ARC
  5
1F7
330
182
100
AcDbEntity
  8
0
  6
Continuous
 62
     7
370
    25
100
AcDbCircle
 10
-1.968503937
 20
-2.3622047244
 30
0.0
 40
0.039370078740157
100
AcDbArc
 50
180.0
 51
270.0
  0
ARC
  5
1F8
330
182
100
AcDbEntity
  8
0
  6
Continuous
 62
     7
370
    25
100
AcDbCircle
 10
-1.968503937
 20
-0.7874015748
 30
0.0
 40
0.0393700787401572
100
AcDbArc
 50
90.0
 51
180.0
  0
ARC
  5
1F9
330
182
100
AcDbEntity
  8
0
  6
Continuous
 62
     7
370
    25
100
AcDbCircle
 10
-1.5748031496
 20
-0.2559055118
 30
0.0
 40
0.098425196850394
100
AcDbArc
 50
0.0
 51
180.0
  0
ARC
  5
1FA
330
182
100
AcDbEntity
  8
0
  6
Continuous
 62
     7
370
    25
100
AcDbCircle
 10
-1.200797722
 20
3.2209315754
 30
0.0
 40
0.8332570508083544
100
AcDbArc
 50
259.5198988497
 51
280.3445583362
  0
ARC
  5
1FB
330
182
100
AcDbEntity
  8
0
  6
Continuous
 62
     7
370
    25
100
AcDbCircle
 10
-0.374015748
 20
-3.8188976378
 30
0.0
 40
0.0196850393700774
100
AcDbArc
 50
180.0
 51
270.0
  0
ARC
  5
1FC
330
182
100
AcDbEntity
  8
0
  6
Continuous
 62
     7
370
    25
100
AcDbCircle
 10
-0.374015748
 20
6.968503937
 30
0.0
 40
0.0196850393700796
100
AcDbArc
 50
90.0
 51
180.0
  0
VIEWPORT
  5
305
330
182
100
AcDbEntity
  8
0
100
AcDbViewport
 10
0.0
 20
0.0
 30
0.0
 40
8.4
 41
6.4
 68
     1
 69
     1
 12
0.0
 22
1.5748031496
 13
0.0
 23
0.0
 14
0.5
 24
0.5
 15
0.5
 25
0.5
 16
0.0
 26
0.0
 36
1.0
 17
0.0
 27
0.0
 37
0.0
 42
50.0
 43
0.0
 44
0.0
 45
11.0433070866
 50
0.0
 51
0.0
 72
   100
 90
   557152
  1

281
     0
 71
     1
 74
     0
110
0.0
120
0.0
130
0.0
111
1.0
121
0.0
131
0.0
112
0.0
122
1.0
132
0.0
 79
     0
146
0.0
  0
ENDBLK
  5
185
330
182
100
AcDbEntity
  8
0
100
AcDbBlockEnd
  0
BLOCK
  5
1FF
330
1FD
100
AcDbEntity
  8
0
100
AcDbBlockBegin
  2
*Paper_Space2
 70
     0
 10
0.0
 20
0.0
 30
0.0
  3
*Paper_Space2
  1

  0
CIRCLE
  5
205
330
1FD
100
AcDbEntity
  8
0
  6
Continuous
 62
     7
370
    25
100
AcDbCircle
 10
0.0
 20
-1.5748031496
 30
0.0
 40
0.0984251968503937
  0
SPLINE
  5
206
330
1FD
100
AcDbEntity
  8
0
  6
Continuous
 62
     7
370
    25
100
AcDbSpline
210
0.0
220
0.0
230
1.0
 70
    11
 71
     3
 72
    70
 73
    66
 74
     0
 42
0.000000001
 43
0.00000001
 40
0.0
 40
0.0
 40
0.0
 40
0.0
 40
0.03125
 40
0.03125
 40
0.0625
 40
0.0625
 40
0.09375
 40
0.09375
 40
0.125
 40
0.125
 40
0.15625
 40
0.15625
 40
0.1875
 40
0.1875
 40
0.21875
 40
0.21875
 40
0.25
 40
0.25
 40
0.2812499999999999
 40
0.2812499999999999
 40
0.3124999999999999
 40
0.3124999999999999
 40
0.3437499999999999
 40
0.3437499999999999
 40
0.3749999999999998
 40
0.3749999999999998
 40
0.4062499999999998
 40
0.4062499999999998
 40
0.4374999999999998
 40
0.4374999999999998
 40
0.4687499999999998
 40
0.4687499999999998
 40
0.4999999999999997
 40
0.4999999999999997
 40
0.5312499999999997
 40
0.5312499999999997
 40
0.5624999999999997
 40
0.5624999999999997
 40
0.5937499999999998
 40
0.5937499999999998
 40
0.6249999999999998
 40
0.6249999999999998
 40
0.6562499999999998
 40
0.6562499999999998
 40
0.6874999999999998
 40
0.6874999999999998
 40
0.7187499999999998
 40
0.7187499999999998
 40
0.7499999999999998
 40
0.7499999999999998
 40
0.7812499999999999
 40
0.7812499999999999
 40
0.8124999999999999
 40
0.8124999999999999
 40
0.8437499999999999
 40
0.8437499999999999
 40
0.8749999999999999
 40
0.8749999999999999
 40
0.9062499999999999
 40
0.9062499999999999
 40
0.9375
 40
0.9375
 40
0.96875
 40
0.96875
 40
1.0
 40
1.0
 40
1.0
 40
1.0
 10
-0.0966214065264533
 20
-1.480092952256102
 30
0.0
 10
-0.0903368288795581
 20
-1.473759809804441
 30
0.0
 10
-0.0835363310341466
 20
-1.468147143217197
 30
0.0
 10
-0.0689428752467665
 20
-1.45829716362673
 30
0.0
 10
-0.0610582212210274
 20
-1.454025640659522
 30
0.0
 10
-0.0447084618000998
 20
-1.447149293099791
 30
0.0
 10
-0.0362877094173857
 20
-1.444538611379
 30
0.0
 10
-0.0189567962142195
 20
-1.440957312170427
 30
0.0
 10
-0.0099831830542939
 20
-1.44000287478534
 30
0.0
 10
0.0077001890494379
 20
-1.439855021556543
 30
0.0
 10
0.0164963769194681
 20
-1.440632215929665
 30
0.0
 10
0.0339959148016058
 20
-1.443925601542209
 30
0.0
 10
0.042576379230344
 20
-1.446435008002479
 30
0.0
 10
0.0589378510203896
 20
-1.452993527826729
 30
0.0
 10
0.0668437459989025
 20
-1.457088285547862
 30
0.0
 10
0.0817554957151993
 20
-1.466785326036707
 30
0.0
 10
0.088631086539876
 20
-1.472288348114253
 30
0.0
 10
0.1012560143329113
 20
-1.48457441709466
 30
0.0
 10
0.1070535918336009
 20
-1.49144287572207
 30
0.0
 10
0.1170616274824255
 20
-1.506003048207719
 30
0.0
 10
0.1213151310938123
 20
-1.513708714353881
 30
0.0
 10
0.1283069549754043
 20
-1.529985039951907
 30
0.0
 10
0.1310198407931527
 20
-1.538563234322745
 30
0.0
 10
0.1346536433093775
 20
-1.555834330330765
 30
0.0
 10
0.1356212139797228
 20
-1.564620473816855
 30
0.0
 10
0.1357866086638652
 20
-1.582507095427856
 30
0.0
 10
0.1349775346597296
 20
-1.591343919294322
 30
0.0
 10
0.1316582104523792
 20
-1.608681550251904
 30
0.0
 10
0.1291067767761002
 20
-1.617294919831599
 30
0.0
 10
0.1224020640914593
 20
-1.63371934758413
 30
0.0
 10
0.1182836802254674
 20
-1.641507455449824
 30
0.0
 10
0.10853375805792
 20
-1.65625142711624
 30
0.0
 10
0.1028601306899093
 20
-1.663221698363928
 30
0.0
 10
0.0904543003800753
 20
-1.675732796965525
 30
0.0
 10
0.0836761376348279
 20
-1.681358527392828
 30
0.0
 10
0.0689338293860495
 20
-1.691321450780449
 30
0.0
 10
0.0611094340211252
 20
-1.695550829762823
 30
0.0
 10
0.0448735069020019
 20
-1.702395771940226
 30
0.0
 10
0.0363433625067535
 20
-1.705056102507992
 30
0.0
 10
0.0189036423629658
 20
-1.708660055907358
 30
0.0
 10
0.0101231036860547
 20
-1.70959300954251
 30
0.0
 10
-0.0075568449434376
 20
-1.709759177179824
 30
0.0
 10
-0.0165454022679762
 20
-1.708964784305076
 30
0.0
 10
-0.0339447315475855
 20
-1.705690402753696
 30
0.0
 10
-0.04241379615899
 20
-1.703228405061032
 30
0.0
 10
-0.0588886065375896
 20
-1.69664046595878
 30
0.0
 10
-0.0668469298608551
 20
-1.69250963690462
 30
0.0
 10
-0.0816161987845827
 20
-1.682917805758969
 30
0.0
 10
-0.0885251990178107
 20
-1.677417647258664
 30
0.0
 10
-0.1013097857986378
 20
-1.664982889567943
 30
0.0
 10
-0.1069891880777074
 20
-1.658241733179028
 30
0.0
 10
-0.1169757683320647
 20
-1.643743321062695
 30
0.0
 10
-0.1213189174735133
 20
-1.635891191973434
 30
0.0
 10
-0.1283146183769076
 20
-1.619600994138123
 30
0.0
 10
-0.1309777604083273
 20
-1.611199224054675
 30
0.0
 10
-0.1346396752932719
 20
-1.593881534534694
 30
0.0
 10
-0.1356201461691143
 20
-1.584908910618696
 30
0.0
 10
-0.1357871729959162
 20
-1.567229982007662
 30
0.0
 10
-0.1350042888566206
 20
-1.558430878354729
 30
0.0
 10
-0.1316618602804396
 20
-1.540915318051155
 30
0.0
 10
-0.1291214608872654
 20
-1.532366765285051
 30
0.0
 10
-0.1224713213352686
 20
-1.516037438799448
 30
0.0
 10
-0.1183097152140252
 20
-1.508137210219975
 30
0.0
 10
-0.108498456468785
 20
-1.493302493502089
 30
0.0
 10
-0.1029059841733484
 20
-1.486426094707763
 30
0.0
 10
-0.0966214065264533
 20
-1.480092952256102
 30
0.0
  0
LINE
  5
21A
330
1FD
100
AcDbEntity
  8
0
  6
Continuous
 62
     7
370
    25
100
AcDbLine
 10
-0.8267716535
 20
-0.3937007874
 30
0.0
 11
-0.8267716535
 21
-1.968503937
 31
0.0
  0
LINE
  5
21B
330
1FD
100
AcDbEntity
  8
0
  6
Continuous
 62
     7
370
    25
100
AcDbLine
 10
0.8267716535
 20
-1.968503937
 30
0.0
 11
0.8267716535
 21
-0.3937007874
 31
0.0
  0
LINE
  5
21C
330
1FD
100
AcDbEntity
  8
0
  6
Continuous
 62
     7
370
    25
100
AcDbLine
 10
0.7874015748
 20
-2.0078740157
 30
0.0
 11
-0.7874015748
 21
-2.0078740157
 31
0.0
  0
LINE
  5
21D
330
1FD
100
AcDbEntity
  8
0
  6
Continuous
 62
     7
370
    25
100
AcDbLine
 10
1.968503937
 20
-0.2362204724
 30
0.0
 11
-1.968503937
 21
-0.2362204724
 31
0.0
  0
LINE
  5
21E
330
1FD
100
AcDbEntity
  8
0
  6
Continuous
 62
     7
370
    25
100
AcDbLine
 10
1.3779527559
 20
-0.3937007874
 30
0.0
 11
1.3779527559
 21
-0.2362204724
 31
0.0
  0
LINE
  5
21F
330
1FD
100
AcDbEntity
  8
0
  6
Continuous
 62
     7
370
    25
100
AcDbLine
 10
-1.968503937
 20
-0.374015748
 30
0.0
 11
1.968503937
 21
-0.374015748
 31
0.0
  0
LINE
  5
220
330
1FD
100
AcDbEntity
  8
0
  6
Continuous
 62
     7
370
    25
100
AcDbLine
 10
-1.3779527559
 20
-0.3937007874
 30
0.0
 11
-1.3779527559
 21
-0.2362204724
 31
0.0
  0
LINE
  5
221
330
1FD
100
AcDbEntity
  8
0
  6
Continuous
 62
     7
370
    25
100
AcDbLine
 10
-1.968503937
 20
-0.374015748
 30
0.0
 11
-1.968503937
 21
-0.2362204724
 31
0.0
  0
LINE
  5
222
330
1FD
100
AcDbEntity
  8
0
  6
Continuous
 62
     7
370
    25
100
AcDbLine
 10
1.968503937
 20
-0.374015748
 30
0.0
 11
1.968503937
 21
-0.2362204724
 31
0.0
  0
LINE
  5
223
330
1FD
100
AcDbEntity
  8
0
  6
Continuous
 62
     7
370
    25
100
AcDbLine
 10
1.9488188976
 20
-0.3937007874
 30
0.0
 11
-1.9488188976
 21
-0.3937007874
 31
0.0
  0
LINE
  5
224
330
1FD
100
AcDbEntity
  8
0
  6
Continuous
 62
     8
370
    25
100
AcDbLine
 10
-0.8267716535
 20
-1.968503937
 30
0.0
 11
0.8267716535
 21
-1.968503937
 31
0.0
  0
ARC
  5
225
330
1FD
100
AcDbEntity
  8
0
  6
Continuous
 62
     7
370
    25
100
AcDbCircle
 10
0.7874015748
 20
-1.968503937
 30
0.0
 40
0.0393700787401583
100
AcDbArc
 50
270.0
 51
0.0
  0
ARC
  5
226
330
1FD
100
AcDbEntity
  8
0
  6
Continuous
 62
     7
370
    25
100
AcDbCircle
 10
-0.7874015748
 20
-1.968503937
 30
0.0
 40
0.039370078740158
100
AcDbArc
 50
180.0
 51
270.0
  0
ARC
  5
227
330
1FD
100
AcDbEntity
  8
0
  6
Continuous
 62
     7
370
    25
100
AcDbCircle
 10
1.9488188976
 20
-0.374015748
 30
0.0
 40
0.0196850393700787
100
AcDbArc
 50
270.0
 51
0.0
  0
ARC
  5
228
330
1FD
100
AcDbEntity
  8
0
  6
Continuous
 62
     7
370
    25
100
AcDbCircle
 10
-1.9488188976
 20
-0.374015748
 30
0.0
 40
0.0196850393700788
100
AcDbArc
 50
180.0
 51
270.0
  0
VIEWPORT
  5
307
330
1FD
100
AcDbEntity
  8
0
100
AcDbViewport
 10
0.0
 20
0.0
 30
0.0
 40
8.4
 41
6.4
 68
     1
 69
     1
 12
0.0
 22
1.5748031496
 13
0.0
 23
0.0
 14
0.5
 24
0.5
 15
0.5
 25
0.5
 16
0.0
 26
0.0
 36
1.0
 17
0.0
 27
0.0
 37
0.0
 42
50.0
 43
0.0
 44
0.0
 45
11.0433070866
 50
0.0
 51
0.0
 72
   100
 90
   557152
  1

281
     0
 71
     1
 74
     0
110
0.0
120
0.0
130
0.0
111
1.0
121
0.0
131
0.0
112
0.0
122
1.0
132
0.0
 79
     0
146
0.0
  0
ENDBLK
  5
200
330
1FD
100
AcDbEntity
  8
0
100
AcDbBlockEnd
  0
BLOCK
  5
22B
330
229
100
AcDbEntity
  8
0
100
AcDbBlockBegin
  2
*Paper_Space3
 70
     0
 10
0.0
 20
0.0
 30
0.0
  3
*Paper_Space3
  1

  0
LINE
  5
244
330
229
100
AcDbEntity
  8
0
  6
Continuous
 62
     7
370
    25
100
AcDbLine
 10
0.8267716535
 20
0.3937007874
 30
0.0
 11
0.8267716535
 21
1.968503937
 31
0.0
  0
LINE
  5
245
330
229
100
AcDbEntity
  8
0
  6
Continuous
 62
     7
370
    25
100
AcDbLine
 10
-0.8267716535
 20
1.968503937
 30
0.0
 11
-0.8267716535
 21
0.3937007874
 31
0.0
  0
LINE
  5
246
330
229
100
AcDbEntity
  8
0
  6
Continuous
 62
     7
370
    25
100
AcDbLine
 10
-1.9488188976
 20
0.3937007874
 30
0.0
 11
1.9488188976
 21
0.3937007874
 31
0.0
  0
LINE
  5
247
330
229
100
AcDbEntity
  8
0
  6
Continuous
 62
     7
370
    25
100
AcDbLine
 10
1.968503937
 20
0.374015748
 30
0.0
 11
-1.968503937
 21
0.374015748
 31
0.0
  0
LINE
  5
248
330
229
100
AcDbEntity
  8
0
  6
Continuous
 62
     7
370
    25
100
AcDbLine
 10
1.3779527559
 20
0.3937007874
 30
0.0
 11
1.3779527559
 21
0.2362204724
 31
0.0
  0
LINE
  5
249
330
229
100
AcDbEntity
  8
0
  6
Continuous
 62
     7
370
    25
100
AcDbLine
 10
-1.3779527559
 20
0.3937007874
 30
0.0
 11
-1.3779527559
 21
0.2362204724
 31
0.0
  0
LINE
  5
24A
330
229
100
AcDbEntity
  8
0
  6
Continuous
 62
     7
370
    25
100
AcDbLine
 10
1.968503937
 20
0.374015748
 30
0.0
 11
1.968503937
 21
0.2362204724
 31
0.0
  0
LINE
  5
24B
330
229
100
AcDbEntity
  8
0
  6
Continuous
 62
     7
370
    25
100
AcDbLine
 10
-1.968503937
 20
0.2362204724
 30
0.0
 11
1.968503937
 21
0.2362204724
 31
0.0
  0
LINE
  5
24C
330
229
100
AcDbEntity
  8
0
  6
Continuous
 62
     7
370
    25
100
AcDbLine
 10
-1.968503937
 20
0.374015748
 30
0.0
 11
-1.968503937
 21
0.2362204724
 31
0.0
  0
LINE
  5
24D
330
229
100
AcDbEntity
  8
0
  6
Continuous
 62
     7
370
    25
100
AcDbLine
 10
-0.7874015742
 20
2.0078740157
 30
0.0
 11
0.7874015748
 21
2.0078740157
 31
0.0
  0
LINE
  5
24E
330
229
100
AcDbEntity
  8
0
  6
Continuous
 62
     8
370
    25
100
AcDbLine
 10
0.8267716535
 20
1.968503937
 30
0.0
 11
-0.8267716535
 21
1.968503937
 31
0.0
  0
ARC
  5
24F
330
229
100
AcDbEntity
  8
0
  6
Continuous
 62
     7
370
    25
100
AcDbCircle
 10
-0.7874015748
 20
1.968503937
 30
0.0
 40
0.0393700787401572
100
AcDbArc
 50
90.0
 51
180.0
  0
ARC
  5
250
330
229
100
AcDbEntity
  8
0
  6
Continuous
 62
     7
370
    25
100
AcDbCircle
 10
0.7874015748
 20
1.968503937
 30
0.0
 40
0.0393700787401573
100
AcDbArc
 50
0.0
 51
90.0
  0
ARC
  5
251
330
229
100
AcDbEntity
  8
0
  6
Continuous
 62
     7
370
    25
100
AcDbCircle
 10
1.9488188976
 20
0.374015748
 30
0.0
 40
0.0196850393700791
100
AcDbArc
 50
0.0
 51
90.0
  0
ARC
  5
252
330
229
100
AcDbEntity
  8
0
  6
Continuous
 62
     7
370
    25
100
AcDbCircle
 10
-1.9488188976
 20
0.374015748
 30
0.0
 40
0.0196850393700787
100
AcDbArc
 50
90.0
 51
180.0
  0
VIEWPORT
  5
309
330
229
100
AcDbEntity
  8
0
100
AcDbViewport
 10
0.0
 20
0.0
 30
0.0
 40
8.4
 41
6.4
 68
     1
 69
     1
 12
0.0
 22
1.5748031496
 13
0.0
 23
0.0
 14
0.5
 24
0.5
 15
0.5
 25
0.5
 16
0.0
 26
0.0
 36
1.0
 17
0.0
 27
0.0
 37
0.0
 42
50.0
 43
0.0
 44
0.0
 45
11.0433070866
 50
0.0
 51
0.0
 72
   100
 90
   557152
  1

281
     0
 71
     1
 74
     0
110
0.0
120
0.0
130
0.0
111
1.0
121
0.0
131
0.0
112
0.0
122
1.0
132
0.0
 79
     0
146
0.0
  0
ENDBLK
  5
22C
330
229
100
AcDbEntity
  8
0
100
AcDbBlockEnd
  0
BLOCK
  5
255
330
253
100
AcDbEntity
  8
0
100
AcDbBlockBegin
  2
*Paper_Space4
 70
     0
 10
0.0
 20
0.0
 30
0.0
  3
*Paper_Space4
  1

  0
SPLINE
  5
257
330
253
100
AcDbEntity
  8
0
  6
Continuous
 62
     7
370
    25
100
AcDbSpline
210
0.0
220
0.0
230
1.0
 70
     8
 71
     3
 72
    41
 73
    37
 74
     0
 42
0.000000001
 43
0.00000001
 40
0.0
 40
0.0
 40
0.0
 40
0.0
 40
0.0182268782114846
 40
0.0468998547453929
 40
0.0756180951649468
 40
0.1045353782337871
 40
0.1337414571591995
 40
0.1632481415415373
 40
0.1930056491081859
 40
0.2229356601830682
 40
0.252961674478265
 40
0.28302532563962
 40
0.3130819662776576
 40
0.3431156395081605
 40
0.3731212052689714
 40
0.4030995473247153
 40
0.4330548877916164
 40
0.4629931907155553
 40
0.4929212838712109
 40
0.5228464136511587
 40
0.5527754478696231
 40
0.5827140599913537
 40
0.612669889253782
 40
0.6426505004129545
 40
0.6726630761100812
 40
0.7027137743198543
 40
0.732806494980191
 40
0.7629406835473534
 40
0.7931077103142484
 40
0.8232786041774157
 40
0.8533993361943661
 40
0.8833951034029456
 40
0.9131738519109168
 40
0.9426523003548144
 40
0.9717959840817602
 40
1.0
 40
1.0
 40
1.0
 40
1.0
 10
-1.8021310492027
 20
3.77098705028005
 30
0.0
 10
-1.810753256358338
 20
3.766186152450344
 30
0.0
 10
-1.832939187404354
 20
3.753832889963585
 30
0.0
 10
-1.864426953668836
 20
3.726994135448534
 30
0.0
 10
-1.896603692362463
 20
3.691703402463428
 30
0.0
 10
-1.924186255125342
 20
3.650736559921886
 30
0.0
 10
-1.94717412261385
 20
3.604668406669339
 30
0.0
 10
-1.965307854095551
 20
3.553716050053738
 30
0.0
 10
-1.978406202309853
 20
3.498309162232121
 30
0.0
 10
-1.986318654213826
 20
3.438942780486222
 30
0.0
 10
-1.988968428978612
 20
3.376185991642464
 30
0.0
 10
-1.986347849491986
 20
3.310642240578478
 30
0.0
 10
-1.978511829035506
 20
3.2429218755006
 30
0.0
 10
-1.965565108771595
 20
3.173631537255092
 30
0.0
 10
-1.947651411006676
 20
3.103367228520511
 30
0.0
 10
-1.924949978960301
 20
3.032724296590665
 30
0.0
 10
-1.897673759573515
 20
2.962297317651516
 30
0.0
 10
-1.866068089255711
 20
2.892677940029389
 30
0.0
 10
-1.830409286784784
 20
2.824451552962972
 30
0.0
 10
-1.791003094430814
 20
2.758193663864999
 30
0.0
 10
-1.74818309555131
 20
2.694466364013931
 30
0.0
 10
-1.702307222822817
 20
2.633812265042088
 30
0.0
 10
-1.653753987530089
 20
2.576749882050344
 30
0.0
 10
-1.60291793075738
 20
2.523769444824145
 30
0.0
 10
-1.550206911719769
 20
2.475331501781482
 30
0.0
 10
-1.496038847047466
 20
2.431865172091693
 30
0.0
 10
-1.440839430970834
 20
2.393767479915959
 30
0.0
 10
-1.385041932950382
 20
2.361403794001931
 30
0.0
 10
-1.329094307711101
 20
2.33510994630581
 30
0.0
 10
-1.273470652329796
 20
2.315190681910626
 30
0.0
 10
-1.2186766245176
 20
2.301901281821548
 30
0.0
 10
-1.165264918450585
 20
2.295445447262903
 30
0.0
 10
-1.113784764141297
 20
2.29587143445616
 30
0.0
 10
-1.06491377959955
 20
2.303316894846551
 30
0.0
 10
-1.019174410989387
 20
2.316895762684856
 30
0.0
 10
-0.9916702688534004
 20
2.331342927246757
 30
0.0
 10
-0.9781435316447523
 20
2.338448147888533
 30
0.0
  0
SPLINE
  5
25E
330
253
100
AcDbEntity
  8
0
  6
Continuous
 62
     7
370
    25
100
AcDbSpline
210
0.0
220
0.0
230
1.0
 70
     8
 71
     3
 72
    17
 73
    13
 74
     0
 42
0.000000001
 43
0.00000001
 40
0.0
 40
0.0
 40
0.0
 40
0.0
 40
0.0025971538620445
 40
0.117015974327317
 40
0.231349456441425
 40
0.3461730396037001
 40
0.4619958415502753
 40
0.5790294126333124
 40
0.6971920541671608
 40
0.8162146515895228
 40
0.9357761981639753
 40
1.0
 40
1.0
 40
1.0
 40
1.0
 10
-1.805741433656605
 20
1.198013439142335
 30
0.0
 10
-1.806059110889059
 20
1.19786003973417
 30
0.0
 10
-1.820372206243341
 20
1.19094855810421
 30
0.0
 10
-1.84544701903016
 20
1.171501251267184
 30
0.0
 10
-1.880116198339668
 20
1.139596901263329
 30
0.0
 10
-1.910032082668516
 20
1.101379806800598
 30
0.0
 10
-1.935529773431822
 20
1.058062030526342
 30
0.0
 10
-1.95626073647602
 20
1.009647218389594
 30
0.0
 10
-1.972080486281913
 20
0.9565678399481943
 30
0.0
 10
-1.982711811893626
 20
0.8992145908293065
 30
0.0
 10
-1.987502348291379
 20
0.8477427873265663
 30
0.0
 10
-1.987937493077548
 20
0.8151498660722728
 30
0.0
 10
-1.988089554451095
 20
0.8037602676412942
 30
0.0
  0
SPLINE
  5
25F
330
253
100
AcDbEntity
  8
0
  6
Continuous
 62
     7
370
    25
100
AcDbSpline
210
0.0
220
0.0
230
1.0
 70
     8
 71
     3
 72
    33
 73
    29
 74
     0
 42
0.000000001
 43
0.00000001
 40
0.0
 40
0.0
 40
0.0
 40
0.0
 40
0.0213549220614554
 40
0.0617295323992334
 40
0.1020781579592233
 40
0.1423909699447455
 40
0.1826659303748538
 40
0.2229069560739324
 40
0.2631211572810206
 40
0.3033172631545438
 40
0.3435047911828249
 40
0.3836936465961272
 40
0.4238913626895501
 40
0.4641074001067114
 40
0.5043519978831008
 40
0.544635115225282
 40
0.5849658134257015
 40
0.6253510226755424
 40
0.6657932698059016
 40
0.7062867881679402
 40
0.746810337098552
 40
0.7873018883332061
 40
0.8276766068755292
 40
0.867818981297474
 40
0.9076056843363699
 40
0.9469528574868166
 40
0.9858689084066233
 40
1.0
 40
1.0
 40
1.0
 40
1.0
 10
-1.988089554451095
 20
0.8037602676412942
 30
0.0
 10
-1.987941172112361
 20
0.7923624223007198
 30
0.0
 10
-1.987512251212533
 20
0.7594152796603635
 30
0.0
 10
-1.982775585215599
 20
0.703019278499776
 30
0.0
 10
-1.972259677358405
 20
0.6344182021037099
 30
0.0
 10
-1.956633522587947
 20
0.5645269998792869
 30
0.0
 10
-1.936150714496673
 20
0.4939892588662022
 30
0.0
 10
-1.910984286992566
 20
0.4233868022820496
 30
0.0
 10
-1.881371097945194
 20
0.3533165583463334
 30
0.0
 10
-1.847571431390836
 20
0.2843663627788019
 30
0.0
 10
-1.80987785600545
 20
0.217116901131373
 30
0.0
 10
-1.768611218606712
 20
0.1521372943197842
 30
0.0
 10
-1.724118500972486
 20
0.0899798417512536
 30
0.0
 10
-1.67676921086244
 20
0.0311749993241335
 30
0.0
 10
-1.626950710675146
 20
-0.0237736129960217
 30
0.0
 10
-1.575065071040835
 20
-0.0743912814070233
 30
0.0
 10
-1.521525863547233
 20
-0.1202340454656438
 30
0.0
 10
-1.466755340263037
 20
-0.1608898406334543
 30
0.0
 10
-1.411183034693365
 20
-0.1959786587794304
 30
0.0
 10
-1.355247789377202
 20
-0.225151364094669
 30
0.0
 10
-1.299410732005753
 20
-0.2480879891705564
 30
0.0
 10
-1.244163882135796
 20
-0.2645038400670717
 30
0.0
 10
-1.190030058899659
 20
-0.27418342854939
 30
0.0
 10
-1.137594666762077
 20
-0.2769436693385011
 30
0.0
 10
-1.087355901239918
 20
-0.2729013652215745
 30
0.0
 10
-1.040189845183539
 20
-0.2616194813531912
 30
0.0
 10
-1.004814531845593
 20
-0.2487228414600878
 30
0.0
 10
-0.986604768129123
 20
-0.2375119134670572
 30
0.0
 10
-0.9817539160986437
 20
-0.2345254632491798
 30
0.0
  0
SPLINE
  5
262
330
253
100
AcDbEntity
  8
0
  6
Continuous
 62
     7
370
    25
100
AcDbSpline
210
0.0
220
0.0
230
1.0
 70
     8
 71
     3
 72
    12
 73
     8
 74
     0
 42
0.000000001
 43
0.00000001
 40
0.0
 40
0.0
 40
0.0
 40
0.0
 40
0.2025191132348181
 40
0.4524859138717051
 40
0.6733788083961717
 40
0.8850219220014135
 40
1.0
 40
1.0
 40
1.0
 40
1.0
 10
-0.9390877304495145
 20
1.634783716094219
 30
0.0
 10
-0.9463386226418851
 20
1.631246327939114
 30
0.0
 10
-0.9625392000967437
 20
1.623342785964656
 30
0.0
 10
-0.9809365454337754
 20
1.607195228321576
 30
0.0
 10
-0.994035354232492
 20
1.588202751899368
 30
0.0
 10
-1.000593480680029
 20
1.571005271305273
 30
0.0
 10
-0.9999423613592282
 20
1.560415008090918
 30
0.0
 10
-0.9997131525694196
 20
1.556686994902593
 30
0.0
  0
SPLINE
  5
263
330
253
100
AcDbEntity
  8
0
  6
Continuous
 62
     7
370
    25
100
AcDbSpline
210
0.0
220
0.0
230
1.0
 70
     8
 71
     3
 72
    19
 73
    15
 74
     0
 42
0.000000001
 43
0.00000001
 40
0.0
 40
0.0
 40
0.0
 40
0.0
 40
0.017605038448677
 40
0.1078847977363275
 40
0.1970891026403651
 40
0.2891820996104405
 40
0.3857236121921511
 40
0.4849055411404104
 40
0.5843780678063467
 40
0.6835460433109379
 40
0.7826085213590144
 40
0.8819088468627286
 40
0.9817767811271746
 40
1.0
 40
1.0
 40
1.0
 40
1.0
 10
-0.6982093339539371
 20
1.554047440423149
 30
0.0
 10
-0.6979418652588263
 20
1.555423931066721
 30
0.0
 10
-0.6963028000470708
 20
1.563859153466298
 30
0.0
 10
-0.7005672917691698
 20
1.579630396380012
 30
0.0
 10
-0.7106195903578811
 20
1.599231870472756
 30
0.0
 10
-0.7272692472323684
 20
1.616614765640789
 30
0.0
 10
-0.7494291431749341
 20
1.631419315239503
 30
0.0
 10
-0.7766590201542384
 20
1.642987651169304
 30
0.0
 10
-0.8075015710887127
 20
1.650646517933146
 30
0.0
 10
-0.8402784650972152
 20
1.653992938415568
 30
0.0
 10
-0.8735613289111384
 20
1.653023004470999
 30
0.0
 10
-0.9053572055847515
 20
1.647329046251756
 30
0.0
 10
-0.9276836284370336
 20
1.641064231768624
 30
0.0
 10
-0.9375631703906084
 20
1.635623328308846
 30
0.0
 10
-0.9390877304495145
 20
1.634783716094219
 30
0.0
  0
SPLINE
  5
269
330
253
100
AcDbEntity
  8
0
  6
Continuous
 62
     7
370
    25
100
AcDbSpline
210
0.0
220
0.0
230
1.0
 70
     8
 71
     3
 72
    12
 73
     8
 74
     0
 42
0.000000001
 43
0.00000001
 40
0.0
 40
0.0
 40
0.0
 40
0.0
 40
0.1156646441043912
 40
0.3458020591260355
 40
0.577818710375342
 40
0.8111339412795339
 40
1.0
 40
1.0
 40
1.0
 40
1.0
 10
-1.614083354655982
 20
6.063683922741153
 30
0.0
 10
-1.617831176049349
 20
6.057731648518635
 30
0.0
 10
-1.629036020581559
 20
6.039936161413928
 30
0.0
 10
-1.642522256072196
 20
6.004953999813124
 30
0.0
 10
-1.654544449786469
 20
5.95949873502953
 30
0.0
 10
-1.66109670611516
 20
5.913110603049625
 30
0.0
 10
-1.661843213193982
 20
5.881095566265264
 30
0.0
 10
-1.662177168897964
 20
5.866773392436508
 30
0.0
  0
SPLINE
  5
26E
330
253
100
AcDbEntity
  8
0
  6
Continuous
 62
     7
370
    25
100
AcDbSpline
210
0.0
220
0.0
230
1.0
 70
     8
 71
     3
 72
    31
 73
    27
 74
     0
 42
0.000000001
 43
0.00000001
 40
0.0
 40
0.0
 40
0.0
 40
0.0
 40
0.0086989547743948
 40
0.0532824537702521
 40
0.0975993409833758
 40
0.1417237505114187
 40
0.1857325493016993
 40
0.229685206260331
 40
0.2736208891937594
 40
0.3175572362916093
 40
0.3615079381211931
 40
0.4054792060871633
 40
0.4494721045914886
 40
0.4934847475553883
 40
0.5375136438307881
 40
0.5815544756808307
 40
0.625602522320814
 40
0.6696528720101531
 40
0.7136996035508644
 40
0.7577369047854939
 40
0.8017597216820859
 40
0.8457631136838905
 40
0.8897424959700206
 40
0.9336941187516508
 40
0.977615941107209
 40
1.0
 40
1.0
 40
1.0
 40
1.0
 10
-0.5621827787523225
 20
1.893660922826579
 30
0.0
 10
-0.5592300581496596
 20
1.894061420684021
 30
0.0
 10
-0.5411441842615762
 20
1.896514532480518
 30
0.0
 10
-0.5052844493743961
 20
1.894726810338728
 30
0.0
 10
-0.4550446828771676
 20
1.8879266654419
 30
0.0
 10
-0.4029379091717778
 20
1.874166552401896
 30
0.0
 10
-0.3497002552621771
 20
1.854276687603629
 30
0.0
 10
-0.295679367424719
 20
1.828218963453616
 30
0.0
 10
-0.2413510426611968
 20
1.796244647416739
 30
0.0
 10
-0.187175554621465
 20
1.758592902481383
 30
0.0
 10
-0.1336264339039052
 20
1.715573279360029
 30
0.0
 10
-0.0811714552488003
 20
1.667539740492613
 30
0.0
 10
-0.030271880459074
 20
1.614895432358849
 30
0.0
 10
0.0186239346720601
 20
1.558087206755861
 30
0.0
 10
0.0650855173512614
 20
1.497601324335607
 30
0.0
 10
0.1087047471850063
 20
1.433958408070712
 30
0.0
 10
0.1490997343256845
 20
1.367708436660507
 30
0.0
 10
0.1859179975609465
 20
1.299426161237387
 30
0.0
 10
0.2188400141478546
 20
1.229705831973528
 30
0.0
 10
0.2475817837460904
 20
1.159156025959096
 30
0.0
 10
0.271900324133342
 20
1.088392085816001
 30
0.0
 10
0.2915863357363161
 20
1.018037061742959
 30
0.0
 10
0.3065025893988227
 20
0.9486929118618077
 30
0.0
 10
0.3164510142841809
 20
0.8810224768919966
 30
0.0
 10
0.3208247864940053
 20
0.8261247596511586
 30
0.0
 10
0.3212106171451531
 20
0.7943860781374709
 30
0.0
 10
0.3213408688793182
 20
0.7836714853621941
 30
0.0
  0
SPLINE
  5
26F
330
253
100
AcDbEntity
  8
0
  6
Continuous
 62
     7
370
    25
100
AcDbSpline
210
0.0
220
0.0
230
1.0
 70
     8
 71
     3
 72
    14
 73
    10
 74
     0
 42
0.000000001
 43
0.00000001
 40
0.0
 40
0.0
 40
0.0
 40
0.0
 40
0.0909319350644248
 40
0.2641147359216331
 40
0.4372919513588344
 40
0.610524538170914
 40
0.7839844939580138
 40
0.9579284439183897
 40
1.0
 40
1.0
 40
1.0
 40
1.0
 10
0.3213408688793182
 20
0.783671485362194
 30
0.0
 10
0.3212031106181328
 20
0.7728129333393858
 30
0.0
 10
0.3208029873088878
 20
0.7412739190429952
 30
0.0
 10
0.3163673146317579
 20
0.6915278918888339
 30
0.0
 10
0.3064502783884582
 20
0.6361627578353911
 30
0.0
 10
0.2918033401113523
 20
0.5850314035358753
 30
0.0
 10
0.2722559181058436
 20
0.5390641264774988
 30
0.0
 10
0.2552903789406378
 20
0.5072804236427253
 30
0.0
 10
0.243651826679929
 20
0.4926958605322704
 30
0.0
 10
0.2413850819766576
 20
0.4898553456263263
 30
0.0
  0
SPLINE
  5
270
330
253
100
AcDbEntity
  8
0
  6
Continuous
 62
     7
370
    25
100
AcDbSpline
210
0.0
220
0.0
230
1.0
 70
     8
 71
     3
 72
    31
 73
    27
 74
     0
 42
0.000000001
 43
0.00000001
 40
0.0
 40
0.0
 40
0.0
 40
0.0
 40
0.0086989547743944
 40
0.0532824537702539
 40
0.0975993409833778
 40
0.1417237505114191
 40
0.1857325493017014
 40
0.2296852062603327
 40
0.2736208891937603
 40
0.3175572362916086
 40
0.3615079381211925
 40
0.4054792060871644
 40
0.4494721045914881
 40
0.4934847475553901
 40
0.5375136438307896
 40
0.5815544756808315
 40
0.6256025223208149
 40
0.6696528720101523
 40
0.7136996035508646
 40
0.7577369047854937
 40
0.8017597216820856
 40
0.845763113683891
 40
0.8897424959700222
 40
0.9336941187516519
 40
0.97761594110721
 40
1.0
 40
1.0
 40
1.0
 40
1.0
 10
-0.562182778752281
 20
-0.6781211618529261
 30
0.0
 10
-0.5592300581496183
 20
-0.6777206639954837
 30
0.0
 10
-0.5411441842615341
 20
-0.6752675521989883
 30
0.0
 10
-0.505284449374353
 20
-0.677055274340778
 30
0.0
 10
-0.4550446828771247
 20
-0.6838554192376052
 30
0.0
 10
-0.4029379091717346
 20
-0.6976155322776101
 30
0.0
 10
-0.3497002552621341
 20
-0.7175053970758773
 30
0.0
 10
-0.2956793674246757
 20
-0.7435631212258911
 30
0.0
 10
-0.2413510426611545
 20
-0.7755374372627688
 30
0.0
 10
-0.187175554621424
 20
-0.8131891821981233
 30
0.0
 10
-0.1336264339038641
 20
-0.8562088053194771
 30
0.0
 10
-0.0811714552487594
 20
-0.9042423441868949
 30
0.0
 10
-0.0302718804590322
 20
-0.9568866523206575
 30
0.0
 10
0.0186239346721018
 20
-1.013694877923647
 30
0.0
 10
0.0650855173513033
 20
-1.074180760343902
 30
0.0
 10
0.1087047471850476
 20
-1.137823676608796
 30
0.0
 10
0.1490997343257248
 20
-1.204073648019
 30
0.0
 10
0.1859179975609866
 20
-1.272355923442119
 30
0.0
 10
0.2188400141478939
 20
-1.342076252705979
 30
0.0
 10
0.2475817837461301
 20
-1.41262605872041
 30
0.0
 10
0.2719003241333818
 20
-1.483389998863506
 30
0.0
 10
0.2915863357363558
 20
-1.553745022936548
 30
0.0
 10
0.3065025893988627
 20
-1.623089172817699
 30
0.0
 10
0.3164510142842205
 20
-1.690759607787511
 30
0.0
 10
0.3208247864940447
 20
-1.745657325028349
 30
0.0
 10
0.3212106171451927
 20
-1.777396006542036
 30
0.0
 10
0.3213408688793576
 20
-1.788110599317311
 30
0.0
  0
SPLINE
  5
271
330
253
100
AcDbEntity
  8
0
  6
Continuous
 62
     7
370
    25
100
AcDbSpline
210
0.0
220
0.0
230
1.0
 70
     8
 71
     3
 72
    14
 73
    10
 74
     0
 42
0.000000001
 43
0.00000001
 40
0.0
 40
0.0
 40
0.0
 40
0.0
 40
0.090931935064423
 40
0.2641147359216279
 40
0.4372919513588263
 40
0.6105245381709052
 40
0.7839844939579985
 40
0.9579284439183645
 40
1.0
 40
1.0
 40
1.0
 40
1.0
 10
0.3213408688793576
 20
-1.788110599317311
 30
0.0
 10
0.3212031106181721
 20
-1.79896915134012
 30
0.0
 10
0.3208029873089271
 20
-1.830508165636511
 30
0.0
 10
0.3163673146317973
 20
-1.880254192790671
 30
0.0
 10
0.3064502783884977
 20
-1.935619326844115
 30
0.0
 10
0.2918033401113918
 20
-1.986750681143631
 30
0.0
 10
0.2722559181058832
 20
-2.032717958202007
 30
0.0
 10
0.2552903789406765
 20
-2.064501661036781
 30
0.0
 10
0.2436518266799665
 20
-2.079086224147237
 30
0.0
 10
0.2413850819766938
 20
-2.081926739053183
 30
0.0
  0
SPLINE
  5
272
330
253
100
AcDbEntity
  8
0
  6
Continuous
 62
     7
370
    25
100
AcDbSpline
210
0.0
220
0.0
230
1.0
 70
     8
 71
     3
 72
    12
 73
     8
 74
     0
 42
0.000000001
 43
0.00000001
 40
0.0
 40
0.0
 40
0.0
 40
0.0
 40
0.1262052793411927
 40
0.365757220341659
 40
0.6054412117449031
 40
0.8446602411375094
 40
1.0
 40
1.0
 40
1.0
 40
1.0
 10
0.7000489463424839
 20
-3.850494632762315
 30
0.0
 10
0.7082750512642755
 20
-3.855073457796845
 30
0.0
 10
0.7321152367631655
 20
-3.86834341231699
 30
0.0
 10
0.7716043329326985
 20
-3.885732078083853
 30
0.0
 10
0.8177928886367418
 20
-3.89997897137586
 30
0.0
 10
0.8578756316346218
 20
-3.907535460463949
 30
0.0
 10
0.8815995645174813
 20
-3.907407915297141
 30
0.0
 10
0.8909397949799454
 20
-3.907357700130111
 30
0.0
  0
SPLINE
  5
275
330
253
100
AcDbEntity
  8
0
  6
Continuous
 62
     7
370
    25
100
AcDbSpline
210
0.0
220
0.0
230
1.0
 70
     8
 71
     3
 72
    41
 73
    37
 74
     0
 42
0.000000001
 43
0.00000001
 40
0.0
 40
0.0
 40
0.0
 40
0.0
 40
0.0182268782114809
 40
0.0468998547453882
 40
0.0756180951649382
 40
0.1045353782337822
 40
0.1337414571591913
 40
0.1632481415415309
 40
0.193005649108179
 40
0.2229356601830602
 40
0.2529616744782575
 40
0.2830253256396132
 40
0.3130819662776507
 40
0.3431156395081534
 40
0.3731212052689649
 40
0.403099547324709
 40
0.4330548877916101
 40
0.4629931907155497
 40
0.4929212838712045
 40
0.5228464136511527
 40
0.5527754478696169
 40
0.5827140599913483
 40
0.6126698892537757
 40
0.6426505004129454
 40
0.6726630761100739
 40
0.7027137743198473
 40
0.7328064949801841
 40
0.7629406835473478
 40
0.7931077103142419
 40
0.8232786041774105
 40
0.8533993361943601
 40
0.8833951034029399
 40
0.9131738519109097
 40
0.9426523003548095
 40
0.9717959840817539
 40
1.0
 40
1.0
 40
1.0
 40
1.0
 10
-1.8021310492027
 20
-1.372577119079017
 30
0.0
 10
-1.810753256358337
 20
-1.377378016908721
 30
0.0
 10
-1.832939187404351
 20
-1.389731279395479
 30
0.0
 10
-1.86442695366883
 20
-1.416570033910527
 30
0.0
 10
-1.896603692362459
 20
-1.451860766895628
 30
0.0
 10
-1.924186255125336
 20
-1.492827609437169
 30
0.0
 10
-1.947174122613848
 20
-1.538895762689716
 30
0.0
 10
-1.965307854095551
 20
-1.589848119305314
 30
0.0
 10
-1.978406202309853
 20
-1.645255007126932
 30
0.0
 10
-1.986318654213828
 20
-1.704621388872826
 30
0.0
 10
-1.988968428978615
 20
-1.767378177716587
 30
0.0
 10
-1.986347849491991
 20
-1.832921928780571
 30
0.0
 10
-1.978511829035512
 20
-1.90064229385845
 30
0.0
 10
-1.965565108771603
 20
-1.969932632103955
 30
0.0
 10
-1.947651411006685
 20
-2.040196940838539
 30
0.0
 10
-1.924949978960311
 20
-2.110839872768384
 30
0.0
 10
-1.897673759573526
 20
-2.181266851707536
 30
0.0
 10
-1.866068089255723
 20
-2.250886229329662
 30
0.0
 10
-1.830409286784795
 20
-2.31911261639608
 30
0.0
 10
-1.791003094430829
 20
-2.385370505494053
 30
0.0
 10
-1.748183095551323
 20
-2.449097805345123
 30
0.0
 10
-1.702307222822832
 20
-2.509751904316966
 30
0.0
 10
-1.653753987530106
 20
-2.566814287308709
 30
0.0
 10
-1.602917930757399
 20
-2.619794724534908
 30
0.0
 10
-1.550206911719788
 20
-2.668232667577574
 30
0.0
 10
-1.496038847047485
 20
-2.711698997267363
 30
0.0
 10
-1.440839430970852
 20
-2.749796689443102
 30
0.0
 10
-1.385041932950398
 20
-2.78216037535713
 30
0.0
 10
-1.329094307711117
 20
-2.808454223053253
 30
0.0
 10
-1.273470652329811
 20
-2.828373487448439
 30
0.0
 10
-1.218676624517616
 20
-2.841662887537519
 30
0.0
 10
-1.1652649184506
 20
-2.848118722096166
 30
0.0
 10
-1.11378476414131
 20
-2.847692734902908
 30
0.0
 10
-1.064913779599564
 20
-2.84024727451252
 30
0.0
 10
-1.019174410989397
 20
-2.826668406674215
 30
0.0
 10
-0.9916702688534076
 20
-2.812221242112313
 30
0.0
 10
-0.9781435316447561
 20
-2.805116021470537
 30
0.0
  0
LWPOLYLINE
  5
27C
330
253
100
AcDbEntity
  8
0
  6
Continuous
 62
     7
370
    25
100
AcDbPolyline
 90
       63
 70
   128
 43
0.0
 10
-0.8630043392
 20
2.7166302936
 10
-0.8658609819
 20
2.7833251178
 10
-0.874401597
 20
2.8526337723
 10
-0.8885385462
 20
2.9238450566
 10
-0.9081267652
 20
2.9962282464
 10
-0.9329652525
 20
3.0690405923
 10
-0.9627991315
 20
3.1415349411
 10
-0.9973222663
 20
3.2129674027
 10
-1.0361804028
 20
3.2826049834
 10
-1.0789748039
 20
3.3497331073
 10
-1.1252663412
 20
3.4136629491
 10
-1.1745800008
 20
3.473738502
 10
-1.226409758
 20
3.5293433096
 10
-1.2802237691
 20
3.5799067914
 10
-1.3354698297
 20
3.6249100975
 10
-1.3915810404
 20
3.6638914332
 10
-1.4479816242
 20
3.6964507972
 10
-1.5040928349
 20
3.7222540864
 10
-1.5593388955
 20
3.7410365241
 10
-1.6131529067
 20
3.7526053771
 10
-1.6649826638
 20
3.7568419333
 10
-1.7142963234
 20
3.7537027198
 10
-1.7605878607
 20
3.7432199494
 10
-1.8033822618
 20
3.7255011893
 10
-1.8422403983
 20
3.7007282581
 10
-1.8767635331
 20
3.6691553595
 10
-1.9065974121
 20
3.6311064742
 10
-1.9314358994
 20
3.5869720352
 10
-1.9510241184
 20
3.5372049217
 10
-1.9651610676
 20
3.4823158116
 10
-1.9737016827
 20
3.4228679413
 10
-1.9765583254
 20
3.3594713265
 10
-1.9737016827
 20
3.2927765023
 10
-1.9651610676
 20
3.2234678477
 10
-1.9510241184
 20
3.1522565635
 10
-1.9314358994
 20
3.0798733737
 10
-1.9065974121
 20
3.0070610277
 10
-1.8767635331
 20
2.9345666789
 10
-1.8422403983
 20
2.8631342173
 10
-1.8033822618
 20
2.7934966367
 10
-1.7605878607
 20
2.7263685128
 10
-1.7142963234
 20
2.662438671
 10
-1.6649826638
 20
2.6023631181
 10
-1.6131529067
 20
2.5467583104
 10
-1.5593388955
 20
2.4961948287
 10
-1.5040928349
 20
2.4511915225
 10
-1.4479816242
 20
2.4122101868
 10
-1.3915810404
 20
2.3796508228
 10
-1.3354698297
 20
2.3538475336
 10
-1.2802237691
 20
2.3350650959
 10
-1.226409758
 20
2.323496243
 10
-1.1745800008
 20
2.3192596868
 10
-1.1252663412
 20
2.3223989002
 10
-1.0789748039
 20
2.3328816707
 10
-1.0361804028
 20
2.3506004307
 10
-0.9973222663
 20
2.375373362
 10
-0.9627991315
 20
2.4069462606
 10
-0.9329652525
 20
2.4449951459
 10
-0.9081267652
 20
2.4891295848
 10
-0.8885385462
 20
2.5388966983
 10
-0.874401597
 20
2.5937858085
 10
-0.8658609819
 20
2.6532336788
 10
-0.8630043392
 20
2.7166302936
  0
SPLINE
  5
27E
330
253
100
AcDbEntity
  8
0
  6
Continuous
 62
     7
370
    25
100
AcDbSpline
210
0.0
220
0.0
230
1.0
 70
     8
 71
     3
 72
    18
 73
    14
 74
     0
 42
0.000000001
 43
0.00000001
 40
0.0
 40
0.0
 40
0.0
 40
0.0
 40
0.0501274251257277
 40
0.1546503485035871
 40
0.2580816207392884
 40
0.3598569896707349
 40
0.4615578512723978
 40
0.56482701576624
 40
0.6693111488117123
 40
0.7734352250846462
 40
0.8768141731170606
 40
0.9805228675695643
 40
1.0
 40
1.0
 40
1.0
 40
1.0
 10
-0.9804026360589807
 20
3.889860491258693
 30
0.0
 10
-0.9795841537886173
 20
3.885167724548899
 30
0.0
 10
-0.9770590177370797
 20
3.87068986127754
 30
0.0
 10
-0.989424032112686
 20
3.84697864532667
 30
0.0
 10
-1.015321280680483
 20
3.824162239770338
 30
0.0
 10
-1.0526454782249
 20
3.809904881411559
 30
0.0
 10
-1.096216104939001
 20
3.805181982908368
 30
0.0
 10
-1.142038554810224
 20
3.809612065037133
 30
0.0
 10
-1.18494552324296
 20
3.821908551816688
 30
0.0
 10
-1.220217330174222
 20
3.839978183014369
 30
0.0
 10
-1.242071678499177
 20
3.861471849354814
 30
0.0
 10
-1.251182445676558
 20
3.878420717448262
 30
0.0
 10
-1.248033575071735
 20
3.887499607750108
 30
0.0
 10
-1.247535701482472
 20
3.888935087408806
 30
0.0
  0
LWPOLYLINE
  5
27F
330
253
100
AcDbEntity
  8
0
  6
Continuous
 62
     7
370
    25
100
AcDbPolyline
 90
       13
 70
   128
 43
0.0
 10
-1.211979183
 20
4.291765842
 10
-1.2117284068
 20
4.2877123741
 10
-1.2057734472
 20
4.2719094073
 10
-1.1923474153
 20
4.2577150908
 10
-1.1725380084
 20
4.2462793636
 10
-1.1479500668
 20
4.2385286803
 10
-1.1205755593
 20
4.2350909553
 10
-1.0926322057
 20
4.2362446926
 10
-1.0663838103
 20
4.2418964232
 10
-1.043956862
 20
4.2515882775
 10
-1.0271682588
 20
4.2645350791
 10
-1.0173781135
 20
4.2796879553
 10
-1.0151287893
 20
4.291765842
  0
LWPOLYLINE
  5
280
330
253
100
AcDbEntity
  8
0
  6
Continuous
 62
     7
370
    25
100
AcDbPolyline
 90
       63
 70
   128
 43
0.0
 10
-1.9765583254
 20
0.7876892418
 10
-1.9737016827
 20
0.7209944176
 10
-1.9651610676
 20
0.6516857631
 10
-1.9510241184
 20
0.5804744788
 10
-1.9314358994
 20
0.508091289
 10
-1.9065974121
 20
0.4352789431
 10
-1.8767635331
 20
0.3627845942
 10
-1.8422403983
 20
0.2913521326
 10
-1.8033822618
 20
0.221714552
 10
-1.7605878607
 20
0.1545864281
 10
-1.7142963234
 20
0.0906565863
 10
-1.6649826638
 20
0.0305810334
 10
-1.6131529067
 20
-0.0250237742
 10
-1.5593388955
 20
-0.075587256
 10
-1.5040928349
 20
-0.1205905621
 10
-1.4479816242
 20
-0.1595718978
 10
-1.3915810404
 20
-0.1921312619
 10
-1.3354698297
 20
-0.217934551
 10
-1.2802237691
 20
-0.2367169887
 10
-1.226409758
 20
-0.2482858417
 10
-1.1745800008
 20
-0.2525223979
 10
-1.1252663412
 20
-0.2493831845
 10
-1.0789748039
 20
-0.238900414
 10
-1.0361804028
 20
-0.2211816539
 10
-0.9973222663
 20
-0.1964087227
 10
-0.9627991315
 20
-0.1648358241
 10
-0.9329652525
 20
-0.1267869388
 10
-0.9081267652
 20
-0.0826524999
 10
-0.8885385462
 20
-0.0328853863
 10
-0.874401597
 20
0.0220037238
 10
-0.8658609819
 20
0.0814515941
 10
-0.8630043392
 20
0.1448482089
 10
-0.8658609819
 20
0.2115430331
 10
-0.874401597
 20
0.2808516877
 10
-0.8885385462
 20
0.3520629719
 10
-0.9081267652
 20
0.4244461617
 10
-0.9329652525
 20
0.4972585076
 10
-0.9627991315
 20
0.5697528565
 10
-0.9973222663
 20
0.6411853181
 10
-1.0361804028
 20
0.7108228987
 10
-1.0789748039
 20
0.7779510226
 10
-1.1252663412
 20
0.8418808644
 10
-1.1745800008
 20
0.9019564173
 10
-1.226409758
 20
0.9575612249
 10
-1.2802237691
 20
1.0081247067
 10
-1.3354698297
 20
1.0531280128
 10
-1.3915810404
 20
1.0921093485
 10
-1.4479816242
 20
1.1246687126
 10
-1.5040928349
 20
1.1504720018
 10
-1.5593388955
 20
1.1692544394
 10
-1.6131529067
 20
1.1808232924
 10
-1.6649826638
 20
1.1850598486
 10
-1.7142963234
 20
1.1819206352
 10
-1.7605878607
 20
1.1714378647
 10
-1.8033822618
 20
1.1537191046
 10
-1.8422403983
 20
1.1289461734
 10
-1.8767635331
 20
1.0973732748
 10
-1.9065974121
 20
1.0593243895
 10
-1.9314358994
 20
1.0151899506
 10
-1.9510241184
 20
0.965422837
 10
-1.9651610676
 20
0.9105337269
 10
-1.9737016827
 20
0.8510858566
 10
-1.9765583254
 20
0.7876892418
  0
SPLINE
  5
282
330
253
100
AcDbEntity
  8
0
  6
Continuous
 62
     7
370
    25
100
AcDbSpline
210
0.0
220
0.0
230
1.0
 70
     8
 71
     3
 72
    10
 73
     6
 74
     0
 42
0.000000001
 43
0.00000001
 40
0.0
 40
0.0
 40
0.0
 40
0.0
 40
0.4247908592635226
 40
0.8494150681401338
 40
1.0
 40
1.0
 40
1.0
 40
1.0
 10
-0.956264485581008
 20
1.4089441025384
 30
0.0
 10
-0.966826198916807
 20
1.416252762964598
 30
0.0
 10
-0.9879454821056174
 20
1.430867216544639
 30
0.0
 10
-1.001195762408402
 20
1.450717092349902
 30
0.0
 10
-0.9992293899393777
 20
1.462103353354698
 30
0.0
 10
-0.998714610108376
 20
1.465084181050431
 30
0.0
  0
SPLINE
  5
283
330
253
100
AcDbEntity
  8
0
  6
Continuous
 62
     7
370
    25
100
AcDbSpline
210
0.0
220
0.0
230
1.0
 70
     8
 71
     3
 72
    15
 73
    11
 74
     0
 42
0.000000001
 43
0.00000001
 40
0.0
 40
0.0
 40
0.0
 40
0.0
 40
0.0394892453308299
 40
0.183403821852393
 40
0.3266138976791397
 40
0.467658512444805
 40
0.6084831740266032
 40
0.7513395845120142
 40
0.8953455035050143
 40
1.0
 40
1.0
 40
1.0
 40
1.0
 10
-0.6992027323252369
 20
1.465018287586607
 30
0.0
 10
-0.6987080997143831
 20
1.4619833271601
 30
0.0
 10
-0.6964108283818116
 20
1.447887759196499
 30
0.0
 10
-0.7095418452143284
 20
1.423108136184277
 30
0.0
 10
-0.7378052705499559
 20
1.3969763614918
 30
0.0
 10
-0.7794967639195984
 20
1.380599971944984
 30
0.0
 10
-0.8283617745026672
 20
1.375141145856154
 30
0.0
 10
-0.8796899349738333
 20
1.380172415036426
 30
0.0
 10
-0.9243641293328733
 20
1.392568575063021
 30
0.0
 10
-0.9468153635430451
 20
1.404093549887913
 30
0.0
 10
-0.956264485581008
 20
1.4089441025384
 30
0.0
  0
LWPOLYLINE
  5
284
330
253
100
AcDbEntity
  8
0
  6
Continuous
 62
     7
370
    25
100
AcDbPolyline
 90
       27
 70
   128
 43
0.0
 10
-0.9486368568
 20
1.5144719904
 10
-0.921919719
 20
1.5023884692
 10
-0.8909696872
 20
1.4943471523
 10
-0.8575854646
 20
1.490815372
 10
-0.823707221
 20
1.4919983824
 10
-0.7913038366
 20
1.4978274313
 10
-0.7622584785
 20
1.5079637556
 10
-0.7382591572
 20
1.5218182689
 10
-0.7207006261
 20
1.5385857972
 10
-0.7106033231
 20
1.5572918728
 10
-0.7085540669
 20
1.5768493666
 10
-0.7146719528
 20
1.5961216681
 10
-0.7286014314
 20
1.6139887412
 10
-0.7495329721
 20
1.6294122165
 10
-0.7762501098
 20
1.6414957377
 10
-0.8072001416
 20
1.6495370545
 10
-0.8405843642
 20
1.6530688349
 10
-0.8744626079
 20
1.6518858244
 10
-0.9068659922
 20
1.6460567755
 10
-0.9359113504
 20
1.6359204513
 10
-0.9599106717
 20
1.622065938
 10
-0.9774692028
 20
1.6052984096
 10
-0.9875665057
 20
1.586592334
 10
-0.9896157619
 20
1.5670348403
 10
-0.9834978761
 20
1.5477625388
 10
-0.9695683975
 20
1.5298954657
 10
-0.9486368568
 20
1.5144719904
  0
LWPOLYLINE
  5
285
330
253
100
AcDbEntity
  8
0
  6
Continuous
 62
     7
370
    25
100
AcDbPolyline
 90
        3
 70
   128
 43
0.0
 10
-0.6975101113
 20
1.5576042564
 10
-0.697574235
 20
1.5550592774
 10
-0.6975899149
 20
1.5547651946
  0
LWPOLYLINE
  5
286
330
253
100
AcDbEntity
  8
0
  6
Continuous
 62
     7
370
    25
100
AcDbPolyline
 90
       10
 70
   128
 43
0.0
 10
-1.043956862
 20
-0.4740613031
 10
-1.0663838103
 20
-0.4837531574
 10
-1.0926322057
 20
-0.489404888
 10
-1.1205755593
 20
-0.4905586253
 10
-1.1479500668
 20
-0.4871209003
 10
-1.1725380084
 20
-0.479370217
 10
-1.1923474153
 20
-0.4679344898
 10
-1.2057734472
 20
-0.4537401733
 10
-1.2117284068
 20
-0.4379372064
 10
-1.2118441202
 20
-0.4368593708
  0
LWPOLYLINE
  5
290
330
253
100
AcDbEntity
  8
0
  6
Continuous
 62
     7
370
    25
100
AcDbPolyline
 90
       14
 70
   128
 43
0.0
 10
0.6959712413
 20
-3.8414819397
 10
0.7446274779
 20
-3.8661719345
 10
0.7925741969
 20
-3.8837045884
 10
0.8391122273
 20
-3.8938242356
 10
0.8835629398
 20
-3.8963833091
 10
0.9252781429
 20
-3.8913444916
 10
0.9636495351
 20
-3.8787812606
 10
0.998117575
 20
-3.8588768163
 10
1.0281796409
 20
-3.8319214102
 10
1.0533973603
 20
-3.7983081128
 10
1.0734030021
 20
-3.7585270818
 10
1.0879048388
 20
-3.7131584142
 10
1.0966914012
 20
-3.6628636872
 10
1.0996345613
 20
-3.6083763113
  0
LWPOLYLINE
  5
291
330
253
100
AcDbEntity
  8
0
  6
Continuous
 62
     7
370
    25
100
AcDbPolyline
 90
       14
 70
   128
 43
0.0
 10
-1.2527482344
 20
6.0918435079
 10
-1.3014044709
 20
6.1165335028
 10
-1.34935119
 20
6.1340661566
 10
-1.3958892204
 20
6.1441858038
 10
-1.4403399329
 20
6.1467448773
 10
-1.482055136
 20
6.1417060599
 10
-1.5204265282
 20
6.1291428289
 10
-1.554894568
 20
6.1092383845
 10
-1.584956634
 20
6.0822829784
 10
-1.6101743534
 20
6.0486696811
 10
-1.6301799951
 20
6.0088886501
 10
-1.6446818319
 20
5.9635199824
 10
-1.6534683943
 20
5.9132252554
 10
-1.6564115544
 20
5.8587378795
  0
LWPOLYLINE
  5
293
330
253
100
AcDbEntity
  8
0
  6
Continuous
 62
     7
370
    25
100
AcDbPolyline
 90
       37
 70
   128
 43
0.0
 10
0.0709821587
 20
2.9440024407
 10
0.0969030627
 20
2.9522453288
 10
0.1399185901
 20
2.9724337437
 10
0.1789055915
 20
2.9995997702
 10
0.2134886009
 20
3.0334817845
 10
0.243334565
 20
3.0737534843
 10
0.2681560508
 20
3.1200270312
 10
0.2877140138
 20
3.1718567856
 10
0.3018201002
 20
3.2287435986
 10
0.3103384606
 20
3.2901396192
 10
0.3131870586
 20
3.35545357
 10
0.3103384606
 20
3.4240564421
 10
0.3018201002
 20
3.4952875523
 10
0.2877140138
 20
3.568460906
 10
0.2681560508
 20
3.6428718038
 10
0.243334565
 20
3.7178036282
 10
0.2134886009
 20
3.7925347446
 10
0.1789055915
 20
3.8663454517
 10
0.1399185901
 20
3.9385249119
 10
0.0969030627
 20
4.0083779975
 10
0.0502732725
 20
4.0752319853
 10
0.0004782897
 20
4.1384430346
 10
-0.0520023326
 20
4.1974023887
 10
-0.1066631774
 20
4.2515422365
 10
-0.162977831
 20
4.3003411819
 10
-0.2204039523
 20
4.3433292643
 10
-0.2783884965
 20
4.380092485
 10
-0.3363730407
 20
4.4102767941
 10
-0.3937991621
 20
4.4335915001
 10
-0.4501138156
 20
4.4498120697
 10
-0.5047746605
 20
4.4587822899
 10
-0.5572552828
 20
4.4604157727
 10
-0.6070502655
 20
4.4546967866
 10
-0.6536800558
 20
4.4416804087
 10
-0.6966955831
 20
4.4214919938
 10
-0.7356825846
 20
4.3943259674
 10
-0.7557223052
 20
4.3760517407
  0
LWPOLYLINE
  5
29F
330
253
100
AcDbEntity
  8
0
  6
Continuous
 62
     7
370
    25
100
AcDbPolyline
 90
        8
 70
   128
 43
0.0
 10
-1.1413928358
 20
6.1722012493
 10
-1.1917268736
 20
6.1977426232
 10
-1.2413269277
 20
6.2158798513
 10
-1.2894697178
 20
6.2263484519
 10
-1.3354532135
 20
6.2289957693
 10
-1.3786068719
 20
6.2237831995
 10
-1.4183014155
 20
6.2107867537
 10
-1.4366444301
 20
6.201438287
  0
LWPOLYLINE
  5
2A2
330
253
100
AcDbEntity
  8
0
  6
Continuous
 62
     7
370
    25
100
AcDbPolyline
 90
        3
 70
   128
 43
0.0
 10
-0.6861251811
 20
1.8444472206
 10
-0.6660854605
 20
1.8627214473
 10
-0.6539761574
 20
1.8722300195
  0
LWPOLYLINE
  5
2A3
330
253
100
AcDbEntity
  8
0
  6
Continuous
 62
     7
370
    25
100
AcDbPolyline
 90
        3
 70
   128
 43
0.0
 10
0.1807157133
 20
0.4263446262
 10
0.1665001869
 20
0.4206408087
 10
0.1405792829
 20
0.4123979206
  0
LWPOLYLINE
  5
2A6
330
253
100
AcDbEntity
  8
0
  6
Continuous
 62
     7
370
    25
100
AcDbPolyline
 90
        3
 70
   128
 43
0.0
 10
-0.6861251811
 20
-0.7273348641
 10
-0.6660854605
 20
-0.7090606374
 10
-0.6539761574
 20
-0.6995520652
  0
LWPOLYLINE
  5
2A7
330
253
100
AcDbEntity
  8
0
  6
Continuous
 62
     7
370
    25
100
AcDbPolyline
 90
        3
 70
   128
 43
0.0
 10
0.1807157133
 20
-2.1454374585
 10
0.1665001869
 20
-2.151141276
 10
0.1405792829
 20
-2.1593841641
  0
LWPOLYLINE
  5
2AA
330
253
100
AcDbEntity
  8
0
  6
Continuous
 62
     7
370
    25
100
AcDbPolyline
 90
       63
 70
   128
 43
0.0
 10
-0.8630043392
 20
-2.4269338758
 10
-0.8658609819
 20
-2.3602390516
 10
-0.874401597
 20
-2.290930397
 10
-0.8885385462
 20
-2.2197191128
 10
-0.9081267652
 20
-2.147335923
 10
-0.9329652525
 20
-2.074523577
 10
-0.9627991315
 20
-2.0020292282
 10
-0.9973222663
 20
-1.9305967666
 10
-1.0361804028
 20
-1.860959186
 10
-1.0789748039
 20
-1.7938310621
 10
-1.1252663412
 20
-1.7299012203
 10
-1.1745800008
 20
-1.6698256674
 10
-1.226409758
 20
-1.6142208597
 10
-1.2802237691
 20
-1.563657378
 10
-1.3354698297
 20
-1.5186540718
 10
-1.3915810404
 20
-1.4796727361
 10
-1.4479816242
 20
-1.4471133721
 10
-1.5040928349
 20
-1.4213100829
 10
-1.5593388955
 20
-1.4025276452
 10
-1.6131529067
 20
-1.3909587923
 10
-1.6649826638
 20
-1.3867222361
 10
-1.7142963234
 20
-1.3898614495
 10
-1.7605878607
 20
-1.40034422
 10
-1.8033822618
 20
-1.41806298
 10
-1.8422403983
 20
-1.4428359113
 10
-1.8767635331
 20
-1.4744088099
 10
-1.9065974121
 20
-1.5124576952
 10
-1.9314358994
 20
-1.5565921341
 10
-1.9510241184
 20
-1.6063592476
 10
-1.9651610676
 20
-1.6612483578
 10
-1.9737016827
 20
-1.7206962281
 10
-1.9765583254
 20
-1.7840928429
 10
-1.9737016827
 20
-1.8507876671
 10
-1.9651610676
 20
-1.9200963216
 10
-1.9510241184
 20
-1.9913076059
 10
-1.9314358994
 20
-2.0636907957
 10
-1.9065974121
 20
-2.1365031416
 10
-1.8767635331
 20
-2.2089974904
 10
-1.8422403983
 20
-2.280429952
 10
-1.8033822618
 20
-2.3500675327
 10
-1.7605878607
 20
-2.4171956566
 10
-1.7142963234
 20
-2.4811254984
 10
-1.6649826638
 20
-2.5412010513
 10
-1.6131529067
 20
-2.5968058589
 10
-1.5593388955
 20
-2.6473693407
 10
-1.5040928349
 20
-2.6923726468
 10
-1.4479816242
 20
-2.7313539825
 10
-1.3915810404
 20
-2.7639133465
 10
-1.3354698297
 20
-2.7897166357
 10
-1.2802237691
 20
-2.8084990734
 10
-1.226409758
 20
-2.8200679264
 10
-1.1745800008
 20
-2.8243044826
 10
-1.1252663412
 20
-2.8211652691
 10
-1.0789748039
 20
-2.8106824987
 10
-1.0361804028
 20
-2.7929637386
 10
-0.9973222663
 20
-2.7681908074
 10
-0.9627991315
 20
-2.7366179088
 10
-0.9329652525
 20
-2.6985690235
 10
-0.9081267652
 20
-2.6544345845
 10
-0.8885385462
 20
-2.604667471
 10
-0.874401597
 20
-2.5497783608
 10
-0.8658609819
 20
-2.4903304906
 10
-0.8630043392
 20
-2.4269338758
  0
SPLINE
  5
2AC
330
253
100
AcDbEntity
  8
0
  6
Continuous
 62
     7
370
    25
100
AcDbSpline
210
0.0
220
0.0
230
1.0
 70
     8
 71
     3
 72
    18
 73
    14
 74
     0
 42
0.000000001
 43
0.00000001
 40
0.0
 40
0.0
 40
0.0
 40
0.0
 40
0.0501274251257279
 40
0.1546503485035872
 40
0.2580816207392885
 40
0.3598569896707349
 40
0.4615578512723977
 40
0.5648270157662397
 40
0.6693111488117119
 40
0.7734352250846458
 40
0.8768141731170601
 40
0.9805228675695636
 40
1.0
 40
1.0
 40
1.0
 40
1.0
 10
-0.980402636058984
 20
-1.253703678100376
 30
0.0
 10
-0.9795841537886206
 20
-1.25839644481017
 30
0.0
 10
-0.9770590177370833
 20
-1.272874308081528
 30
0.0
 10
-0.9894240321126904
 20
-1.296585524032398
 30
0.0
 10
-1.015321280680486
 20
-1.319401929588732
 30
0.0
 10
-1.052645478224903
 20
-1.333659287947508
 30
0.0
 10
-1.096216104939005
 20
-1.338382186450703
 30
0.0
 10
-1.142038554810227
 20
-1.333952104321933
 30
0.0
 10
-1.184945523242963
 20
-1.321655617542381
 30
0.0
 10
-1.220217330174226
 20
-1.303585986344699
 30
0.0
 10
-1.242071678499181
 20
-1.282092320004254
 30
0.0
 10
-1.251182445676562
 20
-1.265143451910804
 30
0.0
 10
-1.248033575071738
 20
-1.25606456160896
 30
0.0
 10
-1.247535701482476
 20
-1.254629081950262
 30
0.0
  0
LWPOLYLINE
  5
2AD
330
253
100
AcDbEntity
  8
0
  6
Continuous
 62
     7
370
    25
100
AcDbPolyline
 90
       13
 70
   128
 43
0.0
 10
-1.211979183
 20
-0.8517983273
 10
-1.2117284068
 20
-0.8558517952
 10
-1.2057734472
 20
-0.871654762
 10
-1.1923474153
 20
-0.8858490786
 10
-1.1725380084
 20
-0.8972848058
 10
-1.1479500668
 20
-0.905035489
 10
-1.1205755593
 20
-0.908473214
 10
-1.0926322057
 20
-0.9073194768
 10
-1.0663838103
 20
-0.9016677462
 10
-1.043956862
 20
-0.8919758919
 10
-1.0271682588
 20
-0.8790290902
 10
-1.0173781135
 20
-0.8638762141
 10
-1.0151287893
 20
-0.8517983273
  0
LWPOLYLINE
  5
2AE
330
253
100
AcDbEntity
  8
0
  6
Continuous
 62
     8
370
    25
100
AcDbPolyline
 90
        9
 70
   128
 43
0.0
 10
-0.8073266399
 20
2.7166302936
 10
-0.810141725
 20
2.6520847421
 10
-0.8185598694
 20
2.5914110277
 10
-0.8325000019
 20
2.5351934713
 10
-0.8518278712
 20
2.4839734787
 10
-0.8763573395
 20
2.4382443265
 10
-0.9058521746
 20
2.3984464114
 10
-0.940028325
 20
2.364963009
 10
-0.9781431986
 20
2.3383558223
  0
LWPOLYLINE
  5
2AF
330
253
100
AcDbEntity
  8
0
  6
Continuous
 62
     8
370
    25
100
AcDbPolyline
 90
       25
 70
   128
 43
0.0
 10
-1.8027573278
 20
3.7715934168
 10
-1.7628188471
 20
3.790077993
 10
-1.7167376426
 20
3.802941237
 10
-1.6675284832
 20
3.8085929409
 10
-1.61566528
 20
3.8069786756
 10
-1.5616475039
 20
3.7981139873
 10
-1.5059953757
 20
3.7820842479
 10
-1.4492448557
 20
3.7590438326
 10
-1.3919424827
 20
3.7292146331
 10
-1.3346401096
 20
3.6928839209
 10
-1.2778895896
 20
3.6504015806
 10
-1.2222374614
 20
3.6021767405
 10
-1.1682196853
 20
3.548673832
 10
-1.1163564821
 20
3.4904081174
 10
-1.0671473227
 20
3.4279407274
 10
-1.0210661182
 20
3.3618732572
 10
-0.9785566559
 20
3.2928419726
 10
-0.940028325
 20
3.2215116825
 10
-0.9058521746
 20
3.1485693367
 10
-0.8763573395
 20
3.0747174098
 10
-0.8518278712
 20
3.0006671363
 10
-0.8325000019
 20
2.9271316608
 10
-0.8185598694
 20
2.8548191701
 10
-0.810141725
 20
2.784426073
 10
-0.8073266399
 20
2.7166302936
  0
LWPOLYLINE
  5
2B0
330
253
100
AcDbEntity
  8
0
  6
Continuous
 62
     8
370
    25
100
AcDbPolyline
 90
       35
 70
   128
 43
0.0
 10
-1.8057417667
 20
1.1981057648
 10
-1.8053283094
 20
1.1983450042
 10
-1.7628188471
 20
1.2182959083
 10
-1.7167376426
 20
1.2311591523
 10
-1.6675284832
 20
1.2368108562
 10
-1.61566528
 20
1.2351965909
 10
-1.5616475039
 20
1.2263319026
 10
-1.5059953757
 20
1.2103021633
 10
-1.4492448557
 20
1.1872617479
 10
-1.3919424827
 20
1.1574325484
 10
-1.3346401096
 20
1.1211018362
 10
-1.2778895896
 20
1.0786194959
 10
-1.2222374614
 20
1.0303946558
 10
-1.1682196853
 20
0.9768917473
 10
-1.1163564821
 20
0.9186260327
 10
-1.0671473227
 20
0.8561586428
 10
-1.0210661182
 20
0.7900911725
 10
-0.9785566559
 20
0.7210598879
 10
-0.940028325
 20
0.6497295978
 10
-0.9058521746
 20
0.576787252
 10
-0.8763573395
 20
0.5029353252
 10
-0.8518278712
 20
0.4288850517
 10
-0.8325000019
 20
0.3553495762
 10
-0.8185598694
 20
0.2830370854
 10
-0.810141725
 20
0.2126439884
 10
-0.8073266399
 20
0.1448482089
 10
-0.810141725
 20
0.0803026575
 10
-0.8185598694
 20
0.019628943
 10
-0.8325000019
 20
-0.0365886134
 10
-0.8518278712
 20
-0.0878086059
 10
-0.8763573395
 20
-0.1335377582
 10
-0.9058521746
 20
-0.1733356733
 10
-0.940028325
 20
-0.2068190757
 10
-0.9785566559
 20
-0.2336655018
 10
-0.9785902507
 20
-0.2336848988
  0
LWPOLYLINE
  5
2B2
330
253
100
AcDbEntity
  8
0
  6
Continuous
 62
     8
370
    25
100
AcDbPolyline
 90
       11
 70
   128
 43
0.0
 10
-0.6975899149
 20
1.5547651946
 10
-0.7026748974
 20
1.5349570021
 10
-0.7156685618
 20
1.5160756461
 10
-0.7358547363
 20
1.4994331082
 10
-0.762145179
 20
1.485926592
 10
-0.7931225653
 20
1.4762842372
 10
-0.8271168964
 20
1.4710258657
 10
-0.862295529
 20
1.4704349576
 10
-0.8967619739
 20
1.474543369
 10
-0.9286581362
 20
1.4831296144
 10
-0.9562644856
 20
1.495730807
  0
LWPOLYLINE
  5
2B3
330
253
100
AcDbEntity
  8
0
  6
Continuous
 62
     8
370
    25
100
AcDbPolyline
 90
       12
 70
   128
 43
0.0
 10
0.3271064834
 20
0.7756359725
 10
0.3242798117
 20
0.7097849277
 10
0.3158261883
 20
0.6478123222
 10
0.3018245426
 20
0.5902967774
 10
0.282405604
 20
0.5377753004
 10
0.257750682
 20
0.4907382702
 10
0.2280899729
 20
0.4496248587
 10
0.1937004109
 20
0.414818931
 10
0.1549030819
 20
0.3866454604
 10
0.1120602261
 20
0.3653674952
 10
0.0655718559
 20
0.351183702
 10
0.0234905867
 20
0.3448040551
  0
LWPOLYLINE
  5
2B4
330
253
100
AcDbEntity
  8
0
  6
Continuous
 62
     8
370
    25
100
AcDbPolyline
 90
       29
 70
   128
 43
0.0
 10
-0.8032138773
 20
1.7768533551
 10
-0.8003068027
 20
1.7809457885
 10
-0.7682442253
 20
1.8189498382
 10
-0.731607997
 20
1.8504763532
 10
-0.6907401803
 20
1.8752309789
 10
-0.646022347
 20
1.892982588
 10
-0.5978720156
 20
1.9035654385
 10
-0.5467387525
 20
1.9068807212
 10
-0.4930999755
 20
1.9028974822
 10
-0.4374564952
 20
1.891652912
 10
-0.3803278399
 20
1.873251998
 10
-0.3222474044
 20
1.8478665447
 10
-0.2637574701
 20
1.8157335691
 10
-0.2054041417
 20
1.7771530882
 10
-0.1477322486
 20
1.7324853176
 10
-0.0912802577
 20
1.6821473082
 10
-0.036575246
 20
1.6266090524
 10
0.0158720205
 20
1.566389096
 10
0.0655718559
 20
1.5020496964
 10
0.1120602261
 20
1.4341915734
 10
0.1549030819
 20
1.3634482999
 10
0.1937004109
 20
1.2904803868
 10
0.2280899729
 20
1.2159691158
 10
0.257750682
 20
1.1406101786
 10
0.282405604
 20
1.0651071814
 10
0.3018245426
 20
0.9901650751
 10
0.3158261883
 20
0.9164835742
 10
0.3242798117
 20
0.8447506229
 10
0.3271064834
 20
0.7756359725
  0
LWPOLYLINE
  5
2B5
330
253
100
AcDbEntity
  8
0
  6
Continuous
 62
     8
370
    25
100
AcDbPolyline
 90
       12
 70
   128
 43
0.0
 10
0.3271064834
 20
-1.7961461122
 10
0.3242798117
 20
-1.861997157
 10
0.3158261883
 20
-1.9239697625
 10
0.3018245426
 20
-1.9814853073
 10
0.282405604
 20
-2.0340067843
 10
0.257750682
 20
-2.0810438145
 10
0.2280899729
 20
-2.1221572259
 10
0.1937004109
 20
-2.1569631537
 10
0.1549030819
 20
-2.1851366243
 10
0.1120602261
 20
-2.2064145895
 10
0.0655718559
 20
-2.2205983827
 10
0.0234905867
 20
-2.2269780296
  0
LWPOLYLINE
  5
2B6
330
253
100
AcDbEntity
  8
0
  6
Continuous
 62
     8
370
    25
100
AcDbPolyline
 90
       29
 70
   128
 43
0.0
 10
-0.8032138773
 20
-0.7949287296
 10
-0.8003068027
 20
-0.7908362961
 10
-0.7682442253
 20
-0.7528322464
 10
-0.731607997
 20
-0.7213057315
 10
-0.6907401803
 20
-0.6965511058
 10
-0.646022347
 20
-0.6787994967
 10
-0.5978720156
 20
-0.6682166462
 10
-0.5467387525
 20
-0.6649013635
 10
-0.4930999755
 20
-0.6688846024
 10
-0.4374564952
 20
-0.6801291727
 10
-0.3803278399
 20
-0.6985300867
 10
-0.3222474044
 20
-0.72391554
 10
-0.2637574701
 20
-0.7560485156
 10
-0.2054041417
 20
-0.7946289965
 10
-0.1477322486
 20
-0.8392967671
 10
-0.0912802577
 20
-0.8896347765
 10
-0.036575246
 20
-0.9451730323
 10
0.0158720205
 20
-1.0053929887
 10
0.0655718559
 20
-1.0697323882
 10
0.1120602261
 20
-1.1375905113
 10
0.1549030819
 20
-1.2083337848
 10
0.1937004109
 20
-1.2813016979
 10
0.2280899729
 20
-1.3558129689
 10
0.257750682
 20
-1.4311719061
 10
0.282405604
 20
-1.5066749033
 10
0.3018245426
 20
-1.5816170095
 10
0.3158261883
 20
-1.6552985105
 10
0.3242798117
 20
-1.7270314618
 10
0.3271064834
 20
-1.7961461122
  0
LWPOLYLINE
  5
2BF
330
253
100
AcDbEntity
  8
0
  6
Continuous
 62
     8
370
    25
100
AcDbPolyline
 90
        9
 70
   128
 43
0.0
 10
-0.8073266399
 20
-2.4269338758
 10
-0.810141725
 20
-2.4914794272
 10
-0.8185598694
 20
-2.5521531416
 10
-0.8325000019
 20
-2.608370698
 10
-0.8518278712
 20
-2.6595906906
 10
-0.8763573395
 20
-2.7053198429
 10
-0.9058521746
 20
-2.745117758
 10
-0.940028325
 20
-2.7786011604
 10
-0.9781431986
 20
-2.8052083471
  0
LWPOLYLINE
  5
2C0
330
253
100
AcDbEntity
  8
0
  6
Continuous
 62
     8
370
    25
100
AcDbPolyline
 90
       25
 70
   128
 43
0.0
 10
-1.8027573278
 20
-1.3719707525
 10
-1.7628188471
 20
-1.3534861764
 10
-1.7167376426
 20
-1.3406229323
 10
-1.6675284832
 20
-1.3349712285
 10
-1.61566528
 20
-1.3365854938
 10
-1.5616475039
 20
-1.345450182
 10
-1.5059953757
 20
-1.3614799214
 10
-1.4492448557
 20
-1.3845203368
 10
-1.3919424827
 20
-1.4143495363
 10
-1.3346401096
 20
-1.4506802485
 10
-1.2778895896
 20
-1.4931625887
 10
-1.2222374614
 20
-1.5413874289
 10
-1.1682196853
 20
-1.5948903374
 10
-1.1163564821
 20
-1.653156052
 10
-1.0671473227
 20
-1.7156234419
 10
-1.0210661182
 20
-1.7816909121
 10
-0.9785566559
 20
-1.8507221968
 10
-0.940028325
 20
-1.9220524869
 10
-0.9058521746
 20
-1.9949948327
 10
-0.8763573395
 20
-2.0688467595
 10
-0.8518278712
 20
-2.142897033
 10
-0.8325000019
 20
-2.2164325085
 10
-0.8185598694
 20
-2.2887449992
 10
-0.810141725
 20
-2.3591380963
 10
-0.8073266399
 20
-2.4269338758
  0
LINE
  5
2C1
330
253
100
AcDbEntity
  8
0
  6
Continuous
 62
     7
370
    25
100
AcDbLine
 10
-0.6277591518
 20
4.4499232968
 30
0.0
 11
-1.0093495537
 21
4.2296358468
 31
0.0
  0
LINE
  5
2C2
330
253
100
AcDbEntity
  8
0
  6
Continuous
 62
     7
370
    25
100
AcDbLine
 10
-1.2292926132
 20
4.1026654212
 30
0.0
 11
-1.8052947146
 21
3.7701464859
 31
0.0
  0
LINE
  5
2C3
330
253
100
AcDbEntity
  8
0
  6
Continuous
 62
     7
370
    25
100
AcDbLine
 10
-0.9785902507
 20
2.3380971859
 30
0.0
 11
0.1989453122
 21
3.0178739968
 31
0.0
  0
LINE
  5
2C4
330
253
100
AcDbEntity
  8
0
  6
Continuous
 62
     7
370
    25
100
AcDbLine
 10
-0.9785001436
 20
3.8900401616
 30
0.0
 11
-1.0151424382
 21
4.2934049293
 31
0.0
  0
LINE
  5
2C5
330
253
100
AcDbEntity
  8
0
  6
Continuous
 62
     7
370
    25
100
AcDbLine
 10
-1.2119655341
 20
4.2934049293
 30
0.0
 11
-1.248692143
 21
3.8891120145
 31
0.0
  0
LINE
  5
2C6
330
253
100
AcDbEntity
  8
0
  6
Continuous
 62
     7
370
    25
100
AcDbLine
 10
-0.613839727
 20
1.8861767251
 30
0.0
 11
-1.8052947146
 21
1.1983644012
 31
0.0
  0
LINE
  5
2C7
330
253
100
AcDbEntity
  8
0
  6
Continuous
 62
     7
370
    25
100
AcDbLine
 10
-0.9785902507
 20
-0.2336848988
 30
0.0
 11
0.212864737
 21
0.4541274251
 31
0.0
  0
LINE
  5
2C8
330
253
100
AcDbEntity
  8
0
  6
Continuous
 62
     7
370
    25
100
AcDbLine
 10
-0.6975101113
 20
1.4650907066
 30
0.0
 11
-0.6975101113
 21
1.5576042564
 31
0.0
  0
LINE
  5
2C9
330
253
100
AcDbEntity
  8
0
  6
Continuous
 62
     7
370
    25
100
AcDbLine
 10
-1.0006597176
 20
1.5576042564
 30
0.0
 11
-1.0006597176
 21
1.4651402142
 31
0.0
  0
LINE
  5
2CA
330
253
100
AcDbEntity
  8
0
  6
Continuous
 62
     7
370
    25
100
AcDbLine
 10
-1.2273270909
 20
-0.2664201293
 30
0.0
 11
-1.2118441202
 21
-0.4368593708
 31
0.0
  0
LINE
  5
2CB
330
253
100
AcDbEntity
  8
0
  6
Continuous
 62
     7
370
    25
100
AcDbLine
 10
-1.015263852
 20
-0.4368593708
 30
0.0
 11
-0.9977185916
 21
-0.2437180848
 31
0.0
  0
LINE
  5
2CC
330
253
100
AcDbEntity
  8
0
  6
Continuous
 62
     7
370
    25
100
AcDbLine
 10
-1.4366444301
 20
6.201438287
 30
0.0
 11
-1.5340804038
 21
6.1451896966
 31
0.0
  0
LINE
  5
2CD
330
253
100
AcDbEntity
  8
0
  6
Continuous
 62
     7
370
    25
100
AcDbLine
 10
-1.6621771689
 20
5.8667733924
 30
0.0
 11
-1.6621771689
 21
3.8527664864
 31
0.0
  0
LINE
  5
2CE
330
253
100
AcDbEntity
  8
0
  6
Continuous
 62
     7
370
    25
100
AcDbLine
 10
-1.6621771689
 20
2.5877748715
 30
0.0
 11
-1.6621771689
 21
1.2809844017
 31
0.0
  0
LINE
  5
2CF
330
253
100
AcDbEntity
  8
0
  6
Continuous
 62
     7
370
    25
100
AcDbLine
 10
-1.6621771689
 20
0.0161787247
 30
0.0
 11
-1.6621771689
 21
-1.290797683
 31
0.0
  0
LINE
  5
2D0
330
253
100
AcDbEntity
  8
0
  6
Continuous
 62
     7
370
    25
100
AcDbLine
 10
1.0051422604
 20
-3.8787571025
 30
0.0
 11
1.1025782342
 21
-3.8225085122
 31
0.0
  0
LINE
  5
2D1
330
253
100
AcDbEntity
  8
0
  6
Continuous
 62
     7
370
    25
100
AcDbLine
 10
-1.0564505068
 20
-2.8364890822
 30
0.0
 11
0.7000489463
 21
-3.8504946328
 31
0.0
  0
LINE
  5
2D2
330
253
100
AcDbEntity
  8
0
  6
Continuous
 62
     7
370
    25
100
AcDbLine
 10
-0.613839727
 20
-0.6856053596
 30
0.0
 11
-1.0093495537
 21
-0.9139283226
 31
0.0
  0
LINE
  5
2D3
330
253
100
AcDbEntity
  8
0
  6
Continuous
 62
     7
370
    25
100
AcDbLine
 10
-1.2292926132
 20
-1.0408987482
 30
0.0
 11
-1.8052947146
 21
-1.3734176835
 31
0.0
  0
LINE
  5
2D4
330
253
100
AcDbEntity
  8
0
  6
Continuous
 62
     7
370
    25
100
AcDbLine
 10
-0.9785902507
 20
-2.8054669835
 30
0.0
 11
0.212864737
 21
-2.1176546596
 31
0.0
  0
LINE
  5
2D5
330
253
100
AcDbEntity
  8
0
  6
Continuous
 62
     7
370
    25
100
AcDbLine
 10
-0.9785001436
 20
-1.2535240078
 30
0.0
 11
-1.0151424382
 21
-0.8501592401
 31
0.0
  0
LINE
  5
2D6
330
253
100
AcDbEntity
  8
0
  6
Continuous
 62
     7
370
    25
100
AcDbLine
 10
-1.2119655341
 20
-0.8501592401
 30
0.0
 11
-1.248692143
 21
-1.2544521549
 31
0.0
  0
LINE
  5
2D7
330
253
100
AcDbEntity
  8
0
  6
Continuous
 62
     7
370
    25
100
AcDbLine
 10
-1.8052947146
 20
3.7701464859
 30
0.0
 11
-1.8027573278
 21
3.7715934168
 31
0.0
  0
LINE
  5
2D8
330
253
100
AcDbEntity
  8
0
  6
Continuous
 62
     7
370
    25
100
AcDbLine
 10
-0.9785902507
 20
-0.2336848988
 30
0.0
 11
-0.9811276375
 21
-0.2351318298
 31
0.0
  0
LINE
  5
2D9
330
253
100
AcDbEntity
  8
0
  6
Continuous
 62
     7
370
    25
100
AcDbLine
 10
1.1274734109
 20
4.267706323
 30
0.0
 11
1.2249093847
 21
4.3239549134
 31
0.0
  0
LINE
  5
2DA
330
253
100
AcDbEntity
  8
0
  6
Continuous
 62
     7
370
    25
100
AcDbLine
 10
0.7098906662
 20
4.9909808512
 30
0.0
 11
0.8073266399
 21
5.0472294416
 31
0.0
  0
LINE
  5
2DB
330
253
100
AcDbEntity
  8
0
  6
Continuous
 62
     7
370
    25
100
AcDbLine
 10
1.0996345613
 20
-3.6083763113
 30
0.0
 11
1.0996345613
 21
4.267706323
 31
0.0
  0
LINE
  5
2DC
330
253
100
AcDbEntity
  8
0
  6
Continuous
 62
     7
370
    25
100
AcDbLine
 10
0.6959712413
 20
4.9668717003
 30
0.0
 11
-1.2527482344
 21
6.0918435079
 31
0.0
  0
LINE
  5
2DD
330
253
100
AcDbEntity
  8
0
  6
Continuous
 62
     7
370
    25
100
AcDbLine
 10
1.1274734109
 20
4.267706323
 30
0.0
 11
1.1274734109
 21
-3.6083763113
 31
0.0
  0
LINE
  5
2DE
330
253
100
AcDbEntity
  8
0
  6
Continuous
 62
     7
370
    25
100
AcDbLine
 10
-1.2388288096
 20
6.1159526589
 30
0.0
 11
0.7098906662
 21
4.9909808512
 31
0.0
  0
LINE
  5
2DF
330
253
100
AcDbEntity
  8
0
  6
Continuous
 62
     7
370
    25
100
AcDbLine
 10
1.1274734109
 20
-3.6083763113
 30
0.0
 11
1.2249093847
 21
-3.5521277209
 31
0.0
  0
LINE
  5
2E0
330
253
100
AcDbEntity
  8
0
  6
Continuous
 62
     7
370
    25
100
AcDbLine
 10
1.2249093847
 20
-3.5521277209
 30
0.0
 11
1.2249093847
 21
4.3239549134
 31
0.0
  0
LINE
  5
2E1
330
253
100
AcDbEntity
  8
0
  6
Continuous
 62
     7
370
    25
100
AcDbLine
 10
-1.2388288096
 20
6.1159526589
 30
0.0
 11
-1.1413928358
 21
6.1722012493
 31
0.0
  0
LINE
  5
2E2
330
253
100
AcDbEntity
  8
0
  6
Continuous
 62
     7
370
    25
100
AcDbLine
 10
0.8073266399
 20
5.0472294416
 30
0.0
 11
-1.1413928358
 21
6.1722012493
 31
0.0
  0
LINE
  5
2E3
330
253
100
AcDbEntity
  8
0
  6
Continuous
 62
     7
370
    25
100
AcDbLine
 10
0.1823375574
 20
3.008286544
 30
0.0
 11
0.1918412269
 21
3.0110019443
 31
0.0
  0
LINE
  5
2E4
330
253
100
AcDbEntity
  8
0
  6
Continuous
 62
     7
370
    25
100
AcDbLine
 10
-0.6372628214
 20
4.4472078966
 30
0.0
 11
-0.6443669066
 21
4.440335844
 31
0.0
  0
LINE
  5
2E5
330
253
100
AcDbEntity
  8
0
  6
Continuous
 62
     7
370
    25
100
AcDbLine
 10
-1.8052947146
 20
-1.3734176835
 30
0.0
 11
-1.8027573278
 21
-1.3719707525
 31
0.0
  0
LINE
  5
2E6
330
253
100
AcDbEntity
  8
0
  6
Continuous
 62
     8
370
    25
100
AcDbLine
 10
-1.0489208162
 20
-2.834177196
 30
0.0
 11
0.6959712413
 21
-3.8414819397
 31
0.0
  0
LINE
  5
2E7
330
253
100
AcDbEntity
  8
0
  6
Continuous
 62
     8
370
    25
100
AcDbLine
 10
-1.6564115544
 20
5.8587378795
 30
0.0
 11
-1.6564115544
 21
3.8560949048
 31
0.0
  0
LINE
  5
2E8
330
253
100
AcDbEntity
  8
0
  6
Continuous
 62
     8
370
    25
100
AcDbLine
 10
-1.6564115544
 20
2.5809990554
 30
0.0
 11
-1.6564115544
 21
1.2843128201
 31
0.0
  0
LINE
  5
2E9
330
253
100
AcDbEntity
  8
0
  6
Continuous
 62
     8
370
    25
100
AcDbLine
 10
-1.6564115544
 20
0.0098196761
 30
0.0
 11
-1.6564115544
 21
-1.2874692645
 31
0.0
  0
ARC
  5
2EA
330
253
100
AcDbEntity
  8
0
  6
Continuous
 62
     7
370
    25
100
AcDbCircle
 10
-1.1135539861
 20
4.291765842
 30
0.0
 40
0.098425196850394
100
AcDbArc
 50
0.0
 51
180.0
  0
ARC
  5
2EB
330
253
100
AcDbEntity
  8
0
  6
Continuous
 62
     7
370
    25
100
AcDbCircle
 10
-1.1135539861
 20
-0.4338837386
 30
0.0
 40
0.098425196850394
100
AcDbArc
 50
180.0
 51
0.0
  0
ARC
  5
2EC
330
253
100
AcDbEntity
  8
0
  6
Continuous
 62
     7
370
    25
100
AcDbCircle
 10
-1.1135539861
 20
-0.8517983273
 30
0.0
 40
0.0984251968503937
100
AcDbArc
 50
0.0
 51
180.0
  0
ARC
  5
2ED
330
253
100
AcDbEntity
  8
0
  6
Continuous
 62
     7
370
    25
100
AcDbCircle
 10
-1.0643915477
 20
-0.4286343903
 30
0.0
 40
0.0498114523279611
100
AcDbArc
 50
294.219956899
 51
350.4956621363
  0
ARC
  5
2EE
330
253
100
AcDbEntity
  8
0
  6
Continuous
 62
     7
370
    25
100
AcDbCircle
 10
0.2256855214
 20
4.2292418603
 30
0.0
 40
0.8747950841362441
100
AcDbArc
 50
2.520089748
 51
57.4799103976
  0
ARC
  5
2EF
330
253
100
AcDbEntity
  8
0
  6
Continuous
 62
     7
370
    25
100
AcDbCircle
 10
0.7261920307
 20
4.9654964867
 30
0.0
 40
0.0302520631411803
100
AcDbArc
 50
122.60547834
 51
177.3945215143
  0
ARC
  5
2F0
330
253
100
AcDbEntity
  8
0
  6
Continuous
 62
     7
370
    25
100
AcDbCircle
 10
0.2233862657
 20
4.2279143844
 30
0.0
 40
0.9049624105548564
100
AcDbArc
 50
2.520154907
 51
57.4798452386
  0
ARC
  5
2F1
330
253
100
AcDbEntity
  8
0
  6
Continuous
 62
     7
370
    25
100
AcDbCircle
 10
1.1135539861
 20
4.2945707145
 30
0.0
 40
0.0302563367699167
100
AcDbArc
 50
242.6096722366
 51
297.3903277634
  0
ARC
  5
2F2
330
253
100
AcDbEntity
  8
0
  6
Continuous
 62
     7
370
    25
100
AcDbCircle
 10
0.320824171
 20
4.2841640899
 30
0.0
 40
0.9049604318650781
100
AcDbArc
 50
2.520089748
 51
57.4799103976
  0
ARC
  5
2F3
330
253
100
AcDbEntity
  8
0
  6
Continuous
 62
     7
370
    25
100
AcDbCircle
 10
1.1135539861
 20
-3.5815119199
 30
0.0
 40
0.0302563367699179
100
AcDbArc
 50
242.6096722366
 51
297.3903277634
  0
ARC
  5
2F4
330
253
100
AcDbEntity
  8
0
  6
Continuous
 62
     7
370
    25
100
AcDbCircle
 10
-1.222527445
 20
6.0904682943
 30
0.0
 40
0.0302520631411801
100
AcDbArc
 50
122.60547834
 51
177.3945215143
  0
ARC
  5
2F5
330
253
100
AcDbEntity
  8
0
  6
Continuous
 62
     7
370
    25
100
AcDbCircle
 10
-1.4286644022
 20
5.9626745788
 30
0.0
 40
0.2101890454426066
100
AcDbArc
 50
89.3709438298
 51
149.6718887578
  0
ARC
  5
2F6
330
253
100
AcDbEntity
  8
0
  6
Continuous
 62
     7
370
    25
100
AcDbCircle
 10
-0.5379193929
 20
1.6074845352
 30
0.0
 40
0.2889982154155644
100
AcDbArc
 50
93.8106371202
 51
134.8686227356
  0
ARC
  5
2F7
330
253
100
AcDbEntity
  8
0
  6
Continuous
 62
     7
370
    25
100
AcDbCircle
 10
0.0092804318
 20
0.6593386865
 30
0.0
 40
0.2891466369412603
100
AcDbArc
 50
285.1609960276
 51
324.8614734094
  0
ARC
  5
2F8
330
253
100
AcDbEntity
  8
0
  6
Continuous
 62
     7
370
    25
100
AcDbCircle
 10
-0.5379193929
 20
-0.9642975495
 30
0.0
 40
0.2889982154155625
100
AcDbArc
 50
93.8106371202
 51
134.8686227356
  0
ARC
  5
2F9
330
253
100
AcDbEntity
  8
0
  6
Continuous
 62
     7
370
    25
100
AcDbCircle
 10
0.0092804318
 20
-1.9124433981
 30
0.0
 40
0.2891466369412607
100
AcDbArc
 50
285.1609960276
 51
324.8614734094
  0
ARC
  5
2FA
330
253
100
AcDbEntity
  8
0
  6
Continuous
 62
     7
370
    25
100
AcDbCircle
 10
0.8997262588
 20
-3.6962419847
 30
0.0
 40
0.2101890454426102
100
AcDbArc
 50
269.3709438298
 51
329.6718887578
  0
ARC
  5
2FB
330
253
100
AcDbEntity
  8
0
  6
Continuous
 62
     7
370
    25
100
AcDbCircle
 10
0.9239735931
 20
-3.5788364219
 30
0.0
 40
0.3021186942537679
100
AcDbArc
 50
306.2403453107
 51
5.0718350827
  0
ARC
  5
2FC
330
253
100
AcDbEntity
  8
0
  6
Continuous
 62
     8
370
    25
100
AcDbCircle
 10
-0.9266960957
 20
1.5638901446
 30
0.0
 40
0.0742966014755918
100
AcDbArc
 50
185.4790048006
 51
246.5481851351
  0
ARC
  5
2FD
330
253
100
AcDbEntity
  8
0
  6
Continuous
 62
     8
370
    25
100
AcDbCircle
 10
-1.4387280192
 20
5.7945965594
 30
0.0
 40
0.3784566509765822
100
AcDbArc
 50
58.1163675272
 51
88.12674151
  0
ARC
  5
2FE
330
253
100
AcDbEntity
  8
0
  6
Continuous
 62
     8
370
    25
100
AcDbCircle
 10
-1.6523250838
 20
5.8677564728
 30
0.0
 40
0.009901225485038
100
AcDbArc
 50
185.7107593693
 51
245.6239506195
  0
ARC
  5
2FF
330
253
100
AcDbEntity
  8
0
  6
Continuous
 62
     8
370
    25
100
AcDbCircle
 10
0.7512174133
 20
-3.6210659517
 30
0.0
 40
0.3764699227438275
100
AcDbArc
 50
331.2094700712
 51
1.931629966
  0
ARC
  5
300
330
253
100
AcDbEntity
  8
0
  6
Continuous
 62
     8
370
    25
100
AcDbCircle
 10
0.7053343965
 20
-3.8426743188
 30
0.0
 40
0.0094387733515155
100
AcDbArc
 50
172.7425615827
 51
235.959671774
  0
VIEWPORT
  5
30B
330
253
100
AcDbEntity
  8
0
100
AcDbViewport
 10
0.0
 20
0.0
 30
0.0
 40
8.4
 41
6.4
 68
     1
 69
     1
 12
0.0
 22
1.5748031496
 13
0.0
 23
0.0
 14
0.5
 24
0.5
 15
0.5
 25
0.5
 16
0.0
 26
0.0
 36
1.0
 17
0.0
 27
0.0
 37
0.0
 42
50.0
 43
0.0
 44
0.0
 45
11.0433070866
 50
0.0
 51
0.0
 72
   100
 90
   557152
  1

281
     0
 71
     1
 74
     0
110
0.0
120
0.0
130
0.0
111
1.0
121
0.0
131
0.0
112
0.0
122
1.0
132
0.0
 79
     0
146
0.0
  0
ENDBLK
  5
256
330
253
100
AcDbEntity
  8
0
100
AcDbBlockEnd
  0
ENDSEC
  0
SECTION
  2
ENTITIES
  0
CIRCLE
  5
81
330
1F
100
AcDbEntity
  8
0
  6
Continuous
 62
     7
370
    25
100
AcDbCircle
 10
0.0
 20
4.7244094488
 30
0.0
 40
0.7874015748031499
  0
CIRCLE
  5
82
330
1F
100
AcDbEntity
  8
0
  6
Continuous
 62
     7
370
    25
100
AcDbCircle
 10
0.0
 20
4.7244094488
 30
0.0
 40
0.82677165354331
  0
CIRCLE
  5
84
330
1F
100
AcDbEntity
  8
0
  6
Continuous
 62
     7
370
    25
100
AcDbCircle
 10
0.0
 20
1.5748031496
 30
0.0
 40
0.7874015748031522
  0
CIRCLE
  5
85
330
1F
100
AcDbEntity
  8
0
  6
Continuous
 62
     7
370
    25
100
AcDbCircle
 10
0.0
 20
1.5748031496
 30
0.0
 40
0.8267716535433094
  0
CIRCLE
  5
A6
330
1F
100
AcDbEntity
  8
0
  6
Continuous
 62
     7
370
    25
100
AcDbCircle
 10
0.0
 20
-1.5748031496
 30
0.0
 40
0.7874015748031497
  0
CIRCLE
  5
A7
330
1F
100
AcDbEntity
  8
0
  6
Continuous
 62
     7
370
    25
100
AcDbCircle
 10
0.0
 20
-1.5748031496
 30
0.0
 40
0.8267716535433066
  0
LINE
  5
B2
330
1F
100
AcDbEntity
  8
0
  6
Continuous
 62
     7
370
    25
100
AcDbLine
 10
0.1357090315
 20
5.539975319
 30
0.0
 11
0.0984251969
 21
6.0433070866
 31
0.0
  0
LINE
  5
B3
330
1F
100
AcDbEntity
  8
0
  6
Continuous
 62
     7
370
    25
100
AcDbLine
 10
-0.0984251969
 20
6.0433070866
 30
0.0
 11
-0.1356789296
 21
5.5403816943
 31
0.0
  0
LINE
  5
B4
330
1F
100
AcDbEntity
  8
0
  6
Continuous
 62
     7
370
    25
100
AcDbLine
 10
-0.1357090315
 20
0.7592372794
 30
0.0
 11
-0.0984251969
 21
0.2559055118
 31
0.0
  0
LINE
  5
B5
330
1F
100
AcDbEntity
  8
0
  6
Continuous
 62
     7
370
    25
100
AcDbLine
 10
0.0984251969
 20
0.2559055118
 30
0.0
 11
0.1356789296
 21
0.7588309041
 31
0.0
  0
LINE
  5
B6
330
1F
100
AcDbEntity
  8
0
  6
Continuous
 62
     7
370
    25
100
AcDbLine
 10
0.1515748031
 20
2.3876282665
 30
0.0
 11
0.1515748031
 21
2.5078606166
 31
0.0
  0
LINE
  5
B7
330
1F
100
AcDbEntity
  8
0
  6
Continuous
 62
     7
370
    25
100
AcDbLine
 10
-0.1515748031
 20
2.5078606166
 30
0.0
 11
-0.1515748031
 21
2.3879051455
 31
0.0
  0
LINE
  5
B8
330
1F
100
AcDbEntity
  8
0
  6
Continuous
 62
     7
370
    25
100
AcDbLine
 10
0.1357090315
 20
-0.7592372794
 30
0.0
 11
0.0984251969
 21
-0.2559055118
 31
0.0
  0
LINE
  5
B9
330
1F
100
AcDbEntity
  8
0
  6
Continuous
 62
     7
370
    25
100
AcDbLine
 10
-0.0984251969
 20
-0.2559055118
 30
0.0
 11
-0.1356789296
 21
-0.7588309041
 31
0.0
  0
LINE
  5
BA
330
1F
100
AcDbEntity
  8
0
  6
Continuous
 62
     7
370
    25
100
AcDbLine
 10
-0.0984251969
 20
6.0433070866
 30
0.0
 11
0.0984251969
 21
6.0433070866
 31
0.0
  0
LINE
  5
BB
330
1F
100
AcDbEntity
  8
0
  6
Continuous
 62
     7
370
    25
100
AcDbLine
 10
0.0984251969
 20
0.2559055118
 30
0.0
 11
-0.0984251969
 21
0.2559055118
 31
0.0
  0
LINE
  5
BC
330
1F
100
AcDbEntity
  8
0
  6
Continuous
 62
     7
370
    25
100
AcDbLine
 10
-1.3779527559
 20
6.9881889764
 30
0.0
 11
-1.3779527559
 21
6.968503937
 31
0.0
  0
LINE
  5
BD
330
1F
100
AcDbEntity
  8
0
  6
Continuous
 62
     7
370
    25
100
AcDbLine
 10
-1.968503937
 20
6.3976377953
 30
0.0
 11
-1.9488188976
 21
6.3976377953
 31
0.0
  0
LINE
  5
BE
330
1F
100
AcDbEntity
  8
0
  6
Continuous
 62
     7
370
    25
100
AcDbLine
 10
1.3779527559
 20
6.968503937
 30
0.0
 11
-1.3779527559
 21
6.968503937
 31
0.0
  0
LINE
  5
BF
330
1F
100
AcDbEntity
  8
0
  6
Continuous
 62
     7
370
    25
100
AcDbLine
 10
-1.3779527559
 20
6.9881889764
 30
0.0
 11
1.3779527559
 21
6.9881889764
 31
0.0
  0
LINE
  5
C0
330
1F
100
AcDbEntity
  8
0
  6
Continuous
 62
     7
370
    25
100
AcDbLine
 10
1.3779527559
 20
6.968503937
 30
0.0
 11
1.3779527559
 21
6.9881889764
 31
0.0
  0
LINE
  5
C1
330
1F
100
AcDbEntity
  8
0
  6
Continuous
 62
     7
370
    25
100
AcDbLine
 10
1.9488188976
 20
6.3976377953
 30
0.0
 11
1.968503937
 21
6.3976377953
 31
0.0
  0
LINE
  5
C2
330
1F
100
AcDbEntity
  8
0
  6
Continuous
 62
     7
370
    25
100
AcDbLine
 10
1.9488188976
 20
-3.2480314961
 30
0.0
 11
1.9488188976
 21
6.3976377953
 31
0.0
  0
LINE
  5
C3
330
1F
100
AcDbEntity
  8
0
  6
Continuous
 62
     7
370
    25
100
AcDbLine
 10
-1.3779527559
 20
-3.8188976378
 30
0.0
 11
1.3779527559
 21
-3.8188976378
 31
0.0
  0
LINE
  5
C4
330
1F
100
AcDbEntity
  8
0
  6
Continuous
 62
     7
370
    25
100
AcDbLine
 10
-1.9488188976
 20
6.3976377953
 30
0.0
 11
-1.9488188976
 21
-3.2480314961
 31
0.0
  0
LINE
  5
C5
330
1F
100
AcDbEntity
  8
0
  6
Continuous
 62
     7
370
    25
100
AcDbLine
 10
1.968503937
 20
6.3976377953
 30
0.0
 11
1.968503937
 21
-3.2480314961
 31
0.0
  0
LINE
  5
C6
330
1F
100
AcDbEntity
  8
0
  6
Continuous
 62
     7
370
    25
100
AcDbLine
 10
1.9488188976
 20
-3.2480314961
 30
0.0
 11
1.968503937
 21
-3.2480314961
 31
0.0
  0
LINE
  5
C7
330
1F
100
AcDbEntity
  8
0
  6
Continuous
 62
     7
370
    25
100
AcDbLine
 10
-1.968503937
 20
-3.2480314961
 30
0.0
 11
-1.968503937
 21
6.3976377953
 31
0.0
  0
LINE
  5
C8
330
1F
100
AcDbEntity
  8
0
  6
Continuous
 62
     7
370
    25
100
AcDbLine
 10
-1.968503937
 20
-3.2480314961
 30
0.0
 11
-1.9488188976
 21
-3.2480314961
 31
0.0
  0
LINE
  5
C9
330
1F
100
AcDbEntity
  8
0
  6
Continuous
 62
     7
370
    25
100
AcDbLine
 10
1.3779527559
 20
-3.8188976378
 30
0.0
 11
1.3779527559
 21
-3.8385826772
 31
0.0
  0
LINE
  5
CA
330
1F
100
AcDbEntity
  8
0
  6
Continuous
 62
     7
370
    25
100
AcDbLine
 10
-1.3779527559
 20
-3.8385826772
 30
0.0
 11
-1.3779527559
 21
-3.8188976378
 31
0.0
  0
LINE
  5
CB
330
1F
100
AcDbEntity
  8
0
  6
Continuous
 62
     7
370
    25
100
AcDbLine
 10
1.3779527559
 20
-3.8385826772
 30
0.0
 11
-1.3779527559
 21
-3.8385826772
 31
0.0
  0
LINE
  5
CC
330
1F
100
AcDbEntity
  8
0
  6
Continuous
 62
     7
370
    25
100
AcDbLine
 10
-0.0984251969
 20
-0.2559055118
 30
0.0
 11
0.0984251969
 21
-0.2559055118
 31
0.0
  0
LINE
  5
CD
330
1F
100
AcDbEntity
  8
0
  6
Continuous
 62
     8
370
    25
100
AcDbLine
 10
0.1515748031
 20
2.5078606166
 30
0.0
 11
-0.1515748031
 21
2.5078606166
 31
0.0
  0
LINE
  5
CE
330
1F
100
AcDbEntity
  8
0
  6
Continuous
 62
     8
370
    25
100
AcDbLine
 10
-0.140787707
 20
2.5254198701
 30
0.0
 11
0.140787707
 21
2.5254198701
 31
0.0
  0
ARC
  5
CF
330
1F
100
AcDbEntity
  8
0
  6
Continuous
 62
     7
370
    25
100
AcDbCircle
 10
0.0
 20
6.0433070866
 30
0.0
 40
0.0984251968503937
100
AcDbArc
 50
0.0
 51
180.0
  0
ARC
  5
D0
330
1F
100
AcDbEntity
  8
0
  6
Continuous
 62
     7
370
    25
100
AcDbCircle
 10
0.0
 20
0.2559055118
 30
0.0
 40
0.0984251968503939
100
AcDbArc
 50
180.0
 51
0.0
  0
ARC
  5
D1
330
1F
100
AcDbEntity
  8
0
  6
Continuous
 62
     7
370
    25
100
AcDbCircle
 10
0.1318897638
 20
2.5078606166
 30
0.0
 40
0.0196850393700787
100
AcDbArc
 50
0.0
 51
63.12692886
  0
ARC
  5
D2
330
1F
100
AcDbEntity
  8
0
  6
Continuous
 62
     7
370
    25
100
AcDbCircle
 10
-0.1318897638
 20
2.5078606166
 30
0.0
 40
0.0196850393700786
100
AcDbArc
 50
116.87307114
 51
180.0
  0
ARC
  5
D3
330
1F
100
AcDbEntity
  8
0
  6
Continuous
 62
     7
370
    25
100
AcDbCircle
 10
0.0
 20
2.2475885827
 30
0.0
 40
0.3114665354330735
100
AcDbArc
 50
63.12692886
 51
116.87307114
  0
ARC
  5
D4
330
1F
100
AcDbEntity
  8
0
  6
Continuous
 62
     7
370
    25
100
AcDbCircle
 10
0.0
 20
-0.2559055118
 30
0.0
 40
0.0984251968503937
100
AcDbArc
 50
0.0
 51
180.0
  0
ARC
  5
D5
330
1F
100
AcDbEntity
  8
0
  6
Continuous
 62
     7
370
    25
100
AcDbCircle
 10
-1.3779527559
 20
6.3976377953
 30
0.0
 40
0.5905511811023638
100
AcDbArc
 50
90.0
 51
180.0
  0
ARC
  5
D6
330
1F
100
AcDbEntity
  8
0
  6
Continuous
 62
     7
370
    25
100
AcDbCircle
 10
-1.3779527559
 20
6.3976377953
 30
0.0
 40
0.5708661417322844
100
AcDbArc
 50
90.0
 51
180.0
  0
ARC
  5
D7
330
1F
100
AcDbEntity
  8
0
  6
Continuous
 62
     7
370
    25
100
AcDbCircle
 10
1.3779527559
 20
6.3976377953
 30
0.0
 40
0.5708661417322853
100
AcDbArc
 50
0.0
 51
90.0
  0
ARC
  5
D8
330
1F
100
AcDbEntity
  8
0
  6
Continuous
 62
     7
370
    25
100
AcDbCircle
 10
1.3779527559
 20
6.3976377953
 30
0.0
 40
0.5905511811023614
100
AcDbArc
 50
0.0
 51
90.0
  0
ARC
  5
D9
330
1F
100
AcDbEntity
  8
0
  6
Continuous
 62
     7
370
    25
100
AcDbCircle
 10
1.3779527559
 20
-3.2480314961
 30
0.0
 40
0.570866141732282
100
AcDbArc
 50
270.0
 51
0.0
  0
ARC
  5
DA
330
1F
100
AcDbEntity
  8
0
  6
Continuous
 62
     7
370
    25
100
AcDbCircle
 10
-1.3779527559
 20
-3.2480314961
 30
0.0
 40
0.5708661417322847
100
AcDbArc
 50
180.0
 51
270.0
  0
ARC
  5
DB
330
1F
100
AcDbEntity
  8
0
  6
Continuous
 62
     7
370
    25
100
AcDbCircle
 10
0.0
 20
4.7244094488
 30
0.0
 40
0.8366141732283615
100
AcDbArc
 50
99.2834512159
 51
80.7165487841
  0
ARC
  5
DC
330
1F
100
AcDbEntity
  8
0
  6
Continuous
 62
     7
370
    25
100
AcDbCircle
 10
0.0
 20
1.5748031496
 30
0.0
 40
0.8366141732283585
100
AcDbArc
 50
279.2834512159
 51
79.5617066156
  0
ARC
  5
DD
330
1F
100
AcDbEntity
  8
0
  6
Continuous
 62
     7
370
    25
100
AcDbCircle
 10
0.0
 20
1.5748031496
 30
0.0
 40
0.8366141732283473
100
AcDbArc
 50
100.4382933844
 51
260.7165487841
  0
ARC
  5
DE
330
1F
100
AcDbEntity
  8
0
  6
Continuous
 62
     7
370
    25
100
AcDbCircle
 10
0.0
 20
-1.5748031496
 30
0.0
 40
0.8366141732283481
100
AcDbArc
 50
99.2834512159
 51
80.7165487841
  0
ARC
  5
DF
330
1F
100
AcDbEntity
  8
0
  6
Continuous
 62
     7
370
    25
100
AcDbCircle
 10
1.3779527559
 20
-3.2480314961
 30
0.0
 40
0.5905511811023643
100
AcDbArc
 50
270.0
 51
0.0
  0
ARC
  5
E0
330
1F
100
AcDbEntity
  8
0
  6
Continuous
 62
     7
370
    25
100
AcDbCircle
 10
-1.3779527559
 20
-3.2480314961
 30
0.0
 40
0.5905511811023629
100
AcDbArc
 50
180.0
 51
270.0
  0
ARC
  5
E1
330
1F
100
AcDbEntity
  8
0
  6
Continuous
 62
     8
370
    25
100
AcDbCircle
 10
0.0
 20
1.5748031496
 30
0.0
 40
0.856299212598425
100
AcDbArc
 50
278.966958836
 51
79.8042640532
  0
ARC
  5
E2
330
1F
100
AcDbEntity
  8
0
  6
Continuous
 62
     8
370
    25
100
AcDbCircle
 10
0.0
 20
1.5748031496
 30
0.0
 40
0.8562992125984253
100
AcDbArc
 50
100.1957359468
 51
261.033041164
  0
ARC
  5
E3
330
1F
100
AcDbEntity
  8
0
  6
Continuous
 62
     8
370
    25
100
AcDbCircle
 10
0.0
 20
-1.5748031496
 30
0.0
 40
0.8562992125984261
100
AcDbArc
 50
98.966958836
 51
81.033041164
  0
CIRCLE
  5
EC
330
1B
100
AcDbEntity
 67
     1
  8
0
  6
Continuous
 62
     7
370
    25
100
AcDbCircle
 10
0.0
 20
4.7244094488
 30
0.0
 40
0.8267716535433101
  0
CIRCLE
  5
ED
330
1B
100
AcDbEntity
 67
     1
  8
0
  6
Continuous
 62
     7
370
    25
100
AcDbCircle
 10
0.0
 20
1.5748031496
 30
0.0
 40
0.8267716535433091
  0
CIRCLE
  5
F4
330
1B
100
AcDbEntity
 67
     1
  8
0
  6
Continuous
 62
     7
370
    25
100
AcDbCircle
 10
0.0
 20
4.7244094488
 30
0.0
 40
0.8366141732283463
  0
CIRCLE
  5
F5
330
1B
100
AcDbEntity
 67
     1
  8
0
  6
Continuous
 62
     7
370
    25
100
AcDbCircle
 10
0.0
 20
1.5748031496
 30
0.0
 40
0.9547244094488184
  0
CIRCLE
  5
F6
330
1B
100
AcDbEntity
 67
     1
  8
0
  6
Continuous
 62
     7
370
    25
100
AcDbCircle
 10
0.0
 20
-1.5748031496
 30
0.0
 40
0.9547244094488189
  0
CIRCLE
  5
F9
330
1B
100
AcDbEntity
 67
     1
  8
0
  6
Continuous
 62
     7
370
    25
100
AcDbCircle
 10
0.0
 20
-1.5748031496
 30
0.0
 40
0.8366141732283465
  0
CIRCLE
  5
FA
330
1B
100
AcDbEntity
 67
     1
  8
0
  6
Continuous
 62
     7
370
    25
100
AcDbCircle
 10
0.0
 20
1.5748031496
 30
0.0
 40
0.8366141732283463
  0
CIRCLE
  5
FB
330
1B
100
AcDbEntity
 67
     1
  8
0
  6
Continuous
 62
     7
370
    25
100
AcDbCircle
 10
0.0
 20
-1.5748031496
 30
0.0
 40
0.8267716535433073
  0
LINE
  5
FC
330
1B
100
AcDbEntity
 67
     1
  8
0
  6
Continuous
 62
     7
370
    25
100
AcDbLine
 10
0.1356789296
 20
5.5403816943
 30
0.0
 11
0.1349615778
 21
5.5500659436
 31
0.0
  0
LINE
  5
FD
330
1B
100
AcDbEntity
 67
     1
  8
0
  6
Continuous
 62
     7
370
    25
100
AcDbLine
 10
-0.1349615778
 20
5.5500659436
 30
0.0
 11
-0.1357090315
 21
5.539975319
 31
0.0
  0
LINE
  5
FE
330
1B
100
AcDbEntity
 67
     1
  8
0
  6
Continuous
 62
     7
370
    25
100
AcDbLine
 10
0.1515748031
 20
2.3879051455
 30
0.0
 11
0.1515748031
 21
2.3975718619
 31
0.0
  0
LINE
  5
FF
330
1B
100
AcDbEntity
 67
     1
  8
0
  6
Continuous
 62
     7
370
    25
100
AcDbLine
 10
-0.1515748031
 20
2.3975718619
 30
0.0
 11
-0.1515748031
 21
2.3876282665
 31
0.0
  0
LINE
  5
100
330
1B
100
AcDbEntity
 67
     1
  8
0
  6
Continuous
 62
     7
370
    25
100
AcDbLine
 10
-0.1356789296
 20
0.7588309041
 30
0.0
 11
-0.1349615778
 21
0.7491466548
 31
0.0
  0
LINE
  5
101
330
1B
100
AcDbEntity
 67
     1
  8
0
  6
Continuous
 62
     7
370
    25
100
AcDbLine
 10
0.1349615778
 20
0.7491466548
 30
0.0
 11
0.1357090315
 21
0.7592372794
 31
0.0
  0
LINE
  5
102
330
1B
100
AcDbEntity
 67
     1
  8
0
  6
Continuous
 62
     7
370
    25
100
AcDbLine
 10
0.1356789296
 20
-0.7588309041
 30
0.0
 11
0.1349615778
 21
-0.7491466548
 31
0.0
  0
LINE
  5
103
330
1B
100
AcDbEntity
 67
     1
  8
0
  6
Continuous
 62
     7
370
    25
100
AcDbLine
 10
-0.1349615778
 20
-0.7491466548
 30
0.0
 11
-0.1357090315
 21
-0.7592372794
 31
0.0
  0
LINE
  5
104
330
1B
100
AcDbEntity
 67
     1
  8
0
  6
Continuous
 62
     7
370
    25
100
AcDbLine
 10
1.968503937
 20
6.3976377953
 30
0.0
 11
1.968503937
 21
-3.2480314961
 31
0.0
  0
LINE
  5
105
330
1B
100
AcDbEntity
 67
     1
  8
0
  6
Continuous
 62
     7
370
    25
100
AcDbLine
 10
1.3779527559
 20
-3.8385826772
 30
0.0
 11
-1.3779527559
 21
-3.8385826772
 31
0.0
  0
LINE
  5
106
330
1B
100
AcDbEntity
 67
     1
  8
0
  6
Continuous
 62
     7
370
    25
100
AcDbLine
 10
-1.968503937
 20
-3.2480314961
 30
0.0
 11
-1.968503937
 21
6.3976377953
 31
0.0
  0
LINE
  5
107
330
1B
100
AcDbEntity
 67
     1
  8
0
  6
Continuous
 62
     7
370
    25
100
AcDbLine
 10
-1.3779527559
 20
6.9881889764
 30
0.0
 11
1.3779527559
 21
6.9881889764
 31
0.0
  0
ARC
  5
108
330
1B
100
AcDbEntity
 67
     1
  8
0
  6
Continuous
 62
     7
370
    25
100
AcDbCircle
 10
-1.3779527559
 20
6.3976377953
 30
0.0
 40
0.5905511811023632
100
AcDbArc
 50
90.0
 51
180.0
  0
ARC
  5
109
330
1B
100
AcDbEntity
 67
     1
  8
0
  6
Continuous
 62
     7
370
    25
100
AcDbCircle
 10
1.3779527559
 20
6.3976377953
 30
0.0
 40
0.5905511811023614
100
AcDbArc
 50
0.0
 51
90.0
  0
ARC
  5
10A
330
1B
100
AcDbEntity
 67
     1
  8
0
  6
Continuous
 62
     7
370
    25
100
AcDbCircle
 10
1.3779527559
 20
-3.2480314961
 30
0.0
 40
0.5905511811023618
100
AcDbArc
 50
270.0
 51
0.0
  0
ARC
  5
10B
330
1B
100
AcDbEntity
 67
     1
  8
0
  6
Continuous
 62
     7
370
    25
100
AcDbCircle
 10
-1.3779527559
 20
-3.2480314961
 30
0.0
 40
0.5905511811023629
100
AcDbArc
 50
180.0
 51
270.0
  0
VIEWPORT
  5
301
330
1B
100
AcDbEntity
 67
     1
  8
0
100
AcDbViewport
 10
0.0
 20
0.0
 30
0.0
 40
8.4
 41
6.4
 68
     1
 69
     1
 12
0.0
 22
1.5748031496
 13
0.0
 23
0.0
 14
0.5
 24
0.5
 15
0.5
 25
0.5
 16
0.0
 26
0.0
 36
1.0
 17
0.0
 27
0.0
 37
0.0
 42
50.0
 43
0.0
 44
0.0
 45
11.0433070866
 50
0.0
 51
0.0
 72
   100
 90
   557152
  1

281
     0
 71
     1
 74
     0
110
0.0
120
0.0
130
0.0
111
1.0
121
0.0
131
0.0
112
0.0
122
1.0
132
0.0
 79
     0
146
0.0
  0
ENDSEC
  0
SECTION
  2
OBJECTS
  0
DICTIONARY
  5
C
330
0
100
AcDbDictionary
281
     1
  3
ACAD_GROUP
350
D
  3
ACAD_LAYOUT
350
1A
  3
ACAD_MLINESTYLE
350
17
  3
ACAD_PLOTSETTINGS
350
19
  3
ACAD_PLOTSTYLENAME
350
E
  3
ACAD_SCALELIST
350
47
  0
DICTIONARY
  5
D
102
{ACAD_REACTORS
330
C
102
}
330
C
100
AcDbDictionary
281
     1
  0
DICTIONARY
  5
1A
102
{ACAD_REACTORS
330
C
102
}
330
C
100
AcDbDictionary
281
     1
  3
_Back
350
1E
  3
_Bottom
350
22A
  3
_Isometric
350
254
  3
_Left
350
26
  3
_Right
350
183
  3
_Top
350
1FE
  3
Model
350
22
  0
DICTIONARY
  5
17
102
{ACAD_REACTORS
330
C
102
}
330
C
100
AcDbDictionary
281
     1
  3
Standard
350
18
  0
DICTIONARY
  5
19
102
{ACAD_REACTORS
330
C
102
}
330
C
100
AcDbDictionary
281
     1
  0
ACDBDICTIONARYWDFLT
  5
E
102
{ACAD_REACTORS
330
C
102
}
330
C
100
AcDbDictionary
281
     1
  3
Normal
350
F
100
AcDbDictionaryWithDefault
340
F
  0
DICTIONARY
  5
47
102
{ACAD_REACTORS
330
C
102
}
330
C
100
AcDbDictionary
281
     1
  3
A0
350
48
  3
A1
350
49
  3
A2
350
4A
  3
A3
350
4B
  3
A4
350
4C
  3
A5
350
4D
  3
A6
350
4E
  3
A7
350
4F
  3
A8
350
50
  3
A9
350
51
  3
B0
350
52
  3
B1
350
53
  3
B2
350
54
  3
B3
350
55
  3
B4
350
56
  3
B5
350
57
  3
B6
350
58
  3
B7
350
59
  3
B8
350
5A
  3
B9
350
5B
  3
C0
350
5C
  3
C1
350
5D
  3
C2
350
5E
  3
C3
350
5F
  3
C4
350
60
  3
C5
350
61
  3
C6
350
62
  3
C7
350
63
  3
C8
350
64
  3
C9
350
65
  3
D0
350
66
  3
D1
350
67
  3
D2
350
68
  0
LAYOUT
  5
1E
102
{ACAD_REACTORS
330
1A
102
}
330
1A
100
AcDbPlotSettings
  1

  2
none_device
  4
Letter_(8.50_x_11.00_Inches)
  6

 40
6.35
 41
6.35
 42
6.35001
 43
6.35001
 44
215.9
 45
279.4
 46
0.0
 47
0.0
 48
0.0
 49
0.0
140
0.0
141
0.0
142
1.0
143
1.3533465233
 70
   688
 72
     0
 73
     1
 74
     1
  7

 75
     0
147
0.7389090545
148
50.0
149
97.5
100
AcDbLayout
  1
_Back
 70
     1
 71
     1
 10
-2.3068411006
 20
-4.176919308
 11
12.5799706556
 21
7.32652614
 12
0.0
 22
0.0
 32
0.0
 14
-1.968503937
 24
-3.8385826772
 34
0.0
 15
1.968503937
 25
6.9881889764
 35
0.0
146
0.0
 13
0.0
 23
0.0
 33
0.0
 16
1.0
 26
0.0
 36
0.0
 17
0.0
 27
1.0
 37
0.0
 76
     0
330
1B
331
301
  0
LAYOUT
  5
22A
102
{ACAD_REACTORS
330
1A
102
}
330
1A
100
AcDbPlotSettings
  1

  2
none_device
  4
Letter_(8.50_x_11.00_Inches)
  6

 40
6.35
 41
6.35
 42
6.35001
 43
6.35001
 44
215.9
 45
279.4
 46
0.0
 47
0.0
 48
0.0
 49
0.0
140
0.0
141
0.0
142
1.0
143
1.3533465233
 70
   688
 72
     0
 73
     1
 74
     1
  7

 75
     0
147
0.7389090545
148
50.0
149
97.5
100
AcDbLayout
  1
_Bottom
 70
     1
 71
     5
 10
0.0
 20
0.0
 11
0.0
 21
0.0
 12
0.0
 22
0.0
 32
0.0
 14
0.0
 24
0.0
 34
0.0
 15
0.0
 25
0.0
 35
0.0
146
0.0
 13
0.0
 23
0.0
 33
0.0
 16
1.0
 26
0.0
 36
0.0
 17
0.0
 27
1.0
 37
0.0
 76
     0
330
229
331
309
  0
LAYOUT
  5
254
102
{ACAD_REACTORS
330
1A
102
}
330
1A
100
AcDbPlotSettings
  1

  2
none_device
  4
Letter_(8.50_x_11.00_Inches)
  6

 40
6.35
 41
6.35
 42
6.35001
 43
6.35001
 44
215.9
 45
279.4
 46
0.0
 47
0.0
 48
0.0
 49
0.0
140
0.0
141
0.0
142
1.0
143
1.3533465233
 70
   688
 72
     0
 73
     1
 74
     1
  7

 75
     0
147
0.7389090545
148
50.0
149
97.5
100
AcDbLayout
  1
_Isometric
 70
     1
 71
     6
 10
0.0
 20
0.0
 11
0.0
 21
0.0
 12
0.0
 22
0.0
 32
0.0
 14
0.0
 24
0.0
 34
0.0
 15
0.0
 25
0.0
 35
0.0
146
0.0
 13
0.0
 23
0.0
 33
0.0
 16
1.0
 26
0.0
 36
0.0
 17
0.0
 27
1.0
 37
0.0
 76
     0
330
253
331
30B
  0
LAYOUT
  5
26
102
{ACAD_REACTORS
330
1A
102
}
330
1A
100
AcDbPlotSettings
  1

  2
none_device
  4
Letter_(8.50_x_11.00_Inches)
  6

 40
6.35
 41
6.35
 42
6.35001
 43
6.35001
 44
215.9
 45
279.4
 46
0.0
 47
0.0
 48
0.0
 49
0.0
140
0.0
141
0.0
142
1.0
143
1.3533465233
 70
   688
 72
     0
 73
     1
 74
     1
  7

 75
     0
147
0.7389090545
148
50.0
149
97.5
100
AcDbLayout
  1
_Left
 70
     1
 71
     2
 10
0.0
 20
0.0
 11
0.0
 21
0.0
 12
0.0
 22
0.0
 32
0.0
 14
0.0
 24
0.0
 34
0.0
 15
0.0
 25
0.0
 35
0.0
146
0.0
 13
0.0
 23
0.0
 33
0.0
 16
1.0
 26
0.0
 36
0.0
 17
0.0
 27
1.0
 37
0.0
 76
     0
330
23
331
303
  0
LAYOUT
  5
183
102
{ACAD_REACTORS
330
1A
102
}
330
1A
100
AcDbPlotSettings
  1

  2
none_device
  4
Letter_(8.50_x_11.00_Inches)
  6

 40
6.35
 41
6.35
 42
6.35001
 43
6.35001
 44
215.9
 45
279.4
 46
0.0
 47
0.0
 48
0.0
 49
0.0
140
0.0
141
0.0
142
1.0
143
1.3533465233
 70
   688
 72
     0
 73
     1
 74
     1
  7

 75
     0
147
0.7389090545
148
50.0
149
97.5
100
AcDbLayout
  1
_Right
 70
     1
 71
     3
 10
0.0
 20
0.0
 11
0.0
 21
0.0
 12
0.0
 22
0.0
 32
0.0
 14
0.0
 24
0.0
 34
0.0
 15
0.0
 25
0.0
 35
0.0
146
0.0
 13
0.0
 23
0.0
 33
0.0
 16
1.0
 26
0.0
 36
0.0
 17
0.0
 27
1.0
 37
0.0
 76
     0
330
182
331
305
  0
LAYOUT
  5
1FE
102
{ACAD_REACTORS
330
1A
102
}
330
1A
100
AcDbPlotSettings
  1

  2
none_device
  4
Letter_(8.50_x_11.00_Inches)
  6

 40
6.35
 41
6.35
 42
6.35001
 43
6.35001
 44
215.9
 45
279.4
 46
0.0
 47
0.0
 48
0.0
 49
0.0
140
0.0
141
0.0
142
1.0
143
1.3533465233
 70
   688
 72
     0
 73
     1
 74
     1
  7

 75
     0
147
0.7389090545
148
50.0
149
97.5
100
AcDbLayout
  1
_Top
 70
     1
 71
     4
 10
0.0
 20
0.0
 11
0.0
 21
0.0
 12
0.0
 22
0.0
 32
0.0
 14
0.0
 24
0.0
 34
0.0
 15
0.0
 25
0.0
 35
0.0
146
0.0
 13
0.0
 23
0.0
 33
0.0
 16
1.0
 26
0.0
 36
0.0
 17
0.0
 27
1.0
 37
0.0
 76
     0
330
1FD
331
307
  0
LAYOUT
  5
22
102
{ACAD_REACTORS
330
1A
102
}
330
1A
100
AcDbPlotSettings
  1

  2
none_device
  4
ANSI_A_(11.00_x_8.50_Inches)
  6

 40
6.35
 41
19.05
 42
6.35000508
 43
19.05000254
 44
279.4
 45
215.9
 46
133.34999746
 47
57.81039873
 48
0.0
 49
0.0
140
0.0
141
0.0
142
0.77724
143
1.0
 70
  1696
 72
     0
 73
     0
 74
     0
  7

 75
     0
147
0.5913241897
148
-39.4088153714
149
0.0
100
AcDbLayout
  1
Model
 70
     1
 71
     0
 10
0.0
 20
0.0
 11
12.0
 21
9.0
 12
0.0
 22
0.0
 32
0.0
 14
-1.968503937
 24
-3.8385826772
 34
0.0
 15
1.968503937
 25
6.9881889764
 35
0.0
146
0.0
 13
0.0
 23
0.0
 33
0.0
 16
1.0
 26
0.0
 36
0.0
 17
0.0
 27
1.0
 37
0.0
 76
     0
330
1F
331
29
  0
MLINESTYLE
  5
18
102
{ACAD_REACTORS
330
17
102
}
330
17
100
AcDbMlineStyle
  2
Standard
 70
     0
  3

 62
   256
 51
90.0
 52
90.0
 71
     2
 49
0.5
 62
   256
  6
BYLAYER
 49
-0.5
 62
   256
  6
BYLAYER
  0
ACDBPLACEHOLDER
  5
F
102
{ACAD_REACTORS
330
E
102
}
330
E
  0
SCALE
  5
48
102
{ACAD_REACTORS
330
47
102
}
330
47
100
AcDbScale
 70
     0
300
1:1
140
1.0
141
1.0
290
     1
  0
SCALE
  5
49
102
{ACAD_REACTORS
330
47
102
}
330
47
100
AcDbScale
 70
     0
300
1:2
140
1.0
141
2.0
290
     0
  0
SCALE
  5
4A
102
{ACAD_REACTORS
330
47
102
}
330
47
100
AcDbScale
 70
     0
300
1:4
140
1.0
141
4.0
290
     0
  0
SCALE
  5
4B
102
{ACAD_REACTORS
330
47
102
}
330
47
100
AcDbScale
 70
     0
300
1:5
140
1.0
141
5.0
290
     0
  0
SCALE
  5
4C
102
{ACAD_REACTORS
330
47
102
}
330
47
100
AcDbScale
 70
     0
300
1:8
140
1.0
141
8.0
290
     0
  0
SCALE
  5
4D
102
{ACAD_REACTORS
330
47
102
}
330
47
100
AcDbScale
 70
     0
300
1:10
140
1.0
141
10.0
290
     0
  0
SCALE
  5
4E
102
{ACAD_REACTORS
330
47
102
}
330
47
100
AcDbScale
 70
     0
300
1:16
140
1.0
141
16.0
290
     0
  0
SCALE
  5
4F
102
{ACAD_REACTORS
330
47
102
}
330
47
100
AcDbScale
 70
     0
300
1:20
140
1.0
141
20.0
290
     0
  0
SCALE
  5
50
102
{ACAD_REACTORS
330
47
102
}
330
47
100
AcDbScale
 70
     0
300
1:30
140
1.0
141
30.0
290
     0
  0
SCALE
  5
51
102
{ACAD_REACTORS
330
47
102
}
330
47
100
AcDbScale
 70
     0
300
1:40
140
1.0
141
40.0
290
     0
  0
SCALE
  5
52
102
{ACAD_REACTORS
330
47
102
}
330
47
100
AcDbScale
 70
     0
300
1:50
140
1.0
141
50.0
290
     0
  0
SCALE
  5
53
102
{ACAD_REACTORS
330
47
102
}
330
47
100
AcDbScale
 70
     0
300
1:100
140
1.0
141
100.0
290
     0
  0
SCALE
  5
54
102
{ACAD_REACTORS
330
47
102
}
330
47
100
AcDbScale
 70
     0
300
2:1
140
2.0
141
1.0
290
     0
  0
SCALE
  5
55
102
{ACAD_REACTORS
330
47
102
}
330
47
100
AcDbScale
 70
     0
300
4:1
140
4.0
141
1.0
290
     0
  0
SCALE
  5
56
102
{ACAD_REACTORS
330
47
102
}
330
47
100
AcDbScale
 70
     0
300
8:1
140
8.0
141
1.0
290
     0
  0
SCALE
  5
57
102
{ACAD_REACTORS
330
47
102
}
330
47
100
AcDbScale
 70
     0
300
10:1
140
10.0
141
1.0
290
     0
  0
SCALE
  5
58
102
{ACAD_REACTORS
330
47
102
}
330
47
100
AcDbScale
 70
     0
300
100:1
140
100.0
141
1.0
290
     0
  0
SCALE
  5
59
102
{ACAD_REACTORS
330
47
102
}
330
47
100
AcDbScale
 70
     0
300
1/128" = 1'-0"
140
0.0078125
141
12.0
290
     0
  0
SCALE
  5
5A
102
{ACAD_REACTORS
330
47
102
}
330
47
100
AcDbScale
 70
     0
300
1/64" = 1'-0"
140
0.015625
141
12.0
290
     0
  0
SCALE
  5
5B
102
{ACAD_REACTORS
330
47
102
}
330
47
100
AcDbScale
 70
     0
300
1/32" = 1'-0"
140
0.03125
141
12.0
290
     0
  0
SCALE
  5
5C
102
{ACAD_REACTORS
330
47
102
}
330
47
100
AcDbScale
 70
     0
300
1/16" = 1'-0"
140
0.0625
141
12.0
290
     0
  0
SCALE
  5
5D
102
{ACAD_REACTORS
330
47
102
}
330
47
100
AcDbScale
 70
     0
300
3/32" = 1'-0"
140
0.09375
141
12.0
290
     0
  0
SCALE
  5
5E
102
{ACAD_REACTORS
330
47
102
}
330
47
100
AcDbScale
 70
     0
300
1/8" = 1'-0"
140
0.125
141
12.0
290
     0
  0
SCALE
  5
5F
102
{ACAD_REACTORS
330
47
102
}
330
47
100
AcDbScale
 70
     0
300
3/16" = 1'-0"
140
0.1875
141
12.0
290
     0
  0
SCALE
  5
60
102
{ACAD_REACTORS
330
47
102
}
330
47
100
AcDbScale
 70
     0
300
1/4" = 1'-0"
140
0.25
141
12.0
290
     0
  0
SCALE
  5
61
102
{ACAD_REACTORS
330
47
102
}
330
47
100
AcDbScale
 70
     0
300
3/8" = 1'-0"
140
0.375
141
12.0
290
     0
  0
SCALE
  5
62
102
{ACAD_REACTORS
330
47
102
}
330
47
100
AcDbScale
 70
     0
300
1/2" = 1'-0"
140
0.5
141
12.0
290
     0
  0
SCALE
  5
63
102
{ACAD_REACTORS
330
47
102
}
330
47
100
AcDbScale
 70
     0
300
3/4" = 1'-0"
140
0.75
141
12.0
290
     0
  0
SCALE
  5
64
102
{ACAD_REACTORS
330
47
102
}
330
47
100
AcDbScale
 70
     0
300
1" = 1'-0"
140
1.0
141
12.0
290
     0
  0
SCALE
  5
65
102
{ACAD_REACTORS
330
47
102
}
330
47
100
AcDbScale
 70
     0
300
1-1/2" = 1'-0"
140
1.5
141
12.0
290
     0
  0
SCALE
  5
66
102
{ACAD_REACTORS
330
47
102
}
330
47
100
AcDbScale
 70
     0
300
3" = 1'-0"
140
3.0
141
12.0
290
     0
  0
SCALE
  5
67
102
{ACAD_REACTORS
330
47
102
}
330
47
100
AcDbScale
 70
     0
300
6" = 1'-0"
140
6.0
141
12.0
290
     0
  0
SCALE
  5
68
102
{ACAD_REACTORS
330
47
102
}
330
47
100
AcDbScale
 70
     0
300
1'-0" = 1'-0"
140
12.0
141
12.0
290
     0
  0
ENDSEC
  0
EOF
