  0
SECTION
  2
HEADER
  9
$ACADVER
  1
AC1015
  9
$ACADMAINTVER
 70
     6
  9
$DWGCODEPAGE
  3
ANSI_1252
  9
$INSBASE
 10
0.0
 20
0.0
 30
0.0
  9
$EXTMIN
 10
-1.968503937
 20
-4.2322834646
 30
0.0
  9
$EXTMAX
 10
1.968503937
 20
4.2322834646
 30
0.0
  9
$LIMMIN
 10
0.0
 20
0.0
  9
$LIMMAX
 10
12.0
 20
9.0
  9
$ORTHOMODE
 70
     0
  9
$REGENMODE
 70
     1
  9
$FILLMODE
 70
     1
  9
$QTEXTMODE
 70
     0
  9
$MIRRTEXT
 70
     1
  9
$LTSCALE
 40
1.0
  9
$ATTMODE
 70
     1
  9
$TEXTSIZE
 40
0.1377952756
  9
$TRACEWID
 40
0.05
  9
$TEXTSTYLE
  7
Standard
  9
$CLAYER
  8
0
  9
$CELTYPE
  6
ByLayer
  9
$CECOLOR
 62
   256
  9
$CELTSCALE
 40
1.0
  9
$DISPSILH
 70
     0
  9
$DIMSCALE
 40
1.0
  9
$DIMASZ
 40
0.13
  9
$DIMEXO
 40
0.0393700787
  9
$DIMDLI
 40
0.38
  9
$DIMRND
 40
0.0
  9
$DIMDLE
 40
0.0
  9
$DIMEXE
 40
0.0393700787
  9
$DIMTP
 40
0.0
  9
$DIMTM
 40
0.0
  9
$DIMTXT
 40
0.1377952756
  9
$DIMCEN
 40
0.09
  9
$DIMTSZ
 40
0.0
  9
$DIMTOL
 70
     0
  9
$DIMLIM
 70
     0
  9
$DIMTIH
 70
     1
  9
$DIMTOH
 70
     1
  9
$DIMSE1
 70
     0
  9
$DIMSE2
 70
     0
  9
$DIMTAD
 70
     1
  9
$DIMZIN
 70
     1
  9
$DIMBLK
  1

  9
$DIMASO
 70
     1
  9
$DIMSHO
 70
     1
  9
$DIMPOST
  1

  9
$DIMAPOST
  1

  9
$DIMALT
 70
     0
  9
$DIMALTD
 70
     2
  9
$DIMALTF
 40
25.4
  9
$DIMLFAC
 40
1.0
  9
$DIMTOFL
 70
     0
  9
$DIMTVP
 40
0.0
  9
$DIMTIX
 70
     0
  9
$DIMSOXD
 70
     0
  9
$DIMSAH
 70
     0
  9
$DIMBLK1
  1

  9
$DIMBLK2
  1

  9
$DIMSTYLE
  2
Standard
  9
$DIMCLRD
 70
     0
  9
$DIMCLRE
 70
     0
  9
$DIMCLRT
 70
     0
  9
$DIMTFAC
 40
1.0
  9
$DIMGAP
 40
0.06
  9
$DIMJUST
 70
     0
  9
$DIMSD1
 70
     0
  9
$DIMSD2
 70
     0
  9
$DIMTOLJ
 70
     1
  9
$DIMTZIN
 70
     1
  9
$DIMALTZ
 70
     0
  9
$DIMALTTZ
 70
     0
  9
$DIMUPT
 70
     0
  9
$DIMDEC
 70
     2
  9
$DIMTDEC
 70
     2
  9
$DIMALTU
 70
     2
  9
$DIMALTTD
 70
     2
  9
$DIMTXSTY
  7
Standard
  9
$DIMAUNIT
 70
     0
  9
$DIMADEC
 70
     2
  9
$DIMALTRND
 40
0.0
  9
$DIMAZIN
 70
     0
  9
$DIMDSEP
 70
    46
  9
$DIMATFIT
 70
     3
  9
$DIMFRAC
 70
     0
  9
$DIMLDRBLK
  1

  9
$DIMLUNIT
 70
     2
  9
$DIMLWD
 70
    -2
  9
$DIMLWE
 70
    -2
  9
$DIMTMOVE
 70
     0
  9
$LUNITS
 70
     2
  9
$LUPREC
 70
     2
  9
$SKETCHINC
 40
0.1
  9
$FILLETRAD
 40
0.5
  9
$AUNITS
 70
     0
  9
$AUPREC
 70
     2
  9
$MENU
  1
.
  9
$ELEVATION
 40
0.0
  9
$PELEVATION
 40
0.0
  9
$THICKNESS
 40
0.0
  9
$LIMCHECK
 70
     0
  9
$CHAMFERA
 40
0.0
  9
$CHAMFERB
 40
0.0
  9
$CHAMFERC
 40
0.0
  9
$CHAMFERD
 40
0.0
  9
$SKPOLY
 70
     0
  9
$TDCREATE
 40
2460356.497527407
  9
$TDUCREATE
 40
2460356.497527407
  9
$TDUPDATE
 40
2460356.497596852
  9
$TDUUPDATE
 40
2460356.497596852
  9
$TDINDWG
 40
0.0000000116
  9
$TDUSRTIMER
 40
0.0000000116
  9
$USRTIMER
 70
     1
  9
$ANGBASE
 50
0.0
  9
$ANGDIR
 70
     0
  9
$PDMODE
 70
     0
  9
$PDSIZE
 40
-1.0
  9
$PLINEWID
 40
0.0
  9
$SPLFRAME
 70
     0
  9
$SPLINETYPE
 70
     6
  9
$SPLINESEGS
 70
     8
  9
$HANDSEED
  5
2BC
  9
$SURFTAB1
 70
     6
  9
$SURFTAB2
 70
     6
  9
$SURFTYPE
 70
     6
  9
$SURFU
 70
     6
  9
$SURFV
 70
     6
  9
$UCSBASE
  2

  9
$UCSNAME
  2

  9
$UCSORG
 10
0.0
 20
0.0
 30
0.0
  9
$UCSXDIR
 10
1.0
 20
0.0
 30
0.0
  9
$UCSYDIR
 10
0.0
 20
1.0
 30
0.0
  9
$UCSORTHOREF
  2

  9
$UCSORTHOVIEW
 70
     0
  9
$UCSORGTOP
 10
0.0
 20
0.0
 30
0.0
  9
$UCSORGBOTTOM
 10
0.0
 20
0.0
 30
0.0
  9
$UCSORGLEFT
 10
0.0
 20
0.0
 30
0.0
  9
$UCSORGRIGHT
 10
0.0
 20
0.0
 30
0.0
  9
$UCSORGFRONT
 10
0.0
 20
0.0
 30
0.0
  9
$UCSORGBACK
 10
0.0
 20
0.0
 30
0.0
  9
$PUCSBASE
  2

  9
$PUCSNAME
  2

  9
$PUCSORG
 10
0.0
 20
0.0
 30
0.0
  9
$PUCSXDIR
 10
1.0
 20
0.0
 30
0.0
  9
$PUCSYDIR
 10
0.0
 20
1.0
 30
0.0
  9
$PUCSORTHOREF
  2

  9
$PUCSORTHOVIEW
 70
     0
  9
$PUCSORGTOP
 10
0.0
 20
0.0
 30
0.0
  9
$PUCSORGBOTTOM
 10
0.0
 20
0.0
 30
0.0
  9
$PUCSORGLEFT
 10
0.0
 20
0.0
 30
0.0
  9
$PUCSORGRIGHT
 10
0.0
 20
0.0
 30
0.0
  9
$PUCSORGFRONT
 10
0.0
 20
0.0
 30
0.0
  9
$PUCSORGBACK
 10
0.0
 20
0.0
 30
0.0
  9
$USERI1
 70
     0
  9
$USERI2
 70
     0
  9
$USERI3
 70
     0
  9
$USERI4
 70
     0
  9
$USERI5
 70
     0
  9
$USERR1
 40
0.0
  9
$USERR2
 40
0.0
  9
$USERR3
 40
0.0
  9
$USERR4
 40
0.0
  9
$USERR5
 40
0.0
  9
$WORLDVIEW
 70
     1
  9
$SHADEDGE
 70
     3
  9
$SHADEDIF
 70
    70
  9
$TILEMODE
 70
     1
  9
$MAXACTVP
 70
    64
  9
$PINSBASE
 10
0.0
 20
0.0
 30
0.0
  9
$PLIMCHECK
 70
     0
  9
$PEXTMIN
 10
-1.968503937
 20
-4.2322834646
 30
0.0
  9
$PEXTMAX
 10
1.968503937
 20
4.2322834646
 30
0.0
  9
$PLIMMIN
 10
-2.2330220831
 20
-4.4968011941
  9
$PLIMMAX
 10
9.4057580172
 20
4.4968016107
  9
$UNITMODE
 70
     0
  9
$VISRETAIN
 70
     1
  9
$PLINEGEN
 70
     0
  9
$PSLTSCALE
 70
     1
  9
$TREEDEPTH
 70
  3020
  9
$CMLSTYLE
  2
Standard
  9
$CMLJUST
 70
     0
  9
$CMLSCALE
 40
1.0
  9
$PROXYGRAPHICS
 70
     1
  9
$MEASUREMENT
 70
     0
  9
$CELWEIGHT
370
    -1
  9
$ENDCAPS
280
     0
  9
$JOINSTYLE
280
     0
  9
$LWDISPLAY
290
     1
  9
$INSUNITS
 70
     1
  9
$HYPERLINKBASE
  1

  9
$STYLESHEET
  1

  9
$XEDIT
290
     1
  9
$CEPSNTYPE
380
     0
  9
$PSTYLEMODE
290
     1
  9
$FINGERPRINTGUID
  2
{b1d98be6-5daa-4397-aee3-9064a53fc58c}
  9
$VERSIONGUID
  2
{FAEB1C32-E019-11D5-929B-00C0DF256EC4}
  9
$EXTNAMES
290
     1
  9
$PSVPSCALE
 40
0.0
  9
$OLESTARTUP
290
     0
  0
ENDSEC
  0
SECTION
  2
CLASSES
  0
CLASS
  1
ACDBDICTIONARYWDFLT
  2
AcDbDictionaryWithDefault
  3
ObjectDBX Classes
 90
        0
280
     0
281
     0
  0
CLASS
  1
VISUALSTYLE
  2
AcDbVisualStyle
  3
ObjectDBX Classes
 90
     4095
280
     0
281
     0
  0
CLASS
  1
MATERIAL
  2
AcDbMaterial
  3
ObjectDBX Classes
 90
     1153
280
     0
281
     0
  0
CLASS
  1
SCALE
  2
AcDbScale
  3
ObjectDBX Classes
 90
     1153
280
     0
281
     0
  0
CLASS
  1
TABLESTYLE
  2
AcDbTableStyle
  3
ObjectDBX Classes
 90
     4095
280
     0
281
     0
  0
CLASS
  1
MLEADERSTYLE
  2
AcDbMLeaderStyle
  3
ACDB_MLEADERSTYLE_CLASS
 90
     4095
280
     0
281
     0
  0
CLASS
  1
SUN
  2
AcDbSun
  3
SCENEOE
 90
     1153
280
     0
281
     0
  0
CLASS
  1
ACDBPLACEHOLDER
  2
AcDbPlaceHolder
  3
ObjectDBX Classes
 90
        0
280
     0
281
     0
  0
CLASS
  1
LAYOUT
  2
AcDbLayout
  3
ObjectDBX Classes
 90
        0
280
     0
281
     0
  0
ENDSEC
  0
SECTION
  2
TABLES
  0
TABLE
  2
VPORT
  5
8
330
0
100
AcDbSymbolTable
 70
     1
  0
VPORT
  5
29
330
8
100
AcDbSymbolTableRecord
100
AcDbViewportTableRecord
  2
*Active
 70
     0
 10
0.0
 20
0.0
 11
1.0
 21
1.0
 12
0.0
 22
0.0
 13
0.0
 23
0.0
 14
0.5
 24
0.5
 15
0.5
 25
0.5
 16
0.0
 26
0.0
 36
1.0
 17
0.0
 27
0.0
 37
0.0
 40
8.6338582677
 41
0.4651162791
 42
50.0
 43
0.0
 44
0.0
 50
0.0
 51
0.0
 71
     0
 72
   100
 73
     1
 74
     3
 75
     0
 76
     0
 77
     0
 78
     0
281
     0
 65
     1
110
0.0
120
0.0
130
0.0
111
1.0
121
0.0
131
0.0
112
0.0
122
1.0
132
0.0
 79
     0
146
0.0
  0
ENDTAB
  0
TABLE
  2
LTYPE
  5
5
330
0
100
AcDbSymbolTable
 70
     6
  0
LTYPE
  5
14
330
5
100
AcDbSymbolTableRecord
100
AcDbLinetypeTableRecord
  2
ByBlock
 70
     0
  3

 72
    65
 73
     0
 40
0.0
  0
LTYPE
  5
15
330
5
100
AcDbSymbolTableRecord
100
AcDbLinetypeTableRecord
  2
ByLayer
 70
     0
  3

 72
    65
 73
     0
 40
0.0
  0
LTYPE
  5
16
330
5
100
AcDbSymbolTableRecord
100
AcDbLinetypeTableRecord
  2
Continuous
 70
     0
  3
Solid line
 72
    65
 73
     0
 40
0.0
  0
LTYPE
  5
6E
330
5
100
AcDbSymbolTableRecord
100
AcDbLinetypeTableRecord
  2
HIDDEN
 70
     0
  3
Hidden __ __ __ __ __ __ __ __ __ __ __ __ __ __
 72
    65
 73
     2
 40
0.075
 49
0.05
 74
     0
 49
-0.025
 74
     0
  0
LTYPE
  5
6F
330
5
100
AcDbSymbolTableRecord
100
AcDbLinetypeTableRecord
  2
PHANTOM
 70
     0
  3
Phantom ______  __  __  ______  __  __  ______
 72
    65
 73
     6
 40
0.5
 49
0.25
 74
     0
 49
-0.05
 74
     0
 49
0.05
 74
     0
 49
-0.05
 74
     0
 49
0.05
 74
     0
 49
-0.05
 74
     0
  0
LTYPE
  5
70
330
5
100
AcDbSymbolTableRecord
100
AcDbLinetypeTableRecord
  2
CENTER
 70
     0
  3
Center ____ _ ____ _ ____ _ ____ _ ____ _ ____
 72
    65
 73
     4
 40
0.4
 49
0.25
 74
     0
 49
-0.05
 74
     0
 49
0.05
 74
     0
 49
-0.05
 74
     0
  0
LTYPE
  5
71
330
5
100
AcDbSymbolTableRecord
100
AcDbLinetypeTableRecord
  2
CENTERX2
 70
     0
  3
Center (2x) ________  __  ________  __  _____
 72
    65
 73
     4
 40
0.8
 49
0.5
 74
     0
 49
-0.1
 74
     0
 49
0.1
 74
     0
 49
-0.1
 74
     0
  0
LTYPE
  5
72
330
5
100
AcDbSymbolTableRecord
100
AcDbLinetypeTableRecord
  2
DOT2
 70
     0
  3
Dot (.5x) ........................................
 72
    65
 73
     2
 40
0.025
 49
0.0
 74
     0
 49
-0.025
 74
     0
  0
ENDTAB
  0
TABLE
  2
LAYER
  5
2
330
0
100
AcDbSymbolTable
 70
     1
  0
LAYER
  5
10
330
2
100
AcDbSymbolTableRecord
100
AcDbLayerTableRecord
  2
0
 70
     0
 62
     7
  6
Continuous
370
    -3
390
F
  0
ENDTAB
  0
TABLE
  2
STYLE
  5
3
330
0
100
AcDbSymbolTable
 70
     1
  0
STYLE
  5
11
330
3
100
AcDbSymbolTableRecord
100
AcDbTextStyleTableRecord
  2
Standard
 70
     0
 40
0.0
 41
1.0
 50
0.0
 71
     0
 42
0.1377952756
  3
txt
  4

  0
ENDTAB
  0
TABLE
  2
VIEW
  5
6
330
0
100
AcDbSymbolTable
 70
     0
  0
ENDTAB
  0
TABLE
  2
UCS
  5
7
330
0
100
AcDbSymbolTable
 70
     0
  0
ENDTAB
  0
TABLE
  2
APPID
  5
9
330
0
100
AcDbSymbolTable
 70
     1
  0
APPID
  5
12
330
9
100
AcDbSymbolTableRecord
100
AcDbRegAppTableRecord
  2
ACAD
 70
     0
  0
ENDTAB
  0
TABLE
  2
DIMSTYLE
  5
A
330
0
100
AcDbSymbolTable
 70
     1
100
AcDbDimStyleTable
  0
DIMSTYLE
105
27
330
A
100
AcDbSymbolTableRecord
100
AcDbDimStyleTableRecord
  2
Standard
 70
     0
178
     0
340
11
  0
ENDTAB
  0
TABLE
  2
BLOCK_RECORD
  5
1
330
0
100
AcDbSymbolTable
 70
     5
  0
BLOCK_RECORD
  5
1F
330
1
100
AcDbSymbolTableRecord
100
AcDbBlockTableRecord
  2
*Model_Space
340
22
  0
BLOCK_RECORD
  5
1B
330
1
100
AcDbSymbolTableRecord
100
AcDbBlockTableRecord
  2
*Paper_Space
340
1E
  0
BLOCK_RECORD
  5
23
330
1
100
AcDbSymbolTableRecord
100
AcDbBlockTableRecord
  2
*Paper_Space0
340
26
  0
BLOCK_RECORD
  5
156
330
1
100
AcDbSymbolTableRecord
100
AcDbBlockTableRecord
  2
*Paper_Space1
340
157
  0
BLOCK_RECORD
  5
1B8
330
1
100
AcDbSymbolTableRecord
100
AcDbBlockTableRecord
  2
*Paper_Space2
340
1B9
  0
BLOCK_RECORD
  5
1E4
330
1
100
AcDbSymbolTableRecord
100
AcDbBlockTableRecord
  2
*Paper_Space3
340
1E5
  0
BLOCK_RECORD
  5
210
330
1
100
AcDbSymbolTableRecord
100
AcDbBlockTableRecord
  2
*Paper_Space4
340
211
  0
ENDTAB
  0
ENDSEC
  0
SECTION
  2
BLOCKS
  0
BLOCK
  5
20
330
1F
100
AcDbEntity
  8
0
100
AcDbBlockBegin
  2
*Model_Space
 70
     0
 10
0.0
 20
0.0
 30
0.0
  3
*Model_Space
  1

  0
ENDBLK
  5
21
330
1F
100
AcDbEntity
  8
0
100
AcDbBlockEnd
  0
BLOCK
  5
1C
330
1B
100
AcDbEntity
 67
     1
  8
0
100
AcDbBlockBegin
  2
*Paper_Space
 70
     0
 10
0.0
 20
0.0
 30
0.0
  3
*Paper_Space
  1

  0
ENDBLK
  5
1D
330
1B
100
AcDbEntity
 67
     1
  8
0
100
AcDbBlockEnd
  0
BLOCK
  5
24
330
23
100
AcDbEntity
  8
0
100
AcDbBlockBegin
  2
*Paper_Space0
 70
     0
 10
0.0
 20
0.0
 30
0.0
  3
*Paper_Space0
  1

  0
SPLINE
  5
110
330
23
100
AcDbEntity
  8
0
  6
Continuous
 62
     7
370
    25
100
AcDbSpline
210
0.0
220
0.0
230
1.0
 70
     8
 71
     3
 72
    10
 73
     6
 74
     0
 42
0.000000001
 43
0.00000001
 40
0.0
 40
0.0
 40
0.0
 40
0.0
 40
0.4266149572753365
 40
0.8533055715303572
 40
0.9999999999999999
 40
0.9999999999999999
 40
0.9999999999999999
 40
0.9999999999999999
 10
1.539148070366339
 20
2.395909519636142
 30
0.0
 10
1.529574687013951
 20
2.397140529985406
 30
0.0
 10
1.510426222541065
 20
2.399602768994436
 30
0.0
 10
1.498435360865953
 20
2.401669314584741
 30
0.0
 10
1.500239801550187
 20
2.401369610318528
 30
0.0
 10
1.500701448393333
 20
2.401292934188587
 30
0.0
  0
SPLINE
  5
111
330
23
100
AcDbEntity
  8
0
  6
Continuous
 62
     7
370
    25
100
AcDbSpline
210
0.0
220
0.0
230
1.0
 70
     8
 71
     3
 72
    15
 73
    11
 74
     0
 42
0.000000001
 43
0.00000001
 40
0.0
 40
0.0
 40
0.0
 40
0.0
 40
0.0430166330707144
 40
0.1858930057063419
 40
0.3292251091584327
 40
0.4736395811908808
 40
0.6173734480184269
 40
0.7587292103976081
 40
0.8989794196191515
 40
1.0
 40
1.0
 40
1.0
 40
1.0
 10
1.767132499401484
 20
2.401312536225954
 30
0.0
 10
1.767596359623474
 20
2.401388269669773
 30
0.0
 10
1.769600895188858
 20
2.401715545806911
 30
0.0
 10
1.757744901699698
 20
2.399755734948414
 30
0.0
 10
1.732540677402377
 20
2.396184756411544
 30
0.0
 10
1.695007327447932
 20
2.392317849280857
 30
0.0
 10
1.650799359800299
 20
2.390105361235924
 30
0.0
 10
1.60517520329088
 20
2.390463109357194
 30
0.0
 10
1.566543023429054
 20
2.392918477232327
 30
0.0
 10
1.54723315313672
 20
2.395026772169877
 30
0.0
 10
1.539148070366339
 20
2.395909519636142
 30
0.0
  0
SPLINE
  5
114
330
23
100
AcDbEntity
  8
0
  6
Continuous
 62
     7
370
    25
100
AcDbSpline
210
0.0
220
0.0
230
1.0
 70
     8
 71
     3
 72
    17
 73
    13
 74
     0
 42
0.000000001
 43
0.00000001
 40
0.0
 40
0.0
 40
0.0
 40
0.0
 40
0.0701855963911181
 40
0.1770159135648155
 40
0.2845452382815536
 40
0.3925823255181027
 40
0.4994910592235308
 40
0.604688216521069
 40
0.7098083614788468
 40
0.8165495372201201
 40
0.9245465299550151
 40
1.0
 40
1.0
 40
1.0
 40
1.0
 10
1.500701448393349
 20
-2.401292934188613
 30
0.0
 10
1.500657867395359
 20
-2.401298253136058
 30
0.0
 10
1.500547951250594
 20
-2.401311668115623
 30
0.0
 10
1.517508717468053
 20
-2.398600124829104
 30
0.0
 10
1.547521603395988
 20
-2.394717939301292
 30
0.0
 10
1.588012481214157
 20
-2.39126501965895
 30
0.0
 10
1.633397198174587
 20
-2.389924476390553
 30
0.0
 10
1.678388476513851
 20
-2.39120707705491
 30
0.0
 10
1.718441454055465
 20
-2.394533549931303
 30
0.0
 10
1.748901192109685
 20
-2.398405509280872
 30
0.0
 10
1.766790344644874
 20
-2.401247825018654
 30
0.0
 10
1.767032783791165
 20
-2.401293677164669
 30
0.0
 10
1.7671324994015
 20
-2.401312536225983
 30
0.0
  0
SPLINE
  5
115
330
23
100
AcDbEntity
  8
0
  6
Continuous
 62
     7
370
    25
100
AcDbSpline
210
0.0
220
0.0
230
1.0
 70
     8
 71
     3
 72
    17
 73
    13
 74
     0
 42
0.000000001
 43
0.00000001
 40
0.0
 40
0.0
 40
0.0
 40
0.0
 40
0.1061568951630877
 40
0.2122721437434713
 40
0.3194743245616721
 40
0.4274694565326141
 40
0.5342583542286462
 40
0.6397173124736711
 40
0.745796841336478
 40
0.8534678735992773
 40
0.961245997838982
 40
1.0
 40
1.0
 40
1.0
 40
1.0
 10
1.411417322834688
 20
-0.7480314960630119
 30
0.0
 10
1.409769916282796
 20
-0.7483417016768509
 30
0.0
 10
1.406475749475733
 20
-0.748961991207264
 30
0.0
 10
1.38083086137138
 20
-0.7532930544451512
 30
0.0
 10
1.342844517129058
 20
-0.7581987955712525
 30
0.0
 10
1.294980651951217
 20
-0.7618174684541054
 30
0.0
 10
1.243371208218226
 20
-0.7624146529981276
 30
0.0
 10
1.194057713009993
 20
-0.7598269105751768
 30
0.0
 10
1.15169872687685
 20
-0.7551415086939623
 30
0.0
 10
1.122162153706452
 20
-0.7505728581789233
 30
0.0
 10
1.107743762105612
 20
-0.7479368942124985
 30
0.0
 10
1.10970769586484
 20
-0.7482934534980616
 30
0.0
 10
1.110227106147204
 20
-0.7483877543156549
 30
0.0
  0
LINE
  5
12F
330
23
100
AcDbEntity
  8
0
  6
Continuous
 62
     7
370
    25
100
AcDbLine
 10
0.3937007874
 20
0.7480314961
 30
0.0
 11
2.0275590551
 21
0.7480314961
 31
0.0
  0
LINE
  5
130
330
23
100
AcDbEntity
  8
0
  6
Continuous
 62
     7
370
    25
100
AcDbLine
 10
1.5007014484
 20
2.4015748031
 30
0.0
 11
0.3937007874
 21
2.4015748031
 31
0.0
  0
LINE
  5
131
330
23
100
AcDbEntity
  8
0
  6
Continuous
 62
     7
370
    25
100
AcDbLine
 10
2.0275590551
 20
2.4015748031
 30
0.0
 11
1.7671324994
 21
2.4015748031
 31
0.0
  0
LINE
  5
132
330
23
100
AcDbEntity
  8
0
  6
Continuous
 62
     7
370
    25
100
AcDbLine
 10
1.7687477574
 20
2.4014328345
 30
0.0
 11
1.7322834646
 21
2.8937007874
 31
0.0
  0
LINE
  5
133
330
23
100
AcDbEntity
  8
0
  6
Continuous
 62
     7
370
    25
100
AcDbLine
 10
1.5354330709
 20
2.8937007874
 30
0.0
 11
1.498967957
 21
2.4014217498
 31
0.0
  0
LINE
  5
134
330
23
100
AcDbEntity
  8
0
  6
Continuous
 62
     7
370
    25
100
AcDbLine
 10
1.7671324994
 20
-2.4015748031
 30
0.0
 11
2.0275590551
 21
-2.4015748031
 31
0.0
  0
LINE
  5
135
330
23
100
AcDbEntity
  8
0
  6
Continuous
 62
     7
370
    25
100
AcDbLine
 10
0.3937007874
 20
-2.4015748031
 30
0.0
 11
1.5007014484
 21
-2.4015748031
 31
0.0
  0
LINE
  5
136
330
23
100
AcDbEntity
  8
0
  6
Continuous
 62
     7
370
    25
100
AcDbLine
 10
1.1102271061
 20
-0.7480314961
 30
0.0
 11
0.3937007874
 21
-0.7480314961
 31
0.0
  0
LINE
  5
137
330
23
100
AcDbEntity
  8
0
  6
Continuous
 62
     7
370
    25
100
AcDbLine
 10
2.0275590551
 20
-0.7480314961
 30
0.0
 11
1.4114173228
 21
-0.7480314961
 31
0.0
  0
LINE
  5
138
330
23
100
AcDbEntity
  8
0
  6
Continuous
 62
     7
370
    25
100
AcDbLine
 10
1.4114173228
 20
-0.7480314961
 30
0.0
 11
1.4114173228
 21
-0.6417456826
 31
0.0
  0
LINE
  5
139
330
23
100
AcDbEntity
  8
0
  6
Continuous
 62
     7
370
    25
100
AcDbLine
 10
1.1082677165
 20
-0.6417456826
 30
0.0
 11
1.1082677165
 21
-0.7483870421
 31
0.0
  0
LINE
  5
13A
330
23
100
AcDbEntity
  8
0
  6
Continuous
 62
     7
370
    25
100
AcDbLine
 10
1.498967957
 20
-2.4014217498
 30
0.0
 11
1.5354330709
 21
-2.8937007874
 31
0.0
  0
LINE
  5
13B
330
23
100
AcDbEntity
  8
0
  6
Continuous
 62
     7
370
    25
100
AcDbLine
 10
1.7322834646
 20
-2.8937007874
 30
0.0
 11
1.7687477574
 21
-2.4014328345
 31
0.0
  0
LINE
  5
13C
330
23
100
AcDbEntity
  8
0
  6
Continuous
 62
     7
370
    25
100
AcDbLine
 10
2.0669291339
 20
2.3622047244
 30
0.0
 11
2.0669291339
 21
0.7874015748
 31
0.0
  0
LINE
  5
13D
330
23
100
AcDbEntity
  8
0
  6
Continuous
 62
     7
370
    25
100
AcDbLine
 10
1.5354330709
 20
2.8937007874
 30
0.0
 11
1.7322834646
 21
2.8937007874
 31
0.0
  0
LINE
  5
13E
330
23
100
AcDbEntity
  8
0
  6
Continuous
 62
     7
370
    25
100
AcDbLine
 10
2.0669291339
 20
-0.7874015748
 30
0.0
 11
2.0669291339
 21
-2.3622047244
 31
0.0
  0
LINE
  5
13F
330
23
100
AcDbEntity
  8
0
  6
Continuous
 62
     7
370
    25
100
AcDbLine
 10
1.7322834646
 20
-2.8937007874
 30
0.0
 11
1.5354330709
 21
-2.8937007874
 31
0.0
  0
LINE
  5
140
330
23
100
AcDbEntity
  8
0
  6
Continuous
 62
     7
370
    25
100
AcDbLine
 10
0.3937007874
 20
3.6417322835
 30
0.0
 11
0.2362204724
 21
3.6417322835
 31
0.0
  0
LINE
  5
141
330
23
100
AcDbEntity
  8
0
  6
Continuous
 62
     7
370
    25
100
AcDbLine
 10
0.374015748
 20
-4.2322834646
 30
0.0
 11
0.374015748
 21
4.2322834646
 31
0.0
  0
LINE
  5
142
330
23
100
AcDbEntity
  8
0
  6
Continuous
 62
     7
370
    25
100
AcDbLine
 10
0.3937007874
 20
-3.6417322835
 30
0.0
 11
0.2362204724
 21
-3.6417322835
 31
0.0
  0
LINE
  5
143
330
23
100
AcDbEntity
  8
0
  6
Continuous
 62
     7
370
    25
100
AcDbLine
 10
0.3937007874
 20
4.2125984252
 30
0.0
 11
0.3937007874
 21
-4.2125984252
 31
0.0
  0
LINE
  5
144
330
23
100
AcDbEntity
  8
0
  6
Continuous
 62
     7
370
    25
100
AcDbLine
 10
0.374015748
 20
4.2322834646
 30
0.0
 11
0.2362204724
 21
4.2322834646
 31
0.0
  0
LINE
  5
145
330
23
100
AcDbEntity
  8
0
  6
Continuous
 62
     7
370
    25
100
AcDbLine
 10
0.2362204724
 20
4.2322834646
 30
0.0
 11
0.2362204724
 21
-4.2322834646
 31
0.0
  0
LINE
  5
146
330
23
100
AcDbEntity
  8
0
  6
Continuous
 62
     7
370
    25
100
AcDbLine
 10
0.374015748
 20
-4.2322834646
 30
0.0
 11
0.2362204724
 21
-4.2322834646
 31
0.0
  0
LINE
  5
147
330
23
100
AcDbEntity
  8
0
  6
Continuous
 62
     8
370
    25
100
AcDbLine
 10
2.0275590551
 20
0.7480314961
 30
0.0
 11
2.0275590551
 21
2.4015748031
 31
0.0
  0
LINE
  5
148
330
23
100
AcDbEntity
  8
0
  6
Continuous
 62
     8
370
    25
100
AcDbLine
 10
2.0275590551
 20
-2.4015748031
 30
0.0
 11
2.0275590551
 21
-0.7480314961
 31
0.0
  0
LINE
  5
149
330
23
100
AcDbEntity
  8
0
  6
Continuous
 62
     8
370
    25
100
AcDbLine
 10
1.4114173228
 20
-0.6417456826
 30
0.0
 11
1.1082677165
 21
-0.6417456826
 31
0.0
  0
LINE
  5
14A
330
23
100
AcDbEntity
  8
0
  6
Continuous
 62
     8
370
    25
100
AcDbLine
 10
1.1190548127
 20
-0.6241864292
 30
0.0
 11
1.4006302267
 21
-0.6241864292
 31
0.0
  0
ARC
  5
14B
330
23
100
AcDbEntity
  8
0
  6
Continuous
 62
     7
370
    25
100
AcDbCircle
 10
2.0275590551
 20
2.3622047244
 30
0.0
 40
0.0393700787401583
100
AcDbArc
 50
0.0
 51
90.0
  0
ARC
  5
14C
330
23
100
AcDbEntity
  8
0
  6
Continuous
 62
     7
370
    25
100
AcDbCircle
 10
2.0275590551
 20
0.7874015748
 30
0.0
 40
0.0393700787401574
100
AcDbArc
 50
270.0
 51
0.0
  0
ARC
  5
14D
330
23
100
AcDbEntity
  8
0
  6
Continuous
 62
     7
370
    25
100
AcDbCircle
 10
1.6338582677
 20
2.8937007874
 30
0.0
 40
0.0984251968503942
100
AcDbArc
 50
0.0
 51
180.0
  0
ARC
  5
14E
330
23
100
AcDbEntity
  8
0
  6
Continuous
 62
     7
370
    25
100
AcDbCircle
 10
2.0275590551
 20
-0.7874015748
 30
0.0
 40
0.0393700787401571
100
AcDbArc
 50
0.0
 51
90.0
  0
ARC
  5
14F
330
23
100
AcDbEntity
  8
0
  6
Continuous
 62
     7
370
    25
100
AcDbCircle
 10
2.0275590551
 20
-2.3622047244
 30
0.0
 40
0.0393700787401574
100
AcDbArc
 50
270.0
 51
360.0
  0
ARC
  5
150
330
23
100
AcDbEntity
  8
0
  6
Continuous
 62
     7
370
    25
100
AcDbCircle
 10
1.3917322835
 20
-0.6417456826
 30
0.0
 40
0.0196850393700778
100
AcDbArc
 50
360.0
 51
63.12692886
  0
ARC
  5
151
330
23
100
AcDbEntity
  8
0
  6
Continuous
 62
     7
370
    25
100
AcDbCircle
 10
1.1279527559
 20
-0.6417456826
 30
0.0
 40
0.0196850393700788
100
AcDbArc
 50
116.87307114
 51
180.0
  0
ARC
  5
152
330
23
100
AcDbEntity
  8
0
  6
Continuous
 62
     7
370
    25
100
AcDbCircle
 10
1.2598425197
 20
-0.9020177165
 30
0.0
 40
0.311466535433065
100
AcDbArc
 50
63.12692886
 51
116.8730711399
  0
ARC
  5
153
330
23
100
AcDbEntity
  8
0
  6
Continuous
 62
     7
370
    25
100
AcDbCircle
 10
1.6338582677
 20
-2.8937007874
 30
0.0
 40
0.0984251968503942
100
AcDbArc
 50
180.0
 51
0.0
  0
ARC
  5
154
330
23
100
AcDbEntity
  8
0
  6
Continuous
 62
     7
370
    25
100
AcDbCircle
 10
0.374015748
 20
4.2125984252
 30
0.0
 40
0.0196850393700789
100
AcDbArc
 50
360.0
 51
90.0
  0
ARC
  5
155
330
23
100
AcDbEntity
  8
0
  6
Continuous
 62
     7
370
    25
100
AcDbCircle
 10
0.374015748
 20
-4.2125984252
 30
0.0
 40
0.0196850393700805
100
AcDbArc
 50
270.0
 51
360.0
  0
VIEWPORT
  5
2B2
330
23
100
AcDbEntity
  8
0
100
AcDbViewport
 10
0.0
 20
0.0
 30
0.0
 40
8.4
 41
6.4
 68
     1
 69
     1
 12
0.0
 22
0.0
 13
0.0
 23
0.0
 14
0.5
 24
0.5
 15
0.5
 25
0.5
 16
0.0
 26
0.0
 36
1.0
 17
0.0
 27
0.0
 37
0.0
 42
50.0
 43
0.0
 44
0.0
 45
8.6338582677
 50
0.0
 51
0.0
 72
   100
 90
   557152
  1

281
     0
 71
     1
 74
     0
110
0.0
120
0.0
130
0.0
111
1.0
121
0.0
131
0.0
112
0.0
122
1.0
132
0.0
 79
     0
146
0.0
  0
ENDBLK
  5
25
330
23
100
AcDbEntity
  8
0
100
AcDbBlockEnd
  0
BLOCK
  5
158
330
156
100
AcDbEntity
  8
0
100
AcDbBlockBegin
  2
*Paper_Space1
 70
     0
 10
0.0
 20
0.0
 30
0.0
  3
*Paper_Space1
  1

  0
SPLINE
  5
172
330
156
100
AcDbEntity
  8
0
  6
Continuous
 62
     7
370
    25
100
AcDbSpline
210
0.0
220
0.0
230
1.0
 70
     8
 71
     3
 72
    17
 73
    13
 74
     0
 42
0.000000001
 43
0.00000001
 40
0.0
 40
0.0
 40
0.0
 40
0.0
 40
0.0701855963911107
 40
0.1770159135648076
 40
0.284545238281553
 40
0.3925823255181071
 40
0.4994910592235334
 40
0.6046882165210712
 40
0.7098083614788517
 40
0.8165495372201207
 40
0.9245465299550227
 40
0.9999999999999999
 40
0.9999999999999999
 40
0.9999999999999999
 40
0.9999999999999999
 10
-1.500701448393333
 20
2.401292934188587
 30
0.0
 10
-1.500657867395345
 20
2.401298253136031
 30
0.0
 10
-1.500547951250584
 20
2.401311668115592
 30
0.0
 10
-1.517508717468031
 20
2.398600124829081
 30
0.0
 10
-1.547521603395976
 20
2.394717939301263
 30
0.0
 10
-1.588012481214142
 20
2.391265019658928
 30
0.0
 10
-1.633397198174574
 20
2.389924476390524
 30
0.0
 10
-1.678388476513837
 20
2.39120707705488
 30
0.0
 10
-1.718441454055453
 20
2.394533549931273
 30
0.0
 10
-1.748901192109667
 20
2.398405509280846
 30
0.0
 10
-1.766790344644863
 20
2.401247825018623
 30
0.0
 10
-1.767032783791151
 20
2.401293677164639
 30
0.0
 10
-1.767132499401484
 20
2.401312536225954
 30
0.0
  0
SPLINE
  5
174
330
156
100
AcDbEntity
  8
0
  6
Continuous
 62
     7
370
    25
100
AcDbSpline
210
0.0
220
0.0
230
1.0
 70
     8
 71
     3
 72
    10
 73
     6
 74
     0
 42
0.000000001
 43
0.00000001
 40
0.0
 40
0.0
 40
0.0
 40
0.0
 40
0.4266149572753483
 40
0.8533055715303766
 40
1.0
 40
1.0
 40
1.0
 40
1.0
 10
-1.539148070366356
 20
-2.395909519636169
 30
0.0
 10
-1.529574687013966
 20
-2.397140529985434
 30
0.0
 10
-1.510426222541077
 20
-2.399602768994463
 30
0.0
 10
-1.498435360865972
 20
-2.401669314584763
 30
0.0
 10
-1.500239801550203
 20
-2.401369610318553
 30
0.0
 10
-1.500701448393349
 20
-2.401292934188613
 30
0.0
  0
SPLINE
  5
175
330
156
100
AcDbEntity
  8
0
  6
Continuous
 62
     7
370
    25
100
AcDbSpline
210
0.0
220
0.0
230
1.0
 70
     8
 71
     3
 72
    15
 73
    11
 74
     0
 42
0.000000001
 43
0.00000001
 40
0.0
 40
0.0
 40
0.0
 40
0.0
 40
0.0430166330707048
 40
0.1858930057063412
 40
0.3292251091584226
 40
0.4736395811908862
 40
0.6173734480184236
 40
0.758729210397609
 40
0.8989794196191611
 40
1.0
 40
1.0
 40
1.0
 40
1.0
 10
-1.7671324994015
 20
-2.401312536225984
 30
0.0
 10
-1.76759635962349
 20
-2.401388269669803
 30
0.0
 10
-1.769600895188875
 20
-2.401715545806939
 30
0.0
 10
-1.75774490169971
 20
-2.399755734948446
 30
0.0
 10
-1.732540677402392
 20
-2.396184756411576
 30
0.0
 10
-1.695007327447948
 20
-2.392317849280886
 30
0.0
 10
-1.650799359800314
 20
-2.390105361235952
 30
0.0
 10
-1.605175203290895
 20
-2.39046310935722
 30
0.0
 10
-1.566543023429069
 20
-2.392918477232357
 30
0.0
 10
-1.547233153136736
 20
-2.395026772169905
 30
0.0
 10
-1.539148070366356
 20
-2.395909519636169
 30
0.0
  0
LINE
  5
190
330
156
100
AcDbEntity
  8
0
  6
Continuous
 62
     7
370
    25
100
AcDbLine
 10
-1.7671324994
 20
2.4015748031
 30
0.0
 11
-2.0275590551
 21
2.4015748031
 31
0.0
  0
LINE
  5
191
330
156
100
AcDbEntity
  8
0
  6
Continuous
 62
     7
370
    25
100
AcDbLine
 10
-0.3937007874
 20
2.4015748031
 30
0.0
 11
-1.5007014484
 21
2.4015748031
 31
0.0
  0
LINE
  5
192
330
156
100
AcDbEntity
  8
0
  6
Continuous
 62
     7
370
    25
100
AcDbLine
 10
-2.0275590551
 20
0.7480314961
 30
0.0
 11
-0.3937007874
 21
0.7480314961
 31
0.0
  0
LINE
  5
193
330
156
100
AcDbEntity
  8
0
  6
Continuous
 62
     7
370
    25
100
AcDbLine
 10
-1.498967957
 20
2.4014217498
 30
0.0
 11
-1.5354330709
 21
2.8937007874
 31
0.0
  0
LINE
  5
194
330
156
100
AcDbEntity
  8
0
  6
Continuous
 62
     7
370
    25
100
AcDbLine
 10
-1.7322834646
 20
2.8937007874
 30
0.0
 11
-1.7687477574
 21
2.4014328345
 31
0.0
  0
LINE
  5
195
330
156
100
AcDbEntity
  8
0
  6
Continuous
 62
     7
370
    25
100
AcDbLine
 10
-1.4114173228
 20
-0.7480314961
 30
0.0
 11
-2.0275590551
 21
-0.7480314961
 31
0.0
  0
LINE
  5
196
330
156
100
AcDbEntity
  8
0
  6
Continuous
 62
     7
370
    25
100
AcDbLine
 10
-0.3937007874
 20
-0.7480314961
 30
0.0
 11
-1.1102271061
 21
-0.7480314961
 31
0.0
  0
LINE
  5
197
330
156
100
AcDbEntity
  8
0
  6
Continuous
 62
     7
370
    25
100
AcDbLine
 10
-1.5007014484
 20
-2.4015748031
 30
0.0
 11
-0.3937007874
 21
-2.4015748031
 31
0.0
  0
LINE
  5
198
330
156
100
AcDbEntity
  8
0
  6
Continuous
 62
     7
370
    25
100
AcDbLine
 10
-2.0275590551
 20
-2.4015748031
 30
0.0
 11
-1.7671324994
 21
-2.4015748031
 31
0.0
  0
LINE
  5
199
330
156
100
AcDbEntity
  8
0
  6
Continuous
 62
     7
370
    25
100
AcDbLine
 10
-1.1082677165
 20
-0.7483870421
 30
0.0
 11
-1.1082677165
 21
-0.6417456826
 31
0.0
  0
LINE
  5
19A
330
156
100
AcDbEntity
  8
0
  6
Continuous
 62
     7
370
    25
100
AcDbLine
 10
-1.4114173228
 20
-0.6417456826
 30
0.0
 11
-1.4114173228
 21
-0.7480314961
 31
0.0
  0
LINE
  5
19B
330
156
100
AcDbEntity
  8
0
  6
Continuous
 62
     7
370
    25
100
AcDbLine
 10
-1.7687477574
 20
-2.4014328345
 30
0.0
 11
-1.7322834646
 21
-2.8937007874
 31
0.0
  0
LINE
  5
19C
330
156
100
AcDbEntity
  8
0
  6
Continuous
 62
     7
370
    25
100
AcDbLine
 10
-1.5354330709
 20
-2.8937007874
 30
0.0
 11
-1.498967957
 21
-2.4014217498
 31
0.0
  0
LINE
  5
19D
330
156
100
AcDbEntity
  8
0
  6
Continuous
 62
     7
370
    25
100
AcDbLine
 10
-2.0669291339
 20
0.7874015748
 30
0.0
 11
-2.0669291339
 21
2.3622047244
 31
0.0
  0
LINE
  5
19E
330
156
100
AcDbEntity
  8
0
  6
Continuous
 62
     7
370
    25
100
AcDbLine
 10
-1.7322834646
 20
2.8937007874
 30
0.0
 11
-1.5354330709
 21
2.8937007874
 31
0.0
  0
LINE
  5
19F
330
156
100
AcDbEntity
  8
0
  6
Continuous
 62
     7
370
    25
100
AcDbLine
 10
-2.0669291339
 20
-2.3622047244
 30
0.0
 11
-2.0669291339
 21
-0.7874015748
 31
0.0
  0
LINE
  5
1A0
330
156
100
AcDbEntity
  8
0
  6
Continuous
 62
     7
370
    25
100
AcDbLine
 10
-1.5354330709
 20
-2.8937007874
 30
0.0
 11
-1.7322834646
 21
-2.8937007874
 31
0.0
  0
LINE
  5
1A1
330
156
100
AcDbEntity
  8
0
  6
Continuous
 62
     7
370
    25
100
AcDbLine
 10
-0.3937007874
 20
-4.2125984252
 30
0.0
 11
-0.3937007874
 21
4.2125984252
 31
0.0
  0
LINE
  5
1A2
330
156
100
AcDbEntity
  8
0
  6
Continuous
 62
     7
370
    25
100
AcDbLine
 10
-0.3937007874
 20
-3.6417322835
 30
0.0
 11
-0.2362204724
 21
-3.6417322835
 31
0.0
  0
LINE
  5
1A3
330
156
100
AcDbEntity
  8
0
  6
Continuous
 62
     7
370
    25
100
AcDbLine
 10
-0.374015748
 20
4.2322834646
 30
0.0
 11
-0.374015748
 21
-4.2322834646
 31
0.0
  0
LINE
  5
1A4
330
156
100
AcDbEntity
  8
0
  6
Continuous
 62
     7
370
    25
100
AcDbLine
 10
-0.2362204724
 20
-4.2322834646
 30
0.0
 11
-0.2362204724
 21
4.2322834646
 31
0.0
  0
LINE
  5
1A5
330
156
100
AcDbEntity
  8
0
  6
Continuous
 62
     7
370
    25
100
AcDbLine
 10
-0.374015748
 20
-4.2322834646
 30
0.0
 11
-0.2362204724
 21
-4.2322834646
 31
0.0
  0
LINE
  5
1A6
330
156
100
AcDbEntity
  8
0
  6
Continuous
 62
     7
370
    25
100
AcDbLine
 10
-0.3937007874
 20
3.6417322835
 30
0.0
 11
-0.2362204724
 21
3.6417322835
 31
0.0
  0
LINE
  5
1A7
330
156
100
AcDbEntity
  8
0
  6
Continuous
 62
     7
370
    25
100
AcDbLine
 10
-0.374015748
 20
4.2322834646
 30
0.0
 11
-0.2362204724
 21
4.2322834646
 31
0.0
  0
LINE
  5
1A8
330
156
100
AcDbEntity
  8
0
  6
Continuous
 62
     8
370
    25
100
AcDbLine
 10
-2.0275590551
 20
2.4015748031
 30
0.0
 11
-2.0275590551
 21
0.7480314961
 31
0.0
  0
LINE
  5
1A9
330
156
100
AcDbEntity
  8
0
  6
Continuous
 62
     8
370
    25
100
AcDbLine
 10
-2.0275590551
 20
-0.7480314961
 30
0.0
 11
-2.0275590551
 21
-2.4015748031
 31
0.0
  0
LINE
  5
1AA
330
156
100
AcDbEntity
  8
0
  6
Continuous
 62
     8
370
    25
100
AcDbLine
 10
-1.1082677165
 20
-0.6417456826
 30
0.0
 11
-1.4114173228
 21
-0.6417456826
 31
0.0
  0
LINE
  5
1AB
330
156
100
AcDbEntity
  8
0
  6
Continuous
 62
     8
370
    25
100
AcDbLine
 10
-1.4006302267
 20
-0.6241864292
 30
0.0
 11
-1.1190548127
 21
-0.6241864292
 31
0.0
  0
ARC
  5
1AC
330
156
100
AcDbEntity
  8
0
  6
Continuous
 62
     7
370
    25
100
AcDbCircle
 10
-2.0275590551
 20
0.7874015748
 30
0.0
 40
0.0393700787401574
100
AcDbArc
 50
180.0
 51
270.0
  0
ARC
  5
1AD
330
156
100
AcDbEntity
  8
0
  6
Continuous
 62
     7
370
    25
100
AcDbCircle
 10
-2.0275590551
 20
2.3622047244
 30
0.0
 40
0.0393700787401583
100
AcDbArc
 50
90.0
 51
180.0
  0
ARC
  5
1AE
330
156
100
AcDbEntity
  8
0
  6
Continuous
 62
     7
370
    25
100
AcDbCircle
 10
-1.6338582677
 20
2.8937007874
 30
0.0
 40
0.0984251968503942
100
AcDbArc
 50
0.0
 51
180.0
  0
ARC
  5
1AF
330
156
100
AcDbEntity
  8
0
  6
Continuous
 62
     7
370
    25
100
AcDbCircle
 10
-2.0275590551
 20
-2.3622047244
 30
0.0
 40
0.0393700787401565
100
AcDbArc
 50
180.0
 51
270.0
  0
ARC
  5
1B0
330
156
100
AcDbEntity
  8
0
  6
Continuous
 62
     7
370
    25
100
AcDbCircle
 10
-2.0275590551
 20
-0.7874015748
 30
0.0
 40
0.0393700787401575
100
AcDbArc
 50
90.0
 51
180.0
  0
ARC
  5
1B1
330
156
100
AcDbEntity
  8
0
  6
Continuous
 62
     7
370
    25
100
AcDbCircle
 10
-1.1279527559
 20
-0.6417456826
 30
0.0
 40
0.0196850393700789
100
AcDbArc
 50
0.0
 51
63.12692886
  0
ARC
  5
1B2
330
156
100
AcDbEntity
  8
0
  6
Continuous
 62
     7
370
    25
100
AcDbCircle
 10
-1.3917322835
 20
-0.6417456826
 30
0.0
 40
0.0196850393700785
100
AcDbArc
 50
116.87307114
 51
180.0
  0
ARC
  5
1B3
330
156
100
AcDbEntity
  8
0
  6
Continuous
 62
     7
370
    25
100
AcDbCircle
 10
-1.2598425197
 20
-0.9020177165
 30
0.0
 40
0.311466535433078
100
AcDbArc
 50
63.1269288601
 51
116.87307114
  0
ARC
  5
1B4
330
156
100
AcDbEntity
  8
0
  6
Continuous
 62
     7
370
    25
100
AcDbCircle
 10
-1.6338582677
 20
-2.8937007874
 30
0.0
 40
0.0984251968503942
100
AcDbArc
 50
180.0
 51
0.0
  0
ARC
  5
1B5
330
156
100
AcDbEntity
  8
0
  6
Continuous
 62
     7
370
    25
100
AcDbCircle
 10
-1.2598528401
 20
0.0713252762
 30
0.0
 40
0.8332570508083376
100
AcDbArc
 50
259.5198988497
 51
280.3445583362
  0
ARC
  5
1B6
330
156
100
AcDbEntity
  8
0
  6
Continuous
 62
     7
370
    25
100
AcDbCircle
 10
-0.374015748
 20
-4.2125984252
 30
0.0
 40
0.0196850393700805
100
AcDbArc
 50
180.0
 51
270.0
  0
ARC
  5
1B7
330
156
100
AcDbEntity
  8
0
  6
Continuous
 62
     7
370
    25
100
AcDbCircle
 10
-0.374015748
 20
4.2125984252
 30
0.0
 40
0.0196850393700788
100
AcDbArc
 50
90.0
 51
180.0
  0
VIEWPORT
  5
2B4
330
156
100
AcDbEntity
  8
0
100
AcDbViewport
 10
0.0
 20
0.0
 30
0.0
 40
8.4
 41
6.4
 68
     1
 69
     1
 12
0.0
 22
0.0
 13
0.0
 23
0.0
 14
0.5
 24
0.5
 15
0.5
 25
0.5
 16
0.0
 26
0.0
 36
1.0
 17
0.0
 27
0.0
 37
0.0
 42
50.0
 43
0.0
 44
0.0
 45
8.6338582677
 50
0.0
 51
0.0
 72
   100
 90
   557152
  1

281
     0
 71
     1
 74
     0
110
0.0
120
0.0
130
0.0
111
1.0
121
0.0
131
0.0
112
0.0
122
1.0
132
0.0
 79
     0
146
0.0
  0
ENDBLK
  5
159
330
156
100
AcDbEntity
  8
0
100
AcDbBlockEnd
  0
BLOCK
  5
1BA
330
1B8
100
AcDbEntity
  8
0
100
AcDbBlockBegin
  2
*Paper_Space2
 70
     0
 10
0.0
 20
0.0
 30
0.0
  3
*Paper_Space2
  1

  0
CIRCLE
  5
1C0
330
1B8
100
AcDbEntity
  8
0
  6
Continuous
 62
     7
370
    25
100
AcDbCircle
 10
0.0
 20
-1.6338582677
 30
0.0
 40
0.0984251968503937
  0
SPLINE
  5
1C1
330
1B8
100
AcDbEntity
  8
0
  6
Continuous
 62
     7
370
    25
100
AcDbSpline
210
0.0
220
0.0
230
1.0
 70
    11
 71
     3
 72
    70
 73
    66
 74
     0
 42
0.000000001
 43
0.00000001
 40
0.0
 40
0.0
 40
0.0
 40
0.0
 40
0.03125
 40
0.03125
 40
0.0625
 40
0.0625
 40
0.09375
 40
0.09375
 40
0.125
 40
0.125
 40
0.15625
 40
0.15625
 40
0.1875
 40
0.1875
 40
0.21875
 40
0.21875
 40
0.25
 40
0.25
 40
0.28125
 40
0.28125
 40
0.3125
 40
0.3125
 40
0.34375
 40
0.34375
 40
0.3749999999999999
 40
0.3749999999999999
 40
0.4062499999999999
 40
0.4062499999999999
 40
0.4374999999999999
 40
0.4374999999999999
 40
0.4687499999999999
 40
0.4687499999999999
 40
0.5
 40
0.5
 40
0.53125
 40
0.53125
 40
0.5625
 40
0.5625
 40
0.59375
 40
0.59375
 40
0.625
 40
0.625
 40
0.65625
 40
0.65625
 40
0.6875
 40
0.6875
 40
0.71875
 40
0.71875
 40
0.7499999999999999
 40
0.7499999999999999
 40
0.7812499999999999
 40
0.7812499999999999
 40
0.8124999999999999
 40
0.8124999999999999
 40
0.8437499999999999
 40
0.8437499999999999
 40
0.8749999999999999
 40
0.8749999999999999
 40
0.9062499999999999
 40
0.9062499999999999
 40
0.9374999999999999
 40
0.9374999999999999
 40
0.9687499999999999
 40
0.9687499999999999
 40
1.0
 40
1.0
 40
1.0
 40
1.0
 10
-0.0966214065264533
 20
-1.539148070366339
 30
0.0
 10
-0.0903368288795582
 20
-1.532814927914678
 30
0.0
 10
-0.0835363310341466
 20
-1.527202261327434
 30
0.0
 10
-0.0689428752467665
 20
-1.517352281736967
 30
0.0
 10
-0.0610582212210274
 20
-1.513080758769758
 30
0.0
 10
-0.0447084618000999
 20
-1.506204411210027
 30
0.0
 10
-0.0362877094173857
 20
-1.503593729489237
 30
0.0
 10
-0.0189567962142196
 20
-1.500012430280664
 30
0.0
 10
-0.0099831830542939
 20
-1.499057992895576
 30
0.0
 10
0.0077001890494379
 20
-1.498910139666779
 30
0.0
 10
0.016496376919468
 20
-1.499687334039901
 30
0.0
 10
0.0339959148016058
 20
-1.502980719652445
 30
0.0
 10
0.0425763792303441
 20
-1.505490126112716
 30
0.0
 10
0.0589378510203897
 20
-1.512048645936967
 30
0.0
 10
0.0668437459989025
 20
-1.516143403658099
 30
0.0
 10
0.0817554957151993
 20
-1.525840444146944
 30
0.0
 10
0.088631086539876
 20
-1.53134346622449
 30
0.0
 10
0.1012560143329114
 20
-1.543629535204896
 30
0.0
 10
0.1070535918336008
 20
-1.550497993832307
 30
0.0
 10
0.1170616274824255
 20
-1.565058166317956
 30
0.0
 10
0.1213151310938123
 20
-1.572763832464117
 30
0.0
 10
0.1283069549754043
 20
-1.589040158062143
 30
0.0
 10
0.1310198407931527
 20
-1.597618352432981
 30
0.0
 10
0.1346536433093775
 20
-1.614889448441001
 30
0.0
 10
0.1356212139797228
 20
-1.62367559192709
 30
0.0
 10
0.1357866086638652
 20
-1.641562213538093
 30
0.0
 10
0.1349775346597296
 20
-1.650399037404559
 30
0.0
 10
0.1316582104523792
 20
-1.66773666836214
 30
0.0
 10
0.1291067767761003
 20
-1.676350037941835
 30
0.0
 10
0.1224020640914593
 20
-1.692774465694366
 30
0.0
 10
0.1182836802254673
 20
-1.70056257356006
 30
0.0
 10
0.1085337580579201
 20
-1.715306545226477
 30
0.0
 10
0.1028601306899093
 20
-1.722276816474165
 30
0.0
 10
0.0904543003800753
 20
-1.734787915075761
 30
0.0
 10
0.0836761376348279
 20
-1.740413645503064
 30
0.0
 10
0.0689338293860495
 20
-1.750376568890684
 30
0.0
 10
0.0611094340211253
 20
-1.754605947873059
 30
0.0
 10
0.044873506902002
 20
-1.761450890050463
 30
0.0
 10
0.0363433625067535
 20
-1.764111220618229
 30
0.0
 10
0.0189036423629658
 20
-1.767715174017595
 30
0.0
 10
0.0101231036860547
 20
-1.768648127652747
 30
0.0
 10
-0.0075568449434376
 20
-1.76881429529006
 30
0.0
 10
-0.0165454022679762
 20
-1.768019902415313
 30
0.0
 10
-0.0339447315475855
 20
-1.764745520863932
 30
0.0
 10
-0.04241379615899
 20
-1.762283523171268
 30
0.0
 10
-0.0588886065375896
 20
-1.755695584069017
 30
0.0
 10
-0.0668469298608552
 20
-1.751564755014857
 30
0.0
 10
-0.0816161987845828
 20
-1.741972923869205
 30
0.0
 10
-0.0885251990178109
 20
-1.7364727653689
 30
0.0
 10
-0.1013097857986381
 20
-1.72403800767818
 30
0.0
 10
-0.1069891880777076
 20
-1.717296851289265
 30
0.0
 10
-0.1169757683320647
 20
-1.702798439172931
 30
0.0
 10
-0.1213189174735134
 20
-1.694946310083672
 30
0.0
 10
-0.1283146183769077
 20
-1.678656112248359
 30
0.0
 10
-0.1309777604083274
 20
-1.670254342164911
 30
0.0
 10
-0.1346396752932719
 20
-1.65293665264493
 30
0.0
 10
-0.1356201461691144
 20
-1.643964028728932
 30
0.0
 10
-0.1357871729959162
 20
-1.626285100117897
 30
0.0
 10
-0.1350042888566206
 20
-1.617485996464965
 30
0.0
 10
-0.1316618602804396
 20
-1.599970436161391
 30
0.0
 10
-0.1291214608872654
 20
-1.591421883395287
 30
0.0
 10
-0.1224713213352686
 20
-1.575092556909685
 30
0.0
 10
-0.1183097152140251
 20
-1.567192328330211
 30
0.0
 10
-0.108498456468785
 20
-1.552357611612325
 30
0.0
 10
-0.1029059841733485
 20
-1.545481212818
 30
0.0
 10
-0.0966214065264533
 20
-1.539148070366339
 30
0.0
  0
LINE
  5
1D5
330
1B8
100
AcDbEntity
  8
0
  6
Continuous
 62
     7
370
    25
100
AcDbLine
 10
-0.8267716535
 20
-0.3937007874
 30
0.0
 11
-0.8267716535
 21
-2.0275590551
 31
0.0
  0
LINE
  5
1D6
330
1B8
100
AcDbEntity
  8
0
  6
Continuous
 62
     7
370
    25
100
AcDbLine
 10
0.8267716535
 20
-2.0275590551
 30
0.0
 11
0.8267716535
 21
-0.3937007874
 31
0.0
  0
LINE
  5
1D7
330
1B8
100
AcDbEntity
  8
0
  6
Continuous
 62
     7
370
    25
100
AcDbLine
 10
0.7874015748
 20
-2.0669291339
 30
0.0
 11
-0.7874015741
 21
-2.0669291339
 31
0.0
  0
LINE
  5
1D8
330
1B8
100
AcDbEntity
  8
0
  6
Continuous
 62
     7
370
    25
100
AcDbLine
 10
1.968503937
 20
-0.2362204724
 30
0.0
 11
-1.968503937
 21
-0.2362204724
 31
0.0
  0
LINE
  5
1D9
330
1B8
100
AcDbEntity
  8
0
  6
Continuous
 62
     7
370
    25
100
AcDbLine
 10
-1.3779527559
 20
-0.3937007874
 30
0.0
 11
-1.3779527559
 21
-0.2362204724
 31
0.0
  0
LINE
  5
1DA
330
1B8
100
AcDbEntity
  8
0
  6
Continuous
 62
     7
370
    25
100
AcDbLine
 10
-1.968503937
 20
-0.374015748
 30
0.0
 11
1.968503937
 21
-0.374015748
 31
0.0
  0
LINE
  5
1DB
330
1B8
100
AcDbEntity
  8
0
  6
Continuous
 62
     7
370
    25
100
AcDbLine
 10
-1.968503937
 20
-0.374015748
 30
0.0
 11
-1.968503937
 21
-0.2362204724
 31
0.0
  0
LINE
  5
1DC
330
1B8
100
AcDbEntity
  8
0
  6
Continuous
 62
     7
370
    25
100
AcDbLine
 10
1.3779527559
 20
-0.3937007874
 30
0.0
 11
1.3779527559
 21
-0.2362204724
 31
0.0
  0
LINE
  5
1DD
330
1B8
100
AcDbEntity
  8
0
  6
Continuous
 62
     7
370
    25
100
AcDbLine
 10
1.968503937
 20
-0.374015748
 30
0.0
 11
1.968503937
 21
-0.2362204724
 31
0.0
  0
LINE
  5
1DE
330
1B8
100
AcDbEntity
  8
0
  6
Continuous
 62
     7
370
    25
100
AcDbLine
 10
1.9488188976
 20
-0.3937007874
 30
0.0
 11
-1.9488188976
 21
-0.3937007874
 31
0.0
  0
LINE
  5
1DF
330
1B8
100
AcDbEntity
  8
0
  6
Continuous
 62
     8
370
    25
100
AcDbLine
 10
-0.8267716535
 20
-2.0275590551
 30
0.0
 11
0.8267716535
 21
-2.0275590551
 31
0.0
  0
ARC
  5
1E0
330
1B8
100
AcDbEntity
  8
0
  6
Continuous
 62
     7
370
    25
100
AcDbCircle
 10
0.7874015748
 20
-2.0275590551
 30
0.0
 40
0.0393700787401579
100
AcDbArc
 50
270.0
 51
0.0
  0
ARC
  5
1E1
330
1B8
100
AcDbEntity
  8
0
  6
Continuous
 62
     7
370
    25
100
AcDbCircle
 10
-0.7874015748
 20
-2.0275590551
 30
0.0
 40
0.0393700787401575
100
AcDbArc
 50
180.0
 51
270.0
  0
ARC
  5
1E2
330
1B8
100
AcDbEntity
  8
0
  6
Continuous
 62
     7
370
    25
100
AcDbCircle
 10
-1.9488188976
 20
-0.374015748
 30
0.0
 40
0.0196850393700785
100
AcDbArc
 50
180.0
 51
270.0
  0
ARC
  5
1E3
330
1B8
100
AcDbEntity
  8
0
  6
Continuous
 62
     7
370
    25
100
AcDbCircle
 10
1.9488188976
 20
-0.374015748
 30
0.0
 40
0.0196850393700785
100
AcDbArc
 50
270.0
 51
0.0
  0
VIEWPORT
  5
2B6
330
1B8
100
AcDbEntity
  8
0
100
AcDbViewport
 10
0.0
 20
0.0
 30
0.0
 40
8.4
 41
6.4
 68
     1
 69
     1
 12
0.0
 22
0.0
 13
0.0
 23
0.0
 14
0.5
 24
0.5
 15
0.5
 25
0.5
 16
0.0
 26
0.0
 36
1.0
 17
0.0
 27
0.0
 37
0.0
 42
50.0
 43
0.0
 44
0.0
 45
8.6338582677
 50
0.0
 51
0.0
 72
   100
 90
   557152
  1

281
     0
 71
     1
 74
     0
110
0.0
120
0.0
130
0.0
111
1.0
121
0.0
131
0.0
112
0.0
122
1.0
132
0.0
 79
     0
146
0.0
  0
ENDBLK
  5
1BB
330
1B8
100
AcDbEntity
  8
0
100
AcDbBlockEnd
  0
BLOCK
  5
1E6
330
1E4
100
AcDbEntity
  8
0
100
AcDbBlockBegin
  2
*Paper_Space3
 70
     0
 10
0.0
 20
0.0
 30
0.0
  3
*Paper_Space3
  1

  0
CIRCLE
  5
1EC
330
1E4
100
AcDbEntity
  8
0
  6
Continuous
 62
     7
370
    25
100
AcDbCircle
 10
0.0
 20
1.6338582677
 30
0.0
 40
0.0984251968503939
  0
SPLINE
  5
1ED
330
1E4
100
AcDbEntity
  8
0
  6
Continuous
 62
     7
370
    25
100
AcDbSpline
210
0.0
220
0.0
230
1.0
 70
    11
 71
     3
 72
    70
 73
    66
 74
     0
 42
0.000000001
 43
0.00000001
 40
0.0
 40
0.0
 40
0.0
 40
0.0
 40
0.03125
 40
0.03125
 40
0.0625
 40
0.0625
 40
0.09375
 40
0.09375
 40
0.125
 40
0.125
 40
0.15625
 40
0.15625
 40
0.1875000000000001
 40
0.1875000000000001
 40
0.2187500000000001
 40
0.2187500000000001
 40
0.25
 40
0.25
 40
0.28125
 40
0.28125
 40
0.3125
 40
0.3125
 40
0.34375
 40
0.34375
 40
0.375
 40
0.375
 40
0.4062500000000001
 40
0.4062500000000001
 40
0.4375000000000001
 40
0.4375000000000001
 40
0.4687500000000001
 40
0.4687500000000001
 40
0.5
 40
0.5
 40
0.53125
 40
0.53125
 40
0.5625
 40
0.5625
 40
0.59375
 40
0.59375
 40
0.625
 40
0.625
 40
0.65625
 40
0.65625
 40
0.6875
 40
0.6875
 40
0.71875
 40
0.71875
 40
0.75
 40
0.75
 40
0.7812500000000001
 40
0.7812500000000001
 40
0.8125000000000001
 40
0.8125000000000001
 40
0.8437500000000001
 40
0.8437500000000001
 40
0.8750000000000001
 40
0.8750000000000001
 40
0.9062500000000001
 40
0.9062500000000001
 40
0.9375000000000001
 40
0.9375000000000001
 40
0.9687500000000001
 40
0.9687500000000001
 40
1.0
 40
1.0
 40
1.0
 40
1.0
 10
0.0966214065264513
 20
1.539148070366356
 30
0.0
 10
0.0903368288795563
 20
1.532814927914695
 30
0.0
 10
0.0835363310341463
 20
1.527202261327448
 30
0.0
 10
0.0689428752467664
 20
1.517352281736982
 30
0.0
 10
0.0610582212210272
 20
1.513080758769773
 30
0.0
 10
0.0447084618000997
 20
1.506204411210043
 30
0.0
 10
0.0362877094173856
 20
1.503593729489251
 30
0.0
 10
0.0189567962142197
 20
1.500012430280678
 30
0.0
 10
0.0099831830542934
 20
1.499057992895589
 30
0.0
 10
-0.0077001890494384
 20
1.498910139666794
 30
0.0
 10
-0.0164963769194685
 20
1.499687334039915
 30
0.0
 10
-0.0339959148016065
 20
1.502980719652459
 30
0.0
 10
-0.0425763792303441
 20
1.50549012611273
 30
0.0
 10
-0.0589378510203897
 20
1.512048645936979
 30
0.0
 10
-0.0668437459989035
 20
1.516143403658113
 30
0.0
 10
-0.0817554957152
 20
1.525840444146957
 30
0.0
 10
-0.0886310865398766
 20
1.531343466224504
 30
0.0
 10
-0.101256014332912
 20
1.543629535204909
 30
0.0
 10
-0.1070535918336016
 20
1.550497993832321
 30
0.0
 10
-0.1170616274824264
 20
1.56505816631797
 30
0.0
 10
-0.1213151310938132
 20
1.572763832464131
 30
0.0
 10
-0.1283069549754054
 20
1.589040158062158
 30
0.0
 10
-0.1310198407931538
 20
1.597618352432995
 30
0.0
 10
-0.1346536433093787
 20
1.614889448441014
 30
0.0
 10
-0.1356212139797241
 20
1.623675591927105
 30
0.0
 10
-0.1357866086638666
 20
1.641562213538107
 30
0.0
 10
-0.134977534659731
 20
1.650399037404574
 30
0.0
 10
-0.1316582104523809
 20
1.667736668362154
 30
0.0
 10
-0.1291067767761017
 20
1.676350037941848
 30
0.0
 10
-0.1224020640914609
 20
1.692774465694381
 30
0.0
 10
-0.1182836802254691
 20
1.700562573560074
 30
0.0
 10
-0.108533758057922
 20
1.71530654522649
 30
0.0
 10
-0.1028601306899108
 20
1.722276816474179
 30
0.0
 10
-0.090454300380077
 20
1.734787915075776
 30
0.0
 10
-0.0836761376348297
 20
1.740413645503077
 30
0.0
 10
-0.0689338293860512
 20
1.7503765688907
 30
0.0
 10
-0.0611094340211275
 20
1.754605947873074
 30
0.0
 10
-0.0448735069020042
 20
1.761450890050478
 30
0.0
 10
-0.0363433625067552
 20
1.764111220618243
 30
0.0
 10
-0.0189036423629677
 20
1.76771517401761
 30
0.0
 10
-0.0101231036860565
 20
1.768648127652761
 30
0.0
 10
0.0075568449434359
 20
1.768814295290076
 30
0.0
 10
0.0165454022679741
 20
1.768019902415328
 30
0.0
 10
0.0339447315475836
 20
1.764745520863947
 30
0.0
 10
0.042413796158988
 20
1.762283523171283
 30
0.0
 10
0.0588886065375875
 20
1.755695584069031
 30
0.0
 10
0.0668469298608535
 20
1.751564755014872
 30
0.0
 10
0.0816161987845811
 20
1.74197292386922
 30
0.0
 10
0.0885251990178089
 20
1.736472765368916
 30
0.0
 10
0.1013097857986363
 20
1.724038007678194
 30
0.0
 10
0.1069891880777061
 20
1.71729685128928
 30
0.0
 10
0.1169757683320634
 20
1.702798439172947
 30
0.0
 10
0.1213189174735119
 20
1.694946310083688
 30
0.0
 10
0.1283146183769065
 20
1.678656112248374
 30
0.0
 10
0.1309777604083263
 20
1.670254342164926
 30
0.0
 10
0.1346396752932709
 20
1.652936652644945
 30
0.0
 10
0.1356201461691134
 20
1.643964028728947
 30
0.0
 10
0.1357871729959153
 20
1.626285100117913
 30
0.0
 10
0.1350042888566199
 20
1.617485996464981
 30
0.0
 10
0.1316618602804389
 20
1.599970436161408
 30
0.0
 10
0.1291214608872648
 20
1.591421883395302
 30
0.0
 10
0.1224713213352682
 20
1.575092556909701
 30
0.0
 10
0.1183097152140247
 20
1.567192328330226
 30
0.0
 10
0.1084984564687846
 20
1.55235761161234
 30
0.0
 10
0.1029059841733463
 20
1.545481212818016
 30
0.0
 10
0.0966214065264513
 20
1.539148070366356
 30
0.0
  0
LINE
  5
201
330
1E4
100
AcDbEntity
  8
0
  6
Continuous
 62
     7
370
    25
100
AcDbLine
 10
0.8267716535
 20
0.3937007874
 30
0.0
 11
0.8267716535
 21
2.0275590551
 31
0.0
  0
LINE
  5
202
330
1E4
100
AcDbEntity
  8
0
  6
Continuous
 62
     7
370
    25
100
AcDbLine
 10
-0.8267716535
 20
2.0275590551
 30
0.0
 11
-0.8267716535
 21
0.3937007874
 31
0.0
  0
LINE
  5
203
330
1E4
100
AcDbEntity
  8
0
  6
Continuous
 62
     7
370
    25
100
AcDbLine
 10
-0.7874015748
 20
2.0669291339
 30
0.0
 11
0.7874015741
 21
2.0669291339
 31
0.0
  0
LINE
  5
204
330
1E4
100
AcDbEntity
  8
0
  6
Continuous
 62
     7
370
    25
100
AcDbLine
 10
-1.968503937
 20
0.2362204724
 30
0.0
 11
1.968503937
 21
0.2362204724
 31
0.0
  0
LINE
  5
205
330
1E4
100
AcDbEntity
  8
0
  6
Continuous
 62
     7
370
    25
100
AcDbLine
 10
-1.3779527559
 20
0.3937007874
 30
0.0
 11
-1.3779527559
 21
0.2362204724
 31
0.0
  0
LINE
  5
206
330
1E4
100
AcDbEntity
  8
0
  6
Continuous
 62
     7
370
    25
100
AcDbLine
 10
1.968503937
 20
0.374015748
 30
0.0
 11
-1.968503937
 21
0.374015748
 31
0.0
  0
LINE
  5
207
330
1E4
100
AcDbEntity
  8
0
  6
Continuous
 62
     7
370
    25
100
AcDbLine
 10
1.3779527559
 20
0.3937007874
 30
0.0
 11
1.3779527559
 21
0.2362204724
 31
0.0
  0
LINE
  5
208
330
1E4
100
AcDbEntity
  8
0
  6
Continuous
 62
     7
370
    25
100
AcDbLine
 10
1.968503937
 20
0.374015748
 30
0.0
 11
1.968503937
 21
0.2362204724
 31
0.0
  0
LINE
  5
209
330
1E4
100
AcDbEntity
  8
0
  6
Continuous
 62
     7
370
    25
100
AcDbLine
 10
-1.9488188976
 20
0.3937007874
 30
0.0
 11
1.9488188976
 21
0.3937007874
 31
0.0
  0
LINE
  5
20A
330
1E4
100
AcDbEntity
  8
0
  6
Continuous
 62
     7
370
    25
100
AcDbLine
 10
-1.968503937
 20
0.374015748
 30
0.0
 11
-1.968503937
 21
0.2362204724
 31
0.0
  0
LINE
  5
20B
330
1E4
100
AcDbEntity
  8
0
  6
Continuous
 62
     8
370
    25
100
AcDbLine
 10
0.8267716535
 20
2.0275590551
 30
0.0
 11
-0.8267716535
 21
2.0275590551
 31
0.0
  0
ARC
  5
20C
330
1E4
100
AcDbEntity
  8
0
  6
Continuous
 62
     7
370
    25
100
AcDbCircle
 10
-0.7874015748
 20
2.0275590551
 30
0.0
 40
0.0393700787401574
100
AcDbArc
 50
90.0
 51
180.0
  0
ARC
  5
20D
330
1E4
100
AcDbEntity
  8
0
  6
Continuous
 62
     7
370
    25
100
AcDbCircle
 10
0.7874015748
 20
2.0275590551
 30
0.0
 40
0.0393700787401574
100
AcDbArc
 50
0.0
 51
90.0
  0
ARC
  5
20E
330
1E4
100
AcDbEntity
  8
0
  6
Continuous
 62
     7
370
    25
100
AcDbCircle
 10
1.9488188976
 20
0.374015748
 30
0.0
 40
0.0196850393700789
100
AcDbArc
 50
0.0
 51
90.0
  0
ARC
  5
20F
330
1E4
100
AcDbEntity
  8
0
  6
Continuous
 62
     7
370
    25
100
AcDbCircle
 10
-1.9488188976
 20
0.374015748
 30
0.0
 40
0.0196850393700789
100
AcDbArc
 50
90.0
 51
180.0
  0
VIEWPORT
  5
2B8
330
1E4
100
AcDbEntity
  8
0
100
AcDbViewport
 10
0.0
 20
0.0
 30
0.0
 40
8.4
 41
6.4
 68
     1
 69
     1
 12
0.0
 22
0.0
 13
0.0
 23
0.0
 14
0.5
 24
0.5
 15
0.5
 25
0.5
 16
0.0
 26
0.0
 36
1.0
 17
0.0
 27
0.0
 37
0.0
 42
50.0
 43
0.0
 44
0.0
 45
8.6338582677
 50
0.0
 51
0.0
 72
   100
 90
   557152
  1

281
     0
 71
     1
 74
     0
110
0.0
120
0.0
130
0.0
111
1.0
121
0.0
131
0.0
112
0.0
122
1.0
132
0.0
 79
     0
146
0.0
  0
ENDBLK
  5
1E7
330
1E4
100
AcDbEntity
  8
0
100
AcDbBlockEnd
  0
BLOCK
  5
212
330
210
100
AcDbEntity
  8
0
100
AcDbBlockBegin
  2
*Paper_Space4
 70
     0
 10
0.0
 20
0.0
 30
0.0
  3
*Paper_Space4
  1

  0
SPLINE
  5
214
330
210
100
AcDbEntity
  8
0
  6
Continuous
 62
     7
370
    25
100
AcDbSpline
210
0.0
220
0.0
230
1.0
 70
     8
 71
     3
 72
    45
 73
    41
 74
     0
 42
0.000000001
 43
0.00000001
 40
0.0
 40
0.0
 40
0.0
 40
0.0
 40
0.019352348997739
 40
0.0452401467622743
 40
0.0712019029595939
 40
0.0973434204973738
 40
0.1237244680640566
 40
0.1503524185003527
 40
0.1771925679127907
 40
0.2041882112915532
 40
0.2312803455876666
 40
0.2584200902085694
 40
0.2855700978838315
 40
0.3127074152345097
 40
0.3398236052755156
 40
0.3669161376863925
 40
0.3939861080961665
 40
0.4210367164366939
 40
0.4480723245252645
 40
0.4750979076074388
 40
0.5021187556218608
 40
0.5291403227193361
 40
0.556166740846035
 40
0.5832031839854722
 40
0.6102552593145295
 40
0.637328471276459
 40
0.6644279972092403
 40
0.6915582567823995
 40
0.7187221418548891
 40
0.7459197198480291
 40
0.7731461820267388
 40
0.80038769719681
 40
0.8276098927498374
 40
0.8547675155139919
 40
0.8817994946280209
 40
0.908637336119527
 40
0.9352239601040435
 40
0.96153849406162
 40
0.9876146879326728
 40
1.0
 40
1.0
 40
1.0
 40
1.0
 10
-1.851999277103793
 20
1.170691397058027
 30
0.0
 10
-1.860922992492806
 20
1.165187400770289
 30
0.0
 10
-1.881784035971863
 20
1.152320662997767
 30
0.0
 10
-1.910876009871937
 20
1.126311888965082
 30
0.0
 10
-1.939554877582932
 20
1.093913218795357
 30
0.0
 10
-1.964509753396634
 20
1.056906827189136
 30
0.0
 10
-1.985718419317278
 20
1.015690957374925
 30
0.0
 10
-2.002984002430688
 20
0.9704358840647938
 30
0.0
 10
-2.016163644726178
 20
0.9214530979322801
 30
0.0
 10
-2.025134184193252
 20
0.8690995306369576
 30
0.0
 10
-2.029821553916531
 20
0.8137852055769087
 30
0.0
 10
-2.030199319805507
 20
0.7559464162331673
 30
0.0
 10
-2.026285669872212
 20
0.6960308125463064
 30
0.0
 10
-2.018135907109797
 20
0.6344852151535538
 30
0.0
 10
-2.005835058965531
 20
0.5717511885090701
 30
0.0
 10
-1.989492957843958
 20
0.5082662275196212
 30
0.0
 10
-1.969242748197079
 20
0.4444681637987336
 30
0.0
 10
-1.945239911606917
 20
0.3807946727318369
 30
0.0
 10
-1.91766154881533
 20
0.3176819367463246
 30
0.0
 10
-1.886705596898605
 20
0.2555626503401946
 30
0.0
 10
-1.852589824194396
 20
0.1948636012871391
 30
0.0
 10
-1.815551188204718
 20
0.1360040627608577
 30
0.0
 10
-1.775844035100049
 20
0.0793922118108483
 30
0.0
 10
-1.733738040944994
 20
0.0254220816341342
 30
0.0
 10
-1.689515267440719
 20
-0.0255297006263353
 30
0.0
 10
-1.643468370817047
 20
-0.0731051437995314
 30
0.0
 10
-1.595898668468162
 20
-0.1169661552159725
 30
0.0
 10
-1.54711423428551
 20
-0.1567955500204755
 30
0.0
 10
-1.497428563337555
 20
-0.1922974612337516
 30
0.0
 10
-1.44716031311235
 20
-0.2231971986250247
 30
0.0
 10
-1.396635423861952
 20
-0.2492406421607871
 30
0.0
 10
-1.346196506603064
 20
-0.270192570262772
 30
0.0
 10
-1.296205599927101
 20
-0.2858447920173297
 30
0.0
 10
-1.247051731385894
 20
-0.296023203499106
 30
0.0
 10
-1.199141008237018
 20
-0.3006154121298591
 30
0.0
 10
-1.152917288227878
 20
-0.299546311985936
 30
0.0
 10
-1.108745728252172
 20
-0.2929503299698785
 30
0.0
 10
-1.067231469243937
 20
-0.2805935882598323
 30
0.0
 10
-1.034705716324065
 20
-0.2668516358848169
 30
0.0
 10
-1.0172828120101
 20
-0.2554086089903451
 30
0.0
 10
-1.011672316482614
 20
-0.2517237439382614
 30
0.0
  0
SPLINE
  5
21B
330
210
100
AcDbEntity
  8
0
  6
Continuous
 62
     7
370
    25
100
AcDbSpline
210
0.0
220
0.0
230
1.0
 70
     8
 71
     3
 72
    17
 73
    13
 74
     0
 42
0.000000001
 43
0.00000001
 40
0.0
 40
0.0
 40
0.0
 40
0.0
 40
0.0553818516543667
 40
0.161260260518322
 40
0.2673816103744056
 40
0.3741957126041798
 40
0.4819719879490715
 40
0.5907648121575185
 40
0.7004486536232944
 40
0.8107976262407407
 40
0.9215681772399764
 40
1.0
 40
1.0
 40
1.0
 40
1.0
 10
-1.85572919777783
 20
-1.403591915859791
 30
0.0
 10
-1.862015990568233
 20
-1.407368714865508
 30
0.0
 10
-1.880321803987624
 20
-1.41836595626127
 30
0.0
 10
-1.907241688688223
 20
-1.441990090816779
 30
0.0
 10
-1.936379336607398
 20
-1.473787281580916
 30
0.0
 10
-1.961757200874618
 20
-1.510297967499673
 30
0.0
 10
-1.983422912305426
 20
-1.551017713872949
 30
0.0
 10
-2.001155917365121
 20
-1.595815530638158
 30
0.0
 10
-2.014838949539949
 20
-1.644368810656348
 30
0.0
 10
-2.02425587851022
 20
-1.696372773946589
 30
0.0
 10
-2.029124842076871
 20
-1.745879528202769
 30
0.0
 10
-2.029635953252918
 20
-1.778574856653716
 30
0.0
 10
-2.02984782893066
 20
-1.792128355773174
 30
0.0
  0
SPLINE
  5
21C
330
210
100
AcDbEntity
  8
0
  6
Continuous
 62
     7
370
    25
100
AcDbSpline
210
0.0
220
0.0
230
1.0
 70
     8
 71
     3
 72
    36
 73
    32
 74
     0
 42
0.000000001
 43
0.00000001
 40
0.0
 40
0.0
 40
0.0
 40
0.0
 40
0.0191505928442139
 40
0.0553532810786062
 40
0.0915342005917752
 40
0.1276862111118795
 40
0.1638066460631106
 40
0.1998973851268267
 40
0.23596293064927
 40
0.2720092249744368
 40
0.3080429672003504
 40
0.3440712442200599
 40
0.3801013465897292
 40
0.4161385051062326
 40
0.4521899132543288
 40
0.4882630410263107
 40
0.5243651960097883
 40
0.5605031991229754
 40
0.5966827676827331
 40
0.6329074201626046
 40
0.6691766449934724
 40
0.7054830264589705
 40
0.741805163318555
 40
0.7780956094468426
 40
0.8142913585551823
 40
0.8503089693405378
 40
0.8860573467173932
 40
0.9214643411166049
 40
0.9565097932991744
 40
0.9912478575019845
 40
1.0
 40
1.0
 40
1.0
 40
1.0
 10
-2.02984782893066
 20
-1.792128355773174
 30
0.0
 10
-2.02972664978882
 20
-1.802421759950652
 30
0.0
 10
-2.029376391018574
 20
-1.832174034427301
 30
0.0
 10
-2.025507646950392
 20
-1.882947857348702
 30
0.0
 10
-2.016909632169839
 20
-1.944632886369833
 30
0.0
 10
-2.004113891972466
 20
-2.007484894330486
 30
0.0
 10
-1.987307078752173
 20
-2.071027732113642
 30
0.0
 10
-1.966605142807391
 20
-2.13483433372997
 30
0.0
 10
-1.942171467607784
 20
-2.198464227895671
 30
0.0
 10
-1.914184230896954
 20
-2.26148230209433
 30
0.0
 10
-1.882844145703815
 20
-2.323456219538055
 30
0.0
 10
-1.848371136770465
 20
-2.38396011534069
 30
0.0
 10
-1.811004381948823
 20
-2.442575732857032
 30
0.0
 10
-1.771000133611646
 20
-2.498896425770719
 30
0.0
 10
-1.72862974063694
 20
-2.55252999428996
 30
0.0
 10
-1.684176545850461
 20
-2.603102028437263
 30
0.0
 10
-1.637934335679571
 20
-2.650256811225757
 30
0.0
 10
-1.590205315365569
 20
-2.693658673679906
 30
0.0
 10
-1.541298252090122
 20
-2.732992933659865
 30
0.0
 10
-1.491527234949349
 20
-2.767966237771601
 30
0.0
 10
-1.44121158668798
 20
-2.798306366043191
 30
0.0
 10
-1.390678864025059
 20
-2.82376135907714
 30
0.0
 10
-1.340273687993941
 20
-2.844098721971633
 30
0.0
 10
-1.290360735191289
 20
-2.859114151603422
 30
0.0
 10
-1.241332326355895
 20
-2.868637959042755
 30
0.0
 10
-1.193595302140986
 20
-2.872568340105766
 30
0.0
 10
-1.147601841020323
 20
-2.870827643406461
 30
0.0
 10
-1.10368732882698
 20
-2.86360535100395
 30
0.0
 10
-1.062551381728038
 20
-2.85051298251495
 30
0.0
 10
-1.033042321559245
 20
-2.837829397711991
 30
0.0
 10
-1.018357474329851
 20
-2.827987649486724
 30
0.0
 10
-1.015402237156632
 20
-2.826007056856074
 30
0.0
  0
SPLINE
  5
21F
330
210
100
AcDbEntity
  8
0
  6
Continuous
 62
     7
370
    25
100
AcDbSpline
210
0.0
220
0.0
230
1.0
 70
     8
 71
     3
 72
    15
 73
    11
 74
     0
 42
0.000000001
 43
0.00000001
 40
0.0
 40
0.0
 40
0.0
 40
0.0
 40
0.0817239573744684
 40
0.2156263093263011
 40
0.3502007117891481
 40
0.485912367664815
 40
0.6229922712898712
 40
0.7601971458138859
 40
0.8787029904734711
 40
1.0
 40
1.0
 40
1.0
 40
1.0
 10
-0.8979134646680772
 20
-0.9429873505930245
 30
0.0
 10
-0.903991860932292
 20
-0.943124348233208
 30
0.0
 10
-0.920029534524992
 20
-0.9434858125637205
 30
0.0
 10
-0.9452414849527958
 20
-0.9480862141852067
 30
0.0
 10
-0.972287903470152
 20
-0.9562599870911888
 30
0.0
 10
-0.9963780071727771
 20
-0.9679271289516923
 30
0.0
 10
-1.016603644852465
 20
-0.9827145381604213
 30
0.0
 10
-1.031133012342934
 20
-0.9997125603200402
 30
0.0
 10
-1.040490465613126
 20
-1.01826609966309
 30
0.0
 10
-1.041678215970678
 20
-1.031023401653126
 30
0.0
 10
-1.042279003508942
 20
-1.037476296412324
 30
0.0
  0
SPLINE
  5
220
330
210
100
AcDbEntity
  8
0
  6
Continuous
 62
     7
370
    25
100
AcDbSpline
210
0.0
220
0.0
230
1.0
 70
     8
 71
     3
 72
    16
 73
    12
 74
     0
 42
0.000000001
 43
0.00000001
 40
0.0
 40
0.0
 40
0.0
 40
0.0
 40
0.1089887362804473
 40
0.2208480108097498
 40
0.335193299662988
 40
0.4545971360052093
 40
0.5780407906263187
 40
0.7029147749310162
 40
0.8275258984007087
 40
0.9517784731641165
 40
1.0
 40
1.0
 40
1.0
 40
1.0
 10
-0.7393896752989925
 20
-1.039398013023022
 30
0.0
 10
-0.7397716621480889
 20
-1.033148776555216
 30
0.0
 10
-0.7405456965910732
 20
-1.020485711635889
 30
0.0
 10
-0.7488633191803552
 20
-1.002494015070444
 30
0.0
 10
-0.7618289682555743
 20
-0.9860262733784978
 30
0.0
 10
-0.7797426121702574
 20
-0.971485197750428
 30
0.0
 10
-0.8021061550784694
 20
-0.9593372470137916
 30
0.0
 10
-0.8281254470208501
 20
-0.9500712584507485
 30
0.0
 10
-0.8565839669647559
 20
-0.9443792769163538
 30
0.0
 10
-0.8803288027513392
 20
-0.9419865790976304
 30
0.0
 10
-0.894071253326918
 20
-0.9427686841433813
 30
0.0
 10
-0.8979134646680772
 20
-0.9429873505930245
 30
0.0
  0
SPLINE
  5
226
330
210
100
AcDbEntity
  8
0
  6
Continuous
 62
     7
370
    25
100
AcDbSpline
210
0.0
220
0.0
230
1.0
 70
     8
 71
     3
 72
    33
 73
    29
 74
     0
 42
0.000000001
 43
0.00000001
 40
0.0
 40
0.0
 40
0.0
 40
0.0
 40
0.0229672071850383
 40
0.0628380464031239
 40
0.1024979965359814
 40
0.1420029131458331
 40
0.1814096666578708
 40
0.2207638687472695
 40
0.2600974208967391
 40
0.2994279227284226
 40
0.3387662438798358
 40
0.3781195407324503
 40
0.417490506122531
 40
0.4568790590724564
 40
0.4962834692560614
 40
0.5357010675825606
 40
0.5751286751993335
 40
0.6145628494219993
 40
0.6540000152721892
 40
0.6934363007570343
 40
0.7328670337584382
 40
0.7722885198853854
 40
0.8116970943055586
 40
0.8510892113241546
 40
0.8904616223639242
 40
0.9298116987442725
 40
0.9691379824686575
 40
1.0
 40
1.0
 40
1.0
 40
1.0
 10
-0.5714902102756233
 20
1.892635715200325
 30
0.0
 10
-0.5635710796850917
 20
1.893590896591072
 30
0.0
 10
-0.5419044185403096
 20
1.896204263208594
 30
0.0
 10
-0.5040754254715802
 20
1.894627282770057
 30
0.0
 10
-0.4586724634124441
 20
1.888414549301585
 30
0.0
 10
-0.411816783552915
 20
1.876742588324128
 30
0.0
 10
-0.3639481544602138
 20
1.859995076678523
 30
0.0
 10
-0.3153462137012577
 20
1.838194587737742
 30
0.0
 10
-0.2663509235084591
 20
1.811497599380554
 30
0.0
 10
-0.2173014456040984
 20
1.78006806830075
 30
0.0
 10
-0.1685460780516487
 20
1.744113142082285
 30
0.0
 10
-0.1204324873413851
 20
1.703872193635586
 30
0.0
 10
-0.0733055069703115
 20
1.659617979490522
 30
0.0
 10
-0.0275040900160103
 20
1.611654591583318
 30
0.0
 10
0.0166420819730087
 20
1.560314978580888
 30
0.0
 10
0.0588156022660055
 20
1.505958025809593
 30
0.0
 10
0.0987139380655601
 20
1.448965599135303
 30
0.0
 10
0.1360517488800395
 20
1.389739529907253
 30
0.0
 10
0.1705629407220915
 20
1.328698683156544
 30
0.0
 10
0.2020023857748725
 20
1.266276338483741
 30
0.0
 10
0.2301483198022873
 20
1.202916469459896
 30
0.0
 10
0.25480337146635
 20
1.139070865512116
 30
0.0
 10
0.2757989589604397
 20
1.075193767647396
 30
0.0
 10
0.2929863409621522
 20
1.011745440414633
 30
0.0
 10
0.3062759669757285
 20
0.9491650849035118
 30
0.0
 10
0.3154971723180666
 20
0.8879554729799017
 30
0.0
 10
0.3205386226632347
 20
0.8326145883283321
 30
0.0
 10
0.3210958529597011
 20
0.7986193145220616
 30
0.0
 10
0.3213408688793182
 20
0.783671485362194
 30
0.0
  0
SPLINE
  5
227
330
210
100
AcDbEntity
  8
0
  6
Continuous
 62
     7
370
    25
100
AcDbSpline
210
0.0
220
0.0
230
1.0
 70
     8
 71
     3
 72
    15
 73
    11
 74
     0
 42
0.000000001
 43
0.00000001
 40
0.0
 40
0.0
 40
0.0
 40
0.0
 40
0.0761497862561952
 40
0.2211600142491121
 40
0.3661615410599114
 40
0.5111921849096435
 40
0.6563590671225873
 40
0.801820770864231
 40
0.9477853425558491
 40
1.0
 40
1.0
 40
1.0
 40
1.0
 10
0.3213408688793182
 20
0.783671485362194
 30
0.0
 10
0.3212284944803341
 20
0.7738517305069472
 30
0.0
 10
0.3209021281843482
 20
0.7453324498828008
 30
0.0
 10
0.3172757077791749
 20
0.7001275004725328
 30
0.0
 10
0.3091868800388506
 20
0.6493781641750204
 30
0.0
 10
0.2971233853393713
 20
0.6021166233143121
 30
0.0
 10
0.2813370700077961
 20
0.5585069359133641
 30
0.0
 10
0.2616607587079615
 20
0.5192186146300246
 30
0.0
 10
0.2440813779884038
 20
0.4908108154819012
 30
0.0
 10
0.232009410647518
 20
0.4771656535071347
 30
0.0
 10
0.2288287865118297
 20
0.4735705367969256
 30
0.0
  0
SPLINE
  5
228
330
210
100
AcDbEntity
  8
0
  6
Continuous
 62
     7
370
    25
100
AcDbSpline
210
0.0
220
0.0
230
1.0
 70
     8
 71
     3
 72
    14
 73
    10
 74
     0
 42
0.000000001
 43
0.00000001
 40
0.0
 40
0.0
 40
0.0
 40
0.0
 40
0.0270754760024637
 40
0.2066257295638071
 40
0.387637959650671
 40
0.570020730297639
 40
0.7534158065012116
 40
0.9374102406200984
 40
1.0
 40
1.0
 40
1.0
 40
1.0
 10
-1.599467730278663
 20
3.835964983468603
 30
0.0
 10
-1.600658338083412
 20
3.834574526701291
 30
0.0
 10
-1.609744427881359
 20
3.823963295196191
 30
0.0
 10
-1.623202634646714
 20
3.799901063475493
 30
0.0
 10
-1.639402148642396
 20
3.763850564253512
 30
0.0
 10
-1.651266072087262
 20
3.723549238982399
 30
0.0
 10
-1.659049444310741
 20
3.679898932640495
 30
0.0
 10
-1.661926550379316
 20
3.643580580767058
 30
0.0
 10
-1.662126433211335
 20
3.621953586369277
 30
0.0
 10
-1.662177168897929
 20
3.616464068341941
 30
0.0
  0
SPLINE
  5
22C
330
210
100
AcDbEntity
  8
0
  6
Continuous
 62
     7
370
    25
100
AcDbSpline
210
0.0
220
0.0
230
1.0
 70
     8
 71
     3
 72
    33
 73
    29
 74
     0
 42
0.000000001
 43
0.00000001
 40
0.0
 40
0.0
 40
0.0
 40
0.0
 40
0.0229672071850378
 40
0.0628380464031235
 40
0.1024979965359798
 40
0.1420029131458301
 40
0.1814096666578716
 40
0.2207638687472699
 40
0.2600974208967378
 40
0.2994279227284213
 40
0.3387662438798344
 40
0.3781195407324481
 40
0.4174905061225288
 40
0.4568790590724541
 40
0.49628346925606
 40
0.5357010675825572
 40
0.5751286751993312
 40
0.6145628494219985
 40
0.6540000152721861
 40
0.6934363007570303
 40
0.7328670337584339
 40
0.7722885198853816
 40
0.8116970943055541
 40
0.8510892113241522
 40
0.8904616223639201
 40
0.9298116987442692
 40
0.9691379824686529
 40
0.9999999999999999
 40
0.9999999999999999
 40
0.9999999999999999
 40
0.9999999999999999
 10
-0.571490210275584
 20
-0.6791463694791797
 30
0.0
 10
-0.5635710796850526
 20
-0.6781911880884336
 30
0.0
 10
-0.5419044185402708
 20
-0.675577821470911
 30
0.0
 10
-0.5040754254715416
 20
-0.677154801909448
 30
0.0
 10
-0.4586724634124068
 20
-0.6833675353779192
 30
0.0
 10
-0.4118167835528772
 20
-0.6950394963553762
 30
0.0
 10
-0.3639481544601753
 20
-0.7117870080009818
 30
0.0
 10
-0.3153462137012183
 20
-0.7335874969417621
 30
0.0
 10
-0.2663509235084206
 20
-0.7602844852989512
 30
0.0
 10
-0.2173014456040607
 20
-0.7917140163787539
 30
0.0
 10
-0.1685460780516113
 20
-0.8276689425972182
 30
0.0
 10
-0.120432487341348
 20
-0.8679098910439175
 30
0.0
 10
-0.0733055069702746
 20
-0.9121641051889808
 30
0.0
 10
-0.0275040900159729
 20
-0.9601274930961846
 30
0.0
 10
0.0166420819730454
 20
-1.011467106098615
 30
0.0
 10
0.0588156022660423
 20
-1.065824058869908
 30
0.0
 10
0.0987139380655975
 20
-1.1228164855442
 30
0.0
 10
0.1360517488800768
 20
-1.182042554772249
 30
0.0
 10
0.1705629407221288
 20
-1.243083401522957
 30
0.0
 10
0.2020023857749093
 20
-1.305505746195758
 30
0.0
 10
0.2301483198023242
 20
-1.368865615219603
 30
0.0
 10
0.2548033714663873
 20
-1.432711219167383
 30
0.0
 10
0.2757989589604772
 20
-1.496588317032103
 30
0.0
 10
0.2929863409621903
 20
-1.560036644264867
 30
0.0
 10
0.3062759669757669
 20
-1.622616999775987
 30
0.0
 10
0.3154971723181054
 20
-1.683826611699597
 30
0.0
 10
0.3205386226632743
 20
-1.73916749635117
 30
0.0
 10
0.3210958529597404
 20
-1.773162770157442
 30
0.0
 10
0.3213408688793576
 20
-1.788110599317311
 30
0.0
  0
SPLINE
  5
22D
330
210
100
AcDbEntity
  8
0
  6
Continuous
 62
     7
370
    25
100
AcDbSpline
210
0.0
220
0.0
230
1.0
 70
     8
 71
     3
 72
    15
 73
    11
 74
     0
 42
0.000000001
 43
0.00000001
 40
0.0
 40
0.0
 40
0.0
 40
0.0
 40
0.076149786256195
 40
0.2211600142491114
 40
0.3661615410599102
 40
0.5111921849096417
 40
0.6563590671225851
 40
0.8018207708642282
 40
0.9477853425558505
 40
1.0
 40
1.0
 40
1.0
 40
1.0
 10
0.3213408688793576
 20
-1.788110599317311
 30
0.0
 10
0.3212284944803736
 20
-1.797930354172558
 30
0.0
 10
0.3209021281843876
 20
-1.826449634796705
 30
0.0
 10
0.3172757077792145
 20
-1.871654584206973
 30
0.0
 10
0.3091868800388899
 20
-1.922403920504485
 30
0.0
 10
0.2971233853394106
 20
-1.969665461365194
 30
0.0
 10
0.2813370700078355
 20
-2.01327514876614
 30
0.0
 10
0.2616607587080009
 20
-2.052563470049481
 30
0.0
 10
0.2440813779884428
 20
-2.080971269197604
 30
0.0
 10
0.2320094106475569
 20
-2.094616431172371
 30
0.0
 10
0.2288287865118687
 20
-2.098211547882581
 30
0.0
  0
SPLINE
  5
22E
330
210
100
AcDbEntity
  8
0
  6
Continuous
 62
     7
370
    25
100
AcDbSpline
210
0.0
220
0.0
230
1.0
 70
     8
 71
     3
 72
    13
 73
     9
 74
     0
 42
0.000000001
 43
0.00000001
 40
0.0
 40
0.0
 40
0.0
 40
0.0
 40
0.0989549126558023
 40
0.2867128961040236
 40
0.4745717816967308
 40
0.6621633493325043
 40
0.8490914588479115
 40
1.0
 40
1.0
 40
1.0
 40
1.0
 10
0.7000489463424889
 20
-4.171967393347254
 30
0.0
 10
0.7074827281654461
 20
-4.176121143885311
 30
0.0
 10
0.7290214376469961
 20
-4.18815625982344
 30
0.0
 10
0.7646893141443672
 20
-4.20429123064567
 30
0.0
 10
0.8066118088942248
 20
-4.218535902983723
 30
0.0
 10
0.8476440109097411
 20
-4.227161763740257
 30
0.0
 10
0.8850933139956247
 20
-4.230669200922426
 30
0.0
 10
0.9079153153688656
 20
-4.228611357930071
 30
0.0
 10
0.9181096945950447
 20
-4.227692138291577
 30
0.0
  0
SPLINE
  5
231
330
210
100
AcDbEntity
  8
0
  6
Continuous
 62
     7
370
    25
100
AcDbSpline
210
0.0
220
0.0
230
1.0
 70
     8
 71
     3
 72
    15
 73
    11
 74
     0
 42
0.000000001
 43
0.00000001
 40
0.0
 40
0.0
 40
0.0
 40
0.0
 40
0.1224299926084907
 40
0.2472377996989772
 40
0.3720773721318185
 40
0.4969738521914625
 40
0.6219520647515108
 40
0.7470352610842628
 40
0.8722424155611631
 40
1.0
 40
1.0
 40
1.0
 40
1.0
 10
-1.547885440352351
 20
-2.72685454510718
 30
0.0
 10
-1.53822123194938
 20
-2.743493367185429
 30
0.0
 10
-1.518705118532437
 20
-2.777094167712829
 30
0.0
 10
-1.48579346674464
 20
-2.825154007027493
 30
0.0
 10
-1.450471182507805
 20
-2.871078087380834
 30
0.0
 10
-1.412995943335335
 20
-2.913947937044113
 30
0.0
 10
-1.373801109756894
 20
-2.953413544874854
 30
0.0
 10
-1.333229092801196
 20
-2.988952615795645
 30
0.0
 10
-1.291411419133043
 20
-3.020854422246583
 30
0.0
 10
-1.263012931949372
 20
-3.038223492003557
 30
0.0
 10
-1.248670529368466
 20
-3.046995585717534
 30
0.0
  0
LWPOLYLINE
  5
232
330
210
100
AcDbEntity
  8
0
  6
Continuous
 62
     7
370
    25
100
AcDbPolyline
 90
       70
 70
   128
 43
0.0
 10
-0.9047626137
 20
0.1207416702
 10
-0.9070694285
 20
0.1805395284
 10
-0.9139707578
 20
0.2425052744
 10
-0.925409415
 20
0.3061254404
 10
-0.9412906158
 20
0.3708728498
 10
-0.9614827636
 20
0.4362109851
 10
-0.9858185399
 20
0.5015984339
 10
-1.0140962908
 20
0.5664933752
 10
-1.0460816979
 20
0.6303580692
 10
-1.0815097201
 20
0.6926633128
 10
-1.1200867896
 20
0.7528928251
 10
-1.1614932447
 20
0.8105475256
 10
-1.2053859785
 20
0.8651496691
 10
-1.2514012818
 20
0.9162468051
 10
-1.2991578576
 20
0.9634155266
 10
-1.3482599796
 20
1.0062649788
 10
-1.3983007723
 20
1.0444400977
 10
-1.4488655819
 20
1.077624552
 10
-1.4995354125
 20
1.1055433651
 10
-1.5498903979
 20
1.1279651928
 10
-1.5995132807
 20
1.1447042409
 10
-1.6479928703
 20
1.1556218042
 10
-1.6949274494
 20
1.1606274164
 10
-1.7399281033
 20
1.1596795994
 10
-1.7826219425
 20
1.1527862072
 10
-1.8226551923
 20
1.1400043606
 10
-1.8596961247
 20
1.1214399739
 10
-1.8934378067
 20
1.0972468776
 10
-1.9236006442
 20
1.0676255432
 10
-1.9499346985
 20
1.0328214224
 10
-1.9722217572
 20
0.9931229132
 10
-1.9902771428
 20
0.9488589699
 10
-2.0039512427
 20
0.9003963775
 10
-2.0131307489
 20
0.8481367122
 10
-2.0177395972
 20
0.7925130142
 10
-2.0177395972
 20
0.7339861989
 10
-2.0131307489
 20
0.6730412379
 10
-2.0039512427
 20
0.6101831404
 10
-1.9902771428
 20
0.5459327683
 10
-1.9722217572
 20
0.4808225205
 10
-1.9499346985
 20
0.415391921
 10
-1.9236006442
 20
0.3501831484
 10
-1.8934378067
 20
0.285736543
 10
-1.8596961247
 20
0.2225861298
 10
-1.8226551923
 20
0.161255193
 10
-1.7826219425
 20
0.1022519399
 10
-1.7399281033
 20
0.0460652903
 10
-1.6949274494
 20
-0.0068391758
 10
-1.6479928703
 20
-0.0560230751
 10
-1.5995132807
 20
-0.1010788545
 10
-1.5498903979
 20
-0.1416331675
 10
-1.4995354125
 20
-0.1773499684
 10
-1.4488655819
 20
-0.2079332964
 10
-1.3983007723
 20
-0.2331297286
 10
-1.3482599796
 20
-0.2527304792
 10
-1.2991578576
 20
-0.2665731304
 10
-1.2514012818
 20
-0.2745429775
 10
-1.2053859785
 20
-0.2765739799
 10
-1.1614932447
 20
-0.2726493081
 10
-1.1200867896
 20
-0.2628014831
 10
-1.0815097201
 20
-0.2471121071
 10
-1.0460816979
 20
-0.2257111873
 10
-1.0140962908
 20
-0.1987760583
 10
-0.9858185399
 20
-0.1665299132
 10
-0.9614827636
 20
-0.1292399537
 10
-0.9412906158
 20
-0.087215176
 10
-0.925409415
 20
-0.0408038108
 10
-0.9139707578
 20
0.0096095627
 10
-0.9070694285
 20
0.0636072035
 10
-0.9047626137
 20
0.1207416702
  0
SPLINE
  5
237
330
210
100
AcDbEntity
  8
0
  6
Continuous
 62
     7
370
    25
100
AcDbSpline
210
0.0
220
0.0
230
1.0
 70
     8
 71
     3
 72
    18
 73
    14
 74
     0
 42
0.000000001
 43
0.00000001
 40
0.0
 40
0.0
 40
0.0
 40
0.0
 40
0.0501274251257275
 40
0.154650348503587
 40
0.2580816207392884
 40
0.3598569896707349
 40
0.4615578512723978
 40
0.56482701576624
 40
0.6693111488117123
 40
0.7734352250846463
 40
0.8768141731170607
 40
0.9805228675695643
 40
1.0
 40
1.0
 40
1.0
 40
1.0
 10
-1.022160910538501
 20
1.293971867844242
 30
0.0
 10
-1.021342428268138
 20
1.289279101134449
 30
0.0
 10
-1.018817292216601
 20
1.27480123786309
 30
0.0
 10
-1.031182306592207
 20
1.251090021912221
 30
0.0
 10
-1.057079555160004
 20
1.228273616355886
 30
0.0
 10
-1.09440375270442
 20
1.214016257997109
 30
0.0
 10
-1.137974379418522
 20
1.209293359493916
 30
0.0
 10
-1.183796829289745
 20
1.213723441622684
 30
0.0
 10
-1.22670379772248
 20
1.226019928402238
 30
0.0
 10
-1.261975604653743
 20
1.244089559599918
 30
0.0
 10
-1.283829952978698
 20
1.265583225940365
 30
0.0
 10
-1.292940720156079
 20
1.282532094033814
 30
0.0
 10
-1.289791849551256
 20
1.291610984335658
 30
0.0
 10
-1.289293975961993
 20
1.293046463994356
 30
0.0
  0
LWPOLYLINE
  5
238
330
210
100
AcDbEntity
  8
0
  6
Continuous
 62
     7
370
    25
100
AcDbPolyline
 90
       14
 70
   128
 43
0.0
 10
-1.2537374575
 20
1.6958772186
 10
-1.2503837002
 20
1.6811712093
 10
-1.2405509814
 20
1.6674673903
 10
-1.2249093847
 20
1.6556996541
 10
-1.204524859
 20
1.6466699525
 10
-1.1807865761
 20
1.6409936448
 10
-1.1553122606
 20
1.6390575619
 10
-1.1298379451
 20
1.6409936448
 10
-1.1060996622
 20
1.6466699525
 10
-1.0857151365
 20
1.6556996541
 10
-1.0700735398
 20
1.6674673903
 10
-1.060240821
 20
1.6811712093
 10
-1.0568870637
 20
1.6958772186
 10
-1.0568870637
 20
1.6958772186
  0
LWPOLYLINE
  5
239
330
210
100
AcDbEntity
  8
0
  6
Continuous
 62
     7
370
    25
100
AcDbPolyline
 90
       70
 70
   128
 43
0.0
 10
-2.0183165998
 20
-1.8081993816
 10
-2.0160097851
 20
-1.8679972398
 10
-2.0091084558
 20
-1.9299629858
 10
-1.9976697986
 20
-1.9935831519
 10
-1.9817885978
 20
-2.0583305613
 10
-1.96159645
 20
-2.1236686965
 10
-1.9372606737
 20
-2.1890561453
 10
-1.9089829228
 20
-2.2539510867
 10
-1.8769975157
 20
-2.3178157806
 10
-1.8415694935
 20
-2.3801210242
 10
-1.802992424
 20
-2.4403505366
 10
-1.7615859689
 20
-2.498005237
 10
-1.7176932351
 20
-2.5526073805
 10
-1.6716779317
 20
-2.6037045165
 10
-1.623921356
 20
-2.6508732381
 10
-1.574819234
 20
-2.6937226903
 10
-1.5247784412
 20
-2.7318978091
 10
-1.4742136316
 20
-2.7650822635
 10
-1.4235438011
 20
-2.7930010766
 10
-1.3731888157
 20
-2.8154229043
 10
-1.3235659328
 20
-2.8321619523
 10
-1.2750863433
 20
-2.8430795156
 10
-1.2281517642
 20
-2.8480851278
 10
-1.1831511103
 20
-2.8471373109
 10
-1.1404572711
 20
-2.8402439187
 10
-1.1004240213
 20
-2.827462072
 10
-1.0633830889
 20
-2.8088976854
 10
-1.0296414069
 20
-2.784704589
 10
-0.9994785693
 20
-2.7550832546
 10
-0.9731445151
 20
-2.7202791339
 10
-0.9508574563
 20
-2.6805806246
 10
-0.9328020707
 20
-2.6363166813
 10
-0.9191279709
 20
-2.5878540889
 10
-0.9099484647
 20
-2.5355944237
 10
-0.9053396164
 20
-2.4799707256
 10
-0.9053396164
 20
-2.4214439103
 10
-0.9099484647
 20
-2.3604989493
 10
-0.9191279709
 20
-2.2976408518
 10
-0.9328020707
 20
-2.2333904797
 10
-0.9508574563
 20
-2.168280232
 10
-0.9731445151
 20
-2.1028496325
 10
-0.9994785693
 20
-2.0376408598
 10
-1.0296414069
 20
-1.9731942545
 10
-1.0633830889
 20
-1.9100438413
 10
-1.1004240213
 20
-1.8487129044
 10
-1.1404572711
 20
-1.7897096514
 10
-1.1831511103
 20
-1.7335230017
 10
-1.2281517642
 20
-1.6806185357
 10
-1.2750863433
 20
-1.6314346363
 10
-1.3235659328
 20
-1.5863788569
 10
-1.3731888157
 20
-1.5458245439
 10
-1.4235438011
 20
-1.510107743
 10
-1.4742136316
 20
-1.479524415
 10
-1.5247784412
 20
-1.4543279829
 10
-1.574819234
 20
-1.4347272322
 10
-1.623921356
 20
-1.4208845811
 10
-1.6716779317
 20
-1.412914734
 10
-1.7176932351
 20
-1.4108837315
 10
-1.7615859689
 20
-1.4148084034
 10
-1.802992424
 20
-1.4246562283
 10
-1.8415694935
 20
-1.4403456043
 10
-1.8769975157
 20
-1.4617465242
 10
-1.9089829228
 20
-1.4886816531
 10
-1.9372606737
 20
-1.5209277982
 10
-1.96159645
 20
-1.5582177578
 10
-1.9817885978
 20
-1.6002425354
 10
-1.9976697986
 20
-1.6466539006
 10
-2.0091084558
 20
-1.6970672742
 10
-2.0160097851
 20
-1.751064915
 10
-2.0183165998
 20
-1.8081993816
  0
SPLINE
  5
23E
330
210
100
AcDbEntity
  8
0
  6
Continuous
 62
     7
370
    25
100
AcDbSpline
210
0.0
220
0.0
230
1.0
 70
     8
 71
     3
 72
    10
 73
     6
 74
     0
 42
0.000000001
 43
0.00000001
 40
0.0
 40
0.0
 40
0.0
 40
0.0
 40
0.4247908592635233
 40
0.8494150681401355
 40
1.0
 40
1.0
 40
1.0
 40
1.0
 10
-0.9980227600605726
 20
-1.186944520876068
 30
0.0
 10
-1.008584473396372
 20
-1.17963586044987
 30
0.0
 10
-1.029703756585183
 20
-1.165021406869829
 30
0.0
 10
-1.042954036887966
 20
-1.145171531064567
 30
0.0
 10
-1.040987664418943
 20
-1.13378527005977
 30
0.0
 10
-1.040472884587941
 20
-1.130804442364038
 30
0.0
  0
SPLINE
  5
23F
330
210
100
AcDbEntity
  8
0
  6
Continuous
 62
     7
370
    25
100
AcDbSpline
210
0.0
220
0.0
230
1.0
 70
     8
 71
     3
 72
    15
 73
    11
 74
     0
 42
0.000000001
 43
0.00000001
 40
0.0
 40
0.0
 40
0.0
 40
0.0
 40
0.0394892453308296
 40
0.183403821852393
 40
0.326613897679139
 40
0.4676585124448044
 40
0.6084831740266033
 40
0.7513395845120143
 40
0.8953455035050143
 40
1.0
 40
1.0
 40
1.0
 40
1.0
 10
-0.7409610068048016
 20
-1.130870335827862
 30
0.0
 10
-0.7404663741939479
 20
-1.133905296254368
 30
0.0
 10
-0.738169102861376
 20
-1.14800086421797
 30
0.0
 10
-0.7513001196938937
 20
-1.172780487230191
 30
0.0
 10
-0.7795635450295204
 20
-1.198912261922669
 30
0.0
 10
-0.8212550383991631
 20
-1.215288651469484
 30
0.0
 10
-0.8701200489822323
 20
-1.220747477558315
 30
0.0
 10
-0.921448209453398
 20
-1.215716208378043
 30
0.0
 10
-0.9661224038124381
 20
-1.203320048351447
 30
0.0
 10
-0.9885736380226096
 20
-1.191795073526555
 30
0.0
 10
-0.9980227600605726
 20
-1.186944520876068
 30
0.0
  0
LWPOLYLINE
  5
240
330
210
100
AcDbEntity
  8
0
  6
Continuous
 62
     7
370
    25
100
AcDbPolyline
 90
       30
 70
   128
 43
0.0
 10
-0.9903951312
 20
-1.081416633
 10
-0.9666669373
 20
-1.0924273892
 10
-0.9393933091
 20
-1.1002360561
 10
-0.9098495313
 20
-1.104477509
 10
-0.879417038
 20
-1.1049534224
 10
-0.8495188189
 20
-1.1016415431
 10
-0.8215528813
 20
-1.0946967308
 10
-0.7968268816
 20
-1.0844437173
 10
-0.7764969798
 20
-1.0713619221
 10
-0.7615137797
 20
-1.0560630354
 10
-0.7525778791
 20
-1.0392624162
 10
-0.7501071107
 20
-1.0217456426
 10
-0.7542170048
 20
-1.0043317797
 10
-0.7647153875
 20
-0.9878350801
 10
-0.781111366
 20
-0.9730269114
 10
-0.8026382826
 20
-0.960599687
 10
-0.8282895626
 20
-0.9511344901
 10
-0.8568657806
 20
-0.9450739028
 10
-0.8870307444
 20
-0.9427013114
 10
-0.9173739739
 20
-0.9441276556
 10
-0.9464766534
 20
-0.9492862413
 10
-0.972977974
 20
-0.9579358586
 10
-0.9956387632
 20
-0.969672061
 10
-1.0133994279
 20
-0.9839460769
 10
-1.0254294991
 20
-1.000090469
 10
-1.031166464
 20
-1.0173503435
 10
-1.0303420685
 20
-1.0349186479
 10
-1.0229948604
 20
-1.0519739078
 10
-1.009468387
 20
-1.0677186382
 10
-0.9903951312
 20
-1.081416633
  0
LWPOLYLINE
  5
241
330
210
100
AcDbEntity
  8
0
  6
Continuous
 62
     7
370
    25
100
AcDbPolyline
 90
       10
 70
   128
 43
0.0
 10
-1.0857151365
 20
-3.0699499265
 10
-1.1060996622
 20
-3.0789796281
 10
-1.1298379451
 20
-3.0846559358
 10
-1.1553122606
 20
-3.0865920187
 10
-1.1807865761
 20
-3.0846559358
 10
-1.204524859
 20
-3.0789796281
 10
-1.2249093847
 20
-3.0699499265
 10
-1.2405509814
 20
-3.0581821903
 10
-1.2503837002
 20
-3.0444783713
 10
-1.2536023947
 20
-3.0327479942
  0
LWPOLYLINE
  5
24B
330
210
100
AcDbEntity
  8
0
  6
Continuous
 62
     7
370
    25
100
AcDbPolyline
 90
       15
 70
   128
 43
0.0
 10
0.6959712413
 20
-4.1629547003
 10
0.7411671935
 20
-4.1861148059
 10
0.7857947803
 20
-4.2031217353
 10
0.829292784
 20
-4.2137616166
 10
0.8711141919
 20
-4.217900647
 10
0.9107330757
 20
-4.2154867758
 10
0.9476512047
 20
-4.2065503589
 10
0.9814043122
 20
-4.1912037769
 10
1.0115679332
 20
-4.169640022
 10
1.0377627427
 20
-4.1421302708
 10
1.0596593257
 20
-4.1090204745
 10
1.0769823201
 20
-4.070727008
 10
1.0895138791
 20
-4.0277314339
 10
1.0970964111
 20
-3.9805744463
 10
1.0996345613
 20
-3.9298490719
  0
LWPOLYLINE
  5
24C
330
210
100
AcDbEntity
  8
0
  6
Continuous
 62
     7
370
    25
100
AcDbPolyline
 90
       15
 70
   128
 43
0.0
 10
-1.2527482344
 20
3.8415341838
 10
-1.2979441865
 20
3.8646942894
 10
-1.3425717733
 20
3.8817012189
 10
-1.3860697771
 20
3.8923411001
 10
-1.427891185
 20
3.8964801305
 10
-1.4675100687
 20
3.8940662594
 10
-1.5044281978
 20
3.8851298425
 10
-1.5381813053
 20
3.8697832604
 10
-1.5683449263
 20
3.8482195055
 10
-1.5945397357
 20
3.8207097543
 10
-1.6164363188
 20
3.7875999581
 10
-1.6337593132
 20
3.7493064916
 10
-1.6462908721
 20
3.7063109174
 10
-1.6538734041
 20
3.6591539299
 10
-1.6564115544
 20
3.6084285554
  0
LWPOLYLINE
  5
258
330
210
100
AcDbEntity
  8
0
  6
Continuous
 62
     7
370
    25
100
AcDbPolyline
 90
        3
 70
   128
 43
0.0
 10
-0.6861251811
 20
1.8444472206
 10
-0.6582036812
 20
1.8690300959
 10
-0.6539761574
 20
1.8722300195
  0
LWPOLYLINE
  5
259
330
210
100
AcDbEntity
  8
0
  6
Continuous
 62
     7
370
    25
100
AcDbPolyline
 90
        3
 70
   128
 43
0.0
 10
0.1807157133
 20
0.4263446262
 10
0.1452502191
 20
0.4136896445
 10
0.1405792829
 20
0.4123979206
  0
LWPOLYLINE
  5
25E
330
210
100
AcDbEntity
  8
0
  6
Continuous
 62
     7
370
    25
100
AcDbPolyline
 90
        3
 70
   128
 43
0.0
 10
-0.6861251811
 20
-0.7273348641
 10
-0.6582036812
 20
-0.7027519888
 10
-0.6539761574
 20
-0.6995520652
  0
LWPOLYLINE
  5
25F
330
210
100
AcDbEntity
  8
0
  6
Continuous
 62
     7
370
    25
100
AcDbPolyline
 90
        3
 70
   128
 43
0.0
 10
0.1807157133
 20
-2.1454374585
 10
0.1452502191
 20
-2.1580924402
 10
0.1405792829
 20
-2.1593841641
  0
LWPOLYLINE
  5
262
330
210
100
AcDbEntity
  8
0
  6
Continuous
 62
     8
370
    25
100
AcDbPolyline
 90
       10
 70
   128
 43
0.0
 10
-0.8490849144
 20
0.1207416702
 10
-0.8514384059
 20
0.0615854601
 10
-0.8584799315
 20
0.0056228245
 10
-0.870152797
 20
-0.0466956584
 10
-0.8863630193
 20
-0.0949487509
 10
-0.9069800832
 20
-0.1387479475
 10
-0.9318379922
 20
-0.1777406028
 10
-0.9607366052
 20
-0.2116127709
 10
-0.9934432474
 20
-0.240091733
 10
-1.012077962
 20
-0.2528219735
  0
LWPOLYLINE
  5
263
330
210
100
AcDbEntity
  8
0
  6
Continuous
 62
     8
370
    25
100
AcDbPolyline
 90
       28
 70
   128
 43
0.0
 10
-1.8470529891
 20
1.1742578624
 10
-1.83770693
 20
1.1794146181
 10
-1.7982027731
 20
1.1964645497
 10
-1.7557638602
 20
1.2075706767
 10
-1.7107318846
 20
1.212643579
 10
-1.6634694172
 20
1.2116424126
 10
-1.6143569877
 20
1.2045752384
 10
-1.5637900205
 20
1.191498957
 10
-1.5121756509
 20
1.1725188509
 10
-1.4599294477
 20
1.1477877369
 10
-1.4074720665
 20
1.1175047354
 10
-1.3552258633
 20
1.0819136671
 10
-1.3036114938
 20
1.0413010906
 10
-1.2530445266
 20
0.9959939943
 10
-1.203932097
 20
0.9463571645
 10
-1.1566696297
 20
0.8927902475
 10
-1.1116376541
 20
0.8357245329
 10
-1.0691987412
 20
0.7756194801
 10
-1.0296945842
 20
0.7129590197
 10
-0.9934432474
 20
0.6482476568
 10
-0.9607366052
 20
0.5820064094
 10
-0.9318379922
 20
0.514768613
 10
-0.9069800832
 20
0.4470756268
 10
-0.8863630193
 20
0.3794724749
 10
-0.870152797
 20
0.3125034581
 10
-0.8584799315
 20
0.2467077717
 10
-0.8514384059
 20
0.1826151637
 10
-0.8490849144
 20
0.1207416702
  0
LWPOLYLINE
  5
264
330
210
100
AcDbEntity
  8
0
  6
Continuous
 62
     8
370
    25
100
AcDbPolyline
 90
       37
 70
   128
 43
0.0
 10
-1.8470529891
 20
-1.3975242222
 10
-1.83770693
 20
-1.3923674666
 10
-1.7982027731
 20
-1.3753175349
 10
-1.7557638602
 20
-1.364211408
 10
-1.7107318846
 20
-1.3591385057
 10
-1.6634694172
 20
-1.360139672
 10
-1.6143569877
 20
-1.3672068463
 10
-1.5637900205
 20
-1.3802831277
 10
-1.5121756509
 20
-1.3992632337
 10
-1.4599294477
 20
-1.4239943477
 10
-1.4074720665
 20
-1.4542773493
 10
-1.3552258633
 20
-1.4898684176
 10
-1.3036114938
 20
-1.5304809941
 10
-1.2530445266
 20
-1.5757880904
 10
-1.203932097
 20
-1.6254249202
 10
-1.1566696297
 20
-1.6789918372
 10
-1.1116376541
 20
-1.7360575518
 10
-1.0691987412
 20
-1.7961626046
 10
-1.0296945842
 20
-1.858823065
 10
-0.9934432474
 20
-1.9235344279
 10
-0.9607366052
 20
-1.9897756753
 10
-0.9318379922
 20
-2.0570134717
 10
-0.9069800832
 20
-2.1247064579
 10
-0.8863630193
 20
-2.1923096098
 10
-0.870152797
 20
-2.2592786266
 10
-0.8584799315
 20
-2.325074313
 10
-0.8514384059
 20
-2.389166921
 10
-0.8490849144
 20
-2.4510404145
 10
-0.8514384059
 20
-2.5101966246
 10
-0.8584799315
 20
-2.5661592602
 10
-0.870152797
 20
-2.618477743
 10
-0.8863630193
 20
-2.6667308355
 10
-0.9069800832
 20
-2.7105300321
 10
-0.9318379922
 20
-2.7495226874
 10
-0.9607366052
 20
-2.7833948555
 10
-0.9934432474
 20
-2.8118738177
 10
-1.0155808612
 20
-2.8267569827
  0
LWPOLYLINE
  5
266
330
210
100
AcDbEntity
  8
0
  6
Continuous
 62
     8
370
    25
100
AcDbPolyline
 90
       13
 70
   128
 43
0.0
 10
-0.7392767238
 20
-1.0392021627
 10
-0.7394761137
 20
-1.0428638821
 10
-0.7444331719
 20
-1.0609316213
 10
-0.7557890504
 20
-1.0780095669
 10
-0.7730474428
 20
-1.0933513306
 10
-0.7954540745
 20
-1.1062864038
 10
-0.8220296683
 20
-1.1162494617
 10
-0.8516127431
 20
-1.1228050708
 10
-0.8829103766
 20
-1.1256667195
 10
-0.9145547121
 20
-1.1247093402
 10
-0.9451627403
 20
-1.1199747748
 10
-0.9733967434
 20
-1.1116699466
 10
-0.9980227601
 20
-1.1001578164
  0
LWPOLYLINE
  5
267
330
210
100
AcDbEntity
  8
0
  6
Continuous
 62
     8
370
    25
100
AcDbPolyline
 90
       14
 70
   128
 43
0.0
 10
0.3271064834
 20
0.7756359725
 10
0.3248023922
 20
0.716026517
 10
0.3179076541
 20
0.6595309726
 10
0.3064747423
 20
0.6065793045
 10
0.2905906681
 20
0.5575745067
 10
0.2703763188
 20
0.5128895355
 10
0.245985538
 20
0.4728644703
 10
0.2176039541
 20
0.4378039262
 10
0.1854475682
 20
0.407974735
 10
0.1497611098
 20
0.3836039149
 10
0.1108161743
 20
0.3648769426
 10
0.0689091563
 20
0.3519363416
 10
0.0243589934
 20
0.3448805977
 10
0.0234905867
 20
0.3448040551
  0
LWPOLYLINE
  5
268
330
210
100
AcDbEntity
  8
0
  6
Continuous
 62
     8
370
    25
100
AcDbPolyline
 90
       32
 70
   128
 43
0.0
 10
-0.8032138773
 20
1.7768533551
 10
-0.802762531
 20
1.7774970979
 10
-0.7743809472
 20
1.812557642
 10
-0.7422245613
 20
1.8423868332
 10
-0.7065381028
 20
1.8667576533
 10
-0.6675931674
 20
1.8854846256
 10
-0.6256861494
 20
1.8984252266
 10
-0.5811359865
 20
1.9054809705
 10
-0.5342817325
 20
1.9065981589
 10
-0.4854799764
 20
1.9017682892
 10
-0.4351021291
 20
1.8910281196
 10
-0.3835315964
 20
1.8744593894
 10
-0.3311608612
 20
1.8521881966
 10
-0.2783884965
 20
1.8243840384
 10
-0.2256161318
 20
1.7912585212
 10
-0.1732453967
 20
1.7530637503
 10
-0.121674864
 20
1.7100904109
 10
-0.0712970167
 20
1.662665556
 10
-0.0224952606
 20
1.6111501175
 10
0.0243589934
 20
1.5559361589
 10
0.0689091563
 20
1.4974438918
 10
0.1108161743
 20
1.4361184777
 10
0.1497611098
 20
1.37242664
 10
0.1854475682
 20
1.306853112
 10
0.2176039541
 20
1.2398969479
 10
0.245985538
 20
1.1720677246
 10
0.2703763188
 20
1.1038816633
 10
0.2905906681
 20
1.0358577012
 10
0.3064747423
 20
0.9685135417
 10
0.3179076541
 20
0.9023617145
 10
0.3248023922
 20
0.8379056749
 10
0.3271064834
 20
0.7756359725
  0
LWPOLYLINE
  5
269
330
210
100
AcDbEntity
  8
0
  6
Continuous
 62
     8
370
    25
100
AcDbPolyline
 90
       14
 70
   128
 43
0.0
 10
0.3271064834
 20
-1.7961461122
 10
0.3248023922
 20
-1.8557555676
 10
0.3179076541
 20
-1.912251112
 10
0.3064747423
 20
-1.9652027802
 10
0.2905906681
 20
-2.014207578
 10
0.2703763188
 20
-2.0588925492
 10
0.245985538
 20
-2.0989176144
 10
0.2176039541
 20
-2.1339781585
 10
0.1854475682
 20
-2.1638073497
 10
0.1497611098
 20
-2.1881781697
 10
0.1108161743
 20
-2.2069051421
 10
0.0689091563
 20
-2.2198457431
 10
0.0243589934
 20
-2.226901487
 10
0.0234905867
 20
-2.2269780296
  0
LWPOLYLINE
  5
26A
330
210
100
AcDbEntity
  8
0
  6
Continuous
 62
     8
370
    25
100
AcDbPolyline
 90
       32
 70
   128
 43
0.0
 10
-0.8032138773
 20
-0.7949287296
 10
-0.802762531
 20
-0.7942849868
 10
-0.7743809472
 20
-0.7592244427
 10
-0.7422245613
 20
-0.7293952515
 10
-0.7065381028
 20
-0.7050244314
 10
-0.6675931674
 20
-0.6862974591
 10
-0.6256861494
 20
-0.673356858
 10
-0.5811359865
 20
-0.6663011141
 10
-0.5342817325
 20
-0.6651839258
 10
-0.4854799764
 20
-0.6700137955
 10
-0.4351021291
 20
-0.6807539651
 10
-0.3835315964
 20
-0.6973226953
 10
-0.3311608612
 20
-0.7195938881
 10
-0.2783884965
 20
-0.7473980463
 10
-0.2256161318
 20
-0.7805235635
 10
-0.1732453967
 20
-0.8187183344
 10
-0.121674864
 20
-0.8616916738
 10
-0.0712970167
 20
-0.9091165287
 10
-0.0224952606
 20
-0.9606319672
 10
0.0243589934
 20
-1.0158459258
 10
0.0689091563
 20
-1.0743381929
 10
0.1108161743
 20
-1.135663607
 10
0.1497611098
 20
-1.1993554447
 10
0.1854475682
 20
-1.2649289727
 10
0.2176039541
 20
-1.3318851367
 10
0.245985538
 20
-1.3997143601
 10
0.2703763188
 20
-1.4679004214
 10
0.2905906681
 20
-1.5359243835
 10
0.3064747423
 20
-1.603268543
 10
0.3179076541
 20
-1.6694203702
 10
0.3248023922
 20
-1.7338764097
 10
0.3271064834
 20
-1.7961461122
  0
LINE
  5
273
330
210
100
AcDbEntity
  8
0
  6
Continuous
 62
     7
370
    25
100
AcDbLine
 10
-0.6221436044
 20
1.8813829987
 30
0.0
 11
-1.0511078282
 21
1.6337472234
 31
0.0
  0
LINE
  5
274
330
210
100
AcDbEntity
  8
0
  6
Continuous
 62
     7
370
    25
100
AcDbLine
 10
-1.2710508876
 20
1.5067767978
 30
0.0
 11
-1.8470529891
 21
1.1742578624
 31
0.0
  0
LINE
  5
275
330
210
100
AcDbEntity
  8
0
  6
Continuous
 62
     7
370
    25
100
AcDbLine
 10
-1.0203485251
 20
-0.2577914376
 30
0.0
 11
0.2045608596
 21
0.4493336987
 31
0.0
  0
LINE
  5
276
330
210
100
AcDbEntity
  8
0
  6
Continuous
 62
     7
370
    25
100
AcDbLine
 10
-1.0202584181
 20
1.2941515382
 30
0.0
 11
-1.0569007127
 21
1.6975163058
 31
0.0
  0
LINE
  5
277
330
210
100
AcDbEntity
  8
0
  6
Continuous
 62
     7
370
    25
100
AcDbLine
 10
-1.2537238085
 20
1.6975163058
 30
0.0
 11
-1.2904504174
 21
1.293223391
 31
0.0
  0
LINE
  5
278
330
210
100
AcDbEntity
  8
0
  6
Continuous
 62
     7
370
    25
100
AcDbLine
 10
-0.6221436044
 20
-0.690399086
 30
0.0
 11
-1.8470529891
 21
-1.3975242222
 31
0.0
  0
LINE
  5
279
330
210
100
AcDbEntity
  8
0
  6
Continuous
 62
     7
370
    25
100
AcDbLine
 10
-1.0203485251
 20
-2.8295735222
 30
0.0
 11
0.2045608596
 21
-2.122448386
 31
0.0
  0
LINE
  5
27A
330
210
100
AcDbEntity
  8
0
  6
Continuous
 62
     7
370
    25
100
AcDbLine
 10
-0.7392683857
 20
-1.1307979168
 30
0.0
 11
-0.7392683857
 21
-1.038284367
 31
0.0
  0
LINE
  5
27B
330
210
100
AcDbEntity
  8
0
  6
Continuous
 62
     7
370
    25
100
AcDbLine
 10
-1.042417992
 20
-1.038284367
 30
0.0
 11
-1.042417992
 21
-1.1307484092
 31
0.0
  0
LINE
  5
27C
330
210
100
AcDbEntity
  8
0
  6
Continuous
 62
     7
370
    25
100
AcDbLine
 10
-1.2690808965
 20
-2.8623579472
 30
0.0
 11
-1.2536023947
 21
-3.0327479942
 31
0.0
  0
LINE
  5
27D
330
210
100
AcDbEntity
  8
0
  6
Continuous
 62
     7
370
    25
100
AcDbLine
 10
-1.0570221265
 20
-3.0327479942
 30
0.0
 11
-1.0394130473
 21
-2.8389041791
 31
0.0
  0
LINE
  5
27E
330
210
100
AcDbEntity
  8
0
  6
Continuous
 62
     7
370
    25
100
AcDbLine
 10
-1.4366444301
 20
3.9511289629
 30
0.0
 11
-1.5340804038
 21
3.8948803725
 31
0.0
  0
LINE
  5
27F
330
210
100
AcDbEntity
  8
0
  6
Continuous
 62
     7
370
    25
100
AcDbLine
 10
-1.6621771689
 20
3.6164640683
 30
0.0
 11
-1.6621771689
 21
1.2809844017
 31
0.0
  0
LINE
  5
280
330
210
100
AcDbEntity
  8
0
  6
Continuous
 62
     7
370
    25
100
AcDbLine
 10
-1.6621771689
 20
-0.052896223
 30
0.0
 11
-1.6621771689
 21
-1.290797683
 31
0.0
  0
LINE
  5
281
330
210
100
AcDbEntity
  8
0
  6
Continuous
 62
     7
370
    25
100
AcDbLine
 10
1.0051422604
 20
-4.2002298631
 30
0.0
 11
1.1025782342
 21
-4.1439812727
 31
0.0
  0
LINE
  5
282
330
210
100
AcDbEntity
  8
0
  6
Continuous
 62
     7
370
    25
100
AcDbLine
 10
-1.1196168226
 20
-3.1214967049
 30
0.0
 11
0.7000489463
 21
-4.1719673933
 31
0.0
  0
LINE
  5
283
330
210
100
AcDbEntity
  8
0
  6
Continuous
 62
     7
370
    25
100
AcDbLine
 10
-1.012077962
 20
-0.2528219735
 30
0.0
 11
-1.0203485251
 21
-0.2577914376
 31
0.0
  0
LINE
  5
284
330
210
100
AcDbEntity
  8
0
  6
Continuous
 62
     7
370
    25
100
AcDbLine
 10
-1.851820653
 20
1.171441323
 30
0.0
 11
-1.8470529891
 21
1.1742578624
 31
0.0
  0
LINE
  5
285
330
210
100
AcDbEntity
  8
0
  6
Continuous
 62
     7
370
    25
100
AcDbLine
 10
-0.6131242068
 20
1.8863673967
 30
0.0
 11
-0.6221436044
 21
1.8813829987
 31
0.0
  0
LINE
  5
286
330
210
100
AcDbEntity
  8
0
  6
Continuous
 62
     7
370
    25
100
AcDbLine
 10
0.2045608596
 20
0.4493336987
 30
0.0
 11
0.2133876728
 21
0.4546516989
 31
0.0
  0
LINE
  5
287
330
210
100
AcDbEntity
  8
0
  6
Continuous
 62
     7
370
    25
100
AcDbLine
 10
-1.8553235522
 20
-1.4024936863
 30
0.0
 11
-1.8470529891
 21
-1.3975242222
 31
0.0
  0
LINE
  5
288
330
210
100
AcDbEntity
  8
0
  6
Continuous
 62
     7
370
    25
100
AcDbLine
 10
-1.0155808612
 20
-2.8267569827
 30
0.0
 11
-1.0203485251
 21
-2.8295735222
 31
0.0
  0
LINE
  5
289
330
210
100
AcDbEntity
  8
0
  6
Continuous
 62
     7
370
    25
100
AcDbLine
 10
0.2045608596
 20
-2.122448386
 30
0.0
 11
0.2133876728
 21
-2.1171303858
 31
0.0
  0
LINE
  5
28A
330
210
100
AcDbEntity
  8
0
  6
Continuous
 62
     7
370
    25
100
AcDbLine
 10
-0.6131242068
 20
-0.685414688
 30
0.0
 11
-0.6221436044
 21
-0.690399086
 31
0.0
  0
LINE
  5
28B
330
210
100
AcDbEntity
  8
0
  6
Continuous
 62
     7
370
    25
100
AcDbLine
 10
1.1274734109
 20
2.0173969989
 30
0.0
 11
1.2249093847
 21
2.0736455893
 31
0.0
  0
LINE
  5
28C
330
210
100
AcDbEntity
  8
0
  6
Continuous
 62
     7
370
    25
100
AcDbLine
 10
0.7098906662
 20
2.7406715272
 30
0.0
 11
0.8073266399
 21
2.7969201175
 31
0.0
  0
LINE
  5
28D
330
210
100
AcDbEntity
  8
0
  6
Continuous
 62
     7
370
    25
100
AcDbLine
 10
1.0996345613
 20
-3.9298490719
 30
0.0
 11
1.0996345613
 21
2.0173969989
 31
0.0
  0
LINE
  5
28E
330
210
100
AcDbEntity
  8
0
  6
Continuous
 62
     7
370
    25
100
AcDbLine
 10
0.6959712413
 20
2.7165623762
 30
0.0
 11
-1.2527482344
 21
3.8415341838
 31
0.0
  0
LINE
  5
28F
330
210
100
AcDbEntity
  8
0
  6
Continuous
 62
     7
370
    25
100
AcDbLine
 10
1.1274734109
 20
2.0173969989
 30
0.0
 11
1.1274734109
 21
-3.9298490719
 31
0.0
  0
LINE
  5
290
330
210
100
AcDbEntity
  8
0
  6
Continuous
 62
     7
370
    25
100
AcDbLine
 10
-1.2388288096
 20
3.8656433348
 30
0.0
 11
0.7098906662
 21
2.7406715272
 31
0.0
  0
LINE
  5
291
330
210
100
AcDbEntity
  8
0
  6
Continuous
 62
     7
370
    25
100
AcDbLine
 10
1.1274734109
 20
-3.9298490719
 30
0.0
 11
1.2249093847
 21
-3.8736004815
 31
0.0
  0
LINE
  5
292
330
210
100
AcDbEntity
  8
0
  6
Continuous
 62
     7
370
    25
100
AcDbLine
 10
1.2249093847
 20
-3.8736004815
 30
0.0
 11
1.2249093847
 21
2.0736455893
 31
0.0
  0
LINE
  5
293
330
210
100
AcDbEntity
  8
0
  6
Continuous
 62
     7
370
    25
100
AcDbLine
 10
-1.2388288096
 20
3.8656433348
 30
0.0
 11
-1.1413928358
 21
3.9218919252
 31
0.0
  0
LINE
  5
294
330
210
100
AcDbEntity
  8
0
  6
Continuous
 62
     7
370
    25
100
AcDbLine
 10
0.8073266399
 20
2.7969201175
 30
0.0
 11
-1.1413928358
 21
3.9218919252
 31
0.0
  0
LINE
  5
295
330
210
100
AcDbEntity
  8
0
  6
Continuous
 62
     8
370
    25
100
AcDbLine
 10
-1.1130183451
 20
-3.1186472408
 30
0.0
 11
0.6959712413
 21
-4.1629547003
 31
0.0
  0
LINE
  5
296
330
210
100
AcDbEntity
  8
0
  6
Continuous
 62
     8
370
    25
100
AcDbLine
 10
-1.6564115544
 20
3.6084285554
 30
0.0
 11
-1.6564115544
 21
1.2843128201
 31
0.0
  0
LINE
  5
297
330
210
100
AcDbEntity
  8
0
  6
Continuous
 62
     8
370
    25
100
AcDbLine
 10
-1.6564115544
 20
-0.0588529585
 30
0.0
 11
-1.6564115544
 21
-1.2874692645
 31
0.0
  0
ARC
  5
298
330
210
100
AcDbEntity
  8
0
  6
Continuous
 62
     7
370
    25
100
AcDbCircle
 10
-1.1553122606
 20
1.6958772186
 30
0.0
 40
0.0984251968503937
100
AcDbArc
 50
0.0
 51
180.0
  0
ARC
  5
299
330
210
100
AcDbEntity
  8
0
  6
Continuous
 62
     7
370
    25
100
AcDbCircle
 10
-1.1553122606
 20
-3.029772362
 30
0.0
 40
0.098425196850394
100
AcDbArc
 50
180.0
 51
0.0
  0
ARC
  5
29A
330
210
100
AcDbEntity
  8
0
  6
Continuous
 62
     7
370
    25
100
AcDbCircle
 10
-1.1068714877
 20
-3.0239664095
 30
0.0
 40
0.0506169441846197
100
AcDbArc
 50
294.7064751649
 51
350.0091438703
  0
ARC
  5
29B
330
210
100
AcDbEntity
  8
0
  6
Continuous
 62
     7
370
    25
100
AcDbCircle
 10
0.2275908373
 20
1.9800325709
 30
0.0
 40
0.8728438331397698
100
AcDbArc
 50
2.4534496702
 51
57.5465504754
  0
ARC
  5
29C
330
210
100
AcDbEntity
  8
0
  6
Continuous
 62
     7
370
    25
100
AcDbCircle
 10
0.7261920307
 20
2.7151871626
 30
0.0
 40
0.0302520631411863
100
AcDbArc
 50
122.60547834
 51
177.3945215143
  0
ARC
  5
29D
330
210
100
AcDbEntity
  8
0
  6
Continuous
 62
     7
370
    25
100
AcDbCircle
 10
0.2253592137
 20
1.9787441423
 30
0.0
 40
0.9029418963514865
100
AcDbArc
 50
2.4534496702
 51
57.5465504754
  0
ARC
  5
29E
330
210
100
AcDbEntity
  8
0
  6
Continuous
 62
     7
370
    25
100
AcDbCircle
 10
1.1135539861
 20
2.0442613904
 30
0.0
 40
0.0302563367699157
100
AcDbArc
 50
242.6096722366
 51
297.3903277634
  0
ARC
  5
29F
330
210
100
AcDbEntity
  8
0
  6
Continuous
 62
     7
370
    25
100
AcDbCircle
 10
0.3227951875
 20
2.0349927327
 30
0.0
 40
0.9029418963514881
100
AcDbArc
 50
2.4534496702
 51
57.5465504754
  0
ARC
  5
2A0
330
210
100
AcDbEntity
  8
0
  6
Continuous
 62
     7
370
    25
100
AcDbCircle
 10
1.1135539861
 20
-3.9029846805
 30
0.0
 40
0.0302563367699179
100
AcDbArc
 50
242.6096722366
 51
297.3903277634
  0
ARC
  5
2A1
330
210
100
AcDbEntity
  8
0
  6
Continuous
 62
     7
370
    25
100
AcDbCircle
 10
-1.222527445
 20
3.8401589702
 30
0.0
 40
0.0302520631411836
100
AcDbArc
 50
122.60547834
 51
177.3945215143
  0
ARC
  5
2A2
330
210
100
AcDbEntity
  8
0
  6
Continuous
 62
     7
370
    25
100
AcDbCircle
 10
-0.5379226229
 20
1.6071090495
 30
0.0
 40
0.2892621766744197
100
AcDbArc
 50
95.7851287832
 51
134.8156992567
  0
ARC
  5
2A3
330
210
100
AcDbEntity
  8
0
  6
Continuous
 62
     7
370
    25
100
AcDbCircle
 10
0.0107419288
 20
0.656703474
 30
0.0
 40
0.2862218243141105
100
AcDbArc
 50
285.0165790023
 51
320.8445005094
  0
ARC
  5
2A4
330
210
100
AcDbEntity
  8
0
  6
Continuous
 62
     7
370
    25
100
AcDbCircle
 10
-1.4310587115
 20
3.7164601874
 30
0.0
 40
0.2057463948285977
100
AcDbArc
 50
95.9095467267
 51
143.2384193593
  0
ARC
  5
2A5
330
210
100
AcDbEntity
  8
0
  6
Continuous
 62
     7
370
    25
100
AcDbCircle
 10
-1.3136024563
 20
3.6882495522
 30
0.0
 40
0.2902497404485582
100
AcDbArc
 50
53.6073712523
 51
115.0821703186
  0
ARC
  5
2A6
330
210
100
AcDbEntity
  8
0
  6
Continuous
 62
     7
370
    25
100
AcDbCircle
 10
-0.5379226229
 20
-0.9646730352
 30
0.0
 40
0.2892621766744036
100
AcDbArc
 50
95.7851287832
 51
134.8156992567
  0
ARC
  5
2A7
330
210
100
AcDbEntity
  8
0
  6
Continuous
 62
     7
370
    25
100
AcDbCircle
 10
0.0107419288
 20
-1.9150786107
 30
0.0
 40
0.2862218243141113
100
AcDbArc
 50
285.0165790023
 51
320.8445005094
  0
ARC
  5
2A8
330
210
100
AcDbEntity
  8
0
  6
Continuous
 62
     7
370
    25
100
AcDbCircle
 10
0.9021205681
 20
-4.021809678
 30
0.0
 40
0.2057463948285832
100
AcDbArc
 50
275.9095467267
 51
323.2384193593
  0
ARC
  5
2A9
330
210
100
AcDbEntity
  8
0
  6
Continuous
 62
     7
370
    25
100
AcDbCircle
 10
0.9364201237
 20
-3.9059404938
 30
0.0
 40
0.2902962799212107
100
AcDbArc
 50
304.9159547339
 51
6.3962256595
  0
ARC
  5
2AA
330
210
100
AcDbEntity
  8
0
  6
Continuous
 62
     8
370
    25
100
AcDbCircle
 10
-0.9675091734
 20
-1.031472041
 30
0.0
 40
0.0751585971028312
100
AcDbArc
 50
184.7103101586
 51
246.0468629764
  0
ARC
  5
2AB
330
210
100
AcDbEntity
  8
0
  6
Continuous
 62
     8
370
    25
100
AcDbCircle
 10
-0.8087237587
 20
-2.3314496667
 30
0.0
 40
0.8344740465897735
100
AcDbArc
 50
208.9821471287
 51
237.8524787686
  0
ARC
  5
2AC
330
210
100
AcDbEntity
  8
0
  6
Continuous
 62
     8
370
    25
100
AcDbCircle
 10
-1.4318139291
 20
3.5614325799
 30
0.0
 40
0.3602602389210496
100
AcDbArc
 50
57.6097886089
 51
93.2506242754
  0
ARC
  5
2AD
330
210
100
AcDbEntity
  8
0
  6
Continuous
 62
     8
370
    25
100
AcDbCircle
 10
-1.6523250869
 20
3.6174471451
 30
0.0
 40
0.0099012209535847
100
AcDbArc
 50
185.7106738963
 51
245.6239580702
  0
ARC
  5
2AE
330
210
100
AcDbEntity
  8
0
  6
Continuous
 62
     8
370
    25
100
AcDbCircle
 10
0.7765178837
 20
-3.9471626975
 30
0.0
 40
0.3513823327038822
100
AcDbArc
 50
325.7453207801
 51
2.8242726562
  0
ARC
  5
2AF
330
210
100
AcDbEntity
  8
0
  6
Continuous
 62
     8
370
    25
100
AcDbCircle
 10
0.7053343959
 20
-4.1641470795
 30
0.0
 40
0.0094387727460859
100
AcDbArc
 50
172.7425602057
 51
235.9596855582
  0
VIEWPORT
  5
2BA
330
210
100
AcDbEntity
  8
0
100
AcDbViewport
 10
0.0
 20
0.0
 30
0.0
 40
8.4
 41
6.4
 68
     1
 69
     1
 12
0.0
 22
0.0
 13
0.0
 23
0.0
 14
0.5
 24
0.5
 15
0.5
 25
0.5
 16
0.0
 26
0.0
 36
1.0
 17
0.0
 27
0.0
 37
0.0
 42
50.0
 43
0.0
 44
0.0
 45
8.6338582677
 50
0.0
 51
0.0
 72
   100
 90
   557152
  1

281
     0
 71
     1
 74
     0
110
0.0
120
0.0
130
0.0
111
1.0
121
0.0
131
0.0
112
0.0
122
1.0
132
0.0
 79
     0
146
0.0
  0
ENDBLK
  5
213
330
210
100
AcDbEntity
  8
0
100
AcDbBlockEnd
  0
ENDSEC
  0
SECTION
  2
ENTITIES
  0
CIRCLE
  5
7E
330
1F
100
AcDbEntity
  8
0
  6
Continuous
 62
     7
370
    25
100
AcDbCircle
 10
0.0
 20
1.5748031496
 30
0.0
 40
0.78740157480315
  0
CIRCLE
  5
7F
330
1F
100
AcDbEntity
  8
0
  6
Continuous
 62
     7
370
    25
100
AcDbCircle
 10
0.0
 20
1.5748031496
 30
0.0
 40
0.8267716535433065
  0
CIRCLE
  5
81
330
1F
100
AcDbEntity
  8
0
  6
Continuous
 62
     7
370
    25
100
AcDbCircle
 10
0.0
 20
-1.5748031496
 30
0.0
 40
0.7874015748031515
  0
CIRCLE
  5
82
330
1F
100
AcDbEntity
  8
0
  6
Continuous
 62
     7
370
    25
100
AcDbCircle
 10
0.0
 20
-1.5748031496
 30
0.0
 40
0.8267716535433093
  0
LINE
  5
AA
330
1F
100
AcDbEntity
  8
0
  6
Continuous
 62
     7
370
    25
100
AcDbLine
 10
0.1357090315
 20
2.3903690198
 30
0.0
 11
0.0984251969
 21
2.8937007874
 31
0.0
  0
LINE
  5
AB
330
1F
100
AcDbEntity
  8
0
  6
Continuous
 62
     7
370
    25
100
AcDbLine
 10
-0.0984251969
 20
2.8937007874
 30
0.0
 11
-0.1356789296
 21
2.3907753951
 31
0.0
  0
LINE
  5
AC
330
1F
100
AcDbEntity
  8
0
  6
Continuous
 62
     7
370
    25
100
AcDbLine
 10
-0.1357090315
 20
-2.3903690198
 30
0.0
 11
-0.0984251969
 21
-2.8937007874
 31
0.0
  0
LINE
  5
AD
330
1F
100
AcDbEntity
  8
0
  6
Continuous
 62
     7
370
    25
100
AcDbLine
 10
0.0984251969
 20
-2.8937007874
 30
0.0
 11
0.1356789296
 21
-2.3907753951
 31
0.0
  0
LINE
  5
AE
330
1F
100
AcDbEntity
  8
0
  6
Continuous
 62
     7
370
    25
100
AcDbLine
 10
0.1515748031
 20
-0.7619780327
 30
0.0
 11
0.1515748031
 21
-0.6417456826
 31
0.0
  0
LINE
  5
AF
330
1F
100
AcDbEntity
  8
0
  6
Continuous
 62
     7
370
    25
100
AcDbLine
 10
-0.1515748031
 20
-0.6417456826
 30
0.0
 11
-0.1515748031
 21
-0.7617011537
 31
0.0
  0
LINE
  5
B0
330
1F
100
AcDbEntity
  8
0
  6
Continuous
 62
     7
370
    25
100
AcDbLine
 10
-0.0984251969
 20
2.8937007874
 30
0.0
 11
0.0984251969
 21
2.8937007874
 31
0.0
  0
LINE
  5
B1
330
1F
100
AcDbEntity
  8
0
  6
Continuous
 62
     7
370
    25
100
AcDbLine
 10
0.0984251969
 20
-2.8937007874
 30
0.0
 11
-0.0984251969
 21
-2.8937007874
 31
0.0
  0
LINE
  5
B2
330
1F
100
AcDbEntity
  8
0
  6
Continuous
 62
     7
370
    25
100
AcDbLine
 10
-1.3779527559
 20
4.2322834646
 30
0.0
 11
-1.3779527559
 21
4.2125984252
 31
0.0
  0
LINE
  5
B3
330
1F
100
AcDbEntity
  8
0
  6
Continuous
 62
     7
370
    25
100
AcDbLine
 10
-1.968503937
 20
3.6417322835
 30
0.0
 11
-1.9488188976
 21
3.6417322835
 31
0.0
  0
LINE
  5
B4
330
1F
100
AcDbEntity
  8
0
  6
Continuous
 62
     7
370
    25
100
AcDbLine
 10
1.3779527559
 20
4.2125984252
 30
0.0
 11
-1.3779527559
 21
4.2125984252
 31
0.0
  0
LINE
  5
B5
330
1F
100
AcDbEntity
  8
0
  6
Continuous
 62
     7
370
    25
100
AcDbLine
 10
-1.3779527559
 20
4.2322834646
 30
0.0
 11
1.3779527559
 21
4.2322834646
 31
0.0
  0
LINE
  5
B6
330
1F
100
AcDbEntity
  8
0
  6
Continuous
 62
     7
370
    25
100
AcDbLine
 10
1.3779527559
 20
4.2125984252
 30
0.0
 11
1.3779527559
 21
4.2322834646
 31
0.0
  0
LINE
  5
B7
330
1F
100
AcDbEntity
  8
0
  6
Continuous
 62
     7
370
    25
100
AcDbLine
 10
1.9488188976
 20
3.6417322835
 30
0.0
 11
1.968503937
 21
3.6417322835
 31
0.0
  0
LINE
  5
B8
330
1F
100
AcDbEntity
  8
0
  6
Continuous
 62
     7
370
    25
100
AcDbLine
 10
1.9488188976
 20
-3.6417322835
 30
0.0
 11
1.9488188976
 21
3.6417322835
 31
0.0
  0
LINE
  5
B9
330
1F
100
AcDbEntity
  8
0
  6
Continuous
 62
     7
370
    25
100
AcDbLine
 10
-1.3779527559
 20
-4.2125984252
 30
0.0
 11
1.3779527559
 21
-4.2125984252
 31
0.0
  0
LINE
  5
BA
330
1F
100
AcDbEntity
  8
0
  6
Continuous
 62
     7
370
    25
100
AcDbLine
 10
-1.9488188976
 20
3.6417322835
 30
0.0
 11
-1.9488188976
 21
-3.6417322835
 31
0.0
  0
LINE
  5
BB
330
1F
100
AcDbEntity
  8
0
  6
Continuous
 62
     7
370
    25
100
AcDbLine
 10
-1.968503937
 20
-3.6417322835
 30
0.0
 11
-1.968503937
 21
3.6417322835
 31
0.0
  0
LINE
  5
BC
330
1F
100
AcDbEntity
  8
0
  6
Continuous
 62
     7
370
    25
100
AcDbLine
 10
-1.968503937
 20
-3.6417322835
 30
0.0
 11
-1.9488188976
 21
-3.6417322835
 31
0.0
  0
LINE
  5
BD
330
1F
100
AcDbEntity
  8
0
  6
Continuous
 62
     7
370
    25
100
AcDbLine
 10
1.968503937
 20
3.6417322835
 30
0.0
 11
1.968503937
 21
-3.6417322835
 31
0.0
  0
LINE
  5
BE
330
1F
100
AcDbEntity
  8
0
  6
Continuous
 62
     7
370
    25
100
AcDbLine
 10
1.9488188976
 20
-3.6417322835
 30
0.0
 11
1.968503937
 21
-3.6417322835
 31
0.0
  0
LINE
  5
BF
330
1F
100
AcDbEntity
  8
0
  6
Continuous
 62
     7
370
    25
100
AcDbLine
 10
-1.3779527559
 20
-4.2322834646
 30
0.0
 11
-1.3779527559
 21
-4.2125984252
 31
0.0
  0
LINE
  5
C0
330
1F
100
AcDbEntity
  8
0
  6
Continuous
 62
     7
370
    25
100
AcDbLine
 10
1.3779527559
 20
-4.2125984252
 30
0.0
 11
1.3779527559
 21
-4.2322834646
 31
0.0
  0
LINE
  5
C1
330
1F
100
AcDbEntity
  8
0
  6
Continuous
 62
     7
370
    25
100
AcDbLine
 10
1.3779527559
 20
-4.2322834646
 30
0.0
 11
-1.3779527559
 21
-4.2322834646
 31
0.0
  0
LINE
  5
C2
330
1F
100
AcDbEntity
  8
0
  6
Continuous
 62
     8
370
    25
100
AcDbLine
 10
0.1515748031
 20
-0.6417456826
 30
0.0
 11
-0.1515748031
 21
-0.6417456826
 31
0.0
  0
LINE
  5
C3
330
1F
100
AcDbEntity
  8
0
  6
Continuous
 62
     8
370
    25
100
AcDbLine
 10
-0.140787707
 20
-0.6241864292
 30
0.0
 11
0.140787707
 21
-0.6241864292
 31
0.0
  0
ARC
  5
C4
330
1F
100
AcDbEntity
  8
0
  6
Continuous
 62
     7
370
    25
100
AcDbCircle
 10
0.0
 20
2.8937007874
 30
0.0
 40
0.0984251968503937
100
AcDbArc
 50
0.0
 51
180.0
  0
ARC
  5
C5
330
1F
100
AcDbEntity
  8
0
  6
Continuous
 62
     7
370
    25
100
AcDbCircle
 10
0.0
 20
-2.8937007874
 30
0.0
 40
0.0984251968503939
100
AcDbArc
 50
180.0
 51
0.0
  0
ARC
  5
C6
330
1F
100
AcDbEntity
  8
0
  6
Continuous
 62
     7
370
    25
100
AcDbCircle
 10
0.1318897638
 20
-0.6417456826
 30
0.0
 40
0.0196850393700788
100
AcDbArc
 50
0.0
 51
63.12692886
  0
ARC
  5
C7
330
1F
100
AcDbEntity
  8
0
  6
Continuous
 62
     7
370
    25
100
AcDbCircle
 10
-0.1318897638
 20
-0.6417456826
 30
0.0
 40
0.0196850393700786
100
AcDbArc
 50
116.87307114
 51
180.0
  0
ARC
  5
C8
330
1F
100
AcDbEntity
  8
0
  6
Continuous
 62
     7
370
    25
100
AcDbCircle
 10
0.0
 20
-0.9020177165
 30
0.0
 40
0.311466535433072
100
AcDbArc
 50
63.12692886
 51
116.87307114
  0
ARC
  5
C9
330
1F
100
AcDbEntity
  8
0
  6
Continuous
 62
     7
370
    25
100
AcDbCircle
 10
-1.3779527559
 20
3.6417322835
 30
0.0
 40
0.5905511811023634
100
AcDbArc
 50
90.0
 51
180.0
  0
ARC
  5
CA
330
1F
100
AcDbEntity
  8
0
  6
Continuous
 62
     7
370
    25
100
AcDbCircle
 10
-1.3779527559
 20
3.6417322835
 30
0.0
 40
0.5708661417322829
100
AcDbArc
 50
90.0
 51
180.0
  0
ARC
  5
CB
330
1F
100
AcDbEntity
  8
0
  6
Continuous
 62
     7
370
    25
100
AcDbCircle
 10
1.3779527559
 20
3.6417322835
 30
0.0
 40
0.5708661417322831
100
AcDbArc
 50
0.0
 51
90.0
  0
ARC
  5
CC
330
1F
100
AcDbEntity
  8
0
  6
Continuous
 62
     7
370
    25
100
AcDbCircle
 10
1.3779527559
 20
3.6417322835
 30
0.0
 40
0.5905511811023609
100
AcDbArc
 50
0.0
 51
90.0
  0
ARC
  5
CD
330
1F
100
AcDbEntity
  8
0
  6
Continuous
 62
     7
370
    25
100
AcDbCircle
 10
1.3779527559
 20
-3.6417322835
 30
0.0
 40
0.5708661417322833
100
AcDbArc
 50
270.0
 51
0.0
  0
ARC
  5
CE
330
1F
100
AcDbEntity
  8
0
  6
Continuous
 62
     7
370
    25
100
AcDbCircle
 10
-1.3779527559
 20
-3.6417322835
 30
0.0
 40
0.5708661417322842
100
AcDbArc
 50
180.0
 51
270.0
  0
ARC
  5
CF
330
1F
100
AcDbEntity
  8
0
  6
Continuous
 62
     7
370
    25
100
AcDbCircle
 10
0.0
 20
1.5748031496
 30
0.0
 40
0.8366141732283483
100
AcDbArc
 50
99.2834512159
 51
80.7165487841
  0
ARC
  5
D0
330
1F
100
AcDbEntity
  8
0
  6
Continuous
 62
     7
370
    25
100
AcDbCircle
 10
0.0
 20
-1.5748031496
 30
0.0
 40
0.836614173228349
100
AcDbArc
 50
279.2834512159
 51
79.5617066156
  0
ARC
  5
D1
330
1F
100
AcDbEntity
  8
0
  6
Continuous
 62
     7
370
    25
100
AcDbCircle
 10
0.0
 20
-1.5748031496
 30
0.0
 40
0.8366141732283471
100
AcDbArc
 50
100.4382933844
 51
260.7165487841
  0
ARC
  5
D2
330
1F
100
AcDbEntity
  8
0
  6
Continuous
 62
     7
370
    25
100
AcDbCircle
 10
-1.3779527559
 20
-3.6417322835
 30
0.0
 40
0.5905511811023605
100
AcDbArc
 50
180.0
 51
270.0
  0
ARC
  5
D3
330
1F
100
AcDbEntity
  8
0
  6
Continuous
 62
     7
370
    25
100
AcDbCircle
 10
1.3779527559
 20
-3.6417322835
 30
0.0
 40
0.5905511811023634
100
AcDbArc
 50
270.0
 51
0.0
  0
ARC
  5
D4
330
1F
100
AcDbEntity
  8
0
  6
Continuous
 62
     8
370
    25
100
AcDbCircle
 10
0.0
 20
1.5748031496
 30
0.0
 40
0.8562992125984261
100
AcDbArc
 50
98.966958836
 51
81.033041164
  0
ARC
  5
D5
330
1F
100
AcDbEntity
  8
0
  6
Continuous
 62
     8
370
    25
100
AcDbCircle
 10
0.0
 20
-1.5748031496
 30
0.0
 40
0.8562992125984248
100
AcDbArc
 50
278.966958836
 51
79.8042640532
  0
ARC
  5
D6
330
1F
100
AcDbEntity
  8
0
  6
Continuous
 62
     8
370
    25
100
AcDbCircle
 10
0.0
 20
-1.5748031496
 30
0.0
 40
0.8562992125984257
100
AcDbArc
 50
100.1957359468
 51
261.033041164
  0
CIRCLE
  5
DD
330
1B
100
AcDbEntity
 67
     1
  8
0
  6
Continuous
 62
     7
370
    25
100
AcDbCircle
 10
0.0
 20
1.5748031496
 30
0.0
 40
0.8267716535433081
  0
CIRCLE
  5
DE
330
1B
100
AcDbEntity
 67
     1
  8
0
  6
Continuous
 62
     7
370
    25
100
AcDbCircle
 10
0.0
 20
-1.5748031496
 30
0.0
 40
0.8267716535433105
  0
CIRCLE
  5
E4
330
1B
100
AcDbEntity
 67
     1
  8
0
  6
Continuous
 62
     7
370
    25
100
AcDbCircle
 10
0.0
 20
1.5748031496
 30
0.0
 40
0.954724409448819
  0
CIRCLE
  5
E5
330
1B
100
AcDbEntity
 67
     1
  8
0
  6
Continuous
 62
     7
370
    25
100
AcDbCircle
 10
0.0
 20
-1.5748031496
 30
0.0
 40
0.9547244094488198
  0
CIRCLE
  5
E9
330
1B
100
AcDbEntity
 67
     1
  8
0
  6
Continuous
 62
     7
370
    25
100
AcDbCircle
 10
0.0
 20
-1.5748031496
 30
0.0
 40
0.8366141732283477
  0
CIRCLE
  5
EA
330
1B
100
AcDbEntity
 67
     1
  8
0
  6
Continuous
 62
     7
370
    25
100
AcDbCircle
 10
0.0
 20
1.5748031496
 30
0.0
 40
0.8366141732283471
  0
LINE
  5
EB
330
1B
100
AcDbEntity
 67
     1
  8
0
  6
Continuous
 62
     7
370
    25
100
AcDbLine
 10
0.1356789296
 20
2.3907753951
 30
0.0
 11
0.1349615778
 21
2.4004596444
 31
0.0
  0
LINE
  5
EC
330
1B
100
AcDbEntity
 67
     1
  8
0
  6
Continuous
 62
     7
370
    25
100
AcDbLine
 10
-0.1349615778
 20
2.4004596444
 30
0.0
 11
-0.1357090315
 21
2.3903690198
 31
0.0
  0
LINE
  5
ED
330
1B
100
AcDbEntity
 67
     1
  8
0
  6
Continuous
 62
     7
370
    25
100
AcDbLine
 10
0.1515748031
 20
-0.7617011537
 30
0.0
 11
0.1515748031
 21
-0.7520344373
 31
0.0
  0
LINE
  5
EE
330
1B
100
AcDbEntity
 67
     1
  8
0
  6
Continuous
 62
     7
370
    25
100
AcDbLine
 10
-0.1515748031
 20
-0.7520344373
 30
0.0
 11
-0.1515748031
 21
-0.7619780327
 31
0.0
  0
LINE
  5
EF
330
1B
100
AcDbEntity
 67
     1
  8
0
  6
Continuous
 62
     7
370
    25
100
AcDbLine
 10
-0.1356789296
 20
-2.3907753951
 30
0.0
 11
-0.1349615778
 21
-2.4004596444
 31
0.0
  0
LINE
  5
F0
330
1B
100
AcDbEntity
 67
     1
  8
0
  6
Continuous
 62
     7
370
    25
100
AcDbLine
 10
0.1349615778
 20
-2.4004596444
 30
0.0
 11
0.1357090315
 21
-2.3903690198
 31
0.0
  0
LINE
  5
F1
330
1B
100
AcDbEntity
 67
     1
  8
0
  6
Continuous
 62
     7
370
    25
100
AcDbLine
 10
1.968503937
 20
3.6417322835
 30
0.0
 11
1.968503937
 21
-3.6417322835
 31
0.0
  0
LINE
  5
F2
330
1B
100
AcDbEntity
 67
     1
  8
0
  6
Continuous
 62
     7
370
    25
100
AcDbLine
 10
-1.968503937
 20
-3.6417322835
 30
0.0
 11
-1.968503937
 21
3.6417322835
 31
0.0
  0
LINE
  5
F3
330
1B
100
AcDbEntity
 67
     1
  8
0
  6
Continuous
 62
     7
370
    25
100
AcDbLine
 10
-1.3779527559
 20
4.2322834646
 30
0.0
 11
1.3779527559
 21
4.2322834646
 31
0.0
  0
LINE
  5
F4
330
1B
100
AcDbEntity
 67
     1
  8
0
  6
Continuous
 62
     7
370
    25
100
AcDbLine
 10
1.3779527559
 20
-4.2322834646
 30
0.0
 11
-1.3779527559
 21
-4.2322834646
 31
0.0
  0
ARC
  5
F5
330
1B
100
AcDbEntity
 67
     1
  8
0
  6
Continuous
 62
     7
370
    25
100
AcDbCircle
 10
-1.3779527559
 20
3.6417322835
 30
0.0
 40
0.590551181102362
100
AcDbArc
 50
90.0
 51
180.0
  0
ARC
  5
F6
330
1B
100
AcDbEntity
 67
     1
  8
0
  6
Continuous
 62
     7
370
    25
100
AcDbCircle
 10
1.3779527559
 20
3.6417322835
 30
0.0
 40
0.5905511811023605
100
AcDbArc
 50
0.0
 51
90.0
  0
ARC
  5
F7
330
1B
100
AcDbEntity
 67
     1
  8
0
  6
Continuous
 62
     7
370
    25
100
AcDbCircle
 10
1.3779527559
 20
-3.6417322835
 30
0.0
 40
0.5905511811023634
100
AcDbArc
 50
270.0
 51
0.0
  0
ARC
  5
F8
330
1B
100
AcDbEntity
 67
     1
  8
0
  6
Continuous
 62
     7
370
    25
100
AcDbCircle
 10
-1.3779527559
 20
-3.6417322835
 30
0.0
 40
0.5905511811023625
100
AcDbArc
 50
180.0
 51
270.0
  0
VIEWPORT
  5
2B0
330
1B
100
AcDbEntity
 67
     1
  8
0
100
AcDbViewport
 10
0.0
 20
0.0
 30
0.0
 40
8.4
 41
6.4
 68
     1
 69
     1
 12
0.0
 22
0.0
 13
0.0
 23
0.0
 14
0.5
 24
0.5
 15
0.5
 25
0.5
 16
0.0
 26
0.0
 36
1.0
 17
0.0
 27
0.0
 37
0.0
 42
50.0
 43
0.0
 44
0.0
 45
8.6338582677
 50
0.0
 51
0.0
 72
   100
 90
   557152
  1

281
     0
 71
     1
 74
     0
110
0.0
120
0.0
130
0.0
111
1.0
121
0.0
131
0.0
112
0.0
122
1.0
132
0.0
 79
     0
146
0.0
  0
ENDSEC
  0
SECTION
  2
OBJECTS
  0
DICTIONARY
  5
C
330
0
100
AcDbDictionary
281
     1
  3
ACAD_GROUP
350
D
  3
ACAD_LAYOUT
350
1A
  3
ACAD_MLINESTYLE
350
17
  3
ACAD_PLOTSETTINGS
350
19
  3
ACAD_PLOTSTYLENAME
350
E
  3
ACAD_SCALELIST
350
47
  0
DICTIONARY
  5
D
102
{ACAD_REACTORS
330
C
102
}
330
C
100
AcDbDictionary
281
     1
  0
DICTIONARY
  5
1A
102
{ACAD_REACTORS
330
C
102
}
330
C
100
AcDbDictionary
281
     1
  3
_Back
350
1E
  3
_Bottom
350
1E5
  3
_Isometric
350
211
  3
_Left
350
26
  3
_Right
350
157
  3
_Top
350
1B9
  3
Model
350
22
  0
DICTIONARY
  5
17
102
{ACAD_REACTORS
330
C
102
}
330
C
100
AcDbDictionary
281
     1
  3
Standard
350
18
  0
DICTIONARY
  5
19
102
{ACAD_REACTORS
330
C
102
}
330
C
100
AcDbDictionary
281
     1
  0
ACDBDICTIONARYWDFLT
  5
E
102
{ACAD_REACTORS
330
C
102
}
330
C
100
AcDbDictionary
281
     1
  3
Normal
350
F
100
AcDbDictionaryWithDefault
340
F
  0
DICTIONARY
  5
47
102
{ACAD_REACTORS
330
C
102
}
330
C
100
AcDbDictionary
281
     1
  3
A0
350
48
  3
A1
350
49
  3
A2
350
4A
  3
A3
350
4B
  3
A4
350
4C
  3
A5
350
4D
  3
A6
350
4E
  3
A7
350
4F
  3
A8
350
50
  3
A9
350
51
  3
B0
350
52
  3
B1
350
53
  3
B2
350
54
  3
B3
350
55
  3
B4
350
56
  3
B5
350
57
  3
B6
350
58
  3
B7
350
59
  3
B8
350
5A
  3
B9
350
5B
  3
C0
350
5C
  3
C1
350
5D
  3
C2
350
5E
  3
C3
350
5F
  3
C4
350
60
  3
C5
350
61
  3
C6
350
62
  3
C7
350
63
  3
C8
350
64
  3
C9
350
65
  3
D0
350
66
  3
D1
350
67
  3
D2
350
68
  0
LAYOUT
  5
1E
102
{ACAD_REACTORS
330
1A
102
}
330
1A
100
AcDbPlotSettings
  1

  2
none_device
  4
Letter_(8.50_x_11.00_Inches)
  6

 40
6.35
 41
6.35
 42
6.35001
 43
6.35001
 44
215.9
 45
279.4
 46
0.0
 47
0.0
 48
0.0
 49
0.0
140
0.0
141
0.0
142
1.0
143
1.0580709182
 70
   688
 72
     0
 73
     1
 74
     1
  7

 75
     0
147
0.9451162326
148
50.0
149
107.5
100
AcDbLayout
  1
_Back
 70
     1
 71
     1
 10
-2.2330220831
 20
-4.4968011941
 11
9.4057580172
 21
4.4968016107
 12
0.0
 22
0.0
 32
0.0
 14
-1.968503937
 24
-4.2322834646
 34
0.0
 15
1.968503937
 25
4.2322834646
 35
0.0
146
0.0
 13
0.0
 23
0.0
 33
0.0
 16
1.0
 26
0.0
 36
0.0
 17
0.0
 27
1.0
 37
0.0
 76
     0
330
1B
331
2B0
  0
LAYOUT
  5
1E5
102
{ACAD_REACTORS
330
1A
102
}
330
1A
100
AcDbPlotSettings
  1

  2
none_device
  4
Letter_(8.50_x_11.00_Inches)
  6

 40
6.35
 41
6.35
 42
6.35001
 43
6.35001
 44
215.9
 45
279.4
 46
0.0
 47
0.0
 48
0.0
 49
0.0
140
0.0
141
0.0
142
1.0
143
1.0580709182
 70
   688
 72
     0
 73
     1
 74
     1
  7

 75
     0
147
0.9451162326
148
50.0
149
107.5
100
AcDbLayout
  1
_Bottom
 70
     1
 71
     5
 10
0.0
 20
0.0
 11
0.0
 21
0.0
 12
0.0
 22
0.0
 32
0.0
 14
0.0
 24
0.0
 34
0.0
 15
0.0
 25
0.0
 35
0.0
146
0.0
 13
0.0
 23
0.0
 33
0.0
 16
1.0
 26
0.0
 36
0.0
 17
0.0
 27
1.0
 37
0.0
 76
     0
330
1E4
331
2B8
  0
LAYOUT
  5
211
102
{ACAD_REACTORS
330
1A
102
}
330
1A
100
AcDbPlotSettings
  1

  2
none_device
  4
Letter_(8.50_x_11.00_Inches)
  6

 40
6.35
 41
6.35
 42
6.35001
 43
6.35001
 44
215.9
 45
279.4
 46
0.0
 47
0.0
 48
0.0
 49
0.0
140
0.0
141
0.0
142
1.0
143
1.0580709182
 70
   688
 72
     0
 73
     1
 74
     1
  7

 75
     0
147
0.9451162326
148
50.0
149
107.5
100
AcDbLayout
  1
_Isometric
 70
     1
 71
     6
 10
0.0
 20
0.0
 11
0.0
 21
0.0
 12
0.0
 22
0.0
 32
0.0
 14
0.0
 24
0.0
 34
0.0
 15
0.0
 25
0.0
 35
0.0
146
0.0
 13
0.0
 23
0.0
 33
0.0
 16
1.0
 26
0.0
 36
0.0
 17
0.0
 27
1.0
 37
0.0
 76
     0
330
210
331
2BA
  0
LAYOUT
  5
26
102
{ACAD_REACTORS
330
1A
102
}
330
1A
100
AcDbPlotSettings
  1

  2
none_device
  4
Letter_(8.50_x_11.00_Inches)
  6

 40
6.35
 41
6.35
 42
6.35001
 43
6.35001
 44
215.9
 45
279.4
 46
0.0
 47
0.0
 48
0.0
 49
0.0
140
0.0
141
0.0
142
1.0
143
1.0580709182
 70
   688
 72
     0
 73
     1
 74
     1
  7

 75
     0
147
0.9451162326
148
50.0
149
107.5
100
AcDbLayout
  1
_Left
 70
     1
 71
     2
 10
0.0
 20
0.0
 11
0.0
 21
0.0
 12
0.0
 22
0.0
 32
0.0
 14
0.0
 24
0.0
 34
0.0
 15
0.0
 25
0.0
 35
0.0
146
0.0
 13
0.0
 23
0.0
 33
0.0
 16
1.0
 26
0.0
 36
0.0
 17
0.0
 27
1.0
 37
0.0
 76
     0
330
23
331
2B2
  0
LAYOUT
  5
157
102
{ACAD_REACTORS
330
1A
102
}
330
1A
100
AcDbPlotSettings
  1

  2
none_device
  4
Letter_(8.50_x_11.00_Inches)
  6

 40
6.35
 41
6.35
 42
6.35001
 43
6.35001
 44
215.9
 45
279.4
 46
0.0
 47
0.0
 48
0.0
 49
0.0
140
0.0
141
0.0
142
1.0
143
1.0580709182
 70
   688
 72
     0
 73
     1
 74
     1
  7

 75
     0
147
0.9451162326
148
50.0
149
107.5
100
AcDbLayout
  1
_Right
 70
     1
 71
     3
 10
0.0
 20
0.0
 11
0.0
 21
0.0
 12
0.0
 22
0.0
 32
0.0
 14
0.0
 24
0.0
 34
0.0
 15
0.0
 25
0.0
 35
0.0
146
0.0
 13
0.0
 23
0.0
 33
0.0
 16
1.0
 26
0.0
 36
0.0
 17
0.0
 27
1.0
 37
0.0
 76
     0
330
156
331
2B4
  0
LAYOUT
  5
1B9
102
{ACAD_REACTORS
330
1A
102
}
330
1A
100
AcDbPlotSettings
  1

  2
none_device
  4
Letter_(8.50_x_11.00_Inches)
  6

 40
6.35
 41
6.35
 42
6.35001
 43
6.35001
 44
215.9
 45
279.4
 46
0.0
 47
0.0
 48
0.0
 49
0.0
140
0.0
141
0.0
142
1.0
143
1.0580709182
 70
   688
 72
     0
 73
     1
 74
     1
  7

 75
     0
147
0.9451162326
148
50.0
149
107.5
100
AcDbLayout
  1
_Top
 70
     1
 71
     4
 10
0.0
 20
0.0
 11
0.0
 21
0.0
 12
0.0
 22
0.0
 32
0.0
 14
0.0
 24
0.0
 34
0.0
 15
0.0
 25
0.0
 35
0.0
146
0.0
 13
0.0
 23
0.0
 33
0.0
 16
1.0
 26
0.0
 36
0.0
 17
0.0
 27
1.0
 37
0.0
 76
     0
330
1B8
331
2B6
  0
LAYOUT
  5
22
102
{ACAD_REACTORS
330
1A
102
}
330
1A
100
AcDbPlotSettings
  1

  2
none_device
  4
ANSI_A_(11.00_x_8.50_Inches)
  6

 40
6.35
 41
19.05
 42
6.35000508
 43
19.05000254
 44
279.4
 45
215.9
 46
133.34999746
 47
88.89999873
 48
0.0
 49
0.0
140
0.0
141
0.0
142
0.994144186
143
1.0
 70
  1696
 72
     0
 73
     0
 74
     0
  7

 75
     0
147
0.5913241897
148
-39.4088153714
149
0.0
100
AcDbLayout
  1
Model
 70
     1
 71
     0
 10
0.0
 20
0.0
 11
12.0
 21
9.0
 12
0.0
 22
0.0
 32
0.0
 14
-1.968503937
 24
-4.2322834646
 34
0.0
 15
1.968503937
 25
4.2322834646
 35
0.0
146
0.0
 13
0.0
 23
0.0
 33
0.0
 16
1.0
 26
0.0
 36
0.0
 17
0.0
 27
1.0
 37
0.0
 76
     0
330
1F
331
29
  0
MLINESTYLE
  5
18
102
{ACAD_REACTORS
330
17
102
}
330
17
100
AcDbMlineStyle
  2
Standard
 70
     0
  3

 62
   256
 51
90.0
 52
90.0
 71
     2
 49
0.5
 62
   256
  6
BYLAYER
 49
-0.5
 62
   256
  6
BYLAYER
  0
ACDBPLACEHOLDER
  5
F
102
{ACAD_REACTORS
330
E
102
}
330
E
  0
SCALE
  5
48
102
{ACAD_REACTORS
330
47
102
}
330
47
100
AcDbScale
 70
     0
300
1:1
140
1.0
141
1.0
290
     1
  0
SCALE
  5
49
102
{ACAD_REACTORS
330
47
102
}
330
47
100
AcDbScale
 70
     0
300
1:2
140
1.0
141
2.0
290
     0
  0
SCALE
  5
4A
102
{ACAD_REACTORS
330
47
102
}
330
47
100
AcDbScale
 70
     0
300
1:4
140
1.0
141
4.0
290
     0
  0
SCALE
  5
4B
102
{ACAD_REACTORS
330
47
102
}
330
47
100
AcDbScale
 70
     0
300
1:5
140
1.0
141
5.0
290
     0
  0
SCALE
  5
4C
102
{ACAD_REACTORS
330
47
102
}
330
47
100
AcDbScale
 70
     0
300
1:8
140
1.0
141
8.0
290
     0
  0
SCALE
  5
4D
102
{ACAD_REACTORS
330
47
102
}
330
47
100
AcDbScale
 70
     0
300
1:10
140
1.0
141
10.0
290
     0
  0
SCALE
  5
4E
102
{ACAD_REACTORS
330
47
102
}
330
47
100
AcDbScale
 70
     0
300
1:16
140
1.0
141
16.0
290
     0
  0
SCALE
  5
4F
102
{ACAD_REACTORS
330
47
102
}
330
47
100
AcDbScale
 70
     0
300
1:20
140
1.0
141
20.0
290
     0
  0
SCALE
  5
50
102
{ACAD_REACTORS
330
47
102
}
330
47
100
AcDbScale
 70
     0
300
1:30
140
1.0
141
30.0
290
     0
  0
SCALE
  5
51
102
{ACAD_REACTORS
330
47
102
}
330
47
100
AcDbScale
 70
     0
300
1:40
140
1.0
141
40.0
290
     0
  0
SCALE
  5
52
102
{ACAD_REACTORS
330
47
102
}
330
47
100
AcDbScale
 70
     0
300
1:50
140
1.0
141
50.0
290
     0
  0
SCALE
  5
53
102
{ACAD_REACTORS
330
47
102
}
330
47
100
AcDbScale
 70
     0
300
1:100
140
1.0
141
100.0
290
     0
  0
SCALE
  5
54
102
{ACAD_REACTORS
330
47
102
}
330
47
100
AcDbScale
 70
     0
300
2:1
140
2.0
141
1.0
290
     0
  0
SCALE
  5
55
102
{ACAD_REACTORS
330
47
102
}
330
47
100
AcDbScale
 70
     0
300
4:1
140
4.0
141
1.0
290
     0
  0
SCALE
  5
56
102
{ACAD_REACTORS
330
47
102
}
330
47
100
AcDbScale
 70
     0
300
8:1
140
8.0
141
1.0
290
     0
  0
SCALE
  5
57
102
{ACAD_REACTORS
330
47
102
}
330
47
100
AcDbScale
 70
     0
300
10:1
140
10.0
141
1.0
290
     0
  0
SCALE
  5
58
102
{ACAD_REACTORS
330
47
102
}
330
47
100
AcDbScale
 70
     0
300
100:1
140
100.0
141
1.0
290
     0
  0
SCALE
  5
59
102
{ACAD_REACTORS
330
47
102
}
330
47
100
AcDbScale
 70
     0
300
1/128" = 1'-0"
140
0.0078125
141
12.0
290
     0
  0
SCALE
  5
5A
102
{ACAD_REACTORS
330
47
102
}
330
47
100
AcDbScale
 70
     0
300
1/64" = 1'-0"
140
0.015625
141
12.0
290
     0
  0
SCALE
  5
5B
102
{ACAD_REACTORS
330
47
102
}
330
47
100
AcDbScale
 70
     0
300
1/32" = 1'-0"
140
0.03125
141
12.0
290
     0
  0
SCALE
  5
5C
102
{ACAD_REACTORS
330
47
102
}
330
47
100
AcDbScale
 70
     0
300
1/16" = 1'-0"
140
0.0625
141
12.0
290
     0
  0
SCALE
  5
5D
102
{ACAD_REACTORS
330
47
102
}
330
47
100
AcDbScale
 70
     0
300
3/32" = 1'-0"
140
0.09375
141
12.0
290
     0
  0
SCALE
  5
5E
102
{ACAD_REACTORS
330
47
102
}
330
47
100
AcDbScale
 70
     0
300
1/8" = 1'-0"
140
0.125
141
12.0
290
     0
  0
SCALE
  5
5F
102
{ACAD_REACTORS
330
47
102
}
330
47
100
AcDbScale
 70
     0
300
3/16" = 1'-0"
140
0.1875
141
12.0
290
     0
  0
SCALE
  5
60
102
{ACAD_REACTORS
330
47
102
}
330
47
100
AcDbScale
 70
     0
300
1/4" = 1'-0"
140
0.25
141
12.0
290
     0
  0
SCALE
  5
61
102
{ACAD_REACTORS
330
47
102
}
330
47
100
AcDbScale
 70
     0
300
3/8" = 1'-0"
140
0.375
141
12.0
290
     0
  0
SCALE
  5
62
102
{ACAD_REACTORS
330
47
102
}
330
47
100
AcDbScale
 70
     0
300
1/2" = 1'-0"
140
0.5
141
12.0
290
     0
  0
SCALE
  5
63
102
{ACAD_REACTORS
330
47
102
}
330
47
100
AcDbScale
 70
     0
300
3/4" = 1'-0"
140
0.75
141
12.0
290
     0
  0
SCALE
  5
64
102
{ACAD_REACTORS
330
47
102
}
330
47
100
AcDbScale
 70
     0
300
1" = 1'-0"
140
1.0
141
12.0
290
     0
  0
SCALE
  5
65
102
{ACAD_REACTORS
330
47
102
}
330
47
100
AcDbScale
 70
     0
300
1-1/2" = 1'-0"
140
1.5
141
12.0
290
     0
  0
SCALE
  5
66
102
{ACAD_REACTORS
330
47
102
}
330
47
100
AcDbScale
 70
     0
300
3" = 1'-0"
140
3.0
141
12.0
290
     0
  0
SCALE
  5
67
102
{ACAD_REACTORS
330
47
102
}
330
47
100
AcDbScale
 70
     0
300
6" = 1'-0"
140
6.0
141
12.0
290
     0
  0
SCALE
  5
68
102
{ACAD_REACTORS
330
47
102
}
330
47
100
AcDbScale
 70
     0
300
1'-0" = 1'-0"
140
12.0
141
12.0
290
     0
  0
ENDSEC
  0
EOF
