  0
SECTION
  2
HEADER
  9
$ACADVER
  1
AC1015
  9
$ACADMAINTVER
 70
     6
  9
$DWGCODEPAGE
  3
ANSI_1252
  9
$INSBASE
 10
0.0
 20
0.0
 30
0.0
  9
$EXTMIN
 10
74.4243383055
 20
35.7213223676
 30
0.0
  9
$EXTMAX
 10
194.4243383055
 20
310.7213223676
 30
0.0
  9
$LIMMIN
 10
0.0
 20
0.0
  9
$LIMMAX
 10
420.0
 20
297.0
  9
$ORTHOMODE
 70
     0
  9
$REGENMODE
 70
     1
  9
$FILLMODE
 70
     1
  9
$QTEXTMODE
 70
     0
  9
$MIRRTEXT
 70
     1
  9
$LTSCALE
 40
1.0
  9
$ATTMODE
 70
     1
  9
$TEXTSIZE
 40
3.5
  9
$TRACEWID
 40
1.0
  9
$TEXTSTYLE
  7
Standard
  9
$CLAYER
  8
0
  9
$CELTYPE
  6
ByLayer
  9
$CECOLOR
 62
   256
  9
$CELTSCALE
 40
1.0
  9
$DISPSILH
 70
     0
  9
$DIMSCALE
 40
1.0
  9
$DIMASZ
 40
3.302
  9
$DIMEXO
 40
1.0
  9
$DIMDLI
 40
3.75
  9
$DIMRND
 40
0.0
  9
$DIMDLE
 40
0.0
  9
$DIMEXE
 40
1.0
  9
$DIMTP
 40
0.0
  9
$DIMTM
 40
0.0
  9
$DIMTXT
 40
3.5
  9
$DIMCEN
 40
2.5
  9
$DIMTSZ
 40
0.0
  9
$DIMTOL
 70
     0
  9
$DIMLIM
 70
     0
  9
$DIMTIH
 70
     1
  9
$DIMTOH
 70
     1
  9
$DIMSE1
 70
     0
  9
$DIMSE2
 70
     0
  9
$DIMTAD
 70
     1
  9
$DIMZIN
 70
     1
  9
$DIMBLK
  1

  9
$DIMASO
 70
     1
  9
$DIMSHO
 70
     1
  9
$DIMPOST
  1

  9
$DIMAPOST
  1

  9
$DIMALT
 70
     0
  9
$DIMALTD
 70
     3
  9
$DIMALTF
 40
0.0393700787
  9
$DIMLFAC
 40
1.0
  9
$DIMTOFL
 70
     1
  9
$DIMTVP
 40
0.0
  9
$DIMTIX
 70
     0
  9
$DIMSOXD
 70
     0
  9
$DIMSAH
 70
     0
  9
$DIMBLK1
  1

  9
$DIMBLK2
  1

  9
$DIMSTYLE
  2
ISO-25
  9
$DIMCLRD
 70
     0
  9
$DIMCLRE
 70
     0
  9
$DIMCLRT
 70
     0
  9
$DIMTFAC
 40
1.0
  9
$DIMGAP
 40
1.524
  9
$DIMJUST
 70
     0
  9
$DIMSD1
 70
     0
  9
$DIMSD2
 70
     0
  9
$DIMTOLJ
 70
     0
  9
$DIMTZIN
 70
     1
  9
$DIMALTZ
 70
     0
  9
$DIMALTTZ
 70
     0
  9
$DIMUPT
 70
     0
  9
$DIMDEC
 70
     2
  9
$DIMTDEC
 70
     2
  9
$DIMALTU
 70
     2
  9
$DIMALTTD
 70
     3
  9
$DIMTXSTY
  7
Standard
  9
$DIMAUNIT
 70
     0
  9
$DIMADEC
 70
     2
  9
$DIMALTRND
 40
0.0
  9
$DIMAZIN
 70
     0
  9
$DIMDSEP
 70
    44
  9
$DIMATFIT
 70
     3
  9
$DIMFRAC
 70
     0
  9
$DIMLDRBLK
  1

  9
$DIMLUNIT
 70
     2
  9
$DIMLWD
 70
    -2
  9
$DIMLWE
 70
    -2
  9
$DIMTMOVE
 70
     0
  9
$LUNITS
 70
     2
  9
$LUPREC
 70
     2
  9
$SKETCHINC
 40
1.0
  9
$FILLETRAD
 40
10.0
  9
$AUNITS
 70
     0
  9
$AUPREC
 70
     2
  9
$MENU
  1
.
  9
$ELEVATION
 40
0.0
  9
$PELEVATION
 40
0.0
  9
$THICKNESS
 40
0.0
  9
$LIMCHECK
 70
     0
  9
$CHAMFERA
 40
0.0
  9
$CHAMFERB
 40
0.0
  9
$CHAMFERC
 40
0.0
  9
$CHAMFERD
 40
0.0
  9
$SKPOLY
 70
     0
  9
$TDCREATE
 40
2459922.498175324
  9
$TDUCREATE
 40
2459922.498175324
  9
$TDUPDATE
 40
2459922.498205729
  9
$TDUUPDATE
 40
2459922.498205729
  9
$TDINDWG
 40
0.0000000116
  9
$TDUSRTIMER
 40
0.0000000116
  9
$USRTIMER
 70
     1
  9
$ANGBASE
 50
0.0
  9
$ANGDIR
 70
     0
  9
$PDMODE
 70
     0
  9
$PDSIZE
 40
-1.0
  9
$PLINEWID
 40
0.0
  9
$SPLFRAME
 70
     0
  9
$SPLINETYPE
 70
     6
  9
$SPLINESEGS
 70
     8
  9
$HANDSEED
  5
258
  9
$SURFTAB1
 70
     6
  9
$SURFTAB2
 70
     6
  9
$SURFTYPE
 70
     6
  9
$SURFU
 70
     6
  9
$SURFV
 70
     6
  9
$UCSBASE
  2

  9
$UCSNAME
  2

  9
$UCSORG
 10
0.0
 20
0.0
 30
0.0
  9
$UCSXDIR
 10
1.0
 20
0.0
 30
0.0
  9
$UCSYDIR
 10
0.0
 20
1.0
 30
0.0
  9
$UCSORTHOREF
  2

  9
$UCSORTHOVIEW
 70
     0
  9
$UCSORGTOP
 10
0.0
 20
0.0
 30
0.0
  9
$UCSORGBOTTOM
 10
0.0
 20
0.0
 30
0.0
  9
$UCSORGLEFT
 10
0.0
 20
0.0
 30
0.0
  9
$UCSORGRIGHT
 10
0.0
 20
0.0
 30
0.0
  9
$UCSORGFRONT
 10
0.0
 20
0.0
 30
0.0
  9
$UCSORGBACK
 10
0.0
 20
0.0
 30
0.0
  9
$PUCSBASE
  2

  9
$PUCSNAME
  2

  9
$PUCSORG
 10
0.0
 20
0.0
 30
0.0
  9
$PUCSXDIR
 10
1.0
 20
0.0
 30
0.0
  9
$PUCSYDIR
 10
0.0
 20
1.0
 30
0.0
  9
$PUCSORTHOREF
  2

  9
$PUCSORTHOVIEW
 70
     0
  9
$PUCSORGTOP
 10
0.0
 20
0.0
 30
0.0
  9
$PUCSORGBOTTOM
 10
0.0
 20
0.0
 30
0.0
  9
$PUCSORGLEFT
 10
0.0
 20
0.0
 30
0.0
  9
$PUCSORGRIGHT
 10
0.0
 20
0.0
 30
0.0
  9
$PUCSORGFRONT
 10
0.0
 20
0.0
 30
0.0
  9
$PUCSORGBACK
 10
0.0
 20
0.0
 30
0.0
  9
$USERI1
 70
     0
  9
$USERI2
 70
     0
  9
$USERI3
 70
     0
  9
$USERI4
 70
     0
  9
$USERI5
 70
     0
  9
$USERR1
 40
0.0
  9
$USERR2
 40
0.0
  9
$USERR3
 40
0.0
  9
$USERR4
 40
0.0
  9
$USERR5
 40
0.0
  9
$WORLDVIEW
 70
     1
  9
$SHADEDGE
 70
     3
  9
$SHADEDIF
 70
    70
  9
$TILEMODE
 70
     1
  9
$MAXACTVP
 70
    64
  9
$PINSBASE
 10
0.0
 20
0.0
 30
0.0
  9
$PLIMCHECK
 70
     0
  9
$PEXTMIN
 10
229.5928657147
 20
35.7213223676
 30
0.0
  9
$PEXTMAX
 10
276.5928657147
 20
310.7213223676
 30
0.0
  9
$PLIMMIN
 10
201.3877375095
 20
25.1443992907
  9
$PLIMMAX
 10
620.2338913557
 20
321.2982454445
  9
$UNITMODE
 70
     0
  9
$VISRETAIN
 70
     1
  9
$PLINEGEN
 70
     0
  9
$PSLTSCALE
 70
     1
  9
$TREEDEPTH
 70
  3020
  9
$CMLSTYLE
  2
Standard
  9
$CMLJUST
 70
     0
  9
$CMLSCALE
 40
20.0
  9
$PROXYGRAPHICS
 70
     1
  9
$MEASUREMENT
 70
     1
  9
$CELWEIGHT
370
    -1
  9
$ENDCAPS
280
     0
  9
$JOINSTYLE
280
     0
  9
$LWDISPLAY
290
     1
  9
$INSUNITS
 70
     4
  9
$HYPERLINKBASE
  1

  9
$STYLESHEET
  1

  9
$XEDIT
290
     1
  9
$CEPSNTYPE
380
     0
  9
$PSTYLEMODE
290
     1
  9
$FINGERPRINTGUID
  2
{ba90b50d-8911-45cb-8871-cba3c0f51b00}
  9
$VERSIONGUID
  2
{FAEB1C32-E019-11D5-929B-00C0DF256EC4}
  9
$EXTNAMES
290
     1
  9
$PSVPSCALE
 40
0.0
  9
$OLESTARTUP
290
     0
  0
ENDSEC
  0
SECTION
  2
CLASSES
  0
CLASS
  1
ACDBDICTIONARYWDFLT
  2
AcDbDictionaryWithDefault
  3
ObjectDBX Classes
 90
        0
280
     0
281
     0
  0
CLASS
  1
VISUALSTYLE
  2
AcDbVisualStyle
  3
ObjectDBX Classes
 90
     4095
280
     0
281
     0
  0
CLASS
  1
MATERIAL
  2
AcDbMaterial
  3
ObjectDBX Classes
 90
     1153
280
     0
281
     0
  0
CLASS
  1
SCALE
  2
AcDbScale
  3
ObjectDBX Classes
 90
     1153
280
     0
281
     0
  0
CLASS
  1
TABLESTYLE
  2
AcDbTableStyle
  3
ObjectDBX Classes
 90
     4095
280
     0
281
     0
  0
CLASS
  1
MLEADERSTYLE
  2
AcDbMLeaderStyle
  3
ACDB_MLEADERSTYLE_CLASS
 90
     4095
280
     0
281
     0
  0
CLASS
  1
SUN
  2
AcDbSun
  3
SCENEOE
 90
     1153
280
     0
281
     0
  0
CLASS
  1
ACDBPLACEHOLDER
  2
AcDbPlaceHolder
  3
ObjectDBX Classes
 90
        0
280
     0
281
     0
  0
CLASS
  1
LAYOUT
  2
AcDbLayout
  3
ObjectDBX Classes
 90
        0
280
     0
281
     0
  0
ENDSEC
  0
SECTION
  2
TABLES
  0
TABLE
  2
VPORT
  5
8
330
0
100
AcDbSymbolTable
 70
     1
  0
VPORT
  5
29
330
8
100
AcDbSymbolTableRecord
100
AcDbViewportTableRecord
  2
*Active
 70
     0
 10
0.0
 20
0.0
 11
1.0
 21
1.0
 12
134.4243383055
 22
173.2213223676
 13
0.0
 23
0.0
 14
10.0
 24
10.0
 15
10.0
 25
10.0
 16
0.0
 26
0.0
 36
1.0
 17
0.0
 27
0.0
 37
0.0
 40
280.5
 41
0.4363636364
 42
50.0
 43
0.0
 44
0.0
 50
0.0
 51
0.0
 71
     0
 72
   100
 73
     1
 74
     3
 75
     0
 76
     0
 77
     0
 78
     0
281
     0
 65
     1
110
0.0
120
0.0
130
0.0
111
1.0
121
0.0
131
0.0
112
0.0
122
1.0
132
0.0
 79
     0
146
0.0
  0
ENDTAB
  0
TABLE
  2
LTYPE
  5
5
330
0
100
AcDbSymbolTable
 70
     6
  0
LTYPE
  5
14
330
5
100
AcDbSymbolTableRecord
100
AcDbLinetypeTableRecord
  2
ByBlock
 70
     0
  3

 72
    65
 73
     0
 40
0.0
  0
LTYPE
  5
15
330
5
100
AcDbSymbolTableRecord
100
AcDbLinetypeTableRecord
  2
ByLayer
 70
     0
  3

 72
    65
 73
     0
 40
0.0
  0
LTYPE
  5
16
330
5
100
AcDbSymbolTableRecord
100
AcDbLinetypeTableRecord
  2
Continuous
 70
     0
  3
Solid line
 72
    65
 73
     0
 40
0.0
  0
LTYPE
  5
6E
330
5
100
AcDbSymbolTableRecord
100
AcDbLinetypeTableRecord
  2
HIDDEN
 70
     0
  3
Hidden __ __ __ __ __ __ __ __ __ __ __ __ __ __
 72
    65
 73
     2
 40
1.905
 49
1.27
 74
     0
 49
-0.635
 74
     0
  0
LTYPE
  5
6F
330
5
100
AcDbSymbolTableRecord
100
AcDbLinetypeTableRecord
  2
PHANTOM
 70
     0
  3
Phantom ______  __  __  ______  __  __  ______
 72
    65
 73
     6
 40
12.7
 49
6.35
 74
     0
 49
-1.27
 74
     0
 49
1.27
 74
     0
 49
-1.27
 74
     0
 49
1.27
 74
     0
 49
-1.27
 74
     0
  0
LTYPE
  5
70
330
5
100
AcDbSymbolTableRecord
100
AcDbLinetypeTableRecord
  2
CENTER
 70
     0
  3
Center ____ _ ____ _ ____ _ ____ _ ____ _ ____
 72
    65
 73
     4
 40
10.16
 49
6.35
 74
     0
 49
-1.27
 74
     0
 49
1.27
 74
     0
 49
-1.27
 74
     0
  0
LTYPE
  5
71
330
5
100
AcDbSymbolTableRecord
100
AcDbLinetypeTableRecord
  2
CENTERX2
 70
     0
  3
Center (2x) ________  __  ________  __  _____
 72
    65
 73
     4
 40
20.32
 49
12.7
 74
     0
 49
-2.54
 74
     0
 49
2.54
 74
     0
 49
-2.54
 74
     0
  0
LTYPE
  5
72
330
5
100
AcDbSymbolTableRecord
100
AcDbLinetypeTableRecord
  2
DOT2
 70
     0
  3
Dot (.5x) ........................................
 72
    65
 73
     2
 40
0.635
 49
0.0
 74
     0
 49
-0.635
 74
     0
  0
ENDTAB
  0
TABLE
  2
LAYER
  5
2
330
0
100
AcDbSymbolTable
 70
     1
  0
LAYER
  5
10
330
2
100
AcDbSymbolTableRecord
100
AcDbLayerTableRecord
  2
0
 70
     0
 62
     7
  6
Continuous
370
    -3
390
F
  0
ENDTAB
  0
TABLE
  2
STYLE
  5
3
330
0
100
AcDbSymbolTable
 70
     1
  0
STYLE
  5
11
330
3
100
AcDbSymbolTableRecord
100
AcDbTextStyleTableRecord
  2
Standard
 70
     0
 40
0.0
 41
1.0
 50
0.0
 71
     0
 42
3.5
  3
txt
  4

  0
ENDTAB
  0
TABLE
  2
VIEW
  5
6
330
0
100
AcDbSymbolTable
 70
     0
  0
ENDTAB
  0
TABLE
  2
UCS
  5
7
330
0
100
AcDbSymbolTable
 70
     0
  0
ENDTAB
  0
TABLE
  2
APPID
  5
9
330
0
100
AcDbSymbolTable
 70
     1
  0
APPID
  5
12
330
9
100
AcDbSymbolTableRecord
100
AcDbRegAppTableRecord
  2
ACAD
 70
     0
  0
ENDTAB
  0
TABLE
  2
DIMSTYLE
  5
A
330
0
100
AcDbSymbolTable
 70
     1
100
AcDbDimStyleTable
  0
DIMSTYLE
105
27
330
A
100
AcDbSymbolTableRecord
100
AcDbDimStyleTableRecord
  2
ISO-25
 70
     0
 41
2.5
 42
0.625
 43
3.75
 44
1.25
 73
     0
 74
     0
 77
     1
 78
     8
140
2.5
141
2.5
143
0.0393700787
147
0.625
171
     3
172
     1
178
     0
271
     2
272
     2
274
     3
278
    44
283
     0
284
     8
340
11
  0
ENDTAB
  0
TABLE
  2
BLOCK_RECORD
  5
1
330
0
100
AcDbSymbolTable
 70
     1
  0
BLOCK_RECORD
  5
1F
330
1
100
AcDbSymbolTableRecord
100
AcDbBlockTableRecord
  2
*Model_Space
340
22
  0
BLOCK_RECORD
  5
1B
330
1
100
AcDbSymbolTableRecord
100
AcDbBlockTableRecord
  2
*Paper_Space
340
1E
  0
BLOCK_RECORD
  5
23
330
1
100
AcDbSymbolTableRecord
100
AcDbBlockTableRecord
  2
*Paper_Space0
340
26
  0
ENDTAB
  0
ENDSEC
  0
SECTION
  2
BLOCKS
  0
BLOCK
  5
20
330
1F
100
AcDbEntity
  8
0
100
AcDbBlockBegin
  2
*Model_Space
 70
     0
 10
0.0
 20
0.0
 30
0.0
  3
*Model_Space
  1

  0
ENDBLK
  5
21
330
1F
100
AcDbEntity
  8
0
100
AcDbBlockEnd
  0
BLOCK
  5
1C
330
1B
100
AcDbEntity
 67
     1
  8
0
100
AcDbBlockBegin
  2
*Paper_Space
 70
     0
 10
0.0
 20
0.0
 30
0.0
  3
*Paper_Space
  1

  0
ENDBLK
  5
1D
330
1B
100
AcDbEntity
 67
     1
  8
0
100
AcDbBlockEnd
  0
BLOCK
  5
24
330
23
100
AcDbEntity
  8
0
100
AcDbBlockBegin
  2
*Paper_Space0
 70
     0
 10
0.0
 20
0.0
 30
0.0
  3
*Paper_Space0
  1

  0
SPLINE
  5
1ED
330
23
100
AcDbEntity
  8
0
  6
Continuous
 62
     7
370
    25
100
AcDbSpline
210
0.0
220
0.0
230
1.0
 70
     8
 71
     3
 72
     9
 73
     5
 74
     0
 42
0.000000001
 43
0.00000001
 40
0.0
 40
0.0
 40
0.0
 40
0.0
 40
0.4770136993048347
 40
1.0
 40
1.0
 40
1.0
 40
1.0
 10
113.4377053785727
 20
-269.9780316585151
 30
0.0
 10
113.4416860825611
 20
-269.9606401287463
 30
0.0
 10
113.4500311342737
 20
-269.9241809457203
 30
0.0
 10
113.4950582496019
 20
-269.7214535749831
 30
0.0
 10
113.5186068140784
 20
-269.6154299373118
 30
0.0
  0
SPLINE
  5
1EE
330
23
100
AcDbEntity
  8
0
  6
Continuous
 62
     7
370
    25
100
AcDbSpline
210
0.0
220
0.0
230
1.0
 70
     8
 71
     3
 72
     9
 73
     5
 74
     0
 42
0.000000001
 43
0.00000001
 40
0.0
 40
0.0
 40
0.0
 40
0.0
 40
0.4978101635816356
 40
0.9999999999999999
 40
0.9999999999999999
 40
0.9999999999999999
 40
0.9999999999999999
 10
113.5186018429477
 20
-261.5702859223529
 30
0.0
 10
113.4952151247406
 20
-261.4649938839698
 30
0.0
 10
113.4482359348445
 20
-261.2534834607484
 30
0.0
 10
113.4397931486163
 20
-261.2166496852745
 30
0.0
 10
113.4355532671814
 20
-261.1981521375945
 30
0.0
  0
SPLINE
  5
20D
330
23
100
AcDbEntity
  8
0
  6
Continuous
 62
     7
370
    25
100
AcDbSpline
210
0.0
220
0.0
230
1.0
 70
     8
 71
     3
 72
    17
 73
    13
 74
     0
 42
0.000000001
 43
0.00000001
 40
0.0
 40
0.0
 40
0.0
 40
0.0
 40
0.0756669694573463
 40
0.2202402286242499
 40
0.3619583818334147
 40
0.4313051884976439
 40
0.4998699572384931
 40
0.5684328053045147
 40
0.6377763600556299
 40
0.7794921156349348
 40
0.9240888050563036
 40
1.0
 40
1.0
 40
1.0
 40
1.0
 10
113.4598452303009
 20
-261.256788264151
 30
0.0
 10
113.469626802385
 20
-261.3000464930146
 30
0.0
 10
113.4980975563688
 20
-261.4259561505987
 30
0.0
 10
113.6851292612558
 20
-262.3596775616886
 30
0.0
 10
113.8482758365325
 20
-263.5974586665717
 30
0.0
 10
113.9235528938085
 20
-264.7252702018711
 30
0.0
 10
113.9429504246561
 20
-265.5912047391838
 30
0.0
 10
113.923699291528
 20
-266.457193541092
 30
0.0
 10
113.8485921151118
 20
-267.5852409856875
 30
0.0
 10
113.6855331625381
 20
-268.8237423145496
 30
0.0
 10
113.4982656548876
 20
-269.7590173460788
 30
0.0
 10
113.469723608651
 20
-269.8852298452568
 30
0.0
 10
113.4598978337487
 20
-269.9286792740926
 30
0.0
  0
SPLINE
  5
20F
330
23
100
AcDbEntity
  8
0
  6
Continuous
 62
     7
370
    25
100
AcDbSpline
210
0.0
220
0.0
230
1.0
 70
     8
 71
     3
 72
    26
 73
    22
 74
     0
 42
0.000000001
 43
0.00000001
 40
0.0
 40
0.0
 40
0.0
 40
0.0
 40
0.019887956511336
 40
0.0401794041808937
 40
0.0608751217882625
 40
0.081975842727151
 40
0.1034822583339245
 40
0.1253950209222462
 40
0.1779838910012163
 40
0.2506190805368126
 40
0.3227013231365065
 40
0.3746368180535608
 40
0.4988249147638023
 40
0.6233360649697857
 40
0.6759735199352099
 40
0.748638321731433
 40
0.8214827579891418
 40
0.8739766929691846
 40
0.9176268517855781
 40
0.9596327606681645
 40
1.0
 40
1.0
 40
1.0
 40
1.0
 10
113.4243383055063
 20
-252.1928657146778
 30
0.0
 10
113.4244226012611
 20
-252.192078229671
 30
0.0
 10
113.4245929029813
 20
-252.1904872829914
 30
0.0
 10
113.425938142492
 20
-252.1774383716956
 30
0.0
 10
113.4280759688641
 20
-252.1560555906159
 30
0.0
 10
113.4310870640543
 20
-252.1251461198964
 30
0.0
 10
113.4349572218902
 20
-252.0845407811746
 30
0.0
 10
113.4418246529094
 20
-252.0105379644873
 30
0.0
 10
113.4555718175464
 20
-251.8621449766816
 30
0.0
 10
113.4769018981426
 20
-251.5905383307198
 30
0.0
 10
113.4982231733051
 20
-251.2498789161771
 30
0.0
 10
113.5214253410007
 20
-250.7649499398159
 30
0.0
 10
113.5352077682839
 20
-250.1003826227601
 30
0.0
 10
113.5218690129928
 20
-249.4331951778331
 30
0.0
 10
113.4986742717788
 20
-248.9436947914826
 30
0.0
 10
113.4772199521589
 20
-248.5994337876703
 30
0.0
 10
113.4557931598977
 20
-248.3261654798218
 30
0.0
 10
113.4399609391731
 20
-248.1548896532774
 30
0.0
 10
113.430886854984
 20
-248.0578562818738
 30
0.0
 10
113.4253929450739
 20
-248.002765668175
 30
0.0
 10
113.4246851586382
 20
-247.9961216420884
 30
0.0
 10
113.4243383055062
 20
-247.9928657146778
 30
0.0
  0
SPLINE
  5
21C
330
23
100
AcDbEntity
  8
0
  6
Continuous
 62
     7
370
    25
100
AcDbSpline
210
0.0
220
0.0
230
1.0
 70
     8
 71
     3
 72
     9
 73
     5
 74
     0
 42
0.000000001
 43
0.00000001
 40
0.0
 40
0.0
 40
0.0
 40
0.0
 40
0.919472039338266
 40
1.0
 40
1.0
 40
1.0
 40
1.0
 10
113.4243460246228
 20
-251.9928234732106
 30
0.0
 10
113.4261412188782
 20
-252.0009049902888
 30
0.0
 10
113.4280936374169
 20
-252.0096942919016
 30
0.0
 10
113.4418999898846
 20
-252.1792145907218
 30
0.0
 10
113.443011787293
 20
-252.1928657146766
 30
0.0
  0
LWPOLYLINE
  5
227
330
23
100
AcDbEntity
  8
0
  6
Continuous
 62
     8
370
    25
100
AcDbPolyline
 90
        3
 70
   128
 43
0.0
 10
113.4243447946
 20
-270.0928657145
 10
113.4339498949
 20
-269.9953196971
 10
113.4377309661
 20
-269.9779318891
  0
LINE
  5
22E
330
23
100
AcDbEntity
  8
0
  6
Continuous
 62
     7
370
    25
100
AcDbLine
 10
113.54606966
 20
-261.6928657147
 30
0.0
 11
96.9243383055
 21
-261.6928657147
 31
0.0
  0
LINE
  5
22F
330
23
100
AcDbEntity
  8
0
  6
Continuous
 62
     7
370
    25
100
AcDbLine
 10
96.9243383055
 20
-269.4928657147
 30
0.0
 11
113.5460757767
 21
-269.4928657147
 31
0.0
  0
LINE
  5
230
330
23
100
AcDbEntity
  8
0
  6
Continuous
 62
     7
370
    25
100
AcDbLine
 10
113.4243383055
 20
-270.0928533638
 30
0.0
 11
113.4243383055
 21
-275.5928657147
 31
0.0
  0
LINE
  5
231
330
23
100
AcDbEntity
  8
0
  6
Continuous
 62
     7
370
    25
100
AcDbLine
 10
113.4243383055
 20
-256.1929079561
 30
0.0
 11
113.4243383055
 21
-261.0928765468
 31
0.0
  0
LINE
  5
232
330
23
100
AcDbEntity
  8
0
  6
Continuous
 62
     7
370
    25
100
AcDbLine
 10
113.4243383055
 20
-251.9928234732
 30
0.0
 11
113.4243383055
 21
-232.0928657147
 31
0.0
  0
LINE
  5
233
330
23
100
AcDbEntity
  8
0
  6
Continuous
 62
     7
370
    25
100
AcDbLine
 10
155.4243383055
 20
-259.9428657147
 30
0.0
 11
159.3340627874
 21
-259.9428657147
 31
0.0
  0
LINE
  5
234
330
23
100
AcDbEntity
  8
0
  6
Continuous
 62
     7
370
    25
100
AcDbLine
 10
159.3340627874
 20
-252.2428657147
 30
0.0
 11
155.4243383055
 21
-252.2428657147
 31
0.0
  0
LINE
  5
235
330
23
100
AcDbEntity
  8
0
  6
Continuous
 62
     7
370
    25
100
AcDbLine
 10
89.4243383055
 20
-231.5928657147
 30
0.0
 11
89.4243383055
 21
-229.5928657147
 31
0.0
  0
LINE
  5
236
330
23
100
AcDbEntity
  8
0
  6
Continuous
 62
     7
370
    25
100
AcDbLine
 10
74.4243383055
 20
-229.5928657147
 30
0.0
 11
74.4243383055
 21
-231.0928657147
 31
0.0
  0
LINE
  5
237
330
23
100
AcDbEntity
  8
0
  6
Continuous
 62
     7
370
    25
100
AcDbLine
 10
194.4243383055
 20
-229.5928657147
 30
0.0
 11
194.4243383055
 21
-231.0928657147
 31
0.0
  0
LINE
  5
238
330
23
100
AcDbEntity
  8
0
  6
Continuous
 62
     7
370
    25
100
AcDbLine
 10
74.4243383055
 20
-231.0928657147
 30
0.0
 11
194.4243383055
 21
-231.0928657147
 31
0.0
  0
LINE
  5
239
330
23
100
AcDbEntity
  8
0
  6
Continuous
 62
     7
370
    25
100
AcDbLine
 10
179.4243383055
 20
-231.5928657147
 30
0.0
 11
179.4243383055
 21
-229.5928657147
 31
0.0
  0
LINE
  5
23A
330
23
100
AcDbEntity
  8
0
  6
Continuous
 62
     7
370
    25
100
AcDbLine
 10
194.4243383055
 20
-229.5928657147
 30
0.0
 11
74.4243383055
 21
-229.5928657147
 31
0.0
  0
LINE
  5
23B
330
23
100
AcDbEntity
  8
0
  6
Continuous
 62
     7
370
    25
100
AcDbLine
 10
74.9243383055
 20
-231.5928657147
 30
0.0
 11
193.9243383055
 21
-231.5928657147
 31
0.0
  0
LINE
  5
23C
330
23
100
AcDbEntity
  8
0
  6
Continuous
 62
     7
370
    25
100
AcDbLine
 10
113.4243383055
 20
-232.0928657147
 30
0.0
 11
155.4243383055
 21
-232.0928657147
 31
0.0
  0
LINE
  5
23D
330
23
100
AcDbEntity
  8
0
  6
Continuous
 62
     7
370
    25
100
AcDbLine
 10
113.4243418233
 20
-261.0928657148
 30
0.0
 11
113.4243383055
 21
-252.1928657147
 31
0.0
  0
LINE
  5
23E
330
23
100
AcDbEntity
  8
0
  6
Continuous
 62
     7
370
    25
100
AcDbLine
 10
155.4243383055
 20
-275.5928657147
 30
0.0
 11
155.4243383055
 21
-232.0928657147
 31
0.0
  0
LINE
  5
23F
330
23
100
AcDbEntity
  8
0
  6
Continuous
 62
     7
370
    25
100
AcDbLine
 10
155.4243383055
 20
-275.5928657147
 30
0.0
 11
113.4243383055
 21
-275.5928657147
 31
0.0
  0
LINE
  5
240
330
23
100
AcDbEntity
  8
0
  6
Continuous
 62
     7
370
    25
100
AcDbLine
 10
113.4243383055
 20
-275.5928657147
 30
0.0
 11
113.4243418397
 21
-270.0928657146
 31
0.0
  0
LINE
  5
241
330
23
100
AcDbEntity
  8
0
  6
Continuous
 62
     7
370
    25
100
AcDbLine
 10
114.4243383055
 20
-276.5928657147
 30
0.0
 11
154.4243383055
 21
-276.5928657147
 31
0.0
  0
LINE
  5
242
330
23
100
AcDbEntity
  8
0
  6
Continuous
 62
     7
370
    25
100
AcDbLine
 10
96.9243383055
 20
-261.6928657147
 30
0.0
 11
96.9243383055
 21
-269.4928657147
 31
0.0
  0
LINE
  5
243
330
23
100
AcDbEntity
  8
0
  6
Continuous
 62
     7
370
    25
100
AcDbLine
 10
95.9243383055
 20
-262.6928657147
 30
0.0
 11
95.9243383055
 21
-268.4928657147
 31
0.0
  0
LINE
  5
244
330
23
100
AcDbEntity
  8
0
  6
Continuous
 62
     7
370
    25
100
AcDbLine
 10
95.9243383055
 20
-265.5928657147
 30
0.0
 11
113.9364974726
 21
-265.5928657147
 31
0.0
  0
LINE
  5
245
330
23
100
AcDbEntity
  8
0
  6
Continuous
 62
     7
370
    25
100
AcDbLine
 10
159.8206716807
 20
-252.627923186
 30
0.0
 11
159.8206716807
 21
-259.5578082434
 31
0.0
  0
LINE
  5
246
330
23
100
AcDbEntity
  8
0
  6
Continuous
 62
     7
370
    25
100
AcDbLine
 10
159.8206716807
 20
-256.0928657147
 30
0.0
 11
155.4243383055
 21
-256.0928657147
 31
0.0
  0
LINE
  5
247
330
23
100
AcDbEntity
  8
0
  6
Continuous
 62
     7
370
    25
100
AcDbLine
 10
159.3340627874
 20
-259.9428657147
 30
0.0
 11
159.3340627874
 21
-252.2428657147
 31
0.0
  0
ARC
  5
248
330
23
100
AcDbEntity
  8
0
  6
Continuous
 62
     7
370
    25
100
AcDbCircle
 10
96.9243383055
 20
-268.4928657147
 30
0.0
 40
1.000000000000057
100
AcDbArc
 50
180.0
 51
270.0
  0
ARC
  5
249
330
23
100
AcDbEntity
  8
0
  6
Continuous
 62
     7
370
    25
100
AcDbCircle
 10
96.9243383055
 20
-262.6928657147
 30
0.0
 40
1.000000000000057
100
AcDbArc
 50
90.0
 51
180.0
  0
ARC
  5
24A
330
23
100
AcDbEntity
  8
0
  6
Continuous
 62
     7
370
    25
100
AcDbCircle
 10
159.3340627874
 20
-252.7428657147
 30
0.0
 40
0.500000000000122
100
AcDbArc
 50
13.2903046971
 51
90.0
  0
ARC
  5
24B
330
23
100
AcDbEntity
  8
0
  6
Continuous
 62
     7
370
    25
100
AcDbCircle
 10
193.9243383055
 20
-231.0928657147
 30
0.0
 40
0.5
100
AcDbArc
 50
270.0
 51
360.0
  0
ARC
  5
24C
330
23
100
AcDbEntity
  8
0
  6
Continuous
 62
     7
370
    25
100
AcDbCircle
 10
74.9243383055
 20
-231.0928657147
 30
0.0
 40
0.5000000000000568
100
AcDbArc
 50
180.0
 51
270.0
  0
ARC
  5
24D
330
23
100
AcDbEntity
  8
0
  6
Continuous
 62
     7
370
    25
100
AcDbCircle
 10
154.9243383055
 20
-232.0928657147
 30
0.0
 40
0.5000000000000284
100
AcDbArc
 50
0.0
 51
90.0
  0
ARC
  5
24E
330
23
100
AcDbEntity
  8
0
  6
Continuous
 62
     7
370
    25
100
AcDbCircle
 10
113.9243383055
 20
-232.0928657147
 30
0.0
 40
0.5000000000000853
100
AcDbArc
 50
90.0
 51
180.0
  0
ARC
  5
24F
330
23
100
AcDbEntity
  8
0
  6
Continuous
 62
     7
370
    25
100
AcDbCircle
 10
114.4243383055
 20
-275.5928657147
 30
0.0
 40
0.9999999999999574
100
AcDbArc
 50
180.0
 51
270.0
  0
ARC
  5
250
330
23
100
AcDbEntity
  8
0
  6
Continuous
 62
     7
370
    25
100
AcDbCircle
 10
154.4243383055
 20
-275.5928657147
 30
0.0
 40
0.9999999999999432
100
AcDbArc
 50
270.0
 51
0.0
  0
ARC
  5
251
330
23
100
AcDbEntity
  8
0
  6
Continuous
 62
     7
370
    25
100
AcDbCircle
 10
159.3340627874
 20
-259.4428657147
 30
0.0
 40
0.5000000000152002
100
AcDbArc
 50
270.0000000024
 51
346.7096953059
  0
ARC
  5
252
330
23
100
AcDbEntity
  8
0
  6
Continuous
 62
     7
370
    25
100
AcDbCircle
 10
145.1518465897
 20
-256.0928657145
 30
0.0
 40
15.07250000097103
100
AcDbArc
 50
346.7096953034
 51
13.2903046966
  0
ARC
  5
253
330
23
100
AcDbEntity
  8
0
  6
Continuous
 62
     8
370
    25
100
AcDbCircle
 10
113.924342733
 20
-261.0928765468
 30
0.0
 40
0.499998796421237
100
AcDbArc
 50
179.9987587463
 51
203.7431476606
  0
VIEWPORT
  5
256
330
23
100
AcDbEntity
  8
0
100
AcDbViewport
 10
0.0
 20
0.0
 30
0.0
 40
205.6
 41
156.0
 68
     1
 69
     1
 12
134.4243383055
 22
173.2213223676
 13
0.0
 23
0.0
 14
10.0
 24
10.0
 15
10.0
 25
10.0
 16
0.0
 26
0.0
 36
1.0
 17
0.0
 27
0.0
 37
0.0
 42
50.0
 43
0.0
 44
0.0
 45
280.5
 50
0.0
 51
0.0
 72
   100
 90
   557152
  1

281
     0
 71
     1
 74
     0
110
0.0
120
0.0
130
0.0
111
1.0
121
0.0
131
0.0
112
0.0
122
1.0
132
0.0
 79
     0
146
0.0
  0
ENDBLK
  5
25
330
23
100
AcDbEntity
  8
0
100
AcDbBlockEnd
  0
ENDSEC
  0
SECTION
  2
ENTITIES
  0
LINE
  5
DE
330
1F
100
AcDbEntity
  8
0
  6
Continuous
 62
     7
370
    25
100
AcDbLine
 10
193.9243383055
 20
50.7213223676
 30
0.0
 11
194.4243383055
 21
50.7213223676
 31
0.0
  0
LINE
  5
DF
330
1F
100
AcDbEntity
  8
0
  6
Continuous
 62
     7
370
    25
100
AcDbLine
 10
193.9243383055
 20
295.7213223676
 30
0.0
 11
193.9243383055
 21
50.7213223676
 31
0.0
  0
LINE
  5
E0
330
1F
100
AcDbEntity
  8
0
  6
Continuous
 62
     7
370
    25
100
AcDbLine
 10
194.4243383055
 20
295.7213223676
 30
0.0
 11
193.9243383055
 21
295.7213223676
 31
0.0
  0
LINE
  5
E1
330
1F
100
AcDbEntity
  8
0
  6
Continuous
 62
     7
370
    25
100
AcDbLine
 10
194.4243383055
 20
295.7213223676
 30
0.0
 11
194.4243383055
 21
50.7213223676
 31
0.0
  0
LINE
  5
E2
330
1F
100
AcDbEntity
  8
0
  6
Continuous
 62
     7
370
    25
100
AcDbLine
 10
179.4243383055
 20
36.2213223676
 30
0.0
 11
89.4243383055
 21
36.2213223676
 31
0.0
  0
LINE
  5
E3
330
1F
100
AcDbEntity
  8
0
  6
Continuous
 62
     7
370
    25
100
AcDbLine
 10
74.9243383055
 20
50.7213223676
 30
0.0
 11
74.9243383055
 21
295.7213223676
 31
0.0
  0
LINE
  5
E4
330
1F
100
AcDbEntity
  8
0
  6
Continuous
 62
     7
370
    25
100
AcDbLine
 10
89.4243383055
 20
310.2213223676
 30
0.0
 11
179.4243383055
 21
310.2213223676
 31
0.0
  0
LINE
  5
E5
330
1F
100
AcDbEntity
  8
0
  6
Continuous
 62
     7
370
    25
100
AcDbLine
 10
179.4243383055
 20
310.2213223676
 30
0.0
 11
179.4243383055
 21
310.7213223676
 31
0.0
  0
LINE
  5
E6
330
1F
100
AcDbEntity
  8
0
  6
Continuous
 62
     7
370
    25
100
AcDbLine
 10
89.4243383055
 20
310.7213223676
 30
0.0
 11
89.4243383055
 21
310.2213223676
 31
0.0
  0
LINE
  5
E7
330
1F
100
AcDbEntity
  8
0
  6
Continuous
 62
     7
370
    25
100
AcDbLine
 10
89.4243383055
 20
310.7213223676
 30
0.0
 11
179.4243383055
 21
310.7213223676
 31
0.0
  0
LINE
  5
E8
330
1F
100
AcDbEntity
  8
0
  6
Continuous
 62
     7
370
    25
100
AcDbLine
 10
179.4243383055
 20
35.7213223676
 30
0.0
 11
179.4243383055
 21
36.2213223676
 31
0.0
  0
LINE
  5
E9
330
1F
100
AcDbEntity
  8
0
  6
Continuous
 62
     7
370
    25
100
AcDbLine
 10
134.4243383055
 20
231.4713223675
 30
0.0
 11
134.4243383055
 21
231.9713223675
 31
0.0
  0
LINE
  5
EA
330
1F
100
AcDbEntity
  8
0
  6
Continuous
 62
     7
370
    25
100
AcDbLine
 10
134.4243383055
 20
274.9713223675
 30
0.0
 11
134.4243383055
 21
274.4713223675
 31
0.0
  0
LINE
  5
EB
330
1F
100
AcDbEntity
  8
0
  6
Continuous
 62
     7
370
    25
100
AcDbLine
 10
89.4243383055
 20
36.2213223676
 30
0.0
 11
89.4243383055
 21
35.7213223676
 31
0.0
  0
LINE
  5
EC
330
1F
100
AcDbEntity
  8
0
  6
Continuous
 62
     7
370
    25
100
AcDbLine
 10
179.4243383055
 20
35.7213223676
 30
0.0
 11
89.4243383055
 21
35.7213223676
 31
0.0
  0
LINE
  5
ED
330
1F
100
AcDbEntity
  8
0
  6
Continuous
 62
     7
370
    25
100
AcDbLine
 10
134.4243383055
 20
151.4713223675
 30
0.0
 11
134.4243383055
 21
151.9713223675
 31
0.0
  0
LINE
  5
EE
330
1F
100
AcDbEntity
  8
0
  6
Continuous
 62
     7
370
    25
100
AcDbLine
 10
134.4243383055
 20
194.9713223675
 30
0.0
 11
134.4243383055
 21
194.4713223675
 31
0.0
  0
LINE
  5
EF
330
1F
100
AcDbEntity
  8
0
  6
Continuous
 62
     7
370
    25
100
AcDbLine
 10
74.9243383055
 20
295.7213223676
 30
0.0
 11
74.4243383055
 21
295.7213223676
 31
0.0
  0
LINE
  5
F0
330
1F
100
AcDbEntity
  8
0
  6
Continuous
 62
     7
370
    25
100
AcDbLine
 10
134.4243383055
 20
71.4713223676
 30
0.0
 11
134.4243383055
 21
71.9713223676
 31
0.0
  0
LINE
  5
F1
330
1F
100
AcDbEntity
  8
0
  6
Continuous
 62
     7
370
    25
100
AcDbLine
 10
134.4243383055
 20
114.9713223676
 30
0.0
 11
134.4243383055
 21
114.4713223676
 31
0.0
  0
LINE
  5
F2
330
1F
100
AcDbEntity
  8
0
  6
Continuous
 62
     7
370
    25
100
AcDbLine
 10
74.4243383055
 20
50.7213223676
 30
0.0
 11
74.9243383055
 21
50.7213223676
 31
0.0
  0
LINE
  5
F3
330
1F
100
AcDbEntity
  8
0
  6
Continuous
 62
     7
370
    25
100
AcDbLine
 10
74.4243383055
 20
50.7213223676
 30
0.0
 11
74.4243383055
 21
295.7213223676
 31
0.0
  0
LINE
  5
F4
330
1F
100
AcDbEntity
  8
0
  6
Continuous
 62
     7
370
    25
100
AcDbLine
 10
113.4243383055
 20
253.2213223675
 30
0.0
 11
114.4243383055
 21
253.2213223675
 31
0.0
  0
LINE
  5
F5
330
1F
100
AcDbEntity
  8
0
  6
Continuous
 62
     7
370
    25
100
AcDbLine
 10
155.4243383055
 20
253.2213223675
 30
0.0
 11
154.4243383055
 21
253.2213223675
 31
0.0
  0
LINE
  5
F6
330
1F
100
AcDbEntity
  8
0
  6
Continuous
 62
     7
370
    25
100
AcDbLine
 10
96.9243383055
 20
257.1213223675
 30
0.0
 11
96.9243383055
 21
249.3213223675
 31
0.0
  0
LINE
  5
F7
330
1F
100
AcDbEntity
  8
0
  6
Continuous
 62
     7
370
    25
100
AcDbLine
 10
96.9243383055
 20
257.1213223675
 30
0.0
 11
113.7896587587
 21
257.1213223675
 31
0.0
  0
LINE
  5
F8
330
1F
100
AcDbEntity
  8
0
  6
Continuous
 62
     7
370
    25
100
AcDbLine
 10
96.9243383055
 20
249.3213223675
 30
0.0
 11
113.7896587587
 21
249.3213223675
 31
0.0
  0
LINE
  5
F9
330
1F
100
AcDbEntity
  8
0
  6
Continuous
 62
     7
370
    25
100
AcDbLine
 10
95.9243383055
 20
256.1213223675
 30
0.0
 11
95.9243383055
 21
250.3213223675
 31
0.0
  0
LINE
  5
FA
330
1F
100
AcDbEntity
  8
0
  6
Continuous
 62
     7
370
    25
100
AcDbLine
 10
134.2692831648
 20
153.221923429
 30
0.0
 11
134.4243383055
 21
153.2213223675
 31
0.0
  0
LINE
  5
FB
330
1F
100
AcDbEntity
  8
0
  6
Continuous
 62
     7
370
    25
100
AcDbLine
 10
134.4243383055
 20
152.2213223675
 30
0.0
 11
134.4243383055
 21
153.2213223675
 31
0.0
  0
LINE
  5
FC
330
1F
100
AcDbEntity
  8
0
  6
Continuous
 62
     7
370
    25
100
AcDbLine
 10
134.4243383055
 20
194.2213223675
 30
0.0
 11
134.4243383055
 21
193.2213223675
 31
0.0
  0
LINE
  5
FD
330
1F
100
AcDbEntity
  8
0
  6
Continuous
 62
     7
370
    25
100
AcDbLine
 10
134.5793934462
 20
193.2207213061
 30
0.0
 11
134.4243383055
 21
193.2213223675
 31
0.0
  0
LINE
  5
FE
330
1F
100
AcDbEntity
  8
0
  6
Continuous
 62
     7
370
    25
100
AcDbLine
 10
159.3340627874
 20
169.3713250154
 30
0.0
 11
159.3340627874
 21
177.0713250154
 31
0.0
  0
LINE
  5
FF
330
1F
100
AcDbEntity
  8
0
  6
Continuous
 62
     7
370
    25
100
AcDbLine
 10
159.3340627874
 20
169.3713250154
 30
0.0
 11
155.0684057436
 21
169.3713250154
 31
0.0
  0
LINE
  5
100
330
1F
100
AcDbEntity
  8
0
  6
Continuous
 62
     7
370
    25
100
AcDbLine
 10
159.3340627874
 20
177.0713250154
 30
0.0
 11
155.068404756
 21
177.0713250154
 31
0.0
  0
LINE
  5
101
330
1F
100
AcDbEntity
  8
0
  6
Continuous
 62
     7
370
    25
100
AcDbLine
 10
160.2243465907
 20
173.2213250154
 30
0.0
 11
159.3340627874
 21
173.2213250154
 31
0.0
  0
LINE
  5
102
330
1F
100
AcDbEntity
  8
0
  6
Continuous
 62
     7
370
    25
100
AcDbLine
 10
159.8206716807
 20
176.6862675442
 30
0.0
 11
159.8206716807
 21
169.7563824867
 31
0.0
  0
LINE
  5
103
330
1F
100
AcDbEntity
  8
0
  6
Continuous
 62
     7
370
    25
100
AcDbLine
 10
96.9243383055
 20
177.1213223675
 30
0.0
 11
96.9243383055
 21
169.3213223675
 31
0.0
  0
LINE
  5
104
330
1F
100
AcDbEntity
  8
0
  6
Continuous
 62
     7
370
    25
100
AcDbLine
 10
96.9243383055
 20
177.1213223675
 30
0.0
 11
113.7896587587
 21
177.1213223675
 31
0.0
  0
LINE
  5
105
330
1F
100
AcDbEntity
  8
0
  6
Continuous
 62
     7
370
    25
100
AcDbLine
 10
96.9243383055
 20
169.3213223675
 30
0.0
 11
113.7896587587
 21
169.3213223675
 31
0.0
  0
LINE
  5
106
330
1F
100
AcDbEntity
  8
0
  6
Continuous
 62
     7
370
    25
100
AcDbLine
 10
95.9243383055
 20
176.1213223675
 30
0.0
 11
95.9243383055
 21
170.3213223675
 31
0.0
  0
LINE
  5
107
330
1F
100
AcDbEntity
  8
0
  6
Continuous
 62
     7
370
    25
100
AcDbLine
 10
155.4243383055
 20
93.2213223676
 30
0.0
 11
154.4243383055
 21
93.2213223676
 31
0.0
  0
LINE
  5
108
330
1F
100
AcDbEntity
  8
0
  6
Continuous
 62
     7
370
    25
100
AcDbLine
 10
113.4243383055
 20
93.2213223676
 30
0.0
 11
114.4243383055
 21
93.2213223676
 31
0.0
  0
LINE
  5
109
330
1F
100
AcDbEntity
  8
0
  6
Continuous
 62
     7
370
    25
100
AcDbLine
 10
96.9243383055
 20
97.1213223676
 30
0.0
 11
96.9243383055
 21
89.3213223676
 31
0.0
  0
LINE
  5
10A
330
1F
100
AcDbEntity
  8
0
  6
Continuous
 62
     7
370
    25
100
AcDbLine
 10
96.9243383055
 20
97.1213223676
 30
0.0
 11
113.7896587587
 21
97.1213223676
 31
0.0
  0
LINE
  5
10B
330
1F
100
AcDbEntity
  8
0
  6
Continuous
 62
     7
370
    25
100
AcDbLine
 10
96.9243383055
 20
89.3213223676
 30
0.0
 11
113.7896587587
 21
89.3213223676
 31
0.0
  0
LINE
  5
10C
330
1F
100
AcDbEntity
  8
0
  6
Continuous
 62
     7
370
    25
100
AcDbLine
 10
95.9243383055
 20
96.1213223676
 30
0.0
 11
95.9243383055
 21
90.3213223676
 31
0.0
  0
ARC
  5
10D
330
1F
100
AcDbEntity
  8
0
  6
Continuous
 62
     7
370
    25
100
AcDbCircle
 10
159.3340627874
 20
169.8713250154
 30
0.0
 40
0.5000000000000666
100
AcDbArc
 50
270.0
 51
346.7096953029
  0
ARC
  5
10E
330
1F
100
AcDbEntity
  8
0
  6
Continuous
 62
     7
370
    25
100
AcDbCircle
 10
145.1518465908
 20
173.2213250155
 30
0.0
 40
15.0725000001068
100
AcDbArc
 50
346.709695303
 51
13.2903046971
  0
ARC
  5
10F
330
1F
100
AcDbEntity
  8
0
  6
Continuous
 62
     7
370
    25
100
AcDbCircle
 10
179.4243383055
 20
50.7213223676
 30
0.0
 40
14.49999999999992
100
AcDbArc
 50
270.0
 51
0.0
  0
ARC
  5
110
330
1F
100
AcDbEntity
  8
0
  6
Continuous
 62
     7
370
    25
100
AcDbCircle
 10
89.4243383055
 20
50.7213223676
 30
0.0
 40
14.50000000000013
100
AcDbArc
 50
180.0
 51
270.0
  0
ARC
  5
111
330
1F
100
AcDbEntity
  8
0
  6
Continuous
 62
     7
370
    25
100
AcDbCircle
 10
89.4243383055
 20
295.7213223676
 30
0.0
 40
14.49999999999991
100
AcDbArc
 50
90.0
 51
180.0
  0
ARC
  5
112
330
1F
100
AcDbEntity
  8
0
  6
Continuous
 62
     7
370
    25
100
AcDbCircle
 10
179.4243383055
 20
295.7213223676
 30
0.0
 40
14.50000000000023
100
AcDbArc
 50
0.0
 51
90.0
  0
ARC
  5
113
330
1F
100
AcDbEntity
  8
0
  6
Continuous
 62
     7
370
    25
100
AcDbCircle
 10
134.4243383055
 20
253.2213223675
 30
0.0
 40
21.75000000000006
100
AcDbArc
 50
190.3295919284
 51
169.6704080716
  0
ARC
  5
114
330
1F
100
AcDbEntity
  8
0
  6
Continuous
 62
     7
370
    25
100
AcDbCircle
 10
134.4243383055
 20
93.2213223676
 30
0.0
 40
21.75000000000009
100
AcDbArc
 50
190.3295919284
 51
169.6704080716
  0
ARC
  5
115
330
1F
100
AcDbEntity
  8
0
  6
Continuous
 62
     7
370
    25
100
AcDbCircle
 10
179.4243383055
 20
295.7213223676
 30
0.0
 40
14.99999999999989
100
AcDbArc
 50
0.0
 51
90.0
  0
ARC
  5
116
330
1F
100
AcDbEntity
  8
0
  6
Continuous
 62
     7
370
    25
100
AcDbCircle
 10
179.4243383055
 20
50.7213223676
 30
0.0
 40
15.00000000000012
100
AcDbArc
 50
270.0
 51
0.0
  0
ARC
  5
117
330
1F
100
AcDbEntity
  8
0
  6
Continuous
 62
     7
370
    25
100
AcDbCircle
 10
134.4243383055
 20
253.2213223675
 30
0.0
 40
21.25000000000002
100
AcDbArc
 50
190.5754059664
 51
169.4245940336
  0
ARC
  5
118
330
1F
100
AcDbEntity
  8
0
  6
Continuous
 62
     7
370
    25
100
AcDbCircle
 10
134.4243383055
 20
173.2213223675
 30
0.0
 40
21.25000000000006
100
AcDbArc
 50
10.4383006441
 51
169.4245940336
  0
ARC
  5
119
330
1F
100
AcDbEntity
  8
0
  6
Continuous
 62
     7
370
    25
100
AcDbCircle
 10
134.4243383055
 20
173.2213223675
 30
0.0
 40
21.24999999999998
100
AcDbArc
 50
190.5754059664
 51
349.5617138752
  0
ARC
  5
11A
330
1F
100
AcDbEntity
  8
0
  6
Continuous
 62
     7
370
    25
100
AcDbCircle
 10
89.4243383055
 20
295.7213223676
 30
0.0
 40
15.0
100
AcDbArc
 50
90.0
 51
180.0
  0
ARC
  5
11B
330
1F
100
AcDbEntity
  8
0
  6
Continuous
 62
     7
370
    25
100
AcDbCircle
 10
134.4243383055
 20
93.2213223676
 30
0.0
 40
21.24999999999999
100
AcDbArc
 50
190.5754059664
 51
169.4245940336
  0
ARC
  5
11C
330
1F
100
AcDbEntity
  8
0
  6
Continuous
 62
     7
370
    25
100
AcDbCircle
 10
89.4243383055
 20
50.7213223676
 30
0.0
 40
14.99999999999994
100
AcDbArc
 50
180.0
 51
270.0
  0
ARC
  5
11D
330
1F
100
AcDbEntity
  8
0
  6
Continuous
 62
     7
370
    25
100
AcDbCircle
 10
134.4243383055
 20
253.2213223675
 30
0.0
 40
19.99999999999997
100
AcDbArc
 50
0.0
 51
180.0
  0
ARC
  5
11E
330
1F
100
AcDbEntity
  8
0
  6
Continuous
 62
     7
370
    25
100
AcDbCircle
 10
134.4243383055
 20
253.2213223675
 30
0.0
 40
21.0
100
AcDbArc
 50
0.0
 51
180.0
  0
ARC
  5
11F
330
1F
100
AcDbEntity
  8
0
  6
Continuous
 62
     7
370
    25
100
AcDbCircle
 10
96.9243383055
 20
256.1213223675
 30
0.0
 40
1.000000000000057
100
AcDbArc
 50
90.0
 51
180.0
  0
ARC
  5
120
330
1F
100
AcDbEntity
  8
0
  6
Continuous
 62
     7
370
    25
100
AcDbCircle
 10
96.9243383055
 20
250.3213223675
 30
0.0
 40
1.000000000000028
100
AcDbArc
 50
180.0
 51
270.0
  0
ARC
  5
121
330
1F
100
AcDbEntity
  8
0
  6
Continuous
 62
     7
370
    25
100
AcDbCircle
 10
134.4243383055
 20
173.2213223675
 30
0.0
 40
19.99999999999909
100
AcDbArc
 50
90.0
 51
269.5557952924
  0
ARC
  5
122
330
1F
100
AcDbEntity
  8
0
  6
Continuous
 62
     7
370
    25
100
AcDbCircle
 10
134.4243383055
 20
173.2213223675
 30
0.0
 40
21.00000000000003
100
AcDbArc
 50
90.0
 51
270.0
  0
ARC
  5
123
330
1F
100
AcDbEntity
  8
0
  6
Continuous
 62
     7
370
    25
100
AcDbCircle
 10
134.4243383055
 20
173.2213223675
 30
0.0
 40
19.99999999999915
100
AcDbArc
 50
270.0
 51
89.5557952924
  0
ARC
  5
124
330
1F
100
AcDbEntity
  8
0
  6
Continuous
 62
     7
370
    25
100
AcDbCircle
 10
159.3340627874
 20
176.5713250154
 30
0.0
 40
0.5000000000008246
100
AcDbArc
 50
13.2903046971
 51
89.9999999999
  0
ARC
  5
125
330
1F
100
AcDbEntity
  8
0
  6
Continuous
 62
     7
370
    25
100
AcDbCircle
 10
96.9243383055
 20
176.1213223675
 30
0.0
 40
0.9999999999999716
100
AcDbArc
 50
90.0
 51
180.0
  0
ARC
  5
126
330
1F
100
AcDbEntity
  8
0
  6
Continuous
 62
     7
370
    25
100
AcDbCircle
 10
96.9243383055
 20
170.3213223675
 30
0.0
 40
0.9999999999999716
100
AcDbArc
 50
180.0
 51
270.0
  0
ARC
  5
127
330
1F
100
AcDbEntity
  8
0
  6
Continuous
 62
     7
370
    25
100
AcDbCircle
 10
134.4243383055
 20
93.2213223676
 30
0.0
 40
20.0
100
AcDbArc
 50
0.0
 51
180.0
  0
ARC
  5
128
330
1F
100
AcDbEntity
  8
0
  6
Continuous
 62
     7
370
    25
100
AcDbCircle
 10
134.4243383055
 20
93.2213223676
 30
0.0
 40
21.0
100
AcDbArc
 50
180.0
 51
0.0
  0
ARC
  5
129
330
1F
100
AcDbEntity
  8
0
  6
Continuous
 62
     7
370
    25
100
AcDbCircle
 10
96.9243383055
 20
96.1213223676
 30
0.0
 40
0.9999999999999858
100
AcDbArc
 50
90.0
 51
180.0
  0
ARC
  5
12A
330
1F
100
AcDbEntity
  8
0
  6
Continuous
 62
     7
370
    25
100
AcDbCircle
 10
96.9243383055
 20
90.3213223676
 30
0.0
 40
0.9999999999999858
100
AcDbArc
 50
180.0
 51
270.0
  0
ARC
  5
12B
330
1F
100
AcDbEntity
  8
0
  6
Continuous
 62
     8
370
    25
100
AcDbCircle
 10
134.4243383055
 20
173.2213223675
 30
0.0
 40
21.75000000000015
100
AcDbArc
 50
190.3295919284
 51
349.8042711404
  0
ARC
  5
12C
330
1F
100
AcDbEntity
  8
0
  6
Continuous
 62
     8
370
    25
100
AcDbCircle
 10
134.4243383055
 20
173.2213223675
 30
0.0
 40
21.7500000000001
100
AcDbArc
 50
10.1957430341
 51
169.6704080716
  0
SPLINE
  5
14A
330
1B
100
AcDbEntity
 67
     1
  8
0
  6
Continuous
 62
     7
370
    25
100
AcDbSpline
210
0.0
220
0.0
230
1.0
 70
     8
 71
     3
 72
    33
 73
    29
 74
     0
 42
0.000000001
 43
0.00000001
 40
0.0
 40
0.0
 40
0.0
 40
0.0
 40
0.0126850487797643
 40
0.0253158075573677
 40
0.037910841432457
 40
0.0504888736950756
 40
0.0630687035491307
 40
0.0949649766624726
 40
0.12683200348365
 40
0.1587112758375467
 40
0.1906133267204949
 40
0.2542230132438333
 40
0.3171597643744566
 40
0.3790300714169551
 40
0.4398023245810119
 40
0.4998892367906732
 40
0.5599744658119875
 40
0.6207438691535861
 40
0.682606556076551
 40
0.7455489022396069
 40
0.809134497937723
 40
0.8410501476112336
 40
0.8729605580098291
 40
0.9047959824498918
 40
0.9366780299301058
 40
0.9577399468126876
 40
0.9788180913162802
 40
0.9999999999999999
 40
0.9999999999999999
 40
0.9999999999999999
 40
0.9999999999999999
 10
261.0928657147778
 20
253.2213223675324
 30
0.0
 10
261.0935336599949
 20
253.2819561677196
 30
0.0
 10
261.0948666917293
 20
253.4029642650206
 30
0.0
 10
261.1056155553164
 20
253.5838998227725
 30
0.0
 10
261.1227839946478
 20
253.7637654494593
 30
0.0
 10
261.1469810700536
 20
253.9425552177718
 30
0.0
 10
261.1939769188923
 20
254.2110228628371
 30
0.0
 10
261.2808993156688
 20
254.5655767322891
 30
0.0
 10
261.4319705435007
 20
254.996569085542
 30
0.0
 10
261.6239475599224
 20
255.4104767380161
 30
0.0
 10
261.9325767605429
 20
255.9328588189819
 30
0.0
 10
262.4092855309464
 20
256.5221046176927
 30
0.0
 10
263.1028446799453
 20
257.0967392307201
 30
0.0
 10
263.8855873271162
 20
257.5179226295872
 30
0.0
 10
264.7249538763701
 20
257.7736644815698
 30
0.0
 10
265.591204751731
 20
257.8594604226604
 30
0.0
 10
266.4575097934166
 20
257.7743158497838
 30
0.0
 10
267.297019490056
 20
257.5192191871591
 30
0.0
 10
268.0800725729731
 20
257.0986407141605
 30
0.0
 10
268.7739524834292
 20
256.5245919094588
 30
0.0
 10
269.251153479698
 20
255.9357701824152
 30
0.0
 10
269.5601172916338
 20
255.4134796670499
 30
0.0
 10
269.7524982089074
 20
254.9996965235631
 30
0.0
 10
269.9038855353435
 20
254.5688935770964
 30
0.0
 10
270.000777134442
 20
254.1752543560024
 30
0.0
 10
270.0571879121769
 20
253.8260251413337
 30
0.0
 10
270.0872934532639
 20
253.5246056688866
 30
0.0
 10
270.0910052561867
 20
253.3225821489943
 30
0.0
 10
270.0928657145778
 20
253.2213223675323
 30
0.0
  0
LWPOLYLINE
  5
14B
330
1B
100
AcDbEntity
 67
     1
  8
0
  6
Continuous
 62
     7
370
    25
100
AcDbPolyline
 90
        9
 70
   128
 43
0.0
 10
270.0928657145
 20
253.2213224341
 10
269.9953196971
 20
253.2213224097
 10
269.9015219125
 20
253.2213223813
 10
269.8150770234
 20
253.2213223499
 10
269.7393071193
 20
253.2213223168
 10
269.6771240485
 20
253.2213222833
 10
269.6309175156
 20
253.2213222506
 10
269.6024632442
 20
253.22132222
 10
269.5928547361
 20
253.2213221927
  0
SPLINE
  5
14C
330
1B
100
AcDbEntity
 67
     1
  8
0
  6
Continuous
 62
     7
370
    25
100
AcDbSpline
210
0.0
220
0.0
230
1.0
 70
     8
 71
     3
 72
    22
 73
    18
 74
     0
 42
0.000000001
 43
0.00000001
 40
0.0
 40
0.0
 40
0.0
 40
0.0
 40
0.125
 40
0.125
 40
0.25
 40
0.25
 40
0.375
 40
0.375
 40
0.5
 40
0.5
 40
0.625
 40
0.625
 40
0.75
 40
0.75
 40
0.875
 40
0.875
 40
1.0
 40
1.0
 40
1.0
 40
1.0
 10
261.5928753432266
 20
253.2213223663293
 30
0.0
 10
261.5929458218373
 20
253.7439727957656
 30
0.0
 10
261.6968624762279
 20
254.2671954526968
 30
0.0
 10
262.0957789718617
 20
255.2319396627759
 30
0.0
 10
262.3902185826559
 20
255.6739571454856
 30
0.0
 10
263.1266490512942
 20
256.4135064500518
 30
0.0
 10
263.5687082813302
 20
256.7111007803481
 30
0.0
 10
264.5380807970058
 20
257.1153178409784
 30
0.0
 10
265.065218925387
 20
257.2213225325188
 30
0.0
 10
266.1205004004655
 20
257.2213221993154
 30
0.0
 10
266.6476400218855
 20
257.1153220038598
 30
0.0
 10
267.6170116091006
 20
256.7111058439103
 30
0.0
 10
268.05907408203
 20
256.4135137408888
 30
0.0
 10
268.7955048012374
 20
255.6739663633088
 30
0.0
 10
269.0899471663453
 20
255.2319481646581
 30
0.0
 10
269.4888661510656
 20
254.2672069305304
 30
0.0
 10
269.5927843029514
 20
253.743977482966
 30
0.0
 10
269.5928559517602
 20
253.2213223677214
 30
0.0
  0
LWPOLYLINE
  5
14D
330
1B
100
AcDbEntity
 67
     1
  8
0
  6
Continuous
 62
     7
370
    25
100
AcDbPolyline
 90
        9
 70
   128
 43
0.0
 10
261.0928657148
 20
253.2213223058
 10
261.1904116343
 20
253.2213223284
 10
261.2842092741
 20
253.2213223547
 10
261.370653985
 20
253.2213223838
 10
261.4464236912
 20
253.2213224144
 10
261.508606558
 20
253.2213224456
 10
261.554812894
 20
253.2213224759
 10
261.5832669865
 20
253.2213225044
 10
261.5928753432
 20
253.2213225298
  0
SPLINE
  5
14E
330
1B
100
AcDbEntity
 67
     1
  8
0
  6
Continuous
 62
     7
370
    25
100
AcDbSpline
210
0.0
220
0.0
230
1.0
 70
     8
 71
     3
 72
    33
 73
    29
 74
     0
 42
0.000000001
 43
0.00000001
 40
0.0
 40
0.0
 40
0.0
 40
0.0
 40
0.0127247998647746
 40
0.0254003929173545
 40
0.0380455493785461
 40
0.0506791751321435
 40
0.0633202277979811
 40
0.0951884981698146
 40
0.1270173132745286
 40
0.1589162021892327
 40
0.190826598720922
 40
0.2543975656946532
 40
0.3173270462171006
 40
0.3791770752089037
 40
0.4399345354068067
 40
0.5000067487790989
 40
0.5600791050574588
 40
0.6208363366978172
 40
0.6826868152255424
 40
0.7456158607715919
 40
0.8091870932182174
 40
0.8410951882579217
 40
0.8729978347564743
 40
0.9048261743700355
 40
0.9367007624283897
 40
0.9577545821608604
 40
0.9788251807548956
 40
1.0
 40
1.0
 40
1.0
 40
1.0
 10
270.0928657145778
 20
253.2213223675324
 30
0.0
 10
270.092191879747
 20
253.1604984971095
 30
0.0
 10
270.0908468158056
 20
253.0390859622239
 30
0.0
 10
270.0800098821815
 20
252.8575098911177
 30
0.0
 10
270.0627035739262
 20
252.6769345811394
 30
0.0
 10
270.0383107844481
 20
252.4973665316219
 30
0.0
 10
269.991103836448
 20
252.2285064734522
 30
0.0
 10
269.9039986206997
 20
251.8740233574533
 30
0.0
 10
269.7526526283797
 20
251.4433635990502
 30
0.0
 10
269.5603723241802
 20
251.0296586191016
 30
0.0
 10
269.2515539022962
 20
250.5074535740761
 30
0.0
 10
268.7745499804872
 20
249.9186761310842
 30
0.0
 10
268.0809416611055
 20
249.3446044535766
 30
0.0
 10
267.298158618275
 20
248.9239130521867
 30
0.0
 10
266.4589031584477
 20
248.6686192475164
 30
0.0
 10
265.5928202555489
 20
248.5831971311644
 30
0.0
 10
264.7267402565719
 20
248.6686368893057
 30
0.0
 10
263.8874885625387
 20
248.9239480410649
 30
0.0
 10
263.1047151164613
 20
249.3446548548856
 30
0.0
 10
262.4111172633927
 20
249.9187408421411
 30
0.0
 10
261.9341326146543
 20
250.5075193314854
 30
0.0
 10
261.6253174972383
 20
251.0297347091557
 30
0.0
 10
261.4330346120813
 20
251.4434463206269
 30
0.0
 10
261.2817276852182
 20
251.8741651015362
 30
0.0
 10
261.1848918822805
 20
252.2677067981843
 30
0.0
 10
261.1285182553082
 20
252.6168304400709
 30
0.0
 10
261.0984347252872
 20
252.9181428013974
 30
0.0
 10
261.0947251021963
 20
253.1200964370271
 30
0.0
 10
261.0928657147778
 20
253.2213223675325
 30
0.0
  0
SPLINE
  5
14F
330
1B
100
AcDbEntity
 67
     1
  8
0
  6
Continuous
 62
     7
370
    25
100
AcDbSpline
210
0.0
220
0.0
230
1.0
 70
     8
 71
     3
 72
    22
 73
    18
 74
     0
 42
0.000000001
 43
0.00000001
 40
0.0
 40
0.0
 40
0.0
 40
0.0
 40
0.125
 40
0.125
 40
0.25
 40
0.25
 40
0.375
 40
0.375
 40
0.5
 40
0.5
 40
0.625
 40
0.625
 40
0.75
 40
0.75
 40
0.875
 40
0.875
 40
1.0
 40
1.0
 40
1.0
 40
1.0
 10
269.5928547361054
 20
253.2213223691695
 30
0.0
 10
269.5927810165046
 20
252.6986490874023
 30
0.0
 10
269.4888659227952
 20
252.175433159983
 30
0.0
 10
269.0899437062763
 20
251.2106945819041
 30
0.0
 10
268.7955046210049
 20
250.7686758417447
 30
0.0
 10
268.0590727388434
 20
250.0291321755813
 30
0.0
 10
267.6170136048228
 20
249.7315385835327
 30
0.0
 10
266.6476424415678
 20
249.3273248639975
 30
0.0
 10
266.1205049539444
 20
249.2213223575455
 30
0.0
 10
265.0652258520777
 20
249.2213223774689
 30
0.0
 10
264.5380884268085
 20
249.3273250557434
 30
0.0
 10
263.5687172601576
 20
249.7315388612886
 30
0.0
 10
263.1266582337498
 20
250.0291325544325
 30
0.0
 10
262.3902264268602
 20
250.768676308248
 30
0.0
 10
262.0957874499244
 20
251.2106949098117
 30
0.0
 10
261.6968652757831
 20
252.1754340477387
 30
0.0
 10
261.5929504108405
 20
252.6986484887568
 30
0.0
 10
261.5928767071122
 20
253.2213223677556
 30
0.0
  0
SPLINE
  5
152
330
1B
100
AcDbEntity
 67
     1
  8
0
  6
Continuous
 62
     7
370
    25
100
AcDbSpline
210
0.0
220
0.0
230
1.0
 70
     8
 71
     3
 72
    26
 73
    22
 74
     0
 42
0.000000001
 43
0.00000001
 40
0.0
 40
0.0
 40
0.0
 40
0.0
 40
0.0198883414618329
 40
0.040179550115437
 40
0.0608744046296918
 40
0.081973638362778
 40
0.1034779426801816
 40
0.1253879699802337
 40
0.1779657390134399
 40
0.2505502727376586
 40
0.3226673965198682
 40
0.374623340364829
 40
0.4989496085315379
 40
0.6234903612030215
 40
0.6760886579896652
 40
0.7487365510106271
 40
0.8215343290465162
 40
0.8740246360102909
 40
0.917656897111284
 40
0.9596468266265905
 40
0.9999999999999999
 40
0.9999999999999999
 40
0.9999999999999999
 40
0.9999999999999999
 10
247.9928657146778
 20
253.2213223675327
 30
0.0
 10
247.9936532243194
 20
253.177664459523
 30
0.0
 10
247.9952441957519
 20
253.0894642892789
 30
0.0
 10
248.0082930014105
 20
252.9563652739608
 30
0.0
 10
248.0296746630385
 20
252.8217288846061
 30
0.0
 10
248.0605811752243
 20
252.6862052098357
 30
0.0
 10
248.1011809385709
 20
252.5504963606955
 30
0.0
 10
248.1751675405662
 20
252.3532061283778
 30
0.0
 10
248.3234834703795
 20
252.0651252345634
 30
0.0
 10
248.5950007779311
 20
251.7236346700493
 30
0.0
 10
248.9356270404248
 20
251.4529878544075
 30
0.0
 10
249.4209128923606
 20
251.2018259342848
 30
0.0
 10
250.0859637180881
 20
251.0660716255937
 30
0.0
 10
250.7533813413045
 20
251.1977914473409
 30
0.0
 10
251.2427183026484
 20
251.4478796540386
 30
0.0
 10
251.5867070797318
 20
251.7193288868037
 30
0.0
 10
251.8597974261281
 20
252.0614383372519
 30
0.0
 10
252.0309519387614
 20
252.3918704032749
 30
0.0
 10
252.1279231667346
 20
252.6797220860001
 30
0.0
 10
252.1829728626239
 20
252.9518515476767
 30
0.0
 10
252.1896120872146
 20
253.1326969989071
 30
0.0
 10
252.1928657146779
 20
253.2213223675327
 30
0.0
  0
SPLINE
  5
154
330
1B
100
AcDbEntity
 67
     1
  8
0
  6
Continuous
 62
     7
370
    25
100
AcDbSpline
210
0.0
220
0.0
230
1.0
 70
     8
 71
     3
 72
    26
 73
    22
 74
     0
 42
0.000000001
 43
0.00000001
 40
0.0
 40
0.0
 40
0.0
 40
0.0
 40
0.019887956511336
 40
0.0401794041808937
 40
0.0608751217882625
 40
0.081975842727151
 40
0.1034822583339245
 40
0.1253950209222462
 40
0.1779838910012163
 40
0.2506190805368126
 40
0.3227013231365065
 40
0.3746368180535608
 40
0.4988249147638023
 40
0.6233360649697857
 40
0.6759735199352099
 40
0.748638321731433
 40
0.8214827579891418
 40
0.8739766929691846
 40
0.9176268517855781
 40
0.9596327606681645
 40
1.0
 40
1.0
 40
1.0
 40
1.0
 10
252.1928657146778
 20
253.2213223675326
 30
0.0
 10
252.192078229671
 20
253.2649795407879
 30
0.0
 10
252.1904872829914
 20
253.3531796134609
 30
0.0
 10
252.1774383716956
 20
253.486280542589
 30
0.0
 10
252.1560555906159
 20
253.6209228649871
 30
0.0
 10
252.1251461198964
 20
253.7564562872541
 30
0.0
 10
252.0845407811746
 20
253.8921783720229
 30
0.0
 10
252.0105379644873
 20
254.0895005477259
 30
0.0
 10
251.8621449766816
 20
254.3777027589003
 30
0.0
 10
251.5905383307198
 20
254.7192081110784
 30
0.0
 10
251.2498789161771
 20
254.9897903535638
 30
0.0
 10
250.7649499398159
 20
255.2407188259018
 30
0.0
 10
250.1003826227601
 20
255.3764939620034
 30
0.0
 10
249.4331951778331
 20
255.245129918372
 30
0.0
 10
248.9436947914826
 20
254.9952210891563
 30
0.0
 10
248.5994337876703
 20
254.7237460112592
 30
0.0
 10
248.3261654798218
 20
254.3815798364962
 30
0.0
 10
248.1548896532774
 20
254.0510407435618
 30
0.0
 10
248.0578562818738
 20
253.7631214416424
 30
0.0
 10
248.002765668175
 20
253.4908908760177
 30
0.0
 10
247.9961216420884
 20
253.3099788946618
 30
0.0
 10
247.9928657146778
 20
253.2213223675327
 30
0.0
  0
SPLINE
  5
163
330
1B
100
AcDbEntity
 67
     1
  8
0
  6
Continuous
 62
     7
370
    25
100
AcDbSpline
210
0.0
220
0.0
230
1.0
 70
     8
 71
     3
 72
    35
 73
    31
 74
     0
 42
0.000000001
 43
0.00000001
 40
0.0
 40
0.0
 40
0.0
 40
0.0
 40
0.0145582536605263
 40
0.0293241987085554
 40
0.0442998562137339
 40
0.0594871634382565
 40
0.0748879776900847
 40
0.0905040800123158
 40
0.1063371787114779
 40
0.1223889127283788
 40
0.1520347902548786
 40
0.1847982643150956
 40
0.211154258501117
 40
0.24805533747612
 40
0.3114276476767591
 40
0.3745674178611357
 40
0.4390843711008782
 40
0.5001003504782698
 40
0.5611074280390818
 40
0.625623076619454
 40
0.6886950484075618
 40
0.7519896666419208
 40
0.7888835485986021
 40
0.8152451836955203
 40
0.8480041897863745
 40
0.8776535938173107
 40
0.909526644860211
 40
0.940532574586863
 40
0.9706853100252678
 40
1.0
 40
1.0
 40
1.0
 40
1.0
 10
265.5928657146727
 20
169.2213223675383
 30
0.0
 10
265.6540282132518
 20
169.2221333540178
 30
0.0
 10
265.7772257686503
 20
169.2237668966962
 30
0.0
 10
265.9629184450826
 20
169.2371114703763
 30
0.0
 10
266.1503806966006
 20
169.2588183928563
 30
0.0
 10
266.3391529859606
 20
169.2899919718953
 30
0.0
 10
266.5287435894098
 20
169.330712022585
 30
0.0
 10
266.7186269750132
 20
169.3813096736758
 30
0.0
 10
266.9082513988891
 20
169.4420178192198
 30
0.0
 10
267.1494345637726
 20
169.5327775170331
 30
0.0
 10
267.4478790892157
 20
169.6702490892407
 30
0.0
 10
267.7683680636117
 20
169.8578258435551
 30
0.0
 10
268.0941863916582
 20
170.0914462650082
 30
0.0
 10
268.4915493223435
 20
170.4405934730602
 30
0.0
 10
268.9297793325676
 20
170.9682954987582
 30
0.0
 10
269.3111563525508
 20
171.6752000567284
 30
0.0
 10
269.5420466252273
 20
172.43746759645
 30
0.0
 10
269.6176614454245
 20
173.2223268164776
 30
0.0
 10
269.5416523691014
 20
174.0071375103281
 30
0.0
 10
269.3104885158364
 20
174.7689727424106
 30
0.0
 10
268.9291467269537
 20
175.4751764912831
 30
0.0
 10
268.4912581149466
 20
176.0023116298937
 30
0.0
 10
268.094137998526
 20
176.3512367994815
 30
0.0
 10
267.7683410466823
 20
176.5848354926469
 30
0.0
 10
267.4478182144429
 20
176.7724335820373
 30
0.0
 10
267.0892491468317
 20
176.9375638292322
 30
0.0
 10
266.7226365639812
 20
177.065382997081
 30
0.0
 10
266.3426739112498
 20
177.156274729635
 30
0.0
 10
265.9659629732477
 20
177.211340735901
 30
0.0
 10
265.7160575363343
 20
177.2180265636975
 30
0.0
 10
265.5928657156826
 20
177.2213223675383
 30
0.0
  0
LWPOLYLINE
  5
164
330
1B
100
AcDbEntity
 67
     1
  8
0
  6
Continuous
 62
     7
370
    25
100
AcDbPolyline
 90
        9
 70
   128
 43
0.0
 10
265.5928656581
 20
177.2213091945
 10
265.5928656192
 20
177.2338014926
 10
265.5928655898
 20
177.2706570012
 10
265.5928655713
 20
177.3300338589
 10
265.5928655646
 20
177.4089646956
 10
265.5928655701
 20
177.5035049274
 10
265.5928655876
 20
177.6089298878
 10
265.592865616
 20
177.7199709436
 10
265.5928656541
 20
177.8310787965
  0
SPLINE
  5
165
330
1B
100
AcDbEntity
 67
     1
  8
0
  6
Continuous
 62
     7
370
    25
100
AcDbSpline
210
0.0
220
0.0
230
1.0
 70
     8
 71
     3
 72
    32
 73
    28
 74
     0
 42
0.000000001
 43
0.00000001
 40
0.0
 40
0.0
 40
0.0
 40
0.0
 40
0.0137453184795122
 40
0.0278899245126204
 40
0.0424308827256765
 40
0.0573650156085235
 40
0.0726914099741695
 40
0.088412375542683
 40
0.1045306426196818
 40
0.12104934327719
 40
0.1686013567811834
 40
0.245965944113195
 40
0.3192610750171187
 40
0.3730451766779132
 40
0.4380994583586303
 40
0.5000888227727787
 40
0.5619965862430762
 40
0.6271222889279472
 40
0.6804600597147916
 40
0.7540549052230662
 40
0.8318957929921463
 40
0.8789677633819141
 40
0.9052253868666003
 40
0.9304511489169822
 40
0.9546563623196959
 40
0.9778431493958649
 40
1.0
 40
1.0
 40
1.0
 40
1.0
 10
265.5928657145587
 20
168.6115656068599
 30
0.0
 10
265.6585526520622
 20
168.6124345415189
 30
0.0
 10
265.7918346659469
 20
168.6141976525069
 30
0.0
 10
265.994167050613
 20
168.6285652719863
 30
0.0
 10
266.2012389863746
 20
168.6523281271949
 30
0.0
 10
266.4124370416849
 20
168.6870774899961
 30
0.0
 10
266.6270966596747
 20
168.733282797668
 30
0.0
 10
266.8445212352316
 20
168.7916437423279
 30
0.0
 10
267.0639540421477
 20
168.862809941392
 30
0.0
 10
267.4208984074754
 20
168.9995893427891
 30
0.0
 10
268.0230441416438
 20
169.3060889237015
 30
0.0
 10
268.7693940116653
 20
169.8955092179069
 30
0.0
 10
269.374356872588
 20
170.6659671702362
 30
0.0
 10
269.7891476674544
 20
171.4849873589251
 30
0.0
 10
270.0357951179211
 20
172.3177864895311
 30
0.0
 10
270.1207797228248
 20
173.2220511931638
 30
0.0
 10
270.035448764222
 20
174.1266041063916
 30
0.0
 10
269.7891354330731
 20
174.9572361369503
 30
0.0
 10
269.3747802295036
 20
175.7759885791799
 30
0.0
 10
268.7691470695921
 20
176.5480257529644
 30
0.0
 10
268.0210652264462
 20
177.1378248724649
 30
0.0
 10
267.3773662644962
 20
177.4649054154264
 30
0.0
 10
266.9356452958131
 20
177.6261843591208
 30
0.0
 10
266.5870191803372
 20
177.7218828026689
 30
0.0
 10
266.2460237622191
 20
177.7861744612365
 30
0.0
 10
265.9154836727284
 20
177.8242157893175
 30
0.0
 10
265.6987641766843
 20
177.8288262086433
 30
0.0
 10
265.5928657145735
 20
177.8310790577187
 30
0.0
  0
LWPOLYLINE
  5
166
330
1B
100
AcDbEntity
 67
     1
  8
0
  6
Continuous
 62
     7
370
    25
100
AcDbPolyline
 90
        9
 70
   128
 43
0.0
 10
265.5928657712
 20
169.2213355395
 10
265.5928658101
 20
169.2088432413
 10
265.5928658395
 20
169.1719877329
 10
265.592865858
 20
169.1126108753
 10
265.5928658647
 20
169.0336800388
 10
265.5928658591
 20
168.9391398071
 10
265.5928658417
 20
168.833714847
 10
265.5928658133
 20
168.7226737913
 10
265.5928657752
 20
168.6115659384
  0
SPLINE
  5
167
330
1B
100
AcDbEntity
 67
     1
  8
0
  6
Continuous
 62
     7
370
    25
100
AcDbSpline
210
0.0
220
0.0
230
1.0
 70
     8
 71
     3
 72
    35
 73
    31
 74
     0
 42
0.000000001
 43
0.00000001
 40
0.0
 40
0.0
 40
0.0
 40
0.0
 40
0.0145578658170469
 40
0.0293235063300216
 40
0.0442989425646011
 40
0.0594861117067214
 40
0.0748868709594626
 40
0.0905030012357279
 40
0.1063362106895729
 40
0.1223881380898272
 40
0.152033733547794
 40
0.1847962161667785
 40
0.2111534834982391
 40
0.2480495902613576
 40
0.3113553547725257
 40
0.374439125347377
 40
0.4389534173692284
 40
0.4999663756713578
 40
0.5609763564181903
 40
0.6254945811496146
 40
0.6886233682905711
 40
0.7519858175834007
 40
0.7888840698586074
 40
0.8152444071641562
 40
0.8480041670384412
 40
0.8776536759545022
 40
0.9095261624976289
 40
0.9405318898077837
 40
0.9706847858693892
 40
1.0
 40
1.0
 40
1.0
 40
1.0
 10
265.5928657156826
 20
177.2213223675383
 30
0.0
 10
265.5317048472462
 20
177.220511423934
 30
0.0
 10
265.4085102021463
 20
177.2188779626691
 30
0.0
 10
265.2228213382702
 20
177.2055339925682
 30
0.0
 10
265.0353618055689
 20
177.1838278630875
 30
0.0
 10
264.846591138521
 20
177.1526551534093
 30
0.0
 10
264.6570010722405
 20
177.1119358927076
 30
0.0
 10
264.4671171644204
 20
177.0613388027609
 30
0.0
 10
264.2774912019173
 20
177.0006308383102
 30
0.0
 10
264.0363076584346
 20
176.9098717521424
 30
0.0
 10
263.7378667959111
 20
176.7724029013326
 30
0.0
 10
263.4173769958195
 20
176.5848277464863
 30
0.0
 10
263.0915735191199
 20
176.3512201846771
 30
0.0
 10
262.6944274742988
 20
176.0022705601118
 30
0.0
 10
262.2564820115031
 20
175.4750417915373
 30
0.0
 10
261.8751382914133
 20
174.7687329680341
 30
0.0
 10
261.6440126617718
 20
174.0068137111944
 30
0.0
 10
261.5680699642336
 20
173.2220010844715
 30
0.0
 10
261.6437508856645
 20
172.4371451330816
 30
0.0
 10
261.8746797866096
 20
171.6749590399731
 30
0.0
 10
262.2560594587375
 20
170.9681522602588
 30
0.0
 10
262.6942388557022
 20
170.4405406303882
 30
0.0
 10
263.0915796372864
 20
170.0914180863465
 30
0.0
 10
263.41738946149
 20
169.8578099386122
 30
0.0
 10
263.7379105642772
 20
169.6702123374046
 30
0.0
 10
264.0964807088348
 20
169.5050816443133
 30
0.0
 10
264.4630905210399
 20
169.377263183867
 30
0.0
 10
264.8430505196843
 20
169.2863713494757
 30
0.0
 10
265.2197633733859
 20
169.2313043043229
 30
0.0
 10
265.4696716902219
 20
169.2246182861865
 30
0.0
 10
265.5928657146727
 20
169.2213223675383
 30
0.0
  0
SPLINE
  5
168
330
1B
100
AcDbEntity
 67
     1
  8
0
  6
Continuous
 62
     7
370
    25
100
AcDbSpline
210
0.0
220
0.0
230
1.0
 70
     8
 71
     3
 72
    32
 73
    28
 74
     0
 42
0.000000001
 43
0.00000001
 40
0.0
 40
0.0
 40
0.0
 40
0.0
 40
0.013729040673669
 40
0.0278619758261893
 40
0.0423958828971843
 40
0.0573275909837086
 40
0.0726561796016287
 40
0.0883839601163719
 40
0.1045136723586691
 40
0.1210484640922755
 40
0.1681832722546666
 40
0.2459578826192758
 40
0.3195302166585354
 40
0.3729126374462567
 40
0.4380573787004559
 40
0.4999497934092203
 40
0.5619556407768586
 40
0.6269894937899206
 40
0.6807436578253331
 40
0.754048697320119
 40
0.8314623449376574
 40
0.8789677612021259
 40
0.9052007679050112
 40
0.9304142463695588
 40
0.9546194679448986
 40
0.9778185643246216
 40
1.0
 40
1.0
 40
1.0
 40
1.0
 10
265.5928657147866
 20
177.8310791280369
 30
0.0
 10
265.5272565713211
 20
177.8302120883649
 30
0.0
 10
265.3941081298049
 20
177.8284525015916
 30
0.0
 10
265.1919417822496
 20
177.8141104040666
 30
0.0
 10
264.9849679216267
 20
177.7903785172079
 30
0.0
 10
264.773800142588
 20
177.7556583298639
 30
0.0
 10
264.5591042717152
 20
177.7094708049902
 30
0.0
 10
264.3415788609728
 20
177.6511071961022
 30
0.0
 10
264.1219846969498
 20
177.5799072222871
 30
0.0
 10
263.7667649390884
 20
177.4438116330309
 30
0.0
 10
263.1644442825552
 20
177.137677558408
 30
0.0
 10
262.416556610726
 20
176.5479231750951
 30
0.0
 10
261.8110088178397
 20
175.7760832374276
 30
0.0
 10
261.396536468857
 20
174.9571636309642
 30
0.0
 10
261.1502200833704
 20
174.1262845840314
 30
0.0
 10
261.064951016329
 20
173.2216323119015
 30
0.0
 10
261.1500002414179
 20
172.3174624417219
 30
0.0
 10
261.3966647200527
 20
171.4848441909718
 30
0.0
 10
261.81136058215
 20
170.6659956193999
 30
0.0
 10
262.4163811869078
 20
169.8954148708009
 30
0.0
 10
263.1628573376993
 20
169.3059767487744
 30
0.0
 10
263.806324259705
 20
168.9785080422069
 30
0.0
 10
264.2498064585353
 20
168.816550242918
 30
0.0
 10
264.5982537030328
 20
168.7208650051635
 30
0.0
 10
264.9392412894137
 20
168.6565341791017
 30
0.0
 10
265.269953716753
 20
168.6184414519867
 30
0.0
 10
265.4868496830685
 20
168.6138230796941
 30
0.0
 10
265.592865714772
 20
168.6115656771628
 30
0.0
  0
SPLINE
  5
169
330
1B
100
AcDbEntity
 67
     1
  8
0
  6
Continuous
 62
     7
370
    25
100
AcDbSpline
210
0.0
220
0.0
230
1.0
 70
     8
 71
     3
 72
    30
 73
    26
 74
     0
 42
0.000000001
 43
0.00000001
 40
0.0
 40
0.0
 40
0.0
 40
0.0
 40
0.0209354895224844
 40
0.0417007875686664
 40
0.0623856061832641
 40
0.0830807040270544
 40
0.1038767051313949
 40
0.1248629263259008
 40
0.1561288961146955
 40
0.1875053068252687
 40
0.2499096636160798
 40
0.3124965221617896
 40
0.3749131879623135
 40
0.4374821953833235
 40
0.4999723480331623
 40
0.5624776490729269
 40
0.625055900881916
 40
0.68748507186704
 40
0.7500979990171345
 40
0.8124966557190696
 40
0.8438892693880711
 40
0.8751729137387282
 40
0.916932424324268
 40
0.9582996460180395
 40
1.0
 40
1.0
 40
1.0
 40
1.0
 10
254.0928657146727
 20
175.321322367538
 30
0.0
 10
254.1388892355093
 20
175.3204690346731
 30
0.0
 10
254.2305621368529
 20
175.3187693059666
 30
0.0
 10
254.3671307737879
 20
175.3049875240518
 30
0.0
 10
254.5019957207181
 20
175.282947361041
 30
0.0
 10
254.6351505051335
 20
175.2518666670111
 30
0.0
 10
254.7665838437199
 20
175.2119306409264
 30
0.0
 10
254.9168847674661
 20
175.1554358270197
 30
0.0
 10
255.0833262072146
 20
175.0769850477064
 30
0.0
 10
255.3191617879242
 20
174.9356696135997
 30
0.0
 10
255.5866625577549
 20
174.7167313365533
 30
0.0
 10
255.8491842359312
 20
174.3966405206806
 30
0.0
 10
256.0453313867987
 20
174.0313776002487
 30
0.0
 10
256.1652814489613
 20
173.634547294505
 30
0.0
 10
256.206800531604
 20
173.2216936550041
 30
0.0
 10
256.1654117667172
 20
172.8088098502022
 30
0.0
 10
256.0456073602644
 20
172.4118451912039
 30
0.0
 10
255.8494597702056
 20
172.0464623095634
 30
0.0
 10
255.5870135589905
 20
171.7262157442082
 30
0.0
 10
255.3194679851559
 20
171.5071963258428
 30
0.0
 10
255.0835913624068
 20
171.3658313216454
 30
0.0
 10
254.8757988807637
 20
171.26775238075
 30
0.0
 10
254.6371612927442
 20
171.1870136746793
 30
0.0
 10
254.3673137637512
 20
171.1314176082514
 30
0.0
 10
254.1845926578674
 20
171.1246964325918
 30
0.0
 10
254.0928657146727
 20
171.1213223675383
 30
0.0
  0
SPLINE
  5
16A
330
1B
100
AcDbEntity
 67
     1
  8
0
  6
Continuous
 62
     7
370
    25
100
AcDbSpline
210
0.0
220
0.0
230
1.0
 70
     8
 71
     3
 72
    30
 73
    26
 74
     0
 42
0.000000001
 43
0.00000001
 40
0.0
 40
0.0
 40
0.0
 40
0.0
 40
0.0209354895235469
 40
0.0417007875703581
 40
0.0623856061851745
 40
0.0830807040287603
 40
0.1038767051325153
 40
0.1248629263260685
 40
0.1561288961169972
 40
0.1875053068254318
 40
0.2499096636162483
 40
0.312496522161978
 40
0.3749131879625088
 40
0.437482195383535
 40
0.4999723480333849
 40
0.5624776490731681
 40
0.6250559008821654
 40
0.6874850718673116
 40
0.750097999017416
 40
0.8124966557193617
 40
0.8438892694008431
 40
0.8751729137390679
 40
0.9169324243313913
 40
0.9582996460251708
 40
1.0
 40
1.0
 40
1.0
 40
1.0
 10
254.0928657146727
 20
171.1213223675383
 30
0.0
 10
254.0468421938338
 20
171.122175700403
 30
0.0
 10
253.9551692924865
 20
171.1238754291092
 30
0.0
 10
253.8186006555472
 20
171.1376572110235
 30
0.0
 10
253.6837357086156
 20
171.1596973740342
 30
0.0
 10
253.5505809242015
 20
171.1907780680641
 30
0.0
 10
253.4191475856192
 20
171.230714094149
 30
0.0
 10
253.2688466618733
 20
171.2872089080601
 30
0.0
 10
253.1024052221275
 20
171.365659687374
 30
0.0
 10
252.8665696414168
 20
171.5069751214787
 30
0.0
 10
252.5990688715908
 20
171.7259133985235
 30
0.0
 10
252.3365471934139
 20
172.0460042143955
 30
0.0
 10
252.1404000425468
 20
172.4112671348278
 30
0.0
 10
252.020449980384
 20
172.8080974405713
 30
0.0
 10
251.9789308977412
 20
173.2209510800722
 30
0.0
 10
252.0203196626283
 20
173.6338348848742
 30
0.0
 10
252.1401240690808
 20
174.0307995438725
 30
0.0
 10
252.3362716591399
 20
174.3961824255129
 30
0.0
 10
252.5987178703546
 20
174.7164289908685
 30
0.0
 10
252.8662634442114
 20
174.9354484092497
 30
0.0
 10
253.1021400669617
 20
175.076813413446
 30
0.0
 10
253.3099325486204
 20
175.1748923543438
 30
0.0
 10
253.5485701366356
 20
175.2556310603885
 30
0.0
 10
253.8184176656255
 20
175.3112271268232
 30
0.0
 10
254.0011387714936
 20
175.317948302484
 30
0.0
 10
254.0928657146727
 20
175.321322367538
 30
0.0
  0
SPLINE
  5
186
330
1B
100
AcDbEntity
 67
     1
  8
0
  6
Continuous
 62
     7
370
    25
100
AcDbSpline
210
0.0
220
0.0
230
1.0
 70
     8
 71
     3
 72
    33
 73
    29
 74
     0
 42
0.000000001
 43
0.00000001
 40
0.0
 40
0.0
 40
0.0
 40
0.0
 40
0.0126850487797633
 40
0.0253158075573675
 40
0.0379108414324562
 40
0.0504888736950742
 40
0.0630687035491303
 40
0.0949649766624703
 40
0.1268320034836517
 40
0.1587112758375476
 40
0.190613326720496
 40
0.2542230132438348
 40
0.3171597643744594
 40
0.3790300714169544
 40
0.4398023245810113
 40
0.4998892367906729
 40
0.559974465811991
 40
0.620743869153586
 40
0.6826065560765515
 40
0.7455489022396099
 40
0.8091344979377277
 40
0.8410501476112312
 40
0.8729605580098291
 40
0.9047959824498928
 40
0.9366780299301068
 40
0.9577399468126906
 40
0.9788180913162812
 40
1.0
 40
1.0
 40
1.0
 40
1.0
 10
261.0928657147767
 20
93.22132236757439
 30
0.0
 10
261.0935336599939
 20
93.28195616776152
 30
0.0
 10
261.0948666917283
 20
93.40296426506254
 30
0.0
 10
261.1056155553151
 20
93.58389982281439
 30
0.0
 10
261.1227839946468
 20
93.76376544950128
 30
0.0
 10
261.1469810700522
 20
93.94255521781373
 30
0.0
 10
261.1939769188912
 20
94.21102286287908
 30
0.0
 10
261.2808993156674
 20
94.56557673233111
 30
0.0
 10
261.4319705434993
 20
94.99656908558383
 30
0.0
 10
261.6239475599211
 20
95.41047673805814
 30
0.0
 10
261.9325767605416
 20
95.93285881902388
 30
0.0
 10
262.409285530945
 20
96.52210461773473
 30
0.0
 10
263.1028446799443
 20
97.09673923076207
 30
0.0
 10
263.8855873271148
 20
97.51792262962914
 30
0.0
 10
264.7249538763688
 20
97.7736644816118
 30
0.0
 10
265.5912047517296
 20
97.85946042270236
 30
0.0
 10
266.4575097934155
 20
97.77431584982583
 30
0.0
 10
267.2970194900547
 20
97.51921918720105
 30
0.0
 10
268.0800725729719
 20
97.09864071420245
 30
0.0
 10
268.7739524834279
 20
96.52459190950086
 30
0.0
 10
269.2511534796968
 20
95.93577018245718
 30
0.0
 10
269.5601172916324
 20
95.41347966709182
 30
0.0
 10
269.7524982089062
 20
94.9996965236052
 30
0.0
 10
269.9038855353423
 20
94.56889357713844
 30
0.0
 10
270.0007771344407
 20
94.17525435604433
 30
0.0
 10
270.0571879121757
 20
93.82602514137578
 30
0.0
 10
270.0872934532626
 20
93.52460566892863
 30
0.0
 10
270.0910052561854
 20
93.32258214903638
 30
0.0
 10
270.0928657145767
 20
93.22132236757434
 30
0.0
  0
LWPOLYLINE
  5
187
330
1B
100
AcDbEntity
 67
     1
  8
0
  6
Continuous
 62
     7
370
    25
100
AcDbPolyline
 90
        9
 70
   128
 43
0.0
 10
270.0928657145
 20
93.2213224342
 10
269.9953196971
 20
93.2213224098
 10
269.9015219125
 20
93.2213223813
 10
269.8150770234
 20
93.22132235
 10
269.7393071193
 20
93.2213223169
 10
269.6771240485
 20
93.2213222833
 10
269.6309175156
 20
93.2213222507
 10
269.6024632442
 20
93.22132222
 10
269.5928547361
 20
93.2213221927
  0
SPLINE
  5
188
330
1B
100
AcDbEntity
 67
     1
  8
0
  6
Continuous
 62
     7
370
    25
100
AcDbSpline
210
0.0
220
0.0
230
1.0
 70
     8
 71
     3
 72
    22
 73
    18
 74
     0
 42
0.000000001
 43
0.00000001
 40
0.0
 40
0.0
 40
0.0
 40
0.0
 40
0.125
 40
0.125
 40
0.25
 40
0.25
 40
0.375
 40
0.375
 40
0.5
 40
0.5
 40
0.625
 40
0.625
 40
0.75
 40
0.75
 40
0.875
 40
0.875
 40
1.0
 40
1.0
 40
1.0
 40
1.0
 10
261.5928753432253
 20
93.22132236637123
 30
0.0
 10
261.5929458218359
 20
93.74397279580752
 30
0.0
 10
261.696862476227
 20
94.26719545273866
 30
0.0
 10
262.0957789718603
 20
95.23193966281791
 30
0.0
 10
262.3902185826545
 20
95.67395714552757
 30
0.0
 10
263.126649051293
 20
96.41350645009379
 30
0.0
 10
263.568708281329
 20
96.71110078038998
 30
0.0
 10
264.5380807970045
 20
97.11531784102034
 30
0.0
 10
265.0652189253856
 20
97.22132253256083
 30
0.0
 10
266.1205004004643
 20
97.22132219935723
 30
0.0
 10
266.6476400218842
 20
97.115322003902
 30
0.0
 10
267.6170116090991
 20
96.71110584395217
 30
0.0
 10
268.0590740820286
 20
96.41351374093085
 30
0.0
 10
268.7955048012362
 20
95.67396636335107
 30
0.0
 10
269.0899471663442
 20
95.23194816470027
 30
0.0
 10
269.4888661510644
 20
94.26720693057237
 30
0.0
 10
269.59278430295
 20
93.74397748300798
 30
0.0
 10
269.592855951759
 20
93.2213223677636
 30
0.0
  0
LWPOLYLINE
  5
189
330
1B
100
AcDbEntity
 67
     1
  8
0
  6
Continuous
 62
     7
370
    25
100
AcDbPolyline
 90
        9
 70
   128
 43
0.0
 10
261.0928657148
 20
93.2213223058
 10
261.1904116343
 20
93.2213223284
 10
261.2842092741
 20
93.2213223547
 10
261.370653985
 20
93.2213223838
 10
261.4464236912
 20
93.2213224145
 10
261.508606558
 20
93.2213224456
 10
261.554812894
 20
93.221322476
 10
261.5832669865
 20
93.2213225044
 10
261.5928753432
 20
93.2213225298
  0
SPLINE
  5
18A
330
1B
100
AcDbEntity
 67
     1
  8
0
  6
Continuous
 62
     7
370
    25
100
AcDbSpline
210
0.0
220
0.0
230
1.0
 70
     8
 71
     3
 72
    33
 73
    29
 74
     0
 42
0.000000001
 43
0.00000001
 40
0.0
 40
0.0
 40
0.0
 40
0.0
 40
0.0127247998647728
 40
0.0254003929173556
 40
0.0380455493785435
 40
0.0506791751321418
 40
0.0633202277979778
 40
0.0951884981698123
 40
0.1270173132745269
 40
0.158916202189231
 40
0.1908265987209243
 40
0.2543975656946512
 40
0.3173270462171025
 40
0.379177075208906
 40
0.4399345354068054
 40
0.500006748779098
 40
0.5600791050574617
 40
0.6208363366978171
 40
0.682686815225542
 40
0.745615860771591
 40
0.8091870932182212
 40
0.8410951882579268
 40
0.8729978347564804
 40
0.9048261743700377
 40
0.9367007624283901
 40
0.9577545821608622
 40
0.9788251807548956
 40
1.0
 40
1.0
 40
1.0
 40
1.0
 10
270.0928657145766
 20
93.22132236757442
 30
0.0
 10
270.092191879746
 20
93.1604984971516
 30
0.0
 10
270.0908468158044
 20
93.03908596226593
 30
0.0
 10
270.0800098821804
 20
92.8575098911599
 30
0.0
 10
270.0627035739251
 20
92.6769345811815
 30
0.0
 10
270.0383107844466
 20
92.49736653166383
 30
0.0
 10
269.9911038364472
 20
92.22850647349439
 30
0.0
 10
269.9039986206984
 20
91.87402335749537
 30
0.0
 10
269.7526526283785
 20
91.44336359909231
 30
0.0
 10
269.5603723241789
 20
91.02965861914363
 30
0.0
 10
269.2515539022951
 20
90.50745357411802
 30
0.0
 10
268.774549980486
 20
89.91867613112615
 30
0.0
 10
268.0809416611042
 20
89.34460445361853
 30
0.0
 10
267.2981586182738
 20
88.92391305222874
 30
0.0
 10
266.4589031584466
 20
88.66861924755835
 30
0.0
 10
265.5928202555476
 20
88.58319713120635
 30
0.0
 10
264.726740256571
 20
88.6686368893477
 30
0.0
 10
263.8874885625376
 20
88.92394804110694
 30
0.0
 10
263.1047151164601
 20
89.34465485492747
 30
0.0
 10
262.4111172633915
 20
89.9187408421831
 30
0.0
 10
261.9341326146533
 20
90.50751933152739
 30
0.0
 10
261.6253174972369
 20
91.02973470919763
 30
0.0
 10
261.4330346120802
 20
91.44344632066883
 30
0.0
 10
261.281727685217
 20
91.8741651015782
 30
0.0
 10
261.1848918822793
 20
92.26770679822638
 30
0.0
 10
261.128518255307
 20
92.61683044011285
 30
0.0
 10
261.098434725286
 20
92.9181428014392
 30
0.0
 10
261.0947251021951
 20
93.12009643706907
 30
0.0
 10
261.0928657147766
 20
93.22132236757446
 30
0.0
  0
SPLINE
  5
18B
330
1B
100
AcDbEntity
 67
     1
  8
0
  6
Continuous
 62
     7
370
    25
100
AcDbSpline
210
0.0
220
0.0
230
1.0
 70
     8
 71
     3
 72
    22
 73
    18
 74
     0
 42
0.000000001
 43
0.00000001
 40
0.0
 40
0.0
 40
0.0
 40
0.0
 40
0.125
 40
0.125
 40
0.25
 40
0.25
 40
0.375
 40
0.375
 40
0.5
 40
0.5
 40
0.625
 40
0.625
 40
0.75
 40
0.75
 40
0.875
 40
0.875
 40
1.0
 40
1.0
 40
1.0
 40
1.0
 10
269.5928547361043
 20
93.22132236921149
 30
0.0
 10
269.5927810165034
 20
92.69864908744415
 30
0.0
 10
269.4888659227941
 20
92.17543316002518
 30
0.0
 10
269.0899437062752
 20
91.21069458194613
 30
0.0
 10
268.7955046210038
 20
90.76867584178686
 30
0.0
 10
268.059072738842
 20
90.02913217562318
 30
0.0
 10
267.6170136048214
 20
89.7315385835747
 30
0.0
 10
266.6476424415669
 20
89.32732486403938
 30
0.0
 10
266.1205049539434
 20
89.22132235758768
 30
0.0
 10
265.0652258520764
 20
89.22132237751083
 30
0.0
 10
264.5380884268071
 20
89.32732505578548
 30
0.0
 10
263.5687172601566
 20
89.73153886133058
 30
0.0
 10
263.1266582337485
 20
90.02913255447449
 30
0.0
 10
262.3902264268592
 20
90.76867630829
 30
0.0
 10
262.0957874499231
 20
91.21069490985363
 30
0.0
 10
261.6968652757819
 20
92.17543404778077
 30
0.0
 10
261.5929504108392
 20
92.69864848879881
 30
0.0
 10
261.592876707111
 20
93.2213223677977
 30
0.0
  0
SPLINE
  5
18E
330
1B
100
AcDbEntity
 67
     1
  8
0
  6
Continuous
 62
     7
370
    25
100
AcDbSpline
210
0.0
220
0.0
230
1.0
 70
     8
 71
     3
 72
    26
 73
    22
 74
     0
 42
0.000000001
 43
0.00000001
 40
0.0
 40
0.0
 40
0.0
 40
0.0
 40
0.0198883414618287
 40
0.0401795501154307
 40
0.0608744046296919
 40
0.081973638362779
 40
0.1034779426801773
 40
0.1253879699802329
 40
0.1779657390134393
 40
0.2505502727376563
 40
0.322667396519864
 40
0.3746233403648287
 40
0.4989496085315409
 40
0.6234903612030256
 40
0.6760886579896703
 40
0.7487365510106244
 40
0.821534329046512
 40
0.8740246360102887
 40
0.9176568971112817
 40
0.9596468266265905
 40
1.0
 40
1.0
 40
1.0
 40
1.0
 10
247.9928657146766
 20
93.2213223675745
 30
0.0
 10
247.9936532243181
 20
93.1776644595649
 30
0.0
 10
247.9952441957507
 20
93.08946428932077
 30
0.0
 10
248.0082930014092
 20
92.95636527400261
 30
0.0
 10
248.0296746630373
 20
92.82172888464792
 30
0.0
 10
248.0605811752231
 20
92.68620520987754
 30
0.0
 10
248.1011809385696
 20
92.55049636073731
 30
0.0
 10
248.1751675405652
 20
92.35320612841983
 30
0.0
 10
248.3234834703782
 20
92.06512523460515
 30
0.0
 10
248.5950007779299
 20
91.72363467009123
 30
0.0
 10
248.9356270404235
 20
91.45298785444926
 30
0.0
 10
249.4209128923594
 20
91.2018259343267
 30
0.0
 10
250.085963718087
 20
91.06607162563549
 30
0.0
 10
250.7533813413033
 20
91.19779144738285
 30
0.0
 10
251.2427183026472
 20
91.44787965408051
 30
0.0
 10
251.5867070797305
 20
91.71932888684559
 30
0.0
 10
251.8597974261268
 20
92.06143833729378
 30
0.0
 10
252.0309519387601
 20
92.39187040331669
 30
0.0
 10
252.1279231667335
 20
92.67972208604203
 30
0.0
 10
252.1829728626228
 20
92.9518515477187
 30
0.0
 10
252.1896120872134
 20
93.13269699894893
 30
0.0
 10
252.1928657146766
 20
93.22132236757449
 30
0.0
  0
SPLINE
  5
190
330
1B
100
AcDbEntity
 67
     1
  8
0
  6
Continuous
 62
     7
370
    25
100
AcDbSpline
210
0.0
220
0.0
230
1.0
 70
     8
 71
     3
 72
    26
 73
    22
 74
     0
 42
0.000000001
 43
0.00000001
 40
0.0
 40
0.0
 40
0.0
 40
0.0
 40
0.019887956511336
 40
0.0401794041808915
 40
0.0608751217882602
 40
0.0819758427271507
 40
0.1034822583339201
 40
0.1253950209222437
 40
0.1779838910012118
 40
0.2506190805368064
 40
0.3227013231365013
 40
0.3746368180535574
 40
0.4988249147638061
 40
0.6233360649697863
 40
0.6759735199352084
 40
0.7486383217314279
 40
0.8214827579891381
 40
0.8739766929691787
 40
0.9176268517855782
 40
0.9596327606681582
 40
1.0
 40
1.0
 40
1.0
 40
1.0
 10
252.1928657146766
 20
93.22132236757449
 30
0.0
 10
252.1920782296698
 20
93.26497954082976
 30
0.0
 10
252.1904872829904
 20
93.35317961350283
 30
0.0
 10
252.1774383716944
 20
93.48628054263092
 30
0.0
 10
252.1560555906147
 20
93.62092286502897
 30
0.0
 10
252.1251461198952
 20
93.75645628729609
 30
0.0
 10
252.0845407811732
 20
93.89217837206458
 30
0.0
 10
252.0105379644862
 20
94.08950054776786
 30
0.0
 10
251.8621449766803
 20
94.3777027589421
 30
0.0
 10
251.5905383307186
 20
94.7192081111203
 30
0.0
 10
251.2498789161758
 20
94.98979035360566
 30
0.0
 10
250.7649499398149
 20
95.24071882594377
 30
0.0
 10
250.1003826227588
 20
95.37649396204532
 30
0.0
 10
249.4331951778318
 20
95.24512991841374
 30
0.0
 10
248.9436947914814
 20
94.99522108919818
 30
0.0
 10
248.599433787669
 20
94.72374601130113
 30
0.0
 10
248.3261654798205
 20
94.38157983653807
 30
0.0
 10
248.1548896532761
 20
94.0510407436036
 30
0.0
 10
248.0578562818726
 20
93.76312144168423
 30
0.0
 10
248.0027656681738
 20
93.49089087605948
 30
0.0
 10
247.9961216420872
 20
93.3099788947037
 30
0.0
 10
247.9928657146766
 20
93.2213223675745
 30
0.0
  0
LINE
  5
1A7
330
1B
100
AcDbEntity
 67
     1
  8
0
  6
Continuous
 62
     7
370
    25
100
AcDbLine
 10
232.0928657147
 20
232.2213223675
 30
0.0
 11
275.5928657147
 21
232.2213223675
 31
0.0
  0
LINE
  5
1A8
330
1B
100
AcDbEntity
 67
     1
  8
0
  6
Continuous
 62
     7
370
    25
100
AcDbLine
 10
275.5928657147
 20
274.2213223675
 30
0.0
 11
232.0928657147
 21
274.2213223675
 31
0.0
  0
LINE
  5
1A9
330
1B
100
AcDbEntity
 67
     1
  8
0
  6
Continuous
 62
     7
370
    25
100
AcDbLine
 10
232.0928657147
 20
72.2213223676
 30
0.0
 11
275.5928657147
 21
72.2213223676
 31
0.0
  0
LINE
  5
1AA
330
1B
100
AcDbEntity
 67
     1
  8
0
  6
Continuous
 62
     7
370
    25
100
AcDbLine
 10
275.5928657147
 20
114.2213223676
 30
0.0
 11
232.0928657147
 21
114.2213223676
 31
0.0
  0
LINE
  5
1AB
330
1B
100
AcDbEntity
 67
     1
  8
0
  6
Continuous
 62
     7
370
    25
100
AcDbLine
 10
231.0928657147
 20
310.7213223676
 30
0.0
 11
229.5928657147
 21
310.7213223676
 31
0.0
  0
LINE
  5
1AC
330
1B
100
AcDbEntity
 67
     1
  8
0
  6
Continuous
 62
     7
370
    25
100
AcDbLine
 10
229.5928657147
 20
295.7213223676
 30
0.0
 11
231.5928657147
 21
295.7213223676
 31
0.0
  0
LINE
  5
1AD
330
1B
100
AcDbEntity
 67
     1
  8
0
  6
Continuous
 62
     7
370
    25
100
AcDbLine
 10
229.5928657147
 20
50.7213223676
 30
0.0
 11
231.5928657147
 21
50.7213223676
 31
0.0
  0
LINE
  5
1AE
330
1B
100
AcDbEntity
 67
     1
  8
0
  6
Continuous
 62
     7
370
    25
100
AcDbLine
 10
231.0928657147
 20
35.7213223676
 30
0.0
 11
231.0928657147
 21
310.7213223676
 31
0.0
  0
LINE
  5
1AF
330
1B
100
AcDbEntity
 67
     1
  8
0
  6
Continuous
 62
     7
370
    25
100
AcDbLine
 10
229.5928657147
 20
35.7213223676
 30
0.0
 11
231.0928657147
 21
35.7213223676
 31
0.0
  0
LINE
  5
1B0
330
1B
100
AcDbEntity
 67
     1
  8
0
  6
Continuous
 62
     7
370
    25
100
AcDbLine
 10
229.5928657147
 20
310.7213223676
 30
0.0
 11
229.5928657147
 21
35.7213223676
 31
0.0
  0
LINE
  5
1B1
330
1B
100
AcDbEntity
 67
     1
  8
0
  6
Continuous
 62
     7
370
    25
100
AcDbLine
 10
231.5928657147
 20
36.2213223676
 30
0.0
 11
231.5928657147
 21
310.2213223676
 31
0.0
  0
LINE
  5
1B2
330
1B
100
AcDbEntity
 67
     1
  8
0
  6
Continuous
 62
     7
370
    25
100
AcDbLine
 10
276.5928657147
 20
253.2213223675
 30
0.0
 11
270.0928657146
 21
253.2213223679
 31
0.0
  0
LINE
  5
1B3
330
1B
100
AcDbEntity
 67
     1
  8
0
  6
Continuous
 62
     7
370
    25
100
AcDbLine
 10
247.9928657147
 20
253.2213223675
 30
0.0
 11
231.5928657147
 21
253.2213223675
 31
0.0
  0
LINE
  5
1B4
330
1B
100
AcDbEntity
 67
     1
  8
0
  6
Continuous
 62
     7
370
    25
100
AcDbLine
 10
261.0928657148
 20
253.2213223673
 30
0.0
 11
252.1928657147
 21
253.2213223675
 31
0.0
  0
LINE
  5
1B5
330
1B
100
AcDbEntity
 67
     1
  8
0
  6
Continuous
 62
     7
370
    25
100
AcDbLine
 10
276.5928657147
 20
233.2213223675
 30
0.0
 11
276.5928657147
 21
273.2213223675
 31
0.0
  0
LINE
  5
1B6
330
1B
100
AcDbEntity
 67
     1
  8
0
  6
Continuous
 62
     7
370
    25
100
AcDbLine
 10
265.5928657147
 20
249.3213223675
 30
0.0
 11
265.5928657147
 21
250.3213223675
 31
0.0
  0
LINE
  5
1B7
330
1B
100
AcDbEntity
 67
     1
  8
0
  6
Continuous
 62
     7
370
    25
100
AcDbLine
 10
265.5928657147
 20
257.1213223675
 30
0.0
 11
265.5928657147
 21
256.1213223675
 31
0.0
  0
LINE
  5
1B8
330
1B
100
AcDbEntity
 67
     1
  8
0
  6
Continuous
 62
     7
370
    25
100
AcDbLine
 10
232.0928657147
 20
152.2213223675
 30
0.0
 11
232.0928657147
 21
194.2213223675
 31
0.0
  0
LINE
  5
1B9
330
1B
100
AcDbEntity
 67
     1
  8
0
  6
Continuous
 62
     7
370
    25
100
AcDbLine
 10
275.5928657147
 20
194.2213223675
 30
0.0
 11
232.0928657147
 21
194.2213223675
 31
0.0
  0
LINE
  5
1BA
330
1B
100
AcDbEntity
 67
     1
  8
0
  6
Continuous
 62
     7
370
    25
100
AcDbLine
 10
275.5928657147
 20
194.2213223675
 30
0.0
 11
275.5928657147
 21
152.2213223675
 31
0.0
  0
LINE
  5
1BB
330
1B
100
AcDbEntity
 67
     1
  8
0
  6
Continuous
 62
     7
370
    25
100
AcDbLine
 10
275.5928657147
 20
152.2213223675
 30
0.0
 11
232.0928657147
 21
152.2213223675
 31
0.0
  0
LINE
  5
1BC
330
1B
100
AcDbEntity
 67
     1
  8
0
  6
Continuous
 62
     7
370
    25
100
AcDbLine
 10
276.5928657147
 20
153.2213223675
 30
0.0
 11
276.5928657147
 21
193.2213223675
 31
0.0
  0
LINE
  5
1BD
330
1B
100
AcDbEntity
 67
     1
  8
0
  6
Continuous
 62
     7
370
    25
100
AcDbLine
 10
255.8534963947
 20
174.2943191386
 30
0.0
 11
252.3323445342
 21
174.2943191386
 31
0.0
  0
LINE
  5
1BE
330
1B
100
AcDbEntity
 67
     1
  8
0
  6
Continuous
 62
     7
370
    25
100
AcDbLine
 10
252.6033491276
 20
174.6990906999
 30
0.0
 11
255.5822533786
 21
174.6990906999
 31
0.0
  0
LINE
  5
1BF
330
1B
100
AcDbEntity
 67
     1
  8
0
  6
Continuous
 62
     7
370
    25
100
AcDbLine
 10
252.6034780507
 20
171.7435540352
 30
0.0
 11
255.5823823017
 21
171.7435540352
 31
0.0
  0
LINE
  5
1C0
330
1B
100
AcDbEntity
 67
     1
  8
0
  6
Continuous
 62
     7
370
    25
100
AcDbLine
 10
255.8533868951
 20
172.1483255964
 30
0.0
 11
252.3322350346
 21
172.1483255964
 31
0.0
  0
LINE
  5
1C1
330
1B
100
AcDbEntity
 67
     1
  8
0
  6
Continuous
 62
     7
370
    25
100
AcDbLine
 10
252.0602782508
 20
172.7223410662
 30
0.0
 11
256.1253524573
 21
172.7223410662
 31
0.0
  0
LINE
  5
1C2
330
1B
100
AcDbEntity
 67
     1
  8
0
  6
Continuous
 62
     7
370
    25
100
AcDbLine
 10
256.1929026236
 20
173.2213223675
 30
0.0
 11
251.9928288057
 21
173.2213223675
 31
0.0
  0
LINE
  5
1C3
330
1B
100
AcDbEntity
 67
     1
  8
0
  6
Continuous
 62
     7
370
    25
100
AcDbLine
 10
252.060378972
 20
173.7203036688
 30
0.0
 11
256.1254531786
 21
173.7203036688
 31
0.0
  0
LINE
  5
1C4
330
1B
100
AcDbEntity
 67
     1
  8
0
  6
Continuous
 62
     7
370
    25
100
AcDbLine
 10
265.5928657147
 20
169.3213223675
 30
0.0
 11
265.5928657147
 21
170.3213223675
 31
0.0
  0
LINE
  5
1C5
330
1B
100
AcDbEntity
 67
     1
  8
0
  6
Continuous
 62
     7
370
    25
100
AcDbLine
 10
265.5928657147
 20
177.1213223675
 30
0.0
 11
265.5928657147
 21
176.1213223675
 31
0.0
  0
LINE
  5
1C6
330
1B
100
AcDbEntity
 67
     1
  8
0
  6
Continuous
 62
     7
370
    25
100
AcDbLine
 10
276.5928657147
 20
93.2213223676
 30
0.0
 11
270.0928657146
 21
93.221322368
 31
0.0
  0
LINE
  5
1C7
330
1B
100
AcDbEntity
 67
     1
  8
0
  6
Continuous
 62
     7
370
    25
100
AcDbLine
 10
247.9928657147
 20
93.2213223676
 30
0.0
 11
231.5928657147
 21
93.2213223676
 31
0.0
  0
LINE
  5
1C8
330
1B
100
AcDbEntity
 67
     1
  8
0
  6
Continuous
 62
     7
370
    25
100
AcDbLine
 10
261.0928657148
 20
93.2213223673
 30
0.0
 11
252.1928657147
 21
93.2213223676
 31
0.0
  0
LINE
  5
1C9
330
1B
100
AcDbEntity
 67
     1
  8
0
  6
Continuous
 62
     7
370
    25
100
AcDbLine
 10
276.5928657147
 20
73.2213223676
 30
0.0
 11
276.5928657147
 21
113.2213223676
 31
0.0
  0
LINE
  5
1CA
330
1B
100
AcDbEntity
 67
     1
  8
0
  6
Continuous
 62
     7
370
    25
100
AcDbLine
 10
265.5928657147
 20
89.3213223676
 30
0.0
 11
265.5928657147
 21
90.3213223676
 31
0.0
  0
LINE
  5
1CB
330
1B
100
AcDbEntity
 67
     1
  8
0
  6
Continuous
 62
     7
370
    25
100
AcDbLine
 10
265.5928657147
 20
97.1213223676
 30
0.0
 11
265.5928657147
 21
96.1213223676
 31
0.0
  0
LINE
  5
1CC
330
1B
100
AcDbEntity
 67
     1
  8
0
  6
Continuous
 62
     8
370
    25
100
AcDbLine
 10
275.5928657147
 20
274.2213223675
 30
0.0
 11
275.5928657147
 21
232.2213223675
 31
0.0
  0
LINE
  5
1CD
330
1B
100
AcDbEntity
 67
     1
  8
0
  6
Continuous
 62
     8
370
    25
100
AcDbLine
 10
232.0928657147
 20
232.2213223675
 30
0.0
 11
232.0928657147
 21
274.2213223675
 31
0.0
  0
LINE
  5
1CE
330
1B
100
AcDbEntity
 67
     1
  8
0
  6
Continuous
 62
     8
370
    25
100
AcDbLine
 10
275.5928657147
 20
114.2213223676
 30
0.0
 11
275.5928657147
 21
72.2213223676
 31
0.0
  0
LINE
  5
1CF
330
1B
100
AcDbEntity
 67
     1
  8
0
  6
Continuous
 62
     8
370
    25
100
AcDbLine
 10
232.0928657147
 20
72.2213223676
 30
0.0
 11
232.0928657147
 21
114.2213223676
 31
0.0
  0
ARC
  5
1D0
330
1B
100
AcDbEntity
 67
     1
  8
0
  6
Continuous
 62
     7
370
    25
100
AcDbCircle
 10
232.0928657147
 20
273.7213223675
 30
0.0
 40
0.5
100
AcDbArc
 50
90.0
 51
180.0
  0
ARC
  5
1D1
330
1B
100
AcDbEntity
 67
     1
  8
0
  6
Continuous
 62
     7
370
    25
100
AcDbCircle
 10
232.0928657147
 20
232.7213223675
 30
0.0
 40
0.4999999999999716
100
AcDbArc
 50
180.0
 51
270.0
  0
ARC
  5
1D2
330
1B
100
AcDbEntity
 67
     1
  8
0
  6
Continuous
 62
     7
370
    25
100
AcDbCircle
 10
275.5928657147
 20
273.2213223675
 30
0.0
 40
0.9999999999999432
100
AcDbArc
 50
0.0
 51
90.0
  0
ARC
  5
1D3
330
1B
100
AcDbEntity
 67
     1
  8
0
  6
Continuous
 62
     7
370
    25
100
AcDbCircle
 10
275.5928657147
 20
233.2213223675
 30
0.0
 40
1.0
100
AcDbArc
 50
270.0
 51
0.0
  0
ARC
  5
1D4
330
1B
100
AcDbEntity
 67
     1
  8
0
  6
Continuous
 62
     7
370
    25
100
AcDbCircle
 10
275.5928657147
 20
73.2213223676
 30
0.0
 40
1.000000000000171
100
AcDbArc
 50
270.0
 51
0.0
  0
ARC
  5
1D5
330
1B
100
AcDbEntity
 67
     1
  8
0
  6
Continuous
 62
     7
370
    25
100
AcDbCircle
 10
275.5928657147
 20
113.2213223676
 30
0.0
 40
1.000000000000057
100
AcDbArc
 50
0.0
 51
90.0
  0
ARC
  5
1D6
330
1B
100
AcDbEntity
 67
     1
  8
0
  6
Continuous
 62
     7
370
    25
100
AcDbCircle
 10
232.0928657147
 20
72.7213223676
 30
0.0
 40
0.5
100
AcDbArc
 50
180.0
 51
270.0
  0
ARC
  5
1D7
330
1B
100
AcDbEntity
 67
     1
  8
0
  6
Continuous
 62
     7
370
    25
100
AcDbCircle
 10
232.0928657147
 20
113.7213223676
 30
0.0
 40
0.5
100
AcDbArc
 50
90.0
 51
180.0
  0
ARC
  5
1D8
330
1B
100
AcDbEntity
 67
     1
  8
0
  6
Continuous
 62
     7
370
    25
100
AcDbCircle
 10
231.0928657147
 20
310.2213223676
 30
0.0
 40
0.5000000000001705
100
AcDbArc
 50
0.0
 51
90.0
  0
ARC
  5
1D9
330
1B
100
AcDbEntity
 67
     1
  8
0
  6
Continuous
 62
     7
370
    25
100
AcDbCircle
 10
231.0928657147
 20
36.2213223676
 30
0.0
 40
0.5000000000000568
100
AcDbArc
 50
270.0000000002
 51
360.0
  0
ARC
  5
1DA
330
1B
100
AcDbEntity
 67
     1
  8
0
  6
Continuous
 62
     7
370
    25
100
AcDbCircle
 10
265.5928657147
 20
253.2213223626
 30
0.0
 40
2.900000004927534
100
AcDbArc
 50
89.9999999996
 51
89.256712763
  0
ARC
  5
1DB
330
1B
100
AcDbEntity
 67
     1
  8
0
  6
Continuous
 62
     7
370
    25
100
AcDbCircle
 10
265.5928657147
 20
253.2213223801
 30
0.0
 40
3.900000012586474
100
AcDbArc
 50
269.2567127638
 51
269.9999999993
  0
ARC
  5
1DC
330
1B
100
AcDbEntity
 67
     1
  8
0
  6
Continuous
 62
     7
370
    25
100
AcDbCircle
 10
265.5928657147
 20
253.2213223675
 30
0.0
 40
3.900000000000234
100
AcDbArc
 50
90.0
 51
269.2567127621
  0
ARC
  5
1DD
330
1B
100
AcDbEntity
 67
     1
  8
0
  6
Continuous
 62
     7
370
    25
100
AcDbCircle
 10
265.5928657146
 20
253.2213223555
 30
0.0
 40
3.900000012009599
100
AcDbArc
 50
89.2567127637
 51
89.9999999993
  0
ARC
  5
1DE
330
1B
100
AcDbEntity
 67
     1
  8
0
  6
Continuous
 62
     7
370
    25
100
AcDbCircle
 10
265.5928657147
 20
253.2213223675
 30
0.0
 40
3.900000000000176
100
AcDbArc
 50
270.0
 51
89.2567127621
  0
ARC
  5
1DF
330
1B
100
AcDbEntity
 67
     1
  8
0
  6
Continuous
 62
     7
370
    25
100
AcDbCircle
 10
275.5928657147
 20
153.2213223675
 30
0.0
 40
1.0
100
AcDbArc
 50
270.0
 51
0.0
  0
ARC
  5
1E0
330
1B
100
AcDbEntity
 67
     1
  8
0
  6
Continuous
 62
     7
370
    25
100
AcDbCircle
 10
275.5928657147
 20
193.2213223675
 30
0.0
 40
1.000000000000057
100
AcDbArc
 50
360.0
 51
90.0
  0
ARC
  5
1E1
330
1B
100
AcDbEntity
 67
     1
  8
0
  6
Continuous
 62
     7
370
    25
100
AcDbCircle
 10
232.0928657147
 20
193.7213223675
 30
0.0
 40
0.5
100
AcDbArc
 50
90.0
 51
180.0
  0
ARC
  5
1E2
330
1B
100
AcDbEntity
 67
     1
  8
0
  6
Continuous
 62
     7
370
    25
100
AcDbCircle
 10
232.0928657147
 20
152.7213223675
 30
0.0
 40
0.5000000000000284
100
AcDbArc
 50
180.0
 51
270.0
  0
ARC
  5
1E3
330
1B
100
AcDbEntity
 67
     1
  8
0
  6
Continuous
 62
     7
370
    25
100
AcDbCircle
 10
265.5928657147
 20
173.2213223675
 30
0.0
 40
2.900000005186739
100
AcDbArc
 50
90.0
 51
269.2567127631
  0
ARC
  5
1E4
330
1B
100
AcDbEntity
 67
     1
  8
0
  6
Continuous
 62
     7
370
    25
100
AcDbCircle
 10
265.5928657147
 20
173.2213223786
 30
0.0
 40
3.900000011088366
100
AcDbArc
 50
269.2567127636
 51
269.9999999993
  0
ARC
  5
1E5
330
1B
100
AcDbEntity
 67
     1
  8
0
  6
Continuous
 62
     7
370
    25
100
AcDbCircle
 10
265.5928657147
 20
173.2213223675
 30
0.0
 40
3.900000000000205
100
AcDbArc
 50
90.0
 51
269.2567127621
  0
ARC
  5
1E6
330
1B
100
AcDbEntity
 67
     1
  8
0
  6
Continuous
 62
     7
370
    25
100
AcDbCircle
 10
265.5928657146
 20
173.2213223559
 30
0.0
 40
3.900000011650405
100
AcDbArc
 50
89.2567127637
 51
89.9999999993
  0
ARC
  5
1E7
330
1B
100
AcDbEntity
 67
     1
  8
0
  6
Continuous
 62
     7
370
    25
100
AcDbCircle
 10
265.5928657147
 20
173.2213223675
 30
0.0
 40
3.900000000000234
100
AcDbArc
 50
270.0
 51
89.2567127621
  0
ARC
  5
1E8
330
1B
100
AcDbEntity
 67
     1
  8
0
  6
Continuous
 62
     7
370
    25
100
AcDbCircle
 10
265.5928657147
 20
93.2213223789
 30
0.0
 40
3.900000011327606
100
AcDbArc
 50
269.2567127637
 51
269.9999999993
  0
ARC
  5
1E9
330
1B
100
AcDbEntity
 67
     1
  8
0
  6
Continuous
 62
     7
370
    25
100
AcDbCircle
 10
265.5928657147
 20
93.2213223676
 30
0.0
 40
3.900000000000206
100
AcDbArc
 50
90.0
 51
269.2567127621
  0
ARC
  5
1EA
330
1B
100
AcDbEntity
 67
     1
  8
0
  6
Continuous
 62
     7
370
    25
100
AcDbCircle
 10
265.5928657147
 20
93.2213223676
 30
0.0
 40
2.900000000000105
100
AcDbArc
 50
89.2567127621
 51
90.0
  0
ARC
  5
1EB
330
1B
100
AcDbEntity
 67
     1
  8
0
  6
Continuous
 62
     7
370
    25
100
AcDbCircle
 10
265.5928657146
 20
93.2213223563
 30
0.0
 40
3.900000011224478
100
AcDbArc
 50
89.2567127636
 51
89.9999999994
  0
ARC
  5
1EC
330
1B
100
AcDbEntity
 67
     1
  8
0
  6
Continuous
 62
     7
370
    25
100
AcDbCircle
 10
265.5928657147
 20
93.2213223676
 30
0.0
 40
3.900000000000205
100
AcDbArc
 50
270.0
 51
89.2567127621
  0
VIEWPORT
  5
254
330
1B
100
AcDbEntity
 67
     1
  8
0
100
AcDbViewport
 10
0.0
 20
0.0
 30
0.0
 40
205.6
 41
156.0
 68
     1
 69
     1
 12
134.4243383055
 22
173.2213223676
 13
0.0
 23
0.0
 14
10.0
 24
10.0
 15
10.0
 25
10.0
 16
0.0
 26
0.0
 36
1.0
 17
0.0
 27
0.0
 37
0.0
 42
50.0
 43
0.0
 44
0.0
 45
280.5
 50
0.0
 51
0.0
 72
   100
 90
   557152
  1

281
     0
 71
     1
 74
     0
110
0.0
120
0.0
130
0.0
111
1.0
121
0.0
131
0.0
112
0.0
122
1.0
132
0.0
 79
     0
146
0.0
  0
ENDSEC
  0
SECTION
  2
OBJECTS
  0
DICTIONARY
  5
C
330
0
100
AcDbDictionary
281
     1
  3
ACAD_GROUP
350
D
  3
ACAD_LAYOUT
350
1A
  3
ACAD_MLINESTYLE
350
17
  3
ACAD_PLOTSETTINGS
350
19
  3
ACAD_PLOTSTYLENAME
350
E
  3
ACAD_SCALELIST
350
47
  0
DICTIONARY
  5
D
102
{ACAD_REACTORS
330
C
102
}
330
C
100
AcDbDictionary
281
     1
  0
DICTIONARY
  5
1A
102
{ACAD_REACTORS
330
C
102
}
330
C
100
AcDbDictionary
281
     1
  3
_Left
350
1E
  3
_Top
350
26
  3
Model
350
22
  0
DICTIONARY
  5
17
102
{ACAD_REACTORS
330
C
102
}
330
C
100
AcDbDictionary
281
     1
  3
Standard
350
18
  0
DICTIONARY
  5
19
102
{ACAD_REACTORS
330
C
102
}
330
C
100
AcDbDictionary
281
     1
  0
ACDBDICTIONARYWDFLT
  5
E
102
{ACAD_REACTORS
330
C
102
}
330
C
100
AcDbDictionary
281
     1
  3
Normal
350
F
100
AcDbDictionaryWithDefault
340
F
  0
DICTIONARY
  5
47
102
{ACAD_REACTORS
330
C
102
}
330
C
100
AcDbDictionary
281
     1
  3
A0
350
48
  3
A1
350
49
  3
A2
350
4A
  3
A3
350
4B
  3
A4
350
4C
  3
A5
350
4D
  3
A6
350
4E
  3
A7
350
4F
  3
A8
350
50
  3
A9
350
51
  3
B0
350
52
  3
B1
350
53
  3
B2
350
54
  3
B3
350
55
  3
B4
350
56
  3
B5
350
57
  3
B6
350
58
  3
B7
350
59
  3
B8
350
5A
  3
B9
350
5B
  3
C0
350
5C
  3
C1
350
5D
  3
C2
350
5E
  3
C3
350
5F
  3
C4
350
60
  3
C5
350
61
  3
C6
350
62
  3
C7
350
63
  3
C8
350
64
  3
C9
350
65
  3
D0
350
66
  3
D1
350
67
  3
D2
350
68
  0
LAYOUT
  5
1E
102
{ACAD_REACTORS
330
1A
102
}
330
1A
100
AcDbPlotSettings
  1

  2
none_device
  4
ISO_A4_(210.00_x_297.00_MM)
  6

 40
7.5
 41
20.0
 42
7.5
 43
20.0
 44
210.0
 45
297.0
 46
0.0
 47
0.0
 48
0.0
 49
0.0
140
0.0
141
0.0
142
1.0
143
1.4102564103
 70
   688
 72
     1
 73
     1
 74
     1
  7

 75
     0
147
0.7090909091
148
-229.5928657147
149
-35.7213223676
100
AcDbLayout
  1
_Left
 70
     1
 71
     1
 10
201.3877375095
 20
25.1443992907
 11
620.2338913557
 21
321.2982454445
 12
0.0
 22
0.0
 32
0.0
 14
229.5928657147
 24
35.7213223676
 34
0.0
 15
276.5928657147
 25
310.7213223676
 35
0.0
146
0.0
 13
0.0
 23
0.0
 33
0.0
 16
1.0
 26
0.0
 36
0.0
 17
0.0
 27
1.0
 37
0.0
 76
     0
330
1B
331
254
  0
LAYOUT
  5
26
102
{ACAD_REACTORS
330
1A
102
}
330
1A
100
AcDbPlotSettings
  1

  2
none_device
  4
ISO_A4_(210.00_x_297.00_MM)
  6

 40
7.5
 41
20.0
 42
7.5
 43
20.0
 44
210.0
 45
297.0
 46
0.0
 47
0.0
 48
0.0
 49
0.0
140
0.0
141
0.0
142
1.0
143
1.4102564103
 70
   688
 72
     1
 73
     1
 74
     1
  7

 75
     0
147
0.7090909091
148
-229.5928657147
149
-35.7213223676
100
AcDbLayout
  1
_Top
 70
     1
 71
     2
 10
0.0
 20
0.0
 11
0.0
 21
0.0
 12
0.0
 22
0.0
 32
0.0
 14
0.0
 24
0.0
 34
0.0
 15
0.0
 25
0.0
 35
0.0
146
0.0
 13
0.0
 23
0.0
 33
0.0
 16
1.0
 26
0.0
 36
0.0
 17
0.0
 27
1.0
 37
0.0
 76
     0
330
23
331
256
  0
LAYOUT
  5
22
102
{ACAD_REACTORS
330
1A
102
}
330
1A
100
AcDbPlotSettings
  1

  2
none_device
  4
ANSI_A_(11.00_x_8.50_Inches)
  6

 40
6.35
 41
19.05
 42
6.35000508
 43
19.05000254
 44
279.4
 45
215.9
 46
28.8700247554
 47
-45.734541867
 48
0.0
 49
0.0
140
0.0
141
0.0
142
0.0306
143
1.0
 70
  1696
 72
     0
 73
     0
 74
     0
  7

 75
     0
147
0.0179189148
148
-1300.4909072572
149
0.0
100
AcDbLayout
  1
Model
 70
     1
 71
     0
 10
0.0
 20
0.0
 11
420.0
 21
297.0
 12
0.0
 22
0.0
 32
0.0
 14
74.4243383055
 24
35.7213223676
 34
0.0
 15
194.4243383055
 25
310.7213223676
 35
0.0
146
0.0
 13
0.0
 23
0.0
 33
0.0
 16
1.0
 26
0.0
 36
0.0
 17
0.0
 27
1.0
 37
0.0
 76
     0
330
1F
331
29
  0
MLINESTYLE
  5
18
102
{ACAD_REACTORS
330
17
102
}
330
17
100
AcDbMlineStyle
  2
Standard
 70
     0
  3

 62
   256
 51
90.0
 52
90.0
 71
     2
 49
0.5
 62
   256
  6
BYLAYER
 49
-0.5
 62
   256
  6
BYLAYER
  0
ACDBPLACEHOLDER
  5
F
102
{ACAD_REACTORS
330
E
102
}
330
E
  0
SCALE
  5
48
102
{ACAD_REACTORS
330
47
102
}
330
47
100
AcDbScale
 70
     0
300
1:1
140
1.0
141
1.0
290
     1
  0
SCALE
  5
49
102
{ACAD_REACTORS
330
47
102
}
330
47
100
AcDbScale
 70
     0
300
1:2
140
1.0
141
2.0
290
     0
  0
SCALE
  5
4A
102
{ACAD_REACTORS
330
47
102
}
330
47
100
AcDbScale
 70
     0
300
1:4
140
1.0
141
4.0
290
     0
  0
SCALE
  5
4B
102
{ACAD_REACTORS
330
47
102
}
330
47
100
AcDbScale
 70
     0
300
1:5
140
1.0
141
5.0
290
     0
  0
SCALE
  5
4C
102
{ACAD_REACTORS
330
47
102
}
330
47
100
AcDbScale
 70
     0
300
1:8
140
1.0
141
8.0
290
     0
  0
SCALE
  5
4D
102
{ACAD_REACTORS
330
47
102
}
330
47
100
AcDbScale
 70
     0
300
1:10
140
1.0
141
10.0
290
     0
  0
SCALE
  5
4E
102
{ACAD_REACTORS
330
47
102
}
330
47
100
AcDbScale
 70
     0
300
1:16
140
1.0
141
16.0
290
     0
  0
SCALE
  5
4F
102
{ACAD_REACTORS
330
47
102
}
330
47
100
AcDbScale
 70
     0
300
1:20
140
1.0
141
20.0
290
     0
  0
SCALE
  5
50
102
{ACAD_REACTORS
330
47
102
}
330
47
100
AcDbScale
 70
     0
300
1:30
140
1.0
141
30.0
290
     0
  0
SCALE
  5
51
102
{ACAD_REACTORS
330
47
102
}
330
47
100
AcDbScale
 70
     0
300
1:40
140
1.0
141
40.0
290
     0
  0
SCALE
  5
52
102
{ACAD_REACTORS
330
47
102
}
330
47
100
AcDbScale
 70
     0
300
1:50
140
1.0
141
50.0
290
     0
  0
SCALE
  5
53
102
{ACAD_REACTORS
330
47
102
}
330
47
100
AcDbScale
 70
     0
300
1:100
140
1.0
141
100.0
290
     0
  0
SCALE
  5
54
102
{ACAD_REACTORS
330
47
102
}
330
47
100
AcDbScale
 70
     0
300
2:1
140
2.0
141
1.0
290
     0
  0
SCALE
  5
55
102
{ACAD_REACTORS
330
47
102
}
330
47
100
AcDbScale
 70
     0
300
4:1
140
4.0
141
1.0
290
     0
  0
SCALE
  5
56
102
{ACAD_REACTORS
330
47
102
}
330
47
100
AcDbScale
 70
     0
300
8:1
140
8.0
141
1.0
290
     0
  0
SCALE
  5
57
102
{ACAD_REACTORS
330
47
102
}
330
47
100
AcDbScale
 70
     0
300
10:1
140
10.0
141
1.0
290
     0
  0
SCALE
  5
58
102
{ACAD_REACTORS
330
47
102
}
330
47
100
AcDbScale
 70
     0
300
100:1
140
100.0
141
1.0
290
     0
  0
SCALE
  5
59
102
{ACAD_REACTORS
330
47
102
}
330
47
100
AcDbScale
 70
     0
300
1/128" = 1'-0"
140
0.0078125
141
12.0
290
     0
  0
SCALE
  5
5A
102
{ACAD_REACTORS
330
47
102
}
330
47
100
AcDbScale
 70
     0
300
1/64" = 1'-0"
140
0.015625
141
12.0
290
     0
  0
SCALE
  5
5B
102
{ACAD_REACTORS
330
47
102
}
330
47
100
AcDbScale
 70
     0
300
1/32" = 1'-0"
140
0.03125
141
12.0
290
     0
  0
SCALE
  5
5C
102
{ACAD_REACTORS
330
47
102
}
330
47
100
AcDbScale
 70
     0
300
1/16" = 1'-0"
140
0.0625
141
12.0
290
     0
  0
SCALE
  5
5D
102
{ACAD_REACTORS
330
47
102
}
330
47
100
AcDbScale
 70
     0
300
3/32" = 1'-0"
140
0.09375
141
12.0
290
     0
  0
SCALE
  5
5E
102
{ACAD_REACTORS
330
47
102
}
330
47
100
AcDbScale
 70
     0
300
1/8" = 1'-0"
140
0.125
141
12.0
290
     0
  0
SCALE
  5
5F
102
{ACAD_REACTORS
330
47
102
}
330
47
100
AcDbScale
 70
     0
300
3/16" = 1'-0"
140
0.1875
141
12.0
290
     0
  0
SCALE
  5
60
102
{ACAD_REACTORS
330
47
102
}
330
47
100
AcDbScale
 70
     0
300
1/4" = 1'-0"
140
0.25
141
12.0
290
     0
  0
SCALE
  5
61
102
{ACAD_REACTORS
330
47
102
}
330
47
100
AcDbScale
 70
     0
300
3/8" = 1'-0"
140
0.375
141
12.0
290
     0
  0
SCALE
  5
62
102
{ACAD_REACTORS
330
47
102
}
330
47
100
AcDbScale
 70
     0
300
1/2" = 1'-0"
140
0.5
141
12.0
290
     0
  0
SCALE
  5
63
102
{ACAD_REACTORS
330
47
102
}
330
47
100
AcDbScale
 70
     0
300
3/4" = 1'-0"
140
0.75
141
12.0
290
     0
  0
SCALE
  5
64
102
{ACAD_REACTORS
330
47
102
}
330
47
100
AcDbScale
 70
     0
300
1" = 1'-0"
140
1.0
141
12.0
290
     0
  0
SCALE
  5
65
102
{ACAD_REACTORS
330
47
102
}
330
47
100
AcDbScale
 70
     0
300
1-1/2" = 1'-0"
140
1.5
141
12.0
290
     0
  0
SCALE
  5
66
102
{ACAD_REACTORS
330
47
102
}
330
47
100
AcDbScale
 70
     0
300
3" = 1'-0"
140
3.0
141
12.0
290
     0
  0
SCALE
  5
67
102
{ACAD_REACTORS
330
47
102
}
330
47
100
AcDbScale
 70
     0
300
6" = 1'-0"
140
6.0
141
12.0
290
     0
  0
SCALE
  5
68
102
{ACAD_REACTORS
330
47
102
}
330
47
100
AcDbScale
 70
     0
300
1'-0" = 1'-0"
140
12.0
141
12.0
290
     0
  0
ENDSEC
  0
EOF
