  0
SECTION
  2
HEADER
  9
$ACADVER
  1
AC1015
  9
$ACADMAINTVER
 70
     6
  9
$DWGCODEPAGE
  3
ANSI_1252
  9
$INSBASE
 10
0.0
 20
0.0
 30
0.0
  9
$EXTMIN
 10
74.4243383055
 20
35.7213223676
 30
0.0
  9
$EXTMAX
 10
194.4243383055
 20
310.7213223676
 30
0.0
  9
$LIMMIN
 10
0.0
 20
0.0
  9
$LIMMAX
 10
420.0
 20
297.0
  9
$ORTHOMODE
 70
     0
  9
$REGENMODE
 70
     1
  9
$FILLMODE
 70
     1
  9
$QTEXTMODE
 70
     0
  9
$MIRRTEXT
 70
     1
  9
$LTSCALE
 40
1.0
  9
$ATTMODE
 70
     1
  9
$TEXTSIZE
 40
3.5
  9
$TRACEWID
 40
1.0
  9
$TEXTSTYLE
  7
Standard
  9
$CLAYER
  8
0
  9
$CELTYPE
  6
ByLayer
  9
$CECOLOR
 62
   256
  9
$CELTSCALE
 40
1.0
  9
$DISPSILH
 70
     0
  9
$DIMSCALE
 40
1.0
  9
$DIMASZ
 40
3.302
  9
$DIMEXO
 40
1.0
  9
$DIMDLI
 40
3.75
  9
$DIMRND
 40
0.0
  9
$DIMDLE
 40
0.0
  9
$DIMEXE
 40
1.0
  9
$DIMTP
 40
0.0
  9
$DIMTM
 40
0.0
  9
$DIMTXT
 40
3.5
  9
$DIMCEN
 40
2.5
  9
$DIMTSZ
 40
0.0
  9
$DIMTOL
 70
     0
  9
$DIMLIM
 70
     0
  9
$DIMTIH
 70
     1
  9
$DIMTOH
 70
     1
  9
$DIMSE1
 70
     0
  9
$DIMSE2
 70
     0
  9
$DIMTAD
 70
     1
  9
$DIMZIN
 70
     1
  9
$DIMBLK
  1

  9
$DIMASO
 70
     1
  9
$DIMSHO
 70
     1
  9
$DIMPOST
  1

  9
$DIMAPOST
  1

  9
$DIMALT
 70
     0
  9
$DIMALTD
 70
     3
  9
$DIMALTF
 40
0.0393700787
  9
$DIMLFAC
 40
1.0
  9
$DIMTOFL
 70
     1
  9
$DIMTVP
 40
0.0
  9
$DIMTIX
 70
     0
  9
$DIMSOXD
 70
     0
  9
$DIMSAH
 70
     0
  9
$DIMBLK1
  1

  9
$DIMBLK2
  1

  9
$DIMSTYLE
  2
ISO-25
  9
$DIMCLRD
 70
     0
  9
$DIMCLRE
 70
     0
  9
$DIMCLRT
 70
     0
  9
$DIMTFAC
 40
1.0
  9
$DIMGAP
 40
1.524
  9
$DIMJUST
 70
     0
  9
$DIMSD1
 70
     0
  9
$DIMSD2
 70
     0
  9
$DIMTOLJ
 70
     0
  9
$DIMTZIN
 70
     1
  9
$DIMALTZ
 70
     0
  9
$DIMALTTZ
 70
     0
  9
$DIMUPT
 70
     0
  9
$DIMDEC
 70
     2
  9
$DIMTDEC
 70
     2
  9
$DIMALTU
 70
     2
  9
$DIMALTTD
 70
     3
  9
$DIMTXSTY
  7
Standard
  9
$DIMAUNIT
 70
     0
  9
$DIMADEC
 70
     2
  9
$DIMALTRND
 40
0.0
  9
$DIMAZIN
 70
     0
  9
$DIMDSEP
 70
    44
  9
$DIMATFIT
 70
     3
  9
$DIMFRAC
 70
     0
  9
$DIMLDRBLK
  1

  9
$DIMLUNIT
 70
     2
  9
$DIMLWD
 70
    -2
  9
$DIMLWE
 70
    -2
  9
$DIMTMOVE
 70
     0
  9
$LUNITS
 70
     2
  9
$LUPREC
 70
     2
  9
$SKETCHINC
 40
1.0
  9
$FILLETRAD
 40
10.0
  9
$AUNITS
 70
     0
  9
$AUPREC
 70
     2
  9
$MENU
  1
.
  9
$ELEVATION
 40
0.0
  9
$PELEVATION
 40
0.0
  9
$THICKNESS
 40
0.0
  9
$LIMCHECK
 70
     0
  9
$CHAMFERA
 40
0.0
  9
$CHAMFERB
 40
0.0
  9
$CHAMFERC
 40
0.0
  9
$CHAMFERD
 40
0.0
  9
$SKPOLY
 70
     0
  9
$TDCREATE
 40
2458821.691228171
  9
$TDUCREATE
 40
2458821.691228171
  9
$TDUPDATE
 40
2458821.691298831
  9
$TDUUPDATE
 40
2458821.691298831
  9
$TDINDWG
 40
0.0000000116
  9
$TDUSRTIMER
 40
0.0000000116
  9
$USRTIMER
 70
     1
  9
$ANGBASE
 50
0.0
  9
$ANGDIR
 70
     0
  9
$PDMODE
 70
     0
  9
$PDSIZE
 40
-1.0
  9
$PLINEWID
 40
0.0
  9
$SPLFRAME
 70
     0
  9
$SPLINETYPE
 70
     6
  9
$SPLINESEGS
 70
     8
  9
$HANDSEED
  5
2BE
  9
$SURFTAB1
 70
     6
  9
$SURFTAB2
 70
     6
  9
$SURFTYPE
 70
     6
  9
$SURFU
 70
     6
  9
$SURFV
 70
     6
  9
$UCSBASE
  2

  9
$UCSNAME
  2

  9
$UCSORG
 10
0.0
 20
0.0
 30
0.0
  9
$UCSXDIR
 10
1.0
 20
0.0
 30
0.0
  9
$UCSYDIR
 10
0.0
 20
1.0
 30
0.0
  9
$UCSORTHOREF
  2

  9
$UCSORTHOVIEW
 70
     0
  9
$UCSORGTOP
 10
0.0
 20
0.0
 30
0.0
  9
$UCSORGBOTTOM
 10
0.0
 20
0.0
 30
0.0
  9
$UCSORGLEFT
 10
0.0
 20
0.0
 30
0.0
  9
$UCSORGRIGHT
 10
0.0
 20
0.0
 30
0.0
  9
$UCSORGFRONT
 10
0.0
 20
0.0
 30
0.0
  9
$UCSORGBACK
 10
0.0
 20
0.0
 30
0.0
  9
$PUCSBASE
  2

  9
$PUCSNAME
  2

  9
$PUCSORG
 10
0.0
 20
0.0
 30
0.0
  9
$PUCSXDIR
 10
1.0
 20
0.0
 30
0.0
  9
$PUCSYDIR
 10
0.0
 20
1.0
 30
0.0
  9
$PUCSORTHOREF
  2

  9
$PUCSORTHOVIEW
 70
     0
  9
$PUCSORGTOP
 10
0.0
 20
0.0
 30
0.0
  9
$PUCSORGBOTTOM
 10
0.0
 20
0.0
 30
0.0
  9
$PUCSORGLEFT
 10
0.0
 20
0.0
 30
0.0
  9
$PUCSORGRIGHT
 10
0.0
 20
0.0
 30
0.0
  9
$PUCSORGFRONT
 10
0.0
 20
0.0
 30
0.0
  9
$PUCSORGBACK
 10
0.0
 20
0.0
 30
0.0
  9
$USERI1
 70
     0
  9
$USERI2
 70
     0
  9
$USERI3
 70
     0
  9
$USERI4
 70
     0
  9
$USERI5
 70
     0
  9
$USERR1
 40
0.0
  9
$USERR2
 40
0.0
  9
$USERR3
 40
0.0
  9
$USERR4
 40
0.0
  9
$USERR5
 40
0.0
  9
$WORLDVIEW
 70
     1
  9
$SHADEDGE
 70
     3
  9
$SHADEDIF
 70
    70
  9
$TILEMODE
 70
     0
  9
$MAXACTVP
 70
    64
  9
$PINSBASE
 10
0.0
 20
0.0
 30
0.0
  9
$PLIMCHECK
 70
     0
  9
$PEXTMIN
 10
74.4243383055
 20
35.7213223676
 30
0.0
  9
$PEXTMAX
 10
194.4243383055
 20
310.7213223676
 30
0.0
  9
$PLIMMIN
 10
0.0
 20
0.0
  9
$PLIMMAX
 10
0.0
 20
0.0
  9
$UNITMODE
 70
     0
  9
$VISRETAIN
 70
     1
  9
$PLINEGEN
 70
     0
  9
$PSLTSCALE
 70
     1
  9
$TREEDEPTH
 70
  3020
  9
$CMLSTYLE
  2
Standard
  9
$CMLJUST
 70
     0
  9
$CMLSCALE
 40
20.0
  9
$PROXYGRAPHICS
 70
     1
  9
$MEASUREMENT
 70
     1
  9
$CELWEIGHT
370
    -1
  9
$ENDCAPS
280
     0
  9
$JOINSTYLE
280
     0
  9
$LWDISPLAY
290
     1
  9
$INSUNITS
 70
     4
  9
$HYPERLINKBASE
  1

  9
$STYLESHEET
  1

  9
$XEDIT
290
     1
  9
$CEPSNTYPE
380
     0
  9
$PSTYLEMODE
290
     1
  9
$FINGERPRINTGUID
  2
{6137dcc2-c8c3-46ff-a58b-c54dba9da77d}
  9
$VERSIONGUID
  2
{FAEB1C32-E019-11D5-929B-00C0DF256EC4}
  9
$EXTNAMES
290
     1
  9
$PSVPSCALE
 40
0.0
  9
$OLESTARTUP
290
     0
  0
ENDSEC
  0
SECTION
  2
CLASSES
  0
CLASS
  1
ACDBDICTIONARYWDFLT
  2
AcDbDictionaryWithDefault
  3
ObjectDBX Classes
 90
        0
280
     0
281
     0
  0
CLASS
  1
VISUALSTYLE
  2
AcDbVisualStyle
  3
ObjectDBX Classes
 90
     4095
280
     0
281
     0
  0
CLASS
  1
MATERIAL
  2
AcDbMaterial
  3
ObjectDBX Classes
 90
     1153
280
     0
281
     0
  0
CLASS
  1
SCALE
  2
AcDbScale
  3
ObjectDBX Classes
 90
     1153
280
     0
281
     0
  0
CLASS
  1
TABLESTYLE
  2
AcDbTableStyle
  3
ObjectDBX Classes
 90
     4095
280
     0
281
     0
  0
CLASS
  1
MLEADERSTYLE
  2
AcDbMLeaderStyle
  3
ACDB_MLEADERSTYLE_CLASS
 90
     4095
280
     0
281
     0
  0
CLASS
  1
SUN
  2
AcDbSun
  3
SCENEOE
 90
     1153
280
     0
281
     0
  0
CLASS
  1
ACDBPLACEHOLDER
  2
AcDbPlaceHolder
  3
ObjectDBX Classes
 90
        0
280
     0
281
     0
  0
CLASS
  1
LAYOUT
  2
AcDbLayout
  3
ObjectDBX Classes
 90
        0
280
     0
281
     0
  0
ENDSEC
  0
SECTION
  2
TABLES
  0
TABLE
  2
VPORT
  5
8
330
0
100
AcDbSymbolTable
 70
     1
  0
VPORT
  5
29
330
8
100
AcDbSymbolTableRecord
100
AcDbViewportTableRecord
  2
*Active
 70
     0
 10
0.0
 20
0.0
 11
1.0
 21
1.0
 12
134.4243383055
 22
173.2213223676
 13
0.0
 23
0.0
 14
10.0
 24
10.0
 15
10.0
 25
10.0
 16
0.0
 26
0.0
 36
1.0
 17
0.0
 27
0.0
 37
0.0
 40
280.5
 41
0.4363636364
 42
50.0
 43
0.0
 44
0.0
 50
0.0
 51
0.0
 71
     0
 72
   100
 73
     1
 74
     3
 75
     0
 76
     0
 77
     0
 78
     0
281
     0
 65
     1
110
0.0
120
0.0
130
0.0
111
1.0
121
0.0
131
0.0
112
0.0
122
1.0
132
0.0
 79
     0
146
0.0
  0
ENDTAB
  0
TABLE
  2
LTYPE
  5
5
330
0
100
AcDbSymbolTable
 70
     6
  0
LTYPE
  5
14
330
5
100
AcDbSymbolTableRecord
100
AcDbLinetypeTableRecord
  2
ByBlock
 70
     0
  3

 72
    65
 73
     0
 40
0.0
  0
LTYPE
  5
15
330
5
100
AcDbSymbolTableRecord
100
AcDbLinetypeTableRecord
  2
ByLayer
 70
     0
  3

 72
    65
 73
     0
 40
0.0
  0
LTYPE
  5
16
330
5
100
AcDbSymbolTableRecord
100
AcDbLinetypeTableRecord
  2
Continuous
 70
     0
  3
Solid line
 72
    65
 73
     0
 40
0.0
  0
LTYPE
  5
6E
330
5
100
AcDbSymbolTableRecord
100
AcDbLinetypeTableRecord
  2
HIDDEN
 70
     0
  3
Hidden __ __ __ __ __ __ __ __ __ __ __ __ __ __
 72
    65
 73
     2
 40
1.905
 49
1.27
 74
     0
 49
-0.635
 74
     0
  0
LTYPE
  5
6F
330
5
100
AcDbSymbolTableRecord
100
AcDbLinetypeTableRecord
  2
PHANTOM
 70
     0
  3
Phantom ______  __  __  ______  __  __  ______
 72
    65
 73
     6
 40
12.7
 49
6.35
 74
     0
 49
-1.27
 74
     0
 49
1.27
 74
     0
 49
-1.27
 74
     0
 49
1.27
 74
     0
 49
-1.27
 74
     0
  0
LTYPE
  5
70
330
5
100
AcDbSymbolTableRecord
100
AcDbLinetypeTableRecord
  2
CENTER
 70
     0
  3
Center ____ _ ____ _ ____ _ ____ _ ____ _ ____
 72
    65
 73
     4
 40
10.16
 49
6.35
 74
     0
 49
-1.27
 74
     0
 49
1.27
 74
     0
 49
-1.27
 74
     0
  0
LTYPE
  5
71
330
5
100
AcDbSymbolTableRecord
100
AcDbLinetypeTableRecord
  2
CENTERX2
 70
     0
  3
Center (2x) ________  __  ________  __  _____
 72
    65
 73
     4
 40
20.32
 49
12.7
 74
     0
 49
-2.54
 74
     0
 49
2.54
 74
     0
 49
-2.54
 74
     0
  0
LTYPE
  5
72
330
5
100
AcDbSymbolTableRecord
100
AcDbLinetypeTableRecord
  2
DOT2
 70
     0
  3
Dot (.5x) ........................................
 72
    65
 73
     2
 40
0.635
 49
0.0
 74
     0
 49
-0.635
 74
     0
  0
ENDTAB
  0
TABLE
  2
LAYER
  5
2
330
0
100
AcDbSymbolTable
 70
     1
  0
LAYER
  5
10
330
2
100
AcDbSymbolTableRecord
100
AcDbLayerTableRecord
  2
0
 70
     0
 62
     7
  6
Continuous
370
    -3
390
F
  0
ENDTAB
  0
TABLE
  2
STYLE
  5
3
330
0
100
AcDbSymbolTable
 70
     1
  0
STYLE
  5
11
330
3
100
AcDbSymbolTableRecord
100
AcDbTextStyleTableRecord
  2
Standard
 70
     0
 40
0.0
 41
1.0
 50
0.0
 71
     0
 42
3.5
  3
txt
  4

  0
ENDTAB
  0
TABLE
  2
VIEW
  5
6
330
0
100
AcDbSymbolTable
 70
     0
  0
ENDTAB
  0
TABLE
  2
UCS
  5
7
330
0
100
AcDbSymbolTable
 70
     0
  0
ENDTAB
  0
TABLE
  2
APPID
  5
9
330
0
100
AcDbSymbolTable
 70
     1
  0
APPID
  5
12
330
9
100
AcDbSymbolTableRecord
100
AcDbRegAppTableRecord
  2
ACAD
 70
     0
  0
ENDTAB
  0
TABLE
  2
DIMSTYLE
  5
A
330
0
100
AcDbSymbolTable
 70
     1
100
AcDbDimStyleTable
  0
DIMSTYLE
105
27
330
A
100
AcDbSymbolTableRecord
100
AcDbDimStyleTableRecord
  2
ISO-25
 70
     0
 41
2.5
 42
0.625
 43
3.75
 44
1.25
 73
     0
 74
     0
 77
     1
 78
     8
140
2.5
141
2.5
143
0.0393700787
147
0.625
171
     3
172
     1
178
     0
271
     2
272
     2
274
     3
278
    44
283
     0
284
     8
340
11
  0
ENDTAB
  0
TABLE
  2
BLOCK_RECORD
  5
1
330
0
100
AcDbSymbolTable
 70
     1
  0
BLOCK_RECORD
  5
1F
330
1
100
AcDbSymbolTableRecord
100
AcDbBlockTableRecord
  2
*Model_Space
340
22
  0
BLOCK_RECORD
  5
23
330
1
100
AcDbSymbolTableRecord
100
AcDbBlockTableRecord
  2
*Paper_Space
340
26
  0
BLOCK_RECORD
  5
1B
330
1
100
AcDbSymbolTableRecord
100
AcDbBlockTableRecord
  2
*Paper_Space0
340
1E
  0
ENDTAB
  0
ENDSEC
  0
SECTION
  2
BLOCKS
  0
BLOCK
  5
20
330
1F
100
AcDbEntity
  8
0
100
AcDbBlockBegin
  2
*Model_Space
 70
     0
 10
0.0
 20
0.0
 30
0.0
  3
*Model_Space
  1

  0
ENDBLK
  5
21
330
1F
100
AcDbEntity
  8
0
100
AcDbBlockEnd
  0
BLOCK
  5
24
330
23
100
AcDbEntity
 67
     1
  8
0
100
AcDbBlockBegin
  2
*Paper_Space
 70
     0
 10
0.0
 20
0.0
 30
0.0
  3
*Paper_Space
  1

  0
ENDBLK
  5
25
330
23
100
AcDbEntity
 67
     1
  8
0
100
AcDbBlockEnd
  0
BLOCK
  5
1C
330
1B
100
AcDbEntity
  8
0
100
AcDbBlockBegin
  2
*Paper_Space0
 70
     0
 10
0.0
 20
0.0
 30
0.0
  3
*Paper_Space0
  1

  0
SPLINE
  5
13C
330
1B
100
AcDbEntity
  8
0
  6
Continuous
 62
     7
370
    25
100
AcDbSpline
210
0.0
220
0.0
230
1.0
 70
     8
 71
     3
 72
     9
 73
     5
 74
     0
 42
0.000000001
 43
0.00000001
 40
0.0
 40
0.0
 40
0.0
 40
0.0
 40
0.4770094292424986
 40
1.0
 40
1.0
 40
1.0
 40
1.0
 10
-264.5076959325855
 20
72.23468858116385
 30
0.0
 10
-264.5250857376739
 20
72.23866883012506
 30
0.0
 10
-264.5615416314619
 20
72.24701300262396
 30
0.0
 10
-264.7642640230628
 20
72.29203816802469
 30
0.0
 10
-264.8702859223515
 20
72.31558590497609
 30
0.0
  0
SPLINE
  5
13D
330
1B
100
AcDbEntity
  8
0
  6
Continuous
 62
     7
370
    25
100
AcDbSpline
210
0.0
220
0.0
230
1.0
 70
     8
 71
     3
 72
     9
 73
     5
 74
     0
 42
0.000000001
 43
0.00000001
 40
0.0
 40
0.0
 40
0.0
 40
0.0
 40
0.4978059698015936
 40
0.9999999999999999
 40
0.9999999999999999
 40
0.9999999999999999
 40
0.9999999999999999
 10
-272.915429937309
 20
72.31559087610688
 30
0.0
 10
-273.0207237148269
 20
72.29220333327227
 30
0.0
 10
-273.2322394135234
 20
72.2452220910748
 30
0.0
 10
-273.2690766437216
 20
72.23677838742837
 30
0.0
 10
-273.2875760808163
 20
72.23253800986438
 30
0.0
  0
SPLINE
  5
13E
330
1B
100
AcDbEntity
  8
0
  6
Continuous
 62
     7
370
    25
100
AcDbSpline
210
0.0
220
0.0
230
1.0
 70
     8
 71
     3
 72
     9
 73
     5
 74
     0
 42
0.000000001
 43
0.00000001
 40
0.0
 40
0.0
 40
0.0
 40
0.0
 40
0.4770136993049651
 40
1.0
 40
1.0
 40
1.0
 40
1.0
 10
-273.2780316585178
 20
274.2079552944689
 30
0.0
 10
-273.2606401287482
 20
274.2039745904805
 30
0.0
 10
-273.2241809457207
 20
274.1956295387676
 30
0.0
 10
-273.0214535749824
 20
274.150602423439
 30
0.0
 10
-272.9154299373103
 20
274.1270538589623
 30
0.0
  0
SPLINE
  5
13F
330
1B
100
AcDbEntity
  8
0
  6
Continuous
 62
     7
370
    25
100
AcDbSpline
210
0.0
220
0.0
230
1.0
 70
     8
 71
     3
 72
     9
 73
     5
 74
     0
 42
0.000000001
 43
0.00000001
 40
0.0
 40
0.0
 40
0.0
 40
0.0
 40
0.4978101635816559
 40
0.9999999999999999
 40
0.9999999999999999
 40
0.9999999999999999
 40
0.9999999999999999
 10
-264.8702859223499
 20
274.1270588300937
 30
0.0
 10
-264.764993883967
 20
274.1504455483006
 30
0.0
 10
-264.5534834607461
 20
274.1974247381963
 30
0.0
 10
-264.5166496852727
 20
274.2058675244245
 30
0.0
 10
-264.498152137593
 20
274.2101074058593
 30
0.0
  0
SPLINE
  5
149
330
1B
100
AcDbEntity
  8
0
  6
Continuous
 62
     7
370
    25
100
AcDbSpline
210
0.0
220
0.0
230
1.0
 70
     8
 71
     3
 72
    13
 73
     9
 74
     0
 42
0.000000001
 43
0.00000001
 40
0.0
 40
0.0
 40
0.0
 40
0.0
 40
0.1203387258002698
 40
0.2426872347077445
 40
0.4923467090954591
 40
0.7460138633433319
 40
0.9998416528282678
 40
0.9999999999999999
 40
0.9999999999999999
 40
0.9999999999999999
 40
0.9999999999999999
 10
-259.3928657146773
 20
193.7091272455827
 30
0.0
 10
-259.1058678348461
 20
193.7128795914047
 30
0.0
 10
-258.5270789091695
 20
193.720446951165
 30
0.0
 10
-257.4036219743177
 20
193.7972536798699
 30
0.0
 10
-256.1257242458091
 20
193.9675075690802
 30
0.0
 10
-255.1853328110824
 20
194.1541962624356
 30
0.0
 10
-254.7770814841468
 20
194.246398580406
 30
0.0
 10
-254.8930102871627
 20
194.2212910593868
 30
0.0
 10
-254.8930825627535
 20
194.2212754061507
 30
0.0
  0
SPLINE
  5
14A
330
1B
100
AcDbEntity
  8
0
  6
Continuous
 62
     7
370
    25
100
AcDbSpline
210
0.0
220
0.0
230
1.0
 70
     8
 71
     3
 72
    13
 73
     9
 74
     0
 42
0.000000001
 43
0.00000001
 40
0.0
 40
0.0
 40
0.0
 40
0.0
 40
0.0001204671180052
 40
0.2539560158288908
 40
0.5076673152078216
 40
0.7573196579738135
 40
0.879666122182752
 40
0.9999999999999999
 40
0.9999999999999999
 40
0.9999999999999999
 40
0.9999999999999999
 10
-263.8927007208076
 20
194.2212866368519
 30
0.0
 10
-263.8927557129593
 20
194.2212985467569
 30
0.0
 10
-264.0086843413758
 20
194.2464057466665
 30
0.0
 10
-263.6004478025242
 20
194.1542073742156
 30
0.0
 10
-262.6600322576495
 20
193.9675088319873
 30
0.0
 10
-261.3820488474407
 20
193.7972483532469
 30
0.0
 10
-260.2586231143432
 20
193.7204461044822
 30
0.0
 10
-259.6798515666247
 20
193.7128792809284
 30
0.0
 10
-259.3928657146773
 20
193.7091272455827
 30
0.0
  0
SPLINE
  5
14F
330
1B
100
AcDbEntity
  8
0
  6
Continuous
 62
     7
370
    25
100
AcDbSpline
210
0.0
220
0.0
230
1.0
 70
     8
 71
     3
 72
    11
 73
     7
 74
     0
 42
0.000000001
 43
0.00000001
 40
0.0
 40
0.0
 40
0.0
 40
0.0
 40
0.2501581256449313
 40
0.5003669960099312
 40
0.7504815768393426
 40
1.0
 40
1.0
 40
1.0
 40
1.0
 10
-259.4929079561392
 20
152.2213300866506
 30
0.0
 10
-259.4612687575252
 20
152.224650252088
 30
0.0
 10
-259.3979839422675
 20
152.2312912564602
 30
0.0
 10
-258.9117405487879
 20
152.2739359402779
 30
0.0
 10
-258.2179588959729
 20
152.3166014313364
 30
0.0
 10
-257.6676779116459
 20
152.3232605845233
 30
0.0
 10
-257.3928657146772
 20
152.3265861882954
 30
0.0
  0
SPLINE
  5
150
330
1B
100
AcDbEntity
  8
0
  6
Continuous
 62
     7
370
    25
100
AcDbSpline
210
0.0
220
0.0
230
1.0
 70
     8
 71
     3
 72
    12
 73
     8
 74
     0
 42
0.000000001
 43
0.00000001
 40
0.0
 40
0.0
 40
0.0
 40
0.0
 40
0.2494563881392057
 40
0.4995124158097689
 40
0.7496418736734188
 40
0.9998747328796287
 40
1.0
 40
1.0
 40
1.0
 40
1.0
 10
-257.3928657146772
 20
152.3265861882954
 30
0.0
 10
-257.1189947708333
 20
152.3233490011804
 30
0.0
 10
-256.5705945562706
 20
152.3168668454483
 30
0.0
 10
-255.8637949871616
 20
152.2729113948695
 30
0.0
 10
-255.42742980552
 20
152.2352370990079
 30
0.0
 10
-255.2393520720117
 20
152.2161851826253
 30
0.0
 10
-255.2927967320872
 20
152.2213275136764
 30
0.0
 10
-255.292823473215
 20
152.2213300866506
 30
0.0
  0
SPLINE
  5
151
330
1B
100
AcDbEntity
  8
0
  6
Continuous
 62
     7
370
    25
100
AcDbSpline
210
0.0
220
0.0
230
1.0
 70
     8
 71
     3
 72
    12
 73
     8
 74
     0
 42
0.000000001
 43
0.00000001
 40
0.0
 40
0.0
 40
0.0
 40
0.0
 40
0.1203370721157639
 40
0.2426843596147508
 40
0.4923489624319865
 40
0.7463076344421822
 40
1.0
 40
1.0
 40
1.0
 40
1.0
 10
-268.8928657146772
 20
152.7335174894862
 30
0.0
 10
-269.1796994560981
 20
152.7298002183355
 30
0.0
 10
-269.7581584598679
 20
152.7223035794954
 30
0.0
 10
-270.8848491394256
 20
152.6447781810513
 30
0.0
 10
-272.1374509064916
 20
152.4802059192895
 30
0.0
 10
-273.1867789818219
 20
152.2692259567953
 30
0.0
 10
-273.324049575076
 20
152.2373159583667
 30
0.0
 10
-273.3926488666108
 20
152.221369328916
 30
0.0
  0
SPLINE
  5
152
330
1B
100
AcDbEntity
  8
0
  6
Continuous
 62
     7
370
    25
100
AcDbSpline
210
0.0
220
0.0
230
1.0
 70
     8
 71
     3
 72
    12
 73
     8
 74
     0
 42
0.000000001
 43
0.00000001
 40
0.0
 40
0.0
 40
0.0
 40
0.0
 40
0.2537220583214001
 40
0.5076407647506972
 40
0.757310442083708
 40
0.8796589634230142
 40
1.0
 40
1.0
 40
1.0
 40
1.0
 10
-264.393030708553
 20
152.2213580982183
 30
0.0
 10
-264.4616663924966
 20
152.237313045202
 30
0.0
 10
-264.5989909566943
 20
152.2692353051031
 30
0.0
 10
-265.6483066061845
 20
152.4802073803102
 30
0.0
 10
-266.9008364554055
 20
152.6447742614197
 30
0.0
 10
-268.0275496562144
 20
152.7223028673976
 30
0.0
 10
-268.6060220353243
 20
152.7297999536437
 30
0.0
 10
-268.8928657146772
 20
152.7335174894862
 30
0.0
  0
SPLINE
  5
18F
330
1B
100
AcDbEntity
  8
0
  6
Continuous
 62
     7
370
    25
100
AcDbSpline
210
0.0
220
0.0
230
1.0
 70
     8
 71
     3
 72
    17
 73
    13
 74
     0
 42
0.000000001
 43
0.00000001
 40
0.0
 40
0.0
 40
0.0
 40
0.0
 40
0.0758794023986276
 40
0.2204400467753073
 40
0.3621263497654005
 40
0.4314558877617037
 40
0.5000034996261703
 40
0.5685512745588731
 40
0.637880551751171
 40
0.7795668742708977
 40
0.9241294329216185
 40
1.0
 40
1.0
 40
1.0
 40
1.0
 10
-273.2287203071505
 20
72.25687357801216
 30
0.0
 10
-273.185296956248
 20
72.2666933379019
 30
0.0
 10
-273.0591461801284
 20
72.29522108404889
 30
0.0
 10
-272.1243107175378
 20
72.48241147040815
 30
0.0
 10
-270.8862950355069
 20
72.64546022339329
 30
0.0
 10
-269.7585869222851
 20
72.72061816022632
 30
0.0
 10
-268.8928202531833
 20
72.739931572506
 30
0.0
 10
-268.0270565033442
 20
72.72061419463644
 30
0.0
 10
-266.8993559415595
 20
72.6454517903751
 30
0.0
 10
-265.6613517243091
 20
72.48239978602622
 30
0.0
 10
-264.7265592206977
 20
72.2952153172506
 30
0.0
 10
-264.6004177266615
 20
72.26668977581045
 30
0.0
 10
-264.5570012634916
 20
72.25687160987862
 30
0.0
  0
SPLINE
  5
195
330
1B
100
AcDbEntity
  8
0
  6
Continuous
 62
     7
370
    25
100
AcDbSpline
210
0.0
220
0.0
230
1.0
 70
     8
 71
     3
 72
    11
 73
     7
 74
     0
 42
0.000000001
 43
0.00000001
 40
0.0
 40
0.0
 40
0.0
 40
0.0
 40
0.2737159686971164
 40
0.5473814334876833
 40
0.8186886900154116
 40
1.0
 40
1.0
 40
1.0
 40
1.0
 10
-251.2928657146758
 20
72.22132236753451
 30
0.0
 10
-251.3244208678618
 20
72.22468121881896
 30
0.0
 10
-251.3875253519265
 20
72.23139830163925
 30
0.0
 10
-251.8738788401617
 20
72.27347259396615
 30
0.0
 10
-252.4814205816512
 20
72.31259672633367
 30
0.0
 10
-252.9345197923141
 20
72.31882673277228
 30
0.0
 10
-253.1160236401816
 20
72.32132236753448
 30
0.0
  0
SPLINE
  5
196
330
1B
100
AcDbEntity
  8
0
  6
Continuous
 62
     7
370
    25
100
AcDbSpline
210
0.0
220
0.0
230
1.0
 70
     8
 71
     3
 72
    11
 73
     7
 74
     0
 42
0.000000001
 43
0.00000001
 40
0.0
 40
0.0
 40
0.0
 40
0.0
 40
0.1785244335098518
 40
0.4518920325729217
 40
0.7253511316500946
 40
1.0
 40
1.0
 40
1.0
 40
1.0
 10
-253.664358047851
 20
72.32132236753448
 30
0.0
 10
-253.8435091777522
 20
72.31896826269926
 30
0.0
 10
-254.2969875427981
 20
72.31300940766769
 30
0.0
 10
-254.9068737487091
 20
72.27385885938261
 30
0.0
 10
-255.3973361064405
 20
72.23149859327485
 30
0.0
 10
-255.4609764642256
 20
72.22471934798136
 30
0.0
 10
-255.4928657146758
 20
72.2213223675345
 30
0.0
  0
LWPOLYLINE
  5
19E
330
1B
100
AcDbEntity
  8
0
  6
Continuous
 62
     7
370
    25
100
AcDbPolyline
 90
        3
 70
   128
 43
0.0
 10
-264.3928657148
 20
72.2213279988
 10
-264.4904116343
 20
72.2309333784
 10
-264.5077957856
 20
72.2347136376
  0
SPLINE
  5
1A6
330
1B
100
AcDbEntity
  8
0
  6
Continuous
 62
     7
370
    25
100
AcDbSpline
210
0.0
220
0.0
230
1.0
 70
     8
 71
     3
 72
    17
 73
    13
 74
     0
 42
0.000000001
 43
0.00000001
 40
0.0
 40
0.0
 40
0.0
 40
0.0
 40
0.075666969457344
 40
0.2202402286242576
 40
0.3619583818334334
 40
0.4313051884976677
 40
0.4998699572385235
 40
0.5684328053045554
 40
0.6377763600556725
 40
0.7794921156349944
 40
0.9240888050563721
 40
1.0
 40
1.0
 40
1.0
 40
1.0
 10
-264.5567882641496
 20
274.1858154427398
 30
0.0
 10
-264.6000464930133
 20
274.1760338706557
 30
0.0
 10
-264.7259561505974
 20
274.1475631166721
 30
0.0
 10
-265.6596775616873
 20
273.9605314117848
 30
0.0
 10
-266.8974586665703
 20
273.7973848365082
 30
0.0
 10
-268.0252702018697
 20
273.7221077792322
 30
0.0
 10
-268.8912047391826
 20
273.7027102483848
 30
0.0
 10
-269.7571935410905
 20
273.7219613815126
 30
0.0
 10
-270.8852409856863
 20
273.797068557929
 30
0.0
 10
-272.1237423145482
 20
273.9601275105026
 30
0.0
 10
-273.0590173460774
 20
274.1473950181531
 30
0.0
 10
-273.1852298452554
 20
274.1759370643896
 30
0.0
 10
-273.2286792740911
 20
274.185762839292
 30
0.0
  0
SPLINE
  5
1A8
330
1B
100
AcDbEntity
  8
0
  6
Continuous
 62
     7
370
    25
100
AcDbSpline
210
0.0
220
0.0
230
1.0
 70
     8
 71
     3
 72
    11
 73
     7
 74
     0
 42
0.000000001
 43
0.00000001
 40
0.0
 40
0.0
 40
0.0
 40
0.0
 40
0.2737857144854781
 40
0.5476395982097172
 40
0.8188810063493309
 40
1.0
 40
1.0
 40
1.0
 40
1.0
 10
-255.4928657146765
 20
274.2213223675345
 30
0.0
 10
-255.461306598675
 20
274.2179628780651
 30
0.0
 10
-255.3981805088444
 20
274.2112430626552
 30
0.0
 10
-254.9116998222264
 20
274.1691591597125
 30
0.0
 10
-254.3042968470204
 20
274.1300568526016
 30
0.0
 10
-253.8515728002472
 20
274.1238196565652
 30
0.0
 10
-253.6703082080582
 20
274.1213223675345
 30
0.0
  0
SPLINE
  5
1A9
330
1B
100
AcDbEntity
  8
0
  6
Continuous
 62
     7
370
    25
100
AcDbSpline
210
0.0
220
0.0
230
1.0
 70
     8
 71
     3
 72
    11
 73
     7
 74
     0
 42
0.000000001
 43
0.00000001
 40
0.0
 40
0.0
 40
0.0
 40
0.0
 40
0.1782357178236569
 40
0.4517095980405407
 40
0.7252627165672684
 40
1.0
 40
1.0
 40
1.0
 40
1.0
 10
-253.1215474746524
 20
274.1213223675345
 30
0.0
 10
-252.9426703071453
 20
274.1236662298506
 30
0.0
 10
-252.4893350586336
 20
274.1296063697821
 30
0.0
 10
-251.8793119335278
 20
274.1687502543065
 30
0.0
 10
-251.3884705995602
 20
274.2111376055983
 30
0.0
 10
-251.3247798614567
 20
274.2179225623074
 30
0.0
 10
-251.2928657146765
 20
274.2213223675345
 30
0.0
  0
LWPOLYLINE
  5
1B1
330
1B
100
AcDbEntity
  8
0
  6
Continuous
 62
     7
370
    25
100
AcDbPolyline
 90
        3
 70
   128
 43
0.0
 10
-273.3928657145
 20
274.2213158785
 10
-273.2953196971
 20
274.2117107782
 10
-273.2779318891
 20
274.2079297069
  0
LWPOLYLINE
  5
1D0
330
1B
100
AcDbEntity
  8
0
  6
Continuous
 62
     8
370
    25
100
AcDbPolyline
 90
        3
 70
   128
 43
0.0
 10
-264.5077957856
 20
72.2347136376
 10
-264.5842092741
 20
72.2593846083
 10
-264.5941835476
 20
72.263643184
  0
LINE
  5
1D7
330
1B
100
AcDbEntity
  8
0
  6
Continuous
 62
     7
370
    25
100
AcDbLine
 10
-263.8927007208
 20
194.2213223675
 30
0.0
 11
-278.8928657147
 21
194.2213223675
 31
0.0
  0
LINE
  5
1D8
330
1B
100
AcDbEntity
  8
0
  6
Continuous
 62
     7
370
    25
100
AcDbLine
 10
-235.3928657147
 20
194.2213223675
 30
0.0
 11
-254.8930825628
 21
194.2213223675
 31
0.0
  0
LINE
  5
1D9
330
1B
100
AcDbEntity
  8
0
  6
Continuous
 62
     7
370
    25
100
AcDbLine
 10
-255.2928234732
 20
152.2213223675
 30
0.0
 11
-235.3928657147
 21
152.2213223675
 31
0.0
  0
LINE
  5
1DA
330
1B
100
AcDbEntity
  8
0
  6
Continuous
 62
     7
370
    25
100
AcDbLine
 10
-264.3930307086
 20
152.2213223675
 30
0.0
 11
-259.4929079561
 21
152.2213223675
 31
0.0
  0
LINE
  5
1DB
330
1B
100
AcDbEntity
  8
0
  6
Continuous
 62
     7
370
    25
100
AcDbLine
 10
-278.8928657147
 20
152.2213223675
 30
0.0
 11
-273.3926488666
 21
152.2213223675
 31
0.0
  0
LINE
  5
1DC
330
1B
100
AcDbEntity
  8
0
  6
Continuous
 62
     7
370
    25
100
AcDbLine
 10
-234.0928657147
 20
232.2213223675
 30
0.0
 11
-231.5928657147
 21
232.2213223675
 31
0.0
  0
LINE
  5
1DD
330
1B
100
AcDbEntity
  8
0
  6
Continuous
 62
     7
370
    25
100
AcDbLine
 10
-231.5928657147
 20
274.2213223675
 30
0.0
 11
-234.0928657147
 21
274.2213223675
 31
0.0
  0
LINE
  5
1DE
330
1B
100
AcDbEntity
  8
0
  6
Continuous
 62
     7
370
    25
100
AcDbLine
 10
-234.8928657147
 20
232.7213223675
 30
0.0
 11
-234.5928657147
 21
232.7213223675
 31
0.0
  0
LINE
  5
1DF
330
1B
100
AcDbEntity
  8
0
  6
Continuous
 62
     7
370
    25
100
AcDbLine
 10
-234.5928657147
 20
273.7213223675
 30
0.0
 11
-234.8928657147
 21
273.7213223675
 31
0.0
  0
LINE
  5
1E0
330
1B
100
AcDbEntity
  8
0
  6
Continuous
 62
     7
370
    25
100
AcDbLine
 10
-231.5928657147
 20
194.2213223675
 30
0.0
 11
-234.0928657147
 21
194.2213223675
 31
0.0
  0
LINE
  5
1E1
330
1B
100
AcDbEntity
  8
0
  6
Continuous
 62
     7
370
    25
100
AcDbLine
 10
-234.0928657147
 20
152.2213223675
 30
0.0
 11
-231.5928657147
 21
152.2213223675
 31
0.0
  0
LINE
  5
1E2
330
1B
100
AcDbEntity
  8
0
  6
Continuous
 62
     7
370
    25
100
AcDbLine
 10
-234.5928657147
 20
193.7213223675
 30
0.0
 11
-234.8928657147
 21
193.7213223675
 31
0.0
  0
LINE
  5
1E3
330
1B
100
AcDbEntity
  8
0
  6
Continuous
 62
     7
370
    25
100
AcDbLine
 10
-234.8928657147
 20
152.7213223675
 30
0.0
 11
-234.5928657147
 21
152.7213223675
 31
0.0
  0
LINE
  5
1E4
330
1B
100
AcDbEntity
  8
0
  6
Continuous
 62
     7
370
    25
100
AcDbLine
 10
-234.8928657147
 20
72.7213223675
 30
0.0
 11
-234.5928657147
 21
72.7213223675
 31
0.0
  0
LINE
  5
1E5
330
1B
100
AcDbEntity
  8
0
  6
Continuous
 62
     7
370
    25
100
AcDbLine
 10
-234.5928657147
 20
113.7213223675
 30
0.0
 11
-234.8928657147
 21
113.7213223675
 31
0.0
  0
LINE
  5
1E6
330
1B
100
AcDbEntity
  8
0
  6
Continuous
 62
     7
370
    25
100
AcDbLine
 10
-264.9928657147
 20
274.099591013
 30
0.0
 11
-264.9928657147
 21
290.7213223675
 31
0.0
  0
LINE
  5
1E7
330
1B
100
AcDbEntity
  8
0
  6
Continuous
 62
     7
370
    25
100
AcDbLine
 10
-272.7928657147
 20
290.7213223675
 30
0.0
 11
-272.7928657147
 21
274.0995848964
 31
0.0
  0
LINE
  5
1E8
330
1B
100
AcDbEntity
  8
0
  6
Continuous
 62
     7
370
    25
100
AcDbLine
 10
-264.9928657147
 20
135.7213223675
 30
0.0
 11
-264.9928657147
 21
152.3430814295
 31
0.0
  0
LINE
  5
1E9
330
1B
100
AcDbEntity
  8
0
  6
Continuous
 62
     7
370
    25
100
AcDbLine
 10
-272.7928657147
 20
152.3430795968
 30
0.0
 11
-272.7928657147
 21
135.7213223675
 31
0.0
  0
LINE
  5
1EA
330
1B
100
AcDbEntity
  8
0
  6
Continuous
 62
     7
370
    25
100
AcDbLine
 10
-255.5428657147
 20
194.090343685
 30
0.0
 11
-255.5428657147
 21
198.1310468494
 31
0.0
  0
LINE
  5
1EB
330
1B
100
AcDbEntity
  8
0
  6
Continuous
 62
     7
370
    25
100
AcDbLine
 10
-263.2428657147
 20
198.1310468494
 30
0.0
 11
-263.2428657147
 21
194.0903456512
 31
0.0
  0
LINE
  5
1EC
330
1B
100
AcDbEntity
  8
0
  6
Continuous
 62
     7
370
    25
100
AcDbLine
 10
-264.9928657147
 20
55.7213223675
 30
0.0
 11
-264.9928657147
 21
72.3430603009
 31
0.0
  0
LINE
  5
1ED
330
1B
100
AcDbEntity
  8
0
  6
Continuous
 62
     7
370
    25
100
AcDbLine
 10
-272.7928657147
 20
72.3430606793
 30
0.0
 11
-272.7928657147
 21
55.7213223675
 31
0.0
  0
LINE
  5
1EE
330
1B
100
AcDbEntity
  8
0
  6
Continuous
 62
     7
370
    25
100
AcDbLine
 10
-260.3281357241
 20
152.3213223675
 30
0.0
 11
-257.1155328535
 21
152.3213223675
 31
0.0
  0
LINE
  5
1EF
330
1B
100
AcDbEntity
  8
0
  6
Continuous
 62
     7
370
    25
100
AcDbLine
 10
-234.8928657147
 20
193.7213223675
 30
0.0
 11
-234.8928657147
 21
152.7213223675
 31
0.0
  0
LINE
  5
1F0
330
1B
100
AcDbEntity
  8
0
  6
Continuous
 62
     7
370
    25
100
AcDbLine
 10
-279.8928657147
 20
193.2213223675
 30
0.0
 11
-279.8928657147
 21
153.2213223675
 31
0.0
  0
LINE
  5
1F1
330
1B
100
AcDbEntity
  8
0
  6
Continuous
 62
     7
370
    25
100
AcDbLine
 10
-254.8281357241
 20
72.3213223675
 30
0.0
 11
-251.9575957052
 21
72.3213223675
 31
0.0
  0
LINE
  5
1F2
330
1B
100
AcDbEntity
  8
0
  6
Continuous
 62
     7
370
    25
100
AcDbLine
 10
-234.0928657147
 20
72.2213223675
 30
0.0
 11
-234.0928657147
 21
114.2213223675
 31
0.0
  0
LINE
  5
1F3
330
1B
100
AcDbEntity
  8
0
  6
Continuous
 62
     7
370
    25
100
AcDbLine
 10
-234.0928657147
 20
114.2213223675
 30
0.0
 11
-231.5928657147
 21
114.2213223675
 31
0.0
  0
LINE
  5
1F4
330
1B
100
AcDbEntity
  8
0
  6
Continuous
 62
     7
370
    25
100
AcDbLine
 10
-234.0928657147
 20
72.2213223675
 30
0.0
 11
-231.5928657147
 21
72.2213223675
 31
0.0
  0
LINE
  5
1F5
330
1B
100
AcDbEntity
  8
0
  6
Continuous
 62
     7
370
    25
100
AcDbLine
 10
-234.5928657147
 20
72.7213223675
 30
0.0
 11
-234.5928657147
 21
113.7213223675
 31
0.0
  0
LINE
  5
1F6
330
1B
100
AcDbEntity
  8
0
  6
Continuous
 62
     7
370
    25
100
AcDbLine
 10
-234.5928657147
 20
232.7213223675
 30
0.0
 11
-234.5928657147
 21
273.7213223675
 31
0.0
  0
LINE
  5
1F7
330
1B
100
AcDbEntity
  8
0
  6
Continuous
 62
     7
370
    25
100
AcDbLine
 10
-231.5928657147
 20
253.2213223675
 30
0.0
 11
-234.8928657147
 21
253.2213223675
 31
0.0
  0
LINE
  5
1F8
330
1B
100
AcDbEntity
  8
0
  6
Continuous
 62
     7
370
    25
100
AcDbLine
 10
-234.8928657147
 20
273.7213223675
 30
0.0
 11
-234.8928657147
 21
232.7213223675
 31
0.0
  0
LINE
  5
1F9
330
1B
100
AcDbEntity
  8
0
  6
Continuous
 62
     7
370
    25
100
AcDbLine
 10
-229.5928657147
 20
300.7213223675
 30
0.0
 11
-231.5928657147
 21
300.7213223675
 31
0.0
  0
LINE
  5
1FA
330
1B
100
AcDbEntity
  8
0
  6
Continuous
 62
     7
370
    25
100
AcDbLine
 10
-231.0928657147
 20
310.7213223676
 30
0.0
 11
-229.5928657147
 21
310.7213223676
 31
0.0
  0
LINE
  5
1FB
330
1B
100
AcDbEntity
  8
0
  6
Continuous
 62
     7
370
    25
100
AcDbLine
 10
-231.0928657147
 20
310.7213223676
 30
0.0
 11
-231.0928657147
 21
35.7213223676
 31
0.0
  0
LINE
  5
1FC
330
1B
100
AcDbEntity
  8
0
  6
Continuous
 62
     7
370
    25
100
AcDbLine
 10
-231.5928657147
 20
45.7213223676
 30
0.0
 11
-229.5928657147
 21
45.7213223676
 31
0.0
  0
LINE
  5
1FD
330
1B
100
AcDbEntity
  8
0
  6
Continuous
 62
     7
370
    25
100
AcDbLine
 10
-229.5928657147
 20
35.7213223676
 30
0.0
 11
-231.0928657147
 21
35.7213223676
 31
0.0
  0
LINE
  5
1FE
330
1B
100
AcDbEntity
  8
0
  6
Continuous
 62
     7
370
    25
100
AcDbLine
 10
-229.5928657147
 20
35.7213223676
 30
0.0
 11
-229.5928657147
 21
310.7213223676
 31
0.0
  0
LINE
  5
1FF
330
1B
100
AcDbEntity
  8
0
  6
Continuous
 62
     7
370
    25
100
AcDbLine
 10
-231.5928657147
 20
310.2213223676
 30
0.0
 11
-231.5928657147
 21
36.2213223676
 31
0.0
  0
LINE
  5
200
330
1B
100
AcDbEntity
  8
0
  6
Continuous
 62
     7
370
    25
100
AcDbLine
 10
-234.5928657147
 20
152.7213223675
 30
0.0
 11
-234.5928657147
 21
193.7213223675
 31
0.0
  0
LINE
  5
201
330
1B
100
AcDbEntity
  8
0
  6
Continuous
 62
     7
370
    25
100
AcDbLine
 10
-279.8928657147
 20
173.2213223675
 30
0.0
 11
-231.5928657147
 21
173.2213223675
 31
0.0
  0
LINE
  5
202
330
1B
100
AcDbEntity
  8
0
  6
Continuous
 62
     7
370
    25
100
AcDbLine
 10
-234.8928657147
 20
113.7213223675
 30
0.0
 11
-234.8928657147
 21
72.7213223675
 31
0.0
  0
LINE
  5
203
330
1B
100
AcDbEntity
  8
0
  6
Continuous
 62
     7
370
    25
100
AcDbLine
 10
-234.5928657147
 20
93.2213223675
 30
0.0
 11
-234.8928657147
 21
93.2213223675
 31
0.0
  0
LINE
  5
204
330
1B
100
AcDbEntity
  8
0
  6
Continuous
 62
     7
370
    25
100
AcDbLine
 10
-264.9928657147
 20
290.7213223675
 30
0.0
 11
-272.7928657147
 21
290.7213223675
 31
0.0
  0
LINE
  5
205
330
1B
100
AcDbEntity
  8
0
  6
Continuous
 62
     7
370
    25
100
AcDbLine
 10
-268.8928657147
 20
291.7213223675
 30
0.0
 11
-268.8928657147
 21
273.7091632004
 31
0.0
  0
LINE
  5
206
330
1B
100
AcDbEntity
  8
0
  6
Continuous
 62
     7
370
    25
100
AcDbLine
 10
-265.9928657147
 20
291.7213223675
 30
0.0
 11
-271.7928657147
 21
291.7213223675
 31
0.0
  0
LINE
  5
207
330
1B
100
AcDbEntity
  8
0
  6
Continuous
 62
     7
370
    25
100
AcDbLine
 10
-268.8928657147
 20
134.7213223675
 30
0.0
 11
-268.8928657147
 21
152.7335174895
 31
0.0
  0
LINE
  5
208
330
1B
100
AcDbEntity
  8
0
  6
Continuous
 62
     7
370
    25
100
AcDbLine
 10
-271.7928657147
 20
134.7213223675
 30
0.0
 11
-265.9928657147
 21
134.7213223675
 31
0.0
  0
LINE
  5
209
330
1B
100
AcDbEntity
  8
0
  6
Continuous
 62
     7
370
    25
100
AcDbLine
 10
-272.7928657147
 20
135.7213223675
 30
0.0
 11
-264.9928657147
 21
135.7213223675
 31
0.0
  0
LINE
  5
20A
330
1B
100
AcDbEntity
  8
0
  6
Continuous
 62
     7
370
    25
100
AcDbLine
 10
-278.8928657147
 20
72.2213223675
 30
0.0
 11
-273.3928657146
 21
72.2213259017
 31
0.0
  0
LINE
  5
20B
330
1B
100
AcDbEntity
  8
0
  6
Continuous
 62
     7
370
    25
100
AcDbLine
 10
-278.8928657147
 20
72.2213223675
 30
0.0
 11
-278.8928657147
 21
114.2213223675
 31
0.0
  0
LINE
  5
20C
330
1B
100
AcDbEntity
  8
0
  6
Continuous
 62
     7
370
    25
100
AcDbLine
 10
-278.8928657147
 20
114.2213223675
 30
0.0
 11
-235.3928657147
 21
114.2213223675
 31
0.0
  0
LINE
  5
20D
330
1B
100
AcDbEntity
  8
0
  6
Continuous
 62
     7
370
    25
100
AcDbLine
 10
-235.3928657147
 20
114.2213223675
 30
0.0
 11
-235.3928657147
 21
72.2213223675
 31
0.0
  0
LINE
  5
20E
330
1B
100
AcDbEntity
  8
0
  6
Continuous
 62
     7
370
    25
100
AcDbLine
 10
-251.2928657147
 20
72.2213223675
 30
0.0
 11
-235.3928657147
 21
72.2213223675
 31
0.0
  0
LINE
  5
20F
330
1B
100
AcDbEntity
  8
0
  6
Continuous
 62
     7
370
    25
100
AcDbLine
 10
-264.3928657148
 20
72.2213258853
 30
0.0
 11
-255.4928657147
 21
72.2213223675
 31
0.0
  0
LINE
  5
210
330
1B
100
AcDbEntity
  8
0
  6
Continuous
 62
     7
370
    25
100
AcDbLine
 10
-279.8928657147
 20
113.2213223675
 30
0.0
 11
-279.8928657147
 21
73.2213223675
 31
0.0
  0
LINE
  5
211
330
1B
100
AcDbEntity
  8
0
  6
Continuous
 62
     7
370
    25
100
AcDbLine
 10
-251.9575957052
 20
274.1213223675
 30
0.0
 11
-254.8281357241
 21
274.1213223675
 31
0.0
  0
LINE
  5
212
330
1B
100
AcDbEntity
  8
0
  6
Continuous
 62
     7
370
    25
100
AcDbLine
 10
-235.3928657147
 20
274.2213223675
 30
0.0
 11
-235.3928657147
 21
232.2213223675
 31
0.0
  0
LINE
  5
213
330
1B
100
AcDbEntity
  8
0
  6
Continuous
 62
     7
370
    25
100
AcDbLine
 10
-264.3928657148
 20
274.2213188497
 30
0.0
 11
-255.4928657147
 21
274.2213223675
 31
0.0
  0
LINE
  5
214
330
1B
100
AcDbEntity
  8
0
  6
Continuous
 62
     7
370
    25
100
AcDbLine
 10
-251.2928657147
 20
274.2213223675
 30
0.0
 11
-235.3928657147
 21
274.2213223675
 31
0.0
  0
LINE
  5
215
330
1B
100
AcDbEntity
  8
0
  6
Continuous
 62
     7
370
    25
100
AcDbLine
 10
-278.8928657147
 20
232.2213223675
 30
0.0
 11
-235.3928657147
 21
232.2213223675
 31
0.0
  0
LINE
  5
216
330
1B
100
AcDbEntity
  8
0
  6
Continuous
 62
     7
370
    25
100
AcDbLine
 10
-278.8928657147
 20
232.2213223675
 30
0.0
 11
-278.8928657147
 21
274.2213223675
 31
0.0
  0
LINE
  5
217
330
1B
100
AcDbEntity
  8
0
  6
Continuous
 62
     7
370
    25
100
AcDbLine
 10
-278.8928657147
 20
274.2213223675
 30
0.0
 11
-273.3928657146
 21
274.2213188334
 31
0.0
  0
LINE
  5
218
330
1B
100
AcDbEntity
  8
0
  6
Continuous
 62
     7
370
    25
100
AcDbLine
 10
-279.8928657147
 20
273.2213223675
 30
0.0
 11
-279.8928657147
 21
233.2213223675
 31
0.0
  0
LINE
  5
219
330
1B
100
AcDbEntity
  8
0
  6
Continuous
 62
     7
370
    25
100
AcDbLine
 10
-255.5428657147
 20
198.1310468494
 30
0.0
 11
-263.2428657147
 21
198.1310468494
 31
0.0
  0
LINE
  5
21A
330
1B
100
AcDbEntity
  8
0
  6
Continuous
 62
     7
370
    25
100
AcDbLine
 10
-255.927923186
 20
198.6176557428
 30
0.0
 11
-262.8578082434
 21
198.6176557428
 31
0.0
  0
LINE
  5
21B
330
1B
100
AcDbEntity
  8
0
  6
Continuous
 62
     7
370
    25
100
AcDbLine
 10
-268.8928657147
 20
54.7213223675
 30
0.0
 11
-268.8928657147
 21
72.7335165138
 31
0.0
  0
LINE
  5
21C
330
1B
100
AcDbEntity
  8
0
  6
Continuous
 62
     7
370
    25
100
AcDbLine
 10
-272.7928657147
 20
55.7213223675
 30
0.0
 11
-264.9928657147
 21
55.7213223675
 31
0.0
  0
LINE
  5
21D
330
1B
100
AcDbEntity
  8
0
  6
Continuous
 62
     7
370
    25
100
AcDbLine
 10
-271.7928657147
 20
54.7213223675
 30
0.0
 11
-265.9928657147
 21
54.7213223675
 31
0.0
  0
LINE
  5
21E
330
1B
100
AcDbEntity
  8
0
  6
Continuous
 62
     8
370
    25
100
AcDbLine
 10
-258.8928657147
 20
152.3706629055
 30
0.0
 11
-258.8928657147
 21
152.3213223675
 31
0.0
  0
LINE
  5
21F
330
1B
100
AcDbEntity
  8
0
  6
Continuous
 62
     8
370
    25
100
AcDbLine
 10
-235.3928657147
 20
194.2213223675
 30
0.0
 11
-235.3928657147
 21
152.2213223675
 31
0.0
  0
LINE
  5
220
330
1B
100
AcDbEntity
  8
0
  6
Continuous
 62
     8
370
    25
100
AcDbLine
 10
-278.8928657147
 20
152.2213223675
 30
0.0
 11
-278.8928657147
 21
194.2213223675
 31
0.0
  0
LINE
  5
221
330
1B
100
AcDbEntity
  8
0
  6
Continuous
 62
     8
370
    25
100
AcDbLine
 10
-253.3928657147
 20
72.3706629055
 30
0.0
 11
-253.3928657147
 21
72.3213223675
 31
0.0
  0
LINE
  5
222
330
1B
100
AcDbEntity
  8
0
  6
Continuous
 62
     8
370
    25
100
AcDbLine
 10
-234.0928657147
 20
232.2213223675
 30
0.0
 11
-234.0928657147
 21
274.2213223675
 31
0.0
  0
LINE
  5
223
330
1B
100
AcDbEntity
  8
0
  6
Continuous
 62
     8
370
    25
100
AcDbLine
 10
-234.0928657147
 20
152.2213223675
 30
0.0
 11
-234.0928657147
 21
194.2213223675
 31
0.0
  0
LINE
  5
224
330
1B
100
AcDbEntity
  8
0
  6
Continuous
 62
     8
370
    25
100
AcDbLine
 10
-253.3928657147
 20
274.0719818295
 30
0.0
 11
-253.3928657147
 21
274.1213223675
 31
0.0
  0
LINE
  5
225
330
1B
100
AcDbEntity
  8
0
  6
Continuous
 62
     8
370
    25
100
AcDbLine
 10
-259.3928657147
 20
198.1310468494
 30
0.0
 11
-259.3928657147
 21
193.7091272456
 31
0.0
  0
ARC
  5
226
330
1B
100
AcDbEntity
  8
0
  6
Continuous
 62
     7
370
    25
100
AcDbCircle
 10
-235.3928657147
 20
193.7213223675
 30
0.0
 40
0.5
100
AcDbArc
 50
0.0
 51
90.0
  0
ARC
  5
227
330
1B
100
AcDbEntity
  8
0
  6
Continuous
 62
     7
370
    25
100
AcDbCircle
 10
-235.3928657147
 20
152.7213223675
 30
0.0
 40
0.5000000000000284
100
AcDbArc
 50
270.0
 51
360.0
  0
ARC
  5
228
330
1B
100
AcDbEntity
  8
0
  6
Continuous
 62
     7
370
    25
100
AcDbCircle
 10
-278.8928657147
 20
153.2213223675
 30
0.0
 40
1.000000000000057
100
AcDbArc
 50
180.0
 51
270.0
  0
ARC
  5
229
330
1B
100
AcDbEntity
  8
0
  6
Continuous
 62
     7
370
    25
100
AcDbCircle
 10
-278.8928657147
 20
193.2213223675
 30
0.0
 40
1.000000000000057
100
AcDbArc
 50
90.0
 51
180.0
  0
ARC
  5
22A
330
1B
100
AcDbEntity
  8
0
  6
Continuous
 62
     7
370
    25
100
AcDbCircle
 10
-234.0928657147
 20
232.7213223675
 30
0.0
 40
0.5
100
AcDbArc
 50
180.0
 51
270.0
  0
ARC
  5
22B
330
1B
100
AcDbEntity
  8
0
  6
Continuous
 62
     7
370
    25
100
AcDbCircle
 10
-234.0928657147
 20
273.7213223675
 30
0.0
 40
0.4999999999998863
100
AcDbArc
 50
90.0
 51
180.0
  0
ARC
  5
22C
330
1B
100
AcDbEntity
  8
0
  6
Continuous
 62
     7
370
    25
100
AcDbCircle
 10
-234.0928657147
 20
193.7213223675
 30
0.0
 40
0.5
100
AcDbArc
 50
90.0
 51
180.0
  0
ARC
  5
22D
330
1B
100
AcDbEntity
  8
0
  6
Continuous
 62
     7
370
    25
100
AcDbCircle
 10
-234.0928657147
 20
152.7213223675
 30
0.0
 40
0.5000000000000284
100
AcDbArc
 50
180.0
 51
270.0
  0
ARC
  5
22E
330
1B
100
AcDbEntity
  8
0
  6
Continuous
 62
     7
370
    25
100
AcDbCircle
 10
-265.9928657147
 20
290.7213223675
 30
0.0
 40
1.000000000000057
100
AcDbArc
 50
0.0
 51
90.0
  0
ARC
  5
22F
330
1B
100
AcDbEntity
  8
0
  6
Continuous
 62
     7
370
    25
100
AcDbCircle
 10
-271.7928657147
 20
290.7213223675
 30
0.0
 40
1.0
100
AcDbArc
 50
90.0
 51
180.0
  0
ARC
  5
230
330
1B
100
AcDbEntity
  8
0
  6
Continuous
 62
     7
370
    25
100
AcDbCircle
 10
-271.7928657147
 20
135.7213223675
 30
0.0
 40
1.0
100
AcDbArc
 50
180.0
 51
270.0
  0
ARC
  5
231
330
1B
100
AcDbEntity
  8
0
  6
Continuous
 62
     7
370
    25
100
AcDbCircle
 10
-265.9928657147
 20
135.7213223675
 30
0.0
 40
1.000000000000114
100
AcDbArc
 50
270.0
 51
360.0
  0
ARC
  5
232
330
1B
100
AcDbEntity
  8
0
  6
Continuous
 62
     7
370
    25
100
AcDbCircle
 10
-256.0428657147
 20
198.1310468494
 30
0.0
 40
0.5000000000000853
100
AcDbArc
 50
0.0
 51
76.709695303
  0
ARC
  5
233
330
1B
100
AcDbEntity
  8
0
  6
Continuous
 62
     7
370
    25
100
AcDbCircle
 10
-271.7928657147
 20
55.7213223675
 30
0.0
 40
1.000000000000014
100
AcDbArc
 50
180.0
 51
270.0
  0
ARC
  5
234
330
1B
100
AcDbEntity
  8
0
  6
Continuous
 62
     7
370
    25
100
AcDbCircle
 10
-265.9928657147
 20
55.7213223675
 30
0.0
 40
1.000000000000057
100
AcDbArc
 50
270.0
 51
360.0
  0
ARC
  5
235
330
1B
100
AcDbEntity
  8
0
  6
Continuous
 62
     7
370
    25
100
AcDbCircle
 10
-234.0928657147
 20
113.7213223675
 30
0.0
 40
0.5000000000000568
100
AcDbArc
 50
90.0
 51
180.0
  0
ARC
  5
236
330
1B
100
AcDbEntity
  8
0
  6
Continuous
 62
     7
370
    25
100
AcDbCircle
 10
-234.0928657147
 20
72.7213223675
 30
0.0
 40
0.5000000000000284
100
AcDbArc
 50
180.0
 51
270.0
  0
ARC
  5
237
330
1B
100
AcDbEntity
  8
0
  6
Continuous
 62
     7
370
    25
100
AcDbCircle
 10
-231.0928657147
 20
310.2213223676
 30
0.0
 40
0.5000000000000568
100
AcDbArc
 50
90.0
 51
180.0
  0
ARC
  5
238
330
1B
100
AcDbEntity
  8
0
  6
Continuous
 62
     7
370
    25
100
AcDbCircle
 10
-231.0928657147
 20
36.2213223676
 30
0.0
 40
0.5
100
AcDbArc
 50
180.0
 51
270.0
  0
ARC
  5
239
330
1B
100
AcDbEntity
  8
0
  6
Continuous
 62
     7
370
    25
100
AcDbCircle
 10
-235.3928657147
 20
72.7213223675
 30
0.0
 40
0.5000000000000284
100
AcDbArc
 50
270.0
 51
360.0
  0
ARC
  5
23A
330
1B
100
AcDbEntity
  8
0
  6
Continuous
 62
     7
370
    25
100
AcDbCircle
 10
-235.3928657147
 20
113.7213223675
 30
0.0
 40
0.5000000000000284
100
AcDbArc
 50
0.0
 51
90.0
  0
ARC
  5
23B
330
1B
100
AcDbEntity
  8
0
  6
Continuous
 62
     7
370
    25
100
AcDbCircle
 10
-278.8928657147
 20
113.2213223675
 30
0.0
 40
1.0
100
AcDbArc
 50
90.0
 51
180.0
  0
ARC
  5
23C
330
1B
100
AcDbEntity
  8
0
  6
Continuous
 62
     7
370
    25
100
AcDbCircle
 10
-278.8928657147
 20
73.2213223675
 30
0.0
 40
0.9999999999999432
100
AcDbArc
 50
180.0
 51
270.0
  0
ARC
  5
23D
330
1B
100
AcDbEntity
  8
0
  6
Continuous
 62
     7
370
    25
100
AcDbCircle
 10
-273.3928533638
 20
72.7213274841
 30
0.0
 40
0.4999986276807264
100
AcDbArc
 50
269.9985847072
 51
293.7414545319
  0
ARC
  5
23E
330
1B
100
AcDbEntity
  8
0
  6
Continuous
 62
     7
370
    25
100
AcDbCircle
 10
-235.3928657147
 20
232.7213223675
 30
0.0
 40
0.5
100
AcDbArc
 50
270.0
 51
0.0
  0
ARC
  5
23F
330
1B
100
AcDbEntity
  8
0
  6
Continuous
 62
     7
370
    25
100
AcDbCircle
 10
-235.3928657147
 20
273.7213223675
 30
0.0
 40
0.4999999999998863
100
AcDbArc
 50
360.0
 51
90.0
  0
ARC
  5
240
330
1B
100
AcDbEntity
  8
0
  6
Continuous
 62
     7
370
    25
100
AcDbCircle
 10
-278.8928657147
 20
273.2213223675
 30
0.0
 40
1.0
100
AcDbArc
 50
90.0
 51
180.0
  0
ARC
  5
241
330
1B
100
AcDbEntity
  8
0
  6
Continuous
 62
     7
370
    25
100
AcDbCircle
 10
-278.8928657147
 20
233.2213223675
 30
0.0
 40
1.0
100
AcDbArc
 50
180.0
 51
270.0
  0
ARC
  5
242
330
1B
100
AcDbEntity
  8
0
  6
Continuous
 62
     7
370
    25
100
AcDbCircle
 10
-264.3928765468
 20
273.72131794
 30
0.0
 40
0.4999987964232089
100
AcDbArc
 50
89.9987587463
 51
113.7431476605
  0
ARC
  5
243
330
1B
100
AcDbEntity
  8
0
  6
Continuous
 62
     7
370
    25
100
AcDbCircle
 10
-262.7428657147
 20
198.1310468494
 30
0.0
 40
0.5000000000150097
100
AcDbArc
 50
103.2903046941
 51
179.9999999976
  0
ARC
  5
244
330
1B
100
AcDbEntity
  8
0
  6
Continuous
 62
     7
370
    25
100
AcDbCircle
 10
-259.3928657148
 20
183.9488306517
 30
0.0
 40
15.07250000097362
100
AcDbArc
 50
76.7096953034
 51
103.2903046966
  0
VIEWPORT
  5
2BA
330
1B
100
AcDbEntity
  8
0
100
AcDbViewport
 10
0.0
 20
0.0
 30
0.0
 40
205.6
 41
156.0
 68
     1
 69
     1
 12
134.4243383055
 22
173.2213223676
 13
0.0
 23
0.0
 14
10.0
 24
10.0
 15
10.0
 25
10.0
 16
0.0
 26
0.0
 36
1.0
 17
0.0
 27
0.0
 37
0.0
 42
50.0
 43
0.0
 44
0.0
 45
280.5
 50
0.0
 51
0.0
 72
   100
 90
   557152
  1

281
     0
 71
     1
 74
     0
110
0.0
120
0.0
130
0.0
111
1.0
121
0.0
131
0.0
112
0.0
122
1.0
132
0.0
 79
     0
146
0.0
  0
ENDBLK
  5
1D
330
1B
100
AcDbEntity
  8
0
100
AcDbBlockEnd
  0
ENDSEC
  0
SECTION
  2
ENTITIES
  0
LINE
  5
D2
330
1F
100
AcDbEntity
  8
0
  6
Continuous
 62
     7
370
    25
100
AcDbLine
 10
114.424939367
 20
173.3763775082
 30
0.0
 11
114.4243383055
 21
173.2213223675
 31
0.0
  0
LINE
  5
D3
330
1F
100
AcDbEntity
  8
0
  6
Continuous
 62
     7
370
    25
100
AcDbLine
 10
113.4243383055
 20
173.2213223675
 30
0.0
 11
114.4243383055
 21
173.2213223675
 31
0.0
  0
LINE
  5
D4
330
1F
100
AcDbEntity
  8
0
  6
Continuous
 62
     7
370
    25
100
AcDbLine
 10
155.4243383055
 20
173.2213223675
 30
0.0
 11
154.4243383055
 21
173.2213223675
 31
0.0
  0
LINE
  5
D5
330
1F
100
AcDbEntity
  8
0
  6
Continuous
 62
     7
370
    25
100
AcDbLine
 10
154.4237372441
 20
173.0662672269
 30
0.0
 11
154.4243383055
 21
173.2213223675
 31
0.0
  0
LINE
  5
D6
330
1F
100
AcDbEntity
  8
0
  6
Continuous
 62
     7
370
    25
100
AcDbLine
 10
193.9243383055
 20
300.7213223675
 30
0.0
 11
193.9243383055
 21
45.7213223676
 31
0.0
  0
LINE
  5
D7
330
1F
100
AcDbEntity
  8
0
  6
Continuous
 62
     7
370
    25
100
AcDbLine
 10
184.4243383055
 20
36.2213223676
 30
0.0
 11
84.4243383055
 21
36.2213223676
 31
0.0
  0
LINE
  5
D8
330
1F
100
AcDbEntity
  8
0
  6
Continuous
 62
     7
370
    25
100
AcDbLine
 10
74.9243383055
 20
45.7213223676
 30
0.0
 11
74.9243383055
 21
300.7213223675
 31
0.0
  0
LINE
  5
D9
330
1F
100
AcDbEntity
  8
0
  6
Continuous
 62
     7
370
    25
100
AcDbLine
 10
84.4243383055
 20
310.2213223676
 30
0.0
 11
184.4243383055
 21
310.2213223676
 31
0.0
  0
LINE
  5
DA
330
1F
100
AcDbEntity
  8
0
  6
Continuous
 62
     7
370
    25
100
AcDbLine
 10
194.4243383055
 20
300.7213223675
 30
0.0
 11
194.4243383055
 21
45.7213223726
 31
0.0
  0
LINE
  5
DB
330
1F
100
AcDbEntity
  8
0
  6
Continuous
 62
     7
370
    25
100
AcDbLine
 10
194.4243383055
 20
45.7213223726
 30
0.0
 11
193.9243383055
 21
45.7213223676
 31
0.0
  0
LINE
  5
DC
330
1F
100
AcDbEntity
  8
0
  6
Continuous
 62
     7
370
    25
100
AcDbLine
 10
194.4243383055
 20
300.7213223675
 30
0.0
 11
193.9243383055
 21
300.7213223675
 31
0.0
  0
LINE
  5
DD
330
1F
100
AcDbEntity
  8
0
  6
Continuous
 62
     7
370
    25
100
AcDbLine
 10
184.4243383055
 20
310.7213223676
 30
0.0
 11
184.4243383055
 21
310.2213223676
 31
0.0
  0
LINE
  5
DE
330
1F
100
AcDbEntity
  8
0
  6
Continuous
 62
     7
370
    25
100
AcDbLine
 10
84.4243383055
 20
310.7213223676
 30
0.0
 11
184.4243383055
 21
310.7213223676
 31
0.0
  0
LINE
  5
DF
330
1F
100
AcDbEntity
  8
0
  6
Continuous
 62
     7
370
    25
100
AcDbLine
 10
84.4243383055
 20
310.7213223676
 30
0.0
 11
84.4243383055
 21
310.2213223676
 31
0.0
  0
LINE
  5
E0
330
1F
100
AcDbEntity
  8
0
  6
Continuous
 62
     7
370
    25
100
AcDbLine
 10
184.4243383055
 20
35.7213223676
 30
0.0
 11
184.4243383055
 21
36.2213223676
 31
0.0
  0
LINE
  5
E1
330
1F
100
AcDbEntity
  8
0
  6
Continuous
 62
     7
370
    25
100
AcDbLine
 10
134.4243383055
 20
231.4713223675
 30
0.0
 11
134.4243383055
 21
231.9713223675
 31
0.0
  0
LINE
  5
E2
330
1F
100
AcDbEntity
  8
0
  6
Continuous
 62
     7
370
    25
100
AcDbLine
 10
184.4243383055
 20
35.7213223676
 30
0.0
 11
84.4243383105
 21
35.7213223676
 31
0.0
  0
LINE
  5
E3
330
1F
100
AcDbEntity
  8
0
  6
Continuous
 62
     7
370
    25
100
AcDbLine
 10
84.4243383105
 20
35.7213223676
 30
0.0
 11
84.4243383055
 21
36.2213223676
 31
0.0
  0
LINE
  5
E4
330
1F
100
AcDbEntity
  8
0
  6
Continuous
 62
     7
370
    25
100
AcDbLine
 10
134.4243383055
 20
114.9713223676
 30
0.0
 11
134.4243383055
 21
114.4713223676
 31
0.0
  0
LINE
  5
E5
330
1F
100
AcDbEntity
  8
0
  6
Continuous
 62
     7
370
    25
100
AcDbLine
 10
74.4243383055
 20
300.7213223625
 30
0.0
 11
74.9243383055
 21
300.7213223675
 31
0.0
  0
LINE
  5
E6
330
1F
100
AcDbEntity
  8
0
  6
Continuous
 62
     7
370
    25
100
AcDbLine
 10
74.4243383055
 20
45.7213223676
 30
0.0
 11
74.4243383055
 21
300.7213223625
 31
0.0
  0
LINE
  5
E7
330
1F
100
AcDbEntity
  8
0
  6
Continuous
 62
     7
370
    25
100
AcDbLine
 10
74.4243383055
 20
45.7213223676
 30
0.0
 11
74.9243383055
 21
45.7213223676
 31
0.0
  0
LINE
  5
E8
330
1F
100
AcDbEntity
  8
0
  6
Continuous
 62
     7
370
    25
100
AcDbLine
 10
138.3243383055
 20
290.7213223675
 30
0.0
 11
130.5243383055
 21
290.7213223675
 31
0.0
  0
LINE
  5
E9
330
1F
100
AcDbEntity
  8
0
  6
Continuous
 62
     7
370
    25
100
AcDbLine
 10
138.3243383055
 20
290.7213223675
 30
0.0
 11
138.3243383055
 21
273.8560019144
 31
0.0
  0
LINE
  5
EA
330
1F
100
AcDbEntity
  8
0
  6
Continuous
 62
     7
370
    25
100
AcDbLine
 10
130.5243383055
 20
290.7213223675
 30
0.0
 11
130.5243383055
 21
273.8560019144
 31
0.0
  0
LINE
  5
EB
330
1F
100
AcDbEntity
  8
0
  6
Continuous
 62
     7
370
    25
100
AcDbLine
 10
137.3243383055
 20
291.7213223675
 30
0.0
 11
131.5243383055
 21
291.7213223675
 31
0.0
  0
LINE
  5
EC
330
1F
100
AcDbEntity
  8
0
  6
Continuous
 62
     7
370
    25
100
AcDbLine
 10
130.5243383055
 20
135.7213223675
 30
0.0
 11
138.3243383055
 21
135.7213223675
 31
0.0
  0
LINE
  5
ED
330
1F
100
AcDbEntity
  8
0
  6
Continuous
 62
     7
370
    25
100
AcDbLine
 10
130.5243383055
 20
135.7213223675
 30
0.0
 11
130.5243383055
 21
152.5866428207
 31
0.0
  0
LINE
  5
EE
330
1F
100
AcDbEntity
  8
0
  6
Continuous
 62
     7
370
    25
100
AcDbLine
 10
138.3243383055
 20
135.7213223675
 30
0.0
 11
138.3243383055
 21
152.5866428207
 31
0.0
  0
LINE
  5
EF
330
1F
100
AcDbEntity
  8
0
  6
Continuous
 62
     7
370
    25
100
AcDbLine
 10
131.5243383055
 20
134.7213223675
 30
0.0
 11
137.3243383055
 21
134.7213223675
 31
0.0
  0
LINE
  5
F0
330
1F
100
AcDbEntity
  8
0
  6
Continuous
 62
     7
370
    25
100
AcDbLine
 10
134.4243383055
 20
114.2213223675
 30
0.0
 11
134.4243383055
 21
113.2213223675
 31
0.0
  0
LINE
  5
F1
330
1F
100
AcDbEntity
  8
0
  6
Continuous
 62
     7
370
    25
100
AcDbLine
 10
134.4243383055
 20
72.2213223675
 30
0.0
 11
134.4243383055
 21
73.2213223675
 31
0.0
  0
LINE
  5
F2
330
1F
100
AcDbEntity
  8
0
  6
Continuous
 62
     7
370
    25
100
AcDbLine
 10
134.4243383055
 20
232.2213223675
 30
0.0
 11
134.4243383055
 21
233.2213223675
 31
0.0
  0
LINE
  5
F3
330
1F
100
AcDbEntity
  8
0
  6
Continuous
 62
     7
370
    25
100
AcDbLine
 10
134.4243383055
 20
274.2213223675
 30
0.0
 11
134.4243383055
 21
273.2213223675
 31
0.0
  0
LINE
  5
F4
330
1F
100
AcDbEntity
  8
0
  6
Continuous
 62
     7
370
    25
100
AcDbLine
 10
138.2743356576
 20
198.1310468494
 30
0.0
 11
130.5743356576
 21
198.1310468494
 31
0.0
  0
LINE
  5
F5
330
1F
100
AcDbEntity
  8
0
  6
Continuous
 62
     7
370
    25
100
AcDbLine
 10
138.2743356576
 20
198.1310468494
 30
0.0
 11
138.2743356576
 21
193.8653898056
 31
0.0
  0
LINE
  5
F6
330
1F
100
AcDbEntity
  8
0
  6
Continuous
 62
     7
370
    25
100
AcDbLine
 10
130.5743356576
 20
198.1310468494
 30
0.0
 11
130.5743356576
 21
193.865388818
 31
0.0
  0
LINE
  5
F7
330
1F
100
AcDbEntity
  8
0
  6
Continuous
 62
     7
370
    25
100
AcDbLine
 10
130.9593931289
 20
198.6176557428
 30
0.0
 11
137.8892781863
 21
198.6176557428
 31
0.0
  0
LINE
  5
F8
330
1F
100
AcDbEntity
  8
0
  6
Continuous
 62
     7
370
    25
100
AcDbLine
 10
134.4243356576
 20
199.0213306527
 30
0.0
 11
134.4243356576
 21
198.1310468494
 31
0.0
  0
LINE
  5
F9
330
1F
100
AcDbEntity
  8
0
  6
Continuous
 62
     7
370
    25
100
AcDbLine
 10
130.5243383055
 20
55.7213223675
 30
0.0
 11
138.3243383055
 21
55.7213223675
 31
0.0
  0
LINE
  5
FA
330
1F
100
AcDbEntity
  8
0
  6
Continuous
 62
     7
370
    25
100
AcDbLine
 10
130.5243383055
 20
55.7213223675
 30
0.0
 11
130.5243383055
 21
72.5866428207
 31
0.0
  0
LINE
  5
FB
330
1F
100
AcDbEntity
  8
0
  6
Continuous
 62
     7
370
    25
100
AcDbLine
 10
138.3243383055
 20
55.7213223675
 30
0.0
 11
138.3243383055
 21
72.5866428207
 31
0.0
  0
LINE
  5
FC
330
1F
100
AcDbEntity
  8
0
  6
Continuous
 62
     7
370
    25
100
AcDbLine
 10
131.5243383055
 20
54.7213223675
 30
0.0
 11
137.3243383055
 21
54.7213223675
 31
0.0
  0
ARC
  5
FD
330
1F
100
AcDbEntity
  8
0
  6
Continuous
 62
     7
370
    25
100
AcDbCircle
 10
137.7743356576
 20
198.1310468494
 30
0.0
 40
0.4999999999999432
100
AcDbArc
 50
360.0
 51
76.7096953029
  0
ARC
  5
FE
330
1F
100
AcDbEntity
  8
0
  6
Continuous
 62
     7
370
    25
100
AcDbCircle
 10
134.4243356576
 20
183.9488306528
 30
0.0
 40
15.07250000010399
100
AcDbArc
 50
76.709695303
 51
103.2903046971
  0
ARC
  5
FF
330
1F
100
AcDbEntity
  8
0
  6
Continuous
 62
     7
370
    25
100
AcDbCircle
 10
134.4243383055
 20
173.2213223675
 30
0.0
 40
19.9999999999991
100
AcDbArc
 50
0.0
 51
179.5557952924
  0
ARC
  5
100
330
1F
100
AcDbEntity
  8
0
  6
Continuous
 62
     7
370
    25
100
AcDbCircle
 10
134.4243383055
 20
173.2213223675
 30
0.0
 40
21.0
100
AcDbArc
 50
0.0
 51
180.0
  0
ARC
  5
101
330
1F
100
AcDbEntity
  8
0
  6
Continuous
 62
     7
370
    25
100
AcDbCircle
 10
134.4243383055
 20
173.2213223675
 30
0.0
 40
19.9999999999991
100
AcDbArc
 50
180.0
 51
359.5557952924
  0
ARC
  5
102
330
1F
100
AcDbEntity
  8
0
  6
Continuous
 62
     7
370
    25
100
AcDbCircle
 10
184.4243383056
 20
300.7213223676
 30
0.0
 40
9.499999999952593
100
AcDbArc
 50
359.9999999995
 51
90.0000000003
  0
ARC
  5
103
330
1F
100
AcDbEntity
  8
0
  6
Continuous
 62
     7
370
    25
100
AcDbCircle
 10
184.4243383055
 20
45.7213223676
 30
0.0
 40
9.500000000000064
100
AcDbArc
 50
270.0
 51
0.0
  0
ARC
  5
104
330
1F
100
AcDbEntity
  8
0
  6
Continuous
 62
     7
370
    25
100
AcDbCircle
 10
84.4243383055
 20
45.7213223676
 30
0.0
 40
9.500000000000043
100
AcDbArc
 50
180.0
 51
270.0
  0
ARC
  5
105
330
1F
100
AcDbEntity
  8
0
  6
Continuous
 62
     7
370
    25
100
AcDbCircle
 10
84.4243383056
 20
300.7213223675
 30
0.0
 40
9.500000000087482
100
AcDbArc
 50
90.0000000005
 51
179.9999999997
  0
ARC
  5
106
330
1F
100
AcDbEntity
  8
0
  6
Continuous
 62
     7
370
    25
100
AcDbCircle
 10
184.4243383056
 20
300.7213223676
 30
0.0
 40
9.99999999995265
100
AcDbArc
 50
359.9999999995
 51
90.0000000003
  0
ARC
  5
107
330
1F
100
AcDbEntity
  8
0
  6
Continuous
 62
     7
370
    25
100
AcDbCircle
 10
184.4243383055
 20
45.7213223676
 30
0.0
 40
9.999999999999943
100
AcDbArc
 50
270.0
 51
0.0000000286
  0
ARC
  5
108
330
1F
100
AcDbEntity
  8
0
  6
Continuous
 62
     7
370
    25
100
AcDbCircle
 10
134.4243383055
 20
253.2213223675
 30
0.0
 40
21.25000000000004
100
AcDbArc
 50
100.5754059664
 51
79.4245940336
  0
ARC
  5
109
330
1F
100
AcDbEntity
  8
0
  6
Continuous
 62
     7
370
    25
100
AcDbCircle
 10
134.4243383055
 20
173.2213223675
 30
0.0
 40
21.25000000000004
100
AcDbArc
 50
280.5754059664
 51
79.5617138752
  0
ARC
  5
10A
330
1F
100
AcDbEntity
  8
0
  6
Continuous
 62
     7
370
    25
100
AcDbCircle
 10
134.4243383055
 20
173.2213223675
 30
0.0
 40
21.25000000000004
100
AcDbArc
 50
100.4383006441
 51
259.4245940336
  0
ARC
  5
10B
330
1F
100
AcDbEntity
  8
0
  6
Continuous
 62
     7
370
    25
100
AcDbCircle
 10
134.4243383055
 20
93.2213223676
 30
0.0
 40
21.25000000000002
100
AcDbArc
 50
280.5754059664
 51
259.4245940336
  0
ARC
  5
10C
330
1F
100
AcDbEntity
  8
0
  6
Continuous
 62
     7
370
    25
100
AcDbCircle
 10
84.4243383056
 20
300.7213223675
 30
0.0
 40
10.00000000008733
100
AcDbArc
 50
90.0000000005
 51
180.0000000284
  0
ARC
  5
10D
330
1F
100
AcDbEntity
  8
0
  6
Continuous
 62
     7
370
    25
100
AcDbCircle
 10
84.4243383055
 20
45.7213223676
 30
0.0
 40
10.0000000000001
100
AcDbArc
 50
180.0
 51
270.0000000287
  0
ARC
  5
10E
330
1F
100
AcDbEntity
  8
0
  6
Continuous
 62
     7
370
    25
100
AcDbCircle
 10
137.3243383055
 20
290.7213223675
 30
0.0
 40
1.000000000000057
100
AcDbArc
 50
0.0
 51
90.0
  0
ARC
  5
10F
330
1F
100
AcDbEntity
  8
0
  6
Continuous
 62
     7
370
    25
100
AcDbCircle
 10
131.5243383055
 20
290.7213223675
 30
0.0
 40
1.000000000000057
100
AcDbArc
 50
90.0
 51
180.0
  0
ARC
  5
110
330
1F
100
AcDbEntity
  8
0
  6
Continuous
 62
     7
370
    25
100
AcDbCircle
 10
131.5243383055
 20
135.7213223675
 30
0.0
 40
1.000000000000057
100
AcDbArc
 50
180.0
 51
270.0
  0
ARC
  5
111
330
1F
100
AcDbEntity
  8
0
  6
Continuous
 62
     7
370
    25
100
AcDbCircle
 10
137.3243383055
 20
135.7213223675
 30
0.0
 40
1.000000000000085
100
AcDbArc
 50
270.0
 51
360.0
  0
ARC
  5
112
330
1F
100
AcDbEntity
  8
0
  6
Continuous
 62
     7
370
    25
100
AcDbCircle
 10
134.4243383055
 20
93.2213223675
 30
0.0
 40
20.0
100
AcDbArc
 50
270.0
 51
90.0
  0
ARC
  5
113
330
1F
100
AcDbEntity
  8
0
  6
Continuous
 62
     7
370
    25
100
AcDbCircle
 10
134.4243383055
 20
93.2213223675
 30
0.0
 40
21.00000000000001
100
AcDbArc
 50
270.0
 51
90.0
  0
ARC
  5
114
330
1F
100
AcDbEntity
  8
0
  6
Continuous
 62
     7
370
    25
100
AcDbCircle
 10
134.4243383055
 20
253.2213223675
 30
0.0
 40
20.0
100
AcDbArc
 50
90.0
 51
270.0
  0
ARC
  5
115
330
1F
100
AcDbEntity
  8
0
  6
Continuous
 62
     7
370
    25
100
AcDbCircle
 10
134.4243383055
 20
253.2213223675
 30
0.0
 40
21.00000000000006
100
AcDbArc
 50
90.0
 51
270.0
  0
ARC
  5
116
330
1F
100
AcDbEntity
  8
0
  6
Continuous
 62
     7
370
    25
100
AcDbCircle
 10
131.0743356576
 20
198.1310468494
 30
0.0
 40
0.5000000000007969
100
AcDbArc
 50
103.2903046971
 51
179.9999999999
  0
ARC
  5
117
330
1F
100
AcDbEntity
  8
0
  6
Continuous
 62
     7
370
    25
100
AcDbCircle
 10
131.5243383055
 20
55.7213223675
 30
0.0
 40
1.000000000000007
100
AcDbArc
 50
180.0
 51
270.0
  0
ARC
  5
118
330
1F
100
AcDbEntity
  8
0
  6
Continuous
 62
     7
370
    25
100
AcDbCircle
 10
137.3243383055
 20
55.7213223675
 30
0.0
 40
1.000000000000028
100
AcDbArc
 50
270.0
 51
0.0
  0
ARC
  5
119
330
1F
100
AcDbEntity
  8
0
  6
Continuous
 62
     8
370
    25
100
AcDbCircle
 10
134.4243383055
 20
253.2213223675
 30
0.0
 40
21.75000000000001
100
AcDbArc
 50
100.3295919284
 51
79.6704080716
  0
ARC
  5
11A
330
1F
100
AcDbEntity
  8
0
  6
Continuous
 62
     8
370
    25
100
AcDbCircle
 10
134.4243383055
 20
93.2213223676
 30
0.0
 40
21.75000000000002
100
AcDbArc
 50
280.3295919284
 51
259.6704080716
  0
ARC
  5
11B
330
1F
100
AcDbEntity
  8
0
  6
Continuous
 62
     8
370
    25
100
AcDbCircle
 10
134.4243383055
 20
173.2213223675
 30
0.0
 40
21.75000000000005
100
AcDbArc
 50
100.1957430341
 51
259.6704080716
  0
ARC
  5
11C
330
1F
100
AcDbEntity
  8
0
  6
Continuous
 62
     8
370
    25
100
AcDbCircle
 10
134.4243383055
 20
173.2213223675
 30
0.0
 40
21.75000000000005
100
AcDbArc
 50
280.3295919284
 51
79.8042711404
  0
LWPOLYLINE
  5
276
330
23
100
AcDbEntity
 67
     1
  8
0
  6
Continuous
 62
     7
370
    25
100
AcDbPolyline
 90
        3
 70
   128
 43
0.0
 10
136.9243383055
 20
-253.3928657147
 10
136.8019795962
 20
-254.1654082006
 10
136.4712872545
 20
-254.8281357241
  0
LWPOLYLINE
  5
277
330
23
100
AcDbEntity
 67
     1
  8
0
  6
Continuous
 62
     7
370
    25
100
AcDbPolyline
 90
        3
 70
   128
 43
0.0
 10
132.3773893565
 20
-254.8281357241
 10
132.0466970148
 20
-254.1654082006
 10
131.9243383055
 20
-253.3928657147
  0
LWPOLYLINE
  5
278
330
23
100
AcDbEntity
 67
     1
  8
0
  6
Continuous
 62
     7
370
    25
100
AcDbPolyline
 90
        3
 70
   128
 43
0.0
 10
131.9243383055
 20
-253.3928657147
 10
132.0466970148
 20
-252.6203232287
 10
132.3773893565
 20
-251.9575957052
  0
LWPOLYLINE
  5
279
330
23
100
AcDbEntity
 67
     1
  8
0
  6
Continuous
 62
     7
370
    25
100
AcDbPolyline
 90
        3
 70
   128
 43
0.0
 10
136.4712872545
 20
-251.9575957052
 10
136.8019795962
 20
-252.6203232287
 10
136.9243383055
 20
-253.3928657147
  0
SPLINE
  5
27A
330
23
100
AcDbEntity
 67
     1
  8
0
  6
Continuous
 62
     7
370
    25
100
AcDbSpline
210
0.0
220
0.0
230
1.0
 70
     8
 71
     3
 72
    33
 73
    29
 74
     0
 42
0.000000001
 43
0.00000001
 40
0.0
 40
0.0
 40
0.0
 40
0.0
 40
0.0126850487797643
 40
0.0253158075573675
 40
0.0379108414324553
 40
0.0504888736950738
 40
0.0630687035491309
 40
0.0949649766624701
 40
0.1268320034836522
 40
0.158711275837549
 40
0.1906133267204973
 40
0.2542230132438345
 40
0.3171597643744595
 40
0.3790300714169547
 40
0.4398023245810108
 40
0.4998892367906727
 40
0.559974465811991
 40
0.6207438691535861
 40
0.6826065560765519
 40
0.745548902239611
 40
0.8091344979377291
 40
0.8410501476112324
 40
0.8729605580098295
 40
0.9047959824498922
 40
0.9366780299301064
 40
0.9577399468126895
 40
0.9788180913162801
 40
1.0
 40
1.0
 40
1.0
 40
1.0
 10
134.4243383055031
 20
-264.3928657147766
 30
0.0
 10
134.4849721056902
 20
-264.3935336599936
 30
0.0
 10
134.6059802029912
 20
-264.3948666917281
 30
0.0
 10
134.786915760743
 20
-264.4056155553151
 30
0.0
 10
134.9667813874299
 20
-264.4227839946465
 30
0.0
 10
135.1455711557425
 20
-264.4469810700524
 30
0.0
 10
135.4140388008076
 20
-264.493976918891
 30
0.0
 10
135.7685926702597
 20
-264.5808993156675
 30
0.0
 10
136.1995850235125
 20
-264.7319705434993
 30
0.0
 10
136.6134926759868
 20
-264.923947559921
 30
0.0
 10
137.1358747569525
 20
-265.2325767605415
 30
0.0
 10
137.7251205556633
 20
-265.709285530945
 30
0.0
 10
138.2997551686907
 20
-266.4028446799441
 30
0.0
 10
138.7209385675579
 20
-267.1855873271148
 30
0.0
 10
138.9766804195403
 20
-268.0249538763687
 30
0.0
 10
139.0624763606311
 20
-268.8912047517297
 30
0.0
 10
138.9773317877544
 20
-269.7575097934154
 30
0.0
 10
138.7222351251296
 20
-270.5970194900544
 30
0.0
 10
138.301656652131
 20
-271.3800725729718
 30
0.0
 10
137.7276078474294
 20
-272.0739524834279
 30
0.0
 10
137.1387861203858
 20
-272.5511534796967
 30
0.0
 10
136.6164956050204
 20
-272.8601172916324
 30
0.0
 10
136.2027124615338
 20
-273.0524982089061
 30
0.0
 10
135.7719095150671
 20
-273.2038855353423
 30
0.0
 10
135.378270293973
 20
-273.3007771344408
 30
0.0
 10
135.0290410793044
 20
-273.3571879121754
 30
0.0
 10
134.7276216068572
 20
-273.3872934532625
 30
0.0
 10
134.5255980869649
 20
-273.3910052561854
 30
0.0
 10
134.4243383055029
 20
-273.3928657145765
 30
0.0
  0
LWPOLYLINE
  5
27B
330
23
100
AcDbEntity
 67
     1
  8
0
  6
Continuous
 62
     7
370
    25
100
AcDbPolyline
 90
        9
 70
   128
 43
0.0
 10
134.4243383721
 20
-273.3928657145
 10
134.4243383477
 20
-273.2953196971
 10
134.4243383193
 20
-273.2015219125
 10
134.4243382879
 20
-273.1150770234
 10
134.4243382548
 20
-273.0393071193
 10
134.4243382213
 20
-272.9771240485
 10
134.4243381886
 20
-272.9309175156
 10
134.424338158
 20
-272.9024632442
 10
134.4243381306
 20
-272.8928547361
  0
SPLINE
  5
27C
330
23
100
AcDbEntity
 67
     1
  8
0
  6
Continuous
 62
     7
370
    25
100
AcDbSpline
210
0.0
220
0.0
230
1.0
 70
     8
 71
     3
 72
    22
 73
    18
 74
     0
 42
0.000000001
 43
0.00000001
 40
0.0
 40
0.0
 40
0.0
 40
0.0
 40
0.125
 40
0.125
 40
0.25
 40
0.25
 40
0.375
 40
0.375
 40
0.5
 40
0.5
 40
0.625
 40
0.625
 40
0.75
 40
0.75
 40
0.875
 40
0.875
 40
1.0
 40
1.0
 40
1.0
 40
1.0
 10
134.4243383042999
 20
-264.8928753432252
 30
0.0
 10
134.9469887337361
 20
-264.8929458218359
 30
0.0
 10
135.4702113906673
 20
-264.9968624762267
 30
0.0
 10
136.4349556007465
 20
-265.3957789718604
 30
0.0
 10
136.8769730834562
 20
-265.6902185826546
 30
0.0
 10
137.6165223880224
 20
-266.4266490512929
 30
0.0
 10
137.9141167183186
 20
-266.868708281329
 30
0.0
 10
138.318333778949
 20
-267.8380807970045
 30
0.0
 10
138.4243384704895
 20
-268.3652189253855
 30
0.0
 10
138.4243381372858
 20
-269.4205004004642
 30
0.0
 10
138.3183379418306
 20
-269.947640021884
 30
0.0
 10
137.9141217818809
 20
-270.9170116090991
 30
0.0
 10
137.6165296788594
 20
-271.3590740820287
 30
0.0
 10
136.8769823012795
 20
-272.0955048012358
 30
0.0
 10
136.4349641026288
 20
-272.3899471663439
 30
0.0
 10
135.4702228685011
 20
-272.7888661510644
 30
0.0
 10
134.9469934209366
 20
-272.89278430295
 30
0.0
 10
134.4243383056921
 20
-272.8928559517588
 30
0.0
  0
LWPOLYLINE
  5
27D
330
23
100
AcDbEntity
 67
     1
  8
0
  6
Continuous
 62
     7
370
    25
100
AcDbPolyline
 90
        9
 70
   128
 43
0.0
 10
134.4243382437
 20
-264.3928657148
 10
134.4243382663
 20
-264.4904116343
 10
134.4243382927
 20
-264.5842092741
 10
134.4243383217
 20
-264.670653985
 10
134.4243383524
 20
-264.7464236912
 10
134.4243383835
 20
-264.808606558
 10
134.4243384139
 20
-264.854812894
 10
134.4243384423
 20
-264.8832669865
 10
134.4243384677
 20
-264.8928753432
  0
SPLINE
  5
27E
330
23
100
AcDbEntity
 67
     1
  8
0
  6
Continuous
 62
     7
370
    25
100
AcDbSpline
210
0.0
220
0.0
230
1.0
 70
     8
 71
     3
 72
    33
 73
    29
 74
     0
 42
0.000000001
 43
0.00000001
 40
0.0
 40
0.0
 40
0.0
 40
0.0
 40
0.0127247998647728
 40
0.0254003929173546
 40
0.0380455493785444
 40
0.0506791751321417
 40
0.0633202277979786
 40
0.0951884981698132
 40
0.1270173132745277
 40
0.1589162021892318
 40
0.1908265987209242
 40
0.254397565694654
 40
0.3173270462171037
 40
0.3791770752089081
 40
0.4399345354068073
 40
0.5000067487790996
 40
0.5600791050574631
 40
0.6208363366978191
 40
0.6826868152255445
 40
0.745615860771593
 40
0.8091870932182214
 40
0.8410951882579278
 40
0.8729978347564805
 40
0.904826174370037
 40
0.9367007624283901
 40
0.9577545821608621
 40
0.9788251807548954
 40
0.9999999999999999
 40
0.9999999999999999
 40
0.9999999999999999
 40
0.9999999999999999
 10
134.424338305503
 20
-273.3928657145765
 30
0.0
 10
134.3635144350802
 20
-273.3921918797458
 30
0.0
 10
134.2421019001945
 20
-273.3908468158041
 30
0.0
 10
134.0605258290885
 20
-273.3800098821802
 30
0.0
 10
133.87995051911
 20
-273.3627035739248
 30
0.0
 10
133.7003824695925
 20
-273.3383107844466
 30
0.0
 10
133.4315224114229
 20
-273.2911038364468
 30
0.0
 10
133.077039295424
 20
-273.2039986206983
 30
0.0
 10
132.6463795370208
 20
-273.0526526283784
 30
0.0
 10
132.2326745570722
 20
-272.8603723241788
 30
0.0
 10
131.7104695120466
 20
-272.551553902295
 30
0.0
 10
131.1216920690547
 20
-272.0745499804858
 30
0.0
 10
130.5476203915472
 20
-271.3809416611041
 30
0.0
 10
130.1269289901573
 20
-270.5981586182736
 30
0.0
 10
129.8716351854869
 20
-269.7589031584464
 30
0.0
 10
129.786213069135
 20
-268.8928202555473
 30
0.0
 10
129.8716528272764
 20
-268.0267402565708
 30
0.0
 10
130.1269639790355
 20
-267.1874885625373
 30
0.0
 10
130.5476707928561
 20
-266.4047151164598
 30
0.0
 10
131.1217567801117
 20
-265.7111172633914
 30
0.0
 10
131.710535269456
 20
-265.234132614653
 30
0.0
 10
132.2327506471263
 20
-264.9253174972369
 30
0.0
 10
132.6464622585975
 20
-264.7330346120799
 30
0.0
 10
133.0771810395068
 20
-264.581727685217
 30
0.0
 10
133.470722736155
 20
-264.4848918822792
 30
0.0
 10
133.8198463780415
 20
-264.4285182553068
 30
0.0
 10
134.1211587393679
 20
-264.3984347252859
 30
0.0
 10
134.3231123749977
 20
-264.3947251021949
 30
0.0
 10
134.4243383055031
 20
-264.3928657147765
 30
0.0
  0
SPLINE
  5
27F
330
23
100
AcDbEntity
 67
     1
  8
0
  6
Continuous
 62
     7
370
    25
100
AcDbSpline
210
0.0
220
0.0
230
1.0
 70
     8
 71
     3
 72
    22
 73
    18
 74
     0
 42
0.000000001
 43
0.00000001
 40
0.0
 40
0.0
 40
0.0
 40
0.0
 40
0.125
 40
0.125
 40
0.25
 40
0.25
 40
0.375
 40
0.375
 40
0.5
 40
0.5
 40
0.625
 40
0.625
 40
0.75
 40
0.75
 40
0.875
 40
0.875
 40
1.0
 40
1.0
 40
1.0
 40
1.0
 10
134.42433830714
 20
-272.8928547361041
 30
0.0
 10
133.9016650253727
 20
-272.8927810165031
 30
0.0
 10
133.3784490979538
 20
-272.788865922794
 30
0.0
 10
132.4137105198747
 20
-272.3899437062748
 30
0.0
 10
131.9716917797153
 20
-272.0955046210036
 30
0.0
 10
131.2321481135518
 20
-271.359072738842
 30
0.0
 10
130.9345545215033
 20
-270.9170136048214
 30
0.0
 10
130.5303408019679
 20
-269.9476424415665
 30
0.0
 10
130.4243382955162
 20
-269.4205049539432
 30
0.0
 10
130.4243383154396
 20
-268.3652258520763
 30
0.0
 10
130.5303409937141
 20
-267.8380884268071
 30
0.0
 10
130.9345547992592
 20
-266.8687172601562
 30
0.0
 10
131.2321484924032
 20
-266.4266582337485
 30
0.0
 10
131.9716922462185
 20
-265.6902264268587
 30
0.0
 10
132.4137108477823
 20
-265.3957874499231
 30
0.0
 10
133.3784499857094
 20
-264.9968652757817
 30
0.0
 10
133.9016644267275
 20
-264.8929504108391
 30
0.0
 10
134.4243383057264
 20
-264.8928767071109
 30
0.0
  0
SPLINE
  5
282
330
23
100
AcDbEntity
 67
     1
  8
0
  6
Continuous
 62
     7
370
    25
100
AcDbSpline
210
0.0
220
0.0
230
1.0
 70
     8
 71
     3
 72
    26
 73
    22
 74
     0
 42
0.000000001
 43
0.00000001
 40
0.0
 40
0.0
 40
0.0
 40
0.0
 40
0.0198883414618287
 40
0.0401795501154282
 40
0.060874404629692
 40
0.0819736383627784
 40
0.103477942680179
 40
0.1253879699802312
 40
0.1779657390134355
 40
0.2505502727376543
 40
0.322667396519863
 40
0.3746233403648278
 40
0.4989496085315359
 40
0.6234903612030205
 40
0.676088657989664
 40
0.7487365510106261
 40
0.8215343290465118
 40
0.8740246360102868
 40
0.9176568971112796
 40
0.9596468266265906
 40
1.0
 40
1.0
 40
1.0
 40
1.0
 10
134.4243383055033
 20
-251.2928657146765
 30
0.0
 10
134.3806803974937
 20
-251.293653224318
 30
0.0
 10
134.2924802272495
 20
-251.2952441957506
 30
0.0
 10
134.1593812119314
 20
-251.3082930014091
 30
0.0
 10
134.0247448225767
 20
-251.3296746630372
 30
0.0
 10
133.8892211478063
 20
-251.3605811752229
 30
0.0
 10
133.7535122986662
 20
-251.4011809385697
 30
0.0
 10
133.5562220663486
 20
-251.4751675405649
 30
0.0
 10
133.268141172534
 20
-251.6234834703782
 30
0.0
 10
132.92665060802
 20
-251.8950007779298
 30
0.0
 10
132.6560037923781
 20
-252.2356270404236
 30
0.0
 10
132.4048418722554
 20
-252.7209128923591
 30
0.0
 10
132.2690875635643
 20
-253.385963718087
 30
0.0
 10
132.4008073853116
 20
-254.0533813413032
 30
0.0
 10
132.6508955920093
 20
-254.5427183026471
 30
0.0
 10
132.9223448247743
 20
-254.8867070797304
 30
0.0
 10
133.2644542752225
 20
-255.1597974261268
 30
0.0
 10
133.5948863412454
 20
-255.33095193876
 30
0.0
 10
133.8827380239708
 20
-255.4279231667334
 30
0.0
 10
134.1548674856474
 20
-255.4829728626227
 30
0.0
 10
134.3357129368777
 20
-255.4896120872133
 30
0.0
 10
134.4243383055033
 20
-255.4928657146766
 30
0.0
  0
SPLINE
  5
284
330
23
100
AcDbEntity
 67
     1
  8
0
  6
Continuous
 62
     7
370
    25
100
AcDbSpline
210
0.0
220
0.0
230
1.0
 70
     8
 71
     3
 72
    26
 73
    22
 74
     0
 42
0.000000001
 43
0.00000001
 40
0.0
 40
0.0
 40
0.0
 40
0.0
 40
0.019887956511336
 40
0.0401794041808896
 40
0.0608751217882583
 40
0.0819758427271509
 40
0.1034822583339204
 40
0.1253950209222422
 40
0.1779838910012121
 40
0.2506190805368085
 40
0.3227013231365025
 40
0.3746368180535586
 40
0.4988249147637993
 40
0.6233360649697836
 40
0.6759735199352096
 40
0.7486383217314235
 40
0.8214827579891354
 40
0.8739766929691763
 40
0.917626851785578
 40
0.959632760668156
 40
1.0
 40
1.0
 40
1.0
 40
1.0
 10
134.4243383055032
 20
-255.4928657146765
 30
0.0
 10
134.4679954787585
 20
-255.4920782296697
 30
0.0
 10
134.5561955514315
 20
-255.4904872829902
 30
0.0
 10
134.6892964805596
 20
-255.4774383716943
 30
0.0
 10
134.8239388029577
 20
-255.4560555906146
 30
0.0
 10
134.9594722252249
 20
-255.4251461198952
 30
0.0
 10
135.0951943099934
 20
-255.3845407811732
 30
0.0
 10
135.2925164856966
 20
-255.3105379644861
 30
0.0
 10
135.5807186968708
 20
-255.1621449766801
 30
0.0
 10
135.9222240490491
 20
-254.8905383307186
 30
0.0
 10
136.1928062915344
 20
-254.5498789161757
 30
0.0
 10
136.4437347638725
 20
-254.0649499398147
 30
0.0
 10
136.5795098999741
 20
-253.4003826227588
 30
0.0
 10
136.4481458563424
 20
-252.7331951778318
 30
0.0
 10
136.198237027127
 20
-252.2436947914813
 30
0.0
 10
135.9267619492299
 20
-251.8994337876689
 30
0.0
 10
135.5845957744668
 20
-251.6261654798205
 30
0.0
 10
135.2540566815324
 20
-251.4548896532761
 30
0.0
 10
134.966137379613
 20
-251.3578562818725
 30
0.0
 10
134.6939068139883
 20
-251.3027656681737
 30
0.0
 10
134.5129948326325
 20
-251.296121642087
 30
0.0
 10
134.4243383055033
 20
-251.2928657146765
 30
0.0
  0
LINE
  5
28F
330
23
100
AcDbEntity
 67
     1
  8
0
  6
Continuous
 62
     7
370
    25
100
AcDbLine
 10
113.4243383055
 20
-235.3928657147
 30
0.0
 11
113.4243383055
 21
-278.8928657147
 31
0.0
  0
LINE
  5
290
330
23
100
AcDbEntity
 67
     1
  8
0
  6
Continuous
 62
     7
370
    25
100
AcDbLine
 10
155.4243383055
 20
-278.8928657147
 30
0.0
 11
155.4243383055
 21
-235.3928657147
 31
0.0
  0
LINE
  5
291
330
23
100
AcDbEntity
 67
     1
  8
0
  6
Continuous
 62
     7
370
    25
100
AcDbLine
 10
155.4243383055
 20
-234.0928657147
 30
0.0
 11
113.4243383055
 21
-234.0928657147
 31
0.0
  0
LINE
  5
292
330
23
100
AcDbEntity
 67
     1
  8
0
  6
Continuous
 62
     7
370
    25
100
AcDbLine
 10
113.4243383055
 20
-234.0928657147
 30
0.0
 11
113.4243383055
 21
-231.5928657147
 31
0.0
  0
LINE
  5
293
330
23
100
AcDbEntity
 67
     1
  8
0
  6
Continuous
 62
     7
370
    25
100
AcDbLine
 10
155.4243383055
 20
-231.5928657147
 30
0.0
 11
155.4243383055
 21
-234.0928657147
 31
0.0
  0
LINE
  5
294
330
23
100
AcDbEntity
 67
     1
  8
0
  6
Continuous
 62
     7
370
    25
100
AcDbLine
 10
154.9243383055
 20
-234.5928657147
 30
0.0
 11
113.9243383055
 21
-234.5928657147
 31
0.0
  0
LINE
  5
295
330
23
100
AcDbEntity
 67
     1
  8
0
  6
Continuous
 62
     7
370
    25
100
AcDbLine
 10
113.9243383055
 20
-234.8928657147
 30
0.0
 11
154.9243383055
 21
-234.8928657147
 31
0.0
  0
LINE
  5
296
330
23
100
AcDbEntity
 67
     1
  8
0
  6
Continuous
 62
     7
370
    25
100
AcDbLine
 10
113.9243383055
 20
-234.5928657147
 30
0.0
 11
113.9243383055
 21
-234.8928657147
 31
0.0
  0
LINE
  5
297
330
23
100
AcDbEntity
 67
     1
  8
0
  6
Continuous
 62
     7
370
    25
100
AcDbLine
 10
154.9243383055
 20
-234.5928657147
 30
0.0
 11
154.9243383055
 21
-234.8928657147
 31
0.0
  0
LINE
  5
298
330
23
100
AcDbEntity
 67
     1
  8
0
  6
Continuous
 62
     7
370
    25
100
AcDbLine
 10
184.4243383055
 20
-231.5928657147
 30
0.0
 11
184.4243383052
 21
-229.5928657147
 31
0.0
  0
LINE
  5
299
330
23
100
AcDbEntity
 67
     1
  8
0
  6
Continuous
 62
     7
370
    25
100
AcDbLine
 10
74.4243383055
 20
-231.0928657147
 30
0.0
 11
194.4243383055
 21
-231.0928657147
 31
0.0
  0
LINE
  5
29A
330
23
100
AcDbEntity
 67
     1
  8
0
  6
Continuous
 62
     7
370
    25
100
AcDbLine
 10
84.4243383056
 20
-229.5928657147
 30
0.0
 11
84.4243383055
 21
-231.5928657147
 31
0.0
  0
LINE
  5
29B
330
23
100
AcDbEntity
 67
     1
  8
0
  6
Continuous
 62
     7
370
    25
100
AcDbLine
 10
74.9243383055
 20
-231.5928657147
 30
0.0
 11
193.9243383055
 21
-231.5928657147
 31
0.0
  0
LINE
  5
29C
330
23
100
AcDbEntity
 67
     1
  8
0
  6
Continuous
 62
     7
370
    25
100
AcDbLine
 10
194.4243383055
 20
-229.5928657147
 30
0.0
 11
194.4243383055
 21
-231.0928657147
 31
0.0
  0
LINE
  5
29D
330
23
100
AcDbEntity
 67
     1
  8
0
  6
Continuous
 62
     7
370
    25
100
AcDbLine
 10
74.4243383055
 20
-231.0928657147
 30
0.0
 11
74.4243383055
 21
-229.5928657147
 31
0.0
  0
LINE
  5
29E
330
23
100
AcDbEntity
 67
     1
  8
0
  6
Continuous
 62
     7
370
    25
100
AcDbLine
 10
194.4243383055
 20
-229.5928657147
 30
0.0
 11
74.4243383055
 21
-229.5928657147
 31
0.0
  0
LINE
  5
29F
330
23
100
AcDbEntity
 67
     1
  8
0
  6
Continuous
 62
     7
370
    25
100
AcDbLine
 10
138.3243383055
 20
-268.8928657147
 30
0.0
 11
137.3243383055
 21
-268.8928657147
 31
0.0
  0
LINE
  5
2A0
330
23
100
AcDbEntity
 67
     1
  8
0
  6
Continuous
 62
     7
370
    25
100
AcDbLine
 10
130.5243383055
 20
-268.8928657147
 30
0.0
 11
131.5243383055
 21
-268.8928657147
 31
0.0
  0
LINE
  5
2A1
330
23
100
AcDbEntity
 67
     1
  8
0
  6
Continuous
 62
     7
370
    25
100
AcDbLine
 10
133.6737829556
 20
-252.0928657147
 30
0.0
 11
132.9232276056
 21
-253.3928657147
 31
0.0
  0
LINE
  5
2A2
330
23
100
AcDbEntity
 67
     1
  8
0
  6
Continuous
 62
     7
370
    25
100
AcDbLine
 10
135.1748936554
 20
-254.6928657147
 30
0.0
 11
135.9254490054
 21
-253.3928657147
 31
0.0
  0
LINE
  5
2A3
330
23
100
AcDbEntity
 67
     1
  8
0
  6
Continuous
 62
     7
370
    25
100
AcDbLine
 10
133.6737829556
 20
-252.0928657147
 30
0.0
 11
135.1748936554
 21
-252.0928657147
 31
0.0
  0
LINE
  5
2A4
330
23
100
AcDbEntity
 67
     1
  8
0
  6
Continuous
 62
     7
370
    25
100
AcDbLine
 10
132.9232276056
 20
-253.3928657147
 30
0.0
 11
133.6737829556
 21
-254.6928657147
 31
0.0
  0
LINE
  5
2A5
330
23
100
AcDbEntity
 67
     1
  8
0
  6
Continuous
 62
     7
370
    25
100
AcDbLine
 10
135.9254490054
 20
-253.3928657147
 30
0.0
 11
135.1748936554
 21
-252.0928657147
 31
0.0
  0
LINE
  5
2A6
330
23
100
AcDbEntity
 67
     1
  8
0
  6
Continuous
 62
     7
370
    25
100
AcDbLine
 10
135.1748936554
 20
-254.6928657147
 30
0.0
 11
133.6737829556
 21
-254.6928657147
 31
0.0
  0
LINE
  5
2A7
330
23
100
AcDbEntity
 67
     1
  8
0
  6
Continuous
 62
     7
370
    25
100
AcDbLine
 10
134.4243383055
 20
-279.8928657147
 30
0.0
 11
134.4243383059
 21
-273.3928657146
 31
0.0
  0
LINE
  5
2A8
330
23
100
AcDbEntity
 67
     1
  8
0
  6
Continuous
 62
     7
370
    25
100
AcDbLine
 10
134.4243383055
 20
-251.2928657147
 30
0.0
 11
134.4243383055
 21
-234.8928657147
 31
0.0
  0
LINE
  5
2A9
330
23
100
AcDbEntity
 67
     1
  8
0
  6
Continuous
 62
     7
370
    25
100
AcDbLine
 10
134.4243383052
 20
-264.3928657148
 30
0.0
 11
134.4243383055
 21
-255.4928657147
 31
0.0
  0
LINE
  5
2AA
330
23
100
AcDbEntity
 67
     1
  8
0
  6
Continuous
 62
     7
370
    25
100
AcDbLine
 10
114.4243383055
 20
-279.8928657147
 30
0.0
 11
154.4243383055
 21
-279.8928657147
 31
0.0
  0
LINE
  5
2AB
330
23
100
AcDbEntity
 67
     1
  8
0
  6
Continuous
 62
     8
370
    25
100
AcDbLine
 10
155.4243383055
 20
-278.8928657147
 30
0.0
 11
113.4243383055
 21
-278.8928657147
 31
0.0
  0
LINE
  5
2AC
330
23
100
AcDbEntity
 67
     1
  8
0
  6
Continuous
 62
     8
370
    25
100
AcDbLine
 10
113.4243383055
 20
-235.3928657147
 30
0.0
 11
155.4243383055
 21
-235.3928657147
 31
0.0
  0
ARC
  5
2AD
330
23
100
AcDbEntity
 67
     1
  8
0
  6
Continuous
 62
     7
370
    25
100
AcDbCircle
 10
113.9243383055
 20
-235.3928657147
 30
0.0
 40
0.4999999999999716
100
AcDbArc
 50
90.0
 51
180.0
  0
ARC
  5
2AE
330
23
100
AcDbEntity
 67
     1
  8
0
  6
Continuous
 62
     7
370
    25
100
AcDbCircle
 10
154.9243383055
 20
-235.3928657147
 30
0.0
 40
0.5000000000000284
100
AcDbArc
 50
0.0
 51
90.0
  0
ARC
  5
2AF
330
23
100
AcDbEntity
 67
     1
  8
0
  6
Continuous
 62
     7
370
    25
100
AcDbCircle
 10
154.4243383055
 20
-278.8928657147
 30
0.0
 40
1.000000000000057
100
AcDbArc
 50
270.0
 51
360.0
  0
ARC
  5
2B0
330
23
100
AcDbEntity
 67
     1
  8
0
  6
Continuous
 62
     7
370
    25
100
AcDbCircle
 10
114.4243383055
 20
-278.8928657147
 30
0.0
 40
1.0
100
AcDbArc
 50
180.0
 51
270.0
  0
ARC
  5
2B1
330
23
100
AcDbEntity
 67
     1
  8
0
  6
Continuous
 62
     7
370
    25
100
AcDbCircle
 10
113.9243383055
 20
-234.0928657147
 30
0.0
 40
0.5000000000000284
100
AcDbArc
 50
180.0
 51
270.0
  0
ARC
  5
2B2
330
23
100
AcDbEntity
 67
     1
  8
0
  6
Continuous
 62
     7
370
    25
100
AcDbCircle
 10
154.9243383055
 20
-234.0928657147
 30
0.0
 40
0.5000000000000568
100
AcDbArc
 50
270.0
 51
360.0
  0
ARC
  5
2B3
330
23
100
AcDbEntity
 67
     1
  8
0
  6
Continuous
 62
     7
370
    25
100
AcDbCircle
 10
193.9243383055
 20
-231.0928657147
 30
0.0
 40
0.5
100
AcDbArc
 50
270.0
 51
0.0
  0
ARC
  5
2B4
330
23
100
AcDbEntity
 67
     1
  8
0
  6
Continuous
 62
     7
370
    25
100
AcDbCircle
 10
74.9243383055
 20
-231.0928657147
 30
0.0
 40
0.5000000000000568
100
AcDbArc
 50
180.0
 51
270.0
  0
ARC
  5
2B5
330
23
100
AcDbEntity
 67
     1
  8
0
  6
Continuous
 62
     7
370
    25
100
AcDbCircle
 10
134.4243383121
 20
-268.8928657147
 30
0.0
 40
2.900000006566985
100
AcDbArc
 50
179.9999999995
 51
179.2567127633
  0
ARC
  5
2B6
330
23
100
AcDbEntity
 67
     1
  8
0
  6
Continuous
 62
     7
370
    25
100
AcDbCircle
 10
134.4243382947
 20
-268.8928657146
 30
0.0
 40
3.900000010811709
100
AcDbArc
 50
359.2567127636
 51
359.9999999994
  0
ARC
  5
2B7
330
23
100
AcDbEntity
 67
     1
  8
0
  6
Continuous
 62
     7
370
    25
100
AcDbCircle
 10
134.4243383055
 20
-268.8928657147
 30
0.0
 40
3.900000000000206
100
AcDbArc
 50
180.0
 51
359.2567127621
  0
ARC
  5
2B8
330
23
100
AcDbEntity
 67
     1
  8
0
  6
Continuous
 62
     7
370
    25
100
AcDbCircle
 10
134.4243383179
 20
-268.8928657147
 30
0.0
 40
3.900000012361346
100
AcDbArc
 50
179.2567127638
 51
179.9999999992
  0
ARC
  5
2B9
330
23
100
AcDbEntity
 67
     1
  8
0
  6
Continuous
 62
     7
370
    25
100
AcDbCircle
 10
134.4243383055
 20
-268.8928657147
 30
0.0
 40
3.900000000000205
100
AcDbArc
 50
360.0
 51
179.2567127621
  0
VIEWPORT
  5
2BC
330
23
100
AcDbEntity
 67
     1
  8
0
100
AcDbViewport
 10
0.0
 20
0.0
 30
0.0
 40
205.6
 41
156.0
 68
     1
 69
     1
 12
134.4243383055
 22
173.2213223676
 13
0.0
 23
0.0
 14
10.0
 24
10.0
 15
10.0
 25
10.0
 16
0.0
 26
0.0
 36
1.0
 17
0.0
 27
0.0
 37
0.0
 42
50.0
 43
0.0
 44
0.0
 45
280.5
 50
0.0
 51
0.0
 72
   100
 90
   557152
  1

281
     0
 71
     1
 74
     0
110
0.0
120
0.0
130
0.0
111
1.0
121
0.0
131
0.0
112
0.0
122
1.0
132
0.0
 79
     0
146
0.0
  0
ENDSEC
  0
SECTION
  2
OBJECTS
  0
DICTIONARY
  5
C
330
0
100
AcDbDictionary
281
     1
  3
ACAD_GROUP
350
D
  3
ACAD_LAYOUT
350
1A
  3
ACAD_MLINESTYLE
350
17
  3
ACAD_PLOTSETTINGS
350
19
  3
ACAD_PLOTSTYLENAME
350
E
  3
ACAD_SCALELIST
350
47
  0
DICTIONARY
  5
D
102
{ACAD_REACTORS
330
C
102
}
330
C
100
AcDbDictionary
281
     1
  0
DICTIONARY
  5
1A
102
{ACAD_REACTORS
330
C
102
}
330
C
100
AcDbDictionary
281
     1
  3
_Right
350
1E
  3
_Top
350
26
  3
Model
350
22
  0
DICTIONARY
  5
17
102
{ACAD_REACTORS
330
C
102
}
330
C
100
AcDbDictionary
281
     1
  3
Standard
350
18
  0
DICTIONARY
  5
19
102
{ACAD_REACTORS
330
C
102
}
330
C
100
AcDbDictionary
281
     1
  0
ACDBDICTIONARYWDFLT
  5
E
102
{ACAD_REACTORS
330
C
102
}
330
C
100
AcDbDictionary
281
     1
  3
Normal
350
F
100
AcDbDictionaryWithDefault
340
F
  0
DICTIONARY
  5
47
102
{ACAD_REACTORS
330
C
102
}
330
C
100
AcDbDictionary
281
     1
  3
A0
350
48
  3
A1
350
49
  3
A2
350
4A
  3
A3
350
4B
  3
A4
350
4C
  3
A5
350
4D
  3
A6
350
4E
  3
A7
350
4F
  3
A8
350
50
  3
A9
350
51
  3
B0
350
52
  3
B1
350
53
  3
B2
350
54
  3
B3
350
55
  3
B4
350
56
  3
B5
350
57
  3
B6
350
58
  3
B7
350
59
  3
B8
350
5A
  3
B9
350
5B
  3
C0
350
5C
  3
C1
350
5D
  3
C2
350
5E
  3
C3
350
5F
  3
C4
350
60
  3
C5
350
61
  3
C6
350
62
  3
C7
350
63
  3
C8
350
64
  3
C9
350
65
  3
D0
350
66
  3
D1
350
67
  3
D2
350
68
  0
LAYOUT
  5
1E
102
{ACAD_REACTORS
330
1A
102
}
330
1A
100
AcDbPlotSettings
  1

  2
none_device
  4
ISO_A4_(210.00_x_297.00_MM)
  6

 40
7.5
 41
20.0
 42
7.5
 43
20.0
 44
210.0
 45
297.0
 46
0.0
 47
0.0
 48
0.0
 49
0.0
140
0.0
141
0.0
142
1.0
143
1.4102564103
 70
   688
 72
     1
 73
     1
 74
     1
  7

 75
     0
147
0.7090909091
148
279.8928657147
149
-35.7213223676
100
AcDbLayout
  1
_Right
 70
     1
 71
     1
 10
-308.0979939198
 20
25.1443992907
 11
110.7481599263
 21
321.2982454445
 12
0.0
 22
0.0
 32
0.0
 14
1.0000000000E+20
 24
1.0000000000E+20
 34
1.0000000000E+20
 15
-1.0000000000E+20
 25
-1.0000000000E+20
 35
-1.0000000000E+20
146
0.0
 13
0.0
 23
0.0
 33
0.0
 16
1.0
 26
0.0
 36
0.0
 17
0.0
 27
1.0
 37
0.0
 76
     0
330
1B
331
2BA
  0
LAYOUT
  5
26
102
{ACAD_REACTORS
330
1A
102
}
330
1A
100
AcDbPlotSettings
  1

  2
none_device
  4
ANSI_A_(11.00_x_8.50_Inches)
  6

 40
6.35
 41
19.05
 42
6.35000508
 43
19.05000254
 44
279.4
 45
215.9
 46
28.8700247554
 47
-45.734541867
 48
0.0
 49
0.0
140
0.0
141
0.0
142
0.0306
143
1.0
 70
  1696
 72
     0
 73
     0
 74
     1
  7

 75
     0
147
0.0254545451
148
-1890.3781929598
149
-907.3215881364
100
AcDbLayout
  1
_Top
 70
     1
 71
     2
 10
0.0
 20
0.0
 11
0.0
 21
0.0
 12
0.0
 22
0.0
 32
0.0
 14
74.4243383055
 24
35.7213223676
 34
0.0
 15
194.4243383055
 25
310.7213223676
 35
0.0
146
0.0
 13
0.0
 23
0.0
 33
0.0
 16
1.0
 26
0.0
 36
0.0
 17
0.0
 27
1.0
 37
0.0
 76
     0
330
23
331
2BC
  0
LAYOUT
  5
22
102
{ACAD_REACTORS
330
1A
102
}
330
1A
100
AcDbPlotSettings
  1

  2
none_device
  4
Letter_(8.50_x_11.00_Inches)
  6

 40
6.35
 41
6.35
 42
6.35000508
 43
6.35000508
 44
215.9
 45
279.4
 46
0.0
 47
0.0
 48
0.0
 49
0.0
140
0.0
141
0.0
142
1.0
143
1.0
 70
  1712
 72
     1
 73
     0
 74
     0
  7

 75
     0
147
1.0
148
0.0
149
0.0
100
AcDbLayout
  1
Model
 70
     1
 71
     0
 10
0.0
 20
0.0
 11
420.0
 21
297.0
 12
0.0
 22
0.0
 32
0.0
 14
74.4243383055
 24
35.7213223676
 34
0.0
 15
194.4243383055
 25
310.7213223676
 35
0.0
146
0.0
 13
0.0
 23
0.0
 33
0.0
 16
1.0
 26
0.0
 36
0.0
 17
0.0
 27
1.0
 37
0.0
 76
     0
330
1F
331
29
  0
MLINESTYLE
  5
18
102
{ACAD_REACTORS
330
17
102
}
330
17
100
AcDbMlineStyle
  2
Standard
 70
     0
  3

 62
   256
 51
90.0
 52
90.0
 71
     2
 49
0.5
 62
   256
  6
BYLAYER
 49
-0.5
 62
   256
  6
BYLAYER
  0
ACDBPLACEHOLDER
  5
F
102
{ACAD_REACTORS
330
E
102
}
330
E
  0
SCALE
  5
48
102
{ACAD_REACTORS
330
47
102
}
330
47
100
AcDbScale
 70
     0
300
1:1
140
1.0
141
1.0
290
     1
  0
SCALE
  5
49
102
{ACAD_REACTORS
330
47
102
}
330
47
100
AcDbScale
 70
     0
300
1:2
140
1.0
141
2.0
290
     0
  0
SCALE
  5
4A
102
{ACAD_REACTORS
330
47
102
}
330
47
100
AcDbScale
 70
     0
300
1:4
140
1.0
141
4.0
290
     0
  0
SCALE
  5
4B
102
{ACAD_REACTORS
330
47
102
}
330
47
100
AcDbScale
 70
     0
300
1:5
140
1.0
141
5.0
290
     0
  0
SCALE
  5
4C
102
{ACAD_REACTORS
330
47
102
}
330
47
100
AcDbScale
 70
     0
300
1:8
140
1.0
141
8.0
290
     0
  0
SCALE
  5
4D
102
{ACAD_REACTORS
330
47
102
}
330
47
100
AcDbScale
 70
     0
300
1:10
140
1.0
141
10.0
290
     0
  0
SCALE
  5
4E
102
{ACAD_REACTORS
330
47
102
}
330
47
100
AcDbScale
 70
     0
300
1:16
140
1.0
141
16.0
290
     0
  0
SCALE
  5
4F
102
{ACAD_REACTORS
330
47
102
}
330
47
100
AcDbScale
 70
     0
300
1:20
140
1.0
141
20.0
290
     0
  0
SCALE
  5
50
102
{ACAD_REACTORS
330
47
102
}
330
47
100
AcDbScale
 70
     0
300
1:30
140
1.0
141
30.0
290
     0
  0
SCALE
  5
51
102
{ACAD_REACTORS
330
47
102
}
330
47
100
AcDbScale
 70
     0
300
1:40
140
1.0
141
40.0
290
     0
  0
SCALE
  5
52
102
{ACAD_REACTORS
330
47
102
}
330
47
100
AcDbScale
 70
     0
300
1:50
140
1.0
141
50.0
290
     0
  0
SCALE
  5
53
102
{ACAD_REACTORS
330
47
102
}
330
47
100
AcDbScale
 70
     0
300
1:100
140
1.0
141
100.0
290
     0
  0
SCALE
  5
54
102
{ACAD_REACTORS
330
47
102
}
330
47
100
AcDbScale
 70
     0
300
2:1
140
2.0
141
1.0
290
     0
  0
SCALE
  5
55
102
{ACAD_REACTORS
330
47
102
}
330
47
100
AcDbScale
 70
     0
300
4:1
140
4.0
141
1.0
290
     0
  0
SCALE
  5
56
102
{ACAD_REACTORS
330
47
102
}
330
47
100
AcDbScale
 70
     0
300
8:1
140
8.0
141
1.0
290
     0
  0
SCALE
  5
57
102
{ACAD_REACTORS
330
47
102
}
330
47
100
AcDbScale
 70
     0
300
10:1
140
10.0
141
1.0
290
     0
  0
SCALE
  5
58
102
{ACAD_REACTORS
330
47
102
}
330
47
100
AcDbScale
 70
     0
300
100:1
140
100.0
141
1.0
290
     0
  0
SCALE
  5
59
102
{ACAD_REACTORS
330
47
102
}
330
47
100
AcDbScale
 70
     0
300
1/128" = 1'-0"
140
0.0078125
141
12.0
290
     0
  0
SCALE
  5
5A
102
{ACAD_REACTORS
330
47
102
}
330
47
100
AcDbScale
 70
     0
300
1/64" = 1'-0"
140
0.015625
141
12.0
290
     0
  0
SCALE
  5
5B
102
{ACAD_REACTORS
330
47
102
}
330
47
100
AcDbScale
 70
     0
300
1/32" = 1'-0"
140
0.03125
141
12.0
290
     0
  0
SCALE
  5
5C
102
{ACAD_REACTORS
330
47
102
}
330
47
100
AcDbScale
 70
     0
300
1/16" = 1'-0"
140
0.0625
141
12.0
290
     0
  0
SCALE
  5
5D
102
{ACAD_REACTORS
330
47
102
}
330
47
100
AcDbScale
 70
     0
300
3/32" = 1'-0"
140
0.09375
141
12.0
290
     0
  0
SCALE
  5
5E
102
{ACAD_REACTORS
330
47
102
}
330
47
100
AcDbScale
 70
     0
300
1/8" = 1'-0"
140
0.125
141
12.0
290
     0
  0
SCALE
  5
5F
102
{ACAD_REACTORS
330
47
102
}
330
47
100
AcDbScale
 70
     0
300
3/16" = 1'-0"
140
0.1875
141
12.0
290
     0
  0
SCALE
  5
60
102
{ACAD_REACTORS
330
47
102
}
330
47
100
AcDbScale
 70
     0
300
1/4" = 1'-0"
140
0.25
141
12.0
290
     0
  0
SCALE
  5
61
102
{ACAD_REACTORS
330
47
102
}
330
47
100
AcDbScale
 70
     0
300
3/8" = 1'-0"
140
0.375
141
12.0
290
     0
  0
SCALE
  5
62
102
{ACAD_REACTORS
330
47
102
}
330
47
100
AcDbScale
 70
     0
300
1/2" = 1'-0"
140
0.5
141
12.0
290
     0
  0
SCALE
  5
63
102
{ACAD_REACTORS
330
47
102
}
330
47
100
AcDbScale
 70
     0
300
3/4" = 1'-0"
140
0.75
141
12.0
290
     0
  0
SCALE
  5
64
102
{ACAD_REACTORS
330
47
102
}
330
47
100
AcDbScale
 70
     0
300
1" = 1'-0"
140
1.0
141
12.0
290
     0
  0
SCALE
  5
65
102
{ACAD_REACTORS
330
47
102
}
330
47
100
AcDbScale
 70
     0
300
1-1/2" = 1'-0"
140
1.5
141
12.0
290
     0
  0
SCALE
  5
66
102
{ACAD_REACTORS
330
47
102
}
330
47
100
AcDbScale
 70
     0
300
3" = 1'-0"
140
3.0
141
12.0
290
     0
  0
SCALE
  5
67
102
{ACAD_REACTORS
330
47
102
}
330
47
100
AcDbScale
 70
     0
300
6" = 1'-0"
140
6.0
141
12.0
290
     0
  0
SCALE
  5
68
102
{ACAD_REACTORS
330
47
102
}
330
47
100
AcDbScale
 70
     0
300
1'-0" = 1'-0"
140
12.0
141
12.0
290
     0
  0
ENDSEC
  0
EOF
