  0
SECTION
  2
HEADER
  9
$ACADVER
  1
AC1015
  9
$ACADMAINTVER
 70
     6
  9
$DWGCODEPAGE
  3
ANSI_1252
  9
$INSBASE
 10
0.0
 20
0.0
 30
0.0
  9
$EXTMIN
 10
107.7471080863
 20
-112.9956280674
 30
0.0
  9
$EXTMAX
 10
227.7471080863
 20
102.0043719326
 30
0.0
  9
$LIMMIN
 10
0.0
 20
0.0
  9
$LIMMAX
 10
420.0
 20
297.0
  9
$ORTHOMODE
 70
     0
  9
$REGENMODE
 70
     1
  9
$FILLMODE
 70
     1
  9
$QTEXTMODE
 70
     0
  9
$MIRRTEXT
 70
     1
  9
$LTSCALE
 40
1.0
  9
$ATTMODE
 70
     1
  9
$TEXTSIZE
 40
3.5
  9
$TRACEWID
 40
1.0
  9
$TEXTSTYLE
  7
Standard
  9
$CLAYER
  8
0
  9
$CELTYPE
  6
ByLayer
  9
$CECOLOR
 62
   256
  9
$CELTSCALE
 40
1.0
  9
$DISPSILH
 70
     0
  9
$DIMSCALE
 40
1.0
  9
$DIMASZ
 40
3.302
  9
$DIMEXO
 40
1.0
  9
$DIMDLI
 40
3.75
  9
$DIMRND
 40
0.0
  9
$DIMDLE
 40
0.0
  9
$DIMEXE
 40
1.0
  9
$DIMTP
 40
0.0
  9
$DIMTM
 40
0.0
  9
$DIMTXT
 40
3.5
  9
$DIMCEN
 40
2.5
  9
$DIMTSZ
 40
0.0
  9
$DIMTOL
 70
     0
  9
$DIMLIM
 70
     0
  9
$DIMTIH
 70
     1
  9
$DIMTOH
 70
     1
  9
$DIMSE1
 70
     0
  9
$DIMSE2
 70
     0
  9
$DIMTAD
 70
     1
  9
$DIMZIN
 70
     1
  9
$DIMBLK
  1

  9
$DIMASO
 70
     1
  9
$DIMSHO
 70
     1
  9
$DIMPOST
  1

  9
$DIMAPOST
  1

  9
$DIMALT
 70
     0
  9
$DIMALTD
 70
     3
  9
$DIMALTF
 40
0.0393700787
  9
$DIMLFAC
 40
1.0
  9
$DIMTOFL
 70
     1
  9
$DIMTVP
 40
0.0
  9
$DIMTIX
 70
     0
  9
$DIMSOXD
 70
     0
  9
$DIMSAH
 70
     0
  9
$DIMBLK1
  1

  9
$DIMBLK2
  1

  9
$DIMSTYLE
  2
ISO-25
  9
$DIMCLRD
 70
     0
  9
$DIMCLRE
 70
     0
  9
$DIMCLRT
 70
     0
  9
$DIMTFAC
 40
1.0
  9
$DIMGAP
 40
1.524
  9
$DIMJUST
 70
     0
  9
$DIMSD1
 70
     0
  9
$DIMSD2
 70
     0
  9
$DIMTOLJ
 70
     0
  9
$DIMTZIN
 70
     1
  9
$DIMALTZ
 70
     0
  9
$DIMALTTZ
 70
     0
  9
$DIMUPT
 70
     0
  9
$DIMDEC
 70
     2
  9
$DIMTDEC
 70
     2
  9
$DIMALTU
 70
     2
  9
$DIMALTTD
 70
     3
  9
$DIMTXSTY
  7
Standard
  9
$DIMAUNIT
 70
     0
  9
$DIMADEC
 70
     2
  9
$DIMALTRND
 40
0.0
  9
$DIMAZIN
 70
     0
  9
$DIMDSEP
 70
    44
  9
$DIMATFIT
 70
     3
  9
$DIMFRAC
 70
     0
  9
$DIMLDRBLK
  1

  9
$DIMLUNIT
 70
     2
  9
$DIMLWD
 70
    -2
  9
$DIMLWE
 70
    -2
  9
$DIMTMOVE
 70
     0
  9
$LUNITS
 70
     2
  9
$LUPREC
 70
     2
  9
$SKETCHINC
 40
1.0
  9
$FILLETRAD
 40
10.0
  9
$AUNITS
 70
     0
  9
$AUPREC
 70
     2
  9
$MENU
  1
.
  9
$ELEVATION
 40
0.0
  9
$PELEVATION
 40
0.0
  9
$THICKNESS
 40
0.0
  9
$LIMCHECK
 70
     0
  9
$CHAMFERA
 40
0.0
  9
$CHAMFERB
 40
0.0
  9
$CHAMFERC
 40
0.0
  9
$CHAMFERD
 40
0.0
  9
$SKPOLY
 70
     0
  9
$TDCREATE
 40
2459922.450173032
  9
$TDUCREATE
 40
2459922.450173032
  9
$TDUPDATE
 40
2459922.450206852
  9
$TDUUPDATE
 40
2459922.450206852
  9
$TDINDWG
 40
0.0000000116
  9
$TDUSRTIMER
 40
0.0000000116
  9
$USRTIMER
 70
     1
  9
$ANGBASE
 50
0.0
  9
$ANGDIR
 70
     0
  9
$PDMODE
 70
     0
  9
$PDSIZE
 40
-1.0
  9
$PLINEWID
 40
0.0
  9
$SPLFRAME
 70
     0
  9
$SPLINETYPE
 70
     6
  9
$SPLINESEGS
 70
     8
  9
$HANDSEED
  5
464
  9
$SURFTAB1
 70
     6
  9
$SURFTAB2
 70
     6
  9
$SURFTYPE
 70
     6
  9
$SURFU
 70
     6
  9
$SURFV
 70
     6
  9
$UCSBASE
  2

  9
$UCSNAME
  2

  9
$UCSORG
 10
0.0
 20
0.0
 30
0.0
  9
$UCSXDIR
 10
1.0
 20
0.0
 30
0.0
  9
$UCSYDIR
 10
0.0
 20
1.0
 30
0.0
  9
$UCSORTHOREF
  2

  9
$UCSORTHOVIEW
 70
     0
  9
$UCSORGTOP
 10
0.0
 20
0.0
 30
0.0
  9
$UCSORGBOTTOM
 10
0.0
 20
0.0
 30
0.0
  9
$UCSORGLEFT
 10
0.0
 20
0.0
 30
0.0
  9
$UCSORGRIGHT
 10
0.0
 20
0.0
 30
0.0
  9
$UCSORGFRONT
 10
0.0
 20
0.0
 30
0.0
  9
$UCSORGBACK
 10
0.0
 20
0.0
 30
0.0
  9
$PUCSBASE
  2

  9
$PUCSNAME
  2

  9
$PUCSORG
 10
0.0
 20
0.0
 30
0.0
  9
$PUCSXDIR
 10
1.0
 20
0.0
 30
0.0
  9
$PUCSYDIR
 10
0.0
 20
1.0
 30
0.0
  9
$PUCSORTHOREF
  2

  9
$PUCSORTHOVIEW
 70
     0
  9
$PUCSORGTOP
 10
0.0
 20
0.0
 30
0.0
  9
$PUCSORGBOTTOM
 10
0.0
 20
0.0
 30
0.0
  9
$PUCSORGLEFT
 10
0.0
 20
0.0
 30
0.0
  9
$PUCSORGRIGHT
 10
0.0
 20
0.0
 30
0.0
  9
$PUCSORGFRONT
 10
0.0
 20
0.0
 30
0.0
  9
$PUCSORGBACK
 10
0.0
 20
0.0
 30
0.0
  9
$USERI1
 70
     0
  9
$USERI2
 70
     0
  9
$USERI3
 70
     0
  9
$USERI4
 70
     0
  9
$USERI5
 70
     0
  9
$USERR1
 40
0.0
  9
$USERR2
 40
0.0
  9
$USERR3
 40
0.0
  9
$USERR4
 40
0.0
  9
$USERR5
 40
0.0
  9
$WORLDVIEW
 70
     1
  9
$SHADEDGE
 70
     3
  9
$SHADEDIF
 70
    70
  9
$TILEMODE
 70
     1
  9
$MAXACTVP
 70
    64
  9
$PINSBASE
 10
0.0
 20
0.0
 30
0.0
  9
$PLIMCHECK
 70
     0
  9
$PEXTMIN
 10
-227.7471080863
 20
-112.9956280674
 30
0.0
  9
$PEXTMAX
 10
-107.7471080863
 20
102.0043719326
 30
0.0
  9
$PLIMMIN
 10
-249.7983901376
 20
-121.2648588366
  9
$PLIMMAX
 10
77.6631483239
 20
110.2736027018
  9
$UNITMODE
 70
     0
  9
$VISRETAIN
 70
     1
  9
$PLINEGEN
 70
     0
  9
$PSLTSCALE
 70
     1
  9
$TREEDEPTH
 70
  3020
  9
$CMLSTYLE
  2
Standard
  9
$CMLJUST
 70
     0
  9
$CMLSCALE
 40
20.0
  9
$PROXYGRAPHICS
 70
     1
  9
$MEASUREMENT
 70
     1
  9
$CELWEIGHT
370
    -1
  9
$ENDCAPS
280
     0
  9
$JOINSTYLE
280
     0
  9
$LWDISPLAY
290
     1
  9
$INSUNITS
 70
     4
  9
$HYPERLINKBASE
  1

  9
$STYLESHEET
  1

  9
$XEDIT
290
     1
  9
$CEPSNTYPE
380
     0
  9
$PSTYLEMODE
290
     1
  9
$FINGERPRINTGUID
  2
{7402afb2-0628-4837-a148-33a86f0c7af5}
  9
$VERSIONGUID
  2
{FAEB1C32-E019-11D5-929B-00C0DF256EC4}
  9
$EXTNAMES
290
     1
  9
$PSVPSCALE
 40
0.0
  9
$OLESTARTUP
290
     0
  0
ENDSEC
  0
SECTION
  2
CLASSES
  0
CLASS
  1
ACDBDICTIONARYWDFLT
  2
AcDbDictionaryWithDefault
  3
ObjectDBX Classes
 90
        0
280
     0
281
     0
  0
CLASS
  1
VISUALSTYLE
  2
AcDbVisualStyle
  3
ObjectDBX Classes
 90
     4095
280
     0
281
     0
  0
CLASS
  1
MATERIAL
  2
AcDbMaterial
  3
ObjectDBX Classes
 90
     1153
280
     0
281
     0
  0
CLASS
  1
SCALE
  2
AcDbScale
  3
ObjectDBX Classes
 90
     1153
280
     0
281
     0
  0
CLASS
  1
TABLESTYLE
  2
AcDbTableStyle
  3
ObjectDBX Classes
 90
     4095
280
     0
281
     0
  0
CLASS
  1
MLEADERSTYLE
  2
AcDbMLeaderStyle
  3
ACDB_MLEADERSTYLE_CLASS
 90
     4095
280
     0
281
     0
  0
CLASS
  1
SUN
  2
AcDbSun
  3
SCENEOE
 90
     1153
280
     0
281
     0
  0
CLASS
  1
ACDBPLACEHOLDER
  2
AcDbPlaceHolder
  3
ObjectDBX Classes
 90
        0
280
     0
281
     0
  0
CLASS
  1
LAYOUT
  2
AcDbLayout
  3
ObjectDBX Classes
 90
        0
280
     0
281
     0
  0
ENDSEC
  0
SECTION
  2
TABLES
  0
TABLE
  2
VPORT
  5
8
330
0
100
AcDbSymbolTable
 70
     1
  0
VPORT
  5
29
330
8
100
AcDbSymbolTableRecord
100
AcDbViewportTableRecord
  2
*Active
 70
     0
 10
0.0
 20
0.0
 11
1.0
 21
1.0
 12
167.7471080863
 22
-5.4956280674
 13
0.0
 23
0.0
 14
10.0
 24
10.0
 15
10.0
 25
10.0
 16
0.0
 26
0.0
 36
1.0
 17
0.0
 27
0.0
 37
0.0
 40
219.3
 41
0.5581395349
 42
50.0
 43
0.0
 44
0.0
 50
0.0
 51
0.0
 71
     0
 72
   100
 73
     1
 74
     3
 75
     0
 76
     0
 77
     0
 78
     0
281
     0
 65
     1
110
0.0
120
0.0
130
0.0
111
1.0
121
0.0
131
0.0
112
0.0
122
1.0
132
0.0
 79
     0
146
0.0
  0
ENDTAB
  0
TABLE
  2
LTYPE
  5
5
330
0
100
AcDbSymbolTable
 70
     6
  0
LTYPE
  5
14
330
5
100
AcDbSymbolTableRecord
100
AcDbLinetypeTableRecord
  2
ByBlock
 70
     0
  3

 72
    65
 73
     0
 40
0.0
  0
LTYPE
  5
15
330
5
100
AcDbSymbolTableRecord
100
AcDbLinetypeTableRecord
  2
ByLayer
 70
     0
  3

 72
    65
 73
     0
 40
0.0
  0
LTYPE
  5
16
330
5
100
AcDbSymbolTableRecord
100
AcDbLinetypeTableRecord
  2
Continuous
 70
     0
  3
Solid line
 72
    65
 73
     0
 40
0.0
  0
LTYPE
  5
6E
330
5
100
AcDbSymbolTableRecord
100
AcDbLinetypeTableRecord
  2
HIDDEN
 70
     0
  3
Hidden __ __ __ __ __ __ __ __ __ __ __ __ __ __
 72
    65
 73
     2
 40
1.905
 49
1.27
 74
     0
 49
-0.635
 74
     0
  0
LTYPE
  5
6F
330
5
100
AcDbSymbolTableRecord
100
AcDbLinetypeTableRecord
  2
PHANTOM
 70
     0
  3
Phantom ______  __  __  ______  __  __  ______
 72
    65
 73
     6
 40
12.7
 49
6.35
 74
     0
 49
-1.27
 74
     0
 49
1.27
 74
     0
 49
-1.27
 74
     0
 49
1.27
 74
     0
 49
-1.27
 74
     0
  0
LTYPE
  5
70
330
5
100
AcDbSymbolTableRecord
100
AcDbLinetypeTableRecord
  2
CENTER
 70
     0
  3
Center ____ _ ____ _ ____ _ ____ _ ____ _ ____
 72
    65
 73
     4
 40
10.16
 49
6.35
 74
     0
 49
-1.27
 74
     0
 49
1.27
 74
     0
 49
-1.27
 74
     0
  0
LTYPE
  5
71
330
5
100
AcDbSymbolTableRecord
100
AcDbLinetypeTableRecord
  2
CENTERX2
 70
     0
  3
Center (2x) ________  __  ________  __  _____
 72
    65
 73
     4
 40
20.32
 49
12.7
 74
     0
 49
-2.54
 74
     0
 49
2.54
 74
     0
 49
-2.54
 74
     0
  0
LTYPE
  5
72
330
5
100
AcDbSymbolTableRecord
100
AcDbLinetypeTableRecord
  2
DOT2
 70
     0
  3
Dot (.5x) ........................................
 72
    65
 73
     2
 40
0.635
 49
0.0
 74
     0
 49
-0.635
 74
     0
  0
ENDTAB
  0
TABLE
  2
LAYER
  5
2
330
0
100
AcDbSymbolTable
 70
     1
  0
LAYER
  5
10
330
2
100
AcDbSymbolTableRecord
100
AcDbLayerTableRecord
  2
0
 70
     0
 62
     7
  6
Continuous
370
    -3
390
F
  0
ENDTAB
  0
TABLE
  2
STYLE
  5
3
330
0
100
AcDbSymbolTable
 70
     1
  0
STYLE
  5
11
330
3
100
AcDbSymbolTableRecord
100
AcDbTextStyleTableRecord
  2
Standard
 70
     0
 40
0.0
 41
1.0
 50
0.0
 71
     0
 42
3.5
  3
txt
  4

  0
ENDTAB
  0
TABLE
  2
VIEW
  5
6
330
0
100
AcDbSymbolTable
 70
     0
  0
ENDTAB
  0
TABLE
  2
UCS
  5
7
330
0
100
AcDbSymbolTable
 70
     0
  0
ENDTAB
  0
TABLE
  2
APPID
  5
9
330
0
100
AcDbSymbolTable
 70
     1
  0
APPID
  5
12
330
9
100
AcDbSymbolTableRecord
100
AcDbRegAppTableRecord
  2
ACAD
 70
     0
  0
ENDTAB
  0
TABLE
  2
DIMSTYLE
  5
A
330
0
100
AcDbSymbolTable
 70
     1
100
AcDbDimStyleTable
  0
DIMSTYLE
105
27
330
A
100
AcDbSymbolTableRecord
100
AcDbDimStyleTableRecord
  2
ISO-25
 70
     0
 41
2.5
 42
0.625
 43
3.75
 44
1.25
 73
     0
 74
     0
 77
     1
 78
     8
140
2.5
141
2.5
143
0.0393700787
147
0.625
171
     3
172
     1
178
     0
271
     2
272
     2
274
     3
278
    44
283
     0
284
     8
340
11
  0
ENDTAB
  0
TABLE
  2
BLOCK_RECORD
  5
1
330
0
100
AcDbSymbolTable
 70
     3
  0
BLOCK_RECORD
  5
1F
330
1
100
AcDbSymbolTableRecord
100
AcDbBlockTableRecord
  2
*Model_Space
340
22
  0
BLOCK_RECORD
  5
1B
330
1
100
AcDbSymbolTableRecord
100
AcDbBlockTableRecord
  2
*Paper_Space
340
1E
  0
BLOCK_RECORD
  5
23
330
1
100
AcDbSymbolTableRecord
100
AcDbBlockTableRecord
  2
*Paper_Space0
340
26
  0
BLOCK_RECORD
  5
36B
330
1
100
AcDbSymbolTableRecord
100
AcDbBlockTableRecord
  2
*Paper_Space1
340
36C
  0
BLOCK_RECORD
  5
3E6
330
1
100
AcDbSymbolTableRecord
100
AcDbBlockTableRecord
  2
*Paper_Space2
340
3E7
  0
ENDTAB
  0
ENDSEC
  0
SECTION
  2
BLOCKS
  0
BLOCK
  5
20
330
1F
100
AcDbEntity
  8
0
100
AcDbBlockBegin
  2
*Model_Space
 70
     0
 10
0.0
 20
0.0
 30
0.0
  3
*Model_Space
  1

  0
ENDBLK
  5
21
330
1F
100
AcDbEntity
  8
0
100
AcDbBlockEnd
  0
BLOCK
  5
1C
330
1B
100
AcDbEntity
 67
     1
  8
0
100
AcDbBlockBegin
  2
*Paper_Space
 70
     0
 10
0.0
 20
0.0
 30
0.0
  3
*Paper_Space
  1

  0
ENDBLK
  5
1D
330
1B
100
AcDbEntity
 67
     1
  8
0
100
AcDbBlockEnd
  0
BLOCK
  5
24
330
23
100
AcDbEntity
  8
0
100
AcDbBlockBegin
  2
*Paper_Space0
 70
     0
 10
0.0
 20
0.0
 30
0.0
  3
*Paper_Space0
  1

  0
SPLINE
  5
2B9
330
23
100
AcDbEntity
  8
0
  6
Continuous
 62
     7
370
    25
100
AcDbSpline
210
0.0
220
0.0
230
1.0
 70
     8
 71
     3
 72
    15
 73
    11
 74
     0
 42
0.000000001
 43
0.00000001
 40
0.0
 40
0.0
 40
0.0
 40
0.0
 40
0.1268321988644993
 40
0.2539950862517757
 40
0.3811857585779614
 40
0.5082404276525064
 40
0.6343186408867016
 40
0.7582115371379992
 40
0.8801071660960345
 40
1.0
 40
1.0
 40
1.0
 40
1.0
 10
139.3709975121296
 20
-24.49565198240704
 30
0.0
 10
139.3878984184094
 20
-24.49948810562157
 30
0.0
 10
139.4217442965595
 20
-24.50717035394232
 30
0.0
 10
139.6931530500458
 20
-24.56656877424789
 30
0.0
 10
140.1156313101866
 20
-24.65180391900757
 30
0.0
 10
140.6883297406674
 20
-24.75335620267812
 30
0.0
 10
141.3818267938484
 20
-24.85451697142613
 30
0.0
 10
142.1658891825176
 20
-24.9386667700814
 30
0.0
 10
143.0055445230662
 20
-24.99664553290216
 30
0.0
 10
143.584038880437
 20
-25.00411793578717
 30
0.0
 10
143.8708901515095
 20
-25.00782318932719
 30
0.0
  0
SPLINE
  5
2BA
330
23
100
AcDbEntity
  8
0
  6
Continuous
 62
     7
370
    25
100
AcDbSpline
210
0.0
220
0.0
230
1.0
 70
     8
 71
     3
 72
    15
 73
    11
 74
     0
 42
0.000000001
 43
0.00000001
 40
0.0
 40
0.0
 40
0.0
 40
0.0
 40
0.1198969203114728
 40
0.2417939171464163
 40
0.3656879203388404
 40
0.491770432382108
 40
0.6188063340773589
 40
0.7459756628940462
 40
0.873128389000481
 40
1.0
 40
1.0
 40
1.0
 40
1.0
 10
143.8708901515095
 20
-25.00782318932719
 30
0.0
 10
144.1577513296808
 20
-25.00411767678077
 30
0.0
 10
144.7362589991614
 20
-24.99664483768445
 30
0.0
 10
145.5759282330301
 20
-24.93866387144424
 30
0.0
 10
146.3600004230014
 20
-24.85451117495777
 30
0.0
 10
147.0534658982
 20
-24.75335329975133
 30
0.0
 10
147.6261069336518
 20
-24.65181138123584
 30
0.0
 10
148.0485538446212
 20
-24.56658424039815
 30
0.0
 10
148.3200059414874
 20
-24.50717729293878
 30
0.0
 10
148.3538867765598
 20
-24.49948710538582
 30
0.0
 10
148.3708084470445
 20
-24.49564626676836
 30
0.0
  0
SPLINE
  5
2BC
330
23
100
AcDbEntity
  8
0
  6
Continuous
 62
     7
370
    25
100
AcDbSpline
210
0.0
220
0.0
230
1.0
 70
     8
 71
     3
 72
    12
 73
     8
 74
     0
 42
0.000000001
 43
0.00000001
 40
0.0
 40
0.0
 40
0.0
 40
0.0
 40
0.2494563881392122
 40
0.4995124158098072
 40
0.7496418736734821
 40
0.9998747328797082
 40
0.9999999999999999
 40
0.9999999999999999
 40
0.9999999999999999
 40
0.9999999999999999
 10
141.8708901515094
 20
-66.39036424661461
 30
0.0
 10
142.1447610953539
 20
-66.39360143372983
 30
0.0
 10
142.6931613099179
 20
-66.40008358946218
 30
0.0
 10
143.3999608790166
 20
-66.44403904003877
 30
0.0
 10
143.836326060698
 20
-66.48171333590862
 30
0.0
 10
144.0244037941067
 20
-66.50076525227077
 30
0.0
 10
143.9709591340994
 20
-66.49562292123365
 30
0.0
 10
143.9709323929716
 20
-66.49562034825944
 30
0.0
  0
SPLINE
  5
2BD
330
23
100
AcDbEntity
  8
0
  6
Continuous
 62
     7
370
    25
100
AcDbSpline
210
0.0
220
0.0
230
1.0
 70
     8
 71
     3
 72
    11
 73
     7
 74
     0
 42
0.000000001
 43
0.00000001
 40
0.0
 40
0.0
 40
0.0
 40
0.0
 40
0.2501581256448891
 40
0.5003669960098949
 40
0.7504815768393281
 40
1.0
 40
1.0
 40
1.0
 40
1.0
 10
139.7708479100473
 20
-66.49562034825941
 30
0.0
 10
139.8024871086613
 20
-66.492300182822
 30
0.0
 10
139.8657719239189
 20
-66.48565917844974
 30
0.0
 10
140.3520153173988
 20
-66.44301449463207
 30
0.0
 10
141.0457969702136
 20
-66.40034900357362
 30
0.0
 10
141.5960779545406
 20
-66.39368985038675
 30
0.0
 10
141.8708901515094
 20
-66.39036424661461
 30
0.0
  0
SPLINE
  5
2BE
330
23
100
AcDbEntity
  8
0
  6
Continuous
 62
     7
370
    25
100
AcDbSpline
210
0.0
220
0.0
230
1.0
 70
     8
 71
     3
 72
    16
 73
    12
 74
     0
 42
0.000000001
 43
0.00000001
 40
0.0
 40
0.0
 40
0.0
 40
0.0
 40
0.0001556621681837
 40
0.127166846692548
 40
0.2542854785064273
 40
0.3813390594396104
 40
0.5082383924206345
 40
0.6343145860730464
 40
0.7582065378870636
 40
0.8801044594954301
 40
1.0
 40
1.0
 40
1.0
 40
1.0
 10
157.8707827908943
 20
-66.49560415234518
 30
0.0
 10
157.8708185692074
 20
-66.49561212321271
 30
0.0
 10
157.9000473490671
 20
-66.50212385371697
 30
0.0
 10
157.7982444493369
 20
-66.47919655544304
 30
0.0
 10
157.5536394011075
 20
-66.4258215928135
 30
0.0
 10
157.1239751830932
 20
-66.33899004080297
 30
0.0
 10
156.5535957398024
 20
-66.23795351478323
 30
0.0
 10
155.8598740842356
 20
-66.13671877585718
 30
0.0
 10
155.0759506595715
 20
-66.05259805937575
 30
0.0
 10
154.2362499440769
 20
-65.99460965742692
 30
0.0
 10
153.6577464819755
 20
-65.98713789060335
 30
0.0
 10
153.3708901515093
 20
-65.98343294542408
 30
0.0
  0
SPLINE
  5
2BF
330
23
100
AcDbEntity
  8
0
  6
Continuous
 62
     7
370
    25
100
AcDbSpline
210
0.0
220
0.0
230
1.0
 70
     8
 71
     3
 72
    16
 73
    12
 74
     0
 42
0.000000001
 43
0.00000001
 40
0.0
 40
0.0
 40
0.0
 40
0.0
 40
0.1198905716637169
 40
0.2417863148020656
 40
0.3656763191506738
 40
0.4917469686367389
 40
0.6186676568100792
 40
0.7457442118936471
 40
0.8728733503474743
 40
0.999881576193041
 40
1.0
 40
1.0
 40
1.0
 40
1.0
 10
153.3708901515093
 20
-65.98343294542408
 30
0.0
 10
153.0840458444944
 20
-65.98713757256048
 30
0.0
 10
152.5055597554496
 20
-65.99460878677355
 30
0.0
 10
151.6658782732521
 20
-66.05259422652922
 30
0.0
 10
150.881969401402
 20
-66.1367109649982
 30
0.0
 10
150.1882121460657
 20
-66.23794857365586
 30
0.0
 10
149.6177695446202
 20
-66.33899615681028
 30
0.0
 10
149.1880621165641
 20
-66.42583822412963
 30
0.0
 10
148.9434936140253
 20
-66.47920616257596
 30
0.0
 10
148.8417154776037
 20
-66.50212771586801
 30
0.0
 10
148.8709446277981
 20
-66.49561593398003
 30
0.0
 10
148.8709718559776
 20
-66.49560986798205
 30
0.0
  0
SPLINE
  5
2ED
330
23
100
AcDbEntity
  8
0
  6
Continuous
 62
     7
370
    25
100
AcDbSpline
210
0.0
220
0.0
230
1.0
 70
     8
 71
     3
 72
    22
 73
    18
 74
     0
 42
0.000000001
 43
0.00000001
 40
0.0
 40
0.0
 40
0.0
 40
0.0
 40
0.0718286569211242
 40
0.1441105571816289
 40
0.2165186886914704
 40
0.2887447837418514
 40
0.3602420545567521
 40
0.4305129075182471
 40
0.4995424394598807
 40
0.567793428857402
 40
0.6360445806175211
 40
0.705073852883714
 40
0.7753452165850301
 40
0.8468419932018955
 40
0.9190683898690691
 40
0.9914781532777983
 40
1.0
 40
1.0
 40
1.0
 40
1.0
 10
157.8708901514099
 20
55.5043719326244
 30
0.0
 10
157.8540309621801
 20
55.5005451947925
 30
0.0
 10
157.820206201177
 20
55.49286757217247
 30
0.0
 10
157.5490600218074
 20
55.43351947739793
 30
0.0
 10
157.1258962654299
 20
55.34814768141609
 30
0.0
 10
156.5524420099154
 20
55.24644176276578
 30
0.0
 10
155.8590010264648
 20
55.14550443852014
 30
0.0
 10
155.0761730181877
 20
55.06089644794218
 30
0.0
 10
154.2369336019536
 20
55.00513719466594
 30
0.0
 10
153.3708306627965
 20
54.9857347016935
 30
0.0
 10
152.5048151251303
 20
55.00513179382286
 30
0.0
 10
151.6653215445207
 20
55.06094212195311
 30
0.0
 10
150.8834733353268
 20
55.14536663039653
 30
0.0
 10
150.1863397159296
 20
55.24701525370326
 30
0.0
 10
149.6269107202492
 20
55.34603182601449
 30
0.0
 10
149.2910675605331
 20
55.41342187662924
 30
0.0
 10
149.1970103619351
 20
55.43368671201034
 30
0.0
 10
149.1871064315885
 20
55.43582053612047
 30
0.0
  0
SPLINE
  5
2EE
330
23
100
AcDbEntity
  8
0
  6
Continuous
 62
     7
370
    25
100
AcDbSpline
210
0.0
220
0.0
230
1.0
 70
     8
 71
     3
 72
     9
 73
     5
 74
     0
 42
0.000000001
 43
0.00000001
 40
0.0
 40
0.0
 40
0.0
 40
0.0
 40
0.1924930952528278
 40
1.0
 40
1.0
 40
1.0
 40
1.0
 10
149.0194042657934
 20
55.47179301489136
 30
0.0
 10
148.9975805862774
 20
55.47646871744899
 30
0.0
 10
148.8842067559731
 20
55.50075895264668
 30
0.0
 10
148.8768393681483
 20
55.50275782743288
 30
0.0
 10
148.8708901516099
 20
55.50437193262444
 30
0.0
  0
SPLINE
  5
2F4
330
23
100
AcDbEntity
  8
0
  6
Continuous
 62
     7
370
    25
100
AcDbSpline
210
0.0
220
0.0
230
1.0
 70
     8
 71
     3
 72
    11
 73
     7
 74
     0
 42
0.000000001
 43
0.00000001
 40
0.0
 40
0.0
 40
0.0
 40
0.0
 40
0.2737159686971384
 40
0.547381433487724
 40
0.8186886900154811
 40
1.0
 40
1.0
 40
1.0
 40
1.0
 10
135.7708901515098
 20
55.50437193262448
 30
0.0
 10
135.8024453046958
 20
55.50101308134
 30
0.0
 10
135.8655497887605
 20
55.49429599851973
 30
0.0
 10
136.3519032769957
 20
55.45222170619283
 30
0.0
 10
136.9594450184851
 20
55.41309757382528
 30
0.0
 10
137.412544229148
 20
55.40686756738666
 30
0.0
 10
137.5940480770154
 20
55.40437193262447
 30
0.0
  0
SPLINE
  5
2F5
330
23
100
AcDbEntity
  8
0
  6
Continuous
 62
     7
370
    25
100
AcDbSpline
210
0.0
220
0.0
230
1.0
 70
     8
 71
     3
 72
    11
 73
     7
 74
     0
 42
0.000000001
 43
0.00000001
 40
0.0
 40
0.0
 40
0.0
 40
0.0
 40
0.1785244335098198
 40
0.4518920325729013
 40
0.7253511316500835
 40
1.0
 40
1.0
 40
1.0
 40
1.0
 10
138.1423824846851
 20
55.40437193262446
 30
0.0
 10
138.3215336145863
 20
55.40672603745968
 30
0.0
 10
138.7750119796322
 20
55.41268489249125
 30
0.0
 10
139.3848981855431
 20
55.45183544077633
 30
0.0
 10
139.8753605432746
 20
55.49419570688413
 30
0.0
 10
139.9390009010596
 20
55.50097495217761
 30
0.0
 10
139.9708901515098
 20
55.50437193262447
 30
0.0
  0
LINE
  5
317
330
23
100
AcDbEntity
  8
0
  6
Continuous
 62
     7
370
    25
100
AcDbLine
 10
149.4708901515
 20
-66.3703644671
 30
0.0
 11
149.4708901515
 21
-94.9956280674
 31
0.0
  0
LINE
  5
318
330
23
100
AcDbEntity
  8
0
  6
Continuous
 62
     7
370
    25
100
AcDbLine
 10
157.2708901515
 20
-94.9956280674
 30
0.0
 11
157.2708901515
 21
-66.370364216
 31
0.0
  0
LINE
  5
319
330
23
100
AcDbEntity
  8
0
  6
Continuous
 62
     7
370
    25
100
AcDbLine
 10
147.7208901515
 20
-24.6307924558
 30
0.0
 11
147.7208901515
 21
-20.5859035855
 31
0.0
  0
LINE
  5
31A
330
23
100
AcDbEntity
  8
0
  6
Continuous
 62
     7
370
    25
100
AcDbLine
 10
140.0208901515
 20
-20.5859035855
 30
0.0
 11
140.0208901515
 21
-24.6307946024
 31
0.0
  0
LINE
  5
31B
330
23
100
AcDbEntity
  8
0
  6
Continuous
 62
     7
370
    25
100
AcDbLine
 10
139.3709975121
 20
-24.4956280674
 30
0.0
 11
119.8708901515
 21
-24.4956280674
 31
0.0
  0
LINE
  5
31C
330
23
100
AcDbEntity
  8
0
  6
Continuous
 62
     7
370
    25
100
AcDbLine
 10
163.3708901515
 20
-24.4956280674
 30
0.0
 11
148.370808447
 21
-24.4956280674
 31
0.0
  0
LINE
  5
31D
330
23
100
AcDbEntity
  8
0
  6
Continuous
 62
     7
370
    25
100
AcDbLine
 10
157.8707827909
 20
-66.4956280674
 30
0.0
 11
163.3708901515
 21
-66.4956280674
 31
0.0
  0
LINE
  5
31E
330
23
100
AcDbEntity
  8
0
  6
Continuous
 62
     7
370
    25
100
AcDbLine
 10
143.970932393
 20
-66.4956280674
 30
0.0
 11
148.870971856
 21
-66.4956280674
 31
0.0
  0
LINE
  5
31F
330
23
100
AcDbEntity
  8
0
  6
Continuous
 62
     7
370
    25
100
AcDbLine
 10
119.8708901515
 20
-66.4956280674
 30
0.0
 11
139.77084791
 21
-66.4956280674
 31
0.0
  0
LINE
  5
320
330
23
100
AcDbEntity
  8
0
  6
Continuous
 62
     7
370
    25
100
AcDbLine
 10
148.3618519392
 20
-24.4976416201
 30
0.0
 11
148.2727353106
 21
-24.5053571044
 31
0.0
  0
LINE
  5
321
330
23
100
AcDbEntity
  8
0
  6
Continuous
 62
     7
370
    25
100
AcDbLine
 10
157.7727352827
 20
-66.4858990296
 30
0.0
 11
157.861851368
 21
-66.4936144748
 31
0.0
  0
LINE
  5
322
330
23
100
AcDbEntity
  8
0
  6
Continuous
 62
     7
370
    25
100
AcDbLine
 10
139.4690449825
 20
-24.5053570976
 30
0.0
 11
139.3799282756
 21
-24.4976416061
 31
0.0
  0
LINE
  5
323
330
23
100
AcDbEntity
  8
0
  6
Continuous
 62
     7
370
    25
100
AcDbLine
 10
148.8799283394
 20
-66.4936145201
 30
0.0
 11
148.9690450309
 21
-66.4858990226
 31
0.0
  0
LINE
  5
324
330
23
100
AcDbEntity
  8
0
  6
Continuous
 62
     7
370
    25
100
AcDbLine
 10
118.5708901515
 20
55.5043719326
 30
0.0
 11
116.0708901515
 21
55.5043719326
 31
0.0
  0
LINE
  5
325
330
23
100
AcDbEntity
  8
0
  6
Continuous
 62
     7
370
    25
100
AcDbLine
 10
116.0708901515
 20
13.5043719326
 30
0.0
 11
118.5708901515
 21
13.5043719326
 31
0.0
  0
LINE
  5
326
330
23
100
AcDbEntity
  8
0
  6
Continuous
 62
     7
370
    25
100
AcDbLine
 10
119.3708901515
 20
55.0043719326
 30
0.0
 11
119.0708901515
 21
55.0043719326
 31
0.0
  0
LINE
  5
327
330
23
100
AcDbEntity
  8
0
  6
Continuous
 62
     7
370
    25
100
AcDbLine
 10
119.0708901515
 20
14.0043719326
 30
0.0
 11
119.3708901515
 21
14.0043719326
 31
0.0
  0
LINE
  5
328
330
23
100
AcDbEntity
  8
0
  6
Continuous
 62
     7
370
    25
100
AcDbLine
 10
116.0708901515
 20
-66.4956280674
 30
0.0
 11
118.5708901515
 21
-66.4956280674
 31
0.0
  0
LINE
  5
329
330
23
100
AcDbEntity
  8
0
  6
Continuous
 62
     7
370
    25
100
AcDbLine
 10
118.5708901515
 20
-24.4956280674
 30
0.0
 11
116.0708901515
 21
-24.4956280674
 31
0.0
  0
LINE
  5
32A
330
23
100
AcDbEntity
  8
0
  6
Continuous
 62
     7
370
    25
100
AcDbLine
 10
119.0708901515
 20
-65.9956280674
 30
0.0
 11
119.3708901515
 21
-65.9956280674
 31
0.0
  0
LINE
  5
32B
330
23
100
AcDbEntity
  8
0
  6
Continuous
 62
     7
370
    25
100
AcDbLine
 10
119.3708901515
 20
-24.9956280674
 30
0.0
 11
119.0708901515
 21
-24.9956280674
 31
0.0
  0
LINE
  5
32C
330
23
100
AcDbEntity
  8
0
  6
Continuous
 62
     7
370
    25
100
AcDbLine
 10
149.4708901515
 20
84.0043719326
 30
0.0
 11
149.4708901515
 21
55.379107271
 31
0.0
  0
LINE
  5
32D
330
23
100
AcDbEntity
  8
0
  6
Continuous
 62
     7
370
    25
100
AcDbLine
 10
157.2708901515
 20
55.3791150462
 30
0.0
 11
157.2708901515
 21
84.0043719326
 31
0.0
  0
LINE
  5
32E
330
23
100
AcDbEntity
  8
0
  6
Continuous
 62
     7
370
    25
100
AcDbLine
 10
149.4708901515
 20
-94.9956280674
 30
0.0
 11
157.2708901515
 21
-94.9956280674
 31
0.0
  0
LINE
  5
32F
330
23
100
AcDbEntity
  8
0
  6
Continuous
 62
     7
370
    25
100
AcDbLine
 10
153.3708901515
 20
-95.9956280674
 30
0.0
 11
153.3708901515
 21
-65.9834329454
 31
0.0
  0
LINE
  5
330
330
23
100
AcDbEntity
  8
0
  6
Continuous
 62
     7
370
    25
100
AcDbLine
 10
150.4708901515
 20
-95.9956280674
 30
0.0
 11
156.2708901515
 21
-95.9956280674
 31
0.0
  0
LINE
  5
331
330
23
100
AcDbEntity
  8
0
  6
Continuous
 62
     7
370
    25
100
AcDbLine
 10
140.4059476228
 20
-20.0992946921
 30
0.0
 11
147.3358326802
 21
-20.0992946921
 31
0.0
  0
LINE
  5
332
330
23
100
AcDbEntity
  8
0
  6
Continuous
 62
     7
370
    25
100
AcDbLine
 10
143.8708901515
 20
-20.0992946921
 30
0.0
 11
143.8708901515
 21
-25.0078231893
 31
0.0
  0
LINE
  5
333
330
23
100
AcDbEntity
  8
0
  6
Continuous
 62
     7
370
    25
100
AcDbLine
 10
147.7208901515
 20
-20.5859035855
 30
0.0
 11
140.0208901515
 21
-20.5859035855
 31
0.0
  0
LINE
  5
334
330
23
100
AcDbEntity
  8
0
  6
Continuous
 62
     7
370
    25
100
AcDbLine
 10
164.3708901515
 20
-65.4956280674
 30
0.0
 11
164.3708901515
 21
-25.4956280674
 31
0.0
  0
LINE
  5
335
330
23
100
AcDbEntity
  8
0
  6
Continuous
 62
     7
370
    25
100
AcDbLine
 10
119.3708901515
 20
-65.9956280674
 30
0.0
 11
119.3708901515
 21
-24.9956280674
 31
0.0
  0
LINE
  5
336
330
23
100
AcDbEntity
  8
0
  6
Continuous
 62
     7
370
    25
100
AcDbLine
 10
119.0708901515
 20
55.0043719326
 30
0.0
 11
119.0708901515
 21
14.0043719326
 31
0.0
  0
LINE
  5
337
330
23
100
AcDbEntity
  8
0
  6
Continuous
 62
     7
370
    25
100
AcDbLine
 10
119.3708901515
 20
34.5043719326
 30
0.0
 11
116.0708901515
 21
34.5043719326
 31
0.0
  0
LINE
  5
338
330
23
100
AcDbEntity
  8
0
  6
Continuous
 62
     7
370
    25
100
AcDbLine
 10
119.3708901515
 20
14.0043719326
 30
0.0
 11
119.3708901515
 21
55.0043719326
 31
0.0
  0
LINE
  5
339
330
23
100
AcDbEntity
  8
0
  6
Continuous
 62
     7
370
    25
100
AcDbLine
 10
119.0708901515
 20
-24.9956280674
 30
0.0
 11
119.0708901515
 21
-65.9956280674
 31
0.0
  0
LINE
  5
33A
330
23
100
AcDbEntity
  8
0
  6
Continuous
 62
     7
370
    25
100
AcDbLine
 10
164.3708901515
 20
-45.4956280674
 30
0.0
 11
116.0708901515
 21
-45.4956280674
 31
0.0
  0
LINE
  5
33B
330
23
100
AcDbEntity
  8
0
  6
Continuous
 62
     7
370
    25
100
AcDbLine
 10
116.0708901515
 20
101.5043719326
 30
0.0
 11
116.0708901515
 21
-112.4956280674
 31
0.0
  0
LINE
  5
33C
330
23
100
AcDbEntity
  8
0
  6
Continuous
 62
     7
370
    25
100
AcDbLine
 10
114.0708901515
 20
-97.9956280674
 30
0.0
 11
116.0708901515
 21
-97.9956280674
 31
0.0
  0
LINE
  5
33D
330
23
100
AcDbEntity
  8
0
  6
Continuous
 62
     7
370
    25
100
AcDbLine
 10
115.5708901515
 20
102.0043719326
 30
0.0
 11
115.5708901515
 21
-112.9956280674
 31
0.0
  0
LINE
  5
33E
330
23
100
AcDbEntity
  8
0
  6
Continuous
 62
     7
370
    25
100
AcDbLine
 10
116.0708901515
 20
87.0043719326
 30
0.0
 11
114.0708901515
 21
87.0043719326
 31
0.0
  0
LINE
  5
33F
330
23
100
AcDbEntity
  8
0
  6
Continuous
 62
     7
370
    25
100
AcDbLine
 10
114.0708901515
 20
102.0043719326
 30
0.0
 11
114.0708901515
 21
-112.9956280674
 31
0.0
  0
LINE
  5
340
330
23
100
AcDbEntity
  8
0
  6
Continuous
 62
     7
370
    25
100
AcDbLine
 10
114.0708901515
 20
102.0043719326
 30
0.0
 11
115.5708901515
 21
102.0043719326
 31
0.0
  0
LINE
  5
341
330
23
100
AcDbEntity
  8
0
  6
Continuous
 62
     7
370
    25
100
AcDbLine
 10
115.5708901515
 20
-112.9956280674
 30
0.0
 11
114.0708901515
 21
-112.9956280674
 31
0.0
  0
LINE
  5
342
330
23
100
AcDbEntity
  8
0
  6
Continuous
 62
     7
370
    25
100
AcDbLine
 10
156.2708901515
 20
85.0043719326
 30
0.0
 11
150.4708901515
 21
85.0043719326
 31
0.0
  0
LINE
  5
343
330
23
100
AcDbEntity
  8
0
  6
Continuous
 62
     7
370
    25
100
AcDbLine
 10
153.3708901515
 20
85.0043719326
 30
0.0
 11
153.3708901515
 21
54.9921777863
 31
0.0
  0
LINE
  5
344
330
23
100
AcDbEntity
  8
0
  6
Continuous
 62
     7
370
    25
100
AcDbLine
 10
157.2708901515
 20
84.0043719326
 30
0.0
 11
149.4708901515
 21
84.0043719326
 31
0.0
  0
LINE
  5
345
330
23
100
AcDbEntity
  8
0
  6
Continuous
 62
     7
370
    25
100
AcDbLine
 10
163.3708901515
 20
55.5043719326
 30
0.0
 11
157.8708901514
 21
55.5043683985
 31
0.0
  0
LINE
  5
346
330
23
100
AcDbEntity
  8
0
  6
Continuous
 62
     7
370
    25
100
AcDbLine
 10
163.3708901515
 20
55.5043719326
 30
0.0
 11
163.3708901515
 21
13.5043719326
 31
0.0
  0
LINE
  5
347
330
23
100
AcDbEntity
  8
0
  6
Continuous
 62
     7
370
    25
100
AcDbLine
 10
163.3708901515
 20
13.5043719326
 30
0.0
 11
119.8708901515
 21
13.5043719326
 31
0.0
  0
LINE
  5
348
330
23
100
AcDbEntity
  8
0
  6
Continuous
 62
     7
370
    25
100
AcDbLine
 10
119.8708901515
 20
13.5043719326
 30
0.0
 11
119.8708901515
 21
55.5043719326
 31
0.0
  0
LINE
  5
349
330
23
100
AcDbEntity
  8
0
  6
Continuous
 62
     7
370
    25
100
AcDbLine
 10
135.7708901515
 20
55.5043719326
 30
0.0
 11
119.8708901515
 21
55.5043719326
 31
0.0
  0
LINE
  5
34A
330
23
100
AcDbEntity
  8
0
  6
Continuous
 62
     7
370
    25
100
AcDbLine
 10
148.8708901516
 20
55.5043684148
 30
0.0
 11
139.9708901515
 21
55.5043719326
 31
0.0
  0
LINE
  5
34B
330
23
100
AcDbEntity
  8
0
  6
Continuous
 62
     7
370
    25
100
AcDbLine
 10
164.3708901515
 20
14.5043719326
 30
0.0
 11
164.3708901515
 21
54.5043719326
 31
0.0
  0
LINE
  5
34C
330
23
100
AcDbEntity
  8
0
  6
Continuous
 62
     7
370
    25
100
AcDbLine
 10
141.5760108893
 20
-66.3956280674
 30
0.0
 11
144.806160161
 21
-66.3956280674
 31
0.0
  0
LINE
  5
34D
330
23
100
AcDbEntity
  8
0
  6
Continuous
 62
     7
370
    25
100
AcDbLine
 10
139.306160161
 20
55.4043719326
 30
0.0
 11
136.4356201421
 21
55.4043719326
 31
0.0
  0
LINE
  5
34E
330
23
100
AcDbEntity
  8
0
  6
Continuous
 62
     8
370
    25
100
AcDbLine
 10
119.8708901515
 20
-66.4956280674
 30
0.0
 11
119.8708901515
 21
-24.4956280674
 31
0.0
  0
LINE
  5
34F
330
23
100
AcDbEntity
  8
0
  6
Continuous
 62
     8
370
    25
100
AcDbLine
 10
163.3708901515
 20
-24.4956280674
 30
0.0
 11
163.3708901515
 21
-66.4956280674
 31
0.0
  0
LINE
  5
350
330
23
100
AcDbEntity
  8
0
  6
Continuous
 62
     8
370
    25
100
AcDbLine
 10
118.5708901515
 20
55.5043719326
 30
0.0
 11
118.5708901515
 21
13.5043719326
 31
0.0
  0
LINE
  5
351
330
23
100
AcDbEntity
  8
0
  6
Continuous
 62
     8
370
    25
100
AcDbLine
 10
118.5708901515
 20
-24.4956280674
 30
0.0
 11
118.5708901515
 21
-66.4956280674
 31
0.0
  0
LINE
  5
352
330
23
100
AcDbEntity
  8
0
  6
Continuous
 62
     8
370
    25
100
AcDbLine
 10
143.3708901516
 20
-66.3462875294
 30
0.0
 11
143.3708901515
 21
-66.3956280674
 31
0.0
  0
LINE
  5
353
330
23
100
AcDbEntity
  8
0
  6
Continuous
 62
     8
370
    25
100
AcDbLine
 10
137.8708901515
 20
55.3550313946
 30
0.0
 11
137.8708901515
 21
55.4043719326
 31
0.0
  0
ARC
  5
354
330
23
100
AcDbEntity
  8
0
  6
Continuous
 62
     7
370
    25
100
AcDbCircle
 10
150.4708901515
 20
-94.9956280674
 30
0.0
 40
1.0
100
AcDbArc
 50
180.0
 51
270.0
  0
ARC
  5
355
330
23
100
AcDbEntity
  8
0
  6
Continuous
 62
     7
370
    25
100
AcDbCircle
 10
156.2708901515
 20
-94.9956280674
 30
0.0
 40
1.0
100
AcDbArc
 50
270.0
 51
0.0
  0
ARC
  5
356
330
23
100
AcDbEntity
  8
0
  6
Continuous
 62
     7
370
    25
100
AcDbCircle
 10
140.5208901515
 20
-20.5859035855
 30
0.0
 40
0.4999999999999716
100
AcDbArc
 50
103.2903046971
 51
180.0
  0
ARC
  5
357
330
23
100
AcDbEntity
  8
0
  6
Continuous
 62
     7
370
    25
100
AcDbCircle
 10
163.3708901515
 20
-65.4956280674
 30
0.0
 40
1.0
100
AcDbArc
 50
270.0
 51
0.0
  0
ARC
  5
358
330
23
100
AcDbEntity
  8
0
  6
Continuous
 62
     7
370
    25
100
AcDbCircle
 10
163.3708901515
 20
-25.4956280674
 30
0.0
 40
0.9999999999999751
100
AcDbArc
 50
0.0
 51
90.0
  0
ARC
  5
359
330
23
100
AcDbEntity
  8
0
  6
Continuous
 62
     7
370
    25
100
AcDbCircle
 10
119.8708901515
 20
-65.9956280674
 30
0.0
 40
0.5
100
AcDbArc
 50
180.0
 51
270.0
  0
ARC
  5
35A
330
23
100
AcDbEntity
  8
0
  6
Continuous
 62
     7
370
    25
100
AcDbCircle
 10
119.8708901515
 20
-24.9956280674
 30
0.0
 40
0.5000000000000284
100
AcDbArc
 50
90.0
 51
180.0
  0
ARC
  5
35B
330
23
100
AcDbEntity
  8
0
  6
Continuous
 62
     7
370
    25
100
AcDbCircle
 10
118.5708901515
 20
55.0043719326
 30
0.0
 40
0.4999999999999858
100
AcDbArc
 50
0.0
 51
90.0
  0
ARC
  5
35C
330
23
100
AcDbEntity
  8
0
  6
Continuous
 62
     7
370
    25
100
AcDbCircle
 10
118.5708901515
 20
14.0043719326
 30
0.0
 40
0.5000000000000142
100
AcDbArc
 50
270.0
 51
0.0
  0
ARC
  5
35D
330
23
100
AcDbEntity
  8
0
  6
Continuous
 62
     7
370
    25
100
AcDbCircle
 10
118.5708901515
 20
-65.9956280674
 30
0.0
 40
0.5
100
AcDbArc
 50
270.0
 51
0.0
  0
ARC
  5
35E
330
23
100
AcDbEntity
  8
0
  6
Continuous
 62
     7
370
    25
100
AcDbCircle
 10
118.5708901515
 20
-24.9956280674
 30
0.0
 40
0.5000000000000284
100
AcDbArc
 50
0.0
 51
90.0
  0
ARC
  5
35F
330
23
100
AcDbEntity
  8
0
  6
Continuous
 62
     7
370
    25
100
AcDbCircle
 10
150.4708901515
 20
84.0043719326
 30
0.0
 40
1.000000000000028
100
AcDbArc
 50
90.0
 51
180.0
  0
ARC
  5
360
330
23
100
AcDbEntity
  8
0
  6
Continuous
 62
     7
370
    25
100
AcDbCircle
 10
156.2708901515
 20
84.0043719326
 30
0.0
 40
1.000000000000028
100
AcDbArc
 50
0.0
 51
90.0
  0
ARC
  5
361
330
23
100
AcDbEntity
  8
0
  6
Continuous
 62
     7
370
    25
100
AcDbCircle
 10
147.2208901515
 20
-20.5859035855
 30
0.0
 40
0.5000000000151203
100
AcDbArc
 50
0.0000000024
 51
76.7096953059
  0
ARC
  5
362
330
23
100
AcDbEntity
  8
0
  6
Continuous
 62
     7
370
    25
100
AcDbCircle
 10
143.8708901513
 20
-34.7681197832
 30
0.0
 40
15.0725000009722
100
AcDbArc
 50
76.7096953034
 51
103.2903046966
  0
ARC
  5
363
330
23
100
AcDbEntity
  8
0
  6
Continuous
 62
     7
370
    25
100
AcDbCircle
 10
115.5708901515
 20
101.5043719326
 30
0.0
 40
0.5
100
AcDbArc
 50
0.0
 51
90.0
  0
ARC
  5
364
330
23
100
AcDbEntity
  8
0
  6
Continuous
 62
     7
370
    25
100
AcDbCircle
 10
115.5708901515
 20
-112.4956280674
 30
0.0
 40
0.4999999999999858
100
AcDbArc
 50
270.0
 51
0.0
  0
ARC
  5
365
330
23
100
AcDbEntity
  8
0
  6
Continuous
 62
     7
370
    25
100
AcDbCircle
 10
163.3708901515
 20
14.5043719326
 30
0.0
 40
1.000000000000011
100
AcDbArc
 50
270.0
 51
0.0
  0
ARC
  5
366
330
23
100
AcDbEntity
  8
0
  6
Continuous
 62
     7
370
    25
100
AcDbCircle
 10
163.3708901515
 20
54.5043719326
 30
0.0
 40
1.000000000000036
100
AcDbArc
 50
0.0
 51
90.0
  0
ARC
  5
367
330
23
100
AcDbEntity
  8
0
  6
Continuous
 62
     7
370
    25
100
AcDbCircle
 10
119.8708901515
 20
55.0043719326
 30
0.0
 40
0.5
100
AcDbArc
 50
90.0
 51
180.0
  0
ARC
  5
368
330
23
100
AcDbEntity
  8
0
  6
Continuous
 62
     7
370
    25
100
AcDbCircle
 10
119.8708901515
 20
14.0043719326
 30
0.0
 40
0.5000000000000302
100
AcDbArc
 50
180.0
 51
270.0
  0
ARC
  5
369
330
23
100
AcDbEntity
  8
0
  6
Continuous
 62
     7
370
    25
100
AcDbCircle
 10
148.8709009836
 20
55.0043675051
 30
0.0
 40
0.4999987964261511
100
AcDbArc
 50
66.1678382717
 51
90.0012412536
  0
ARC
  5
36A
330
23
100
AcDbEntity
  8
0
  6
Continuous
 62
     7
370
    25
100
AcDbCircle
 10
157.8708778006
 20
55.004366816
 30
0.0
 40
0.4999986276811477
100
AcDbArc
 50
89.9985847072
 51
113.8319281767
  0
VIEWPORT
  5
45E
330
23
100
AcDbEntity
  8
0
100
AcDbViewport
 10
0.0
 20
0.0
 30
0.0
 40
205.6
 41
156.0
 68
     1
 69
     1
 12
167.7471080863
 22
-5.4956280674
 13
0.0
 23
0.0
 14
10.0
 24
10.0
 15
10.0
 25
10.0
 16
0.0
 26
0.0
 36
1.0
 17
0.0
 27
0.0
 37
0.0
 42
50.0
 43
0.0
 44
0.0
 45
219.3
 50
0.0
 51
0.0
 72
   100
 90
   557152
  1

281
     0
 71
     1
 74
     0
110
0.0
120
0.0
130
0.0
111
1.0
121
0.0
131
0.0
112
0.0
122
1.0
132
0.0
 79
     0
146
0.0
  0
ENDBLK
  5
25
330
23
100
AcDbEntity
  8
0
100
AcDbBlockEnd
  0
BLOCK
  5
36D
330
36B
100
AcDbEntity
  8
0
100
AcDbBlockBegin
  2
*Paper_Space1
 70
     0
 10
0.0
 20
0.0
 30
0.0
  3
*Paper_Space1
  1

  0
SPLINE
  5
39A
330
36B
100
AcDbEntity
  8
0
  6
Continuous
 62
     7
370
    25
100
AcDbSpline
210
0.0
220
0.0
230
1.0
 70
     8
 71
     3
 72
    33
 73
    29
 74
     0
 42
0.000000001
 43
0.00000001
 40
0.0
 40
0.0
 40
0.0
 40
0.0
 40
0.0126850487797643
 40
0.0253158075573676
 40
0.0379108414324551
 40
0.0504888736950732
 40
0.0630687035491301
 40
0.0949649766624711
 40
0.1268320034836521
 40
0.1587112758375497
 40
0.190613326720498
 40
0.2542230132438374
 40
0.3171597643744596
 40
0.3790300714169573
 40
0.4398023245810135
 40
0.4998892367906751
 40
0.5599744658119914
 40
0.6207438691535881
 40
0.682606556076555
 40
0.745548902239611
 40
0.8091344979377288
 40
0.8410501476112316
 40
0.8729605580098296
 40
0.9047959824498917
 40
0.9366780299301057
 40
0.9577399468126897
 40
0.9788180913162803
 40
1.0
 40
1.0
 40
1.0
 40
1.0
 10
167.7471080863403
 20
-148.8708901516098
 30
0.0
 10
167.8077418865274
 20
-148.871558096827
 30
0.0
 10
167.9287499838284
 20
-148.8728911285614
 30
0.0
 10
168.1096855415803
 20
-148.8836399921484
 30
0.0
 10
168.2895511682672
 20
-148.90080843148
 30
0.0
 10
168.4683409365797
 20
-148.9250055068855
 30
0.0
 10
168.736808581645
 20
-148.9720013557244
 30
0.0
 10
169.091362451097
 20
-149.0589237525006
 30
0.0
 10
169.5223548043498
 20
-149.2099949803326
 30
0.0
 10
169.9362624568241
 20
-149.4019719967544
 30
0.0
 10
170.4586445377898
 20
-149.7106011973748
 30
0.0
 10
171.0478903365007
 20
-150.1873099677784
 30
0.0
 10
171.6225249495279
 20
-150.8808691167774
 30
0.0
 10
172.0437083483951
 20
-151.6636117639482
 30
0.0
 10
172.2994502003776
 20
-152.502978313202
 30
0.0
 10
172.3852461414683
 20
-153.369229188563
 30
0.0
 10
172.3001015685916
 20
-154.2355342302486
 30
0.0
 10
172.0450049059669
 20
-155.0750439268879
 30
0.0
 10
171.6244264329682
 20
-155.8580970098051
 30
0.0
 10
171.0503776282667
 20
-156.5519769202612
 30
0.0
 10
170.461555901223
 20
-157.02917791653
 30
0.0
 10
169.9392653858577
 20
-157.3381417284657
 30
0.0
 10
169.525482242371
 20
-157.5305226457394
 30
0.0
 10
169.0946792959043
 20
-157.6819099721755
 30
0.0
 10
168.7010400748102
 20
-157.778801571274
 30
0.0
 10
168.3518108601416
 20
-157.8352123490089
 30
0.0
 10
168.0503913876945
 20
-157.8653178900959
 30
0.0
 10
167.8483678678022
 20
-157.8690296930187
 30
0.0
 10
167.7471080863401
 20
-157.8708901514098
 30
0.0
  0
LWPOLYLINE
  5
39B
330
36B
100
AcDbEntity
  8
0
  6
Continuous
 62
     7
370
    25
100
AcDbPolyline
 90
        9
 70
   128
 43
0.0
 10
167.7471081529
 20
-157.8708901513
 10
167.7471081285
 20
-157.7733441339
 10
167.7471081001
 20
-157.6795463494
 10
167.7471080687
 20
-157.5931014603
 10
167.7471080356
 20
-157.5173315561
 10
167.7471080021
 20
-157.4551484854
 10
167.7471079694
 20
-157.4089419524
 10
167.7471079388
 20
-157.380487681
 10
167.7471079115
 20
-157.370879173
  0
SPLINE
  5
39C
330
36B
100
AcDbEntity
  8
0
  6
Continuous
 62
     7
370
    25
100
AcDbSpline
210
0.0
220
0.0
230
1.0
 70
     8
 71
     3
 72
    22
 73
    18
 74
     0
 42
0.000000001
 43
0.00000001
 40
0.0
 40
0.0
 40
0.0
 40
0.0
 40
0.125
 40
0.125
 40
0.25
 40
0.25
 40
0.375
 40
0.375
 40
0.5
 40
0.5
 40
0.625
 40
0.625
 40
0.75
 40
0.75
 40
0.875
 40
0.875
 40
1.0
 40
1.0
 40
1.0
 40
1.0
 10
167.7471080851371
 20
-149.3708997800586
 30
0.0
 10
168.2697585145735
 20
-149.3709702586692
 30
0.0
 10
168.7929811715046
 20
-149.4748869130602
 30
0.0
 10
169.7577253815838
 20
-149.8738034086936
 30
0.0
 10
170.1997428642935
 20
-150.1682430194878
 30
0.0
 10
170.9392921688597
 20
-150.9046734881264
 30
0.0
 10
171.236886499156
 20
-151.3467327181623
 30
0.0
 10
171.6411035597862
 20
-152.3161052338378
 30
0.0
 10
171.7471082513267
 20
-152.8432433622188
 30
0.0
 10
171.7471079181231
 20
-153.8985248372976
 30
0.0
 10
171.6411077226678
 20
-154.4256644587174
 30
0.0
 10
171.236891562718
 20
-155.3950360459325
 30
0.0
 10
170.9392994596967
 20
-155.837098518862
 30
0.0
 10
170.1997520821168
 20
-156.5735292380693
 30
0.0
 10
169.757733883466
 20
-156.8679716031774
 30
0.0
 10
168.7929926493383
 20
-157.2668905878977
 30
0.0
 10
168.2697632017737
 20
-157.3708087397831
 30
0.0
 10
167.7471080865294
 20
-157.3708803885922
 30
0.0
  0
LWPOLYLINE
  5
39D
330
36B
100
AcDbEntity
  8
0
  6
Continuous
 62
     7
370
    25
100
AcDbPolyline
 90
        9
 70
   128
 43
0.0
 10
167.7471080246
 20
-148.8708901517
 10
167.7471080472
 20
-148.9684360711
 10
167.7471080735
 20
-149.062233711
 10
167.7471081026
 20
-149.1486784219
 10
167.7471081332
 20
-149.224448128
 10
167.7471081644
 20
-149.2866309949
 10
167.7471081947
 20
-149.3328373308
 10
167.7471082232
 20
-149.3612914234
 10
167.7471082486
 20
-149.37089978
  0
SPLINE
  5
39E
330
36B
100
AcDbEntity
  8
0
  6
Continuous
 62
     7
370
    25
100
AcDbSpline
210
0.0
220
0.0
230
1.0
 70
     8
 71
     3
 72
    33
 73
    29
 74
     0
 42
0.000000001
 43
0.00000001
 40
0.0
 40
0.0
 40
0.0
 40
0.0
 40
0.0127247998647728
 40
0.0254003929173546
 40
0.0380455493785446
 40
0.050679175132142
 40
0.0633202277979773
 40
0.0951884981698115
 40
0.1270173132745286
 40
0.1589162021892327
 40
0.1908265987209262
 40
0.2543975656946523
 40
0.3173270462171028
 40
0.3791770752089055
 40
0.4399345354068069
 40
0.5000067487790995
 40
0.5600791050574611
 40
0.620836336697819
 40
0.6826868152255445
 40
0.7456158607715927
 40
0.8091870932182225
 40
0.8410951882579281
 40
0.8729978347564816
 40
0.9048261743700369
 40
0.9367007624283897
 40
0.9577545821608622
 40
0.9788251807548956
 40
1.0
 40
1.0
 40
1.0
 40
1.0
 10
167.7471080863402
 20
-157.8708901514098
 30
0.0
 10
167.6862842159174
 20
-157.8702163165792
 30
0.0
 10
167.5648716810317
 20
-157.8688712526376
 30
0.0
 10
167.3832956099257
 20
-157.8580343190135
 30
0.0
 10
167.2027202999473
 20
-157.8407280107583
 30
0.0
 10
167.0231522504296
 20
-157.8163352212799
 30
0.0
 10
166.7542921922602
 20
-157.7691282732802
 30
0.0
 10
166.3998090762612
 20
-157.6820230575316
 30
0.0
 10
165.9691493178581
 20
-157.5306770652117
 30
0.0
 10
165.5554443379094
 20
-157.3383967610121
 30
0.0
 10
165.0332392928839
 20
-157.0295783391284
 30
0.0
 10
164.444461849892
 20
-156.5525744173192
 30
0.0
 10
163.8703901723844
 20
-155.8589660979374
 30
0.0
 10
163.4496987709946
 20
-155.076183055107
 30
0.0
 10
163.1944049663242
 20
-154.2369275952796
 30
0.0
 10
163.1089828499723
 20
-153.3708446923808
 30
0.0
 10
163.1944226081135
 20
-152.504764693404
 30
0.0
 10
163.4497337598728
 20
-151.6655129993706
 30
0.0
 10
163.8704405736934
 20
-150.8827395532932
 30
0.0
 10
164.4445265609491
 20
-150.1891417002248
 30
0.0
 10
165.0333050502932
 20
-149.7121570514863
 30
0.0
 10
165.5555204279636
 20
-149.4033419340701
 30
0.0
 10
165.9692320394348
 20
-149.2110590489133
 30
0.0
 10
166.3999508203441
 20
-149.0597521220503
 30
0.0
 10
166.7934925169923
 20
-148.9629163191125
 30
0.0
 10
167.1426161588788
 20
-148.9065426921402
 30
0.0
 10
167.4439285202051
 20
-148.8764591621192
 30
0.0
 10
167.6458821558349
 20
-148.8727495390282
 30
0.0
 10
167.7471080863403
 20
-148.8708901516098
 30
0.0
  0
SPLINE
  5
39F
330
36B
100
AcDbEntity
  8
0
  6
Continuous
 62
     7
370
    25
100
AcDbSpline
210
0.0
220
0.0
230
1.0
 70
     8
 71
     3
 72
    22
 73
    18
 74
     0
 42
0.000000001
 43
0.00000001
 40
0.0
 40
0.0
 40
0.0
 40
0.0
 40
0.125
 40
0.125
 40
0.25
 40
0.25
 40
0.375
 40
0.375
 40
0.5
 40
0.5
 40
0.625
 40
0.625
 40
0.75
 40
0.75
 40
0.875
 40
0.875
 40
1.0
 40
1.0
 40
1.0
 40
1.0
 10
167.7471080879773
 20
-157.3708791729375
 30
0.0
 10
167.2244348062099
 20
-157.3708054533365
 30
0.0
 10
166.7012188787909
 20
-157.2668903596274
 30
0.0
 10
165.7364803007119
 20
-156.8679681431083
 30
0.0
 10
165.2944615605528
 20
-156.573529057837
 30
0.0
 10
164.5549178943889
 20
-155.8370971756752
 30
0.0
 10
164.2573243023406
 20
-155.3950380416546
 30
0.0
 10
163.8531105828052
 20
-154.4256668784
 30
0.0
 10
163.7471080763536
 20
-153.8985293907765
 30
0.0
 10
163.7471080962766
 20
-152.8432502889097
 30
0.0
 10
163.8531107745513
 20
-152.3161128636404
 30
0.0
 10
164.2573245800965
 20
-151.3467416969896
 30
0.0
 10
164.5549182732404
 20
-150.9046826705818
 30
0.0
 10
165.2944620270558
 20
-150.1682508636921
 30
0.0
 10
165.7364806286195
 20
-149.8738118867564
 30
0.0
 10
166.7012197665466
 20
-149.4748897126151
 30
0.0
 10
167.2244342075648
 20
-149.3709748476726
 30
0.0
 10
167.7471080865637
 20
-149.3709011439442
 30
0.0
  0
SPLINE
  5
3A2
330
36B
100
AcDbEntity
  8
0
  6
Continuous
 62
     7
370
    25
100
AcDbSpline
210
0.0
220
0.0
230
1.0
 70
     8
 71
     3
 72
    26
 73
    22
 74
     0
 42
0.000000001
 43
0.00000001
 40
0.0
 40
0.0
 40
0.0
 40
0.0
 40
0.0198883414618245
 40
0.0401795501154286
 40
0.0608744046296918
 40
0.081973638362774
 40
0.1034779426801775
 40
0.1253879699802297
 40
0.1779657390134361
 40
0.2505502727376548
 40
0.3226673965198613
 40
0.3746233403648279
 40
0.498949608531536
 40
0.6234903612030198
 40
0.6760886579896654
 40
0.7487365510106215
 40
0.8215343290465107
 40
0.8740246360102856
 40
0.91765689711128
 40
0.959646826626586
 40
0.9999999999999999
 40
0.9999999999999999
 40
0.9999999999999999
 40
0.9999999999999999
 10
167.7471080863406
 20
-135.7708901515098
 30
0.0
 10
167.703450178331
 20
-135.7716776611513
 30
0.0
 10
167.6152500080868
 20
-135.7732686325839
 30
0.0
 10
167.4821509927688
 20
-135.7863174382425
 30
0.0
 10
167.347514603414
 20
-135.8076990998705
 30
0.0
 10
167.2119909286436
 20
-135.8386056120563
 30
0.0
 10
167.0762820795034
 20
-135.879205375403
 30
0.0
 10
166.8789918471858
 20
-135.9531919773982
 30
0.0
 10
166.5909109533713
 20
-136.1015079072116
 30
0.0
 10
166.2494203888572
 20
-136.373025214763
 30
0.0
 10
165.9787735732154
 20
-136.7136514772568
 30
0.0
 10
165.7276116530927
 20
-137.1989373291925
 30
0.0
 10
165.5918573444016
 20
-137.8639881549202
 30
0.0
 10
165.7235771661489
 20
-138.5314057781366
 30
0.0
 10
165.9736653728466
 20
-139.0207427394804
 30
0.0
 10
166.2451146056115
 20
-139.3647315165636
 30
0.0
 10
166.5872240560599
 20
-139.6378218629602
 30
0.0
 10
166.9176561220826
 20
-139.8089763755933
 30
0.0
 10
167.2055078048081
 20
-139.9059476035667
 30
0.0
 10
167.4776372664847
 20
-139.960997299456
 30
0.0
 10
167.6584827177149
 20
-139.9676365240465
 30
0.0
 10
167.7471080863405
 20
-139.9708901515098
 30
0.0
  0
SPLINE
  5
3A4
330
36B
100
AcDbEntity
  8
0
  6
Continuous
 62
     7
370
    25
100
AcDbSpline
210
0.0
220
0.0
230
1.0
 70
     8
 71
     3
 72
    26
 73
    22
 74
     0
 42
0.000000001
 43
0.00000001
 40
0.0
 40
0.0
 40
0.0
 40
0.0
 40
0.0198879565113401
 40
0.0401794041808935
 40
0.0608751217882628
 40
0.0819758427271503
 40
0.1034822583339209
 40
0.1253950209222449
 40
0.1779838910012128
 40
0.2506190805368081
 40
0.3227013231365008
 40
0.3746368180535567
 40
0.498824914763805
 40
0.6233360649697846
 40
0.6759735199352046
 40
0.748638321731424
 40
0.8214827579891384
 40
0.873976692969177
 40
0.9176268517855742
 40
0.9596327606681562
 40
1.0
 40
1.0
 40
1.0
 40
1.0
 10
167.7471080863405
 20
-139.9708901515098
 30
0.0
 10
167.7907652595958
 20
-139.9701026665031
 30
0.0
 10
167.8789653322688
 20
-139.9685117198235
 30
0.0
 10
168.0120662613969
 20
-139.9554628085276
 30
0.0
 10
168.146708583795
 20
-139.9340800274479
 30
0.0
 10
168.2822420060622
 20
-139.9031705567285
 30
0.0
 10
168.4179640908306
 20
-139.8625652180064
 30
0.0
 10
168.6152862665339
 20
-139.7885624013195
 30
0.0
 10
168.9034884777082
 20
-139.6401694135136
 30
0.0
 10
169.2449938298863
 20
-139.3685627675519
 30
0.0
 10
169.5155760723717
 20
-139.027903353009
 30
0.0
 10
169.7665045447097
 20
-138.5429743766481
 30
0.0
 10
169.9022796808115
 20
-137.8784070595922
 30
0.0
 10
169.7709156371797
 20
-137.2112196146651
 30
0.0
 10
169.5210068079643
 20
-136.7217192283146
 30
0.0
 10
169.2495317300673
 20
-136.3774582245023
 30
0.0
 10
168.9073655553041
 20
-136.1041899166538
 30
0.0
 10
168.5768264623697
 20
-135.9329140901094
 30
0.0
 10
168.2889071604503
 20
-135.8358807187059
 30
0.0
 10
168.0166765948256
 20
-135.780790105007
 30
0.0
 10
167.8357646134697
 20
-135.7741460789204
 30
0.0
 10
167.7471080863406
 20
-135.7708901515098
 30
0.0
  0
LINE
  5
3B9
330
36B
100
AcDbEntity
  8
0
  6
Continuous
 62
     7
370
    25
100
AcDbLine
 10
146.7471080863
 20
-119.8708901515
 30
0.0
 11
146.7471080863
 21
-163.3708901515
 31
0.0
  0
LINE
  5
3BA
330
36B
100
AcDbEntity
  8
0
  6
Continuous
 62
     7
370
    25
100
AcDbLine
 10
188.7471080863
 20
-163.3708901515
 30
0.0
 11
188.7471080863
 21
-119.8708901515
 31
0.0
  0
LINE
  5
3BB
330
36B
100
AcDbEntity
  8
0
  6
Continuous
 62
     7
370
    25
100
AcDbLine
 10
188.7471080863
 20
-118.5708901515
 30
0.0
 11
146.7471080863
 21
-118.5708901515
 31
0.0
  0
LINE
  5
3BC
330
36B
100
AcDbEntity
  8
0
  6
Continuous
 62
     7
370
    25
100
AcDbLine
 10
146.7471080863
 20
-118.5708901515
 30
0.0
 11
146.7471080863
 21
-116.0708901515
 31
0.0
  0
LINE
  5
3BD
330
36B
100
AcDbEntity
  8
0
  6
Continuous
 62
     7
370
    25
100
AcDbLine
 10
188.7471080863
 20
-116.0708901515
 30
0.0
 11
188.7471080863
 21
-118.5708901515
 31
0.0
  0
LINE
  5
3BE
330
36B
100
AcDbEntity
  8
0
  6
Continuous
 62
     7
370
    25
100
AcDbLine
 10
188.2471080863
 20
-119.0708901515
 30
0.0
 11
147.2471080863
 21
-119.0708901515
 31
0.0
  0
LINE
  5
3BF
330
36B
100
AcDbEntity
  8
0
  6
Continuous
 62
     7
370
    25
100
AcDbLine
 10
147.2471080863
 20
-119.3708901515
 30
0.0
 11
188.2471080863
 21
-119.3708901515
 31
0.0
  0
LINE
  5
3C0
330
36B
100
AcDbEntity
  8
0
  6
Continuous
 62
     7
370
    25
100
AcDbLine
 10
147.2471080863
 20
-119.0708901515
 30
0.0
 11
147.2471080863
 21
-119.3708901515
 31
0.0
  0
LINE
  5
3C1
330
36B
100
AcDbEntity
  8
0
  6
Continuous
 62
     7
370
    25
100
AcDbLine
 10
188.2471080863
 20
-119.0708901515
 30
0.0
 11
188.2471080863
 21
-119.3708901515
 31
0.0
  0
LINE
  5
3C2
330
36B
100
AcDbEntity
  8
0
  6
Continuous
 62
     7
370
    25
100
AcDbLine
 10
227.7471080863
 20
-115.5708901515
 30
0.0
 11
107.7471080863
 21
-115.5708901515
 31
0.0
  0
LINE
  5
3C3
330
36B
100
AcDbEntity
  8
0
  6
Continuous
 62
     7
370
    25
100
AcDbLine
 10
212.7471080863
 20
-116.0708901515
 30
0.0
 11
212.7471080863
 21
-114.0708901515
 31
0.0
  0
LINE
  5
3C4
330
36B
100
AcDbEntity
  8
0
  6
Continuous
 62
     7
370
    25
100
AcDbLine
 10
227.7471080863
 20
-114.0708901515
 30
0.0
 11
227.7471080863
 21
-115.5708901515
 31
0.0
  0
LINE
  5
3C5
330
36B
100
AcDbEntity
  8
0
  6
Continuous
 62
     7
370
    25
100
AcDbLine
 10
227.7471080863
 20
-114.0708901515
 30
0.0
 11
107.7471080863
 21
-114.0708901515
 31
0.0
  0
LINE
  5
3C6
330
36B
100
AcDbEntity
  8
0
  6
Continuous
 62
     7
370
    25
100
AcDbLine
 10
227.2471080863
 20
-116.0708901515
 30
0.0
 11
108.2471080863
 21
-116.0708901515
 31
0.0
  0
LINE
  5
3C7
330
36B
100
AcDbEntity
  8
0
  6
Continuous
 62
     7
370
    25
100
AcDbLine
 10
122.7471080863
 20
-114.0708901515
 30
0.0
 11
122.7471080863
 21
-116.0708901515
 31
0.0
  0
LINE
  5
3C8
330
36B
100
AcDbEntity
  8
0
  6
Continuous
 62
     7
370
    25
100
AcDbLine
 10
107.7471080863
 20
-115.5708901515
 30
0.0
 11
107.7471080863
 21
-114.0708901515
 31
0.0
  0
LINE
  5
3C9
330
36B
100
AcDbEntity
  8
0
  6
Continuous
 62
     7
370
    25
100
AcDbLine
 10
163.8471080863
 20
-153.3708901515
 30
0.0
 11
164.8471080863
 21
-153.3708901515
 31
0.0
  0
LINE
  5
3CA
330
36B
100
AcDbEntity
  8
0
  6
Continuous
 62
     7
370
    25
100
AcDbLine
 10
171.6471080863
 20
-153.3708901515
 30
0.0
 11
170.6471080863
 21
-153.3708901515
 31
0.0
  0
LINE
  5
3CB
330
36B
100
AcDbEntity
  8
0
  6
Continuous
 62
     7
370
    25
100
AcDbLine
 10
167.7471080863
 20
-164.3708901515
 30
0.0
 11
167.7471080867
 21
-157.8708901514
 31
0.0
  0
LINE
  5
3CC
330
36B
100
AcDbEntity
  8
0
  6
Continuous
 62
     7
370
    25
100
AcDbLine
 10
167.7471080863
 20
-135.7708901515
 30
0.0
 11
167.7471080863
 21
-119.3708901515
 31
0.0
  0
LINE
  5
3CD
330
36B
100
AcDbEntity
  8
0
  6
Continuous
 62
     7
370
    25
100
AcDbLine
 10
167.7471080861
 20
-148.8708901516
 30
0.0
 11
167.7471080863
 21
-139.9708901515
 31
0.0
  0
LINE
  5
3CE
330
36B
100
AcDbEntity
  8
0
  6
Continuous
 62
     7
370
    25
100
AcDbLine
 10
147.7471080863
 20
-164.3708901515
 30
0.0
 11
187.7471080863
 21
-164.3708901515
 31
0.0
  0
LINE
  5
3CF
330
36B
100
AcDbEntity
  8
0
  6
Continuous
 62
     7
370
    25
100
AcDbLine
 10
166.9965527364
 20
-136.5708901515
 30
0.0
 11
166.2459973864
 21
-137.8708901515
 31
0.0
  0
LINE
  5
3D0
330
36B
100
AcDbEntity
  8
0
  6
Continuous
 62
     7
370
    25
100
AcDbLine
 10
166.2459973864
 20
-137.8708901515
 30
0.0
 11
166.9965527364
 21
-139.1708901515
 31
0.0
  0
LINE
  5
3D1
330
36B
100
AcDbEntity
  8
0
  6
Continuous
 62
     7
370
    25
100
AcDbLine
 10
168.4976634363
 20
-139.1708901515
 30
0.0
 11
166.9965527364
 21
-139.1708901515
 31
0.0
  0
LINE
  5
3D2
330
36B
100
AcDbEntity
  8
0
  6
Continuous
 62
     7
370
    25
100
AcDbLine
 10
169.2482187862
 20
-137.8708901515
 30
0.0
 11
168.4976634363
 21
-136.5708901515
 31
0.0
  0
LINE
  5
3D3
330
36B
100
AcDbEntity
  8
0
  6
Continuous
 62
     7
370
    25
100
AcDbLine
 10
166.9965527364
 20
-136.5708901515
 30
0.0
 11
168.4976634363
 21
-136.5708901515
 31
0.0
  0
LINE
  5
3D4
330
36B
100
AcDbEntity
  8
0
  6
Continuous
 62
     7
370
    25
100
AcDbLine
 10
168.4976634363
 20
-139.1708901515
 30
0.0
 11
169.2482187862
 21
-137.8708901515
 31
0.0
  0
LINE
  5
3D5
330
36B
100
AcDbEntity
  8
0
  6
Continuous
 62
     8
370
    25
100
AcDbLine
 10
188.7471080863
 20
-163.3708901515
 30
0.0
 11
146.7471080863
 21
-163.3708901515
 31
0.0
  0
LINE
  5
3D6
330
36B
100
AcDbEntity
  8
0
  6
Continuous
 62
     8
370
    25
100
AcDbLine
 10
146.7471080863
 20
-119.8708901515
 30
0.0
 11
188.7471080863
 21
-119.8708901515
 31
0.0
  0
ARC
  5
3D7
330
36B
100
AcDbEntity
  8
0
  6
Continuous
 62
     7
370
    25
100
AcDbCircle
 10
147.2471080863
 20
-119.8708901515
 30
0.0
 40
0.5
100
AcDbArc
 50
90.0
 51
180.0
  0
ARC
  5
3D8
330
36B
100
AcDbEntity
  8
0
  6
Continuous
 62
     7
370
    25
100
AcDbCircle
 10
188.2471080863
 20
-119.8708901515
 30
0.0
 40
0.5
100
AcDbArc
 50
0.0
 51
90.0
  0
ARC
  5
3D9
330
36B
100
AcDbEntity
  8
0
  6
Continuous
 62
     7
370
    25
100
AcDbCircle
 10
187.7471080863
 20
-163.3708901515
 30
0.0
 40
1.000000000000028
100
AcDbArc
 50
270.0
 51
360.0
  0
ARC
  5
3DA
330
36B
100
AcDbEntity
  8
0
  6
Continuous
 62
     7
370
    25
100
AcDbCircle
 10
147.7471080863
 20
-163.3708901515
 30
0.0
 40
0.9999999999999432
100
AcDbArc
 50
180.0
 51
270.0
  0
ARC
  5
3DB
330
36B
100
AcDbEntity
  8
0
  6
Continuous
 62
     7
370
    25
100
AcDbCircle
 10
147.2471080863
 20
-118.5708901515
 30
0.0
 40
0.5000000000000284
100
AcDbArc
 50
180.0
 51
270.0
  0
ARC
  5
3DC
330
36B
100
AcDbEntity
  8
0
  6
Continuous
 62
     7
370
    25
100
AcDbCircle
 10
188.2471080863
 20
-118.5708901515
 30
0.0
 40
0.5
100
AcDbArc
 50
270.0
 51
0.0
  0
ARC
  5
3DD
330
36B
100
AcDbEntity
  8
0
  6
Continuous
 62
     7
370
    25
100
AcDbCircle
 10
227.2471080863
 20
-115.5708901515
 30
0.0
 40
0.5000000000000284
100
AcDbArc
 50
270.0
 51
360.0
  0
ARC
  5
3DE
330
36B
100
AcDbEntity
  8
0
  6
Continuous
 62
     7
370
    25
100
AcDbCircle
 10
108.2471080863
 20
-115.5708901515
 30
0.0
 40
0.5000000000000568
100
AcDbArc
 50
180.0
 51
270.0
  0
ARC
  5
3DF
330
36B
100
AcDbEntity
  8
0
  6
Continuous
 62
     7
370
    25
100
AcDbCircle
 10
167.7471080993
 20
-153.3708901516
 30
0.0
 40
3.900000012955446
100
AcDbArc
 50
179.2567127638
 51
179.9999999992
  0
ARC
  5
3E0
330
36B
100
AcDbEntity
  8
0
  6
Continuous
 62
     7
370
    25
100
AcDbCircle
 10
167.7471080863
 20
-153.3708901515
 30
0.0
 40
3.900000000000206
100
AcDbArc
 50
360.0
 51
179.2567127621
  0
ARC
  5
3E1
330
36B
100
AcDbEntity
  8
0
  6
Continuous
 62
     7
370
    25
100
AcDbCircle
 10
167.7471080863
 20
-153.3708901515
 30
0.0
 40
2.900000000000091
100
AcDbArc
 50
359.2567127621
 51
360.0
  0
ARC
  5
3E2
330
36B
100
AcDbEntity
  8
0
  6
Continuous
 62
     7
370
    25
100
AcDbCircle
 10
167.7471080747
 20
-153.3708901515
 30
0.0
 40
3.900000011638014
100
AcDbArc
 50
359.2567127637
 51
359.9999999993
  0
ARC
  5
3E3
330
36B
100
AcDbEntity
  8
0
  6
Continuous
 62
     7
370
    25
100
AcDbCircle
 10
167.7471080863
 20
-153.3708901515
 30
0.0
 40
3.900000000000205
100
AcDbArc
 50
180.0
 51
359.2567127621
  0
ARC
  5
3E4
330
36B
100
AcDbEntity
  8
0
  6
Continuous
 62
     7
370
    25
100
AcDbCircle
 10
167.7471080863
 20
-137.8708901515
 30
0.0
 40
2.499999999999663
100
AcDbArc
 50
324.9628109397
 51
35.0371890603
  0
ARC
  5
3E5
330
36B
100
AcDbEntity
  8
0
  6
Continuous
 62
     7
370
    25
100
AcDbCircle
 10
167.7471080863
 20
-137.8708901515
 30
0.0
 40
2.500000000001048
100
AcDbArc
 50
144.9628109398
 51
215.0371890602
  0
VIEWPORT
  5
460
330
36B
100
AcDbEntity
  8
0
100
AcDbViewport
 10
0.0
 20
0.0
 30
0.0
 40
205.6
 41
156.0
 68
     1
 69
     1
 12
167.7471080863
 22
-5.4956280674
 13
0.0
 23
0.0
 14
10.0
 24
10.0
 15
10.0
 25
10.0
 16
0.0
 26
0.0
 36
1.0
 17
0.0
 27
0.0
 37
0.0
 42
50.0
 43
0.0
 44
0.0
 45
219.3
 50
0.0
 51
0.0
 72
   100
 90
   557152
  1

281
     0
 71
     1
 74
     0
110
0.0
120
0.0
130
0.0
111
1.0
121
0.0
131
0.0
112
0.0
122
1.0
132
0.0
 79
     0
146
0.0
  0
ENDBLK
  5
36E
330
36B
100
AcDbEntity
  8
0
100
AcDbBlockEnd
  0
BLOCK
  5
3E8
330
3E6
100
AcDbEntity
  8
0
100
AcDbBlockBegin
  2
*Paper_Space2
 70
     0
 10
0.0
 20
0.0
 30
0.0
  3
*Paper_Space2
  1

  0
SPLINE
  5
3F4
330
3E6
100
AcDbEntity
  8
0
  6
Continuous
 62
     7
370
    25
100
AcDbSpline
210
0.0
220
0.0
230
1.0
 70
     8
 71
     3
 72
    35
 73
    31
 74
     0
 42
0.000000001
 43
0.00000001
 40
0.0
 40
0.0
 40
0.0
 40
0.0
 40
0.0145582536605263
 40
0.0293241987085532
 40
0.0442998562137317
 40
0.0594871634382544
 40
0.0748879776900827
 40
0.0905040800123137
 40
0.106337178711478
 40
0.1223889127283776
 40
0.1520347902548765
 40
0.1847982643150947
 40
0.2111542585011148
 40
0.2480553374761178
 40
0.311427647676757
 40
0.3745674178611348
 40
0.4390843711008767
 40
0.5001003504782707
 40
0.5611074280390805
 40
0.6256230766194549
 40
0.6886950484075628
 40
0.7519896666419201
 40
0.7888835485986048
 40
0.81524518369552
 40
0.8480041897863762
 40
0.8776535938173123
 40
0.9095266448602127
 40
0.9405325745868631
 40
0.9706853100252677
 40
1.0
 40
1.0
 40
1.0
 40
1.0
 10
171.7471080863415
 20
153.3708901515095
 30
0.0
 10
171.746297099862
 20
153.4320526500886
 30
0.0
 10
171.7446635571837
 20
153.555250205487
 30
0.0
 10
171.7313189835036
 20
153.7409428819194
 30
0.0
 10
171.7096120610234
 20
153.9284051334373
 30
0.0
 10
171.6784384819846
 20
154.1171774227974
 30
0.0
 10
171.6377184312948
 20
154.3067680262466
 30
0.0
 10
171.5871207802041
 20
154.4966514118499
 30
0.0
 10
171.5264126346601
 20
154.6862758357259
 30
0.0
 10
171.4356529368469
 20
154.9274590006092
 30
0.0
 10
171.2981813646392
 20
155.2259035260526
 30
0.0
 10
171.1106046103248
 20
155.5463925004483
 30
0.0
 10
170.8769841888717
 20
155.872210828495
 30
0.0
 10
170.5278369808197
 20
156.2695737591802
 30
0.0
 10
170.0001349551216
 20
156.7078037694044
 30
0.0
 10
169.2932303971515
 20
157.0891807893875
 30
0.0
 10
168.5309628574298
 20
157.3200710620641
 30
0.0
 10
167.7461036374023
 20
157.3956858822612
 30
0.0
 10
166.9612929435518
 20
157.3196768059383
 30
0.0
 10
166.1994577114692
 20
157.0885129526731
 30
0.0
 10
165.4932539625967
 20
156.7071711637905
 30
0.0
 10
164.9661188239862
 20
156.2692825517832
 30
0.0
 10
164.6171936543982
 20
155.8721624353628
 30
0.0
 10
164.3835949612331
 20
155.5463654835189
 30
0.0
 10
164.1959968718426
 20
155.2258426512796
 30
0.0
 10
164.0308666246477
 20
154.8672735836684
 30
0.0
 10
163.9030474567988
 20
154.5006610008179
 30
0.0
 10
163.8121557242449
 20
154.1206983480865
 30
0.0
 10
163.7570897179788
 20
153.7439874100844
 30
0.0
 10
163.7504038901824
 20
153.494081973171
 30
0.0
 10
163.7471080863415
 20
153.3708901525193
 30
0.0
  0
LWPOLYLINE
  5
3F5
330
3E6
100
AcDbEntity
  8
0
  6
Continuous
 62
     7
370
    25
100
AcDbPolyline
 90
        9
 70
   128
 43
0.0
 10
163.7471212594
 20
153.370890095
 10
163.7346289612
 20
153.3708900561
 10
163.6977734527
 20
153.3708900266
 10
163.638396595
 20
153.3708900081
 10
163.5594657583
 20
153.3708900015
 10
163.4649255265
 20
153.370890007
 10
163.3595005661
 20
153.3708900244
 10
163.2484595103
 20
153.3708900529
 10
163.1373516573
 20
153.370890091
  0
SPLINE
  5
3F6
330
3E6
100
AcDbEntity
  8
0
  6
Continuous
 62
     7
370
    25
100
AcDbSpline
210
0.0
220
0.0
230
1.0
 70
     8
 71
     3
 72
    32
 73
    28
 74
     0
 42
0.000000001
 43
0.00000001
 40
0.0
 40
0.0
 40
0.0
 40
0.0
 40
0.0137453184795098
 40
0.0278899245126182
 40
0.0424308827256749
 40
0.0573650156085218
 40
0.0726914099741652
 40
0.0884123755426756
 40
0.1045306426196809
 40
0.1210493432771889
 40
0.1686013567811818
 40
0.2459659441132039
 40
0.3192610750171274
 40
0.3730451766779092
 40
0.4380994583586372
 40
0.5000888227727874
 40
0.5619965862430781
 40
0.6271222889279506
 40
0.6804600597147951
 40
0.7540549052230703
 40
0.8318957929921496
 40
0.878967763381912
 40
0.9052253868666051
 40
0.9304511489169909
 40
0.9546563623196969
 40
0.9778431493958628
 40
1.0
 40
1.0
 40
1.0
 40
1.0
 10
172.3568648470198
 20
153.3708901513955
 30
0.0
 10
172.355995912361
 20
153.436577088899
 30
0.0
 10
172.3542328013732
 20
153.5698591027836
 30
0.0
 10
172.3398651818936
 20
153.7721914874499
 30
0.0
 10
172.3161023266849
 20
153.9792634232112
 30
0.0
 10
172.2813529638838
 20
154.1904614785216
 30
0.0
 10
172.235147656212
 20
154.4051210965114
 30
0.0
 10
172.1767867115522
 20
154.6225456720682
 30
0.0
 10
172.1056205124878
 20
154.8419784789845
 30
0.0
 10
171.9688411110908
 20
155.1989228443121
 30
0.0
 10
171.6623415301784
 20
155.8010685784806
 30
0.0
 10
171.0729212359729
 20
156.5474184485022
 30
0.0
 10
170.3024632836436
 20
157.1523813094248
 30
0.0
 10
169.4834430949547
 20
157.5671721042912
 30
0.0
 10
168.6506439643487
 20
157.8138195547579
 30
0.0
 10
167.7463792607159
 20
157.8988041596616
 30
0.0
 10
166.8418263474883
 20
157.8134732010587
 30
0.0
 10
166.0111943169294
 20
157.5671598699097
 30
0.0
 10
165.1924418747
 20
157.1528046663403
 30
0.0
 10
164.4204047009152
 20
156.5471715064288
 30
0.0
 10
163.8306055814151
 20
155.7990896632829
 30
0.0
 10
163.5035250384534
 20
155.155390701333
 30
0.0
 10
163.3422460947592
 20
154.7136697326498
 30
0.0
 10
163.2465476512108
 20
154.3650436171739
 30
0.0
 10
163.1822559926436
 20
154.0240481990558
 30
0.0
 10
163.1442146645624
 20
153.6935081095652
 30
0.0
 10
163.1396042452365
 20
153.476788613521
 30
0.0
 10
163.1373513961611
 20
153.3708901514102
 30
0.0
  0
LWPOLYLINE
  5
3F7
330
3E6
100
AcDbEntity
  8
0
  6
Continuous
 62
     7
370
    25
100
AcDbPolyline
 90
        9
 70
   128
 43
0.0
 10
171.7470949144
 20
153.3708902081
 10
171.7595872126
 20
153.3708902469
 10
171.796442721
 20
153.3708902764
 10
171.8558195785
 20
153.3708902949
 10
171.9347504151
 20
153.3708903015
 10
172.0292906467
 20
153.370890296
 10
172.1347156069
 20
153.3708902786
 10
172.2457566626
 20
153.3708902501
 10
172.3568645154
 20
153.370890212
  0
SPLINE
  5
3F8
330
3E6
100
AcDbEntity
  8
0
  6
Continuous
 62
     7
370
    25
100
AcDbSpline
210
0.0
220
0.0
230
1.0
 70
     8
 71
     3
 72
    35
 73
    31
 74
     0
 42
0.000000001
 43
0.00000001
 40
0.0
 40
0.0
 40
0.0
 40
0.0
 40
0.014557865817049
 40
0.0293235063300237
 40
0.044298942564601
 40
0.0594861117067212
 40
0.0748868709594645
 40
0.0905030012357282
 40
0.1063362106895746
 40
0.1223881380898267
 40
0.1520337335477935
 40
0.1847962161667798
 40
0.2111534834982385
 40
0.2480495902613553
 40
0.3113553547725246
 40
0.3744391253473776
 40
0.4389534173692267
 40
0.4999663756713581
 40
0.5609763564181903
 40
0.6254945811496129
 40
0.6886233682905711
 40
0.751985817583399
 40
0.7888840698586076
 40
0.8152444071641546
 40
0.8480041670384394
 40
0.8776536759545024
 40
0.909526162497629
 40
0.9405318898077817
 40
0.970684785869387
 40
0.9999999999999999
 40
0.9999999999999999
 40
0.9999999999999999
 40
0.9999999999999999
 10
163.7471080863416
 20
153.3708901525193
 30
0.0
 10
163.7479190299458
 20
153.3097292840829
 30
0.0
 10
163.7495524912108
 20
153.1865346389831
 30
0.0
 10
163.7628964613117
 20
153.0008457751069
 30
0.0
 10
163.7846025907924
 20
152.8133862424057
 30
0.0
 10
163.8157753004706
 20
152.6246155753577
 30
0.0
 10
163.8564945611722
 20
152.4350255090771
 30
0.0
 10
163.907091651119
 20
152.2451416012572
 30
0.0
 10
163.9677996155697
 20
152.0555156387539
 30
0.0
 10
164.0585587017374
 20
151.8143320952713
 30
0.0
 10
164.1960275525473
 20
151.5158912327479
 30
0.0
 10
164.3836027073936
 20
151.1954014326561
 30
0.0
 10
164.6172102692028
 20
150.8695979559566
 30
0.0
 10
164.9661598937681
 20
150.4724519111355
 30
0.0
 10
165.4933886623425
 20
150.0345064483398
 30
0.0
 10
166.1996974858458
 20
149.6531627282501
 30
0.0
 10
166.9616167426854
 20
149.4220370986085
 30
0.0
 10
167.7464293694084
 20
149.3460944010705
 30
0.0
 10
168.5312853207983
 20
149.4217753225011
 30
0.0
 10
169.2934714139067
 20
149.6527042234464
 30
0.0
 10
170.000278193621
 20
150.0340838955743
 30
0.0
 10
170.5278898234918
 20
150.4722632925389
 30
0.0
 10
170.8770123675333
 20
150.8696040741231
 30
0.0
 10
171.1106205152676
 20
151.1954138983268
 30
0.0
 10
171.2982181164754
 20
151.5159350011139
 30
0.0
 10
171.4633488095666
 20
151.8745051456716
 30
0.0
 10
171.5911672700129
 20
152.2411149578766
 30
0.0
 10
171.6820591044041
 20
152.6210749565209
 30
0.0
 10
171.737126149557
 20
152.9977878102226
 30
0.0
 10
171.7438121676934
 20
153.2476961270586
 30
0.0
 10
171.7471080863415
 20
153.3708901515095
 30
0.0
  0
SPLINE
  5
3F9
330
3E6
100
AcDbEntity
  8
0
  6
Continuous
 62
     7
370
    25
100
AcDbSpline
210
0.0
220
0.0
230
1.0
 70
     8
 71
     3
 72
    32
 73
    28
 74
     0
 42
0.000000001
 43
0.00000001
 40
0.0
 40
0.0
 40
0.0
 40
0.0
 40
0.0137290406736725
 40
0.0278619758261908
 40
0.0423958828971847
 40
0.0573275909837101
 40
0.072656179601629
 40
0.0883839601163766
 40
0.1045136723586607
 40
0.1210484640922676
 40
0.1681832722546602
 40
0.2459578826192831
 40
0.3195302166585345
 40
0.3729126374462528
 40
0.4380573787004521
 40
0.4999497934092202
 40
0.5619556407768566
 40
0.6269894937899231
 40
0.6807436578253344
 40
0.7540486973201219
 40
0.8314623449376537
 40
0.8789677612021276
 40
0.905200767905008
 40
0.9304142463695596
 40
0.9546194679448994
 40
0.9778185643246234
 40
0.9999999999999999
 40
0.9999999999999999
 40
0.9999999999999999
 40
0.9999999999999999
 10
163.1373513258432
 20
153.3708901516233
 30
0.0
 10
163.138218365515
 20
153.3052810081578
 30
0.0
 10
163.1399779522882
 20
153.1721325666415
 30
0.0
 10
163.1543200498134
 20
152.9699662190862
 30
0.0
 10
163.1780519366721
 20
152.7629923584635
 30
0.0
 10
163.2127721240159
 20
152.5518245794246
 30
0.0
 10
163.2589596488897
 20
152.3371287085519
 30
0.0
 10
163.3173232577778
 20
152.1196032978095
 30
0.0
 10
163.3885232315926
 20
151.9000091337865
 30
0.0
 10
163.5246188208492
 20
151.5447893759252
 30
0.0
 10
163.8307528954718
 20
150.9424687193918
 30
0.0
 10
164.4205072787847
 20
150.1945810475629
 30
0.0
 10
165.1923472164523
 20
149.5890332546762
 30
0.0
 10
166.0112668229157
 20
149.1745609056939
 30
0.0
 10
166.8421458698485
 20
148.9282445202071
 30
0.0
 10
167.7467981419784
 20
148.8429754531657
 30
0.0
 10
168.650968012158
 20
148.9280246782547
 30
0.0
 10
169.4835862629081
 20
149.1746891568893
 30
0.0
 10
170.30243483448
 20
149.5893850189868
 30
0.0
 10
171.0730155830792
 20
150.1944056237443
 30
0.0
 10
171.6624537051052
 20
150.9408817745361
 30
0.0
 10
171.9899224116732
 20
151.5843486965416
 30
0.0
 10
172.1518802109618
 20
152.0278308953721
 30
0.0
 10
172.2475654487164
 20
152.3762781398696
 30
0.0
 10
172.311896274778
 20
152.7172657262505
 30
0.0
 10
172.3499890018932
 20
153.0479781535899
 30
0.0
 10
172.3546073741858
 20
153.2648741199053
 30
0.0
 10
172.3568647767171
 20
153.3708901516087
 30
0.0
  0
SPLINE
  5
3FA
330
3E6
100
AcDbEntity
  8
0
  6
Continuous
 62
     7
370
    25
100
AcDbSpline
210
0.0
220
0.0
230
1.0
 70
     8
 71
     3
 72
    30
 73
    26
 74
     0
 42
0.000000001
 43
0.00000001
 40
0.0
 40
0.0
 40
0.0
 40
0.0
 40
0.0209354895224886
 40
0.0417007875686664
 40
0.0623856061832689
 40
0.0830807040270551
 40
0.1038767051313944
 40
0.1248629263259043
 40
0.1561288961146989
 40
0.187505306825272
 40
0.2499096636160831
 40
0.3124965221617954
 40
0.3749131879623174
 40
0.4374821953833249
 40
0.499972348033164
 40
0.5624776490729281
 40
0.6250559008819172
 40
0.6874850718670433
 40
0.7500979990171376
 40
0.8124966557190727
 40
0.8438892693880705
 40
0.8751729137387237
 40
0.9169324243242689
 40
0.9582996460180395
 40
1.0
 40
1.0
 40
1.0
 40
1.0
 10
165.6471080863419
 20
141.8708901515094
 30
0.0
 10
165.6479614192069
 20
141.9169136723461
 30
0.0
 10
165.6496611479135
 20
142.0085865736896
 30
0.0
 10
165.6634429298281
 20
142.1451552106247
 30
0.0
 10
165.6854830928391
 20
142.2800201575548
 30
0.0
 10
165.7165637868688
 20
142.4131749419703
 30
0.0
 10
165.7564998129536
 20
142.5446082805566
 30
0.0
 10
165.8129946268601
 20
142.6949092043029
 30
0.0
 10
165.8914454061736
 20
142.8613506440514
 30
0.0
 10
166.0327608402803
 20
143.0971862247609
 30
0.0
 10
166.2516991173267
 20
143.3646869945916
 30
0.0
 10
166.5717899331991
 20
143.6272086727681
 30
0.0
 10
166.9370528536313
 20
143.8233558236354
 30
0.0
 10
167.3338831593749
 20
143.943305885798
 30
0.0
 10
167.7467367988756
 20
143.9848249684409
 30
0.0
 10
168.1596206036778
 20
143.9434362035539
 30
0.0
 10
168.5565852626761
 20
143.8236317971013
 30
0.0
 10
168.9219681443165
 20
143.6274842070424
 30
0.0
 10
169.2422147096719
 20
143.3650379958273
 30
0.0
 10
169.4612341280371
 20
143.0974924219927
 30
0.0
 10
169.6025991322346
 20
142.8616157992436
 30
0.0
 10
169.70067807313
 20
142.6538233176005
 30
0.0
 10
169.7814167792006
 20
142.415185729581
 30
0.0
 10
169.8370128456286
 20
142.145338200588
 30
0.0
 10
169.843734021288
 20
141.9626170947042
 30
0.0
 10
169.8471080863416
 20
141.8708901515095
 30
0.0
  0
SPLINE
  5
3FB
330
3E6
100
AcDbEntity
  8
0
  6
Continuous
 62
     7
370
    25
100
AcDbSpline
210
0.0
220
0.0
230
1.0
 70
     8
 71
     3
 72
    30
 73
    26
 74
     0
 42
0.000000001
 43
0.00000001
 40
0.0
 40
0.0
 40
0.0
 40
0.0
 40
0.0209354895235469
 40
0.0417007875703539
 40
0.0623856061851702
 40
0.0830807040287602
 40
0.1038767051325111
 40
0.1248629263260682
 40
0.1561288961169931
 40
0.1875053068254328
 40
0.249909663616246
 40
0.3124965221619815
 40
0.3749131879625122
 40
0.4374821953835383
 40
0.4999723480333882
 40
0.562477649073171
 40
0.6250559008821717
 40
0.6874850718673158
 40
0.7500979990174143
 40
0.8124966557193599
 40
0.8438892694008433
 40
0.8751729137390682
 40
0.9169324243313955
 40
0.9582996460251749
 40
1.0
 40
1.0
 40
1.0
 40
1.0
 10
169.8471080863416
 20
141.8708901515095
 30
0.0
 10
169.8462547534769
 20
141.8248666306705
 30
0.0
 10
169.8445550247707
 20
141.7331937293233
 30
0.0
 10
169.8307732428565
 20
141.5966250923839
 30
0.0
 10
169.8087330798456
 20
141.4617601454524
 30
0.0
 10
169.7776523858159
 20
141.3286053610383
 30
0.0
 10
169.737716359731
 20
141.1971720224559
 30
0.0
 10
169.6812215458199
 20
141.04687109871
 30
0.0
 10
169.602770766506
 20
140.8804296589643
 30
0.0
 10
169.4614553324012
 20
140.6445940782536
 30
0.0
 10
169.2425170553564
 20
140.3770933084274
 30
0.0
 10
168.9224262394844
 20
140.1145716302506
 30
0.0
 10
168.5571633190522
 20
139.9184244793835
 30
0.0
 10
168.1603330133086
 20
139.7984744172209
 30
0.0
 10
167.7474793738078
 20
139.7569553345779
 30
0.0
 10
167.3345955690057
 20
139.798344099465
 30
0.0
 10
166.9376309100075
 20
139.9181485059177
 30
0.0
 10
166.5722480283671
 20
140.1142960959765
 30
0.0
 10
166.2520014630115
 20
140.3767423071915
 30
0.0
 10
166.0329820446301
 20
140.6442878810482
 30
0.0
 10
165.8916170404339
 20
140.8801645037984
 30
0.0
 10
165.793538099536
 20
141.0879569854572
 30
0.0
 10
165.7127993934914
 20
141.3265945734723
 30
0.0
 10
165.6572033270569
 20
141.5964421024622
 30
0.0
 10
165.650482151396
 20
141.7791632083304
 30
0.0
 10
165.6471080863419
 20
141.8708901515094
 30
0.0
  0
LINE
  5
42F
330
3E6
100
AcDbEntity
  8
0
  6
Continuous
 62
     7
370
    25
100
AcDbLine
 10
163.8471080863
 20
153.3708901515
 30
0.0
 11
164.8471080863
 21
153.3708901515
 31
0.0
  0
LINE
  5
430
330
3E6
100
AcDbEntity
  8
0
  6
Continuous
 62
     7
370
    25
100
AcDbLine
 10
171.6471080863
 20
153.3708901515
 30
0.0
 11
170.6471080863
 21
153.3708901515
 31
0.0
  0
LINE
  5
431
330
3E6
100
AcDbEntity
  8
0
  6
Continuous
 62
     7
370
    25
100
AcDbLine
 10
188.7471080863
 20
119.8708901515
 30
0.0
 11
146.7471080863
 21
119.8708901515
 31
0.0
  0
LINE
  5
432
330
3E6
100
AcDbEntity
  8
0
  6
Continuous
 62
     7
370
    25
100
AcDbLine
 10
146.7471080863
 20
163.3708901515
 30
0.0
 11
146.7471080863
 21
119.8708901515
 31
0.0
  0
LINE
  5
433
330
3E6
100
AcDbEntity
  8
0
  6
Continuous
 62
     7
370
    25
100
AcDbLine
 10
146.7471080863
 20
163.3708901515
 30
0.0
 11
188.7471080863
 21
163.3708901515
 31
0.0
  0
LINE
  5
434
330
3E6
100
AcDbEntity
  8
0
  6
Continuous
 62
     7
370
    25
100
AcDbLine
 10
188.7471080863
 20
163.3708901515
 30
0.0
 11
188.7471080863
 21
119.8708901515
 31
0.0
  0
LINE
  5
435
330
3E6
100
AcDbEntity
  8
0
  6
Continuous
 62
     7
370
    25
100
AcDbLine
 10
187.7471080863
 20
164.3708901515
 30
0.0
 11
147.7471080863
 21
164.3708901515
 31
0.0
  0
LINE
  5
436
330
3E6
100
AcDbEntity
  8
0
  6
Continuous
 62
     7
370
    25
100
AcDbLine
 10
188.2471080863
 20
119.3708901515
 30
0.0
 11
147.2471080863
 21
119.3708901515
 31
0.0
  0
LINE
  5
437
330
3E6
100
AcDbEntity
  8
0
  6
Continuous
 62
     7
370
    25
100
AcDbLine
 10
166.6741113153
 20
141.1128649237
 30
0.0
 11
166.6741113153
 21
140.110368971
 31
0.0
  0
LINE
  5
438
330
3E6
100
AcDbEntity
  8
0
  6
Continuous
 62
     7
370
    25
100
AcDbLine
 10
166.269339754
 20
140.3813735644
 30
0.0
 11
166.269339754
 21
141.3544078788
 31
0.0
  0
LINE
  5
439
330
3E6
100
AcDbEntity
  8
0
  6
Continuous
 62
     7
370
    25
100
AcDbLine
 10
169.2248764187
 20
140.3815024875
 30
0.0
 11
169.2248764187
 21
141.3544078788
 31
0.0
  0
LINE
  5
43A
330
3E6
100
AcDbEntity
  8
0
  6
Continuous
 62
     7
370
    25
100
AcDbLine
 10
168.8201048574
 20
141.1128649237
 30
0.0
 11
168.8201048574
 21
140.1102594714
 31
0.0
  0
LINE
  5
43B
330
3E6
100
AcDbEntity
  8
0
  6
Continuous
 62
     7
370
    25
100
AcDbLine
 10
167.248126785
 20
139.8384034089
 30
0.0
 11
167.248126785
 21
140.9211926884
 31
0.0
  0
LINE
  5
43C
330
3E6
100
AcDbEntity
  8
0
  6
Continuous
 62
     7
370
    25
100
AcDbLine
 10
167.7471080863
 20
140.8708901515
 30
0.0
 11
167.7471080863
 21
139.7708532426
 31
0.0
  0
LINE
  5
43D
330
3E6
100
AcDbEntity
  8
0
  6
Continuous
 62
     7
370
    25
100
AcDbLine
 10
168.2460893876
 20
139.8383026876
 30
0.0
 11
168.2460893876
 21
140.9211926884
 31
0.0
  0
LINE
  5
43E
330
3E6
100
AcDbEntity
  8
0
  6
Continuous
 62
     7
370
    25
100
AcDbLine
 10
146.7471080863
 20
118.5708901515
 30
0.0
 11
188.7471080863
 21
118.5708901515
 31
0.0
  0
LINE
  5
43F
330
3E6
100
AcDbEntity
  8
0
  6
Continuous
 62
     7
370
    25
100
AcDbLine
 10
188.7471080863
 20
118.5708901515
 30
0.0
 11
188.7471080863
 21
116.0708901515
 31
0.0
  0
LINE
  5
440
330
3E6
100
AcDbEntity
  8
0
  6
Continuous
 62
     7
370
    25
100
AcDbLine
 10
146.7471080863
 20
116.0708901515
 30
0.0
 11
146.7471080863
 21
118.5708901515
 31
0.0
  0
LINE
  5
441
330
3E6
100
AcDbEntity
  8
0
  6
Continuous
 62
     7
370
    25
100
AcDbLine
 10
147.2471080863
 20
119.0708901515
 30
0.0
 11
188.2471080863
 21
119.0708901515
 31
0.0
  0
LINE
  5
442
330
3E6
100
AcDbEntity
  8
0
  6
Continuous
 62
     7
370
    25
100
AcDbLine
 10
188.2471080863
 20
119.0708901515
 30
0.0
 11
188.2471080863
 21
119.3708901515
 31
0.0
  0
LINE
  5
443
330
3E6
100
AcDbEntity
  8
0
  6
Continuous
 62
     7
370
    25
100
AcDbLine
 10
147.2471080863
 20
119.0708901515
 30
0.0
 11
147.2471080863
 21
119.3708901515
 31
0.0
  0
LINE
  5
444
330
3E6
100
AcDbEntity
  8
0
  6
Continuous
 62
     7
370
    25
100
AcDbLine
 10
108.2471080863
 20
116.0708901515
 30
0.0
 11
227.2471080863
 21
116.0708901515
 31
0.0
  0
LINE
  5
445
330
3E6
100
AcDbEntity
  8
0
  6
Continuous
 62
     7
370
    25
100
AcDbLine
 10
212.7471080863
 20
114.0708901515
 30
0.0
 11
212.7471080863
 21
116.0708901515
 31
0.0
  0
LINE
  5
446
330
3E6
100
AcDbEntity
  8
0
  6
Continuous
 62
     7
370
    25
100
AcDbLine
 10
107.7471080863
 20
115.5708901515
 30
0.0
 11
227.7471080863
 21
115.5708901515
 31
0.0
  0
LINE
  5
447
330
3E6
100
AcDbEntity
  8
0
  6
Continuous
 62
     7
370
    25
100
AcDbLine
 10
122.7471080863
 20
116.0708901515
 30
0.0
 11
122.7471080863
 21
114.0708901515
 31
0.0
  0
LINE
  5
448
330
3E6
100
AcDbEntity
  8
0
  6
Continuous
 62
     7
370
    25
100
AcDbLine
 10
107.7471080863
 20
114.0708901515
 30
0.0
 11
227.7471080863
 21
114.0708901515
 31
0.0
  0
LINE
  5
449
330
3E6
100
AcDbEntity
  8
0
  6
Continuous
 62
     7
370
    25
100
AcDbLine
 10
107.7471080863
 20
114.0708901515
 30
0.0
 11
107.7471080863
 21
115.5708901515
 31
0.0
  0
LINE
  5
44A
330
3E6
100
AcDbEntity
  8
0
  6
Continuous
 62
     7
370
    25
100
AcDbLine
 10
227.7471080863
 20
115.5708901515
 30
0.0
 11
227.7471080863
 21
114.0708901515
 31
0.0
  0
LINE
  5
44B
330
3E6
100
AcDbEntity
  8
0
  6
Continuous
 62
     7
370
    25
100
AcDbLine
 10
168.4976634363
 20
142.0708901515
 30
0.0
 11
169.2482187862
 21
143.3708901515
 31
0.0
  0
LINE
  5
44C
330
3E6
100
AcDbEntity
  8
0
  6
Continuous
 62
     7
370
    25
100
AcDbLine
 10
166.2459973864
 20
143.3708901515
 30
0.0
 11
166.9965527364
 21
142.0708901515
 31
0.0
  0
LINE
  5
44D
330
3E6
100
AcDbEntity
  8
0
  6
Continuous
 62
     7
370
    25
100
AcDbLine
 10
168.4976634363
 20
142.0708901515
 30
0.0
 11
166.9965527364
 21
142.0708901515
 31
0.0
  0
ARC
  5
44E
330
3E6
100
AcDbEntity
  8
0
  6
Continuous
 62
     7
370
    25
100
AcDbCircle
 10
167.7471080863
 20
153.3708901515
 30
0.0
 40
2.900000005536156
100
AcDbArc
 50
180.0
 51
359.2567127631
  0
ARC
  5
44F
330
3E6
100
AcDbEntity
  8
0
  6
Continuous
 62
     7
370
    25
100
AcDbCircle
 10
167.7471080974
 20
153.3708901515
 30
0.0
 40
3.90000001103752
100
AcDbArc
 50
179.2567127636
 51
179.9999999994
  0
ARC
  5
450
330
3E6
100
AcDbEntity
  8
0
  6
Continuous
 62
     7
370
    25
100
AcDbCircle
 10
167.7471080863
 20
153.3708901515
 30
0.0
 40
3.900000000000205
100
AcDbArc
 50
360.0
 51
179.2567127621
  0
ARC
  5
451
330
3E6
100
AcDbEntity
  8
0
  6
Continuous
 62
     7
370
    25
100
AcDbCircle
 10
167.747108075
 20
153.3708901516
 30
0.0
 40
3.900000011306445
100
AcDbArc
 50
359.2567127637
 51
359.9999999993
  0
ARC
  5
452
330
3E6
100
AcDbEntity
  8
0
  6
Continuous
 62
     7
370
    25
100
AcDbCircle
 10
167.7471080863
 20
153.3708901515
 30
0.0
 40
3.900000000000232
100
AcDbArc
 50
180.0
 51
359.2567127621
  0
ARC
  5
453
330
3E6
100
AcDbEntity
  8
0
  6
Continuous
 62
     7
370
    25
100
AcDbCircle
 10
187.7471080863
 20
163.3708901515
 30
0.0
 40
1.000000000000028
100
AcDbArc
 50
0.0
 51
90.0
  0
ARC
  5
454
330
3E6
100
AcDbEntity
  8
0
  6
Continuous
 62
     7
370
    25
100
AcDbCircle
 10
147.7471080863
 20
163.3708901515
 30
0.0
 40
1.000000000000028
100
AcDbArc
 50
90.0
 51
180.0
  0
ARC
  5
455
330
3E6
100
AcDbEntity
  8
0
  6
Continuous
 62
     7
370
    25
100
AcDbCircle
 10
147.2471080863
 20
119.8708901515
 30
0.0
 40
0.5000000000000284
100
AcDbArc
 50
180.0
 51
270.0
  0
ARC
  5
456
330
3E6
100
AcDbEntity
  8
0
  6
Continuous
 62
     7
370
    25
100
AcDbCircle
 10
188.2471080863
 20
119.8708901515
 30
0.0
 40
0.5000000000000284
100
AcDbArc
 50
270.0
 51
360.0
  0
ARC
  5
457
330
3E6
100
AcDbEntity
  8
0
  6
Continuous
 62
     7
370
    25
100
AcDbCircle
 10
188.2471080863
 20
118.5708901515
 30
0.0
 40
0.5000000000000284
100
AcDbArc
 50
0.0
 51
90.0
  0
ARC
  5
458
330
3E6
100
AcDbEntity
  8
0
  6
Continuous
 62
     7
370
    25
100
AcDbCircle
 10
147.2471080863
 20
118.5708901515
 30
0.0
 40
0.5000000000000284
100
AcDbArc
 50
90.0
 51
180.0
  0
ARC
  5
459
330
3E6
100
AcDbEntity
  8
0
  6
Continuous
 62
     7
370
    25
100
AcDbCircle
 10
108.2471080863
 20
115.5708901515
 30
0.0
 40
0.5000000000000284
100
AcDbArc
 50
90.0
 51
180.0
  0
ARC
  5
45A
330
3E6
100
AcDbEntity
  8
0
  6
Continuous
 62
     7
370
    25
100
AcDbCircle
 10
227.2471080863
 20
115.5708901515
 30
0.0
 40
0.4999999999999716
100
AcDbArc
 50
360.0
 51
90.0
  0
ARC
  5
45B
330
3E6
100
AcDbEntity
  8
0
  6
Continuous
 62
     7
370
    25
100
AcDbCircle
 10
167.7471080863
 20
143.3708901515
 30
0.0
 40
2.500000000000717
100
AcDbArc
 50
144.9628109398
 51
35.0371890603
  0
VIEWPORT
  5
462
330
3E6
100
AcDbEntity
  8
0
100
AcDbViewport
 10
0.0
 20
0.0
 30
0.0
 40
205.6
 41
156.0
 68
     1
 69
     1
 12
167.7471080863
 22
-5.4956280674
 13
0.0
 23
0.0
 14
10.0
 24
10.0
 15
10.0
 25
10.0
 16
0.0
 26
0.0
 36
1.0
 17
0.0
 27
0.0
 37
0.0
 42
50.0
 43
0.0
 44
0.0
 45
219.3
 50
0.0
 51
0.0
 72
   100
 90
   557152
  1

281
     0
 71
     1
 74
     0
110
0.0
120
0.0
130
0.0
111
1.0
121
0.0
131
0.0
112
0.0
122
1.0
132
0.0
 79
     0
146
0.0
  0
ENDBLK
  5
3E9
330
3E6
100
AcDbEntity
  8
0
100
AcDbBlockEnd
  0
ENDSEC
  0
SECTION
  2
ENTITIES
  0
LINE
  5
BF
330
1F
100
AcDbEntity
  8
0
  6
Continuous
 62
     7
370
    25
100
AcDbLine
 10
163.8471080863
 20
-94.9956280674
 30
0.0
 11
171.6471080863
 21
-94.9956280674
 31
0.0
  0
LINE
  5
C0
330
1F
100
AcDbEntity
  8
0
  6
Continuous
 62
     7
370
    25
100
AcDbLine
 10
163.8471080863
 20
-94.9956280674
 30
0.0
 11
163.8471080863
 21
-66.1303076142
 31
0.0
  0
LINE
  5
C1
330
1F
100
AcDbEntity
  8
0
  6
Continuous
 62
     7
370
    25
100
AcDbLine
 10
171.6471080863
 20
-94.9956280674
 30
0.0
 11
171.6471080863
 21
-66.1303076142
 31
0.0
  0
LINE
  5
C2
330
1F
100
AcDbEntity
  8
0
  6
Continuous
 62
     7
370
    25
100
AcDbLine
 10
164.8471080863
 20
-95.9956280674
 30
0.0
 11
170.6471080863
 21
-95.9956280674
 31
0.0
  0
LINE
  5
C3
330
1F
100
AcDbEntity
  8
0
  6
Continuous
 62
     7
370
    25
100
AcDbLine
 10
171.5971054384
 20
-20.5859035855
 30
0.0
 11
163.8971054384
 21
-20.5859035855
 31
0.0
  0
LINE
  5
C4
330
1F
100
AcDbEntity
  8
0
  6
Continuous
 62
     7
370
    25
100
AcDbLine
 10
171.5971054384
 20
-20.5859035855
 30
0.0
 11
171.5971054384
 21
-24.8515606293
 31
0.0
  0
LINE
  5
C5
330
1F
100
AcDbEntity
  8
0
  6
Continuous
 62
     7
370
    25
100
AcDbLine
 10
163.8971054384
 20
-20.5859035855
 30
0.0
 11
163.8971054384
 21
-24.8515616169
 31
0.0
  0
LINE
  5
C6
330
1F
100
AcDbEntity
  8
0
  6
Continuous
 62
     7
370
    25
100
AcDbLine
 10
164.2821629097
 20
-20.0992946921
 30
0.0
 11
171.2120479672
 21
-20.0992946921
 31
0.0
  0
LINE
  5
C7
330
1F
100
AcDbEntity
  8
0
  6
Continuous
 62
     7
370
    25
100
AcDbLine
 10
167.7471054384
 20
-19.6956197822
 30
0.0
 11
167.7471054384
 21
-20.5859035855
 31
0.0
  0
LINE
  5
C8
330
1F
100
AcDbEntity
  8
0
  6
Continuous
 62
     7
370
    25
100
AcDbLine
 10
147.7477091478
 20
-45.3405729267
 30
0.0
 11
147.7471080863
 21
-45.4956280674
 31
0.0
  0
LINE
  5
C9
330
1F
100
AcDbEntity
  8
0
  6
Continuous
 62
     7
370
    25
100
AcDbLine
 10
187.7465070249
 20
-45.6506832081
 30
0.0
 11
187.7471080863
 21
-45.4956280674
 31
0.0
  0
LINE
  5
CA
330
1F
100
AcDbEntity
  8
0
  6
Continuous
 62
     7
370
    25
100
AcDbLine
 10
146.7471080863
 20
-45.4956280674
 30
0.0
 11
147.7471080863
 21
-45.4956280674
 31
0.0
  0
LINE
  5
CB
330
1F
100
AcDbEntity
  8
0
  6
Continuous
 62
     7
370
    25
100
AcDbLine
 10
188.7471080863
 20
-45.4956280674
 30
0.0
 11
187.7471080863
 21
-45.4956280674
 31
0.0
  0
LINE
  5
CC
330
1F
100
AcDbEntity
  8
0
  6
Continuous
 62
     7
370
    25
100
AcDbLine
 10
212.7471080863
 20
101.5043719326
 30
0.0
 11
212.7471080863
 21
102.0043719326
 31
0.0
  0
LINE
  5
CD
330
1F
100
AcDbEntity
  8
0
  6
Continuous
 62
     7
370
    25
100
AcDbLine
 10
227.2471080863
 20
87.0043719326
 30
0.0
 11
227.7471080863
 21
87.0043719283
 31
0.0
  0
LINE
  5
CE
330
1F
100
AcDbEntity
  8
0
  6
Continuous
 62
     7
370
    25
100
AcDbLine
 10
227.2471080863
 20
-97.9956280674
 30
0.0
 11
227.2471080863
 21
87.0043719326
 31
0.0
  0
LINE
  5
CF
330
1F
100
AcDbEntity
  8
0
  6
Continuous
 62
     7
370
    25
100
AcDbLine
 10
227.7471080863
 20
-97.9956280661
 30
0.0
 11
227.7471080863
 21
87.0043719283
 31
0.0
  0
LINE
  5
D0
330
1F
100
AcDbEntity
  8
0
  6
Continuous
 62
     7
370
    25
100
AcDbLine
 10
227.2471080863
 20
-97.9956280674
 30
0.0
 11
227.7471080863
 21
-97.9956280661
 31
0.0
  0
LINE
  5
D1
330
1F
100
AcDbEntity
  8
0
  6
Continuous
 62
     7
370
    25
100
AcDbLine
 10
122.7471080863
 20
-112.4956280674
 30
0.0
 11
212.7471080863
 21
-112.4956280674
 31
0.0
  0
LINE
  5
D2
330
1F
100
AcDbEntity
  8
0
  6
Continuous
 62
     7
370
    25
100
AcDbLine
 10
108.2471080863
 20
87.0043719326
 30
0.0
 11
108.2471080863
 21
-97.9956280674
 31
0.0
  0
LINE
  5
D3
330
1F
100
AcDbEntity
  8
0
  6
Continuous
 62
     7
370
    25
100
AcDbLine
 10
212.7471080863
 20
101.5043719326
 30
0.0
 11
122.7471080863
 21
101.5043719326
 31
0.0
  0
LINE
  5
D4
330
1F
100
AcDbEntity
  8
0
  6
Continuous
 62
     7
370
    25
100
AcDbLine
 10
122.7471080863
 20
101.5043719326
 30
0.0
 11
122.7471080907
 21
102.0043719326
 31
0.0
  0
LINE
  5
D5
330
1F
100
AcDbEntity
  8
0
  6
Continuous
 62
     7
370
    25
100
AcDbLine
 10
212.7471080863
 20
102.0043719326
 30
0.0
 11
122.7471080907
 21
102.0043719326
 31
0.0
  0
LINE
  5
D6
330
1F
100
AcDbEntity
  8
0
  6
Continuous
 62
     7
370
    25
100
AcDbLine
 10
212.7471080863
 20
-112.4956280674
 30
0.0
 11
212.747108082
 21
-112.9956280674
 31
0.0
  0
LINE
  5
D7
330
1F
100
AcDbEntity
  8
0
  6
Continuous
 62
     7
370
    25
100
AcDbLine
 10
122.7471080863
 20
-112.9956280674
 30
0.0
 11
212.747108082
 21
-112.9956280674
 31
0.0
  0
LINE
  5
D8
330
1F
100
AcDbEntity
  8
0
  6
Continuous
 62
     7
370
    25
100
AcDbLine
 10
122.7471080863
 20
-112.4956280674
 30
0.0
 11
122.7471080863
 21
-112.9956280674
 31
0.0
  0
LINE
  5
D9
330
1F
100
AcDbEntity
  8
0
  6
Continuous
 62
     7
370
    25
100
AcDbLine
 10
167.7471080863
 20
12.7543719326
 30
0.0
 11
167.747108089
 21
13.2543719326
 31
0.0
  0
LINE
  5
DA
330
1F
100
AcDbEntity
  8
0
  6
Continuous
 62
     7
370
    25
100
AcDbLine
 10
108.2471080863
 20
87.0043719326
 30
0.0
 11
107.7471080863
 21
87.0043719326
 31
0.0
  0
LINE
  5
DB
330
1F
100
AcDbEntity
  8
0
  6
Continuous
 62
     7
370
    25
100
AcDbLine
 10
108.2471080863
 20
-97.9956280674
 30
0.0
 11
107.7471080863
 21
-97.9956280631
 31
0.0
  0
LINE
  5
DC
330
1F
100
AcDbEntity
  8
0
  6
Continuous
 62
     7
370
    25
100
AcDbLine
 10
107.7471080863
 20
87.0043719326
 30
0.0
 11
107.7471080863
 21
-97.9956280631
 31
0.0
  0
LINE
  5
DD
330
1F
100
AcDbEntity
  8
0
  6
Continuous
 62
     7
370
    25
100
AcDbLine
 10
170.6471080863
 20
85.0043719326
 30
0.0
 11
164.8471080863
 21
85.0043719326
 31
0.0
  0
LINE
  5
DE
330
1F
100
AcDbEntity
  8
0
  6
Continuous
 62
     7
370
    25
100
AcDbLine
 10
171.6471080863
 20
84.0043719326
 30
0.0
 11
163.8471080863
 21
84.0043719326
 31
0.0
  0
LINE
  5
DF
330
1F
100
AcDbEntity
  8
0
  6
Continuous
 62
     7
370
    25
100
AcDbLine
 10
171.6471080863
 20
84.0043719326
 30
0.0
 11
171.6471080863
 21
55.1390514794
 31
0.0
  0
LINE
  5
E0
330
1F
100
AcDbEntity
  8
0
  6
Continuous
 62
     7
370
    25
100
AcDbLine
 10
163.8471080863
 20
84.0043719326
 30
0.0
 11
163.8471080863
 21
55.1390514794
 31
0.0
  0
LINE
  5
E1
330
1F
100
AcDbEntity
  8
0
  6
Continuous
 62
     7
370
    25
100
AcDbLine
 10
167.7471080863
 20
13.5043719326
 30
0.0
 11
167.7471080863
 21
14.5043719326
 31
0.0
  0
LINE
  5
E2
330
1F
100
AcDbEntity
  8
0
  6
Continuous
 62
     7
370
    25
100
AcDbLine
 10
167.7471080863
 20
55.5043719326
 30
0.0
 11
167.7471080863
 21
54.5043719326
 31
0.0
  0
ARC
  5
E3
330
1F
100
AcDbEntity
  8
0
  6
Continuous
 62
     7
370
    25
100
AcDbCircle
 10
171.0971054384
 20
-20.5859035855
 30
0.0
 40
0.4999999999999147
100
AcDbArc
 50
360.0
 51
76.7096953029
  0
ARC
  5
E4
330
1F
100
AcDbEntity
  8
0
  6
Continuous
 62
     7
370
    25
100
AcDbCircle
 10
167.7471054384
 20
-34.7681197821
 30
0.0
 40
15.07250000010344
100
AcDbArc
 50
76.709695303
 51
103.2903046971
  0
ARC
  5
E5
330
1F
100
AcDbEntity
  8
0
  6
Continuous
 62
     7
370
    25
100
AcDbCircle
 10
164.8471080863
 20
-94.9956280674
 30
0.0
 40
0.9999999999999716
100
AcDbArc
 50
180.0
 51
270.0
  0
ARC
  5
E6
330
1F
100
AcDbEntity
  8
0
  6
Continuous
 62
     7
370
    25
100
AcDbCircle
 10
170.6471080863
 20
-94.9956280674
 30
0.0
 40
1.0
100
AcDbArc
 50
270.0
 51
0.0
  0
ARC
  5
E7
330
1F
100
AcDbEntity
  8
0
  6
Continuous
 62
     7
370
    25
100
AcDbCircle
 10
164.3971054384
 20
-20.5859035855
 30
0.0
 40
0.5000000000008242
100
AcDbArc
 50
103.2903046971
 51
179.9999999999
  0
ARC
  5
E8
330
1F
100
AcDbEntity
  8
0
  6
Continuous
 62
     7
370
    25
100
AcDbCircle
 10
167.7471080863
 20
-45.4956280674
 30
0.0
 40
19.9999999999991
100
AcDbArc
 50
0.0
 51
179.5557952924
  0
ARC
  5
E9
330
1F
100
AcDbEntity
  8
0
  6
Continuous
 62
     7
370
    25
100
AcDbCircle
 10
167.7471080863
 20
-45.4956280674
 30
0.0
 40
19.99999999999909
100
AcDbArc
 50
180.0
 51
359.5557952924
  0
ARC
  5
EA
330
1F
100
AcDbEntity
  8
0
  6
Continuous
 62
     7
370
    25
100
AcDbCircle
 10
167.7471080863
 20
-45.4956280674
 30
0.0
 40
21.0
100
AcDbArc
 50
0.0
 51
180.0
  0
ARC
  5
EB
330
1F
100
AcDbEntity
  8
0
  6
Continuous
 62
     7
370
    25
100
AcDbCircle
 10
212.7471080863
 20
87.0043719326
 30
0.0
 40
14.5
100
AcDbArc
 50
0.0
 51
90.0
  0
ARC
  5
EC
330
1F
100
AcDbEntity
  8
0
  6
Continuous
 62
     7
370
    25
100
AcDbCircle
 10
212.7471080863
 20
87.0043719326
 30
0.0
 40
14.99999999999997
100
AcDbArc
 50
359.9999999836
 51
90.0
  0
ARC
  5
ED
330
1F
100
AcDbEntity
  8
0
  6
Continuous
 62
     7
370
    25
100
AcDbCircle
 10
212.7471080863
 20
-97.9956280674
 30
0.0
 40
14.5
100
AcDbArc
 50
270.0
 51
0.0
  0
ARC
  5
EE
330
1F
100
AcDbEntity
  8
0
  6
Continuous
 62
     7
370
    25
100
AcDbCircle
 10
122.7471080863
 20
-97.9956280674
 30
0.0
 40
14.50000000000001
100
AcDbArc
 50
180.0
 51
270.0
  0
ARC
  5
EF
330
1F
100
AcDbEntity
  8
0
  6
Continuous
 62
     7
370
    25
100
AcDbCircle
 10
122.7471080863
 20
87.0043719326
 30
0.0
 40
14.50000000000001
100
AcDbArc
 50
90.0
 51
180.0
  0
ARC
  5
F0
330
1F
100
AcDbEntity
  8
0
  6
Continuous
 62
     7
370
    25
100
AcDbCircle
 10
212.7471080863
 20
-97.9956280674
 30
0.0
 40
14.99999999999991
100
AcDbArc
 50
269.9999999835
 51
0.0000000049
  0
ARC
  5
F1
330
1F
100
AcDbEntity
  8
0
  6
Continuous
 62
     7
370
    25
100
AcDbCircle
 10
167.7471080863
 20
34.5043719326
 30
0.0
 40
21.25
100
AcDbArc
 50
100.5754059664
 51
79.4245940336
  0
ARC
  5
F2
330
1F
100
AcDbEntity
  8
0
  6
Continuous
 62
     7
370
    25
100
AcDbCircle
 10
167.7471080863
 20
-45.4956280674
 30
0.0
 40
21.25000000000002
100
AcDbArc
 50
280.5754059664
 51
79.5617138752
  0
ARC
  5
F3
330
1F
100
AcDbEntity
  8
0
  6
Continuous
 62
     7
370
    25
100
AcDbCircle
 10
167.7471080863
 20
-45.4956280674
 30
0.0
 40
21.25000000000001
100
AcDbArc
 50
100.4383006441
 51
259.4245940336
  0
ARC
  5
F4
330
1F
100
AcDbEntity
  8
0
  6
Continuous
 62
     7
370
    25
100
AcDbCircle
 10
122.7471080863
 20
87.0043719326
 30
0.0
 40
15.00000000000004
100
AcDbArc
 50
89.9999999835
 51
180.0
  0
ARC
  5
F5
330
1F
100
AcDbEntity
  8
0
  6
Continuous
 62
     7
370
    25
100
AcDbCircle
 10
122.7471080863
 20
-97.9956280674
 30
0.0
 40
15.00000000000001
100
AcDbArc
 50
179.9999999835
 51
270.0
  0
ARC
  5
F6
330
1F
100
AcDbEntity
  8
0
  6
Continuous
 62
     7
370
    25
100
AcDbCircle
 10
170.6471080863
 20
84.0043719326
 30
0.0
 40
1.000000000000014
100
AcDbArc
 50
0.0
 51
90.0
  0
ARC
  5
F7
330
1F
100
AcDbEntity
  8
0
  6
Continuous
 62
     7
370
    25
100
AcDbCircle
 10
164.8471080863
 20
84.0043719326
 30
0.0
 40
1.000000000000071
100
AcDbArc
 50
90.0
 51
180.0
  0
ARC
  5
F8
330
1F
100
AcDbEntity
  8
0
  6
Continuous
 62
     7
370
    25
100
AcDbCircle
 10
167.7471080863
 20
34.5043719326
 30
0.0
 40
20.0
100
AcDbArc
 50
90.0
 51
270.0
  0
ARC
  5
F9
330
1F
100
AcDbEntity
  8
0
  6
Continuous
 62
     7
370
    25
100
AcDbCircle
 10
167.7471080863
 20
34.5043719326
 30
0.0
 40
21.00000000000001
100
AcDbArc
 50
90.0
 51
270.0
  0
ARC
  5
FA
330
1F
100
AcDbEntity
  8
0
  6
Continuous
 62
     8
370
    25
100
AcDbCircle
 10
167.7471080863
 20
-45.4956280674
 30
0.0
 40
21.75000000000001
100
AcDbArc
 50
280.3295919284
 51
79.8042711404
  0
ARC
  5
FB
330
1F
100
AcDbEntity
  8
0
  6
Continuous
 62
     8
370
    25
100
AcDbCircle
 10
167.7471080863
 20
-45.4956280674
 30
0.0
 40
21.75000000000001
100
AcDbArc
 50
100.1957430341
 51
259.6704080716
  0
ARC
  5
FC
330
1F
100
AcDbEntity
  8
0
  6
Continuous
 62
     8
370
    25
100
AcDbCircle
 10
167.7471080863
 20
34.5043719326
 30
0.0
 40
21.75
100
AcDbArc
 50
100.3295919284
 51
79.6704080716
  0
SPLINE
  5
FF
330
1B
100
AcDbEntity
 67
     1
  8
0
  6
Continuous
 62
     7
370
    25
100
AcDbSpline
210
0.0
220
0.0
230
1.0
 70
     8
 71
     3
 72
     9
 73
     5
 74
     0
 42
0.000000001
 43
0.00000001
 40
0.0
 40
0.0
 40
0.0
 40
0.0
 40
0.5738527543889562
 40
0.9999999999999999
 40
0.9999999999999999
 40
0.9999999999999999
 40
0.9999999999999999
 10
-166.2471054384354
 20
-30.09561978219354
 30
0.0
 10
-166.2506796500275
 20
-30.00312706594168
 30
0.0
 10
-166.2569080972462
 20
-29.84194858323083
 30
0.0
 10
-166.3073835901715
 20
-29.69041981078154
 30
0.0
 10
-166.3288935824525
 20
-29.62584624177146
 30
0.0
  0
SPLINE
  5
106
330
1B
100
AcDbEntity
 67
     1
  8
0
  6
Continuous
 62
     7
370
    25
100
AcDbSpline
210
0.0
220
0.0
230
1.0
 70
     8
 71
     3
 72
    25
 73
    21
 74
     0
 42
0.000000001
 43
0.00000001
 40
0.0
 40
0.0
 40
0.0
 40
0.0
 40
0.0228401758594287
 40
0.0462589895052286
 40
0.0702774055573273
 40
0.0949148563765925
 40
0.1201893448714816
 40
0.1729563598776542
 40
0.2472221429474066
 40
0.3209046502499217
 40
0.3757318809446734
 40
0.4983022815580545
 40
0.6225185767337704
 40
0.6785544690399955
 40
0.7544310078415388
 40
0.8285275509445915
 40
0.8817933549928492
 40
0.9228085035392468
 40
0.9621819032116916
 40
0.9999999999999999
 40
0.9999999999999999
 40
0.9999999999999999
 40
0.9999999999999999
 10
-169.2471054384354
 20
-30.09561978219351
 30
0.0
 10
-169.2463489058308
 20
-30.13176968578443
 30
0.0
 10
-169.2448166744666
 20
-30.20498532217531
 30
0.0
 10
-169.2322196189679
 20
-30.31551878417267
 30
0.0
 10
-169.2114828963562
 20
-30.42743013135444
 30
0.0
 10
-169.1813841587411
 20
-30.5399678516098
 30
0.0
 10
-169.1276866902811
 20
-30.69203864466804
 30
0.0
 10
-169.0213398910091
 20
-30.90565166793908
 30
0.0
 10
-168.8287793900743
 20
-31.15396124244714
 30
0.0
 10
-168.5819726475434
 20
-31.35390945408244
 30
0.0
 10
-168.2335206080818
 20
-31.53608689738265
 30
0.0
 10
-167.7531033170617
 20
-31.63544763420804
 30
0.0
 10
-167.2693022951115
 20
-31.53966993372111
 30
0.0
 10
-166.9130658024163
 20
-31.35510935083057
 30
0.0
 10
-166.6624713850802
 20
-31.15147705525595
 30
0.0
 10
-166.4687379842589
 20
-30.89912657894138
 30
0.0
 10
-166.3522352716208
 20
-30.66233015819122
 30
0.0
 10
-166.2885965422441
 20
-30.4616867075596
 30
0.0
 10
-166.2534349809476
 20
-30.27772634892574
 30
0.0
 10
-166.2491867539552
 20
-30.15550108054359
 30
0.0
 10
-166.2471054384354
 20
-30.09561978219355
 30
0.0
  0
SPLINE
  5
132
330
1B
100
AcDbEntity
 67
     1
  8
0
  6
Continuous
 62
     7
370
    25
100
AcDbSpline
210
0.0
220
0.0
230
1.0
 70
    24
 71
     3
 72
     8
 73
     4
 74
     0
 42
0.000000001
 43
0.00000001
 40
0.0
 40
0.0
 40
0.0
 40
0.0
 40
1.0
 40
1.0
 40
1.0
 40
1.0
 10
-168.8201048574308
 20
-50.88994710959349
 30
0.0
 10
-168.9564358028378
 20
-50.71387325374747
 30
0.0
 10
-169.0910819394298
 20
-50.53997535863751
 30
0.0
 10
-169.2248764186737
 20
-50.36717739423349
 30
0.0
  0
SPLINE
  5
133
330
1B
100
AcDbEntity
 67
     1
  8
0
  6
Continuous
 62
     7
370
    25
100
AcDbSpline
210
0.0
220
0.0
230
1.0
 70
     8
 71
     3
 72
     9
 73
     5
 74
     0
 42
0.000000001
 43
0.00000001
 40
0.0
 40
0.0
 40
0.0
 40
0.0
 40
0.4886354363941874
 40
1.0
 40
1.0
 40
1.0
 40
1.0
 10
-169.224876418675
 20
-50.36717739423764
 30
0.0
 10
-169.3283246981681
 20
-50.40180065017594
 30
0.0
 10
-169.5400332067783
 20
-50.47265768050881
 30
0.0
 10
-169.7463392797317
 20
-50.54169917717606
 30
0.0
 10
-169.8518368946968
 20
-50.57700455198999
 30
0.0
  0
SPLINE
  5
134
330
1B
100
AcDbEntity
 67
     1
  8
0
  6
Continuous
 62
     7
370
    25
100
AcDbSpline
210
0.0
220
0.0
230
1.0
 70
    24
 71
     3
 72
     8
 73
     4
 74
     0
 42
0.000000001
 43
0.00000001
 40
0.0
 40
0.0
 40
0.0
 40
0.0
 40
1.0
 40
1.0
 40
1.0
 40
1.0
 10
-170.1468736414327
 20
-49.98527364009647
 30
0.0
 10
-170.3638410388028
 20
-50.01287537927448
 30
0.0
 10
-170.5820122987107
 20
-50.04063026911149
 30
0.0
 10
-170.8027443679498
 20
-50.06871093503946
 30
0.0
  0
SPLINE
  5
135
330
1B
100
AcDbEntity
 67
     1
  8
0
  6
Continuous
 62
     7
370
    25
100
AcDbSpline
210
0.0
220
0.0
230
1.0
 70
    24
 71
     3
 72
     8
 73
     4
 74
     0
 42
0.000000001
 43
0.00000001
 40
0.0
 40
0.0
 40
0.0
 40
0.0
 40
1.0
 40
1.0
 40
1.0
 40
1.0
 10
-169.8518668503064
 20
-50.57696572492332
 30
0.0
 10
-169.951377948986
 20
-50.37737733844705
 30
0.0
 10
-170.0493680447026
 20
-50.18083961195927
 30
0.0
 10
-170.1468736414327
 20
-49.98527364009647
 30
0.0
  0
SPLINE
  5
136
330
1B
100
AcDbEntity
 67
     1
  8
0
  6
Continuous
 62
     7
370
    25
100
AcDbSpline
210
0.0
220
0.0
230
1.0
 70
    24
 71
     3
 72
     8
 73
     4
 74
     0
 42
0.000000001
 43
0.00000001
 40
0.0
 40
0.0
 40
0.0
 40
0.0
 40
1.0
 40
1.0
 40
1.0
 40
1.0
 10
-164.6914718047338
 20
-50.06871093503953
 30
0.0
 10
-164.9123753581968
 20
-50.04060845356152
 30
0.0
 10
-165.1305489353077
 20
-50.01285326893852
 30
0.0
 10
-165.3473425312507
 20
-49.98527364009653
 30
0.0
  0
SPLINE
  5
137
330
1B
100
AcDbEntity
 67
     1
  8
0
  6
Continuous
 62
     7
370
    25
100
AcDbSpline
210
0.0
220
0.0
230
1.0
 70
    24
 71
     3
 72
     8
 73
     4
 74
     0
 42
0.000000001
 43
0.00000001
 40
0.0
 40
0.0
 40
0.0
 40
0.0
 40
1.0
 40
1.0
 40
1.0
 40
1.0
 10
-165.3473425312507
 20
-49.98527364009653
 30
0.0
 10
-165.444926291983
 20
-50.18099638469388
 30
0.0
 10
-165.5429153454703
 20
-50.37753202079496
 30
0.0
 10
-165.6423493223178
 20
-50.57696572480435
 30
0.0
  0
SPLINE
  5
138
330
1B
100
AcDbEntity
 67
     1
  8
0
  6
Continuous
 62
     7
370
    25
100
AcDbSpline
210
0.0
220
0.0
230
1.0
 70
    24
 71
     3
 72
     8
 73
     4
 74
     0
 42
0.000000001
 43
0.00000001
 40
0.0
 40
0.0
 40
0.0
 40
0.0
 40
1.0
 40
1.0
 40
1.0
 40
1.0
 10
-166.2693397540098
 20
-50.36717739423352
 30
0.0
 10
-166.4032413322668
 20
-50.54011367893251
 30
0.0
 10
-166.5378860777288
 20
-50.71400977736948
 30
0.0
 10
-166.6741113152528
 20
-50.88994710959351
 30
0.0
  0
SPLINE
  5
139
330
1B
100
AcDbEntity
 67
     1
  8
0
  6
Continuous
 62
     7
370
    25
100
AcDbSpline
210
0.0
220
0.0
230
1.0
 70
     8
 71
     3
 72
     9
 73
     5
 74
     0
 42
0.000000001
 43
0.00000001
 40
0.0
 40
0.0
 40
0.0
 40
0.0
 40
0.511364564550793
 40
1.0
 40
1.0
 40
1.0
 40
1.0
 10
-165.6423792780571
 20
-50.57700455208188
 30
0.0
 10
-165.7478768932096
 20
-50.54169917719115
 30
0.0
 10
-165.9541829661485
 20
-50.47265768050131
 30
0.0
 10
-166.1658914747297
 20
-50.40180065012851
 30
0.0
 10
-166.2693397540085
 20
-50.36717739423767
 30
0.0
  0
SPLINE
  5
13A
330
1B
100
AcDbEntity
 67
     1
  8
0
  6
Continuous
 62
     7
370
    25
100
AcDbSpline
210
0.0
220
0.0
230
1.0
 70
     8
 71
     3
 72
    14
 73
    10
 74
     0
 42
0.000000001
 43
0.00000001
 40
0.0
 40
0.0
 40
0.0
 40
0.0
 40
0.25
 40
0.25
 40
0.5
 40
0.5
 40
0.75
 40
0.75
 40
1.0
 40
1.0
 40
1.0
 40
1.0
 10
-166.4971080863133
 20
-37.59388775274043
 30
0.0
 10
-165.5660832581918
 20
-37.74116936271979
 30
0.0
 10
-164.6615971371825
 20
-38.05465223850499
 30
0.0
 10
-163.0166346338245
 20
-38.97557285148607
 30
0.0
 10
-162.2765837116337
 20
-39.58277239782448
 30
0.0
 10
-161.0521074004402
 20
-41.01617889152863
 30
0.0
 10
-160.567998715243
 20
-41.84201509649049
 30
0.0
 10
-159.9154146646253
 20
-43.61066725837718
 30
0.0
 10
-159.7471080863427
 20
-44.55302576352052
 30
0.0
 10
-159.7471080863417
 20
-45.49562806736704
 30
0.0
  0
SPLINE
  5
13B
330
1B
100
AcDbEntity
 67
     1
  8
0
  6
Continuous
 62
     7
370
    25
100
AcDbSpline
210
0.0
220
0.0
230
1.0
 70
     8
 71
     3
 72
    14
 73
    10
 74
     0
 42
0.000000001
 43
0.00000001
 40
0.0
 40
0.0
 40
0.0
 40
0.0
 40
0.25
 40
0.25
 40
0.5
 40
0.5
 40
0.75
 40
0.75
 40
1.0
 40
1.0
 40
1.0
 40
1.0
 10
-159.7471080863417
 20
-45.49562806736704
 30
0.0
 10
-159.7471080863407
 20
-46.43823022688367
 30
0.0
 10
-159.9154146125616
 20
-47.38058858788366
 30
0.0
 10
-160.5679984675268
 20
-49.14924051427851
 30
0.0
 10
-161.0521070092869
 20
-49.97507662823214
 30
0.0
 10
-162.2765829778248
 20
-51.40848303500414
 30
0.0
 10
-163.0166337010791
 20
-52.01568258566749
 30
0.0
 10
-164.6615958030299
 20
-52.93660332473642
 30
0.0
 10
-165.5660817219322
 20
-53.25008632239734
 30
0.0
 10
-166.4971063756105
 20
-53.39736811138916
 30
0.0
  0
SPLINE
  5
13C
330
1B
100
AcDbEntity
 67
     1
  8
0
  6
Continuous
 62
     7
370
    25
100
AcDbSpline
210
0.0
220
0.0
230
1.0
 70
     8
 71
     3
 72
     8
 73
     4
 74
     0
 42
0.000000001
 43
0.00000001
 40
0.0
 40
0.0
 40
0.0
 40
0.0
 40
1.0
 40
1.0
 40
1.0
 40
1.0
 10
-166.4971073621678
 20
-53.39736187495751
 30
0.0
 10
-166.4971073621678
 20
-53.14413822189548
 30
0.0
 10
-166.4971076993818
 20
-52.89070956035253
 30
0.0
 10
-166.4971076993818
 20
-52.63703312135551
 30
0.0
  0
SPLINE
  5
13D
330
1B
100
AcDbEntity
 67
     1
  8
0
  6
Continuous
 62
     7
370
    25
100
AcDbSpline
210
0.0
220
0.0
230
1.0
 70
     8
 71
     3
 72
     8
 73
     4
 74
     0
 42
0.000000001
 43
0.00000001
 40
0.0
 40
0.0
 40
0.0
 40
0.0
 40
1.0
 40
1.0
 40
1.0
 40
1.0
 10
-166.4971077720366
 20
-38.35419272749051
 30
0.0
 10
-166.4971077720366
 20
-38.10052010901147
 30
0.0
 10
-166.4971077874196
 20
-37.84709698249154
 30
0.0
 10
-166.4971077874196
 20
-37.59387960502151
 30
0.0
  0
SPLINE
  5
13E
330
1B
100
AcDbEntity
 67
     1
  8
0
  6
Continuous
 62
     7
370
    25
100
AcDbSpline
210
0.0
220
0.0
230
1.0
 70
     8
 71
     3
 72
    14
 73
    10
 74
     0
 42
0.000000001
 43
0.00000001
 40
0.0
 40
0.0
 40
0.0
 40
0.0
 40
0.25
 40
0.25
 40
0.5
 40
0.5
 40
0.75
 40
0.75
 40
1.0
 40
1.0
 40
1.0
 40
1.0
 10
-168.9971080863598
 20
-53.3973683820122
 30
0.0
 10
-169.9281329144829
 20
-53.25008677203381
 30
0.0
 10
-170.8326190354941
 20
-52.93660389624906
 30
0.0
 10
-172.4775815388552
 20
-52.01568328326774
 30
0.0
 10
-173.2176324610477
 20
-51.40848373692871
 30
0.0
 10
-174.4421087722433
 20
-49.97507724322254
 30
0.0
 10
-174.9262174574413
 20
-49.14924103825931
 30
0.0
 10
-175.5788015080594
 20
-47.38058887636962
 30
0.0
 10
-175.7471080863416
 20
-46.43823037122465
 30
0.0
 10
-175.7471080863417
 20
-45.49562806737664
 30
0.0
  0
SPLINE
  5
140
330
1B
100
AcDbEntity
 67
     1
  8
0
  6
Continuous
 62
     7
370
    25
100
AcDbSpline
210
0.0
220
0.0
230
1.0
 70
     8
 71
     3
 72
     8
 73
     4
 74
     0
 42
0.000000001
 43
0.00000001
 40
0.0
 40
0.0
 40
0.0
 40
0.0
 40
1.0
 40
1.0
 40
1.0
 40
1.0
 10
-168.9971074444306
 20
-37.59388703621048
 30
0.0
 10
-168.9971074444306
 20
-37.84711029100751
 30
0.0
 10
-168.9971072120976
 20
-38.10053279148846
 30
0.0
 10
-168.9971072120976
 20
-38.35420227185649
 30
0.0
  0
SPLINE
  5
141
330
1B
100
AcDbEntity
 67
     1
  8
0
  6
Continuous
 62
     7
370
    25
100
AcDbSpline
210
0.0
220
0.0
230
1.0
 70
     8
 71
     3
 72
     8
 73
     4
 74
     0
 42
0.000000001
 43
0.00000001
 40
0.0
 40
0.0
 40
0.0
 40
0.0
 40
1.0
 40
1.0
 40
1.0
 40
1.0
 10
-168.9971081949088
 20
-52.63705888322349
 30
0.0
 10
-168.9971081949088
 20
-52.8907323129145
 30
0.0
 10
-168.9971082556698
 20
-53.14415387738246
 30
0.0
 10
-168.9971082556698
 20
-53.39737200394649
 30
0.0
  0
SPLINE
  5
142
330
1B
100
AcDbEntity
 67
     1
  8
0
  6
Continuous
 62
     7
370
    25
100
AcDbSpline
210
0.0
220
0.0
230
1.0
 70
    24
 71
     3
 72
     8
 73
     4
 74
     0
 42
0.000000001
 43
0.00000001
 40
0.0
 40
0.0
 40
0.0
 40
0.0
 40
1.0
 40
1.0
 40
1.0
 40
1.0
 10
-162.6657706575288
 20
-47.60038694538355
 30
0.0
 10
-162.8650581516678
 20
-47.69974802467556
 30
0.0
 10
-163.0618828056297
 20
-47.79788117715555
 30
0.0
 10
-163.2574625136207
 20
-47.89539362246654
 30
0.0
  0
SPLINE
  5
143
330
1B
100
AcDbEntity
 67
     1
  8
0
  6
Continuous
 62
     7
370
    25
100
AcDbSpline
210
0.0
220
0.0
230
1.0
 70
    24
 71
     3
 72
     8
 73
     4
 74
     0
 42
0.000000001
 43
0.00000001
 40
0.0
 40
0.0
 40
0.0
 40
0.0
 40
1.0
 40
1.0
 40
1.0
 40
1.0
 10
-163.2574625136207
 20
-47.89539362246654
 30
0.0
 10
-163.2298607744427
 20
-48.11236101983658
 30
0.0
 10
-163.2021058846058
 20
-48.33053227974452
 30
0.0
 10
-163.1740252186777
 20
-48.55126434898354
 30
0.0
  0
SPLINE
  5
144
330
1B
100
AcDbEntity
 67
     1
  8
0
  6
Continuous
 62
     7
370
    25
100
AcDbSpline
210
0.0
220
0.0
230
1.0
 70
    24
 71
     3
 72
     8
 73
     4
 74
     0
 42
0.000000001
 43
0.00000001
 40
0.0
 40
0.0
 40
0.0
 40
0.0
 40
1.0
 40
1.0
 40
1.0
 40
1.0
 10
-162.3527890441237
 20
-44.42263129628655
 30
0.0
 10
-162.4632884816227
 20
-44.61596521389858
 30
0.0
 10
-162.5724223419556
 20
-44.80690986700803
 30
0.0
 10
-162.6808659139817
 20
-44.99664676607255
 30
0.0
  0
SPLINE
  5
145
330
1B
100
AcDbEntity
 67
     1
  8
0
  6
Continuous
 62
     7
370
    25
100
AcDbSpline
210
0.0
220
0.0
230
1.0
 70
    24
 71
     3
 72
     8
 73
     4
 74
     0
 42
0.000000001
 43
0.00000001
 40
0.0
 40
0.0
 40
0.0
 40
0.0
 40
1.0
 40
1.0
 40
1.0
 40
1.0
 10
-162.6808659139817
 20
-44.99664676607255
 30
0.0
 10
-162.5373752790886
 20
-45.16171385918646
 30
0.0
 10
-162.3930884738928
 20
-45.3276968414643
 30
0.0
 10
-162.2471080863407
 20
-45.49562806737558
 30
0.0
  0
SPLINE
  5
146
330
1B
100
AcDbEntity
 67
     1
  8
0
  6
Continuous
 62
     7
370
    25
100
AcDbSpline
210
0.0
220
0.0
230
1.0
 70
    24
 71
     3
 72
     8
 73
     4
 74
     0
 42
0.000000001
 43
0.00000001
 40
0.0
 40
0.0
 40
0.0
 40
0.0
 40
1.0
 40
1.0
 40
1.0
 40
1.0
 10
-162.6657706575287
 20
-43.39086918936756
 30
0.0
 10
-162.7364293030787
 20
-43.60204562080957
 30
0.0
 10
-162.8062147330227
 20
-43.81061228590852
 30
0.0
 10
-162.8755587594837
 20
-44.01785973504355
 30
0.0
  0
SPLINE
  5
147
330
1B
100
AcDbEntity
 67
     1
  8
0
  6
Continuous
 62
     7
370
    25
100
AcDbSpline
210
0.0
220
0.0
230
1.0
 70
    24
 71
     3
 72
     8
 73
     4
 74
     0
 42
0.000000001
 43
0.00000001
 40
0.0
 40
0.0
 40
0.0
 40
0.0
 40
1.0
 40
1.0
 40
1.0
 40
1.0
 10
-162.8755587594837
 20
-44.01785973504355
 30
0.0
 10
-162.7026222645717
 20
-44.15176147606557
 30
0.0
 10
-162.5287262164147
 20
-44.28640618259354
 30
0.0
 10
-162.3527890441237
 20
-44.42263129628655
 30
0.0
  0
SPLINE
  5
148
330
1B
100
AcDbEntity
 67
     1
  8
0
  6
Continuous
 62
     7
370
    25
100
AcDbSpline
210
0.0
220
0.0
230
1.0
 70
    24
 71
     3
 72
     8
 73
     4
 74
     0
 42
0.000000001
 43
0.00000001
 40
0.0
 40
0.0
 40
0.0
 40
0.0
 40
1.0
 40
1.0
 40
1.0
 40
1.0
 10
-163.1740252186777
 20
-48.55126434898354
 30
0.0
 10
-163.3888678444418
 20
-48.60983717159255
 30
0.0
 10
-163.6010553961877
 20
-48.66768613793754
 30
0.0
 10
-163.8119008292957
 20
-48.72516920074854
 30
0.0
  0
SPLINE
  5
149
330
1B
100
AcDbEntity
 67
     1
  8
0
  6
Continuous
 62
     7
370
    25
100
AcDbSpline
210
0.0
220
0.0
230
1.0
 70
    24
 71
     3
 72
     8
 73
     4
 74
     0
 42
0.000000001
 43
0.00000001
 40
0.0
 40
0.0
 40
0.0
 40
0.0
 40
1.0
 40
1.0
 40
1.0
 40
1.0
 10
-163.8119008292957
 20
-48.72516920074854
 30
0.0
 10
-163.8271576892177
 20
-48.94335246258955
 30
0.0
 10
-163.8424992031557
 20
-49.16274633331252
 30
0.0
 10
-163.8580207898158
 20
-49.38471536390153
 30
0.0
  0
SPLINE
  5
14A
330
1B
100
AcDbEntity
 67
     1
  8
0
  6
Continuous
 62
     7
370
    25
100
AcDbSpline
210
0.0
220
0.0
230
1.0
 70
    24
 71
     3
 72
     8
 73
     4
 74
     0
 42
0.000000001
 43
0.00000001
 40
0.0
 40
0.0
 40
0.0
 40
0.0
 40
1.0
 40
1.0
 40
1.0
 40
1.0
 10
-162.3527890441237
 20
-46.56862483846456
 30
0.0
 10
-162.5288628999697
 20
-46.70495578387157
 30
0.0
 10
-162.7027607950797
 20
-46.83960192046354
 30
0.0
 10
-162.8755587594837
 20
-46.97339639970755
 30
0.0
  0
SPLINE
  5
14B
330
1B
100
AcDbEntity
 67
     1
  8
0
  6
Continuous
 62
     7
370
    25
100
AcDbSpline
210
0.0
220
0.0
230
1.0
 70
    24
 71
     3
 72
     8
 73
     4
 74
     0
 42
0.000000001
 43
0.00000001
 40
0.0
 40
0.0
 40
0.0
 40
0.0
 40
1.0
 40
1.0
 40
1.0
 40
1.0
 10
-162.8755587594837
 20
-46.97339639970755
 30
0.0
 10
-162.8061591405657
 20
-47.18080999719156
 30
0.0
 10
-162.7363744518047
 20
-47.38937444712354
 30
0.0
 10
-162.6657706575288
 20
-47.60038694538355
 30
0.0
  0
SPLINE
  5
14C
330
1B
100
AcDbEntity
 67
     1
  8
0
  6
Continuous
 62
     7
370
    25
100
AcDbSpline
210
0.0
220
0.0
230
1.0
 70
    24
 71
     3
 72
     8
 73
     4
 74
     0
 42
0.000000001
 43
0.00000001
 40
0.0
 40
0.0
 40
0.0
 40
0.0
 40
1.0
 40
1.0
 40
1.0
 40
1.0
 10
-162.6808659139817
 20
-45.99460936867855
 30
0.0
 10
-162.5723354037557
 20
-46.18449837804388
 30
0.0
 10
-162.4632027025237
 20
-46.37544100314852
 30
0.0
 10
-162.3527890441237
 20
-46.56862483846456
 30
0.0
  0
SPLINE
  5
14D
330
1B
100
AcDbEntity
 67
     1
  8
0
  6
Continuous
 62
     7
370
    25
100
AcDbSpline
210
0.0
220
0.0
230
1.0
 70
    24
 71
     3
 72
     8
 73
     4
 74
     0
 42
0.000000001
 43
0.00000001
 40
0.0
 40
0.0
 40
0.0
 40
0.0
 40
1.0
 40
1.0
 40
1.0
 40
1.0
 10
-162.2471080863407
 20
-45.49562806737558
 30
0.0
 10
-162.3932018843778
 20
-45.66368975712523
 30
0.0
 10
-162.5374902220427
 20
-45.82967450231124
 30
0.0
 10
-162.6808659139817
 20
-45.99460936867855
 30
0.0
  0
SPLINE
  5
14E
330
1B
100
AcDbEntity
 67
     1
  8
0
  6
Continuous
 62
     7
370
    25
100
AcDbSpline
210
0.0
220
0.0
230
1.0
 70
    24
 71
     3
 72
     8
 73
     4
 74
     0
 42
0.000000001
 43
0.00000001
 40
0.0
 40
0.0
 40
0.0
 40
0.0
 40
1.0
 40
1.0
 40
1.0
 40
1.0
 10
-163.8580207898158
 20
-49.38471536390153
 30
0.0
 10
-164.0801622655948
 20
-49.40024900910354
 30
0.0
 10
-164.2995584665048
 20
-49.41559068598654
 30
0.0
 10
-164.5175669529687
 20
-49.43083532442154
 30
0.0
  0
SPLINE
  5
14F
330
1B
100
AcDbEntity
 67
     1
  8
0
  6
Continuous
 62
     7
370
    25
100
AcDbSpline
210
0.0
220
0.0
230
1.0
 70
    24
 71
     3
 72
     8
 73
     4
 74
     0
 42
0.000000001
 43
0.00000001
 40
0.0
 40
0.0
 40
0.0
 40
0.0
 40
1.0
 40
1.0
 40
1.0
 40
1.0
 10
-164.5175669529687
 20
-49.43083532442154
 30
0.0
 10
-164.5750960994188
 20
-49.64184979036354
 30
0.0
 10
-164.6329444513578
 20
-49.8540350884825
 30
0.0
 10
-164.6914718047338
 20
-50.06871093503953
 30
0.0
  0
SPLINE
  5
150
330
1B
100
AcDbEntity
 67
     1
  8
0
  6
Continuous
 62
     7
370
    25
100
AcDbSpline
210
0.0
220
0.0
230
1.0
 70
    24
 71
     3
 72
     8
 73
     4
 74
     0
 42
0.000000001
 43
0.00000001
 40
0.0
 40
0.0
 40
0.0
 40
0.0
 40
1.0
 40
1.0
 40
1.0
 40
1.0
 10
-163.1740252186777
 20
-42.43999178576755
 30
0.0
 10
-163.2021277001557
 20
-42.66089533923058
 30
0.0
 10
-163.2298828847787
 20
-42.87906891634154
 30
0.0
 10
-163.2574625136207
 20
-43.09586251228455
 30
0.0
  0
SPLINE
  5
151
330
1B
100
AcDbEntity
 67
     1
  8
0
  6
Continuous
 62
     7
370
    25
100
AcDbSpline
210
0.0
220
0.0
230
1.0
 70
    24
 71
     3
 72
     8
 73
     4
 74
     0
 42
0.000000001
 43
0.00000001
 40
0.0
 40
0.0
 40
0.0
 40
0.0
 40
1.0
 40
1.0
 40
1.0
 40
1.0
 10
-163.2574625136207
 20
-43.09586251228455
 30
0.0
 10
-163.0617260111817
 20
-43.19345313242356
 30
0.0
 10
-162.8649034476767
 20
-43.29158524264054
 30
0.0
 10
-162.6657706575287
 20
-43.39086918936756
 30
0.0
  0
SPLINE
  5
152
330
1B
100
AcDbEntity
 67
     1
  8
0
  6
Continuous
 62
     7
370
    25
100
AcDbSpline
210
0.0
220
0.0
230
1.0
 70
    24
 71
     3
 72
     8
 73
     4
 74
     0
 42
0.000000001
 43
0.00000001
 40
0.0
 40
0.0
 40
0.0
 40
0.0
 40
1.0
 40
1.0
 40
1.0
 40
1.0
 10
-164.6914718047337
 20
-40.92254519971153
 30
0.0
 10
-164.6328989821247
 20
-41.13738782547555
 30
0.0
 10
-164.5750500157797
 20
-41.34957537722151
 30
0.0
 10
-164.5175669529687
 20
-41.56042081032953
 30
0.0
  0
SPLINE
  5
153
330
1B
100
AcDbEntity
 67
     1
  8
0
  6
Continuous
 62
     7
370
    25
100
AcDbSpline
210
0.0
220
0.0
230
1.0
 70
    24
 71
     3
 72
     8
 73
     4
 74
     0
 42
0.000000001
 43
0.00000001
 40
0.0
 40
0.0
 40
0.0
 40
0.0
 40
1.0
 40
1.0
 40
1.0
 40
1.0
 10
-164.5175669529687
 20
-41.56042081032953
 30
0.0
 10
-164.2993836911277
 20
-41.57567767025153
 30
0.0
 10
-164.0799898204046
 20
-41.59101918418954
 30
0.0
 10
-163.8580207898157
 20
-41.60654077084954
 30
0.0
  0
SPLINE
  5
154
330
1B
100
AcDbEntity
 67
     1
  8
0
  6
Continuous
 62
     7
370
    25
100
AcDbSpline
210
0.0
220
0.0
230
1.0
 70
    24
 71
     3
 72
     8
 73
     4
 74
     0
 42
0.000000001
 43
0.00000001
 40
0.0
 40
0.0
 40
0.0
 40
0.0
 40
1.0
 40
1.0
 40
1.0
 40
1.0
 10
-165.6423492083337
 20
-40.41429063856252
 30
0.0
 10
-165.5429881290417
 20
-40.61357813270154
 30
0.0
 10
-165.4448549765617
 20
-40.8104027866635
 30
0.0
 10
-165.3473425312507
 20
-41.00598249465453
 30
0.0
  0
SPLINE
  5
155
330
1B
100
AcDbEntity
 67
     1
  8
0
  6
Continuous
 62
     7
370
    25
100
AcDbSpline
210
0.0
220
0.0
230
1.0
 70
    24
 71
     3
 72
     8
 73
     4
 74
     0
 42
0.000000001
 43
0.00000001
 40
0.0
 40
0.0
 40
0.0
 40
0.0
 40
1.0
 40
1.0
 40
1.0
 40
1.0
 10
-165.3473425312507
 20
-41.00598249465453
 30
0.0
 10
-165.1303751338806
 20
-40.97838075547651
 30
0.0
 10
-164.9122038739727
 20
-40.95062586563953
 30
0.0
 10
-164.6914718047337
 20
-40.92254519971153
 30
0.0
  0
SPLINE
  5
156
330
1B
100
AcDbEntity
 67
     1
  8
0
  6
Continuous
 62
     7
370
    25
100
AcDbSpline
210
0.0
220
0.0
230
1.0
 70
    24
 71
     3
 72
     8
 73
     4
 74
     0
 42
0.000000001
 43
0.00000001
 40
0.0
 40
0.0
 40
0.0
 40
0.0
 40
1.0
 40
1.0
 40
1.0
 40
1.0
 10
-163.8580207898157
 20
-41.60654077084954
 30
0.0
 10
-163.8424871446136
 20
-41.82868224662857
 30
0.0
 10
-163.8271454677307
 20
-42.04807844753851
 30
0.0
 10
-163.8119008292957
 20
-42.26608693400254
 30
0.0
  0
SPLINE
  5
157
330
1B
100
AcDbEntity
 67
     1
  8
0
  6
Continuous
 62
     7
370
    25
100
AcDbSpline
210
0.0
220
0.0
230
1.0
 70
    24
 71
     3
 72
     8
 73
     4
 74
     0
 42
0.000000001
 43
0.00000001
 40
0.0
 40
0.0
 40
0.0
 40
0.0
 40
1.0
 40
1.0
 40
1.0
 40
1.0
 10
-163.8119008292957
 20
-42.26608693400254
 30
0.0
 10
-163.6008863633536
 20
-42.32361608045255
 30
0.0
 10
-163.3887010652347
 20
-42.38146443239154
 30
0.0
 10
-163.1740252186777
 20
-42.43999178576755
 30
0.0
  0
SPLINE
  5
158
330
1B
100
AcDbEntity
 67
     1
  8
0
  6
Continuous
 62
     7
370
    25
100
AcDbSpline
210
0.0
220
0.0
230
1.0
 70
    24
 71
     3
 72
     8
 73
     4
 74
     0
 42
0.000000001
 43
0.00000001
 40
0.0
 40
0.0
 40
0.0
 40
0.0
 40
1.0
 40
1.0
 40
1.0
 40
1.0
 10
-167.2481267850387
 20
-50.56187023973551
 30
0.0
 10
-167.4131939332534
 20
-50.70536092252952
 30
0.0
 10
-167.5791768976008
 20
-50.84964771213748
 30
0.0
 10
-167.7471080863418
 20
-50.9956280673765
 30
0.0
  0
SPLINE
  5
159
330
1B
100
AcDbEntity
 67
     1
  8
0
  6
Continuous
 62
     7
370
    25
100
AcDbSpline
210
0.0
220
0.0
230
1.0
 70
    24
 71
     3
 72
     8
 73
     4
 74
     0
 42
0.000000001
 43
0.00000001
 40
0.0
 40
0.0
 40
0.0
 40
0.0
 40
1.0
 40
1.0
 40
1.0
 40
1.0
 10
-166.6741113152528
 20
-50.88994710959351
 30
0.0
 10
-166.8674457735098
 20
-50.77944736309149
 30
0.0
 10
-167.0583905219979
 20
-50.67031344824552
 30
0.0
 10
-167.2481267850387
 20
-50.56187023973551
 30
0.0
  0
SPLINE
  5
15A
330
1B
100
AcDbEntity
 67
     1
  8
0
  6
Continuous
 62
     7
370
    25
100
AcDbSpline
210
0.0
220
0.0
230
1.0
 70
    24
 71
     3
 72
     8
 73
     4
 74
     0
 42
0.000000001
 43
0.00000001
 40
0.0
 40
0.0
 40
0.0
 40
0.0
 40
1.0
 40
1.0
 40
1.0
 40
1.0
 10
-166.6741113152526
 20
-40.10130902515751
 30
0.0
 10
-166.5377803698457
 20
-40.27738288100353
 30
0.0
 10
-166.4031342332536
 20
-40.45128077611349
 30
0.0
 10
-166.2693397540096
 20
-40.62407874051752
 30
0.0
  0
SPLINE
  5
15B
330
1B
100
AcDbEntity
 67
     1
  8
0
  6
Continuous
 62
     7
370
    25
100
AcDbSpline
210
0.0
220
0.0
230
1.0
 70
    24
 71
     3
 72
     8
 73
     4
 74
     0
 42
0.000000001
 43
0.00000001
 40
0.0
 40
0.0
 40
0.0
 40
0.0
 40
1.0
 40
1.0
 40
1.0
 40
1.0
 10
-166.2693397540096
 20
-40.62407874051752
 30
0.0
 10
-166.0619261565257
 20
-40.55467912159951
 30
0.0
 10
-165.8533617065937
 20
-40.48489443283852
 30
0.0
 10
-165.6423492083337
 20
-40.41429063856252
 30
0.0
  0
SPLINE
  5
15C
330
1B
100
AcDbEntity
 67
     1
  8
0
  6
Continuous
 62
     7
370
    25
100
AcDbSpline
210
0.0
220
0.0
230
1.0
 70
    24
 71
     3
 72
     8
 73
     4
 74
     0
 42
0.000000001
 43
0.00000001
 40
0.0
 40
0.0
 40
0.0
 40
0.0
 40
1.0
 40
1.0
 40
1.0
 40
1.0
 10
-167.7471080863416
 20
-39.9956280673745
 30
0.0
 10
-167.579046396592
 20
-40.14172186541153
 30
0.0
 10
-167.413061651406
 20
-40.28601020307649
 30
0.0
 10
-167.2481267850386
 20
-40.42938589501551
 30
0.0
  0
SPLINE
  5
15D
330
1B
100
AcDbEntity
 67
     1
  8
0
  6
Continuous
 62
     7
370
    25
100
AcDbSpline
210
0.0
220
0.0
230
1.0
 70
    24
 71
     3
 72
     8
 73
     4
 74
     0
 42
0.000000001
 43
0.00000001
 40
0.0
 40
0.0
 40
0.0
 40
0.0
 40
1.0
 40
1.0
 40
1.0
 40
1.0
 10
-167.2481267850386
 20
-40.42938589501551
 30
0.0
 10
-167.0582377756733
 20
-40.32085538478949
 30
0.0
 10
-166.8672951505687
 20
-40.21172268355753
 30
0.0
 10
-166.6741113152526
 20
-40.10130902515751
 30
0.0
  0
SPLINE
  5
15E
330
1B
100
AcDbEntity
 67
     1
  8
0
  6
Continuous
 62
     7
370
    25
100
AcDbSpline
210
0.0
220
0.0
230
1.0
 70
    24
 71
     3
 72
     8
 73
     4
 74
     0
 42
0.000000001
 43
0.00000001
 40
0.0
 40
0.0
 40
0.0
 40
0.0
 40
1.0
 40
1.0
 40
1.0
 40
1.0
 10
-168.8201048574307
 20
-40.10130902515749
 30
0.0
 10
-168.6267709398186
 20
-40.2118084626565
 30
0.0
 10
-168.4358262867091
 20
-40.32094232298947
 30
0.0
 10
-168.2460893876446
 20
-40.4293858950155
 30
0.0
  0
SPLINE
  5
15F
330
1B
100
AcDbEntity
 67
     1
  8
0
  6
Continuous
 62
     7
370
    25
100
AcDbSpline
210
0.0
220
0.0
230
1.0
 70
    24
 71
     3
 72
     8
 73
     4
 74
     0
 42
0.000000001
 43
0.00000001
 40
0.0
 40
0.0
 40
0.0
 40
0.0
 40
1.0
 40
1.0
 40
1.0
 40
1.0
 10
-168.2460893876446
 20
-40.4293858950155
 30
0.0
 10
-168.0810222945307
 20
-40.28589526012247
 30
0.0
 10
-167.9150393122529
 20
-40.1416084549265
 30
0.0
 10
-167.7471080863416
 20
-39.9956280673745
 30
0.0
  0
SPLINE
  5
160
330
1B
100
AcDbEntity
 67
     1
  8
0
  6
Continuous
 62
     7
370
    25
100
AcDbSpline
210
0.0
220
0.0
230
1.0
 70
    24
 71
     3
 72
     8
 73
     4
 74
     0
 42
0.000000001
 43
0.00000001
 40
0.0
 40
0.0
 40
0.0
 40
0.0
 40
1.0
 40
1.0
 40
1.0
 40
1.0
 10
-168.2460893876448
 20
-50.5618702397355
 30
0.0
 10
-168.4359783970101
 20
-50.67040074996152
 30
0.0
 10
-168.6269210221148
 20
-50.77953345119349
 30
0.0
 10
-168.8201048574308
 20
-50.88994710959349
 30
0.0
  0
SPLINE
  5
161
330
1B
100
AcDbEntity
 67
     1
  8
0
  6
Continuous
 62
     7
370
    25
100
AcDbSpline
210
0.0
220
0.0
230
1.0
 70
    24
 71
     3
 72
     8
 73
     4
 74
     0
 42
0.000000001
 43
0.00000001
 40
0.0
 40
0.0
 40
0.0
 40
0.0
 40
1.0
 40
1.0
 40
1.0
 40
1.0
 10
-167.7471080863418
 20
-50.9956280673765
 30
0.0
 10
-167.915170211406
 20
-50.84953389092848
 30
0.0
 10
-168.0811550102849
 20
-50.70524550658651
 30
0.0
 10
-168.2460893876448
 20
-50.5618702397355
 30
0.0
  0
SPLINE
  5
162
330
1B
100
AcDbEntity
 67
     1
  8
0
  6
Continuous
 62
     7
370
    25
100
AcDbSpline
210
0.0
220
0.0
230
1.0
 70
    24
 71
     3
 72
     8
 73
     4
 74
     0
 42
0.000000001
 43
0.00000001
 40
0.0
 40
0.0
 40
0.0
 40
0.0
 40
1.0
 40
1.0
 40
1.0
 40
1.0
 10
-169.8518669643497
 20
-40.41429063856248
 30
0.0
 10
-169.6406905329077
 20
-40.48494928411248
 30
0.0
 10
-169.4321238678087
 20
-40.55473471405647
 30
0.0
 10
-169.2248764186737
 20
-40.62407874051749
 30
0.0
  0
SPLINE
  5
163
330
1B
100
AcDbEntity
 67
     1
  8
0
  6
Continuous
 62
     7
370
    25
100
AcDbSpline
210
0.0
220
0.0
230
1.0
 70
    24
 71
     3
 72
     8
 73
     4
 74
     0
 42
0.000000001
 43
0.00000001
 40
0.0
 40
0.0
 40
0.0
 40
0.0
 40
1.0
 40
1.0
 40
1.0
 40
1.0
 10
-169.2248764186737
 20
-40.62407874051749
 30
0.0
 10
-169.0909746776517
 20
-40.45114224560546
 30
0.0
 10
-168.9563299711236
 20
-40.27724619744851
 30
0.0
 10
-168.8201048574307
 20
-40.10130902515749
 30
0.0
  0
SPLINE
  5
164
330
1B
100
AcDbEntity
 67
     1
  8
0
  6
Continuous
 62
     7
370
    25
100
AcDbSpline
210
0.0
220
0.0
230
1.0
 70
    24
 71
     3
 72
     8
 73
     4
 74
     0
 42
0.000000001
 43
0.00000001
 40
0.0
 40
0.0
 40
0.0
 40
0.0
 40
1.0
 40
1.0
 40
1.0
 40
1.0
 10
-170.8027443679498
 20
-50.06871093503946
 30
0.0
 10
-170.8613171905587
 20
-49.85386830927545
 30
0.0
 10
-170.9191661569037
 20
-49.64168075752949
 30
0.0
 10
-170.9766492197147
 20
-49.43083532442147
 30
0.0
  0
SPLINE
  5
165
330
1B
100
AcDbEntity
 67
     1
  8
0
  6
Continuous
 62
     7
370
    25
100
AcDbSpline
210
0.0
220
0.0
230
1.0
 70
    24
 71
     3
 72
     8
 73
     4
 74
     0
 42
0.000000001
 43
0.00000001
 40
0.0
 40
0.0
 40
0.0
 40
0.0
 40
1.0
 40
1.0
 40
1.0
 40
1.0
 10
-170.9766492197147
 20
-49.43083532442147
 30
0.0
 10
-171.1948324815557
 20
-49.41557846449945
 30
0.0
 10
-171.4142263522787
 20
-49.40023695056146
 30
0.0
 10
-171.6361953828678
 20
-49.38471536390146
 30
0.0
  0
SPLINE
  5
166
330
1B
100
AcDbEntity
 67
     1
  8
0
  6
Continuous
 62
     7
370
    25
100
AcDbSpline
210
0.0
220
0.0
230
1.0
 70
    24
 71
     3
 72
     8
 73
     4
 74
     0
 42
0.000000001
 43
0.00000001
 40
0.0
 40
0.0
 40
0.0
 40
0.0
 40
1.0
 40
1.0
 40
1.0
 40
1.0
 10
-172.3201909540057
 20
-48.55126434898345
 30
0.0
 10
-172.2920884725277
 20
-48.33036079552043
 30
0.0
 10
-172.2643332879047
 20
-48.11218721840947
 30
0.0
 10
-172.2367536590627
 20
-47.89539362246646
 30
0.0
  0
SPLINE
  5
167
330
1B
100
AcDbEntity
 67
     1
  8
0
  6
Continuous
 62
     7
370
    25
100
AcDbSpline
210
0.0
220
0.0
230
1.0
 70
    24
 71
     3
 72
     8
 73
     4
 74
     0
 42
0.000000001
 43
0.00000001
 40
0.0
 40
0.0
 40
0.0
 40
0.0
 40
1.0
 40
1.0
 40
1.0
 40
1.0
 10
-172.2367536590627
 20
-47.89539362246646
 30
0.0
 10
-172.4324901615018
 20
-47.79780300232743
 30
0.0
 10
-172.6293127250067
 20
-47.69967089211045
 30
0.0
 10
-172.8284455151547
 20
-47.60038694538345
 30
0.0
  0
SPLINE
  5
168
330
1B
100
AcDbEntity
 67
     1
  8
0
  6
Continuous
 62
     7
370
    25
100
AcDbSpline
210
0.0
220
0.0
230
1.0
 70
    24
 71
     3
 72
     8
 73
     4
 74
     0
 42
0.000000001
 43
0.00000001
 40
0.0
 40
0.0
 40
0.0
 40
0.0
 40
1.0
 40
1.0
 40
1.0
 40
1.0
 10
-172.6186574131997
 20
-46.97339639970745
 30
0.0
 10
-172.7915939081117
 20
-46.83949465868543
 30
0.0
 10
-172.9654899562687
 20
-46.70484995215746
 30
0.0
 10
-173.1414271285597
 20
-46.56862483846444
 30
0.0
  0
SPLINE
  5
169
330
1B
100
AcDbEntity
 67
     1
  8
0
  6
Continuous
 62
     7
370
    25
100
AcDbSpline
210
0.0
220
0.0
230
1.0
 70
    24
 71
     3
 72
     8
 73
     4
 74
     0
 42
0.000000001
 43
0.00000001
 40
0.0
 40
0.0
 40
0.0
 40
0.0
 40
1.0
 40
1.0
 40
1.0
 40
1.0
 10
-172.8284455151547
 20
-47.60038694538345
 30
0.0
 10
-172.7577868696048
 20
-47.38921051394144
 30
0.0
 10
-172.6880014396608
 20
-47.18064384884246
 30
0.0
 10
-172.6186574131997
 20
-46.97339639970745
 30
0.0
  0
SPLINE
  5
16A
330
1B
100
AcDbEntity
 67
     1
  8
0
  6
Continuous
 62
     7
370
    25
100
AcDbSpline
210
0.0
220
0.0
230
1.0
 70
    24
 71
     3
 72
     8
 73
     4
 74
     0
 42
0.000000001
 43
0.00000001
 40
0.0
 40
0.0
 40
0.0
 40
0.0
 40
1.0
 40
1.0
 40
1.0
 40
1.0
 10
-171.6361953828677
 20
-41.60654077084946
 30
0.0
 10
-171.4140539070887
 20
-41.59100712564746
 30
0.0
 10
-171.1946577061786
 20
-41.57566544876447
 30
0.0
 10
-170.9766492197147
 20
-41.56042081032946
 30
0.0
  0
SPLINE
  5
16B
330
1B
100
AcDbEntity
 67
     1
  8
0
  6
Continuous
 62
     7
370
    25
100
AcDbSpline
210
0.0
220
0.0
230
1.0
 70
    24
 71
     3
 72
     8
 73
     4
 74
     0
 42
0.000000001
 43
0.00000001
 40
0.0
 40
0.0
 40
0.0
 40
0.0
 40
1.0
 40
1.0
 40
1.0
 40
1.0
 10
-170.9766492197147
 20
-41.56042081032946
 30
0.0
 10
-170.9191200732646
 20
-41.34940634438746
 30
0.0
 10
-170.8612717213256
 20
-41.1372210462685
 30
0.0
 10
-170.8027443679497
 20
-40.92254519971146
 30
0.0
  0
SPLINE
  5
16C
330
1B
100
AcDbEntity
 67
     1
  8
0
  6
Continuous
 62
     7
370
    25
100
AcDbSpline
210
0.0
220
0.0
230
1.0
 70
    24
 71
     3
 72
     8
 73
     4
 74
     0
 42
0.000000001
 43
0.00000001
 40
0.0
 40
0.0
 40
0.0
 40
0.0
 40
1.0
 40
1.0
 40
1.0
 40
1.0
 10
-170.8027443679497
 20
-40.92254519971146
 30
0.0
 10
-170.5818408144866
 20
-40.95064768118946
 30
0.0
 10
-170.3636672373757
 20
-40.97840286581248
 30
0.0
 10
-170.1468736414326
 20
-41.00598249465448
 30
0.0
  0
SPLINE
  5
16D
330
1B
100
AcDbEntity
 67
     1
  8
0
  6
Continuous
 62
     7
370
    25
100
AcDbSpline
210
0.0
220
0.0
230
1.0
 70
    24
 71
     3
 72
     8
 73
     4
 74
     0
 42
0.000000001
 43
0.00000001
 40
0.0
 40
0.0
 40
0.0
 40
0.0
 40
1.0
 40
1.0
 40
1.0
 40
1.0
 10
-170.1468736414326
 20
-41.00598249465448
 30
0.0
 10
-170.0492830212936
 20
-40.81024599221545
 30
0.0
 10
-169.9511509110767
 20
-40.61342342871048
 30
0.0
 10
-169.8518669643497
 20
-40.41429063856248
 30
0.0
  0
SPLINE
  5
16E
330
1B
100
AcDbEntity
 67
     1
  8
0
  6
Continuous
 62
     7
370
    25
100
AcDbSpline
210
0.0
220
0.0
230
1.0
 70
    24
 71
     3
 72
     8
 73
     4
 74
     0
 42
0.000000001
 43
0.00000001
 40
0.0
 40
0.0
 40
0.0
 40
0.0
 40
1.0
 40
1.0
 40
1.0
 40
1.0
 10
-171.6823153433877
 20
-48.72516920074846
 30
0.0
 10
-171.8933298093297
 20
-48.66764005429845
 30
0.0
 10
-172.1055151074487
 20
-48.60979170235945
 30
0.0
 10
-172.3201909540057
 20
-48.55126434898345
 30
0.0
  0
SPLINE
  5
16F
330
1B
100
AcDbEntity
 67
     1
  8
0
  6
Continuous
 62
     7
370
    25
100
AcDbSpline
210
0.0
220
0.0
230
1.0
 70
    24
 71
     3
 72
     8
 73
     4
 74
     0
 42
0.000000001
 43
0.00000001
 40
0.0
 40
0.0
 40
0.0
 40
0.0
 40
1.0
 40
1.0
 40
1.0
 40
1.0
 10
-171.6361953828678
 20
-49.38471536390146
 30
0.0
 10
-171.6517290280697
 20
-49.16257388812244
 30
0.0
 10
-171.6670707049527
 20
-48.94317768721248
 30
0.0
 10
-171.6823153433877
 20
-48.72516920074846
 30
0.0
  0
SPLINE
  5
170
330
1B
100
AcDbEntity
 67
     1
  8
0
  6
Continuous
 62
     7
370
    25
100
AcDbSpline
210
0.0
220
0.0
230
1.0
 70
    24
 71
     3
 72
     8
 73
     4
 74
     0
 42
0.000000001
 43
0.00000001
 40
0.0
 40
0.0
 40
0.0
 40
0.0
 40
1.0
 40
1.0
 40
1.0
 40
1.0
 10
-172.3201909540057
 20
-42.43999178576745
 30
0.0
 10
-172.1053483282417
 20
-42.38141896315846
 30
0.0
 10
-171.8931607764957
 20
-42.32356999681346
 30
0.0
 10
-171.6823153433877
 20
-42.26608693400246
 30
0.0
  0
SPLINE
  5
171
330
1B
100
AcDbEntity
 67
     1
  8
0
  6
Continuous
 62
     7
370
    25
100
AcDbSpline
210
0.0
220
0.0
230
1.0
 70
    24
 71
     3
 72
     8
 73
     4
 74
     0
 42
0.000000001
 43
0.00000001
 40
0.0
 40
0.0
 40
0.0
 40
0.0
 40
1.0
 40
1.0
 40
1.0
 40
1.0
 10
-171.6823153433877
 20
-42.26608693400246
 30
0.0
 10
-171.6670584834657
 20
-42.04790367216142
 30
0.0
 10
-171.6517169695276
 20
-41.82850980143848
 30
0.0
 10
-171.6361953828677
 20
-41.60654077084946
 30
0.0
  0
SPLINE
  5
172
330
1B
100
AcDbEntity
 67
     1
  8
0
  6
Continuous
 62
     7
370
    25
100
AcDbSpline
210
0.0
220
0.0
230
1.0
 70
    24
 71
     3
 72
     8
 73
     4
 74
     0
 42
0.000000001
 43
0.00000001
 40
0.0
 40
0.0
 40
0.0
 40
0.0
 40
1.0
 40
1.0
 40
1.0
 40
1.0
 10
-172.8284455151547
 20
-43.39086918936744
 30
0.0
 10
-172.6291580210157
 20
-43.29150811007543
 30
0.0
 10
-172.4323333670537
 20
-43.19337495759545
 30
0.0
 10
-172.2367536590627
 20
-43.09586251228446
 30
0.0
  0
SPLINE
  5
173
330
1B
100
AcDbEntity
 67
     1
  8
0
  6
Continuous
 62
     7
370
    25
100
AcDbSpline
210
0.0
220
0.0
230
1.0
 70
    24
 71
     3
 72
     8
 73
     4
 74
     0
 42
0.000000001
 43
0.00000001
 40
0.0
 40
0.0
 40
0.0
 40
0.0
 40
1.0
 40
1.0
 40
1.0
 40
1.0
 10
-172.2367536590627
 20
-43.09586251228446
 30
0.0
 10
-172.2643553982407
 20
-42.87889511491443
 30
0.0
 10
-172.2921102880777
 20
-42.66072385500647
 30
0.0
 10
-172.3201909540057
 20
-42.43999178576745
 30
0.0
  0
SPLINE
  5
174
330
1B
100
AcDbEntity
 67
     1
  8
0
  6
Continuous
 62
     7
370
    25
100
AcDbSpline
210
0.0
220
0.0
230
1.0
 70
    24
 71
     3
 72
     8
 73
     4
 74
     0
 42
0.000000001
 43
0.00000001
 40
0.0
 40
0.0
 40
0.0
 40
0.0
 40
1.0
 40
1.0
 40
1.0
 40
1.0
 10
-173.2471080863427
 20
-45.49562806737543
 30
0.0
 10
-173.1010142883057
 20
-45.32756637762575
 30
0.0
 10
-172.9567259506407
 20
-45.16158163243975
 30
0.0
 10
-172.8133502587017
 20
-44.99664676607245
 30
0.0
  0
SPLINE
  5
175
330
1B
100
AcDbEntity
 67
     1
  8
0
  6
Continuous
 62
     7
370
    25
100
AcDbSpline
210
0.0
220
0.0
230
1.0
 70
    24
 71
     3
 72
     8
 73
     4
 74
     0
 42
0.000000001
 43
0.00000001
 40
0.0
 40
0.0
 40
0.0
 40
0.0
 40
1.0
 40
1.0
 40
1.0
 40
1.0
 10
-172.8133502587017
 20
-44.99664676607245
 30
0.0
 10
-172.9218807689277
 20
-44.80675775670711
 30
0.0
 10
-173.0310134701597
 20
-44.61581513160245
 30
0.0
 10
-173.1414271285597
 20
-44.42263129628645
 30
0.0
  0
SPLINE
  5
176
330
1B
100
AcDbEntity
 67
     1
  8
0
  6
Continuous
 62
     7
370
    25
100
AcDbSpline
210
0.0
220
0.0
230
1.0
 70
    24
 71
     3
 72
     8
 73
     4
 74
     0
 42
0.000000001
 43
0.00000001
 40
0.0
 40
0.0
 40
0.0
 40
0.0
 40
1.0
 40
1.0
 40
1.0
 40
1.0
 10
-173.1414271285597
 20
-44.42263129628645
 30
0.0
 10
-172.9653532727136
 20
-44.28630035087943
 30
0.0
 10
-172.7914553776037
 20
-44.15165421428746
 30
0.0
 10
-172.6186574131997
 20
-44.01785973504345
 30
0.0
  0
SPLINE
  5
177
330
1B
100
AcDbEntity
 67
     1
  8
0
  6
Continuous
 62
     7
370
    25
100
AcDbSpline
210
0.0
220
0.0
230
1.0
 70
    24
 71
     3
 72
     8
 73
     4
 74
     0
 42
0.000000001
 43
0.00000001
 40
0.0
 40
0.0
 40
0.0
 40
0.0
 40
1.0
 40
1.0
 40
1.0
 40
1.0
 10
-172.6186574131997
 20
-44.01785973504345
 30
0.0
 10
-172.6880570321177
 20
-43.81044613755942
 30
0.0
 10
-172.7578417208786
 20
-43.60188168762747
 30
0.0
 10
-172.8284455151547
 20
-43.39086918936744
 30
0.0
  0
SPLINE
  5
178
330
1B
100
AcDbEntity
 67
     1
  8
0
  6
Continuous
 62
     7
370
    25
100
AcDbSpline
210
0.0
220
0.0
230
1.0
 70
    24
 71
     3
 72
     8
 73
     4
 74
     0
 42
0.000000001
 43
0.00000001
 40
0.0
 40
0.0
 40
0.0
 40
0.0
 40
1.0
 40
1.0
 40
1.0
 40
1.0
 10
-173.1414271285597
 20
-46.56862483846444
 30
0.0
 10
-173.0309276910606
 20
-46.37529092085242
 30
0.0
 10
-172.9217938307278
 20
-46.18434626774297
 30
0.0
 10
-172.8133502587017
 20
-45.99460936867845
 30
0.0
  0
SPLINE
  5
179
330
1B
100
AcDbEntity
 67
     1
  8
0
  6
Continuous
 62
     7
370
    25
100
AcDbSpline
210
0.0
220
0.0
230
1.0
 70
    24
 71
     3
 72
     8
 73
     4
 74
     0
 42
0.000000001
 43
0.00000001
 40
0.0
 40
0.0
 40
0.0
 40
0.0
 40
1.0
 40
1.0
 40
1.0
 40
1.0
 10
-172.8133502587017
 20
-45.99460936867845
 30
0.0
 10
-172.9568408935948
 20
-45.82954227556453
 30
0.0
 10
-173.1011276987907
 20
-45.66355929328671
 30
0.0
 10
-173.2471080863427
 20
-45.49562806737543
 30
0.0
  0
SPLINE
  5
17C
330
1B
100
AcDbEntity
 67
     1
  8
0
  6
Continuous
 62
     7
370
    25
100
AcDbSpline
210
0.0
220
0.0
230
1.0
 70
    24
 71
     3
 72
    16
 73
    12
 74
     0
 42
0.000000001
 43
0.00000001
 40
0.0
 40
0.0
 40
0.0
 40
0.0
 40
0.0814521943860069
 40
0.1626397337001581
 40
0.2439584099059758
 40
0.3258021124752217
 40
0.4085572343167644
 40
0.4925975979652246
 40
0.6608431564018764
 40
0.8289234393883215
 40
1.0
 40
1.0
 40
1.0
 40
1.0
 10
-169.8490775905456
 20
-50.57603218476834
 30
0.0
 10
-169.8482201848196
 20
-50.57574530082553
 30
0.0
 10
-169.8465081592568
 20
-50.57517246508533
 30
0.0
 10
-169.8325430253556
 20
-50.57049979664576
 30
0.0
 10
-169.8102138880704
 20
-50.56302857182162
 30
0.0
 10
-169.7787268712526
 20
-50.55249316336929
 30
0.0
 10
-169.7382589716425
 20
-50.53895279356968
 30
0.0
 10
-169.6728034334942
 20
-50.51705167686976
 30
0.0
 10
-169.5699238204312
 20
-50.48262863986674
 30
0.0
 10
-169.4152847338388
 20
-50.43088712528081
 30
0.0
 10
-169.2887185728746
 20
-50.38853868021486
 30
0.0
 10
-169.2248764186727
 20
-50.36717739423201
 30
0.0
  0
SPLINE
  5
17D
330
1B
100
AcDbEntity
 67
     1
  8
0
  6
Continuous
 62
     7
370
    25
100
AcDbSpline
210
0.0
220
0.0
230
1.0
 70
    24
 71
     3
 72
    16
 73
    12
 74
     0
 42
0.000000001
 43
0.00000001
 40
0.0
 40
0.0
 40
0.0
 40
0.0
 40
0.0860634066291554
 40
0.1710295382590671
 40
0.2552812742330027
 40
0.3392112714451363
 40
0.4232166985100992
 40
0.5076936601484137
 40
0.6742594890330887
 40
0.8373203871509904
 40
1.0
 40
1.0
 40
1.0
 40
1.0
 10
-166.2693397540097
 20
-50.36717739423298
 30
0.0
 10
-166.2366717204022
 20
-50.37810796537537
 30
0.0
 10
-166.1717521579244
 20
-50.39982974712458
 30
0.0
 10
-166.0830092371381
 20
-50.42952271305865
 30
0.0
 10
-166.0016515118248
 20
-50.45674462715375
 30
0.0
 10
-165.9282195628178
 20
-50.48131461359346
 30
0.0
 10
-165.8625755729644
 20
-50.5032787853518
 30
0.0
 10
-165.7862677102007
 20
-50.52881103907381
 30
0.0
 10
-165.7119777056668
 20
-50.55366812687662
 30
0.0
 10
-165.6554413507821
 20
-50.57258492660272
 30
0.0
 10
-165.6485701573995
 20
-50.57488399574792
 30
0.0
 10
-165.6451385821375
 20
-50.57603218476913
 30
0.0
  0
SPLINE
  5
1DD
330
1B
100
AcDbEntity
 67
     1
  8
0
  6
Continuous
 62
     7
370
    25
100
AcDbSpline
210
0.0
220
0.0
230
1.0
 70
     8
 71
     3
 72
     8
 73
     4
 74
     0
 42
0.000000001
 43
0.00000001
 40
0.0
 40
0.0
 40
0.0
 40
0.0
 40
1.0
 40
1.0
 40
1.0
 40
1.0
 10
-163.747108213101
 20
21.61057538301445
 30
0.0
 10
-163.7471082131011
 20
21.11710180743449
 30
0.0
 10
-163.7471082120111
 20
20.59608947702447
 30
0.0
 10
-163.7471082120111
 20
20.04754009204446
 30
0.0
  0
SPLINE
  5
1DE
330
1B
100
AcDbEntity
 67
     1
  8
0
  6
Continuous
 62
     7
370
    25
100
AcDbSpline
210
0.0
220
0.0
230
1.0
 70
    24
 71
     3
 72
     9
 73
     5
 74
     0
 42
0.000000001
 43
0.00000001
 40
0.0
 40
0.0
 40
0.0
 40
0.0
 40
0.5136964681169817
 40
1.0
 40
1.0
 40
1.0
 40
1.0
 10
-171.7471080863411
 20
20.04763319687455
 30
0.0
 10
-171.7471080863411
 20
20.31484410858211
 30
0.0
 10
-171.7471080863411
 20
20.83501687264071
 30
0.0
 10
-171.747108086341
 20
21.35688312008288
 30
0.0
 10
-171.747108086341
 20
21.61066851938455
 30
0.0
  0
SPLINE
  5
1E0
330
1B
100
AcDbEntity
 67
     1
  8
0
  6
Continuous
 62
     7
370
    25
100
AcDbSpline
210
0.0
220
0.0
230
1.0
 70
     8
 71
     3
 72
     8
 73
     4
 74
     0
 42
0.000000001
 43
0.00000001
 40
0.0
 40
0.0
 40
0.0
 40
0.0
 40
1.0
 40
1.0
 40
1.0
 40
1.0
 10
-154.8533115367308
 20
38.50437180586437
 30
0.0
 10
-154.3585351484308
 20
38.50437180586437
 30
0.0
 10
-153.8375284626209
 20
38.50437180695437
 30
0.0
 10
-153.2902762457609
 20
38.50437180695437
 30
0.0
  0
SPLINE
  5
1E1
330
1B
100
AcDbEntity
 67
     1
  8
0
  6
Continuous
 62
     7
370
    25
100
AcDbSpline
210
0.0
220
0.0
230
1.0
 70
    24
 71
     3
 72
     9
 73
     5
 74
     0
 42
0.000000001
 43
0.00000001
 40
0.0
 40
0.0
 40
0.0
 40
0.0
 40
0.513696455992525
 40
1.0
 40
1.0
 40
1.0
 40
1.0
 10
-153.290369350771
 20
30.50437193262435
 30
0.0
 10
-153.5575802561542
 20
30.50437193262434
 30
0.0
 10
-154.0777530201789
 20
30.50437193262436
 30
0.0
 10
-154.5996192676351
 20
30.50437193262436
 30
0.0
 10
-154.8534046732709
 20
30.50437193262436
 30
0.0
  0
SPLINE
  5
1E3
330
1B
100
AcDbEntity
 67
     1
  8
0
  6
Continuous
 62
     7
370
    25
100
AcDbSpline
210
0.0
220
0.0
230
1.0
 70
     8
 71
     3
 72
     8
 73
     4
 74
     0
 42
0.000000001
 43
0.00000001
 40
0.0
 40
0.0
 40
0.0
 40
0.0
 40
1.0
 40
1.0
 40
1.0
 40
1.0
 10
-180.6409046356929
 20
30.50437205946465
 30
0.0
 10
-181.134320893713
 20
30.50437205946465
 30
0.0
 10
-181.6553334725129
 20
30.50437205837466
 30
0.0
 10
-182.203939926613
 20
30.50437205837466
 30
0.0
  0
SPLINE
  5
1E4
330
1B
100
AcDbEntity
 67
     1
  8
0
  6
Continuous
 62
     7
370
    25
100
AcDbSpline
210
0.0
220
0.0
230
1.0
 70
    24
 71
     3
 72
     9
 73
     5
 74
     0
 42
0.000000001
 43
0.00000001
 40
0.0
 40
0.0
 40
0.0
 40
0.0
 40
0.513696454252471
 40
1.0
 40
1.0
 40
1.0
 40
1.0
 10
-182.2038467629949
 20
38.50437193262467
 30
0.0
 10
-181.9366358585332
 20
38.50437193262466
 30
0.0
 10
-181.4164630945405
 20
38.50437193262464
 30
0.0
 10
-180.8945968470685
 20
38.50437193262465
 30
0.0
 10
-180.6408114405169
 20
38.50437193262465
 30
0.0
  0
SPLINE
  5
1E7
330
1B
100
AcDbEntity
 67
     1
  8
0
  6
Continuous
 62
     7
370
    25
100
AcDbSpline
210
0.0
220
0.0
230
1.0
 70
     8
 71
     3
 72
     8
 73
     4
 74
     0
 42
0.000000001
 43
0.00000001
 40
0.0
 40
0.0
 40
0.0
 40
0.0
 40
1.0
 40
1.0
 40
1.0
 40
1.0
 10
-161.7471080820108
 20
48.25209902740444
 30
0.0
 10
-161.7471080820108
 20
47.66804430718445
 30
0.0
 10
-161.7471080816007
 20
47.11656040640443
 30
0.0
 10
-161.7471080816007
 20
46.59775856462444
 30
0.0
  0
SPLINE
  5
1E8
330
1B
100
AcDbEntity
 67
     1
  8
0
  6
Continuous
 62
     7
370
    25
100
AcDbSpline
210
0.0
220
0.0
230
1.0
 70
    24
 71
     3
 72
     8
 73
     4
 74
     0
 42
0.000000001
 43
0.00000001
 40
0.0
 40
0.0
 40
0.0
 40
0.0
 40
1.0
 40
1.0
 40
1.0
 40
1.0
 10
-173.7471080824008
 20
46.59775954212456
 30
0.0
 10
-173.7471080824008
 20
47.11705064508457
 30
0.0
 10
-173.7471080826608
 20
47.66852953252454
 30
0.0
 10
-173.7471080826608
 20
48.25210000250458
 30
0.0
  0
LINE
  5
203
330
1B
100
AcDbEntity
 67
     1
  8
0
  6
Continuous
 62
     7
370
    25
100
AcDbLine
 10
-171.6471080863
 20
-66.3846802239
 30
0.0
 11
-171.6471080863
 21
-66.1303076142
 31
0.0
  0
LINE
  5
204
330
1B
100
AcDbEntity
 67
     1
  8
0
  6
Continuous
 62
     7
370
    25
100
AcDbLine
 10
-163.8471080863
 20
-66.3846802239
 30
0.0
 11
-163.8471080863
 21
-66.1303076142
 31
0.0
  0
LINE
  5
205
330
1B
100
AcDbEntity
 67
     1
  8
0
  6
Continuous
 62
     7
370
    25
100
AcDbLine
 10
-169.1616150198
 20
-29.6426729172
 30
0.0
 11
-169.2471054384
 21
-30.0956197822
 31
0.0
  0
LINE
  5
206
330
1B
100
AcDbEntity
 67
     1
  8
0
  6
Continuous
 62
     7
370
    25
100
AcDbLine
 10
-163.8971054384
 20
-24.5973032634
 30
0.0
 11
-163.8971054384
 21
-24.8515616169
 31
0.0
  0
LINE
  5
207
330
1B
100
AcDbEntity
 67
     1
  8
0
  6
Continuous
 62
     7
370
    25
100
AcDbLine
 10
-163.8971054384
 20
-29.9657381898
 30
0.0
 11
-163.8971054384
 21
-32.1956197822
 31
0.0
  0
LINE
  5
208
330
1B
100
AcDbEntity
 67
     1
  8
0
  6
Continuous
 62
     7
370
    25
100
AcDbLine
 10
-171.5971054384
 20
-32.1956197822
 30
0.0
 11
-163.8971054384
 21
-32.1956197822
 31
0.0
  0
LINE
  5
209
330
1B
100
AcDbEntity
 67
     1
  8
0
  6
Continuous
 62
     7
370
    25
100
AcDbLine
 10
-171.5971054384
 20
-24.5973022878
 30
0.0
 11
-171.5971054384
 21
-24.8515606293
 31
0.0
  0
LINE
  5
20A
330
1B
100
AcDbEntity
 67
     1
  8
0
  6
Continuous
 62
     7
370
    25
100
AcDbLine
 10
-171.5971054384
 20
-29.9657368769
 30
0.0
 11
-171.5971054384
 21
-32.1956197822
 31
0.0
  0
LINE
  5
20B
330
1B
100
AcDbEntity
 67
     1
  8
0
  6
Continuous
 62
     7
370
    25
100
AcDbLine
 10
-165.2471054384
 20
-34.6956197822
 30
0.0
 11
-165.2471054384
 21
-32.1956197822
 31
0.0
  0
LINE
  5
20C
330
1B
100
AcDbEntity
 67
     1
  8
0
  6
Continuous
 62
     7
370
    25
100
AcDbLine
 10
-170.2471054384
 20
-34.6956197822
 30
0.0
 11
-165.2471054384
 21
-34.6956197822
 31
0.0
  0
LINE
  5
20D
330
1B
100
AcDbEntity
 67
     1
  8
0
  6
Continuous
 62
     7
370
    25
100
AcDbLine
 10
-170.2471054384
 20
-34.6956197822
 30
0.0
 11
-170.2471054384
 21
-32.1956197822
 31
0.0
  0
LINE
  5
20E
330
1B
100
AcDbEntity
 67
     1
  8
0
  6
Continuous
 62
     7
370
    25
100
AcDbLine
 10
-168.9971078073
 20
-38.4956280674
 30
0.0
 11
-168.9971072121
 21
-38.3542022719
 31
0.0
  0
LINE
  5
20F
330
1B
100
AcDbEntity
 67
     1
  8
0
  6
Continuous
 62
     7
370
    25
100
AcDbLine
 10
-166.4971080427
 20
-38.4956280674
 30
0.0
 11
-168.9971078073
 21
-38.4956280674
 31
0.0
  0
LINE
  5
210
330
1B
100
AcDbEntity
 67
     1
  8
0
  6
Continuous
 62
     7
370
    25
100
AcDbLine
 10
-166.4971080427
 20
-38.4956280674
 30
0.0
 11
-166.4971079794
 21
-38.3541904112
 31
0.0
  0
LINE
  5
211
330
1B
100
AcDbEntity
 67
     1
  8
0
  6
Continuous
 62
     7
370
    25
100
AcDbLine
 10
-166.4971077578
 20
-52.4956280674
 30
0.0
 11
-166.4971076994
 21
-52.6370331214
 31
0.0
  0
LINE
  5
212
330
1B
100
AcDbEntity
 67
     1
  8
0
  6
Continuous
 62
     7
370
    25
100
AcDbLine
 10
-168.9971081014
 20
-52.4956280674
 30
0.0
 11
-166.4971077578
 21
-52.4956280674
 31
0.0
  0
LINE
  5
213
330
1B
100
AcDbEntity
 67
     1
  8
0
  6
Continuous
 62
     7
370
    25
100
AcDbLine
 10
-168.9971081014
 20
-52.4956280674
 30
0.0
 11
-168.9971081233
 21
-52.6370596833
 31
0.0
  0
LINE
  5
214
330
1B
100
AcDbEntity
 67
     1
  8
0
  6
Continuous
 62
     7
370
    25
100
AcDbLine
 10
-167.7471080904
 20
18.5043719326
 30
0.0
 11
-167.7471080863
 21
18.0043719326
 31
0.0
  0
LINE
  5
215
330
1B
100
AcDbEntity
 67
     1
  8
0
  6
Continuous
 62
     7
370
    25
100
AcDbLine
 10
-167.7471080863
 20
50.5043719326
 30
0.0
 11
-167.7471080863
 21
51.0043719326
 31
0.0
  0
LINE
  5
216
330
1B
100
AcDbEntity
 67
     1
  8
0
  6
Continuous
 62
     7
370
    25
100
AcDbLine
 10
-167.7471080863
 20
-29.4956280674
 30
0.0
 11
-167.7471080863
 21
-28.9956280674
 31
0.0
  0
LINE
  5
217
330
1B
100
AcDbEntity
 67
     1
  8
0
  6
Continuous
 62
     7
370
    25
100
AcDbLine
 10
-167.7471080904
 20
-61.4956280674
 30
0.0
 11
-167.7471080863
 21
-61.9956280674
 31
0.0
  0
LINE
  5
218
330
1B
100
AcDbEntity
 67
     1
  8
0
  6
Continuous
 62
     7
370
    25
100
AcDbLine
 10
-122.7471080863
 20
-112.9956280674
 30
0.0
 11
-212.7471080863
 21
-112.9956280674
 31
0.0
  0
LINE
  5
219
330
1B
100
AcDbEntity
 67
     1
  8
0
  6
Continuous
 62
     7
370
    25
100
AcDbLine
 10
-227.7471080863
 20
-97.9956280674
 30
0.0
 11
-227.7471080863
 21
87.0043719326
 31
0.0
  0
LINE
  5
21A
330
1B
100
AcDbEntity
 67
     1
  8
0
  6
Continuous
 62
     7
370
    25
100
AcDbLine
 10
-212.7471080863
 20
102.0043719326
 30
0.0
 11
-122.7471080863
 21
102.0043719326
 31
0.0
  0
LINE
  5
21B
330
1B
100
AcDbEntity
 67
     1
  8
0
  6
Continuous
 62
     7
370
    25
100
AcDbLine
 10
-107.7471080863
 20
87.0043719326
 30
0.0
 11
-107.7471080863
 21
-97.9956280674
 31
0.0
  0
LINE
  5
21C
330
1B
100
AcDbEntity
 67
     1
  8
0
  6
Continuous
 62
     7
370
    25
100
AcDbLine
 10
-163.8471080863
 20
55.3934240892
 30
0.0
 11
-163.8471080863
 21
55.1390514794
 31
0.0
  0
LINE
  5
21D
330
1B
100
AcDbEntity
 67
     1
  8
0
  6
Continuous
 62
     7
370
    25
100
AcDbLine
 10
-171.6471080863
 20
55.3934240892
 30
0.0
 11
-171.6471080863
 21
55.1390514794
 31
0.0
  0
LINE
  5
21E
330
1B
100
AcDbEntity
 67
     1
  8
0
  6
Continuous
 62
     7
370
    25
100
AcDbLine
 10
-152.2551746775
 20
38.5043718396
 30
0.0
 11
-153.2902762458
 21
38.504371807
 31
0.0
  0
LINE
  5
21F
330
1B
100
AcDbEntity
 67
     1
  8
0
  6
Continuous
 62
     7
370
    25
100
AcDbLine
 10
-153.2903693508
 20
30.5043717524
 30
0.0
 11
-152.336489229
 21
30.5043717943
 31
0.0
  0
LINE
  5
220
330
1B
100
AcDbEntity
 67
     1
  8
0
  6
Continuous
 62
     7
370
    25
100
AcDbLine
 10
-163.7471081807
 20
19.0124385234
 30
0.0
 11
-163.747108212
 21
20.047540092
 31
0.0
  0
LINE
  5
221
330
1B
100
AcDbEntity
 67
     1
  8
0
  6
Continuous
 62
     7
370
    25
100
AcDbLine
 10
-171.7471082666
 20
20.0476331969
 30
0.0
 11
-171.7471082221
 21
19.0313878527
 31
0.0
  0
LINE
  5
222
330
1B
100
AcDbEntity
 67
     1
  8
0
  6
Continuous
 62
     7
370
    25
100
AcDbLine
 10
-183.239041489
 20
30.5043720018
 30
0.0
 11
-182.2039399266
 21
30.5043720584
 31
0.0
  0
LINE
  5
223
330
1B
100
AcDbEntity
 67
     1
  8
0
  6
Continuous
 62
     7
370
    25
100
AcDbLine
 10
-182.203846763
 20
38.504372113
 30
0.0
 11
-183.157726944
 21
38.50437207
 31
0.0
  0
LINE
  5
224
330
1B
100
AcDbEntity
 67
     1
  8
0
  6
Continuous
 62
     7
370
    25
100
AcDbLine
 10
-161.747108082
 20
48.2520990274
 30
0.0
 11
-161.7471080831
 21
49.3367689055
 31
0.0
  0
LINE
  5
225
330
1B
100
AcDbEntity
 67
     1
  8
0
  6
Continuous
 62
     7
370
    25
100
AcDbLine
 10
-173.7471080836
 20
49.3367689079
 30
0.0
 11
-173.7471080827
 21
48.2521000025
 31
0.0
  0
LINE
  5
226
330
1B
100
AcDbEntity
 67
     1
  8
0
  6
Continuous
 62
     7
370
    25
100
AcDbLine
 10
-165.3722396689
 20
-49.8956280674
 30
0.0
 11
-170.1219765037
 21
-49.8956280674
 31
0.0
  0
LINE
  5
227
330
1B
100
AcDbEntity
 67
     1
  8
0
  6
Continuous
 62
     7
370
    25
100
AcDbLine
 10
-170.2026183271
 20
-49.8511383081
 30
0.0
 11
-167.7471080863
 21
-47.3956280674
 31
0.0
  0
LINE
  5
228
330
1B
100
AcDbEntity
 67
     1
  8
0
  6
Continuous
 62
     7
370
    25
100
AcDbLine
 10
-165.2915978456
 20
-49.8511383081
 30
0.0
 11
-167.7471080863
 21
-47.3956280674
 31
0.0
  0
LINE
  5
229
330
1B
100
AcDbEntity
 67
     1
  8
0
  6
Continuous
 62
     7
370
    25
100
AcDbLine
 10
-165.2471080863
 20
-53.619666472
 30
0.0
 11
-165.2471080863
 21
-61.2991086967
 31
0.0
  0
LINE
  5
22A
330
1B
100
AcDbEntity
 67
     1
  8
0
  6
Continuous
 62
     7
370
    25
100
AcDbLine
 10
-165.2471080863
 20
-66.3462875294
 30
0.0
 11
-165.2471080863
 21
-66.3956280674
 31
0.0
  0
LINE
  5
22B
330
1B
100
AcDbEntity
 67
     1
  8
0
  6
Continuous
 62
     7
370
    25
100
AcDbLine
 10
-170.2471080863
 20
-53.619666472
 30
0.0
 11
-170.2471080863
 21
-61.2991086967
 31
0.0
  0
LINE
  5
22C
330
1B
100
AcDbEntity
 67
     1
  8
0
  6
Continuous
 62
     7
370
    25
100
AcDbLine
 10
-170.2471080863
 20
-66.3462875294
 30
0.0
 11
-170.2471080863
 21
-66.3956280674
 31
0.0
  0
LINE
  5
22D
330
1B
100
AcDbEntity
 67
     1
  8
0
  6
Continuous
 62
     7
370
    25
100
AcDbLine
 10
-170.2471080863
 20
-66.3956280674
 30
0.0
 11
-169.7940570354
 21
-66.3956280674
 31
0.0
  0
LINE
  5
22E
330
1B
100
AcDbEntity
 67
     1
  8
0
  6
Continuous
 62
     7
370
    25
100
AcDbLine
 10
-165.7001591373
 20
-66.3956280674
 30
0.0
 11
-165.2471080863
 21
-66.3956280674
 31
0.0
  0
LINE
  5
22F
330
1B
100
AcDbEntity
 67
     1
  8
0
  6
Continuous
 62
     7
370
    25
100
AcDbLine
 10
-168.0680861299
 20
-50.716606111
 30
0.0
 11
-167.7471080863
 21
-50.3956280674
 31
0.0
  0
LINE
  5
230
330
1B
100
AcDbEntity
 67
     1
  8
0
  6
Continuous
 62
     7
370
    25
100
AcDbLine
 10
-167.4261300428
 20
-50.716606111
 30
0.0
 11
-167.7471080863
 21
-50.3956280674
 31
0.0
  0
LINE
  5
231
330
1B
100
AcDbEntity
 67
     1
  8
0
  6
Continuous
 62
     7
370
    25
100
AcDbLine
 10
-167.1598855638
 20
47.9915944551
 30
0.0
 11
-167.7471080863
 21
47.4043719326
 31
0.0
  0
LINE
  5
232
330
1B
100
AcDbEntity
 67
     1
  8
0
  6
Continuous
 62
     7
370
    25
100
AcDbLine
 10
-168.3343305551
 20
47.9915944014
 30
0.0
 11
-167.7471080863
 21
47.4043719326
 31
0.0
  0
LINE
  5
233
330
1B
100
AcDbEntity
 67
     1
  8
0
  6
Continuous
 62
     7
370
    25
100
AcDbLine
 10
-170.2471080863
 20
55.3550313946
 30
0.0
 11
-170.2471080863
 21
55.4043719326
 31
0.0
  0
LINE
  5
234
330
1B
100
AcDbEntity
 67
     1
  8
0
  6
Continuous
 62
     7
370
    25
100
AcDbLine
 10
-165.2471080863
 20
55.3550313946
 30
0.0
 11
-165.2471080863
 21
55.4043719326
 31
0.0
  0
LINE
  5
235
330
1B
100
AcDbEntity
 67
     1
  8
0
  6
Continuous
 62
     7
370
    25
100
AcDbLine
 10
-165.2471080863
 20
55.4043719326
 30
0.0
 11
-165.7001591373
 21
55.4043719326
 31
0.0
  0
LINE
  5
236
330
1B
100
AcDbEntity
 67
     1
  8
0
  6
Continuous
 62
     7
370
    25
100
AcDbLine
 10
-169.7940570354
 20
55.4043719326
 30
0.0
 11
-170.2471080863
 21
55.4043719326
 31
0.0
  0
LINE
  5
237
330
1B
100
AcDbEntity
 67
     1
  8
0
  6
Continuous
 62
     7
370
    25
100
AcDbLine
 10
-170.2471080863
 20
46.5043719326
 30
0.0
 11
-165.2471080863
 21
46.5043719326
 31
0.0
  0
LINE
  5
238
330
1B
100
AcDbEntity
 67
     1
  8
0
  6
Continuous
 62
     7
370
    25
100
AcDbLine
 10
-165.2471080863
 20
46.5043719326
 30
0.0
 11
-167.7471080863
 21
44.0043719326
 31
0.0
  0
LINE
  5
239
330
1B
100
AcDbEntity
 67
     1
  8
0
  6
Continuous
 62
     7
370
    25
100
AcDbLine
 10
-170.2471080863
 20
46.5043719326
 30
0.0
 11
-167.7471080863
 21
44.0043719326
 31
0.0
  0
LINE
  5
23A
330
1B
100
AcDbEntity
 67
     1
  8
0
  6
Continuous
 62
     7
370
    25
100
AcDbLine
 10
-170.2471080863
 20
46.5043719326
 30
0.0
 11
-170.2471080863
 21
47.7708709821
 31
0.0
  0
LINE
  5
23B
330
1B
100
AcDbEntity
 67
     1
  8
0
  6
Continuous
 62
     7
370
    25
100
AcDbLine
 10
-165.2471080863
 20
46.5043719326
 30
0.0
 11
-165.2471080863
 21
47.7708712246
 31
0.0
  0
ARC
  5
23C
330
1B
100
AcDbEntity
 67
     1
  8
0
  6
Continuous
 62
     7
370
    25
100
AcDbCircle
 10
-167.7471080863
 20
-45.4956280674
 30
0.0
 40
5.500000000001278
100
AcDbArc
 50
258.75
 51
247.5
  0
ARC
  5
23D
330
1B
100
AcDbEntity
 67
     1
  8
0
  6
Continuous
 62
     7
370
    25
100
AcDbCircle
 10
-167.7470954205
 20
-45.4956310573
 30
0.0
 40
7.250002384632394
100
AcDbArc
 50
99.9282831478
 51
260.0717095418
  0
ARC
  5
23E
330
1B
100
AcDbEntity
 67
     1
  8
0
  6
Continuous
 62
     7
370
    25
100
AcDbCircle
 10
-167.7471201828
 20
-45.4956117908
 30
0.0
 40
7.249995160654787
100
AcDbArc
 50
279.9282986911
 51
80.0717035557
  0
ARC
  5
23F
330
1B
100
AcDbEntity
 67
     1
  8
0
  6
Continuous
 62
     7
370
    25
100
AcDbCircle
 10
-167.7470951767
 20
-45.4956309059
 30
0.0
 40
8.000009460019038
100
AcDbArc
 50
98.9893850163
 51
179.9999796703
  0
ARC
  5
240
330
1B
100
AcDbEntity
 67
     1
  8
0
  6
Continuous
 62
     7
370
    25
100
AcDbCircle
 10
-167.7471080863
 20
-45.4956280674
 30
0.0
 40
8.500000000000057
100
AcDbArc
 50
180.0
 51
0.0
  0
ARC
  5
241
330
1B
100
AcDbEntity
 67
     1
  8
0
  6
Continuous
 62
     7
370
    25
100
AcDbCircle
 10
-167.7471080863
 20
-45.4956280674
 30
0.0
 40
5.000000000000041
100
AcDbArc
 50
271.1347531453
 51
268.8652468547
  0
ARC
  5
242
330
1B
100
AcDbEntity
 67
     1
  8
0
  6
Continuous
 62
     7
370
    25
100
AcDbCircle
 10
-167.7471080863
 20
34.5043719326
 30
0.0
 40
19.00000000000003
100
AcDbArc
 50
0.0
 51
180.0
  0
ARC
  5
243
330
1B
100
AcDbEntity
 67
     1
  8
0
  6
Continuous
 62
     7
370
    25
100
AcDbCircle
 10
-167.7471080863
 20
34.5043719326
 30
0.0
 40
21.00000000000003
100
AcDbArc
 50
0.0
 51
180.0
  0
ARC
  5
244
330
1B
100
AcDbEntity
 67
     1
  8
0
  6
Continuous
 62
     7
370
    25
100
AcDbCircle
 10
-167.7471080863
 20
34.5043719326
 30
0.0
 40
16.50000000000001
100
AcDbArc
 50
270.0
 51
90.0
  0
ARC
  5
245
330
1B
100
AcDbEntity
 67
     1
  8
0
  6
Continuous
 62
     7
370
    25
100
AcDbCircle
 10
-167.7471080863
 20
34.5043719326
 30
0.0
 40
16.0
100
AcDbArc
 50
269.9999999856
 51
90.0
  0
ARC
  5
246
330
1B
100
AcDbEntity
 67
     1
  8
0
  6
Continuous
 62
     7
370
    25
100
AcDbCircle
 10
-167.7471080863
 20
34.5043719326
 30
0.0
 40
18.74999999999314
100
AcDbArc
 50
48.0572254285
 51
86.9427745715
  0
ARC
  5
247
330
1B
100
AcDbEntity
 67
     1
  8
0
  6
Continuous
 62
     7
370
    25
100
AcDbCircle
 10
-155.4744681104
 20
46.7770119085
 30
0.0
 40
1.693866100004428
100
AcDbArc
 50
59.614937548
 51
81.182944995
  0
ARC
  5
248
330
1B
100
AcDbEntity
 67
     1
  8
0
  6
Continuous
 62
     7
370
    25
100
AcDbCircle
 10
-155.4744681105
 20
46.7770119085
 30
0.0
 40
1.693866100042186
100
AcDbArc
 50
8.8170550057
 51
30.3850624519
  0
ARC
  5
249
330
1B
100
AcDbEntity
 67
     1
  8
0
  6
Continuous
 62
     7
370
    25
100
AcDbCircle
 10
-167.7471080863
 20
34.5043719327
 30
0.0
 40
18.74999999993444
100
AcDbArc
 50
3.0572254284
 51
41.9427745716
  0
ARC
  5
24A
330
1B
100
AcDbEntity
 67
     1
  8
0
  6
Continuous
 62
     7
370
    25
100
AcDbCircle
 10
-150.3909741864
 20
34.5043719325
 30
0.0
 40
1.693866100101374
100
AcDbArc
 50
14.6149375458
 51
36.1829449946
  0
ARC
  5
24B
330
1B
100
AcDbEntity
 67
     1
  8
0
  6
Continuous
 62
     7
370
    25
100
AcDbCircle
 10
-150.3909741864
 20
34.5043719327
 30
0.0
 40
1.693866100101393
100
AcDbArc
 50
323.8170550054
 51
345.3850624542
  0
ARC
  5
24C
330
1B
100
AcDbEntity
 67
     1
  8
0
  6
Continuous
 62
     7
370
    25
100
AcDbCircle
 10
-167.7471080864
 20
34.5043719326
 30
0.0
 40
18.750000000067
100
AcDbArc
 50
318.0572254286
 51
356.9427745715
  0
ARC
  5
24D
330
1B
100
AcDbEntity
 67
     1
  8
0
  6
Continuous
 62
     7
370
    25
100
AcDbCircle
 10
-155.4744681104
 20
22.2317319567
 30
0.0
 40
1.693866099921907
100
AcDbArc
 50
329.6149375497
 51
351.1829449951
  0
ARC
  5
24E
330
1B
100
AcDbEntity
 67
     1
  8
0
  6
Continuous
 62
     7
370
    25
100
AcDbCircle
 10
-155.4744681104
 20
22.2317319567
 30
0.0
 40
1.693866099921316
100
AcDbArc
 50
278.8170550049
 51
300.3850624502
  0
ARC
  5
24F
330
1B
100
AcDbEntity
 67
     1
  8
0
  6
Continuous
 62
     7
370
    25
100
AcDbCircle
 10
-167.7471080863
 20
34.5043719326
 30
0.0
 40
18.74999999993462
100
AcDbArc
 50
273.0572254284
 51
311.9427745716
  0
ARC
  5
250
330
1B
100
AcDbEntity
 67
     1
  8
0
  6
Continuous
 62
     7
370
    25
100
AcDbCircle
 10
-167.7471080864
 20
17.1482380327
 30
0.0
 40
1.693866100100565
100
AcDbArc
 50
284.614937545
 51
306.1829449946
  0
ARC
  5
251
330
1B
100
AcDbEntity
 67
     1
  8
0
  6
Continuous
 62
     7
370
    25
100
AcDbCircle
 10
-167.7471080863
 20
17.1482380327
 30
0.0
 40
1.693866100099672
100
AcDbArc
 50
233.8170550054
 51
255.3850624535
  0
ARC
  5
252
330
1B
100
AcDbEntity
 67
     1
  8
0
  6
Continuous
 62
     7
370
    25
100
AcDbCircle
 10
-167.7471080863
 20
34.5043719327
 30
0.0
 40
18.75000000006679
100
AcDbArc
 50
228.0572254286
 51
266.9427745715
  0
ARC
  5
253
330
1B
100
AcDbEntity
 67
     1
  8
0
  6
Continuous
 62
     7
370
    25
100
AcDbCircle
 10
-180.0197480623
 20
22.2317319567
 30
0.0
 40
1.693866099921343
100
AcDbArc
 50
239.6149375413
 51
261.1829449951
  0
ARC
  5
254
330
1B
100
AcDbEntity
 67
     1
  8
0
  6
Continuous
 62
     7
370
    25
100
AcDbCircle
 10
-180.0197480623
 20
22.2317319567
 30
0.0
 40
1.693866099921221
100
AcDbArc
 50
188.8170550049
 51
210.3850624587
  0
ARC
  5
255
330
1B
100
AcDbEntity
 67
     1
  8
0
  6
Continuous
 62
     7
370
    25
100
AcDbCircle
 10
-167.7471080864
 20
34.5043719326
 30
0.0
 40
18.74999999993427
100
AcDbArc
 50
183.0572254284
 51
221.9427745716
  0
ARC
  5
256
330
1B
100
AcDbEntity
 67
     1
  8
0
  6
Continuous
 62
     7
370
    25
100
AcDbCircle
 10
-185.1032419863
 20
34.5043719327
 30
0.0
 40
1.69386610010063
100
AcDbArc
 50
194.6149375458
 51
216.1829449946
  0
ARC
  5
257
330
1B
100
AcDbEntity
 67
     1
  8
0
  6
Continuous
 62
     7
370
    25
100
AcDbCircle
 10
-185.1032419863
 20
34.5043719325
 30
0.0
 40
1.693866100101112
100
AcDbArc
 50
143.8170550054
 51
165.3850624542
  0
ARC
  5
258
330
1B
100
AcDbEntity
 67
     1
  8
0
  6
Continuous
 62
     7
370
    25
100
AcDbCircle
 10
-167.7471080863
 20
34.5043719326
 30
0.0
 40
18.75000000006744
100
AcDbArc
 50
138.0572254286
 51
176.9427745715
  0
ARC
  5
259
330
1B
100
AcDbEntity
 67
     1
  8
0
  6
Continuous
 62
     7
370
    25
100
AcDbCircle
 10
-180.0197480623
 20
46.7770119085
 30
0.0
 40
1.693866099921949
100
AcDbArc
 50
149.6149375444
 51
171.1829449951
  0
ARC
  5
25A
330
1B
100
AcDbEntity
 67
     1
  8
0
  6
Continuous
 62
     7
370
    25
100
AcDbCircle
 10
-180.0197480623
 20
46.7770119086
 30
0.0
 40
1.693866099921632
100
AcDbArc
 50
98.8170550049
 51
120.3850624556
  0
ARC
  5
25B
330
1B
100
AcDbEntity
 67
     1
  8
0
  6
Continuous
 62
     7
370
    25
100
AcDbCircle
 10
-167.7471080864
 20
34.5043719327
 30
0.0
 40
18.74999999993469
100
AcDbArc
 50
93.0572254284
 51
131.9427745716
  0
ARC
  5
25C
330
1B
100
AcDbEntity
 67
     1
  8
0
  6
Continuous
 62
     7
370
    25
100
AcDbCircle
 10
-167.7471080863
 20
51.8605058325
 30
0.0
 40
1.693866100099314
100
AcDbArc
 50
104.6149375465
 51
126.1829449946
  0
ARC
  5
25D
330
1B
100
AcDbEntity
 67
     1
  8
0
  6
Continuous
 62
     7
370
    25
100
AcDbCircle
 10
-167.7471080864
 20
51.8605058325
 30
0.0
 40
1.693866100175823
100
AcDbArc
 50
53.817055006
 51
75.3850624517
  0
ARC
  5
25E
330
1B
100
AcDbEntity
 67
     1
  8
0
  6
Continuous
 62
     7
370
    25
100
AcDbCircle
 10
-167.7471080863
 20
-45.4956280674
 30
0.0
 40
19.00000000000006
100
AcDbArc
 50
0.0
 51
180.0
  0
ARC
  5
25F
330
1B
100
AcDbEntity
 67
     1
  8
0
  6
Continuous
 62
     7
370
    25
100
AcDbCircle
 10
-167.7471080863
 20
-45.4956280674
 30
0.0
 40
21.00000000000006
100
AcDbArc
 50
0.0
 51
180.0
  0
ARC
  5
260
330
1B
100
AcDbEntity
 67
     1
  8
0
  6
Continuous
 62
     7
370
    25
100
AcDbCircle
 10
-167.7471080863
 20
-45.4956280674
 30
0.0
 40
16.5
100
AcDbArc
 50
90.0
 51
270.0
  0
ARC
  5
261
330
1B
100
AcDbEntity
 67
     1
  8
0
  6
Continuous
 62
     7
370
    25
100
AcDbCircle
 10
-167.7471080863
 20
-45.4956280674
 30
0.0
 40
16.00000000000001
100
AcDbArc
 50
90.0
 51
269.9999999856
  0
ARC
  5
262
330
1B
100
AcDbEntity
 67
     1
  8
0
  6
Continuous
 62
     7
370
    25
100
AcDbCircle
 10
-167.7471080863
 20
-45.4956280674
 30
0.0
 40
18.74999999999322
100
AcDbArc
 50
48.0572254285
 51
86.9427745715
  0
ARC
  5
263
330
1B
100
AcDbEntity
 67
     1
  8
0
  6
Continuous
 62
     7
370
    25
100
AcDbCircle
 10
-155.4744681104
 20
-33.2229880915
 30
0.0
 40
1.693866100004827
100
AcDbArc
 50
59.6149375447
 51
81.182944995
  0
ARC
  5
264
330
1B
100
AcDbEntity
 67
     1
  8
0
  6
Continuous
 62
     7
370
    25
100
AcDbCircle
 10
-155.4744681105
 20
-33.2229880915
 30
0.0
 40
1.693866100046037
100
AcDbArc
 50
8.8170550057
 51
30.3850624552
  0
ARC
  5
265
330
1B
100
AcDbEntity
 67
     1
  8
0
  6
Continuous
 62
     7
370
    25
100
AcDbCircle
 10
-167.7471080863
 20
-45.4956280673
 30
0.0
 40
18.74999999993464
100
AcDbArc
 50
3.0572254284
 51
41.9427745716
  0
ARC
  5
266
330
1B
100
AcDbEntity
 67
     1
  8
0
  6
Continuous
 62
     7
370
    25
100
AcDbCircle
 10
-150.3909741864
 20
-45.4956280675
 30
0.0
 40
1.693866100101443
100
AcDbArc
 50
14.6149375457
 51
36.1829449945
  0
ARC
  5
267
330
1B
100
AcDbEntity
 67
     1
  8
0
  6
Continuous
 62
     7
370
    25
100
AcDbCircle
 10
-150.3909741864
 20
-45.4956280673
 30
0.0
 40
1.693866100100623
100
AcDbArc
 50
323.8170550054
 51
345.3850624544
  0
ARC
  5
268
330
1B
100
AcDbEntity
 67
     1
  8
0
  6
Continuous
 62
     7
370
    25
100
AcDbCircle
 10
-167.7471080864
 20
-45.4956280674
 30
0.0
 40
18.75000000006708
100
AcDbArc
 50
318.0572254286
 51
356.9427745715
  0
ARC
  5
269
330
1B
100
AcDbEntity
 67
     1
  8
0
  6
Continuous
 62
     7
370
    25
100
AcDbCircle
 10
-155.4744681104
 20
-57.7682680433
 30
0.0
 40
1.693866099921494
100
AcDbArc
 50
329.6149375472
 51
351.1829449951
  0
ARC
  5
26A
330
1B
100
AcDbEntity
 67
     1
  8
0
  6
Continuous
 62
     7
370
    25
100
AcDbCircle
 10
-155.4744681104
 20
-57.7682680433
 30
0.0
 40
1.693866099921316
100
AcDbArc
 50
278.8170550049
 51
300.3850624528
  0
ARC
  5
26B
330
1B
100
AcDbEntity
 67
     1
  8
0
  6
Continuous
 62
     7
370
    25
100
AcDbCircle
 10
-167.7471080863
 20
-45.4956280674
 30
0.0
 40
18.74999999993453
100
AcDbArc
 50
273.0572254284
 51
311.9427745716
  0
ARC
  5
26C
330
1B
100
AcDbEntity
 67
     1
  8
0
  6
Continuous
 62
     7
370
    25
100
AcDbCircle
 10
-167.7471080864
 20
-62.8517619673
 30
0.0
 40
1.693866100099312
100
AcDbArc
 50
284.6149375479
 51
306.1829449946
  0
ARC
  5
26D
330
1B
100
AcDbEntity
 67
     1
  8
0
  6
Continuous
 62
     7
370
    25
100
AcDbCircle
 10
-167.7471080863
 20
-62.8517619673
 30
0.0
 40
1.693866100099026
100
AcDbArc
 50
233.8170550054
 51
255.3850624521
  0
ARC
  5
26E
330
1B
100
AcDbEntity
 67
     1
  8
0
  6
Continuous
 62
     7
370
    25
100
AcDbCircle
 10
-167.7471080863
 20
-45.4956280673
 30
0.0
 40
18.75000000006713
100
AcDbArc
 50
228.0572254286
 51
266.9427745715
  0
ARC
  5
26F
330
1B
100
AcDbEntity
 67
     1
  8
0
  6
Continuous
 62
     7
370
    25
100
AcDbCircle
 10
-180.0197480623
 20
-57.7682680433
 30
0.0
 40
1.693866099921201
100
AcDbArc
 50
239.6149375446
 51
261.1829449951
  0
ARC
  5
270
330
1B
100
AcDbEntity
 67
     1
  8
0
  6
Continuous
 62
     7
370
    25
100
AcDbCircle
 10
-180.0197480623
 20
-57.7682680433
 30
0.0
 40
1.69386609992326
100
AcDbArc
 50
188.8170550049
 51
210.3850624554
  0
ARC
  5
271
330
1B
100
AcDbEntity
 67
     1
  8
0
  6
Continuous
 62
     7
370
    25
100
AcDbCircle
 10
-167.7471080864
 20
-45.4956280674
 30
0.0
 40
18.74999999993494
100
AcDbArc
 50
183.0572254284
 51
221.9427745716
  0
ARC
  5
272
330
1B
100
AcDbEntity
 67
     1
  8
0
  6
Continuous
 62
     7
370
    25
100
AcDbCircle
 10
-185.1032419863
 20
-45.4956280673
 30
0.0
 40
1.693866100103224
100
AcDbArc
 50
194.614937546
 51
216.1829449945
  0
ARC
  5
273
330
1B
100
AcDbEntity
 67
     1
  8
0
  6
Continuous
 62
     7
370
    25
100
AcDbCircle
 10
-185.1032419863
 20
-45.4956280675
 30
0.0
 40
1.693866100101461
100
AcDbArc
 50
143.8170550055
 51
165.385062454
  0
ARC
  5
274
330
1B
100
AcDbEntity
 67
     1
  8
0
  6
Continuous
 62
     7
370
    25
100
AcDbCircle
 10
-167.7471080863
 20
-45.4956280674
 30
0.0
 40
18.75000000006722
100
AcDbArc
 50
138.0572254286
 51
176.9427745715
  0
ARC
  5
275
330
1B
100
AcDbEntity
 67
     1
  8
0
  6
Continuous
 62
     7
370
    25
100
AcDbCircle
 10
-180.0197480623
 20
-33.2229880915
 30
0.0
 40
1.693866099919996
100
AcDbArc
 50
149.6149375441
 51
171.1829449951
  0
ARC
  5
276
330
1B
100
AcDbEntity
 67
     1
  8
0
  6
Continuous
 62
     7
370
    25
100
AcDbCircle
 10
-180.0197480623
 20
-33.2229880914
 30
0.0
 40
1.693866099920199
100
AcDbArc
 50
98.8170550049
 51
120.3850624559
  0
ARC
  5
277
330
1B
100
AcDbEntity
 67
     1
  8
0
  6
Continuous
 62
     7
370
    25
100
AcDbCircle
 10
-167.7471080864
 20
-45.4956280673
 30
0.0
 40
18.74999999993452
100
AcDbArc
 50
93.0572254284
 51
131.9427745716
  0
ARC
  5
278
330
1B
100
AcDbEntity
 67
     1
  8
0
  6
Continuous
 62
     7
370
    25
100
AcDbCircle
 10
-167.7471080863
 20
-28.1394941675
 30
0.0
 40
1.693866100100578
100
AcDbArc
 50
104.6149375464
 51
126.1829449946
  0
ARC
  5
279
330
1B
100
AcDbEntity
 67
     1
  8
0
  6
Continuous
 62
     7
370
    25
100
AcDbCircle
 10
-167.7471080864
 20
-28.1394941675
 30
0.0
 40
1.69386610017595
100
AcDbArc
 50
53.817055006
 51
75.3850624534
  0
ARC
  5
27A
330
1B
100
AcDbEntity
 67
     1
  8
0
  6
Continuous
 62
     7
370
    25
100
AcDbCircle
 10
-167.7471080863
 20
-45.4956280674
 30
0.0
 40
21.25
100
AcDbArc
 50
90.0
 51
270.0
  0
ARC
  5
27B
330
1B
100
AcDbEntity
 67
     1
  8
0
  6
Continuous
 62
     7
370
    25
100
AcDbCircle
 10
-167.7471080863
 20
34.5043719326
 30
0.0
 40
21.25
100
AcDbArc
 50
90.0
 51
270.0
  0
ARC
  5
27C
330
1B
100
AcDbEntity
 67
     1
  8
0
  6
Continuous
 62
     7
370
    25
100
AcDbCircle
 10
-122.7471080863
 20
-97.9956280674
 30
0.0
 40
14.99999999999999
100
AcDbArc
 50
270.0
 51
0.0
  0
ARC
  5
27D
330
1B
100
AcDbEntity
 67
     1
  8
0
  6
Continuous
 62
     7
370
    25
100
AcDbCircle
 10
-212.7471080863
 20
-97.9956280674
 30
0.0
 40
14.99999999999997
100
AcDbArc
 50
180.0
 51
270.0
  0
ARC
  5
27E
330
1B
100
AcDbEntity
 67
     1
  8
0
  6
Continuous
 62
     7
370
    25
100
AcDbCircle
 10
-212.7471080863
 20
87.0043719326
 30
0.0
 40
15.0
100
AcDbArc
 50
90.0
 51
180.0
  0
ARC
  5
27F
330
1B
100
AcDbEntity
 67
     1
  8
0
  6
Continuous
 62
     7
370
    25
100
AcDbCircle
 10
-122.7471080863
 20
87.0043719326
 30
0.0
 40
15.00000000000007
100
AcDbArc
 50
0.0
 51
90.0
  0
ARC
  5
280
330
1B
100
AcDbEntity
 67
     1
  8
0
  6
Continuous
 62
     7
370
    25
100
AcDbCircle
 10
-167.7472489735
 20
34.5043330172
 30
0.0
 40
15.00014333535007
100
AcDbArc
 50
344.5341808536
 51
15.4660097102
  0
ARC
  5
281
330
1B
100
AcDbEntity
 67
     1
  8
0
  6
Continuous
 62
     7
370
    25
100
AcDbCircle
 10
-167.7471470017
 20
34.5045128196
 30
0.0
 40
15.00014333508003
100
AcDbArc
 50
254.5341808533
 51
285.4660097102
  0
ARC
  5
282
330
1B
100
AcDbEntity
 67
     1
  8
0
  6
Continuous
 62
     7
370
    25
100
AcDbCircle
 10
-167.7469671105
 20
34.5044108726
 30
0.0
 40
15.00014342546031
100
AcDbArc
 50
164.5341809738
 51
195.4660097103
  0
ARC
  5
283
330
1B
100
AcDbEntity
 67
     1
  8
0
  6
Continuous
 62
     7
370
    25
100
AcDbCircle
 10
-167.7471470017
 20
34.5045128196
 30
0.0
 40
13.50013982657971
100
AcDbArc
 50
252.7649312201
 51
287.2352658345
  0
ARC
  5
284
330
1B
100
AcDbEntity
 67
     1
  8
0
  6
Continuous
 62
     7
370
    25
100
AcDbCircle
 10
-167.7472489735
 20
34.5043330172
 30
0.0
 40
13.50013982684012
100
AcDbArc
 50
342.7649312205
 51
17.2352658345
  0
ARC
  5
285
330
1B
100
AcDbEntity
 67
     1
  8
0
  6
Continuous
 62
     7
370
    25
100
AcDbCircle
 10
-167.7469671105
 20
34.5044108726
 30
0.0
 40
13.50013991485
100
AcDbArc
 50
162.7649313568
 51
197.2352658225
  0
ARC
  5
286
330
1B
100
AcDbEntity
 67
     1
  8
0
  6
Continuous
 62
     7
370
    25
100
AcDbCircle
 10
-167.7471090671
 20
34.5043649315
 30
0.0
 40
13.50000671823858
100
AcDbArc
 50
63.6122095161
 51
116.3877811495
  0
ARC
  5
287
330
1B
100
AcDbEntity
 67
     1
  8
0
  6
Continuous
 62
     7
370
    25
100
AcDbCircle
 10
-167.7471091995
 20
34.5043837422
 30
0.0
 40
14.99998963240133
100
AcDbArc
 50
66.4217995812
 51
113.5781911072
  0
VIEWPORT
  5
45C
330
1B
100
AcDbEntity
 67
     1
  8
0
100
AcDbViewport
 10
0.0
 20
0.0
 30
0.0
 40
205.6
 41
156.0
 68
     1
 69
     1
 12
167.7471080863
 22
-5.4956280674
 13
0.0
 23
0.0
 14
10.0
 24
10.0
 15
10.0
 25
10.0
 16
0.0
 26
0.0
 36
1.0
 17
0.0
 27
0.0
 37
0.0
 42
50.0
 43
0.0
 44
0.0
 45
219.3
 50
0.0
 51
0.0
 72
   100
 90
   557152
  1

281
     0
 71
     1
 74
     0
110
0.0
120
0.0
130
0.0
111
1.0
121
0.0
131
0.0
112
0.0
122
1.0
132
0.0
 79
     0
146
0.0
  0
ENDSEC
  0
SECTION
  2
OBJECTS
  0
DICTIONARY
  5
C
330
0
100
AcDbDictionary
281
     1
  3
ACAD_GROUP
350
D
  3
ACAD_LAYOUT
350
1A
  3
ACAD_MLINESTYLE
350
17
  3
ACAD_PLOTSETTINGS
350
19
  3
ACAD_PLOTSTYLENAME
350
E
  3
ACAD_SCALELIST
350
47
  0
DICTIONARY
  5
D
102
{ACAD_REACTORS
330
C
102
}
330
C
100
AcDbDictionary
281
     1
  0
DICTIONARY
  5
1A
102
{ACAD_REACTORS
330
C
102
}
330
C
100
AcDbDictionary
281
     1
  3
_Back
350
1E
  3
_Bottom
350
3E7
  3
_Left
350
26
  3
_Top
350
36C
  3
Model
350
22
  0
DICTIONARY
  5
17
102
{ACAD_REACTORS
330
C
102
}
330
C
100
AcDbDictionary
281
     1
  3
Standard
350
18
  0
DICTIONARY
  5
19
102
{ACAD_REACTORS
330
C
102
}
330
C
100
AcDbDictionary
281
     1
  0
ACDBDICTIONARYWDFLT
  5
E
102
{ACAD_REACTORS
330
C
102
}
330
C
100
AcDbDictionary
281
     1
  3
Normal
350
F
100
AcDbDictionaryWithDefault
340
F
  0
DICTIONARY
  5
47
102
{ACAD_REACTORS
330
C
102
}
330
C
100
AcDbDictionary
281
     1
  3
A0
350
48
  3
A1
350
49
  3
A2
350
4A
  3
A3
350
4B
  3
A4
350
4C
  3
A5
350
4D
  3
A6
350
4E
  3
A7
350
4F
  3
A8
350
50
  3
A9
350
51
  3
B0
350
52
  3
B1
350
53
  3
B2
350
54
  3
B3
350
55
  3
B4
350
56
  3
B5
350
57
  3
B6
350
58
  3
B7
350
59
  3
B8
350
5A
  3
B9
350
5B
  3
C0
350
5C
  3
C1
350
5D
  3
C2
350
5E
  3
C3
350
5F
  3
C4
350
60
  3
C5
350
61
  3
C6
350
62
  3
C7
350
63
  3
C8
350
64
  3
C9
350
65
  3
D0
350
66
  3
D1
350
67
  3
D2
350
68
  0
LAYOUT
  5
1E
102
{ACAD_REACTORS
330
1A
102
}
330
1A
100
AcDbPlotSettings
  1

  2
none_device
  4
ISO_A4_(210.00_x_297.00_MM)
  6

 40
7.5
 41
20.0
 42
7.5
 43
20.0
 44
210.0
 45
297.0
 46
0.0
 47
0.0
 48
0.0
 49
0.0
140
0.0
141
0.0
142
1.0
143
1.1025641026
 70
   688
 72
     1
 73
     1
 74
     1
  7

 75
     0
147
0.9069767442
148
227.7471080863
149
112.9956280674
100
AcDbLayout
  1
_Back
 70
     1
 71
     1
 10
-249.7983901376
 20
-121.2648588366
 11
77.6631483239
 21
110.2736027018
 12
0.0
 22
0.0
 32
0.0
 14
-227.7471080863
 24
-112.9956280674
 34
0.0
 15
-107.7471080863
 25
102.0043719326
 35
0.0
146
0.0
 13
0.0
 23
0.0
 33
0.0
 16
1.0
 26
0.0
 36
0.0
 17
0.0
 27
1.0
 37
0.0
 76
     0
330
1B
331
45C
  0
LAYOUT
  5
3E7
102
{ACAD_REACTORS
330
1A
102
}
330
1A
100
AcDbPlotSettings
  1

  2
none_device
  4
ISO_A4_(210.00_x_297.00_MM)
  6

 40
7.5
 41
20.0
 42
7.5
 43
20.0
 44
210.0
 45
297.0
 46
0.0
 47
0.0
 48
0.0
 49
0.0
140
0.0
141
0.0
142
1.0
143
1.1025641026
 70
   688
 72
     1
 73
     1
 74
     1
  7

 75
     0
147
0.9069767442
148
227.7471080863
149
112.9956280674
100
AcDbLayout
  1
_Bottom
 70
     1
 71
     4
 10
0.0
 20
0.0
 11
0.0
 21
0.0
 12
0.0
 22
0.0
 32
0.0
 14
0.0
 24
0.0
 34
0.0
 15
0.0
 25
0.0
 35
0.0
146
0.0
 13
0.0
 23
0.0
 33
0.0
 16
1.0
 26
0.0
 36
0.0
 17
0.0
 27
1.0
 37
0.0
 76
     0
330
3E6
331
462
  0
LAYOUT
  5
26
102
{ACAD_REACTORS
330
1A
102
}
330
1A
100
AcDbPlotSettings
  1

  2
none_device
  4
ISO_A4_(210.00_x_297.00_MM)
  6

 40
7.5
 41
20.0
 42
7.5
 43
20.0
 44
210.0
 45
297.0
 46
0.0
 47
0.0
 48
0.0
 49
0.0
140
0.0
141
0.0
142
1.0
143
1.1025641026
 70
   688
 72
     1
 73
     1
 74
     1
  7

 75
     0
147
0.9069767442
148
227.7471080863
149
112.9956280674
100
AcDbLayout
  1
_Left
 70
     1
 71
     2
 10
0.0
 20
0.0
 11
0.0
 21
0.0
 12
0.0
 22
0.0
 32
0.0
 14
0.0
 24
0.0
 34
0.0
 15
0.0
 25
0.0
 35
0.0
146
0.0
 13
0.0
 23
0.0
 33
0.0
 16
1.0
 26
0.0
 36
0.0
 17
0.0
 27
1.0
 37
0.0
 76
     0
330
23
331
45E
  0
LAYOUT
  5
36C
102
{ACAD_REACTORS
330
1A
102
}
330
1A
100
AcDbPlotSettings
  1

  2
none_device
  4
ISO_A4_(210.00_x_297.00_MM)
  6

 40
7.5
 41
20.0
 42
7.5
 43
20.0
 44
210.0
 45
297.0
 46
0.0
 47
0.0
 48
0.0
 49
0.0
140
0.0
141
0.0
142
1.0
143
1.1025641026
 70
   688
 72
     1
 73
     1
 74
     1
  7

 75
     0
147
0.9069767442
148
227.7471080863
149
112.9956280674
100
AcDbLayout
  1
_Top
 70
     1
 71
     3
 10
0.0
 20
0.0
 11
0.0
 21
0.0
 12
0.0
 22
0.0
 32
0.0
 14
0.0
 24
0.0
 34
0.0
 15
0.0
 25
0.0
 35
0.0
146
0.0
 13
0.0
 23
0.0
 33
0.0
 16
1.0
 26
0.0
 36
0.0
 17
0.0
 27
1.0
 37
0.0
 76
     0
330
36B
331
460
  0
LAYOUT
  5
22
102
{ACAD_REACTORS
330
1A
102
}
330
1A
100
AcDbPlotSettings
  1

  2
none_device
  4
ANSI_A_(11.00_x_8.50_Inches)
  6

 40
6.35
 41
19.05
 42
6.35000508
 43
19.05000254
 44
279.4
 45
215.9
 46
-33.4148147702
 47
94.3634454219
 48
0.0
 49
0.0
140
0.0
141
0.0
142
0.0391395349
143
1.0
 70
  1696
 72
     0
 73
     0
 74
     0
  7

 75
     0
147
0.0179189148
148
-1300.4909072572
149
0.0
100
AcDbLayout
  1
Model
 70
     1
 71
     0
 10
0.0
 20
0.0
 11
420.0
 21
297.0
 12
0.0
 22
0.0
 32
0.0
 14
107.7471080863
 24
-112.9956280674
 34
0.0
 15
227.7471080863
 25
102.0043719326
 35
0.0
146
0.0
 13
0.0
 23
0.0
 33
0.0
 16
1.0
 26
0.0
 36
0.0
 17
0.0
 27
1.0
 37
0.0
 76
     0
330
1F
331
29
  0
MLINESTYLE
  5
18
102
{ACAD_REACTORS
330
17
102
}
330
17
100
AcDbMlineStyle
  2
Standard
 70
     0
  3

 62
   256
 51
90.0
 52
90.0
 71
     2
 49
0.5
 62
   256
  6
BYLAYER
 49
-0.5
 62
   256
  6
BYLAYER
  0
ACDBPLACEHOLDER
  5
F
102
{ACAD_REACTORS
330
E
102
}
330
E
  0
SCALE
  5
48
102
{ACAD_REACTORS
330
47
102
}
330
47
100
AcDbScale
 70
     0
300
1:1
140
1.0
141
1.0
290
     1
  0
SCALE
  5
49
102
{ACAD_REACTORS
330
47
102
}
330
47
100
AcDbScale
 70
     0
300
1:2
140
1.0
141
2.0
290
     0
  0
SCALE
  5
4A
102
{ACAD_REACTORS
330
47
102
}
330
47
100
AcDbScale
 70
     0
300
1:4
140
1.0
141
4.0
290
     0
  0
SCALE
  5
4B
102
{ACAD_REACTORS
330
47
102
}
330
47
100
AcDbScale
 70
     0
300
1:5
140
1.0
141
5.0
290
     0
  0
SCALE
  5
4C
102
{ACAD_REACTORS
330
47
102
}
330
47
100
AcDbScale
 70
     0
300
1:8
140
1.0
141
8.0
290
     0
  0
SCALE
  5
4D
102
{ACAD_REACTORS
330
47
102
}
330
47
100
AcDbScale
 70
     0
300
1:10
140
1.0
141
10.0
290
     0
  0
SCALE
  5
4E
102
{ACAD_REACTORS
330
47
102
}
330
47
100
AcDbScale
 70
     0
300
1:16
140
1.0
141
16.0
290
     0
  0
SCALE
  5
4F
102
{ACAD_REACTORS
330
47
102
}
330
47
100
AcDbScale
 70
     0
300
1:20
140
1.0
141
20.0
290
     0
  0
SCALE
  5
50
102
{ACAD_REACTORS
330
47
102
}
330
47
100
AcDbScale
 70
     0
300
1:30
140
1.0
141
30.0
290
     0
  0
SCALE
  5
51
102
{ACAD_REACTORS
330
47
102
}
330
47
100
AcDbScale
 70
     0
300
1:40
140
1.0
141
40.0
290
     0
  0
SCALE
  5
52
102
{ACAD_REACTORS
330
47
102
}
330
47
100
AcDbScale
 70
     0
300
1:50
140
1.0
141
50.0
290
     0
  0
SCALE
  5
53
102
{ACAD_REACTORS
330
47
102
}
330
47
100
AcDbScale
 70
     0
300
1:100
140
1.0
141
100.0
290
     0
  0
SCALE
  5
54
102
{ACAD_REACTORS
330
47
102
}
330
47
100
AcDbScale
 70
     0
300
2:1
140
2.0
141
1.0
290
     0
  0
SCALE
  5
55
102
{ACAD_REACTORS
330
47
102
}
330
47
100
AcDbScale
 70
     0
300
4:1
140
4.0
141
1.0
290
     0
  0
SCALE
  5
56
102
{ACAD_REACTORS
330
47
102
}
330
47
100
AcDbScale
 70
     0
300
8:1
140
8.0
141
1.0
290
     0
  0
SCALE
  5
57
102
{ACAD_REACTORS
330
47
102
}
330
47
100
AcDbScale
 70
     0
300
10:1
140
10.0
141
1.0
290
     0
  0
SCALE
  5
58
102
{ACAD_REACTORS
330
47
102
}
330
47
100
AcDbScale
 70
     0
300
100:1
140
100.0
141
1.0
290
     0
  0
SCALE
  5
59
102
{ACAD_REACTORS
330
47
102
}
330
47
100
AcDbScale
 70
     0
300
1/128" = 1'-0"
140
0.0078125
141
12.0
290
     0
  0
SCALE
  5
5A
102
{ACAD_REACTORS
330
47
102
}
330
47
100
AcDbScale
 70
     0
300
1/64" = 1'-0"
140
0.015625
141
12.0
290
     0
  0
SCALE
  5
5B
102
{ACAD_REACTORS
330
47
102
}
330
47
100
AcDbScale
 70
     0
300
1/32" = 1'-0"
140
0.03125
141
12.0
290
     0
  0
SCALE
  5
5C
102
{ACAD_REACTORS
330
47
102
}
330
47
100
AcDbScale
 70
     0
300
1/16" = 1'-0"
140
0.0625
141
12.0
290
     0
  0
SCALE
  5
5D
102
{ACAD_REACTORS
330
47
102
}
330
47
100
AcDbScale
 70
     0
300
3/32" = 1'-0"
140
0.09375
141
12.0
290
     0
  0
SCALE
  5
5E
102
{ACAD_REACTORS
330
47
102
}
330
47
100
AcDbScale
 70
     0
300
1/8" = 1'-0"
140
0.125
141
12.0
290
     0
  0
SCALE
  5
5F
102
{ACAD_REACTORS
330
47
102
}
330
47
100
AcDbScale
 70
     0
300
3/16" = 1'-0"
140
0.1875
141
12.0
290
     0
  0
SCALE
  5
60
102
{ACAD_REACTORS
330
47
102
}
330
47
100
AcDbScale
 70
     0
300
1/4" = 1'-0"
140
0.25
141
12.0
290
     0
  0
SCALE
  5
61
102
{ACAD_REACTORS
330
47
102
}
330
47
100
AcDbScale
 70
     0
300
3/8" = 1'-0"
140
0.375
141
12.0
290
     0
  0
SCALE
  5
62
102
{ACAD_REACTORS
330
47
102
}
330
47
100
AcDbScale
 70
     0
300
1/2" = 1'-0"
140
0.5
141
12.0
290
     0
  0
SCALE
  5
63
102
{ACAD_REACTORS
330
47
102
}
330
47
100
AcDbScale
 70
     0
300
3/4" = 1'-0"
140
0.75
141
12.0
290
     0
  0
SCALE
  5
64
102
{ACAD_REACTORS
330
47
102
}
330
47
100
AcDbScale
 70
     0
300
1" = 1'-0"
140
1.0
141
12.0
290
     0
  0
SCALE
  5
65
102
{ACAD_REACTORS
330
47
102
}
330
47
100
AcDbScale
 70
     0
300
1-1/2" = 1'-0"
140
1.5
141
12.0
290
     0
  0
SCALE
  5
66
102
{ACAD_REACTORS
330
47
102
}
330
47
100
AcDbScale
 70
     0
300
3" = 1'-0"
140
3.0
141
12.0
290
     0
  0
SCALE
  5
67
102
{ACAD_REACTORS
330
47
102
}
330
47
100
AcDbScale
 70
     0
300
6" = 1'-0"
140
6.0
141
12.0
290
     0
  0
SCALE
  5
68
102
{ACAD_REACTORS
330
47
102
}
330
47
100
AcDbScale
 70
     0
300
1'-0" = 1'-0"
140
12.0
141
12.0
290
     0
  0
ENDSEC
  0
EOF
