  0
SECTION
  2
HEADER
  9
$ACADVER
  1
AC1015
  9
$ACADMAINTVER
 70
     6
  9
$DWGCODEPAGE
  3
ANSI_1252
  9
$INSBASE
 10
0.0
 20
0.0
 30
0.0
  9
$EXTMIN
 10
-300.0
 20
0.0
 30
0.0
  9
$EXTMAX
 10
300.0
 20
445.0
 30
0.0
  9
$LIMMIN
 10
0.0
 20
0.0
  9
$LIMMAX
 10
420.0
 20
297.0
  9
$ORTHOMODE
 70
     0
  9
$REGENMODE
 70
     1
  9
$FILLMODE
 70
     1
  9
$QTEXTMODE
 70
     0
  9
$MIRRTEXT
 70
     1
  9
$LTSCALE
 40
1.0
  9
$ATTMODE
 70
     1
  9
$TEXTSIZE
 40
3.5
  9
$TRACEWID
 40
1.0
  9
$TEXTSTYLE
  7
Standard
  9
$CLAYER
  8
0
  9
$CELTYPE
  6
ByLayer
  9
$CECOLOR
 62
   256
  9
$CELTSCALE
 40
1.0
  9
$DISPSILH
 70
     0
  9
$DIMSCALE
 40
1.0
  9
$DIMASZ
 40
3.302
  9
$DIMEXO
 40
1.0
  9
$DIMDLI
 40
3.75
  9
$DIMRND
 40
0.0
  9
$DIMDLE
 40
0.0
  9
$DIMEXE
 40
1.0
  9
$DIMTP
 40
0.0
  9
$DIMTM
 40
0.0
  9
$DIMTXT
 40
3.5
  9
$DIMCEN
 40
2.5
  9
$DIMTSZ
 40
0.0
  9
$DIMTOL
 70
     0
  9
$DIMLIM
 70
     0
  9
$DIMTIH
 70
     1
  9
$DIMTOH
 70
     1
  9
$DIMSE1
 70
     0
  9
$DIMSE2
 70
     0
  9
$DIMTAD
 70
     1
  9
$DIMZIN
 70
     1
  9
$DIMBLK
  1

  9
$DIMASO
 70
     1
  9
$DIMSHO
 70
     1
  9
$DIMPOST
  1

  9
$DIMAPOST
  1

  9
$DIMALT
 70
     0
  9
$DIMALTD
 70
     3
  9
$DIMALTF
 40
0.0393700787
  9
$DIMLFAC
 40
1.0
  9
$DIMTOFL
 70
     1
  9
$DIMTVP
 40
0.0
  9
$DIMTIX
 70
     0
  9
$DIMSOXD
 70
     0
  9
$DIMSAH
 70
     0
  9
$DIMBLK1
  1

  9
$DIMBLK2
  1

  9
$DIMSTYLE
  2
ISO-25
  9
$DIMCLRD
 70
     0
  9
$DIMCLRE
 70
     0
  9
$DIMCLRT
 70
     0
  9
$DIMTFAC
 40
1.0
  9
$DIMGAP
 40
1.524
  9
$DIMJUST
 70
     0
  9
$DIMSD1
 70
     0
  9
$DIMSD2
 70
     0
  9
$DIMTOLJ
 70
     0
  9
$DIMTZIN
 70
     1
  9
$DIMALTZ
 70
     0
  9
$DIMALTTZ
 70
     0
  9
$DIMUPT
 70
     0
  9
$DIMDEC
 70
     2
  9
$DIMTDEC
 70
     2
  9
$DIMALTU
 70
     2
  9
$DIMALTTD
 70
     3
  9
$DIMTXSTY
  7
Standard
  9
$DIMAUNIT
 70
     0
  9
$DIMADEC
 70
     2
  9
$DIMALTRND
 40
0.0
  9
$DIMAZIN
 70
     0
  9
$DIMDSEP
 70
    44
  9
$DIMATFIT
 70
     3
  9
$DIMFRAC
 70
     0
  9
$DIMLDRBLK
  1

  9
$DIMLUNIT
 70
     2
  9
$DIMLWD
 70
    -2
  9
$DIMLWE
 70
    -2
  9
$DIMTMOVE
 70
     0
  9
$LUNITS
 70
     2
  9
$LUPREC
 70
     2
  9
$SKETCHINC
 40
1.0
  9
$FILLETRAD
 40
10.0
  9
$AUNITS
 70
     0
  9
$AUPREC
 70
     2
  9
$MENU
  1
.
  9
$ELEVATION
 40
0.0
  9
$PELEVATION
 40
0.0
  9
$THICKNESS
 40
0.0
  9
$LIMCHECK
 70
     0
  9
$CHAMFERA
 40
0.0
  9
$CHAMFERB
 40
0.0
  9
$CHAMFERC
 40
0.0
  9
$CHAMFERD
 40
0.0
  9
$SKPOLY
 70
     0
  9
$TDCREATE
 40
2458998.634206389
  9
$TDUCREATE
 40
2458998.592539722
  9
$TDUPDATE
 40
2458998.634243009
  9
$TDUUPDATE
 40
2458998.592576343
  9
$TDINDWG
 40
0.0000000116
  9
$TDUSRTIMER
 40
0.0000000116
  9
$USRTIMER
 70
     1
  9
$ANGBASE
 50
0.0
  9
$ANGDIR
 70
     0
  9
$PDMODE
 70
     0
  9
$PDSIZE
 40
-1.0
  9
$PLINEWID
 40
0.0
  9
$SPLFRAME
 70
     0
  9
$SPLINETYPE
 70
     6
  9
$SPLINESEGS
 70
     8
  9
$HANDSEED
  5
7C7
  9
$SURFTAB1
 70
     6
  9
$SURFTAB2
 70
     6
  9
$SURFTYPE
 70
     6
  9
$SURFU
 70
     6
  9
$SURFV
 70
     6
  9
$UCSBASE
  2

  9
$UCSNAME
  2

  9
$UCSORG
 10
0.0
 20
0.0
 30
0.0
  9
$UCSXDIR
 10
1.0
 20
0.0
 30
0.0
  9
$UCSYDIR
 10
0.0
 20
1.0
 30
0.0
  9
$UCSORTHOREF
  2

  9
$UCSORTHOVIEW
 70
     0
  9
$UCSORGTOP
 10
0.0
 20
0.0
 30
0.0
  9
$UCSORGBOTTOM
 10
0.0
 20
0.0
 30
0.0
  9
$UCSORGLEFT
 10
0.0
 20
0.0
 30
0.0
  9
$UCSORGRIGHT
 10
0.0
 20
0.0
 30
0.0
  9
$UCSORGFRONT
 10
0.0
 20
0.0
 30
0.0
  9
$UCSORGBACK
 10
0.0
 20
0.0
 30
0.0
  9
$PUCSBASE
  2

  9
$PUCSNAME
  2

  9
$PUCSORG
 10
0.0
 20
0.0
 30
0.0
  9
$PUCSXDIR
 10
1.0
 20
0.0
 30
0.0
  9
$PUCSYDIR
 10
0.0
 20
1.0
 30
0.0
  9
$PUCSORTHOREF
  2

  9
$PUCSORTHOVIEW
 70
     0
  9
$PUCSORGTOP
 10
0.0
 20
0.0
 30
0.0
  9
$PUCSORGBOTTOM
 10
0.0
 20
0.0
 30
0.0
  9
$PUCSORGLEFT
 10
0.0
 20
0.0
 30
0.0
  9
$PUCSORGRIGHT
 10
0.0
 20
0.0
 30
0.0
  9
$PUCSORGFRONT
 10
0.0
 20
0.0
 30
0.0
  9
$PUCSORGBACK
 10
0.0
 20
0.0
 30
0.0
  9
$USERI1
 70
     0
  9
$USERI2
 70
     0
  9
$USERI3
 70
     0
  9
$USERI4
 70
     0
  9
$USERI5
 70
     0
  9
$USERR1
 40
0.0
  9
$USERR2
 40
0.0
  9
$USERR3
 40
0.0
  9
$USERR4
 40
0.0
  9
$USERR5
 40
0.0
  9
$WORLDVIEW
 70
     1
  9
$SHADEDGE
 70
     3
  9
$SHADEDIF
 70
    70
  9
$TILEMODE
 70
     1
  9
$MAXACTVP
 70
    64
  9
$PINSBASE
 10
0.0
 20
0.0
 30
0.0
  9
$PLIMCHECK
 70
     0
  9
$PEXTMIN
 10
-300.0
 20
0.0
 30
0.0
  9
$PEXTMAX
 10
300.0
 20
445.0
 30
0.0
  9
$PLIMMIN
 10
-346.6926070039
 20
-17.5097276265
  9
$PLIMMAX
 10
346.6926070039
 20
472.7626459144
  9
$UNITMODE
 70
     0
  9
$VISRETAIN
 70
     1
  9
$PLINEGEN
 70
     0
  9
$PSLTSCALE
 70
     1
  9
$TREEDEPTH
 70
  3020
  9
$CMLSTYLE
  2
Standard
  9
$CMLJUST
 70
     0
  9
$CMLSCALE
 40
20.0
  9
$PROXYGRAPHICS
 70
     1
  9
$MEASUREMENT
 70
     1
  9
$CELWEIGHT
370
    -1
  9
$ENDCAPS
280
     0
  9
$JOINSTYLE
280
     0
  9
$LWDISPLAY
290
     1
  9
$INSUNITS
 70
     4
  9
$HYPERLINKBASE
  1

  9
$STYLESHEET
  1

  9
$XEDIT
290
     1
  9
$CEPSNTYPE
380
     0
  9
$PSTYLEMODE
290
     1
  9
$FINGERPRINTGUID
  2
{abf6c603-b5ef-45c0-88cd-5b47bfe40f3d}
  9
$VERSIONGUID
  2
{FAEB1C32-E019-11D5-929B-00C0DF256EC4}
  9
$EXTNAMES
290
     1
  9
$PSVPSCALE
 40
0.0
  9
$OLESTARTUP
290
     0
  0
ENDSEC
  0
SECTION
  2
CLASSES
  0
CLASS
  1
ACDBDICTIONARYWDFLT
  2
AcDbDictionaryWithDefault
  3
ObjectDBX Classes
 90
        0
280
     0
281
     0
  0
CLASS
  1
VISUALSTYLE
  2
AcDbVisualStyle
  3
ObjectDBX Classes
 90
     4095
280
     0
281
     0
  0
CLASS
  1
MATERIAL
  2
AcDbMaterial
  3
ObjectDBX Classes
 90
     1153
280
     0
281
     0
  0
CLASS
  1
SCALE
  2
AcDbScale
  3
ObjectDBX Classes
 90
     1153
280
     0
281
     0
  0
CLASS
  1
TABLESTYLE
  2
AcDbTableStyle
  3
ObjectDBX Classes
 90
     4095
280
     0
281
     0
  0
CLASS
  1
MLEADERSTYLE
  2
AcDbMLeaderStyle
  3
ACDB_MLEADERSTYLE_CLASS
 90
     4095
280
     0
281
     0
  0
CLASS
  1
SUN
  2
AcDbSun
  3
SCENEOE
 90
     1153
280
     0
281
     0
  0
CLASS
  1
ACDBPLACEHOLDER
  2
AcDbPlaceHolder
  3
ObjectDBX Classes
 90
        0
280
     0
281
     0
  0
CLASS
  1
LAYOUT
  2
AcDbLayout
  3
ObjectDBX Classes
 90
        0
280
     0
281
     0
  0
ENDSEC
  0
SECTION
  2
TABLES
  0
TABLE
  2
VPORT
  5
8
330
0
100
AcDbSymbolTable
 70
     1
  0
VPORT
  5
29
330
8
100
AcDbSymbolTableRecord
100
AcDbViewportTableRecord
  2
*Active
 70
     0
 10
0.0
 20
0.0
 11
1.0
 21
1.0
 12
0.0
 22
222.5
 13
0.0
 23
0.0
 14
10.0
 24
10.0
 15
10.0
 25
10.0
 16
0.0
 26
0.0
 36
1.0
 17
0.0
 27
0.0
 37
0.0
 40
453.9
 41
1.3483146067
 42
50.0
 43
0.0
 44
0.0
 50
0.0
 51
0.0
 71
     0
 72
   100
 73
     1
 74
     3
 75
     0
 76
     0
 77
     0
 78
     0
281
     0
 65
     1
110
0.0
120
0.0
130
0.0
111
1.0
121
0.0
131
0.0
112
0.0
122
1.0
132
0.0
 79
     0
146
0.0
  0
ENDTAB
  0
TABLE
  2
LTYPE
  5
5
330
0
100
AcDbSymbolTable
 70
     6
  0
LTYPE
  5
14
330
5
100
AcDbSymbolTableRecord
100
AcDbLinetypeTableRecord
  2
ByBlock
 70
     0
  3

 72
    65
 73
     0
 40
0.0
  0
LTYPE
  5
15
330
5
100
AcDbSymbolTableRecord
100
AcDbLinetypeTableRecord
  2
ByLayer
 70
     0
  3

 72
    65
 73
     0
 40
0.0
  0
LTYPE
  5
16
330
5
100
AcDbSymbolTableRecord
100
AcDbLinetypeTableRecord
  2
Continuous
 70
     0
  3
Solid line
 72
    65
 73
     0
 40
0.0
  0
LTYPE
  5
6E
330
5
100
AcDbSymbolTableRecord
100
AcDbLinetypeTableRecord
  2
HIDDEN
 70
     0
  3
Hidden __ __ __ __ __ __ __ __ __ __ __ __ __ __
 72
    65
 73
     2
 40
1.905
 49
1.27
 74
     0
 49
-0.635
 74
     0
  0
LTYPE
  5
6F
330
5
100
AcDbSymbolTableRecord
100
AcDbLinetypeTableRecord
  2
PHANTOM
 70
     0
  3
Phantom ______  __  __  ______  __  __  ______
 72
    65
 73
     6
 40
12.7
 49
6.35
 74
     0
 49
-1.27
 74
     0
 49
1.27
 74
     0
 49
-1.27
 74
     0
 49
1.27
 74
     0
 49
-1.27
 74
     0
  0
LTYPE
  5
70
330
5
100
AcDbSymbolTableRecord
100
AcDbLinetypeTableRecord
  2
CENTER
 70
     0
  3
Center ____ _ ____ _ ____ _ ____ _ ____ _ ____
 72
    65
 73
     4
 40
10.16
 49
6.35
 74
     0
 49
-1.27
 74
     0
 49
1.27
 74
     0
 49
-1.27
 74
     0
  0
LTYPE
  5
71
330
5
100
AcDbSymbolTableRecord
100
AcDbLinetypeTableRecord
  2
CENTERX2
 70
     0
  3
Center (2x) ________  __  ________  __  _____
 72
    65
 73
     4
 40
20.32
 49
12.7
 74
     0
 49
-2.54
 74
     0
 49
2.54
 74
     0
 49
-2.54
 74
     0
  0
LTYPE
  5
72
330
5
100
AcDbSymbolTableRecord
100
AcDbLinetypeTableRecord
  2
DOT2
 70
     0
  3
Dot (.5x) ........................................
 72
    65
 73
     2
 40
0.635
 49
0.0
 74
     0
 49
-0.635
 74
     0
  0
ENDTAB
  0
TABLE
  2
LAYER
  5
2
330
0
100
AcDbSymbolTable
 70
     1
  0
LAYER
  5
10
330
2
100
AcDbSymbolTableRecord
100
AcDbLayerTableRecord
  2
0
 70
     0
 62
     7
  6
Continuous
370
    -3
390
F
  0
ENDTAB
  0
TABLE
  2
STYLE
  5
3
330
0
100
AcDbSymbolTable
 70
     1
  0
STYLE
  5
11
330
3
100
AcDbSymbolTableRecord
100
AcDbTextStyleTableRecord
  2
Standard
 70
     0
 40
0.0
 41
1.0
 50
0.0
 71
     0
 42
3.5
  3
txt
  4

  0
ENDTAB
  0
TABLE
  2
VIEW
  5
6
330
0
100
AcDbSymbolTable
 70
     0
  0
ENDTAB
  0
TABLE
  2
UCS
  5
7
330
0
100
AcDbSymbolTable
 70
     0
  0
ENDTAB
  0
TABLE
  2
APPID
  5
9
330
0
100
AcDbSymbolTable
 70
     1
  0
APPID
  5
12
330
9
100
AcDbSymbolTableRecord
100
AcDbRegAppTableRecord
  2
ACAD
 70
     0
  0
ENDTAB
  0
TABLE
  2
DIMSTYLE
  5
A
330
0
100
AcDbSymbolTable
 70
     1
100
AcDbDimStyleTable
  0
DIMSTYLE
105
27
330
A
100
AcDbSymbolTableRecord
100
AcDbDimStyleTableRecord
  2
ISO-25
 70
     0
 41
2.5
 42
0.625
 43
3.75
 44
1.25
 73
     0
 74
     0
 77
     1
 78
     8
140
2.5
141
2.5
143
0.0393700787
147
0.625
171
     3
172
     1
178
     0
271
     2
272
     2
274
     3
278
    44
283
     0
284
     8
340
11
  0
ENDTAB
  0
TABLE
  2
BLOCK_RECORD
  5
1
330
0
100
AcDbSymbolTable
 70
     7
  0
BLOCK_RECORD
  5
1F
330
1
100
AcDbSymbolTableRecord
100
AcDbBlockTableRecord
  2
*Model_Space
340
22
  0
BLOCK_RECORD
  5
1B
330
1
100
AcDbSymbolTableRecord
100
AcDbBlockTableRecord
  2
*Paper_Space
340
1E
  0
BLOCK_RECORD
  5
23
330
1
100
AcDbSymbolTableRecord
100
AcDbBlockTableRecord
  2
*Paper_Space0
340
26
  0
BLOCK_RECORD
  5
317
330
1
100
AcDbSymbolTableRecord
100
AcDbBlockTableRecord
  2
*Paper_Space1
340
318
  0
BLOCK_RECORD
  5
34E
330
1
100
AcDbSymbolTableRecord
100
AcDbBlockTableRecord
  2
*Paper_Space2
340
34F
  0
BLOCK_RECORD
  5
3EF
330
1
100
AcDbSymbolTableRecord
100
AcDbBlockTableRecord
  2
*Paper_Space3
340
3F0
  0
BLOCK_RECORD
  5
520
330
1
100
AcDbSymbolTableRecord
100
AcDbBlockTableRecord
  2
*Paper_Space4
340
521
  0
BLOCK_RECORD
  5
607
330
1
100
AcDbSymbolTableRecord
100
AcDbBlockTableRecord
  2
*Paper_Space5
340
608
  0
BLOCK_RECORD
  5
6E7
330
1
100
AcDbSymbolTableRecord
100
AcDbBlockTableRecord
  2
*Paper_Space6
340
6E8
  0
ENDTAB
  0
ENDSEC
  0
SECTION
  2
BLOCKS
  0
BLOCK
  5
20
330
1F
100
AcDbEntity
  8
0
100
AcDbBlockBegin
  2
*Model_Space
 70
     0
 10
0.0
 20
0.0
 30
0.0
  3
*Model_Space
  1

  0
ENDBLK
  5
21
330
1F
100
AcDbEntity
  8
0
100
AcDbBlockEnd
  0
BLOCK
  5
1C
330
1B
100
AcDbEntity
 67
     1
  8
0
100
AcDbBlockBegin
  2
*Paper_Space
 70
     0
 10
0.0
 20
0.0
 30
0.0
  3
*Paper_Space
  1

  0
ENDBLK
  5
1D
330
1B
100
AcDbEntity
 67
     1
  8
0
100
AcDbBlockEnd
  0
BLOCK
  5
24
330
23
100
AcDbEntity
  8
0
100
AcDbBlockBegin
  2
*Paper_Space0
 70
     0
 10
0.0
 20
0.0
 30
0.0
  3
*Paper_Space0
  1

  0
LINE
  5
305
330
23
100
AcDbEntity
  8
0
  6
Continuous
 62
     7
370
    25
100
AcDbLine
 10
-226.0
 20
445.0
 30
0.0
 11
214.0
 21
445.0
 31
0.0
  0
LINE
  5
306
330
23
100
AcDbEntity
  8
0
  6
Continuous
 62
     7
370
    25
100
AcDbLine
 10
184.0
 20
395.0
 30
0.0
 11
184.0
 21
445.0
 31
0.0
  0
LINE
  5
307
330
23
100
AcDbEntity
  8
0
  6
Continuous
 62
     7
370
    25
100
AcDbLine
 10
224.0
 20
435.0
 30
0.0
 11
-226.0
 21
435.0
 31
0.0
  0
LINE
  5
308
330
23
100
AcDbEntity
  8
0
  6
Continuous
 62
     7
370
    25
100
AcDbLine
 10
-226.0
 20
0.0
 30
0.0
 11
-226.0
 21
445.0
 31
0.0
  0
LINE
  5
309
330
23
100
AcDbEntity
  8
0
  6
Continuous
 62
     7
370
    25
100
AcDbLine
 10
-226.0
 20
398.0
 30
0.0
 11
224.0
 21
398.0
 31
0.0
  0
LINE
  5
30A
330
23
100
AcDbEntity
  8
0
  6
Continuous
 62
     7
370
    25
100
AcDbLine
 10
224.0
 20
435.0
 30
0.0
 11
224.0
 21
398.0
 31
0.0
  0
LINE
  5
30B
330
23
100
AcDbEntity
  8
0
  6
Continuous
 62
     7
370
    25
100
AcDbLine
 10
221.0
 20
395.0
 30
0.0
 11
-226.0
 21
395.0
 31
0.0
  0
LINE
  5
30C
330
23
100
AcDbEntity
  8
0
  6
Continuous
 62
     7
370
    25
100
AcDbLine
 10
186.0
 20
395.0
 30
0.0
 11
186.0
 21
0.0
 31
0.0
  0
LINE
  5
30D
330
23
100
AcDbEntity
  8
0
  6
Continuous
 62
     7
370
    25
100
AcDbLine
 10
194.5
 20
317.9
 30
0.0
 11
194.5
 21
394.5
 31
0.0
  0
LINE
  5
30E
330
23
100
AcDbEntity
  8
0
  6
Continuous
 62
     7
370
    25
100
AcDbLine
 10
186.0
 20
394.5
 30
0.0
 11
204.5
 21
394.5
 31
0.0
  0
LINE
  5
30F
330
23
100
AcDbEntity
  8
0
  6
Continuous
 62
     7
370
    25
100
AcDbLine
 10
204.5
 20
394.5
 30
0.0
 11
204.5
 21
317.9
 31
0.0
  0
LINE
  5
310
330
23
100
AcDbEntity
  8
0
  6
Continuous
 62
     7
370
    25
100
AcDbLine
 10
204.5
 20
317.9
 30
0.0
 11
186.0
 21
317.9
 31
0.0
  0
LINE
  5
311
330
23
100
AcDbEntity
  8
0
  6
Continuous
 62
     7
370
    25
100
AcDbLine
 10
204.2
 20
305.0
 30
0.0
 11
204.2
 21
0.0
 31
0.0
  0
LINE
  5
312
330
23
100
AcDbEntity
  8
0
  6
Continuous
 62
     7
370
    25
100
AcDbLine
 10
204.2
 20
0.0
 30
0.0
 11
-226.0
 21
0.0
 31
0.0
  0
LINE
  5
313
330
23
100
AcDbEntity
  8
0
  6
Continuous
 62
     7
370
    25
100
AcDbLine
 10
194.2
 20
0.0
 30
0.0
 11
194.2
 21
305.0
 31
0.0
  0
LINE
  5
314
330
23
100
AcDbEntity
  8
0
  6
Continuous
 62
     7
370
    25
100
AcDbLine
 10
186.0
 20
305.0
 30
0.0
 11
204.2
 21
305.0
 31
0.0
  0
ARC
  5
315
330
23
100
AcDbEntity
  8
0
  6
Continuous
 62
     7
370
    25
100
AcDbCircle
 10
214.0
 20
435.0
 30
0.0
 40
10.00000000000023
100
AcDbArc
 50
0.0
 51
90.0
  0
ARC
  5
316
330
23
100
AcDbEntity
  8
0
  6
Continuous
 62
     7
370
    25
100
AcDbCircle
 10
221.0
 20
398.0
 30
0.0
 40
3.0
100
AcDbArc
 50
270.0
 51
0.0
  0
VIEWPORT
  5
7B9
330
23
100
AcDbEntity
  8
0
100
AcDbViewport
 10
0.0
 20
0.0
 30
0.0
 40
205.6
 41
156.0
 68
     1
 69
     1
 12
0.0
 22
222.5
 13
0.0
 23
0.0
 14
10.0
 24
10.0
 15
10.0
 25
10.0
 16
0.0
 26
0.0
 36
1.0
 17
0.0
 27
0.0
 37
0.0
 42
50.0
 43
0.0
 44
0.0
 45
464.3579766537
 50
0.0
 51
0.0
 72
   100
 90
   557152
  1

281
     0
 71
     1
 74
     0
110
0.0
120
0.0
130
0.0
111
1.0
121
0.0
131
0.0
112
0.0
122
1.0
132
0.0
 79
     0
146
0.0
  0
ENDBLK
  5
25
330
23
100
AcDbEntity
  8
0
100
AcDbBlockEnd
  0
BLOCK
  5
319
330
317
100
AcDbEntity
  8
0
100
AcDbBlockBegin
  2
*Paper_Space1
 70
     0
 10
0.0
 20
0.0
 30
0.0
  3
*Paper_Space1
  1

  0
LINE
  5
33C
330
317
100
AcDbEntity
  8
0
  6
Continuous
 62
     7
370
    25
100
AcDbLine
 10
226.0
 20
395.0
 30
0.0
 11
-221.0
 21
395.0
 31
0.0
  0
LINE
  5
33D
330
317
100
AcDbEntity
  8
0
  6
Continuous
 62
     7
370
    25
100
AcDbLine
 10
-184.0
 20
445.0
 30
0.0
 11
-184.0
 21
395.0
 31
0.0
  0
LINE
  5
33E
330
317
100
AcDbEntity
  8
0
  6
Continuous
 62
     7
370
    25
100
AcDbLine
 10
-224.0
 20
398.0
 30
0.0
 11
226.0
 21
398.0
 31
0.0
  0
LINE
  5
33F
330
317
100
AcDbEntity
  8
0
  6
Continuous
 62
     7
370
    25
100
AcDbLine
 10
226.0
 20
0.0
 30
0.0
 11
226.0
 21
445.0
 31
0.0
  0
LINE
  5
340
330
317
100
AcDbEntity
  8
0
  6
Continuous
 62
     7
370
    25
100
AcDbLine
 10
226.0
 20
435.0
 30
0.0
 11
-224.0
 21
435.0
 31
0.0
  0
LINE
  5
341
330
317
100
AcDbEntity
  8
0
  6
Continuous
 62
     7
370
    25
100
AcDbLine
 10
-224.0
 20
398.0
 30
0.0
 11
-224.0
 21
435.0
 31
0.0
  0
LINE
  5
342
330
317
100
AcDbEntity
  8
0
  6
Continuous
 62
     7
370
    25
100
AcDbLine
 10
-214.0
 20
445.0
 30
0.0
 11
226.0
 21
445.0
 31
0.0
  0
LINE
  5
343
330
317
100
AcDbEntity
  8
0
  6
Continuous
 62
     7
370
    25
100
AcDbLine
 10
-204.2
 20
0.0
 30
0.0
 11
226.0
 21
0.0
 31
0.0
  0
LINE
  5
344
330
317
100
AcDbEntity
  8
0
  6
Continuous
 62
     7
370
    25
100
AcDbLine
 10
-186.0
 20
395.0
 30
0.0
 11
-186.0
 21
0.0
 31
0.0
  0
LINE
  5
345
330
317
100
AcDbEntity
  8
0
  6
Continuous
 62
     7
370
    25
100
AcDbLine
 10
-194.5
 20
394.5
 30
0.0
 11
-194.5
 21
317.9
 31
0.0
  0
LINE
  5
346
330
317
100
AcDbEntity
  8
0
  6
Continuous
 62
     7
370
    25
100
AcDbLine
 10
-186.0
 20
317.9
 30
0.0
 11
-204.5
 21
317.9
 31
0.0
  0
LINE
  5
347
330
317
100
AcDbEntity
  8
0
  6
Continuous
 62
     7
370
    25
100
AcDbLine
 10
-204.5
 20
317.9
 30
0.0
 11
-204.5
 21
394.5
 31
0.0
  0
LINE
  5
348
330
317
100
AcDbEntity
  8
0
  6
Continuous
 62
     7
370
    25
100
AcDbLine
 10
-204.5
 20
394.5
 30
0.0
 11
-186.0
 21
394.5
 31
0.0
  0
LINE
  5
349
330
317
100
AcDbEntity
  8
0
  6
Continuous
 62
     7
370
    25
100
AcDbLine
 10
-194.2
 20
305.0
 30
0.0
 11
-194.2
 21
0.0
 31
0.0
  0
LINE
  5
34A
330
317
100
AcDbEntity
  8
0
  6
Continuous
 62
     7
370
    25
100
AcDbLine
 10
-204.2
 20
305.0
 30
0.0
 11
-186.0
 21
305.0
 31
0.0
  0
LINE
  5
34B
330
317
100
AcDbEntity
  8
0
  6
Continuous
 62
     7
370
    25
100
AcDbLine
 10
-204.2
 20
0.0
 30
0.0
 11
-204.2
 21
305.0
 31
0.0
  0
ARC
  5
34C
330
317
100
AcDbEntity
  8
0
  6
Continuous
 62
     7
370
    25
100
AcDbCircle
 10
-221.0
 20
398.0
 30
0.0
 40
3.000000000000114
100
AcDbArc
 50
180.0
 51
270.0
  0
ARC
  5
34D
330
317
100
AcDbEntity
  8
0
  6
Continuous
 62
     7
370
    25
100
AcDbCircle
 10
-214.0
 20
435.0
 30
0.0
 40
10.0
100
AcDbArc
 50
90.0
 51
180.0
  0
VIEWPORT
  5
7BB
330
317
100
AcDbEntity
  8
0
100
AcDbViewport
 10
0.0
 20
0.0
 30
0.0
 40
205.6
 41
156.0
 68
     1
 69
     1
 12
0.0
 22
222.5
 13
0.0
 23
0.0
 14
10.0
 24
10.0
 15
10.0
 25
10.0
 16
0.0
 26
0.0
 36
1.0
 17
0.0
 27
0.0
 37
0.0
 42
50.0
 43
0.0
 44
0.0
 45
464.3579766537
 50
0.0
 51
0.0
 72
   100
 90
   557152
  1

281
     0
 71
     1
 74
     0
110
0.0
120
0.0
130
0.0
111
1.0
121
0.0
131
0.0
112
0.0
122
1.0
132
0.0
 79
     0
146
0.0
  0
ENDBLK
  5
31A
330
317
100
AcDbEntity
  8
0
100
AcDbBlockEnd
  0
BLOCK
  5
350
330
34E
100
AcDbEntity
  8
0
100
AcDbBlockBegin
  2
*Paper_Space2
 70
     0
 10
0.0
 20
0.0
 30
0.0
  3
*Paper_Space2
  1

  0
LWPOLYLINE
  5
352
330
34E
100
AcDbEntity
  8
0
  6
Continuous
 62
     7
370
    25
100
AcDbPolyline
 90
       17
 70
   128
 43
0.0
 10
216.993013255
 20
105.5920101246
 10
221.0062847939
 20
105.401700493
 10
224.9774433151
 20
104.8325809162
 10
228.868734092
 20
103.8900621462
 10
232.6431617189
 20
102.583104928
 10
236.2648418354
 20
100.9241348074
 10
239.6993422872
 20
98.928923999
 10
242.9140104804
 20
96.6164414354
 10
245.8782838176
 20
94.0086724257
 10
248.5639802634
 20
91.1304096358
 10
250.9455662777
 20
88.0090173788
 10
253.0003995689
 20
84.6741714561
 10
254.7089443595
 20
81.1575770228
 10
256.054957117
 20
77.4926671592
 10
257.0256409856
 20
73.714285015
 10
257.6117674481
 20
69.8583525471
 10
257.807764064
 20
65.9615290014
  0
LWPOLYLINE
  5
354
330
34E
100
AcDbEntity
  8
0
  6
Continuous
 62
     7
370
    25
100
AcDbPolyline
 90
       15
 70
   128
 43
0.0
 10
248.1063390626
 20
65.9615290014
 10
247.9215229993
 20
69.3009945852
 10
247.3475737385
 20
72.5939837523
 10
246.3916166281
 20
75.7996153747
 10
245.0655194889
 20
78.8780928328
 10
243.3857452801
 20
81.7911980747
 10
241.373147719
 20
84.5027660775
 10
239.0527123899
 20
86.9791338217
 10
236.4532465584
 20
89.1895582037
 10
233.6070215411
 20
91.1065976992
 10
230.5493720697
 20
92.7064530387
 10
227.3182576254
 20
93.9692626654
 10
223.9537911865
 20
94.8793493088
 10
220.4977412425
 20
95.4254146115
 10
216.993013255
 20
95.6006793936
  0
LWPOLYLINE
  5
361
330
34E
100
AcDbEntity
  8
0
  6
Continuous
 62
     7
370
    25
100
AcDbPolyline
 90
       17
 70
   128
 43
0.0
 10
-257.807764064
 20
65.9615290014
 10
-257.6117674481
 20
69.8583525471
 10
-257.0256409856
 20
73.714285015
 10
-256.054957117
 20
77.4926671592
 10
-254.7089443595
 20
81.1575770228
 10
-253.0003995689
 20
84.6741714561
 10
-250.9455662777
 20
88.0090173788
 10
-248.5639802634
 20
91.1304096358
 10
-245.8782838176
 20
94.0086724257
 10
-242.9140104804
 20
96.6164414354
 10
-239.6993422872
 20
98.928923999
 10
-236.2648418354
 20
100.9241348074
 10
-232.6431617189
 20
102.583104928
 10
-228.868734092
 20
103.8900621462
 10
-224.9774433151
 20
104.8325809162
 10
-221.0062847939
 20
105.401700493
 10
-216.993013255
 20
105.5920101246
  0
CIRCLE
  5
365
330
34E
100
AcDbEntity
  8
0
  6
Continuous
 62
     7
370
    25
100
AcDbCircle
 10
0.0
 20
161.0
 30
0.0
 40
18.99999999999997
  0
LWPOLYLINE
  5
36F
330
34E
100
AcDbEntity
  8
0
  6
Continuous
 62
     7
370
    25
100
AcDbPolyline
 90
       15
 70
   128
 43
0.0
 10
-216.993013255
 20
95.6006793936
 10
-220.4977412425
 20
95.4254146115
 10
-223.9537911865
 20
94.8793493088
 10
-227.3182576254
 20
93.9692626654
 10
-230.5493720697
 20
92.7064530387
 10
-233.6070215411
 20
91.1065976992
 10
-236.4532465584
 20
89.1895582037
 10
-239.0527123899
 20
86.9791338217
 10
-241.373147719
 20
84.5027660775
 10
-243.3857452801
 20
81.7911980747
 10
-245.0655194889
 20
78.8780928328
 10
-246.3916166281
 20
75.7996153747
 10
-247.3475737385
 20
72.5939837523
 10
-247.9215229993
 20
69.3009945852
 10
-248.1063390626
 20
65.9615290014
  0
CIRCLE
  5
37A
330
34E
100
AcDbEntity
  8
0
  6
Continuous
 62
     7
370
    25
100
AcDbCircle
 10
0.0
 20
161.0
 30
0.0
 40
17.99999999999997
  0
LWPOLYLINE
  5
38E
330
34E
100
AcDbEntity
  8
0
  6
Continuous
 62
     7
370
    25
100
AcDbPolyline
 90
       20
 70
   128
 43
0.0
 10
-13.4414945617
 20
94.4915461718
 10
-13.0869035902
 20
94.5773201925
 10
-12.3629399098
 20
94.6651882824
 10
-11.3017474565
 20
94.746892945
 10
-9.9322727941
 20
94.8202054901
 10
-8.2918716213
 20
94.8831261426
 10
-6.425289806
 20
94.9339385911
 10
-4.3834428343
 20
94.9712568045
 10
-2.2220269688
 20
94.9940628392
 10
0.0
 20
95.001734606
 10
2.2220269688
 20
94.9940628392
 10
4.3834428343
 20
94.9712568045
 10
6.425289806
 20
94.9339385911
 10
8.2918716213
 20
94.8831261426
 10
9.9322727941
 20
94.8202054901
 10
11.3017474565
 20
94.746892945
 10
12.3629399098
 20
94.6651882824
 10
13.0869035902
 20
94.5773201925
 10
13.4538906556
 20
94.4856854879
 10
13.461439665
 20
94.4817191241
  0
CIRCLE
  5
3A0
330
34E
100
AcDbEntity
  8
0
  6
Continuous
 62
     7
370
    25
100
AcDbCircle
 10
0.0
 20
16.0
 30
0.0
 40
36.49456183689834
  0
CIRCLE
  5
3A1
330
34E
100
AcDbEntity
  8
0
  6
Continuous
 62
     7
370
    25
100
AcDbCircle
 10
0.0
 20
16.0
 30
0.0
 40
34.58114467507293
  0
CIRCLE
  5
3A2
330
34E
100
AcDbEntity
  8
0
  6
Continuous
 62
     7
370
    25
100
AcDbCircle
 10
0.0
 20
16.0
 30
0.0
 40
25.58658283817455
  0
CIRCLE
  5
3A3
330
34E
100
AcDbEntity
  8
0
  6
Continuous
 62
     7
370
    25
100
AcDbCircle
 10
0.0
 20
16.0
 30
0.0
 40
22.5
  0
LWPOLYLINE
  5
3A4
330
34E
100
AcDbEntity
  8
0
  6
Continuous
 62
     8
370
    25
100
AcDbPolyline
 90
        4
 70
   128
 43
0.0
 10
-13.2505911125
 20
94.3316100402
 10
-13.4538906556
 20
94.3927837242
 10
-13.4538906556
 20
94.4856854879
 10
-13.4414945617
 20
94.4915461718
  0
LWPOLYLINE
  5
3A5
330
34E
100
AcDbEntity
  8
0
  6
Continuous
 62
     8
370
    25
100
AcDbPolyline
 90
        3
 70
   128
 43
0.0
 10
13.461439665
 20
94.4817191241
 10
13.4538906556
 20
94.3927837242
 10
13.4009640007
 20
94.3712251621
  0
LINE
  5
3A8
330
34E
100
AcDbEntity
  8
0
  6
Continuous
 62
     7
370
    25
100
AcDbLine
 10
257.807764064
 20
65.9615290014
 30
0.0
 11
248.1063390626
 21
65.9615290014
 31
0.0
  0
LINE
  5
3A9
330
34E
100
AcDbEntity
  8
0
  6
Continuous
 62
     7
370
    25
100
AcDbLine
 10
216.993013255
 20
95.6006793936
 30
0.0
 11
216.993013255
 21
105.5920101246
 31
0.0
  0
LINE
  5
3AA
330
34E
100
AcDbEntity
  8
0
  6
Continuous
 62
     7
370
    25
100
AcDbLine
 10
216.993013255
 20
95.6006793936
 30
0.0
 11
-216.993013255
 21
95.6006793936
 31
0.0
  0
LINE
  5
3AB
330
34E
100
AcDbEntity
  8
0
  6
Continuous
 62
     7
370
    25
100
AcDbLine
 10
-216.993013255
 20
95.6006793936
 30
0.0
 11
-216.993013255
 21
105.5920101246
 31
0.0
  0
LINE
  5
3AC
330
34E
100
AcDbEntity
  8
0
  6
Continuous
 62
     7
370
    25
100
AcDbLine
 10
-216.993013255
 20
105.5920101246
 30
0.0
 11
216.993013255
 21
105.5920101246
 31
0.0
  0
LINE
  5
3AD
330
34E
100
AcDbEntity
  8
0
  6
Continuous
 62
     7
370
    25
100
AcDbLine
 10
-260.0
 20
-214.0
 30
0.0
 11
260.0
 21
-214.0
 31
0.0
  0
LINE
  5
3AE
330
34E
100
AcDbEntity
  8
0
  6
Continuous
 62
     7
370
    25
100
AcDbLine
 10
-290.0
 20
226.0
 30
0.0
 11
-290.0
 21
-184.0
 31
0.0
  0
LINE
  5
3AF
330
34E
100
AcDbEntity
  8
0
  6
Continuous
 62
     7
370
    25
100
AcDbLine
 10
-300.0
 20
226.0
 30
0.0
 11
300.0
 21
226.0
 31
0.0
  0
LINE
  5
3B0
330
34E
100
AcDbEntity
  8
0
  6
Continuous
 62
     7
370
    25
100
AcDbLine
 10
290.0
 20
-184.0
 30
0.0
 11
290.0
 21
226.0
 31
0.0
  0
LINE
  5
3B1
330
34E
100
AcDbEntity
  8
0
  6
Continuous
 62
     7
370
    25
100
AcDbLine
 10
257.807764064
 20
65.9615290014
 30
0.0
 11
257.807764064
 21
-142.6629156254
 31
0.0
  0
LINE
  5
3B2
330
34E
100
AcDbEntity
  8
0
  6
Continuous
 62
     7
370
    25
100
AcDbLine
 10
-257.807764064
 20
-142.6629156254
 30
0.0
 11
-257.807764064
 21
65.9615290014
 31
0.0
  0
LINE
  5
3B3
330
34E
100
AcDbEntity
  8
0
  6
Continuous
 62
     7
370
    25
100
AcDbLine
 10
219.3767078079
 20
-181.5
 30
0.0
 11
-219.3767078079
 21
-181.5
 31
0.0
  0
LINE
  5
3B4
330
34E
100
AcDbEntity
  8
0
  6
Continuous
 62
     7
370
    25
100
AcDbLine
 10
-219.3767078079
 20
-181.5
 30
0.0
 11
-219.3767078079
 21
-171.9
 31
0.0
  0
LINE
  5
3B5
330
34E
100
AcDbEntity
  8
0
  6
Continuous
 62
     7
370
    25
100
AcDbLine
 10
-219.3767078079
 20
-171.9
 30
0.0
 11
219.3767078079
 21
-171.9
 31
0.0
  0
LINE
  5
3B6
330
34E
100
AcDbEntity
  8
0
  6
Continuous
 62
     7
370
    25
100
AcDbLine
 10
219.3767078079
 20
-181.5
 30
0.0
 11
219.3767078079
 21
-171.9
 31
0.0
  0
LINE
  5
3B7
330
34E
100
AcDbEntity
  8
0
  6
Continuous
 62
     7
370
    25
100
AcDbLine
 10
257.807764064
 20
-142.6629156254
 30
0.0
 11
248.1063390626
 21
-142.6629156254
 31
0.0
  0
LINE
  5
3B8
330
34E
100
AcDbEntity
  8
0
  6
Continuous
 62
     7
370
    25
100
AcDbLine
 10
-248.1063390626
 20
-142.6629156254
 30
0.0
 11
-257.807764064
 21
-142.6629156254
 31
0.0
  0
LINE
  5
3B9
330
34E
100
AcDbEntity
  8
0
  6
Continuous
 62
     7
370
    25
100
AcDbLine
 10
-248.1063390626
 20
65.9615290014
 30
0.0
 11
-248.1063390626
 21
-142.6629156254
 31
0.0
  0
LINE
  5
3BA
330
34E
100
AcDbEntity
  8
0
  6
Continuous
 62
     7
370
    25
100
AcDbLine
 10
-248.1063390626
 20
65.9615290014
 30
0.0
 11
-257.807764064
 21
65.9615290014
 31
0.0
  0
LINE
  5
3BB
330
34E
100
AcDbEntity
  8
0
  6
Continuous
 62
     7
370
    25
100
AcDbLine
 10
-260.0
 20
-214.0
 30
0.0
 11
-260.0
 21
-224.0
 31
0.0
  0
LINE
  5
3BC
330
34E
100
AcDbEntity
  8
0
  6
Continuous
 62
     7
370
    25
100
AcDbLine
 10
-290.0
 20
-184.0
 30
0.0
 11
-300.0
 21
-184.0
 31
0.0
  0
LINE
  5
3BD
330
34E
100
AcDbEntity
  8
0
  6
Continuous
 62
     7
370
    25
100
AcDbLine
 10
300.0
 20
226.0
 30
0.0
 11
300.0
 21
-184.0
 31
0.0
  0
LINE
  5
3BE
330
34E
100
AcDbEntity
  8
0
  6
Continuous
 62
     7
370
    25
100
AcDbLine
 10
290.0
 20
-184.0
 30
0.0
 11
300.0
 21
-184.0
 31
0.0
  0
LINE
  5
3BF
330
34E
100
AcDbEntity
  8
0
  6
Continuous
 62
     7
370
    25
100
AcDbLine
 10
260.0
 20
-214.0
 30
0.0
 11
260.0
 21
-224.0
 31
0.0
  0
LINE
  5
3C0
330
34E
100
AcDbEntity
  8
0
  6
Continuous
 62
     7
370
    25
100
AcDbLine
 10
260.0
 20
-224.0
 30
0.0
 11
-260.0
 21
-224.0
 31
0.0
  0
LINE
  5
3C1
330
34E
100
AcDbEntity
  8
0
  6
Continuous
 62
     7
370
    25
100
AcDbLine
 10
248.1063390626
 20
-142.6629156254
 30
0.0
 11
248.1063390626
 21
65.9615290014
 31
0.0
  0
LINE
  5
3C2
330
34E
100
AcDbEntity
  8
0
  6
Continuous
 62
     7
370
    25
100
AcDbLine
 10
-300.0
 20
-184.0
 30
0.0
 11
-300.0
 21
226.0
 31
0.0
  0
LINE
  5
3C3
330
34E
100
AcDbEntity
  8
0
  6
Continuous
 62
     7
370
    25
100
AcDbLine
 10
223.7873218748
 20
-114.2907289064
 30
0.0
 11
248.1063390626
 21
-142.6629156254
 31
0.0
  0
LINE
  5
3C4
330
34E
100
AcDbEntity
  8
0
  6
Continuous
 62
     7
370
    25
100
AcDbLine
 10
219.3767078079
 20
-171.9
 30
0.0
 11
194.7767078079
 21
-143.2
 31
0.0
  0
LINE
  5
3C5
330
34E
100
AcDbEntity
  8
0
  6
Continuous
 62
     7
370
    25
100
AcDbLine
 10
-194.7767078079
 20
-143.2
 30
0.0
 11
-219.3767078079
 21
-171.9
 31
0.0
  0
LINE
  5
3C6
330
34E
100
AcDbEntity
  8
0
  6
Continuous
 62
     7
370
    25
100
AcDbLine
 10
-248.1063390626
 20
-142.6629156254
 30
0.0
 11
-223.7873218748
 21
-114.2907289064
 31
0.0
  0
LINE
  5
3C7
330
34E
100
AcDbEntity
  8
0
  6
Continuous
 62
     7
370
    25
100
AcDbLine
 10
194.7767078079
 20
-143.2
 30
0.0
 11
-194.7767078079
 21
-143.2
 31
0.0
  0
LINE
  5
3C8
330
34E
100
AcDbEntity
  8
0
  6
Continuous
 62
     7
370
    25
100
AcDbLine
 10
194.1807841696
 20
91.7986412127
 30
0.0
 11
216.993013255
 21
95.6006793936
 31
0.0
  0
LINE
  5
3C9
330
34E
100
AcDbEntity
  8
0
  6
Continuous
 62
     7
370
    25
100
AcDbLine
 10
248.1063390626
 20
65.9615290014
 30
0.0
 11
223.7873218748
 21
61.9083594701
 31
0.0
  0
LINE
  5
3CA
330
34E
100
AcDbEntity
  8
0
  6
Continuous
 62
     7
370
    25
100
AcDbLine
 10
-223.7873218748
 20
61.9083594701
 30
0.0
 11
-248.1063390626
 21
65.9615290014
 31
0.0
  0
LINE
  5
3CB
330
34E
100
AcDbEntity
  8
0
  6
Continuous
 62
     7
370
    25
100
AcDbLine
 10
-216.993013255
 20
95.6006793936
 30
0.0
 11
-194.1807841696
 21
91.7986412127
 31
0.0
  0
LINE
  5
3CC
330
34E
100
AcDbEntity
  8
0
  6
Continuous
 62
     7
370
    25
100
AcDbLine
 10
-223.7873218748
 20
-114.2907289064
 30
0.0
 11
-223.7873218748
 21
61.9083594701
 31
0.0
  0
LINE
  5
3CD
330
34E
100
AcDbEntity
  8
0
  6
Continuous
 62
     7
370
    25
100
AcDbLine
 10
223.7873218748
 20
61.9083594701
 30
0.0
 11
223.7873218748
 21
-114.2907289064
 31
0.0
  0
LINE
  5
3CE
330
34E
100
AcDbEntity
  8
0
  6
Continuous
 62
     7
370
    25
100
AcDbLine
 10
-194.1807841696
 20
91.7986412127
 30
0.0
 11
194.1807841696
 21
91.7986412127
 31
0.0
  0
LINE
  5
3CF
330
34E
100
AcDbEntity
  8
0
  6
Continuous
 62
     7
370
    25
100
AcDbLine
 10
223.7873218748
 20
61.9083594701
 30
0.0
 11
204.3844718719
 21
61.9083594701
 31
0.0
  0
LINE
  5
3D0
330
34E
100
AcDbEntity
  8
0
  6
Continuous
 62
     7
370
    25
100
AcDbLine
 10
194.1807841696
 20
91.7986412127
 30
0.0
 11
194.1807841696
 21
71.8159797509
 31
0.0
  0
LINE
  5
3D1
330
34E
100
AcDbEntity
  8
0
  6
Continuous
 62
     7
370
    25
100
AcDbLine
 10
194.1807841696
 20
71.8159797509
 30
0.0
 11
-194.1807841696
 21
71.8159797509
 31
0.0
  0
LINE
  5
3D2
330
34E
100
AcDbEntity
  8
0
  6
Continuous
 62
     7
370
    25
100
AcDbLine
 10
-194.1807841696
 20
91.7986412127
 30
0.0
 11
-194.1807841696
 21
71.8159797509
 31
0.0
  0
LINE
  5
3D3
330
34E
100
AcDbEntity
  8
0
  6
Continuous
 62
     7
370
    25
100
AcDbLine
 10
-204.3844718719
 20
61.9083594701
 30
0.0
 11
-223.7873218748
 21
61.9083594701
 31
0.0
  0
LINE
  5
3D4
330
34E
100
AcDbEntity
  8
0
  6
Continuous
 62
     7
370
    25
100
AcDbLine
 10
-204.3844718719
 20
61.9083594701
 30
0.0
 11
-204.3844718719
 21
-114.2907289064
 31
0.0
  0
LINE
  5
3D5
330
34E
100
AcDbEntity
  8
0
  6
Continuous
 62
     7
370
    25
100
AcDbLine
 10
-204.3844718719
 20
-114.2907289064
 30
0.0
 11
-223.7873218748
 21
-114.2907289064
 31
0.0
  0
LINE
  5
3D6
330
34E
100
AcDbEntity
  8
0
  6
Continuous
 62
     7
370
    25
100
AcDbLine
 10
-194.7767078079
 20
-124.0
 30
0.0
 11
-194.7767078079
 21
-143.2
 31
0.0
  0
LINE
  5
3D7
330
34E
100
AcDbEntity
  8
0
  6
Continuous
 62
     7
370
    25
100
AcDbLine
 10
223.7873218748
 20
-114.2907289064
 30
0.0
 11
204.3844718719
 21
-114.2907289064
 31
0.0
  0
LINE
  5
3D8
330
34E
100
AcDbEntity
  8
0
  6
Continuous
 62
     7
370
    25
100
AcDbLine
 10
194.7767078079
 20
-124.0
 30
0.0
 11
194.7767078079
 21
-143.2
 31
0.0
  0
LINE
  5
3D9
330
34E
100
AcDbEntity
  8
0
  6
Continuous
 62
     7
370
    25
100
AcDbLine
 10
204.3844718719
 20
-114.2907289064
 30
0.0
 11
204.3844718719
 21
61.9083594701
 31
0.0
  0
LINE
  5
3DA
330
34E
100
AcDbEntity
  8
0
  6
Continuous
 62
     7
370
    25
100
AcDbLine
 10
-194.7767078079
 20
-124.0
 30
0.0
 11
194.7767078079
 21
-124.0
 31
0.0
  0
ARC
  5
3DB
330
34E
100
AcDbEntity
  8
0
  6
Continuous
 62
     7
370
    25
100
AcDbCircle
 10
-260.0
 20
-184.0
 30
0.0
 40
30.00000000000011
100
AcDbArc
 50
180.0
 51
270.0
  0
ARC
  5
3DC
330
34E
100
AcDbEntity
  8
0
  6
Continuous
 62
     7
370
    25
100
AcDbCircle
 10
260.0
 20
-184.0
 30
0.0
 40
30.00000000000011
100
AcDbArc
 50
270.0
 51
0.0
  0
ARC
  5
3DD
330
34E
100
AcDbEntity
  8
0
  6
Continuous
 62
     7
370
    25
100
AcDbCircle
 10
219.6039745693
 20
-143.29171207
 30
0.0
 40
38.20896382691418
100
AcDbArc
 50
269.659202927
 51
0.9429465032
  0
ARC
  5
3DE
330
34E
100
AcDbEntity
  8
0
  6
Continuous
 62
     7
370
    25
100
AcDbCircle
 10
-219.6039745693
 20
-143.29171207
 30
0.0
 40
38.20896382691407
100
AcDbArc
 50
179.0570534968
 51
270.340797073
  0
ARC
  5
3DF
330
34E
100
AcDbEntity
  8
0
  6
Continuous
 62
     7
370
    25
100
AcDbCircle
 10
220.205311763
 20
-143.9801872432
 30
0.0
 40
27.93210570091292
100
AcDbArc
 50
268.3000753354
 51
2.7030582407
  0
ARC
  5
3E0
330
34E
100
AcDbEntity
  8
0
  6
Continuous
 62
     7
370
    25
100
AcDbCircle
 10
-220.205311763
 20
-143.9801872432
 30
0.0
 40
27.93210570091295
100
AcDbArc
 50
177.2969417593
 51
271.6999246646
  0
ARC
  5
3E1
330
34E
100
AcDbEntity
  8
0
  6
Continuous
 62
     7
370
    25
100
AcDbCircle
 10
-260.0
 20
-184.0
 30
0.0
 40
40.00000000000006
100
AcDbArc
 50
180.0
 51
270.0
  0
ARC
  5
3E2
330
34E
100
AcDbEntity
  8
0
  6
Continuous
 62
     7
370
    25
100
AcDbCircle
 10
260.0
 20
-184.0
 30
0.0
 40
40.0000000000002
100
AcDbArc
 50
270.0
 51
0.0
  0
ARC
  5
3E3
330
34E
100
AcDbEntity
  8
0
  6
Continuous
 62
     7
370
    25
100
AcDbCircle
 10
193.3936987522
 20
-112.8013510347
 30
0.0
 40
30.43009321317838
100
AcDbArc
 50
272.604917654
 51
357.1945806112
  0
ARC
  5
3E4
330
34E
100
AcDbEntity
  8
0
  6
Continuous
 62
     7
370
    25
100
AcDbCircle
 10
-193.3962876441
 20
-112.8039490021
 30
0.0
 40
30.42738036858447
100
AcDbArc
 50
182.8007717937
 51
267.3997299411
  0
ARC
  5
3E5
330
34E
100
AcDbEntity
  8
0
  6
Continuous
 62
     7
370
    25
100
AcDbCircle
 10
193.8224323208
 20
61.8358066698
 30
0.0
 40
29.96497738850532
100
AcDbArc
 50
0.1387277306
 51
89.3147821307
  0
ARC
  5
3E6
330
34E
100
AcDbEntity
  8
0
  6
Continuous
 62
     7
370
    25
100
AcDbCircle
 10
-193.8224323208
 20
61.8358066698
 30
0.0
 40
29.9649773885054
100
AcDbArc
 50
90.6852178693
 51
179.8612722694
  0
ARC
  5
3E7
330
34E
100
AcDbEntity
  8
0
  6
Continuous
 62
     7
370
    25
100
AcDbCircle
 10
-2.8696936319
 20
203.5054319698
 30
0.0
 40
109.6662501739197
100
AcDbArc
 50
264.5683065435
 51
271.4994595275
  0
ARC
  5
3E8
330
34E
100
AcDbEntity
  8
0
  6
Continuous
 62
     7
370
    25
100
AcDbCircle
 10
2.7935305987
 20
200.0044955878
 30
0.0
 40
106.1645207412224
100
AcDbArc
 50
268.4921894043
 51
275.7342787034
  0
ARC
  5
3E9
330
34E
100
AcDbEntity
  8
0
  6
Continuous
 62
     7
370
    25
100
AcDbCircle
 10
194.343686602
 20
61.7756388
 30
0.0
 40
10.04166239291482
100
AcDbArc
 50
0.757300472
 51
90.9295304824
  0
ARC
  5
3EA
330
34E
100
AcDbEntity
  8
0
  6
Continuous
 62
     7
370
    25
100
AcDbCircle
 10
-194.343686602
 20
61.7756388
 30
0.0
 40
10.04166239291484
100
AcDbArc
 50
89.0704695176
 51
179.242699528
  0
ARC
  5
3EB
330
34E
100
AcDbEntity
  8
0
  6
Continuous
 62
     7
370
    25
100
AcDbCircle
 10
-194.8335244982
 20
-114.4479280175
 30
0.0
 40
9.55224095672856
100
AcDbArc
 50
179.0570534968
 51
270.340797073
  0
ARC
  5
3EC
330
34E
100
AcDbEntity
  8
0
  6
Continuous
 62
     7
370
    25
100
AcDbCircle
 10
194.8335244982
 20
-114.4479280175
 30
0.0
 40
9.552240956728612
100
AcDbArc
 50
269.659202927
 51
0.9429465032
  0
ARC
  5
3ED
330
34E
100
AcDbEntity
  8
0
  6
Continuous
 62
     8
370
    25
100
AcDbCircle
 10
0.1479235398
 20
342.9273129391
 30
0.0
 40
248.0514893665265
100
AcDbArc
 50
269.965832114
 51
271.3427480649
  0
ARC
  5
3EE
330
34E
100
AcDbEntity
  8
0
  6
Continuous
 62
     8
370
    25
100
AcDbCircle
 10
-0.1479235398
 20
342.9273129392
 30
0.0
 40
248.0514893665602
100
AcDbArc
 50
268.6572519351
 51
270.0341678861
  0
VIEWPORT
  5
7BD
330
34E
100
AcDbEntity
  8
0
100
AcDbViewport
 10
0.0
 20
0.0
 30
0.0
 40
205.6
 41
156.0
 68
     1
 69
     1
 12
0.0
 22
222.5
 13
0.0
 23
0.0
 14
10.0
 24
10.0
 15
10.0
 25
10.0
 16
0.0
 26
0.0
 36
1.0
 17
0.0
 27
0.0
 37
0.0
 42
50.0
 43
0.0
 44
0.0
 45
464.3579766537
 50
0.0
 51
0.0
 72
   100
 90
   557152
  1

281
     0
 71
     1
 74
     0
110
0.0
120
0.0
130
0.0
111
1.0
121
0.0
131
0.0
112
0.0
122
1.0
132
0.0
 79
     0
146
0.0
  0
ENDBLK
  5
351
330
34E
100
AcDbEntity
  8
0
100
AcDbBlockEnd
  0
BLOCK
  5
3F1
330
3EF
100
AcDbEntity
  8
0
100
AcDbBlockBegin
  2
*Paper_Space3
 70
     0
 10
0.0
 20
0.0
 30
0.0
  3
*Paper_Space3
  1

  0
SPLINE
  5
3FD
330
3EF
100
AcDbEntity
  8
0
  6
Continuous
 62
     7
370
    25
100
AcDbSpline
210
0.0
220
0.0
230
1.0
 70
     8
 71
     3
 72
    24
 73
    20
 74
     0
 42
0.000000001
 43
0.00000001
 40
0.0
 40
0.0
 40
0.0
 40
0.0
 40
0.2500000000000158
 40
0.2500000000000158
 40
0.3750000000000246
 40
0.3750000000000246
 40
0.5000000000000334
 40
0.5000000000000334
 40
0.5625000000000278
 40
0.5625000000000278
 40
0.625000000000022
 40
0.625000000000022
 40
0.7500000000000105
 40
0.7500000000000105
 40
0.8125000000000072
 40
0.8125000000000072
 40
0.8750000000000039
 40
0.8750000000000039
 40
1.0
 40
1.0
 40
1.0
 40
1.0
 10
-174.4325877972723
 20
-195.9999999999999
 30
0.0
 10
-174.7079421077507
 20
-196.0
 30
0.0
 10
-174.9801685936098
 20
-196.0900113787341
 30
0.0
 10
-175.3833351954907
 20
-196.3657192269931
 30
0.0
 10
-175.5177131432806
 20
-196.4825399388986
 30
0.0
 10
-175.7791225988162
 20
-196.7662342912049
 30
0.0
 10
-175.9061275316638
 20
-196.9325488736759
 30
0.0
 10
-176.0900195819531
 20
-197.2247830075895
 30
0.0
 10
-176.1502061411213
 20
-197.3293715969736
 30
0.0
 10
-176.2680288174704
 20
-197.554831020133
 30
0.0
 10
-176.3259663369084
 20
-197.6764137417982
 30
0.0
 10
-176.4927070598611
 20
-198.0640246984464
 30
0.0
 10
-176.5943407190806
 20
-198.3511328167381
 30
0.0
 10
-176.7277430704442
 20
-198.8384110764437
 30
0.0
 10
-176.7692969762926
 20
-199.0119835509018
 30
0.0
 10
-176.8426313494316
 20
-199.3737569441693
 30
0.0
 10
-176.8744360993893
 20
-199.5615010907617
 30
0.0
 10
-176.9533179377665
 20
-200.147973490272
 30
0.0
 10
-176.9830661364282
 20
-200.573668383423
 30
0.0
 10
-176.9830661364282
 20
-200.9999999999999
 30
0.0
  0
SPLINE
  5
3FE
330
3EF
100
AcDbEntity
  8
0
  6
Continuous
 62
     7
370
    25
100
AcDbSpline
210
0.0
220
0.0
230
1.0
 70
     8
 71
     3
 72
    10
 73
     6
 74
     0
 42
0.000000001
 43
0.00000001
 40
0.0
 40
0.0
 40
0.0
 40
0.0
 40
0.5
 40
0.5
 40
1.0
 40
1.0
 40
1.0
 40
1.0
 10
-177.5458477632494
 20
-201.7080350481339
 30
0.0
 10
-177.4568027715486
 20
-201.5853722754429
 30
0.0
 10
-177.3652896239024
 20
-201.4651167044681
 30
0.0
 10
-177.1775774133069
 20
-201.2291657422759
 30
0.0
 10
-177.0804782123634
 20
-201.1125703680367
 30
0.0
 10
-176.9830661364282
 20
-200.9999999999999
 30
0.0
  0
SPLINE
  5
3FF
330
3EF
100
AcDbEntity
  8
0
  6
Continuous
 62
     7
370
    25
100
AcDbSpline
210
0.0
220
0.0
230
1.0
 70
     8
 71
     3
 72
    26
 73
    22
 74
     0
 42
0.000000001
 43
0.00000001
 40
0.0
 40
0.0
 40
0.0
 40
0.0
 40
0.1249999999999946
 40
0.1249999999999946
 40
0.2499999999999892
 40
0.2499999999999892
 40
0.3749999999999838
 40
0.3749999999999838
 40
0.4999999999999784
 40
0.4999999999999784
 40
0.6249999999999729
 40
0.6249999999999729
 40
0.6874999999999769
 40
0.6874999999999769
 40
0.7499999999999808
 40
0.7499999999999808
 40
0.8749999999999951
 40
0.8749999999999951
 40
0.9374999999999976
 40
0.9374999999999976
 40
1.0
 40
1.0
 40
1.0
 40
1.0
 10
-179.4325877972724
 20
-191.5389967798168
 30
0.0
 10
-179.4325877972724
 20
-191.9964081269067
 30
0.0
 10
-179.3834501674936
 20
-192.4404925054141
 30
0.0
 10
-179.2176266796474
 20
-193.3045582419643
 30
0.0
 10
-179.1001626495519
 20
-193.7256449533676
 30
0.0
 10
-178.8315239046197
 20
-194.5422450844214
 30
0.0
 10
-178.6813321416513
 20
-194.9361047462468
 30
0.0
 10
-178.3852417285298
 20
-195.7106154803244
 30
0.0
 10
-178.2396299710499
 20
-196.0913424029707
 30
0.0
 10
-177.9838876632249
 20
-196.8603904902498
 30
0.0
 10
-177.8741452718705
 20
-197.2488235874528
 30
0.0
 10
-177.7476796499049
 20
-197.8542349346801
 30
0.0
 10
-177.71171266114
 20
-198.0598336643575
 30
0.0
 10
-177.6517416341642
 20
-198.4814327827829
 30
0.0
 10
-177.6276412568265
 20
-198.6985445660619
 30
0.0
 10
-177.5711861103973
 20
-199.3611819449317
 30
0.0
 10
-177.554193721053
 20
-199.8148024854954
 30
0.0
 10
-177.541871994634
 20
-200.5192006586779
 30
0.0
 10
-177.5400472614579
 20
-200.7587559914435
 30
0.0
 10
-177.5400098842367
 20
-201.234106096563
 30
0.0
 10
-177.5417589269632
 20
-201.4713035685696
 30
0.0
 10
-177.54584776325
 20
-201.7080350481338
 30
0.0
  0
SPLINE
  5
400
330
3EF
100
AcDbEntity
  8
0
  6
Continuous
 62
     7
370
    25
100
AcDbSpline
210
0.0
220
0.0
230
1.0
 70
     8
 71
     3
 72
    24
 73
    20
 74
     0
 42
0.000000001
 43
0.00000001
 40
0.0
 40
0.0
 40
0.0
 40
0.0
 40
0.062500000000007
 40
0.062500000000007
 40
0.125000000000014
 40
0.125000000000014
 40
0.2500000000000204
 40
0.2500000000000204
 40
0.3750000000000268
 40
0.3750000000000268
 40
0.4375000000000311
 40
0.4375000000000311
 40
0.5000000000000354
 40
0.5000000000000354
 40
0.6250000000000276
 40
0.6250000000000276
 40
0.75000000000002
 40
0.75000000000002
 40
1.0
 40
1.0
 40
1.0
 40
1.0
 10
176.9830661364284
 20
-200.9999999999999
 30
0.0
 10
176.9830661364284
 20
-200.7868047166707
 30
0.0
 10
176.975779311339
 20
-200.5733603483686
 30
0.0
 10
176.948065058447
 20
-200.1598254496111
 30
0.0
 10
176.927748141096
 20
-199.9589612778811
 30
0.0
 10
176.8492888537707
 20
-199.3723997619255
 30
0.0
 10
176.772632232292
 20
-199.0026619011833
 30
0.0
 10
176.5947991634452
 20
-198.3525244235504
 30
0.0
 10
176.493169245001
 20
-198.065242485431
 30
0.0
 10
176.3264228982252
 20
-197.6774038335692
 30
0.0
 10
176.268476021524
 20
-197.5557395954484
 30
0.0
 10
176.1506336360158
 20
-197.3301371912789
 30
0.0
 10
176.0904360298914
 20
-197.225484483513
 30
0.0
 10
175.9065081535342
 20
-196.9330747886036
 30
0.0
 10
175.7794758079448
 20
-196.7666652455199
 30
0.0
 10
175.5180068426612
 20
-196.4828111591044
 30
0.0
 10
175.3835928818902
 20
-196.365922692464
 30
0.0
 10
174.980318376855
 20
-196.0900593860084
 30
0.0
 10
174.708017822627
 20
-195.9999999999999
 30
0.0
 10
174.4325877972728
 20
-195.9999999999999
 30
0.0
  0
SPLINE
  5
402
330
3EF
100
AcDbEntity
  8
0
  6
Continuous
 62
     7
370
    25
100
AcDbSpline
210
0.0
220
0.0
230
1.0
 70
     8
 71
     3
 72
    22
 73
    18
 74
     0
 42
0.000000001
 43
0.00000001
 40
0.0
 40
0.0
 40
0.0
 40
0.0
 40
0.1249999999999991
 40
0.1249999999999991
 40
0.187499999999996
 40
0.187499999999996
 40
0.2499999999999928
 40
0.2499999999999928
 40
0.374999999999993
 40
0.374999999999993
 40
0.4999999999999931
 40
0.4999999999999931
 40
0.6249999999999931
 40
0.6249999999999931
 40
0.7499999999999932
 40
0.7499999999999932
 40
1.0
 40
1.0
 40
1.0
 40
1.0
 10
177.5458477632498
 20
-201.708035048134
 30
0.0
 10
177.5377680761826
 20
-201.2402451588652
 30
0.0
 10
177.5377818878301
 20
-200.7750198994189
 30
0.0
 10
177.5493633665494
 20
-200.0809083126296
 30
0.0
 10
177.5555357287581
 20
-199.8485918621458
 30
0.0
 10
177.5747223906178
 20
-199.3958515319886
 30
0.0
 10
177.5877446552241
 20
-199.1747789692728
 30
0.0
 10
177.6412688412837
 20
-198.5246481968657
 30
0.0
 10
177.6970752362521
 20
-198.1082358397911
 30
0.0
 10
177.8618063149597
 20
-197.2975202268535
 30
0.0
 10
177.9700428085836
 20
-196.9066243405192
 30
0.0
 10
178.2243478724018
 20
-196.1331902580006
 30
0.0
 10
178.3699867542842
 20
-195.7505129564078
 30
0.0
 10
178.6669156821907
 20
-194.9738190082369
 30
0.0
 10
178.8178579404044
 20
-194.5797126036099
 30
0.0
 10
179.2234999166641
 20
-193.3583198632638
 30
0.0
 10
179.4325877972728
 20
-192.4912508463697
 30
0.0
 10
179.4325877972728
 20
-191.5389967798168
 30
0.0
  0
SPLINE
  5
403
330
3EF
100
AcDbEntity
  8
0
  6
Continuous
 62
     7
370
    25
100
AcDbSpline
210
0.0
220
0.0
230
1.0
 70
     8
 71
     3
 72
    10
 73
     6
 74
     0
 42
0.000000001
 43
0.00000001
 40
0.0
 40
0.0
 40
0.0
 40
0.0
 40
0.5
 40
0.5
 40
1.0
 40
1.0
 40
1.0
 40
1.0
 10
177.5458477632499
 20
-201.708035048134
 30
0.0
 10
177.4568027715491
 20
-201.5853722754431
 30
0.0
 10
177.365289623903
 20
-201.4651167044685
 30
0.0
 10
177.1775774133081
 20
-201.2291657422767
 30
0.0
 10
177.0804782121989
 20
-201.1125703682291
 30
0.0
 10
176.9830661364284
 20
-200.9999999999999
 30
0.0
  0
SPLINE
  5
405
330
3EF
100
AcDbEntity
  8
0
  6
Continuous
 62
     7
370
    25
100
AcDbSpline
210
0.0
220
0.0
230
1.0
 70
     8
 71
     3
 72
    30
 73
    26
 74
     0
 42
0.000000001
 43
0.00000001
 40
0.0
 40
0.0
 40
0.0
 40
0.0
 40
0.2499999999999965
 40
0.2499999999999965
 40
0.3749999999999994
 40
0.3749999999999994
 40
0.5000000000000023
 40
0.5000000000000023
 40
0.6250000000000052
 40
0.6250000000000052
 40
0.7500000000000081
 40
0.7500000000000081
 40
0.8125000000000118
 40
0.8125000000000118
 40
0.8750000000000153
 40
0.8750000000000153
 40
0.9062500000000183
 40
0.9062500000000183
 40
0.9375000000000213
 40
0.9375000000000213
 40
0.9531250000000183
 40
0.9531250000000183
 40
0.9687500000000153
 40
0.9687500000000153
 40
1.0
 40
1.0
 40
1.0
 40
1.0
 10
184.4325877972727
 20
-191.5389967798167
 30
0.0
 10
184.4325877972727
 20
-192.4568694883026
 30
0.0
 10
184.3178997954733
 20
-193.3542724434341
 30
0.0
 10
183.992244742533
 20
-194.6729579142646
 30
0.0
 10
183.8574211062106
 20
-195.1089392618116
 30
0.0
 10
183.5387232413376
 20
-195.9673850535236
 30
0.0
 10
183.3566989110287
 20
-196.3851755440911
 30
0.0
 10
182.9524037363864
 20
-197.200465174116
 30
0.0
 10
182.729997174296
 20
-197.5978958878546
 30
0.0
 10
182.2518221759888
 20
-198.3759370386449
 30
0.0
 10
181.9957225346346
 20
-198.7558871271852
 30
0.0
 10
181.601171819321
 20
-199.3171987347527
 30
0.0
 10
181.4678570837738
 20
-199.5030673560876
 30
0.0
 10
181.2035382717837
 20
-199.8763801262765
 30
0.0
 10
181.0718875567579
 20
-200.0633794096005
 30
0.0
 10
180.8890445374384
 20
-200.3537421779502
 30
0.0
 10
180.8304884965962
 20
-200.4522866042625
 30
0.0
 10
180.7276400626535
 20
-200.6563690435965
 30
0.0
 10
180.6819521287093
 20
-200.7627050070008
 30
0.0
 10
180.6491024480122
 20
-200.930556035605
 30
0.0
 10
180.6449820823263
 20
-200.9887434815932
 30
0.0
 10
180.653295387527
 20
-201.1015699786478
 30
0.0
 10
180.665138332881
 20
-201.1570658583969
 30
0.0
 10
180.7155499692052
 20
-201.321663302279
 30
0.0
 10
180.7656208482269
 20
-201.4241006725003
 30
0.0
 10
180.820500949494
 20
-201.5244072370376
 30
0.0
  0
SPLINE
  5
406
330
3EF
100
AcDbEntity
  8
0
  6
Continuous
 62
     7
370
    25
100
AcDbSpline
210
0.0
220
0.0
230
1.0
 70
     8
 71
     3
 72
    14
 73
    10
 74
     0
 42
0.000000001
 43
0.00000001
 40
0.0
 40
0.0
 40
0.0
 40
0.0
 40
0.5000000000000132
 40
0.5000000000000132
 40
0.7500000000000104
 40
0.7500000000000104
 40
0.8750000000000052
 40
0.8750000000000052
 40
1.0
 40
1.0
 40
1.0
 40
1.0
 10
178.2517399288497
 20
-202.0454376713608
 30
0.0
 10
178.6442672091826
 20
-201.9819292989707
 30
0.0
 10
179.0577606648549
 20
-201.9100864708354
 30
0.0
 10
179.7062325639567
 20
-201.7818266974907
 30
0.0
 10
179.9285255294835
 20
-201.7352439856678
 30
0.0
 10
180.2624685593408
 20
-201.6601643999398
 30
0.0
 10
180.3739387540882
 20
-201.6342673407094
 30
0.0
 10
180.5971640846435
 20
-201.5806546024626
 30
0.0
 10
180.7103839665089
 20
-201.5525122812235
 30
0.0
 10
180.8205009494938
 20
-201.5244072370376
 30
0.0
  0
SPLINE
  5
407
330
3EF
100
AcDbEntity
  8
0
  6
Continuous
 62
     7
370
    25
100
AcDbSpline
210
0.0
220
0.0
230
1.0
 70
     8
 71
     3
 72
    14
 73
    10
 74
     0
 42
0.000000001
 43
0.00000001
 40
0.0
 40
0.0
 40
0.0
 40
0.0
 40
0.25
 40
0.25
 40
0.5
 40
0.5
 40
0.75
 40
0.75
 40
1.0
 40
1.0
 40
1.0
 40
1.0
 10
178.2517399288497
 20
-202.0454376713608
 30
0.0
 10
178.1853542938763
 20
-202.0561784372603
 30
0.0
 10
178.119418126038
 20
-202.0556396918864
 30
0.0
 10
177.9883618198277
 20
-202.0340492653579
 30
0.0
 10
177.9233494729716
 20
-202.0125987962782
 30
0.0
 10
177.8017045359801
 20
-201.9525261376582
 30
0.0
 10
177.74335459775
 20
-201.9131158836186
 30
0.0
 10
177.6371521981978
 20
-201.8205479279629
 30
0.0
 10
177.5890580584509
 20
-201.7675588295016
 30
0.0
 10
177.5458477632507
 20
-201.7080350481324
 30
0.0
  0
SPLINE
  5
408
330
3EF
100
AcDbEntity
  8
0
  6
Continuous
 62
     7
370
    25
100
AcDbSpline
210
0.0
220
0.0
230
1.0
 70
     8
 71
     3
 72
    30
 73
    26
 74
     0
 42
0.000000001
 43
0.00000001
 40
0.0
 40
0.0
 40
0.0
 40
0.0
 40
0.0312500000000067
 40
0.0312500000000067
 40
0.0468750000000064
 40
0.0468750000000064
 40
0.0625000000000061
 40
0.0625000000000061
 40
0.093750000000007
 40
0.093750000000007
 40
0.1250000000000079
 40
0.1250000000000079
 40
0.1875000000000074
 40
0.1875000000000074
 40
0.2500000000000068
 40
0.2500000000000068
 40
0.3750000000000057
 40
0.3750000000000057
 40
0.5000000000000046
 40
0.5000000000000046
 40
0.6250000000000034
 40
0.6250000000000034
 40
0.7500000000000023
 40
0.7500000000000023
 40
1.0
 40
1.0
 40
1.0
 40
1.0
 10
-180.8205009494937
 20
-201.5244072370375
 30
0.0
 10
-180.7656208482268
 20
-201.4241006725002
 30
0.0
 10
-180.7155499692048
 20
-201.3216633022789
 30
0.0
 10
-180.6651383328808
 20
-201.1570658583969
 30
0.0
 10
-180.6532953875267
 20
-201.1015699786476
 30
0.0
 10
-180.644982082326
 20
-200.988743481593
 30
0.0
 10
-180.6491024480121
 20
-200.9305560356048
 30
0.0
 10
-180.6819521287091
 20
-200.7627050070007
 30
0.0
 10
-180.7276400626533
 20
-200.6563690435963
 30
0.0
 10
-180.830488496596
 20
-200.4522866042623
 30
0.0
 10
-180.8890445374382
 20
-200.3537421779498
 30
0.0
 10
-181.0718875567578
 20
-200.0633794096003
 30
0.0
 10
-181.2035382717835
 20
-199.8763801262763
 30
0.0
 10
-181.4678570837736
 20
-199.5030673560874
 30
0.0
 10
-181.6011718193208
 20
-199.3171987347525
 30
0.0
 10
-181.9957225346344
 20
-198.7558871271851
 30
0.0
 10
-182.2518221759888
 20
-198.3759370386445
 30
0.0
 10
-182.7299971742958
 20
-197.5978958878541
 30
0.0
 10
-182.9524037363862
 20
-197.2004651741155
 30
0.0
 10
-183.3566989110286
 20
-196.3851755440906
 30
0.0
 10
-183.5387232413374
 20
-195.9673850535232
 30
0.0
 10
-183.8574211062103
 20
-195.1089392618111
 30
0.0
 10
-183.9922447425324
 20
-194.6729579142651
 30
0.0
 10
-184.3178997954728
 20
-193.3542724434346
 30
0.0
 10
-184.4325877972725
 20
-192.4568694883027
 30
0.0
 10
-184.4325877972725
 20
-191.5389967798168
 30
0.0
  0
SPLINE
  5
411
330
3EF
100
AcDbEntity
  8
0
  6
Continuous
 62
     7
370
    25
100
AcDbSpline
210
0.0
220
0.0
230
1.0
 70
     8
 71
     3
 72
    14
 73
    10
 74
     0
 42
0.000000001
 43
0.00000001
 40
0.0
 40
0.0
 40
0.0
 40
0.0
 40
0.4999999999999796
 40
0.4999999999999796
 40
0.7499999999999866
 40
0.7499999999999866
 40
0.8749999999999933
 40
0.8749999999999933
 40
1.0
 40
1.0
 40
1.0
 40
1.0
 10
-178.2517399288495
 20
-202.0454376713606
 30
0.0
 10
-178.6440006768157
 20
-201.9819724221815
 30
0.0
 10
-179.057659422606
 20
-201.9101162491487
 30
0.0
 10
-179.7072071714984
 20
-201.7816290447623
 30
0.0
 10
-179.9296894437231
 20
-201.7349899834843
 30
0.0
 10
-180.2630466500283
 20
-201.6600305702713
 30
0.0
 10
-180.3743522447731
 20
-201.6341694824724
 30
0.0
 10
-180.5973099133441
 20
-201.5806181235385
 30
0.0
 10
-180.7102962721715
 20
-201.5525346633577
 30
0.0
 10
-180.8205009494937
 20
-201.5244072370375
 30
0.0
  0
SPLINE
  5
412
330
3EF
100
AcDbEntity
  8
0
  6
Continuous
 62
     7
370
    25
100
AcDbSpline
210
0.0
220
0.0
230
1.0
 70
     8
 71
     3
 72
    14
 73
    10
 74
     0
 42
0.000000001
 43
0.00000001
 40
0.0
 40
0.0
 40
0.0
 40
0.0
 40
0.25
 40
0.25
 40
0.5
 40
0.5
 40
0.75
 40
0.75
 40
1.0
 40
1.0
 40
1.0
 40
1.0
 10
-177.5458477632495
 20
-201.7080350481338
 30
0.0
 10
-177.5890561106679
 20
-201.7675561463619
 30
0.0
 10
-177.6371468469351
 20
-201.8205417109192
 30
0.0
 10
-177.7433379234166
 20
-201.9131029024286
 30
0.0
 10
-177.8016906050578
 20
-201.9525121498343
 30
0.0
 10
-177.9232387133451
 20
-202.0125512001233
 30
0.0
 10
-177.9881391339733
 20
-202.0339983190847
 30
0.0
 10
-178.1193745441791
 20
-202.0556467438853
 30
0.0
 10
-178.1853570940184
 20
-202.0561779842152
 30
0.0
 10
-178.2517399288495
 20
-202.0454376713605
 30
0.0
  0
LWPOLYLINE
  5
420
330
3EF
100
AcDbEntity
  8
0
  6
Continuous
 62
     7
370
    25
100
AcDbPolyline
 90
        9
 70
   128
 43
0.0
 10
-178.2517399288
 20
-221.0
 10
-178.3010979516
 20
-221.9754516101
 10
-178.4472752186
 20
-222.9134171618
 10
-178.6846542196
 20
-223.7778511651
 10
-179.0041126125
 20
-224.5355339059
 10
-179.3933737907
 20
-225.1573480615
 10
-179.8374786652
 20
-225.6193976626
 10
-180.3193605348
 20
-225.903926402
 10
-180.8205009495
 20
-226.0
  0
LWPOLYLINE
  5
421
330
3EF
100
AcDbEntity
  8
0
  6
Continuous
 62
     7
370
    25
100
AcDbPolyline
 90
        9
 70
   128
 43
0.0
 10
180.8205009495
 20
-226.0
 10
180.3193605348
 20
-225.903926402
 10
179.8374786652
 20
-225.6193976626
 10
179.3933737907
 20
-225.1573480615
 10
179.0041126125
 20
-224.5355339059
 10
178.6846542196
 20
-223.7778511651
 10
178.4472752186
 20
-222.9134171618
 10
178.3010979516
 20
-221.9754516101
 10
178.2517399288
 20
-221.0
  0
SPLINE
  5
450
330
3EF
100
AcDbEntity
  8
0
  6
Continuous
 62
     7
370
    25
100
AcDbSpline
210
0.0
220
0.0
230
1.0
 70
    24
 71
     3
 72
    14
 73
    10
 74
     0
 42
0.000000001
 43
0.00000001
 40
0.0
 40
0.0
 40
0.0
 40
0.0
 40
0.2499999999999939
 40
0.2499999999999939
 40
0.3749999999999949
 40
0.3749999999999949
 40
0.499999999999996
 40
0.499999999999996
 40
1.0
 40
1.0
 40
1.0
 40
1.0
 10
-284.9999999999997
 20
-225.9999999999999
 30
0.0
 10
-284.9999999999996
 20
-226.0
 30
0.0
 10
-284.9269255083099
 20
-225.9999999999999
 30
0.0
 10
-284.7481100397858
 20
-226.0
 30
0.0
 10
-284.6763975998247
 20
-226.0
 30
0.0
 10
-284.5167560717302
 20
-226.0
 30
0.0
 10
-284.4285199532426
 20
-226.0
 30
0.0
 10
-283.9555851270791
 20
-226.0
 30
0.0
 10
-283.4779878144927
 20
-226.0
 30
0.0
 10
-282.9999999999997
 20
-225.9999999999999
 30
0.0
  0
SPLINE
  5
458
330
3EF
100
AcDbEntity
  8
0
  6
Continuous
 62
     7
370
    25
100
AcDbSpline
210
0.0
220
0.0
230
1.0
 70
    24
 71
     3
 72
    14
 73
    10
 74
     0
 42
0.000000001
 43
0.00000001
 40
0.0
 40
0.0
 40
0.0
 40
0.0
 40
0.2500000000000231
 40
0.2500000000000231
 40
0.3750000000000306
 40
0.3750000000000306
 40
0.5000000000000381
 40
0.5000000000000381
 40
1.0
 40
1.0
 40
1.0
 40
1.0
 10
285.0000000000003
 20
-225.9999999999999
 30
0.0
 10
285.0000000000002
 20
-225.9999999999999
 30
0.0
 10
284.9269255083105
 20
-225.9999999999999
 30
0.0
 10
284.7481100397865
 20
-225.9999999999999
 30
0.0
 10
284.6763975998253
 20
-225.9999999999999
 30
0.0
 10
284.5167560717307
 20
-225.9999999999999
 30
0.0
 10
284.4285199532432
 20
-225.9999999999999
 30
0.0
 10
283.9555851270797
 20
-226.0
 30
0.0
 10
283.4779878144933
 20
-226.0000000000001
 30
0.0
 10
283.0000000000003
 20
-226.0000000000001
 30
0.0
  0
LWPOLYLINE
  5
486
330
3EF
100
AcDbEntity
  8
0
  6
Continuous
 62
     7
370
    25
100
AcDbPolyline
 90
        3
 70
   128
 43
0.0
 10
270.5899148076
 20
204.1029357681
 10
269.7509032202
 20
204.307852804
 10
267.8
 20
204.5
  0
LINE
  5
4AE
330
3EF
100
AcDbEntity
  8
0
  6
Continuous
 62
     7
370
    25
100
AcDbLine
 10
-254.1
 20
-198.25
 30
0.0
 11
-236.0
 21
-198.25
 31
0.0
  0
LINE
  5
4AF
330
3EF
100
AcDbEntity
  8
0
  6
Continuous
 62
     7
370
    25
100
AcDbLine
 10
-236.0
 20
-188.75
 30
0.0
 11
-254.1
 21
-188.75
 31
0.0
  0
LINE
  5
4B0
330
3EF
100
AcDbEntity
  8
0
  6
Continuous
 62
     7
370
    25
100
AcDbLine
 10
254.1
 20
-188.75
 30
0.0
 11
236.0
 21
-188.75
 31
0.0
  0
LINE
  5
4B1
330
3EF
100
AcDbEntity
  8
0
  6
Continuous
 62
     7
370
    25
100
AcDbLine
 10
236.0
 20
-198.25
 30
0.0
 11
254.1
 21
-198.25
 31
0.0
  0
LINE
  5
4B2
330
3EF
100
AcDbEntity
  8
0
  6
Continuous
 62
     7
370
    25
100
AcDbLine
 10
-254.1
 20
-186.0
 30
0.0
 11
-254.1
 21
-224.1
 31
0.0
  0
LINE
  5
4B3
330
3EF
100
AcDbEntity
  8
0
  6
Continuous
 62
     7
370
    25
100
AcDbLine
 10
-208.1
 20
-224.1
 30
0.0
 11
-208.1
 21
-226.0
 31
0.0
  0
LINE
  5
4B4
330
3EF
100
AcDbEntity
  8
0
  6
Continuous
 62
     7
370
    25
100
AcDbLine
 10
-254.1
 20
-224.1
 30
0.0
 11
-208.1
 21
-224.1
 31
0.0
  0
LINE
  5
4B5
330
3EF
100
AcDbEntity
  8
0
  6
Continuous
 62
     7
370
    25
100
AcDbLine
 10
184.4325877973
 20
-191.5389967798
 30
0.0
 11
179.4325877973
 21
-191.5389967798
 31
0.0
  0
LINE
  5
4B6
330
3EF
100
AcDbEntity
  8
0
  6
Continuous
 62
     7
370
    25
100
AcDbLine
 10
-180.8205009495
 20
-226.0
 30
0.0
 11
-180.8205009495
 21
-201.524407237
 31
0.0
  0
LINE
  5
4B7
330
3EF
100
AcDbEntity
  8
0
  6
Continuous
 62
     7
370
    25
100
AcDbLine
 10
-254.1
 20
-221.0
 30
0.0
 11
254.1
 21
-221.0
 31
0.0
  0
LINE
  5
4B8
330
3EF
100
AcDbEntity
  8
0
  6
Continuous
 62
     7
370
    25
100
AcDbLine
 10
180.8205009495
 20
-201.524407237
 30
0.0
 11
180.8205009495
 21
-226.0
 31
0.0
  0
LINE
  5
4B9
330
3EF
100
AcDbEntity
  8
0
  6
Continuous
 62
     7
370
    25
100
AcDbLine
 10
179.4325877973
 20
-191.5389967798
 30
0.0
 11
179.4325877973
 21
-186.0
 31
0.0
  0
LINE
  5
4BA
330
3EF
100
AcDbEntity
  8
0
  6
Continuous
 62
     7
370
    25
100
AcDbLine
 10
-179.4325877973
 20
-186.0
 30
0.0
 11
-179.4325877973
 21
-191.5389967798
 31
0.0
  0
LINE
  5
4BB
330
3EF
100
AcDbEntity
  8
0
  6
Continuous
 62
     7
370
    25
100
AcDbLine
 10
-184.4325877973
 20
-191.5389967798
 30
0.0
 11
-179.4325877973
 21
-191.5389967798
 31
0.0
  0
LINE
  5
4BC
330
3EF
100
AcDbEntity
  8
0
  6
Continuous
 62
     7
370
    25
100
AcDbLine
 10
-178.2517399288
 20
-202.0454376714
 30
0.0
 11
-178.2517399288
 21
-221.0
 31
0.0
  0
LINE
  5
4BD
330
3EF
100
AcDbEntity
  8
0
  6
Continuous
 62
     7
370
    25
100
AcDbLine
 10
187.4776062384
 20
-226.0
 30
0.0
 11
187.4776062384
 21
-186.0
 31
0.0
  0
LINE
  5
4BE
330
3EF
100
AcDbEntity
  8
0
  6
Continuous
 62
     7
370
    25
100
AcDbLine
 10
-187.4776062384
 20
-186.0
 30
0.0
 11
-187.4776062384
 21
-226.0
 31
0.0
  0
LINE
  5
4BF
330
3EF
100
AcDbEntity
  8
0
  6
Continuous
 62
     7
370
    25
100
AcDbLine
 10
178.2517399288
 20
-221.0
 30
0.0
 11
178.2517399288
 21
-202.0454376714
 31
0.0
  0
LINE
  5
4C0
330
3EF
100
AcDbEntity
  8
0
  6
Continuous
 62
     7
370
    25
100
AcDbLine
 10
176.9830661364
 20
-201.0
 30
0.0
 11
-176.9830661364
 21
-201.0
 31
0.0
  0
LINE
  5
4C1
330
3EF
100
AcDbEntity
  8
0
  6
Continuous
 62
     7
370
    25
100
AcDbLine
 10
-174.4325877973
 20
-196.0
 30
0.0
 11
174.4325877973
 21
-196.0
 31
0.0
  0
LINE
  5
4C2
330
3EF
100
AcDbEntity
  8
0
  6
Continuous
 62
     7
370
    25
100
AcDbLine
 10
287.0
 20
179.0
 30
0.0
 11
287.0
 21
-226.0
 31
0.0
  0
LINE
  5
4C3
330
3EF
100
AcDbEntity
  8
0
  6
Continuous
 62
     7
370
    25
100
AcDbLine
 10
-255.0
 20
211.0
 30
0.0
 11
255.0
 21
211.0
 31
0.0
  0
LINE
  5
4C4
330
3EF
100
AcDbEntity
  8
0
  6
Continuous
 62
     7
370
    25
100
AcDbLine
 10
-287.0
 20
-226.0
 30
0.0
 11
-287.0
 21
179.0
 31
0.0
  0
LINE
  5
4C5
330
3EF
100
AcDbEntity
  8
0
  6
Continuous
 62
     7
370
    25
100
AcDbLine
 10
-297.0
 20
184.0
 30
0.0
 11
-297.0
 21
-226.0
 31
0.0
  0
LINE
  5
4C6
330
3EF
100
AcDbEntity
  8
0
  6
Continuous
 62
     7
370
    25
100
AcDbLine
 10
260.0
 20
221.0
 30
0.0
 11
-260.0
 21
221.0
 31
0.0
  0
LINE
  5
4C7
330
3EF
100
AcDbEntity
  8
0
  6
Continuous
 62
     7
370
    25
100
AcDbLine
 10
297.0
 20
-226.0
 30
0.0
 11
297.0
 21
184.0
 31
0.0
  0
LINE
  5
4C8
330
3EF
100
AcDbEntity
  8
0
  6
Continuous
 62
     7
370
    25
100
AcDbLine
 10
-300.0
 20
-226.0
 30
0.0
 11
-285.0
 21
-226.0
 31
0.0
  0
LINE
  5
4C9
330
3EF
100
AcDbEntity
  8
0
  6
Continuous
 62
     7
370
    25
100
AcDbLine
 10
285.0
 20
-226.0
 30
0.0
 11
300.0
 21
-226.0
 31
0.0
  0
LINE
  5
4CA
330
3EF
100
AcDbEntity
  8
0
  6
Continuous
 62
     7
370
    25
100
AcDbLine
 10
-287.0
 20
179.0
 30
0.0
 11
-283.0
 21
179.0
 31
0.0
  0
LINE
  5
4CB
330
3EF
100
AcDbEntity
  8
0
  6
Continuous
 62
     7
370
    25
100
AcDbLine
 10
-285.0
 20
179.0
 30
0.0
 11
-285.0
 21
-226.0
 31
0.0
  0
LINE
  5
4CC
330
3EF
100
AcDbEntity
  8
0
  6
Continuous
 62
     7
370
    25
100
AcDbLine
 10
-300.0
 20
-226.0
 30
0.0
 11
-300.0
 21
184.0
 31
0.0
  0
LINE
  5
4CD
330
3EF
100
AcDbEntity
  8
0
  6
Continuous
 62
     7
370
    25
100
AcDbLine
 10
-300.0
 20
184.0
 30
0.0
 11
-297.0
 21
184.0
 31
0.0
  0
LINE
  5
4CE
330
3EF
100
AcDbEntity
  8
0
  6
Continuous
 62
     7
370
    25
100
AcDbLine
 10
300.0
 20
184.0
 30
0.0
 11
297.0
 21
184.0
 31
0.0
  0
LINE
  5
4CF
330
3EF
100
AcDbEntity
  8
0
  6
Continuous
 62
     7
370
    25
100
AcDbLine
 10
260.0
 20
224.0
 30
0.0
 11
260.0
 21
221.0
 31
0.0
  0
LINE
  5
4D0
330
3EF
100
AcDbEntity
  8
0
  6
Continuous
 62
     7
370
    25
100
AcDbLine
 10
-260.0
 20
224.0
 30
0.0
 11
-260.0
 21
221.0
 31
0.0
  0
LINE
  5
4D1
330
3EF
100
AcDbEntity
  8
0
  6
Continuous
 62
     7
370
    25
100
AcDbLine
 10
-260.0
 20
224.0
 30
0.0
 11
260.0
 21
224.0
 31
0.0
  0
LINE
  5
4D2
330
3EF
100
AcDbEntity
  8
0
  6
Continuous
 62
     7
370
    25
100
AcDbLine
 10
255.0
 20
211.0
 30
0.0
 11
255.0
 21
207.0
 31
0.0
  0
LINE
  5
4D3
330
3EF
100
AcDbEntity
  8
0
  6
Continuous
 62
     7
370
    25
100
AcDbLine
 10
255.0
 20
209.0
 30
0.0
 11
-255.0
 21
209.0
 31
0.0
  0
LINE
  5
4D4
330
3EF
100
AcDbEntity
  8
0
  6
Continuous
 62
     7
370
    25
100
AcDbLine
 10
-255.0
 20
211.0
 30
0.0
 11
-255.0
 21
207.0
 31
0.0
  0
LINE
  5
4D5
330
3EF
100
AcDbEntity
  8
0
  6
Continuous
 62
     7
370
    25
100
AcDbLine
 10
285.0
 20
-226.0
 30
0.0
 11
285.0
 21
179.0
 31
0.0
  0
LINE
  5
4D6
330
3EF
100
AcDbEntity
  8
0
  6
Continuous
 62
     7
370
    25
100
AcDbLine
 10
287.0
 20
179.0
 30
0.0
 11
283.0
 21
179.0
 31
0.0
  0
LINE
  5
4D7
330
3EF
100
AcDbEntity
  8
0
  6
Continuous
 62
     7
370
    25
100
AcDbLine
 10
300.0
 20
184.0
 30
0.0
 11
300.0
 21
-226.0
 31
0.0
  0
LINE
  5
4D8
330
3EF
100
AcDbEntity
  8
0
  6
Continuous
 62
     7
370
    25
100
AcDbLine
 10
-283.0
 20
179.0
 30
0.0
 11
-283.0
 21
-226.0
 31
0.0
  0
LINE
  5
4D9
330
3EF
100
AcDbEntity
  8
0
  6
Continuous
 62
     7
370
    25
100
AcDbLine
 10
-285.0
 20
-221.0
 30
0.0
 11
-279.2
 21
-221.0
 31
0.0
  0
LINE
  5
4DA
330
3EF
100
AcDbEntity
  8
0
  6
Continuous
 62
     7
370
    25
100
AcDbLine
 10
255.0
 20
207.0
 30
0.0
 11
-255.0
 21
207.0
 31
0.0
  0
LINE
  5
4DB
330
3EF
100
AcDbEntity
  8
0
  6
Continuous
 62
     7
370
    25
100
AcDbLine
 10
279.2
 20
-221.0
 30
0.0
 11
285.0
 21
-221.0
 31
0.0
  0
LINE
  5
4DC
330
3EF
100
AcDbEntity
  8
0
  6
Continuous
 62
     7
370
    25
100
AcDbLine
 10
283.0
 20
-226.0
 30
0.0
 11
283.0
 21
179.0
 31
0.0
  0
LINE
  5
4DD
330
3EF
100
AcDbEntity
  8
0
  6
Continuous
 62
     7
370
    25
100
AcDbLine
 10
283.0
 20
-226.0
 30
0.0
 11
-283.0
 21
-226.0
 31
0.0
  0
LINE
  5
4DE
330
3EF
100
AcDbEntity
  8
0
  6
Continuous
 62
     7
370
    25
100
AcDbLine
 10
-179.4325877973
 20
-191.0
 30
0.0
 11
179.4325877973
 21
-191.0
 31
0.0
  0
LINE
  5
4DF
330
3EF
100
AcDbEntity
  8
0
  6
Continuous
 62
     7
370
    25
100
AcDbLine
 10
-174.4325877973
 20
-186.0
 30
0.0
 11
-174.4325877973
 21
-196.0
 31
0.0
  0
LINE
  5
4E0
330
3EF
100
AcDbEntity
  8
0
  6
Continuous
 62
     7
370
    25
100
AcDbLine
 10
174.4325877973
 20
-196.0
 30
0.0
 11
174.4325877973
 21
-186.0
 31
0.0
  0
LINE
  5
4E1
330
3EF
100
AcDbEntity
  8
0
  6
Continuous
 62
     7
370
    25
100
AcDbLine
 10
-279.2
 20
186.0
 30
0.0
 11
279.2
 21
186.0
 31
0.0
  0
LINE
  5
4E2
330
3EF
100
AcDbEntity
  8
0
  6
Continuous
 62
     7
370
    25
100
AcDbLine
 10
-261.0
 20
186.0
 30
0.0
 11
-261.0
 21
-226.0
 31
0.0
  0
LINE
  5
4E3
330
3EF
100
AcDbEntity
  8
0
  6
Continuous
 62
     7
370
    25
100
AcDbLine
 10
-279.2
 20
194.5
 30
0.0
 11
-279.2
 21
-226.0
 31
0.0
  0
LINE
  5
4E4
330
3EF
100
AcDbEntity
  8
0
  6
Continuous
 62
     7
370
    25
100
AcDbLine
 10
-257.8
 20
-209.0
 30
0.0
 11
-256.0
 21
-209.0
 31
0.0
  0
LINE
  5
4E5
330
3EF
100
AcDbEntity
  8
0
  6
Continuous
 62
     7
370
    25
100
AcDbLine
 10
-256.0
 20
-226.0
 30
0.0
 11
-256.0
 21
-186.0
 31
0.0
  0
LINE
  5
4E6
330
3EF
100
AcDbEntity
  8
0
  6
Continuous
 62
     7
370
    25
100
AcDbLine
 10
-257.8
 20
-186.0
 30
0.0
 11
-257.8
 21
-210.0
 31
0.0
  0
LINE
  5
4E7
330
3EF
100
AcDbEntity
  8
0
  6
Continuous
 62
     7
370
    25
100
AcDbLine
 10
-261.0
 20
-213.0
 30
0.0
 11
-259.0
 21
-213.0
 31
0.0
  0
LINE
  5
4E8
330
3EF
100
AcDbEntity
  8
0
  6
Continuous
 62
     7
370
    25
100
AcDbLine
 10
-261.0
 20
-211.2
 30
0.0
 11
-259.0
 21
-211.2
 31
0.0
  0
LINE
  5
4E9
330
3EF
100
AcDbEntity
  8
0
  6
Continuous
 62
     7
370
    25
100
AcDbLine
 10
-236.0
 20
-188.75
 30
0.0
 11
-236.0
 21
-198.25
 31
0.0
  0
LINE
  5
4EA
330
3EF
100
AcDbEntity
  8
0
  6
Continuous
 62
     7
370
    25
100
AcDbLine
 10
256.0
 20
-226.0
 30
0.0
 11
256.0
 21
-186.0
 31
0.0
  0
LINE
  5
4EB
330
3EF
100
AcDbEntity
  8
0
  6
Continuous
 62
     7
370
    25
100
AcDbLine
 10
257.8
 20
-209.0
 30
0.0
 11
256.0
 21
-209.0
 31
0.0
  0
LINE
  5
4EC
330
3EF
100
AcDbEntity
  8
0
  6
Continuous
 62
     7
370
    25
100
AcDbLine
 10
257.8
 20
-186.0
 30
0.0
 11
257.8
 21
-210.0
 31
0.0
  0
LINE
  5
4ED
330
3EF
100
AcDbEntity
  8
0
  6
Continuous
 62
     7
370
    25
100
AcDbLine
 10
259.0
 20
-211.2
 30
0.0
 11
261.0
 21
-211.2
 31
0.0
  0
LINE
  5
4EE
330
3EF
100
AcDbEntity
  8
0
  6
Continuous
 62
     7
370
    25
100
AcDbLine
 10
261.0
 20
-213.0
 30
0.0
 11
259.0
 21
-213.0
 31
0.0
  0
LINE
  5
4EF
330
3EF
100
AcDbEntity
  8
0
  6
Continuous
 62
     7
370
    25
100
AcDbLine
 10
236.0
 20
-198.25
 30
0.0
 11
236.0
 21
-188.75
 31
0.0
  0
LINE
  5
4F0
330
3EF
100
AcDbEntity
  8
0
  6
Continuous
 62
     7
370
    25
100
AcDbLine
 10
261.0
 20
-186.0
 30
0.0
 11
-261.0
 21
-186.0
 31
0.0
  0
LINE
  5
4F1
330
3EF
100
AcDbEntity
  8
0
  6
Continuous
 62
     7
370
    25
100
AcDbLine
 10
261.0
 20
186.0
 30
0.0
 11
261.0
 21
-226.0
 31
0.0
  0
LINE
  5
4F2
330
3EF
100
AcDbEntity
  8
0
  6
Continuous
 62
     7
370
    25
100
AcDbLine
 10
279.2
 20
194.2
 30
0.0
 11
279.2
 21
-226.0
 31
0.0
  0
LINE
  5
4F3
330
3EF
100
AcDbEntity
  8
0
  6
Continuous
 62
     7
370
    25
100
AcDbLine
 10
267.8
 20
204.5
 30
0.0
 11
-269.2
 21
204.5
 31
0.0
  0
LINE
  5
4F4
330
3EF
100
AcDbEntity
  8
0
  6
Continuous
 62
     7
370
    25
100
AcDbLine
 10
208.1
 20
-224.1
 30
0.0
 11
208.1
 21
-226.0
 31
0.0
  0
LINE
  5
4F5
330
3EF
100
AcDbEntity
  8
0
  6
Continuous
 62
     7
370
    25
100
AcDbLine
 10
208.1
 20
-224.1
 30
0.0
 11
254.1
 21
-224.1
 31
0.0
  0
LINE
  5
4F6
330
3EF
100
AcDbEntity
  8
0
  6
Continuous
 62
     7
370
    25
100
AcDbLine
 10
254.1
 20
-186.0
 30
0.0
 11
254.1
 21
-224.1
 31
0.0
  0
LINE
  5
4F7
330
3EF
100
AcDbEntity
  8
0
  6
Continuous
 62
     7
370
    25
100
AcDbLine
 10
-267.8
 20
204.2
 30
0.0
 11
269.2
 21
204.2
 31
0.0
  0
LINE
  5
4F8
330
3EF
100
AcDbEntity
  8
0
  6
Continuous
 62
     7
370
    25
100
AcDbLine
 10
-277.8
 20
194.2
 30
0.0
 11
-277.8
 21
186.0
 31
0.0
  0
LINE
  5
4F9
330
3EF
100
AcDbEntity
  8
0
  6
Continuous
 62
     8
370
    25
100
AcDbLine
 10
-184.4325877973
 20
-191.5389967798
 30
0.0
 11
-184.4325877973
 21
-186.0
 31
0.0
  0
LINE
  5
4FA
330
3EF
100
AcDbEntity
  8
0
  6
Continuous
 62
     8
370
    25
100
AcDbLine
 10
-236.717993889
 20
-221.0
 30
0.0
 11
-236.717993889
 21
-198.25
 31
0.0
  0
LINE
  5
4FB
330
3EF
100
AcDbEntity
  8
0
  6
Continuous
 62
     8
370
    25
100
AcDbLine
 10
-236.717993889
 20
-188.75
 30
0.0
 11
-236.717993889
 21
-186.0
 31
0.0
  0
LINE
  5
4FC
330
3EF
100
AcDbEntity
  8
0
  6
Continuous
 62
     8
370
    25
100
AcDbLine
 10
184.4325877973
 20
-186.0
 30
0.0
 11
184.4325877973
 21
-191.5389967798
 31
0.0
  0
LINE
  5
4FD
330
3EF
100
AcDbEntity
  8
0
  6
Continuous
 62
     8
370
    25
100
AcDbLine
 10
236.717993889
 20
-186.0
 30
0.0
 11
236.717993889
 21
-188.75
 31
0.0
  0
LINE
  5
4FE
330
3EF
100
AcDbEntity
  8
0
  6
Continuous
 62
     8
370
    25
100
AcDbLine
 10
236.717993889
 20
-198.25
 30
0.0
 11
236.717993889
 21
-221.0
 31
0.0
  0
LINE
  5
4FF
330
3EF
100
AcDbEntity
  8
0
  6
Continuous
 62
     8
370
    25
100
AcDbLine
 10
245.6082046498
 20
-221.0
 30
0.0
 11
245.6082046498
 21
-198.25
 31
0.0
  0
LINE
  5
500
330
3EF
100
AcDbEntity
  8
0
  6
Continuous
 62
     8
370
    25
100
AcDbLine
 10
245.6082046498
 20
-188.75
 30
0.0
 11
245.6082046498
 21
-186.0
 31
0.0
  0
LINE
  5
501
330
3EF
100
AcDbEntity
  8
0
  6
Continuous
 62
     8
370
    25
100
AcDbLine
 10
-245.6082046498
 20
-186.0
 30
0.0
 11
-245.6082046498
 21
-188.75
 31
0.0
  0
LINE
  5
502
330
3EF
100
AcDbEntity
  8
0
  6
Continuous
 62
     8
370
    25
100
AcDbLine
 10
-245.6082046498
 20
-198.25
 30
0.0
 11
-245.6082046498
 21
-221.0
 31
0.0
  0
LINE
  5
503
330
3EF
100
AcDbEntity
  8
0
  6
Continuous
 62
     8
370
    25
100
AcDbLine
 10
-261.0
 20
-221.0
 30
0.0
 11
-256.0
 21
-221.0
 31
0.0
  0
LINE
  5
504
330
3EF
100
AcDbEntity
  8
0
  6
Continuous
 62
     8
370
    25
100
AcDbLine
 10
256.0
 20
-221.0
 30
0.0
 11
261.0
 21
-221.0
 31
0.0
  0
ARC
  5
505
330
3EF
100
AcDbEntity
  8
0
  6
Continuous
 62
     7
370
    25
100
AcDbCircle
 10
-174.4325877973
 20
-191.0
 30
0.0
 40
5.000000000000085
100
AcDbArc
 50
180.0
 51
270.0
  0
ARC
  5
506
330
3EF
100
AcDbEntity
  8
0
  6
Continuous
 62
     7
370
    25
100
AcDbCircle
 10
174.4325877973
 20
-191.0
 30
0.0
 40
4.999999999999972
100
AcDbArc
 50
270.0
 51
0.0
  0
ARC
  5
507
330
3EF
100
AcDbEntity
  8
0
  6
Continuous
 62
     7
370
    25
100
AcDbCircle
 10
255.0
 20
179.0
 30
0.0
 40
32.00000000000017
100
AcDbArc
 50
0.0
 51
90.0
  0
ARC
  5
508
330
3EF
100
AcDbEntity
  8
0
  6
Continuous
 62
     7
370
    25
100
AcDbCircle
 10
-255.0
 20
179.0
 30
0.0
 40
32.00000000000023
100
AcDbArc
 50
90.0
 51
180.0
  0
ARC
  5
509
330
3EF
100
AcDbEntity
  8
0
  6
Continuous
 62
     7
370
    25
100
AcDbCircle
 10
-260.0
 20
184.0
 30
0.0
 40
36.99999999999997
100
AcDbArc
 50
90.0
 51
180.0
  0
ARC
  5
50A
330
3EF
100
AcDbEntity
  8
0
  6
Continuous
 62
     7
370
    25
100
AcDbCircle
 10
260.0
 20
184.0
 30
0.0
 40
37.00000000000011
100
AcDbArc
 50
0.0
 51
90.0
  0
ARC
  5
50B
330
3EF
100
AcDbEntity
  8
0
  6
Continuous
 62
     7
370
    25
100
AcDbCircle
 10
260.0
 20
184.0
 30
0.0
 40
39.99999999999989
100
AcDbArc
 50
0.0
 51
90.0
  0
ARC
  5
50C
330
3EF
100
AcDbEntity
  8
0
  6
Continuous
 62
     7
370
    25
100
AcDbCircle
 10
-260.0
 20
184.0
 30
0.0
 40
40.00000000000011
100
AcDbArc
 50
90.0
 51
180.0
  0
ARC
  5
50D
330
3EF
100
AcDbEntity
  8
0
  6
Continuous
 62
     7
370
    25
100
AcDbCircle
 10
-255.0
 20
179.0
 30
0.0
 40
29.99999999999557
100
AcDbArc
 50
90.0
 51
122.4365088644
  0
ARC
  5
50E
330
3EF
100
AcDbEntity
  8
0
  6
Continuous
 62
     7
370
    25
100
AcDbCircle
 10
-255.0
 20
179.0
 30
0.0
 40
29.99999999999937
100
AcDbArc
 50
142.5508985715
 51
180.0
  0
ARC
  5
50F
330
3EF
100
AcDbEntity
  8
0
  6
Continuous
 62
     7
370
    25
100
AcDbCircle
 10
255.0
 20
179.0
 30
0.0
 40
29.99999999999929
100
AcDbArc
 50
0.0
 51
37.9445553841
  0
ARC
  5
510
330
3EF
100
AcDbEntity
  8
0
  6
Continuous
 62
     7
370
    25
100
AcDbCircle
 10
255.0
 20
179.0
 30
0.0
 40
29.9999999999981
100
AcDbArc
 50
55.9516146289
 51
90.0
  0
ARC
  5
511
330
3EF
100
AcDbEntity
  8
0
  6
Continuous
 62
     7
370
    25
100
AcDbCircle
 10
-259.0
 20
-210.0
 30
0.0
 40
1.199999999999989
100
AcDbArc
 50
270.0
 51
0.0
  0
ARC
  5
512
330
3EF
100
AcDbEntity
  8
0
  6
Continuous
 62
     7
370
    25
100
AcDbCircle
 10
-259.0
 20
-210.0
 30
0.0
 40
3.000000000000057
100
AcDbArc
 50
270.0
 51
0.0
  0
ARC
  5
513
330
3EF
100
AcDbEntity
  8
0
  6
Continuous
 62
     7
370
    25
100
AcDbCircle
 10
259.0
 20
-210.0
 30
0.0
 40
1.200000000000159
100
AcDbArc
 50
180.0
 51
270.0
  0
ARC
  5
514
330
3EF
100
AcDbEntity
  8
0
  6
Continuous
 62
     7
370
    25
100
AcDbCircle
 10
259.0
 20
-210.0
 30
0.0
 40
3.0
100
AcDbArc
 50
180.0
 51
270.0
  0
ARC
  5
515
330
3EF
100
AcDbEntity
  8
0
  6
Continuous
 62
     7
370
    25
100
AcDbCircle
 10
-269.2
 20
194.5
 30
0.0
 40
10.00000000000006
100
AcDbArc
 50
90.0
 51
180.0
  0
ARC
  5
516
330
3EF
100
AcDbEntity
  8
0
  6
Continuous
 62
     7
370
    25
100
AcDbCircle
 10
269.2
 20
194.2
 30
0.0
 40
9.999999999999886
100
AcDbArc
 50
0.0
 51
90.0
  0
ARC
  5
517
330
3EF
100
AcDbEntity
  8
0
  6
Continuous
 62
     7
370
    25
100
AcDbCircle
 10
-267.8
 20
194.2
 30
0.0
 40
10.00000000000006
100
AcDbArc
 50
90.0
 51
180.0
  0
ARC
  5
518
330
3EF
100
AcDbEntity
  8
0
  6
Continuous
 62
     8
370
    25
100
AcDbCircle
 10
-231.6723211635
 20
-221.0051225704
 30
0.0
 40
5.045675325798147
100
AcDbArc
 50
179.9418310349
 51
217.8337429687
  0
ARC
  5
519
330
3EF
100
AcDbEntity
  8
0
  6
Continuous
 62
     8
370
    25
100
AcDbCircle
 10
231.6723211635
 20
-221.0051225704
 30
0.0
 40
5.045675325798248
100
AcDbArc
 50
322.1662570313
 51
0.0581689651
  0
ARC
  5
51A
330
3EF
100
AcDbEntity
  8
0
  6
Continuous
 62
     8
370
    25
100
AcDbCircle
 10
240.5625319243
 20
-221.0051225704
 30
0.0
 40
5.045675325798231
100
AcDbArc
 50
322.1662570313
 51
0.0581689651
  0
ARC
  5
51B
330
3EF
100
AcDbEntity
  8
0
  6
Continuous
 62
     8
370
    25
100
AcDbCircle
 10
-240.5625319243
 20
-221.0051225704
 30
0.0
 40
5.045675325798345
100
AcDbArc
 50
179.9418310349
 51
217.8337429687
  0
ARC
  5
51C
330
3EF
100
AcDbEntity
  8
0
  6
Continuous
 62
     8
370
    25
100
AcDbCircle
 10
-255.0
 20
179.0
 30
0.0
 40
27.99999999999959
100
AcDbArc
 50
90.0
 51
114.3957521119
  0
ARC
  5
51D
330
3EF
100
AcDbEntity
  8
0
  6
Continuous
 62
     8
370
    25
100
AcDbCircle
 10
-255.0
 20
179.0
 30
0.0
 40
27.99999999999968
100
AcDbArc
 50
149.801242977
 51
180.0
  0
ARC
  5
51E
330
3EF
100
AcDbEntity
  8
0
  6
Continuous
 62
     8
370
    25
100
AcDbCircle
 10
255.0
 20
179.0
 30
0.0
 40
27.99999999999713
100
AcDbArc
 50
360.0
 51
30.198757023
  0
ARC
  5
51F
330
3EF
100
AcDbEntity
  8
0
  6
Continuous
 62
     8
370
    25
100
AcDbCircle
 10
255.0
 20
179.0
 30
0.0
 40
27.99999999999906
100
AcDbArc
 50
65.6042478881
 51
90.0
  0
VIEWPORT
  5
7BF
330
3EF
100
AcDbEntity
  8
0
100
AcDbViewport
 10
0.0
 20
0.0
 30
0.0
 40
205.6
 41
156.0
 68
     1
 69
     1
 12
0.0
 22
222.5
 13
0.0
 23
0.0
 14
10.0
 24
10.0
 15
10.0
 25
10.0
 16
0.0
 26
0.0
 36
1.0
 17
0.0
 27
0.0
 37
0.0
 42
50.0
 43
0.0
 44
0.0
 45
464.3579766537
 50
0.0
 51
0.0
 72
   100
 90
   557152
  1

281
     0
 71
     1
 74
     0
110
0.0
120
0.0
130
0.0
111
1.0
121
0.0
131
0.0
112
0.0
122
1.0
132
0.0
 79
     0
146
0.0
  0
ENDBLK
  5
3F2
330
3EF
100
AcDbEntity
  8
0
100
AcDbBlockEnd
  0
BLOCK
  5
522
330
520
100
AcDbEntity
  8
0
100
AcDbBlockBegin
  2
*Paper_Space4
 70
     0
 10
0.0
 20
0.0
 30
0.0
  3
*Paper_Space4
  1

  0
SPLINE
  5
524
330
520
100
AcDbEntity
  8
0
  6
Continuous
 62
     7
370
    25
100
AcDbSpline
210
0.0
220
0.0
230
1.0
 70
     8
 71
     3
 72
    25
 73
    21
 74
     0
 42
0.000000001
 43
0.00000001
 40
0.0
 40
0.0
 40
0.0
 40
0.0
 40
0.0311334711837503
 40
0.0897401355225037
 40
0.1482856409293677
 40
0.2067571104291169
 40
0.2651468615776935
 40
0.3234609836989636
 40
0.3817132448403922
 40
0.4399214671259215
 40
0.4981055266568868
 40
0.5562863336000938
 40
0.6144820008125098
 40
0.672710491994028
 40
0.7309936882698559
 40
0.7893531211070884
 40
0.8478089913289056
 40
0.9063782069203696
 40
0.9650707449379219
 40
1.0
 40
1.0
 40
1.0
 40
1.0
 10
26.07728636732095
 20
126.0389456500247
 30
0.0
 10
26.54309800327276
 20
125.7778069391735
 30
0.0
 10
27.88576869654566
 20
125.0250921787905
 30
0.0
 10
30.26457130416607
 20
123.8980941408692
 30
0.0
 10
33.25481067119582
 20
122.7164674802363
 30
0.0
 10
36.40554032210763
 20
121.7055666174882
 30
0.0
 10
39.68795621974944
 20
120.868795291127
 30
0.0
 10
43.07743127000798
 20
120.2116809780885
 30
0.0
 10
46.54761655671671
 20
119.7378167784973
 30
0.0
 10
50.07213503307143
 20
119.4499600254092
 30
0.0
 10
53.62423971837568
 20
119.3497354043626
 30
0.0
 10
57.1770057529816
 20
119.4377003877977
 30
0.0
 10
60.70347263355913
 20
119.713298738474
 30
0.0
 10
64.1768918917543
 20
120.17489746459
 30
0.0
 10
67.57110585342743
 20
120.8197666303785
 30
0.0
 10
70.86023995500388
 20
121.644481373256
 30
0.0
 10
74.02050346447525
 20
122.6438394014212
 30
0.0
 10
77.02365215965243
 20
123.8152853756231
 30
0.0
 10
79.47666936461815
 20
124.9626523011443
 30
0.0
 10
80.87954645398682
 20
125.7465005439901
 30
0.0
 10
81.40294437303366
 20
126.0389456500247
 30
0.0
  0
SPLINE
  5
525
330
520
100
AcDbEntity
  8
0
  6
Continuous
 62
     7
370
    25
100
AcDbSpline
210
0.0
220
0.0
230
1.0
 70
     8
 71
     3
 72
    25
 73
    21
 74
     0
 42
0.000000001
 43
0.00000001
 40
0.0
 40
0.0
 40
0.0
 40
0.0
 40
0.0312955714895007
 40
0.0914681860696469
 40
0.1512731661665734
 40
0.2107292159830287
 40
0.2698651871549753
 40
0.3287067821517067
 40
0.3872850520611171
 40
0.4456398934633747
 40
0.5038202369373532
 40
0.5618821467178169
 40
0.6198857495803887
 40
0.6778917409628266
 40
0.7359475605349638
 40
0.7940980628679121
 40
0.8523922320872532
 40
0.9108753193557867
 40
0.9695941681484103
 40
1.0
 40
1.0
 40
1.0
 40
1.0
 10
76.42010948646501
 20
200.3819860712907
 30
0.0
 10
76.07712753097225
 20
200.1893346448889
 30
0.0
 10
75.074687382721
 20
199.6262685087547
 30
0.0
 10
73.23877318505588
 20
198.74649037186
 30
0.0
 10
70.86181789714797
 20
197.7934847823921
 30
0.0
 10
68.30861012412744
 20
196.9585967905262
 30
0.0
 10
65.61058952589332
 20
196.2554983203648
 30
0.0
 10
62.79533588598505
 20
195.6960033099746
 30
0.0
 10
59.89298621406859
 20
195.2888085282423
 30
0.0
 10
56.93394048523333
 20
195.0399642885585
 30
0.0
 10
53.94896156364183
 20
194.9528846061072
 30
0.0
 10
50.96879242721597
 20
195.028469167879
 30
0.0
 10
48.02399649033529
 20
195.2651456028587
 30
0.0
 10
45.14500429137332
 20
195.6588474704474
 30
0.0
 10
42.36174772309954
 20
196.2028753551537
 30
0.0
 10
39.7036947828072
 20
196.8878784702764
 30
0.0
 10
37.19755209759941
 20
197.7014156177431
 30
0.0
 10
34.87356731002355
 20
198.6291829380008
 30
0.0
 10
33.08626180786808
 20
199.4840782351862
 30
0.0
 10
32.11412530212182
 20
200.0299975658752
 30
0.0
 10
31.7824706031444
 20
200.2162437465458
 30
0.0
  0
SPLINE
  5
52A
330
520
100
AcDbEntity
  8
0
  6
Continuous
 62
     7
370
    25
100
AcDbSpline
210
0.0
220
0.0
230
1.0
 70
     8
 71
     3
 72
    14
 73
    10
 74
     0
 42
0.000000001
 43
0.00000001
 40
0.0
 40
0.0
 40
0.0
 40
0.0
 40
0.1569993099861898
 40
0.3075015164604718
 40
0.4496778745885796
 40
0.600065392491514
 40
0.7461073434685238
 40
0.890729947550444
 40
1.0
 40
1.0
 40
1.0
 40
1.0
 10
230.2007345750353
 20
291.9008919599987
 30
0.0
 10
230.1298439885752
 20
291.6783112374196
 30
0.0
 10
229.9909964812762
 20
291.2423608518162
 30
0.0
 10
229.5516670093521
 20
290.4264983482248
 30
0.0
 10
228.8925236882011
 20
289.5034891832439
 30
0.0
 10
227.969041921913
 20
288.4885859500142
 30
0.0
 10
226.7470093461993
 20
287.4118406291961
 30
0.0
 10
225.3975213260501
 20
286.419563398016
 30
0.0
 10
224.3784540833174
 20
285.8069754724253
 30
0.0
 10
223.9398690033695
 20
285.5433305302136
 30
0.0
  0
SPLINE
  5
52B
330
520
100
AcDbEntity
  8
0
  6
Continuous
 62
     7
370
    25
100
AcDbSpline
210
0.0
220
0.0
230
1.0
 70
     8
 71
     3
 72
    17
 73
    13
 74
     0
 42
0.000000001
 43
0.00000001
 40
0.0
 40
0.0
 40
0.0
 40
0.0
 40
0.064274840654456
 40
0.1809094697433767
 40
0.2973095886320034
 40
0.4120340847592192
 40
0.5241098632012821
 40
0.6329314643097103
 40
0.7384029353557697
 40
0.8408655473729046
 40
0.9409322121265679
 40
1.0
 40
1.0
 40
1.0
 40
1.0
 10
-340.1682079456037
 20
407.1253717207119
 30
0.0
 10
-340.6799692219006
 20
406.8202007168217
 30
0.0
 10
-342.1203844790583
 20
405.9612592720401
 30
0.0
 10
-344.3199590041606
 20
404.3900193182905
 30
0.0
 10
-346.6662556554015
 20
402.3606237338779
 30
0.0
 10
-348.7218110243152
 20
400.1561586971537
 30
0.0
 10
-350.4571116361731
 20
397.8127664921693
 30
0.0
 10
-351.8500935008678
 20
395.3645865300763
 30
0.0
 10
-352.8985668528873
 20
392.8473960984099
 30
0.0
 10
-353.5848367532008
 20
390.2937982295705
 30
0.0
 10
-353.9333468172592
 20
388.0677707264637
 30
0.0
 10
-353.9214002951836
 20
386.7027852631117
 30
0.0
 10
-353.9169659654697
 20
386.1961277136709
 30
0.0
  0
SPLINE
  5
52C
330
520
100
AcDbEntity
  8
0
  6
Continuous
 62
     7
370
    25
100
AcDbSpline
210
0.0
220
0.0
230
1.0
 70
     8
 71
     3
 72
    14
 73
    10
 74
     0
 42
0.000000001
 43
0.00000001
 40
0.0
 40
0.0
 40
0.0
 40
0.0
 40
0.0954336803123183
 40
0.2724986232942174
 40
0.4463582492762729
 40
0.6181860789607077
 40
0.7899884829729433
 40
0.9641408068470168
 40
1.0
 40
1.0
 40
1.0
 40
1.0
 10
-278.4630448475008
 20
379.317167545849
 30
0.0
 10
-278.7828622031545
 20
379.5070397254196
 30
0.0
 10
-279.6960596072158
 20
380.04919536026
 30
0.0
 10
-281.0025867279121
 20
380.9625727807973
 30
0.0
 10
-282.2762462128034
 20
382.0228615418347
 30
0.0
 10
-283.2641591268599
 20
383.0296893503493
 30
0.0
 10
-283.9658108089573
 20
383.9316767646735
 30
0.0
 10
-284.3431589772715
 20
384.5364010408967
 30
0.0
 10
-284.445737346529
 20
384.7842682351519
 30
0.0
 10
-284.4632524695498
 20
384.8265912359134
 30
0.0
  0
SPLINE
  5
52E
330
520
100
AcDbEntity
  8
0
  6
Continuous
 62
     7
370
    25
100
AcDbSpline
210
0.0
220
0.0
230
1.0
 70
     8
 71
     3
 72
    17
 73
    13
 74
     0
 42
0.000000001
 43
0.00000001
 40
0.0
 40
0.0
 40
0.0
 40
0.0
 40
0.0769244456194157
 40
0.1828597776851945
 40
0.2890325474108972
 40
0.3961394255983109
 40
0.5046476131822679
 40
0.6147171370639872
 40
0.7262128729611758
 40
0.8388022370393298
 40
0.9520902179905689
 40
1.0
 40
1.0
 40
1.0
 40
1.0
 10
-353.9228519160887
 20
356.1671274364677
 30
0.0
 10
-353.9249991371075
 20
355.6344365389307
 30
0.0
 10
-353.9301033709435
 20
354.3681584616018
 30
0.0
 10
-353.5701565518389
 20
352.3820128050394
 30
0.0
 10
-352.9065682009398
 20
350.2355572231587
 30
0.0
 10
-351.9289519430899
 20
348.1422087981863
 30
0.0
 10
-350.6554469186346
 20
346.1126924131734
 30
0.0
 10
-349.0868281994138
 20
344.1602172569099
 30
0.0
 10
-347.2333575314568
 20
342.299704775692
 30
0.0
 10
-345.1052641228436
 20
340.5501812648265
 30
0.0
 10
-343.1918312325092
 20
339.2350876216584
 30
0.0
 10
-341.9787740433867
 20
338.5181396864935
 30
0.0
 10
-341.6182398496832
 20
338.3050547239296
 30
0.0
  0
SPLINE
  5
52F
330
520
100
AcDbEntity
  8
0
  6
Continuous
 62
     7
370
    25
100
AcDbSpline
210
0.0
220
0.0
230
1.0
 70
     8
 71
     3
 72
    36
 73
    32
 74
     0
 42
0.000000001
 43
0.00000001
 40
0.0
 40
0.0
 40
0.0
 40
0.0
 40
0.0269126561342784
 40
0.0659601708365721
 40
0.1012884001260774
 40
0.1348008436299896
 40
0.1704222214121853
 40
0.2051149854954127
 40
0.2395225261257618
 40
0.2739307134524148
 40
0.30847939269588
 40
0.3432357381398566
 40
0.378205795243583
 40
0.4133645996665531
 40
0.4486721225181532
 40
0.4840815721887499
 40
0.5195434532585536
 40
0.5550064510966375
 40
0.5904037889220326
 40
0.6256847966954963
 40
0.6607999880577411
 40
0.6957036849265658
 40
0.7303597124587274
 40
0.7647523752167799
 40
0.7989062363461207
 40
0.8329203311833522
 40
0.8669684425247945
 40
0.9013926853473585
 40
0.9369010580251927
 40
0.9748020661436818
 40
1.0
 40
1.0
 40
1.0
 40
1.0
 10
33.78409514690452
 20
264.7843266667773
 30
0.0
 10
33.78722625689573
 20
264.5772110764582
 30
0.0
 10
33.79490028761565
 20
264.0695919231424
 30
0.0
 10
33.56278940340878
 20
263.2436821129393
 30
0.0
 10
33.1118437662404
 20
262.2681336708451
 30
0.0
 10
32.41162211216
 20
261.2446116430997
 30
0.0
 10
31.43732932311261
 20
260.1800479882861
 30
0.0
 10
30.16271178175487
 20
259.1019718890218
 30
0.0
 10
28.63315304778256
 20
258.0718099507767
 30
0.0
 10
26.86011063588344
 20
257.1113175692415
 30
0.0
 10
24.8625288479391
 20
256.2427039966691
 30
0.0
 10
22.66487296955893
 20
255.486430346158
 30
0.0
 10
20.29652691975852
 20
254.8604303240353
 30
0.0
 10
17.79122306717752
 20
254.3796146621353
 30
0.0
 10
15.18586777193201
 20
254.0554246205923
 30
0.0
 10
12.51953171887456
 20
253.8956331597255
 30
0.0
 10
9.832614510134539
 20
253.9042625133622
 30
0.0
 10
7.166475520827402
 20
254.0815090436575
 30
0.0
 10
4.562308338263774
 20
254.4236102523118
 30
0.0
 10
2.060359465960214
 20
254.9227910852808
 30
0.0
 10
-0.3011606978445002
 20
255.5673145131553
 30
0.0
 10
-2.486524546265961
 20
256.341351498509
 30
0.0
 10
-4.463517035567747
 20
257.2249141176567
 30
0.0
 10
-6.204760927792386
 20
258.1939310711217
 30
0.0
 10
-7.689260195889562
 20
259.220663392281
 30
0.0
 10
-8.90394813387561
 20
260.2742378131196
 30
0.0
 10
-9.844882905633545
 20
261.3224898738027
 30
0.0
 10
-10.52448713300002
 20
262.3372923049886
 30
0.0
 10
-10.95557825839424
 20
263.3049585381982
 30
0.0
 10
-11.17071421977666
 20
264.1045569983236
 30
0.0
 10
-11.16152976501831
 20
264.5903612763163
 30
0.0
 10
-11.15786204451043
 20
264.7843623749221
 30
0.0
  0
SPLINE
  5
530
330
520
100
AcDbEntity
  8
0
  6
Continuous
 62
     7
370
    25
100
AcDbSpline
210
0.0
220
0.0
230
1.0
 70
     8
 71
     3
 72
    27
 73
    23
 74
     0
 42
0.000000001
 43
0.00000001
 40
0.0
 40
0.0
 40
0.0
 40
0.0
 40
0.0525945448514746
 40
0.1061190014376725
 40
0.1577204251280724
 40
0.2081065058544274
 40
0.2580351240407118
 40
0.3078802910315968
 40
0.3577708868007152
 40
0.4077677825571888
 40
0.457864384688227
 40
0.508026234542161
 40
0.5582078360461815
 40
0.6083497101621346
 40
0.6583936106821656
 40
0.7082930920975692
 40
0.7580199710661332
 40
0.8075961815721917
 40
0.8571317763460489
 40
0.9068764675288097
 40
0.9574218738173279
 40
1.0
 40
1.0
 40
1.0
 40
1.0
 10
61.85488878636219
 20
382.855741395573
 30
0.0
 10
62.19312086711176
 20
382.9801541432432
 30
0.0
 10
62.87556523020474
 20
383.2311793510122
 30
0.0
 10
64.07842801935564
 20
383.2547905618727
 30
0.0
 10
65.37789100243482
 20
383.0075589418665
 30
0.0
 10
66.72893790589974
 20
382.4760716698375
 30
0.0
 10
68.09705903525942
 20
381.6811420450917
 30
0.0
 10
69.45196994682956
 20
380.637323096323
 30
0.0
 10
70.75940665212467
 20
379.3677316421841
 30
0.0
 10
71.98501940445837
 20
377.9019516977964
 30
0.0
 10
73.09614786348398
 20
376.2758088047065
 30
0.0
 10
74.06306567381452
 20
374.5304822489852
 30
0.0
 10
74.86016657143352
 20
372.7112772259136
 30
0.0
 10
75.46697257354099
 20
370.8662429972509
 30
0.0
 10
75.86901476540343
 20
369.0446709756286
 30
0.0
 10
76.05852619137427
 20
367.2955400602185
 30
0.0
 10
76.03516873746197
 20
365.6655127440782
 30
0.0
 10
75.80584067692058
 20
364.1980270832146
 30
0.0
 10
75.38647130533954
 20
362.9269917046578
 30
0.0
 10
74.79195587792546
 20
361.8865590747824
 30
0.0
 10
74.10331231754127
 20
361.1065722135962
 30
0.0
 10
73.55355744394241
 20
360.79506681208
 30
0.0
 10
73.30219743045848
 20
360.6526396946761
 30
0.0
  0
SPLINE
  5
532
330
520
100
AcDbEntity
  8
0
  6
Continuous
 62
     7
370
    25
100
AcDbSpline
210
0.0
220
0.0
230
1.0
 70
     8
 71
     3
 72
    25
 73
    21
 74
     0
 42
0.000000001
 43
0.00000001
 40
0.0
 40
0.0
 40
0.0
 40
0.0
 40
0.0236916669221686
 40
0.0813615440706203
 40
0.1389190867749819
 40
0.1964954921698432
 40
0.254182500112355
 40
0.3120056359620222
 40
0.3699552801714392
 40
0.4280050732851065
 40
0.4861212570999477
 40
0.5442670627895788
 40
0.6024012623837309
 40
0.6604758979849564
 40
0.7184524482216426
 40
0.7762937108709471
 40
0.8339671662115634
 40
0.8914523915088242
 40
0.948755786354309
 40
1.0
 40
1.0
 40
1.0
 40
1.0
 10
-7.817963759764667
 20
259.3748056944795
 30
0.0
 10
-7.639522925341342
 20
259.5409456162492
 30
0.0
 10
-7.026724262350393
 20
260.1115006815115
 30
0.0
 10
-5.697018784328893
 20
261.0139719825189
 30
0.0
 10
-3.86409622195756
 20
262.0523108260407
 30
0.0
 10
-1.799913863634789
 20
262.9681283474882
 30
0.0
 10
0.4472117738253747
 20
263.7503612306689
 30
0.0
 10
2.85265487762445
 20
264.3839333892386
 30
0.0
 10
5.381144779516609
 20
264.8577578156631
 30
0.0
 10
7.996875790942306
 20
265.1631010775462
 30
0.0
 10
10.66185496374402
 20
265.2943556007696
 30
0.0
 10
13.33723696823783
 20
265.2489895734932
 30
0.0
 10
15.98372509429727
 20
265.0276637592273
 30
0.0
 10
18.56233121274984
 20
264.6342601235838
 30
0.0
 10
21.035315623732
 20
264.0759473644968
 30
0.0
 10
23.36594084455799
 20
263.3629039551227
 30
0.0
 10
25.52268305774482
 20
262.5091854795177
 30
0.0
 10
27.46656560425222
 20
261.529410148661
 30
0.0
 10
29.14244038315166
 20
260.4877127089699
 30
0.0
 10
30.03289976184651
 20
259.7425862629995
 30
0.0
 10
30.45327650969865
 20
259.3908197034123
 30
0.0
  0
SPLINE
  5
533
330
520
100
AcDbEntity
  8
0
  6
Continuous
 62
     7
370
    25
100
AcDbSpline
210
0.0
220
0.0
230
1.0
 70
     8
 71
     3
 72
    26
 73
    22
 74
     0
 42
0.000000001
 43
0.00000001
 40
0.0
 40
0.0
 40
0.0
 40
0.0
 40
0.022764145989097
 40
0.0824602018250236
 40
0.1410785443560964
 40
0.1983310606029397
 40
0.2547185206079435
 40
0.3107306700008378
 40
0.3666522369993866
 40
0.4225842013793487
 40
0.4785914652390822
 40
0.5346861652292927
 40
0.5908550825099518
 40
0.6470742835059932
 40
0.703315701087001
 40
0.7595470539820458
 40
0.815730822169067
 40
0.871836793210107
 40
0.9278366350239285
 40
0.9837088146529255
 40
1.0
 40
1.0
 40
1.0
 40
1.0
 10
131.796892329536
 20
427.925566775558
 30
0.0
 10
131.7957085620591
 20
427.7607204455965
 30
0.0
 10
131.7914205160632
 20
427.1635857388851
 30
0.0
 10
131.4596034837151
 20
426.1413535038174
 30
0.0
 10
130.8019920666245
 20
424.8785039038388
 30
0.0
 10
129.8294181731763
 20
423.6729607383975
 30
0.0
 10
128.5885183714472
 20
422.5473399277162
 30
0.0
 10
127.0930979270087
 20
421.5187129469971
 30
0.0
 10
125.367531453345
 20
420.6043549499244
 30
0.0
 10
123.4389707920033
 20
419.8213560233001
 30
0.0
 10
121.3400435410489
 20
419.1852378208224
 30
0.0
 10
119.1068406939224
 20
418.7088825739889
 30
0.0
 10
116.778733231099
 20
418.4021431004689
 30
0.0
 10
114.397262147741
 20
418.2714510819021
 30
0.0
 10
112.0052428258454
 20
418.3196417336292
 30
0.0
 10
109.6458515078669
 20
418.5458185670036
 30
0.0
 10
107.362005200864
 20
418.9454377059988
 30
0.0
 10
105.1942279983853
 20
419.5098283804007
 30
0.0
 10
103.1843810901586
 20
420.2281364756277
 30
0.0
 10
101.7875064181803
 20
420.8798699252888
 30
0.0
 10
101.070899371369
 20
421.2839275570068
 30
0.0
 10
100.9091222948081
 20
421.3751452790658
 30
0.0
  0
SPLINE
  5
534
330
520
100
AcDbEntity
  8
0
  6
Continuous
 62
     7
370
    25
100
AcDbSpline
210
0.0
220
0.0
230
1.0
 70
     8
 71
     3
 72
    14
 73
    10
 74
     0
 42
0.000000001
 43
0.00000001
 40
0.0
 40
0.0
 40
0.0
 40
0.0
 40
0.0908614346242347
 40
0.264218513014508
 40
0.4375271518785637
 40
0.6112784495116711
 40
0.7866125603287923
 40
0.9652201157467405
 40
1.0
 40
1.0
 40
1.0
 40
1.0
 10
100.9091222948081
 20
421.3751452790658
 30
0.0
 10
100.6293090486512
 20
421.5434268328223
 30
0.0
 10
99.81563226567836
 20
422.0327774807093
 30
0.0
 10
98.64903692415174
 20
422.9230987693931
 30
0.0
 10
97.51835055456156
 20
424.0536654826527
 30
0.0
 10
96.66289368997043
 20
425.2405036143325
 30
0.0
 10
96.11740169313964
 20
426.4629369922177
 30
0.0
 10
95.85933213000804
 20
427.3670843038289
 30
0.0
 10
95.87488173196154
 20
427.8631498509275
 30
0.0
 10
95.87741615178005
 20
427.9440032616846
 30
0.0
  0
LWPOLYLINE
  5
537
330
520
100
AcDbEntity
  8
0
  6
Continuous
 62
     7
370
    25
100
AcDbPolyline
 90
       15
 70
   128
 43
0.0
 10
32.5269119346
 20
169.8719387872
 10
35.0354213144
 20
168.577809232
 10
37.7791530747
 20
167.4539561923
 10
40.7236031967
 20
166.5145127722
 10
43.8317435115
 20
165.7712930176
 10
47.0644873515
 20
165.2336433484
 10
50.3811810871
 20
164.9083250209
 10
53.7401153702
 20
164.799429102
 10
57.0990496533
 20
164.9083250209
 10
60.4157433889
 20
165.2336433484
 10
63.6484872288
 20
165.7712930176
 10
66.7566275437
 20
166.5145127722
 10
69.7010776656
 20
167.4539561923
 10
72.4448094259
 20
168.577809232
 10
74.9533188058
 20
169.8719387872
  0
LWPOLYLINE
  5
539
330
520
100
AcDbEntity
  8
0
  6
Continuous
 62
     7
370
    25
100
AcDbPolyline
 90
       17
 70
   128
 43
0.0
 10
82.0243866176
 20
157.6244901092
 10
79.1158467367
 20
156.1026749041
 10
75.962924691
 20
154.7527647395
 10
72.5959848432
 20
153.5877599882
 10
69.0474526648
 20
152.618880283
 10
65.3515024604
 20
151.855456465
 10
61.5437282508
 20
151.3048407228
 10
57.6608009834
 20
150.9723357871
 10
53.7401153702
 20
150.8611438622
 10
49.819429757
 20
150.9723357871
 10
45.9365024895
 20
151.3048407228
 10
42.12872828
 20
151.855456465
 10
38.4327780756
 20
152.618880283
 10
34.8842458971
 20
153.5877599882
 10
31.5173060494
 20
154.7527647395
 10
28.3643840036
 20
156.1026749041
 10
25.4558441227
 20
157.6244901092
  0
LWPOLYLINE
  5
53C
330
520
100
AcDbEntity
  8
0
  6
Continuous
 62
     7
370
    25
100
AcDbPolyline
 90
       17
 70
   128
 43
0.0
 10
25.4558441227
 20
127.4124800694
 10
28.3643840036
 20
125.8906648643
 10
31.5173060494
 20
124.5407546997
 10
34.8842458971
 20
123.3757499485
 10
38.4327780756
 20
122.4068702432
 10
42.12872828
 20
121.6434464252
 10
45.9365024895
 20
121.092830683
 10
49.819429757
 20
120.7603257474
 10
53.7401153702
 20
120.6491338225
 10
57.6608009834
 20
120.7603257474
 10
61.5437282508
 20
121.092830683
 10
65.3515024604
 20
121.6434464252
 10
69.0474526648
 20
122.4068702432
 10
72.5959848432
 20
123.3757499485
 10
75.962924691
 20
124.5407546997
 10
79.1158467367
 20
125.8906648643
 10
82.0243866176
 20
127.4124800694
  0
LWPOLYLINE
  5
53F
330
520
100
AcDbEntity
  8
0
  6
Continuous
 62
     7
370
    25
100
AcDbPolyline
 90
       15
 70
   128
 43
0.0
 10
-335.1686142824
 20
406.6302912158
 10
-337.4103553209
 20
405.1821595751
 10
-339.3571368237
 20
403.5982369447
 10
-340.9844768839
 20
401.8984420704
 10
-342.2719107561
 20
400.1041508592
 10
-343.2032482123
 20
398.2379275641
 10
-343.7667771436
 20
396.3232410258
 10
-343.9554108468
 20
394.3841695384
 10
-343.7667771436
 20
392.4450980511
 10
-343.2032482123
 20
390.5304115128
 10
-342.2719107561
 20
388.6641882176
 10
-340.9844768839
 20
386.8698970064
 10
-339.3571368237
 20
385.1701021322
 10
-337.4103553209
 20
383.5861795017
 10
-335.1686142824
 20
382.1380478611
  0
LWPOLYLINE
  5
543
330
520
100
AcDbEntity
  8
0
  6
Continuous
 62
     7
370
    25
100
AcDbPolyline
 90
       17
 70
   128
 43
0.0
 10
81.4197031496
 20
199.8869055663
 10
78.5431029136
 20
198.3746559012
 10
75.4524779684
 20
197.0342969498
 10
72.175074711
 20
195.877645077
 10
68.7397861423
 20
194.914897119
 10
65.1768971521
 20
194.1545404894
 10
61.5178175324
 20
193.6032783564
 10
57.7948050749
 20
193.2659705484
 10
54.0406811915
 20
193.1455907106
 10
50.2885415671
 20
193.2432000903
 10
46.5714643936
 20
193.5579381804
 10
42.9222187585
 20
194.0870303065
 10
39.3729757589
 20
194.8258120867
 10
35.9550248861
 20
195.7677705533
 10
32.698498184
 20
196.9046015686
 10
29.6321046095
 20
198.2262830339
 10
26.78287694
 20
199.7211632416
  0
LWPOLYLINE
  5
545
330
520
100
AcDbEntity
  8
0
  6
Continuous
 62
     7
370
    25
100
AcDbPolyline
 90
       17
 70
   128
 43
0.0
 10
228.1020575409
 20
317.8863199787
 10
230.8052998298
 20
316.1704010956
 10
233.2109046373
 20
314.317041161
 10
235.2960013195
 20
312.3438604985
 10
237.0407663779
 20
310.269618595
 10
238.4286119255
 20
308.1140357504
 10
239.4463433924
 20
305.8976055916
 10
240.084284969
 20
303.641400235
 10
240.3363715965
 20
301.3668699493
 10
240.2002066288
 20
299.0956392224
 10
239.6770846178
 20
296.8493011724
 10
238.771979006
 20
294.6492122572
 10
237.4934948429
 20
292.5162892334
 10
235.8537869744
 20
290.4708102956
 10
233.8684444841
 20
288.5322222873
 10
231.5563424846
 20
286.7189558154
 10
228.9394626665
 20
285.0482500253
  0
LWPOLYLINE
  5
547
330
520
100
AcDbEntity
  8
0
  6
Continuous
 62
     7
370
    25
100
AcDbPolyline
 90
       17
 70
   128
 43
0.0
 10
-135.6557737579
 20
495.524599898
 10
-132.7617128674
 20
497.035292461
 10
-129.6207028753
 20
498.3700405344
 10
-126.2626060934
 20
499.5161543583
 10
-122.719348728
 20
500.4627375622
 10
-119.0246173502
 20
501.2007907597
 10
-115.2135386296
 20
501.7232971075
 10
-111.3223453772
 20
502.0252890164
 10
-107.3880320714
 20
502.1038953791
 10
-103.4480031428
 20
501.9583688666
 10
-99.5397173621
 20
501.5900930334
 10
-95.7003317101
 20
501.0025691634
 10
-91.9663481184
 20
500.2013829824
 10
-88.3732664366
 20
499.1941515538
 10
-84.955246927
 20
497.9904508606
 10
-81.7447854954
 20
496.6017247651
 10
-78.7724047445
 20
495.0411762089
  0
LWPOLYLINE
  5
549
330
520
100
AcDbEntity
  8
0
  6
Continuous
 62
     7
370
    25
100
AcDbPolyline
 90
       17
 70
   128
 43
0.0
 10
-283.4626385107
 20
378.8220870409
 10
-286.0521275582
 20
380.4669111635
 10
-288.3415950761
 20
382.2371024944
 10
-290.3108575279
 20
384.1170553437
 10
-291.9425542483
 20
386.090196383
 10
-293.2223004907
 20
388.1391307539
 10
-294.138814241
 20
390.2457954174
 10
-294.684015678
 20
392.3916183946
 10
-294.8530984032
 20
394.5576824938
 10
-294.6445718137
 20
396.7248920813
 10
-294.0602742426
 20
398.8741414249
 10
-293.1053567527
 20
400.9864831269
 10
-291.7882377258
 20
403.0432951605
 10
-290.1205286478
 20
405.0264450387
 10
-288.1169317436
 20
406.9184496667
 10
-285.7951103653
 20
408.7026294702
 10
-283.1755332748
 20
410.3632554391
  0
LWPOLYLINE
  5
54B
330
520
100
AcDbEntity
  8
0
  6
Continuous
 62
     7
370
    25
100
AcDbPolyline
 90
       47
 70
   128
 43
0.0
 10
100.4091629285
 20
421.3256372286
 10
98.7048946541
 20
422.4539676764
 10
97.2826428404
 20
423.7057567779
 10
96.1689013476
 20
425.0576860706
 10
95.3844170725
 20
426.4845716696
 10
94.9438034727
 20
427.959833396
 10
94.8552683461
 20
429.4559899152
 10
95.1204609344
 20
430.9451706621
 10
95.7344412016
 20
432.399635017
 10
96.6857718569
 20
433.7922890608
 10
97.9567314102
 20
435.0971902838
 10
99.5236442898
 20
436.2900308451
 10
101.3573218735
 20
437.3485903821
 10
103.4236062173
 20
438.2531499334
 10
105.6840063535
 20
438.9868592661
 10
108.0964153043
 20
439.5360507636
 10
110.6158944555
 20
439.8904940273
 10
113.1955106775
 20
440.0435864498
 10
115.7872106009
 20
439.9924762091
 10
118.3427157599
 20
439.7381153922
 10
120.8144219285
 20
439.2852422599
 10
123.1562858974
 20
438.6422929816
 10
125.3246831719
 20
437.8212444861
 10
127.2792206136
 20
436.8373913532
 10
128.9834888879
 20
435.7090609053
 10
130.4057407017
 20
434.4572718038
 10
131.5194821945
 20
433.1053425112
 10
132.3039664696
 20
431.6784569122
 10
132.7445800693
 20
430.2031951857
 10
132.833115196
 20
428.7070386665
 10
132.5679226077
 20
427.2178579197
 10
131.9539423405
 20
425.7633935648
 10
131.0026116852
 20
424.370739521
 10
129.7316521319
 20
423.065838298
 10
128.1647392523
 20
421.8729977366
 10
126.3310616686
 20
420.8144381996
 10
124.2647773248
 20
419.9098786483
 10
122.0043771886
 20
419.1761693156
 10
119.5919682378
 20
418.6269778182
 10
117.0724890866
 20
418.2725345545
 10
114.4928728646
 20
418.1194421319
 10
111.9011729411
 20
418.1705523726
 10
109.3456677822
 20
418.4249131895
 10
106.8739616136
 20
418.8777863219
 10
104.5320976447
 20
419.5207356001
 10
102.3637003701
 20
420.3417840957
 10
100.4091629285
 20
421.3256372286
  0
LWPOLYLINE
  5
556
330
520
100
AcDbEntity
  8
0
  6
Continuous
 62
     7
370
    25
100
AcDbPolyline
 90
       65
 70
   128
 43
0.0
 10
37.1192606503
 20
286.804256918
 10
39.5243862898
 20
285.2723389894
 10
41.6578276807
 20
283.6117058171
 10
43.499038616
 20
281.8383502063
 10
45.0302872281
 20
279.9693505409
 10
46.2368267556
 20
278.0227063094
 10
47.1070375634
 20
276.01716476
 10
47.6325390457
 20
273.972040354
 10
47.8082703359
 20
271.9070287575
 10
47.6325390457
 20
269.8420171609
 10
47.1070375634
 20
267.7968927549
 10
46.2368267556
 20
265.7913512055
 10
45.0302872281
 20
263.844706974
 10
43.499038616
 20
261.9757073086
 10
41.6578276807
 20
260.2023516978
 10
39.5243862898
 20
258.5417185255
 10
37.1192606503
 20
257.0098005969
 10
34.4656134368
 20
255.6213511192
 10
31.5890007227
 20
254.3897416198
 10
28.5171258608
 20
253.3268331715
 10
25.2795726854
 20
252.4428621636
 10
21.9075206034
 20
251.7463417202
 10
18.4334443196
 20
251.2439797139
 10
14.8908010878
 20
250.9406141655
 10
11.313708499
 20
250.8391666511
 10
7.7366159102
 20
250.9406141655
 10
4.1939726784
 20
251.2439797139
 10
0.7198963946
 20
251.7463417202
 10
-2.6521556874
 20
252.4428621636
 10
-5.8897088628
 20
253.3268331715
 10
-8.9615837247
 20
254.3897416198
 10
-11.8381964388
 20
255.6213511192
 10
-14.4918436523
 20
257.0098005969
 10
-16.8969692918
 20
258.5417185255
 10
-19.0304106827
 20
260.2023516978
 10
-20.8716216181
 20
261.9757073086
 10
-22.4028702301
 20
263.844706974
 10
-23.6094097576
 20
265.7913512055
 10
-24.4796205654
 20
267.7968927549
 10
-25.0051220477
 20
269.8420171609
 10
-25.1808533379
 20
271.9070287575
 10
-25.0051220477
 20
273.972040354
 10
-24.4796205654
 20
276.01716476
 10
-23.6094097576
 20
278.0227063094
 10
-22.4028702301
 20
279.9693505409
 10
-20.8716216181
 20
281.8383502063
 10
-19.0304106827
 20
283.6117058171
 10
-16.8969692918
 20
285.2723389894
 10
-14.4918436523
 20
286.804256918
 10
-11.8381964388
 20
288.1927063957
 10
-8.9615837247
 20
289.4243158951
 10
-5.8897088628
 20
290.4872243434
 10
-2.6521556874
 20
291.3711953513
 10
0.7198963946
 20
292.0677157947
 10
4.1939726784
 20
292.570077801
 10
7.7366159102
 20
292.8734433494
 10
11.313708499
 20
292.9748908638
 10
14.8908010878
 20
292.8734433494
 10
18.4334443196
 20
292.570077801
 10
21.9075206034
 20
292.0677157947
 10
25.2795726854
 20
291.3711953513
 10
28.5171258608
 20
290.4872243434
 10
31.5890007227
 20
289.4243158951
 10
34.4656134368
 20
288.1927063957
 10
37.1192606503
 20
286.804256918
  0
LWPOLYLINE
  5
55B
330
520
100
AcDbEntity
  8
0
  6
Continuous
 62
     7
370
    25
100
AcDbPolyline
 90
       39
 70
   128
 43
0.0
 10
66.3808756356
 20
360.0719367437
 10
64.8150900563
 20
361.1324522683
 10
63.3028645427
 20
362.4709899013
 10
61.8854486646
 20
364.0510378252
 10
60.6015058322
 20
365.8294964517
 10
59.4860586592
 20
367.7578540655
 10
58.5695336365
 20
369.7835100977
 10
57.8769311775
 20
371.8512099322
 10
57.427143672
 20
373.9045521077
 10
57.2324401505
 20
375.8875268023
 10
57.2981316176
 20
377.7460436356
 10
57.6224261812
 20
379.4294071131
 10
58.1964779311
 20
380.8916994673
 10
59.004628232
 20
382.0930331748
 10
60.0248328502
 20
383.0006389836
 10
61.2292632634
 20
383.5897597732
 10
62.5850657496
 20
383.8443258643
 10
64.0552575512
 20
383.7573933575
 10
65.5997356684
 20
383.3313335448
 10
67.1763707644
 20
382.5777682275
 10
68.7421563437
 20
381.5172527028
 10
70.2543818573
 20
380.1787150699
 10
71.6717977354
 20
378.5986671459
 10
72.9557405677
 20
376.8202085194
 10
74.0711877408
 20
374.8918509057
 10
74.9877127635
 20
372.8661948735
 10
75.6803152224
 20
370.7984950389
 10
76.130102728
 20
368.7451528634
 10
76.3248062494
 20
366.7621781688
 10
76.2591147824
 20
364.9036613355
 10
75.9348202187
 20
363.2202978581
 10
75.3607684688
 20
361.7580055039
 10
74.552618168
 20
360.5566717964
 10
73.5324135497
 20
359.6490659876
 10
72.3279831366
 20
359.0599451979
 10
70.9721806504
 20
358.8053791068
 10
69.5019888488
 20
358.8923116137
 10
67.9575107315
 20
359.3183714263
 10
66.3808756356
 20
360.0719367437
  0
LWPOLYLINE
  5
55F
330
520
100
AcDbEntity
  8
0
  6
Continuous
 62
     7
370
    25
100
AcDbPolyline
 90
       63
 70
   128
 43
0.0
 10
-13.138853402
 20
257.4800879014
 10
-10.5395705588
 20
256.1244047957
 10
-7.7160435003
 20
254.9274837731
 10
-4.6972454349
 20
253.9016068629
 10
-1.5141533159
 20
253.0573009505
 10
1.8005700243
 20
252.4032297571
 10
5.2129110385
 20
251.9461049382
 10
8.6878544903
 20
251.6906172131
 10
12.1897427577
 20
251.6393882315
 10
15.682641728
 20
251.7929436722
 10
19.1307095314
 20
252.1497078484
 10
22.498564326
 20
252.7060198771
 10
25.7516473643
 20
253.4561712439
 10
28.8565776123
 20
254.3924643807
 10
31.7814942838
 20
255.5052916529
 10
34.4963837758
 20
256.7832339469
 10
36.9733876483
 20
258.2131778452
 10
39.1870884897
 20
259.7804501887
 10
41.1147707336
 20
261.468968642
 10
42.7366537518
 20
263.261406721
 10
44.0360948296
 20
265.1393715854
 10
44.9997599431
 20
267.0835927745
 10
45.6177605844
 20
269.0741199478
 10
45.8837552305
 20
271.0905276029
 10
45.7950144163
 20
273.1121246688
 10
45.3524487428
 20
275.1181668237
 10
44.5605995326
 20
277.0880693606
 10
43.4275922301
 20
279.0016184139
 10
41.9650530236
 20
280.8391783806
 10
40.1879895443
 20
282.581893409
 10
38.1146368684
 20
284.2118808847
 10
35.7662703999
 20
285.7124149303
 10
33.1669875568
 20
287.068098036
 10
30.3434604982
 20
288.2650190586
 10
27.3246624329
 20
289.2908959688
 10
24.1415703138
 20
290.1352018812
 10
20.8268469737
 20
290.7892730746
 10
17.4145059595
 20
291.2463978934
 10
13.9395625076
 20
291.5018856186
 10
10.4376742403
 20
291.5531146001
 10
6.9447752699
 20
291.3995591595
 10
3.4967074666
 20
291.0427949832
 10
0.128852672
 20
290.4864829546
 10
-3.1242303664
 20
289.7363315878
 10
-6.2291606143
 20
288.800038451
 10
-9.1540772858
 20
287.6872111788
 10
-11.8689667778
 20
286.4092688848
 10
-14.3459706504
 20
284.9793249864
 10
-16.5596714917
 20
283.412052643
 10
-18.4873537357
 20
281.7235341896
 10
-20.1092367538
 20
279.9310961106
 10
-21.4086778316
 20
278.0531312462
 10
-22.3723429452
 20
276.1089100572
 10
-22.9903435864
 20
274.1183828839
 10
-23.2563382325
 20
272.1019752287
 10
-23.1675974183
 20
270.0803781629
 10
-22.7250317448
 20
268.074336008
 10
-21.9331825346
 20
266.104433471
 10
-20.8001752322
 20
264.1908844178
 10
-19.3376360256
 20
262.353324451
 10
-17.5605725463
 20
260.6106094226
 10
-15.4872198704
 20
258.980621947
 10
-13.138853402
 20
257.4800879014
  0
LWPOLYLINE
  5
560
330
520
100
AcDbEntity
  8
0
  6
Continuous
 62
     7
370
    25
100
AcDbPolyline
 90
       54
 70
   128
 43
0.0
 10
-6.7787377333
 20
258.1095433257
 10
-8.7915995759
 20
259.4181622772
 10
-10.5222269645
 20
260.8550296307
 10
-11.9463256842
 20
262.3999749184
 10
-13.0439045106
 20
264.0313104949
 10
-13.7995558429
 20
265.7261359846
 10
-14.2026719928
 20
267.4606597528
 10
-14.2475940931
 20
269.2105328879
 10
-13.9336915361
 20
270.9511910068
 10
-13.2653708257
 20
272.6581990851
 10
-12.2520137195
 20
274.3075944713
 10
-10.90784553
 20
275.8762232695
 10
-9.2517354323
 20
277.34206537
 10
-7.3069315817
 20
278.6845435629
 10
-5.1007347614
 20
279.884812397
 10
-2.6641151386
 20
280.926022729
 10
-0.0312775117
 20
281.793558248
 10
2.7608188503
 20
282.4752406573
 10
5.6729790348
 20
282.9615006298
 10
8.6643226963
 20
283.2455121416
 10
11.692857927
 20
283.3232882936
 10
14.7160707308
 20
283.1937372791
 10
17.6915218269
 20
282.8586777103
 10
20.5774424043
 20
282.3228130892
 10
23.333320464
 20
281.5936657803
 10
25.920469519
 20
280.6814714137
 10
28.3025716677
 20
279.5990351985
 10
30.4461874176
 20
278.3615521667
 10
32.3212251023
 20
276.9863938673
 10
33.901363303
 20
275.4928645085
 10
35.164420343
 20
273.9019299687
 10
36.0926656701
 20
272.2359234813
 10
36.6730687547
 20
270.5182321256
 10
36.8974820097
 20
268.7729685229
 10
36.7627551649
 20
267.0246323486
 10
36.2707794899
 20
265.2977664102
 10
35.4284612448
 20
263.6166121201
 10
34.2476247313
 20
262.0047691994
 10
32.7448463057
 20
260.4848643894
 10
30.9412216829
 20
259.0782338222
 10
28.8620697991
 20
257.8046235073
 10
26.5365773891
 20
256.681912142
 10
23.9973892688
 20
255.7258601327
 10
21.2801500734
 20
254.949888354
 10
18.4230038851
 20
254.3648897486
 10
15.4660587733
 20
253.9790764147
 10
12.4508237658
 20
253.7978643258
 10
9.4196261524
 20
253.8237973023
 10
6.4150173034
 20
254.0565113022
 10
3.4791753406
 20
254.4927395309
 10
0.6533130499
 20
255.1263583005
 10
-2.0229006565
 20
255.9484729921
 10
-4.5118976047
 20
256.9475429178
 10
-6.7787377333
 20
258.1095433257
  0
LWPOLYLINE
  5
565
330
520
100
AcDbEntity
  8
0
  6
Continuous
 62
     7
370
    25
100
AcDbPolyline
 90
        3
 70
   128
 43
0.0
 10
61.9087594687
 20
382.8882514915
 10
61.656339919
 20
382.7639672586
 10
61.5168977469
 20
382.6866957621
  0
LWPOLYLINE
  5
56A
330
520
100
AcDbEntity
  8
0
  6
Continuous
 62
     7
370
    25
100
AcDbPolyline
 90
        3
 70
   128
 43
0.0
 10
73.4863150962
 20
364.9563674064
 10
74.9853828635
 20
364.2439052533
 10
75.7488682961
 20
364.0006000015
  0
LWPOLYLINE
  5
56B
330
520
100
AcDbEntity
  8
0
  6
Continuous
 62
     7
370
    25
100
AcDbPolyline
 90
       12
 70
   128
 43
0.0
 10
65.4108558061
 20
382.9964993223
 10
65.1341345577
 20
381.7604013
 10
65.0080987528
 20
380.0314765146
 10
65.1365606785
 20
378.1686144889
 10
65.5158247191
 20
376.2254063718
 10
66.1349801387
 20
374.2577547228
 10
66.976214963
 20
372.3222652973
 10
68.015328398
 20
370.4746186022
 10
69.2224270418
 20
368.7679680689
 10
70.5627848644
 20
367.2514109259
 10
71.9978422116
 20
365.968575761
 10
73.4863150962
 20
364.9563674064
  0
LWPOLYLINE
  5
571
330
520
100
AcDbEntity
  8
0
  6
Continuous
 62
     7
370
    25
100
AcDbPolyline
 90
       15
 70
   128
 43
0.0
 10
-114.4657120478
 20
394.3679112584
 10
-111.9610573174
 20
395.5988577908
 10
-109.2275710023
 20
396.7126181575
 10
-106.2991882291
 20
397.6953654741
 10
-103.2122636848
 20
398.5348993303
 10
-100.0051202887
 20
399.220797253
 10
-96.7175734284
 20
399.7445440971
 10
-93.3904366678
 20
400.0996377574
 10
-90.0650150635
 20
400.2816698898
 10
-86.7825923792
 20
400.288380639
 10
-83.5839185644
 20
400.1196866938
 10
-80.5087038601
 20
399.7776823212
 10
-77.5951258125
 20
399.2666133672
 10
-74.8793553143
 20
398.5928245461
 10
-72.3951075572
 20
397.7646806733
  0
LWPOLYLINE
  5
572
330
520
100
AcDbEntity
  8
0
  6
Continuous
 62
     7
370
    25
100
AcDbPolyline
 90
       15
 70
   128
 43
0.0
 10
-85.8373424574
 20
483.1371967496
 10
-88.4394902996
 20
484.7141318006
 10
-91.2694131296
 20
486.1129095729
 10
-94.2919786006
 20
487.3161648066
 10
-97.4696627854
 20
488.3089595747
 10
-100.7630160205
 20
489.0789687319
 10
-104.1311526582
 20
489.6166329261
 10
-107.5322586449
 20
489.9152772739
 10
-110.924110626
 20
489.9711942265
 10
-114.2646001317
 20
489.7836895976
 10
-117.5122563364
 20
489.3550911814
 10
-120.6267609025
 20
488.6907198536
 10
-123.5694485159
 20
487.7988235156
 10
-126.3037869007
 20
486.6904746994
 10
-128.7958303522
 20
485.3794331072
  0
LWPOLYLINE
  5
585
330
520
100
AcDbEntity
  8
0
  6
Continuous
 62
     7
370
    25
100
AcDbPolyline
 90
       22
 70
   128
 43
0.0
 10
-84.8528137424
 20
131.3188979003
 10
-90.1128281333
 20
131.4378356965
 10
-95.4806708137
 20
131.893848626
 10
-100.9455800007
 20
132.6860224457
 10
-106.4965993063
 20
133.8127689568
 10
-112.1225997039
 20
135.271829188
 10
-117.81230184
 20
137.0602779252
 10
-123.5542986481
 20
139.1745295758
 10
-129.3370782177
 20
141.6103453575
 10
-135.1490468751
 20
144.362841796
 10
-140.9785524259
 20
147.4265005163
 10
-146.813907517
 20
150.7951793061
 10
-152.6434130679
 20
154.4621244298
 10
-158.4553817252
 20
158.4199841691
 10
-164.2381612949
 20
162.660823562
 10
-169.9801581029
 20
167.1761403116
 10
-175.669860239
 20
171.9568818316
 10
-181.2958606366
 20
176.9934633958
 10
-186.8468799423
 20
182.2757873542
 10
-192.3117891292
 20
187.793263377
 10
-197.6796318096
 20
193.5348296871
 10
-202.9396462005
 20
199.4889752375
  0
LWPOLYLINE
  5
58A
330
520
100
AcDbEntity
  8
0
  6
Continuous
 62
     7
370
    25
100
AcDbPolyline
 90
       20
 70
   128
 43
0.0
 10
-80.5210371596
 20
139.1066705474
 10
-82.6113273961
 20
139.3231624436
 10
-88.0762365831
 20
140.1153362633
 10
-93.6272558887
 20
141.2420827743
 10
-99.2532562863
 20
142.7011430055
 10
-104.9429584225
 20
144.4895917428
 10
-110.6849552305
 20
146.6038433934
 10
-116.4677348002
 20
149.039659175
 10
-122.2797034575
 20
151.7921556136
 10
-128.1092090083
 20
154.8558143339
 10
-133.9445640994
 20
158.2244931237
 10
-139.7740696503
 20
161.8914382474
 10
-145.5860383076
 20
165.8492979867
 10
-151.3688178773
 20
170.0901373796
 10
-157.1108146853
 20
174.6054541292
 10
-162.8005168214
 20
179.3861956492
 10
-168.426517219
 20
184.4227772134
 10
-173.9775365247
 20
189.7051011718
 10
-179.4424457116
 20
195.2225771946
 10
-181.5327359481
 20
197.4194830349
  0
LWPOLYLINE
  5
58B
330
520
100
AcDbEntity
  8
0
  6
Continuous
 62
     7
370
    25
100
AcDbPolyline
 90
        9
 70
   128
 43
0.0
 10
-333.7544007201
 20
283.1708066993
 10
-334.9980290312
 20
282.2960048275
 10
-335.9221282333
 20
281.2979505715
 10
-336.4911857122
 20
280.2149985967
 10
-336.6833329082
 20
279.0887661402
 10
-336.4911857122
 20
277.9625336838
 10
-335.9221282333
 20
276.879581709
 10
-334.9980290312
 20
275.881527453
 10
-333.7544007201
 20
275.0067255811
  0
LWPOLYLINE
  5
597
330
520
100
AcDbEntity
  8
0
  6
Continuous
 62
     8
370
    25
100
AcDbPolyline
 90
       10
 70
   128
 43
0.0
 10
230.2097156343
 20
291.9217034946
 10
230.4290684709
 20
292.9121984525
 10
230.5393293389
 20
294.7507037256
 10
230.2642354919
 20
296.574284369
 10
229.6072021084
 20
298.360301367
 10
228.5763859922
 20
300.0865820413
 10
227.1845843083
 20
301.7316953158
 10
225.4490757113
 20
303.2752177748
 10
223.3914058382
 20
304.6979872116
 10
221.037119828
 20
305.9823405193
  0
LWPOLYLINE
  5
59A
330
520
100
AcDbEntity
  8
0
  6
Continuous
 62
     8
370
    25
100
AcDbPolyline
 90
       11
 70
   128
 43
0.0
 10
-276.3155898691
 20
400.2180886483
 10
-278.646137075
 20
399.001967017
 10
-280.6701650179
 20
397.6421790415
 10
-282.3643731889
 20
396.1543785335
 10
-283.7092579475
 20
394.5556929785
 10
-284.6893370472
 20
392.8645263653
 10
-285.2933278661
 20
391.1003473199
 10
-285.5142772919
 20
389.2834649838
 10
-285.3496417657
 20
387.4347952163
 10
-284.8013165636
 20
385.5756198119
 10
-284.480391619
 20
384.8433357746
  0
LWPOLYLINE
  5
59C
330
520
100
AcDbEntity
  8
0
  6
Continuous
 62
     8
370
    25
100
AcDbPolyline
 90
        9
 70
   128
 43
0.0
 10
-342.2396820943
 20
369.8905991831
 10
-344.8758289813
 20
371.5696635165
 10
-347.2141953389
 20
373.3898066707
 10
-349.2322614208
 20
375.3334996721
 10
-350.9105921473
 20
377.3820236946
 10
-352.2330242761
 20
379.5156503321
 10
-353.186822063
 20
381.7138315937
 10
-353.7627999137
 20
383.9553977921
 10
-353.9554024747
 20
386.2038212904
  0
LWPOLYLINE
  5
59E
330
520
100
AcDbEntity
  8
0
  6
Continuous
 62
     8
370
    25
100
AcDbPolyline
 90
        9
 70
   128
 43
0.0
 10
-353.9554108468
 20
356.0067513798
 10
-353.7627999137
 20
353.7433877524
 10
-353.186822063
 20
351.5018215539
 10
-352.2330242761
 20
349.3036402924
 10
-350.9105921473
 20
347.1700136549
 10
-349.2322614208
 20
345.1214896323
 10
-347.2141953389
 20
343.1777966309
 10
-344.8758289813
 20
341.3576534767
 10
-342.2396820943
 20
339.6785891433
  0
LWPOLYLINE
  5
5A0
330
520
100
AcDbEntity
  8
0
  6
Continuous
 62
     8
370
    25
100
AcDbPolyline
 90
       20
 70
   128
 43
0.0
 10
27.2236110757
 20
273.9667547573
 10
25.1041172062
 20
275.0454660333
 10
22.7671403534
 20
275.9623188973
 10
20.2495360383
 20
276.7028540319
 10
17.5910083849
 20
277.2553927558
 10
14.8334839624
 20
277.6112212032
 10
12.0204505782
 20
277.7647277469
 10
9.1962714493
 20
277.713491497
 10
6.4054855676
 20
277.4583204797
 10
3.6921052935
 20
277.0032388945
 10
1.0989222548
 20
276.3554236499
 10
-1.3331675027
 20
275.5250911791
 10
-3.5658084708
 20
274.5253363212
 10
-5.5637905677
 20
273.3719258077
 10
-7.2956044222
 20
272.0830496113
 10
-8.7339382953
 20
270.6790340796
 10
-9.8561088025
 20
269.1820213762
 10
-10.6444186446
 20
267.6156202858
 10
-11.0864357046
 20
266.0045338892
 10
-11.1862894375
 20
264.7877264508
  0
LWPOLYLINE
  5
5A1
330
520
100
AcDbEntity
  8
0
  6
Continuous
 62
     8
370
    25
100
AcDbPolyline
 90
        8
 70
   128
 43
0.0
 10
33.8137049653
 20
264.7894431932
 10
33.8026061072
 20
265.1901570173
 10
33.5366961624
 20
266.8140866236
 10
32.9203164267
 20
268.4059715885
 10
31.9631875769
 20
269.9407069351
 10
30.6804041066
 20
271.3940889701
 10
29.0921962774
 20
272.7431969906
 10
27.2236110757
 20
273.9667547573
  0
LWPOLYLINE
  5
5A2
330
520
100
AcDbEntity
  8
0
  6
Continuous
 62
     8
370
    25
100
AcDbPolyline
 90
       19
 70
   128
 43
0.0
 10
-8.1835232261
 20
259.60940399
 10
-8.0529871086
 20
259.7385155548
 10
-6.4647792795
 20
261.0876235754
 10
-4.5961940777
 20
262.3111813421
 10
-2.4767002082
 20
263.389892618
 10
-0.1397233554
 20
264.306745482
 10
2.3778809597
 20
265.0472806167
 10
5.0364086131
 20
265.5998193406
 10
7.7939330356
 20
265.955647788
 10
10.6069664197
 20
266.1091543317
 10
13.4311455487
 20
266.0579180817
 10
16.2219314304
 20
265.8027470645
 10
18.9353117045
 20
265.3476654793
 10
21.5284947431
 20
264.6998502346
 10
23.9605845007
 20
263.8695177638
 10
26.1932254688
 20
262.869762906
 10
28.1912075657
 20
261.7163523925
 10
29.9230214202
 20
260.4274761961
 10
30.7765047395
 20
259.6437966724
  0
LWPOLYLINE
  5
5A4
330
520
100
AcDbEntity
  8
0
  6
Continuous
 62
     8
370
    25
100
AcDbPolyline
 90
       15
 70
   128
 43
0.0
 10
61.5168977469
 20
382.6866957621
 10
60.6152330822
 20
382.0069605128
 10
59.7717602968
 20
380.953404157
 10
59.1501867394
 20
379.6336070893
 10
58.7683939493
 20
378.0855374685
 10
58.6373654101
 20
376.3537304389
 10
58.7608705742
 20
374.4880069357
 10
59.135356423
 20
372.5420404271
 10
59.7500496804
 20
370.5718128267
 10
60.5872667405
 20
368.6340039953
 10
61.6229223929
 20
366.7843611648
 10
62.8272227101
 20
365.0760951919
 10
64.1655221645
 20
363.5583497782
 10
65.5993203175
 20
362.2747876961
 10
67.0873694069
 20
361.2623346896
  0
LWPOLYLINE
  5
5A7
330
520
100
AcDbEntity
  8
0
  6
Continuous
 62
     8
370
    25
100
AcDbPolyline
 90
       25
 70
   128
 43
0.0
 10
131.844191771
 20
428.264973479
 10
131.8414502838
 20
428.4463245551
 10
131.6225819017
 20
429.8905119785
 10
131.0576773784
 20
431.303060144
 10
130.1577319377
 20
432.6564754083
 10
128.9402619941
 20
433.9244150829
 10
127.428964215
 20
435.0822001641
 10
125.6532542929
 20
436.1072956824
 10
123.6476944013
 20
436.9797493195
 10
121.4513204824
 20
437.6825797578
 10
119.106882456
 20
438.2021072023
 10
116.6600121418
 20
438.5282196421
 10
114.1583350869
 20
438.6545696697
 10
111.6505435897
 20
438.5786980254
 10
109.1854489592
 20
438.3020814645
 10
106.8110314582
 20
437.8301040136
 10
104.5735064227
 20
437.1719521771
 10
102.5164247321
 20
436.3404361318
 10
100.6798251419
 20
435.3517403917
 10
99.0994549738
 20
434.2251087947
 10
97.8060743356
 20
432.9824699433
 10
96.8248574102
 20
431.6480103893
 10
96.174902469
 20
430.24770387
 10
95.8688601455
 20
428.8088057589
 10
95.844191771
 20
428.264973479
  0
LINE
  5
5AB
330
520
100
AcDbEntity
  8
0
  6
Continuous
 62
     7
370
    25
100
AcDbLine
 10
81.402944373
 20
126.03894565
 30
0.0
 11
371.3167246595
 21
293.4026085737
 31
0.0
  0
LINE
  5
5AC
330
520
100
AcDbEntity
  8
0
  6
Continuous
 62
     7
370
    25
100
AcDbLine
 10
-341.6182398497
 20
338.3050547239
 30
0.0
 11
26.0772863673
 21
126.03894565
 31
0.0
  0
LINE
  5
5AD
330
520
100
AcDbEntity
  8
0
  6
Continuous
 62
     7
370
    25
100
AcDbLine
 10
31.7824706031
 20
200.2162437465
 30
0.0
 11
-278.4630448475
 21
379.3171675458
 31
0.0
  0
LINE
  5
5AE
330
520
100
AcDbEntity
  8
0
  6
Continuous
 62
     7
370
    25
100
AcDbLine
 10
223.9398690034
 20
285.5433305302
 30
0.0
 11
76.4201094865
 21
200.3819860713
 31
0.0
  0
LINE
  5
5AF
330
520
100
AcDbEntity
  8
0
  6
Continuous
 62
     7
370
    25
100
AcDbLine
 10
-353.9554108468
 20
386.2187614196
 30
0.0
 11
-353.9554108468
 21
356.0067513798
 31
0.0
  0
LINE
  5
5B0
330
520
100
AcDbEntity
  8
0
  6
Continuous
 62
     7
370
    25
100
AcDbLine
 10
-50.2544276591
 20
574.4890346444
 30
0.0
 11
-340.1682079456
 21
407.1253717207
 31
0.0
  0
LINE
  5
5B1
330
520
100
AcDbEntity
  8
0
  6
Continuous
 62
     7
370
    25
100
AcDbLine
 10
-337.8854144362
 20
336.1501404814
 30
0.0
 11
-337.8854144362
 21
290.0711670751
 31
0.0
  0
LINE
  5
5B2
330
520
100
AcDbEntity
  8
0
  6
Continuous
 62
     7
370
    25
100
AcDbLine
 10
-336.6833329082
 20
279.0887661402
 30
0.0
 11
-336.6833329082
 21
30.0438185151
 31
0.0
  0
LINE
  5
5B3
330
520
100
AcDbEntity
  8
0
  6
Continuous
 62
     7
370
    25
100
AcDbLine
 10
82.0243866176
 20
157.6244901092
 30
0.0
 11
82.0243866176
 21
127.4124800694
 31
0.0
  0
LINE
  5
5B4
330
520
100
AcDbEntity
  8
0
  6
Continuous
 62
     7
370
    25
100
AcDbLine
 10
25.4558441227
 20
127.4124800694
 30
0.0
 11
25.4558441227
 21
157.6244901092
 31
0.0
  0
LINE
  5
5B5
330
520
100
AcDbEntity
  8
0
  6
Continuous
 62
     7
370
    25
100
AcDbLine
 10
-335.1686142824
 20
382.1380478611
 30
0.0
 11
32.5269119346
 21
169.8719387872
 31
0.0
  0
LINE
  5
5B6
330
520
100
AcDbEntity
  8
0
  6
Continuous
 62
     7
370
    25
100
AcDbLine
 10
-45.2548339959
 20
573.9939541394
 30
0.0
 11
-335.1686142824
 21
406.6302912158
 31
0.0
  0
LINE
  5
5B7
330
520
100
AcDbEntity
  8
0
  6
Continuous
 62
     7
370
    25
100
AcDbLine
 10
-45.2548339959
 20
573.9939541394
 30
0.0
 11
364.8670990923
 21
337.2356017108
 31
0.0
  0
LINE
  5
5B8
330
520
100
AcDbEntity
  8
0
  6
Continuous
 62
     7
370
    25
100
AcDbLine
 10
74.9533188058
 20
169.8719387872
 30
0.0
 11
364.8670990923
 21
337.2356017108
 31
0.0
  0
LINE
  5
5B9
330
520
100
AcDbEntity
  8
0
  6
Continuous
 62
     7
370
    25
100
AcDbLine
 10
228.9394626665
 20
285.0482500253
 30
0.0
 11
81.4197031496
 21
199.8869055663
 31
0.0
  0
LINE
  5
5BA
330
520
100
AcDbEntity
  8
0
  6
Continuous
 62
     7
370
    25
100
AcDbLine
 10
-78.7724047445
 20
495.0411762089
 30
0.0
 11
228.1020575409
 21
317.8863199787
 31
0.0
  0
LINE
  5
5BB
330
520
100
AcDbEntity
  8
0
  6
Continuous
 62
     7
370
    25
100
AcDbLine
 10
-283.1755332748
 20
410.3632554391
 30
0.0
 11
-135.6557737579
 21
495.524599898
 31
0.0
  0
LINE
  5
5BC
330
520
100
AcDbEntity
  8
0
  6
Continuous
 62
     7
370
    25
100
AcDbLine
 10
26.78287694
 20
199.7211632416
 30
0.0
 11
-283.4626385107
 21
378.8220870409
 31
0.0
  0
LINE
  5
5BD
330
520
100
AcDbEntity
  8
0
  6
Continuous
 62
     7
370
    25
100
AcDbLine
 10
371.9381669041
 20
324.9881530329
 30
0.0
 11
82.0243866176
 21
157.6244901092
 31
0.0
  0
LINE
  5
5BE
330
520
100
AcDbEntity
  8
0
  6
Continuous
 62
     7
370
    25
100
AcDbLine
 10
25.4558441227
 20
157.6244901092
 30
0.0
 11
-342.2396820943
 21
369.8905991831
 31
0.0
  0
LINE
  5
5BF
330
520
100
AcDbEntity
  8
0
  6
Continuous
 62
     7
370
    25
100
AcDbLine
 10
-342.2396820943
 20
339.6785891433
 30
0.0
 11
25.4558441227
 21
127.4124800694
 31
0.0
  0
LINE
  5
5C0
330
520
100
AcDbEntity
  8
0
  6
Continuous
 62
     7
370
    25
100
AcDbLine
 10
-342.2396820943
 20
369.8905991831
 30
0.0
 11
-342.2396820943
 21
339.6785891433
 31
0.0
  0
LINE
  5
5C1
330
520
100
AcDbEntity
  8
0
  6
Continuous
 62
     7
370
    25
100
AcDbLine
 10
371.9381669041
 20
294.7761429931
 30
0.0
 11
371.9381669041
 21
324.9881530329
 31
0.0
  0
LINE
  5
5C2
330
520
100
AcDbEntity
  8
0
  6
Continuous
 62
     7
370
    25
100
AcDbLine
 10
82.0243866176
 20
127.4124800694
 30
0.0
 11
371.9381669041
 21
294.7761429931
 31
0.0
  0
LINE
  5
5C3
330
520
100
AcDbEntity
  8
0
  6
Continuous
 62
     7
370
    25
100
AcDbLine
 10
221.037119828
 20
305.9823405193
 30
0.0
 11
-85.8373424574
 21
483.1371967496
 31
0.0
  0
LINE
  5
5C4
330
520
100
AcDbEntity
  8
0
  6
Continuous
 62
     7
370
    25
100
AcDbLine
 10
-85.8373424574
 20
483.1371967496
 30
0.0
 11
-72.3951075572
 21
397.7646806733
 31
0.0
  0
LINE
  5
5C5
330
520
100
AcDbEntity
  8
0
  6
Continuous
 62
     7
370
    25
100
AcDbLine
 10
-353.954680936
 20
356.1462500982
 30
0.0
 11
-353.9554108468
 21
356.0067513798
 31
0.0
  0
LINE
  5
5C6
330
520
100
AcDbEntity
  8
0
  6
Continuous
 62
     7
370
    25
100
AcDbLine
 10
-128.7958303522
 20
485.3794331072
 30
0.0
 11
-276.3155898691
 21
400.2180886483
 31
0.0
  0
LINE
  5
5C7
330
520
100
AcDbEntity
  8
0
  6
Continuous
 62
     7
370
    25
100
AcDbLine
 10
-114.4657120478
 20
394.3679112584
 30
0.0
 11
-128.7958303522
 21
485.3794331072
 31
0.0
  0
LINE
  5
5C8
330
520
100
AcDbEntity
  8
0
  6
Continuous
 62
     7
370
    25
100
AcDbLine
 10
67.9887799467
 20
370.5167408238
 30
0.0
 11
68.3743251981
 21
381.4244335837
 31
0.0
  0
LINE
  5
5C9
330
520
100
AcDbEntity
  8
0
  6
Continuous
 62
     7
370
    25
100
AcDbLine
 10
73.2873133391
 20
360.6194384571
 30
0.0
 11
73.4533361957
 21
360.7107234772
 31
0.0
  0
LINE
  5
5CA
330
520
100
AcDbEntity
  8
0
  6
Continuous
 62
     7
370
    25
100
AcDbLine
 10
13.9393398282
 20
259.1309870012
 30
0.0
 11
13.9393398282
 21
265.1689195993
 31
0.0
  0
LINE
  5
5CB
330
520
100
AcDbEntity
  8
0
  6
Continuous
 62
     7
370
    25
100
AcDbLine
 10
13.9393398282
 20
259.1309870012
 30
0.0
 11
21.9589650253
 21
263.760618083
 31
0.0
  0
LINE
  5
5CC
330
520
100
AcDbEntity
  8
0
  6
Continuous
 62
     7
370
    25
100
AcDbLine
 10
131.831992918
 20
427.8824752146
 30
0.0
 11
131.844191771
 21
428.264973479
 31
0.0
  0
LINE
  5
5CD
330
520
100
AcDbEntity
  8
0
  6
Continuous
 62
     7
370
    25
100
AcDbLine
 10
95.844191771
 20
428.264973479
 30
0.0
 11
95.8551201307
 21
427.9029346726
 31
0.0
  0
LINE
  5
5CE
330
520
100
AcDbEntity
  8
0
  6
Continuous
 62
     7
370
    25
100
AcDbLine
 10
65.9023520066
 20
120.5358847805
 30
0.0
 11
65.9023520066
 21
-189.89652681
 31
0.0
  0
LINE
  5
5CF
330
520
100
AcDbEntity
  8
0
  6
Continuous
 62
     7
370
    25
100
AcDbLine
 10
357.2303458554
 20
-21.7164557745
 30
0.0
 11
357.2303458554
 21
285.2707151823
 31
0.0
  0
LINE
  5
5D0
330
520
100
AcDbEntity
  8
0
  6
Continuous
 62
     7
370
    25
100
AcDbLine
 10
60.1040764009
 20
-193.2438000684
 30
0.0
 11
357.2303458554
 21
-21.7164557745
 31
0.0
  0
LINE
  5
5D1
330
520
100
AcDbEntity
  8
0
  6
Continuous
 62
     7
370
    25
100
AcDbLine
 10
44.7598592491
 20
66.7835484915
 30
0.0
 11
-334.9564822481
 21
285.9891265159
 31
0.0
  0
LINE
  5
5D2
330
520
100
AcDbEntity
  8
0
  6
Continuous
 62
     7
370
    25
100
AcDbLine
 10
64.9124025129
 20
120.347763547
 30
0.0
 11
64.9124025129
 21
70.2532829668
 31
0.0
  0
LINE
  5
5D3
330
520
100
AcDbEntity
  8
0
  6
Continuous
 62
     7
370
    25
100
AcDbLine
 10
64.9124025129
 20
70.2532829668
 30
0.0
 11
58.9019948728
 21
66.7835484915
 31
0.0
  0
LINE
  5
5D4
330
520
100
AcDbEntity
  8
0
  6
Continuous
 62
     7
370
    25
100
AcDbLine
 10
-84.8528137424
 20
131.3188979003
 30
0.0
 11
-75.9417856498
 21
136.4631249202
 31
0.0
  0
LINE
  5
5D5
330
520
100
AcDbEntity
  8
0
  6
Continuous
 62
     7
370
    25
100
AcDbLine
 10
65.9023520066
 20
59.1484208152
 30
0.0
 11
55.0672510389
 21
65.403391463
 31
0.0
  0
LINE
  5
5D6
330
520
100
AcDbEntity
  8
0
  6
Continuous
 62
     7
370
    25
100
AcDbLine
 10
60.1040764009
 20
55.8011475567
 30
0.0
 11
65.9023520066
 21
59.1484208152
 31
0.0
  0
LINE
  5
5D7
330
520
100
AcDbEntity
  8
0
  6
Continuous
 62
     7
370
    25
100
AcDbLine
 10
45.9619407771
 20
55.8011475567
 30
0.0
 11
-84.8528137424
 21
131.3188979003
 31
0.0
  0
LINE
  5
5D8
330
520
100
AcDbEntity
  8
0
  6
Continuous
 62
     7
370
    25
100
AcDbLine
 10
45.9619407771
 20
-193.2438000684
 30
0.0
 11
45.9619407771
 21
55.8011475567
 31
0.0
  0
LINE
  5
5D9
330
520
100
AcDbEntity
  8
0
  6
Continuous
 62
     7
370
    25
100
AcDbLine
 10
60.1040764009
 20
55.8011475567
 30
0.0
 11
60.1040764009
 21
-193.2438000684
 31
0.0
  0
LINE
  5
5DA
330
520
100
AcDbEntity
  8
0
  6
Continuous
 62
     7
370
    25
100
AcDbLine
 10
-333.7544007201
 20
275.0067255811
 30
0.0
 11
-333.7544007201
 21
25.961777956
 31
0.0
  0
LINE
  5
5DB
330
520
100
AcDbEntity
  8
0
  6
Continuous
 62
     7
370
    25
100
AcDbLine
 10
-202.9396462005
 20
199.4889752375
 30
0.0
 11
-333.7544007201
 21
275.0067255811
 31
0.0
  0
LINE
  5
5DC
330
520
100
AcDbEntity
  8
0
  6
Continuous
 62
     7
370
    25
100
AcDbLine
 10
-333.7544007201
 20
25.961777956
 30
0.0
 11
45.9619407771
 21
-193.2438000684
 31
0.0
  0
LINE
  5
5DD
330
520
100
AcDbEntity
  8
0
  6
Continuous
 62
     7
370
    25
100
AcDbLine
 10
-202.9396462005
 20
199.4889752375
 30
0.0
 11
-194.028618108
 21
204.6332022574
 31
0.0
  0
LINE
  5
5DE
330
520
100
AcDbEntity
  8
0
  6
Continuous
 62
     7
370
    25
100
AcDbLine
 10
-333.7544007201
 20
283.1708066993
 30
0.0
 11
-331.9144404393
 21
284.2329931601
 31
0.0
  0
LINE
  5
5DF
330
520
100
AcDbEntity
  8
0
  6
Continuous
 62
     8
370
    25
100
AcDbLine
 10
-100.7458252364
 20
374.0775776768
 30
0.0
 11
-185.0663253963
 21
325.4003890576
 31
0.0
  0
LINE
  5
5E0
330
520
100
AcDbEntity
  8
0
  6
Continuous
 62
     8
370
    25
100
AcDbLine
 10
145.2839830727
 20
240.1362540993
 30
0.0
 11
-86.5249829831
 21
373.9567217545
 31
0.0
  0
LINE
  5
5E1
330
520
100
AcDbEntity
  8
0
  6
Continuous
 62
     8
370
    25
100
AcDbLine
 10
213.5899581192
 20
279.5684541556
 30
0.0
 11
221.037119828
 21
305.9823405193
 31
0.0
  0
LINE
  5
5E2
330
520
100
AcDbEntity
  8
0
  6
Continuous
 62
     8
370
    25
100
AcDbLine
 10
-72.3951075572
 20
397.7646806733
 30
0.0
 11
172.9694522991
 21
256.118735287
 31
0.0
  0
LINE
  5
5E3
330
520
100
AcDbEntity
  8
0
  6
Continuous
 62
     8
370
    25
100
AcDbLine
 10
-276.3155898691
 20
400.2180886483
 30
0.0
 11
-261.6546347862
 21
369.6138789578
 31
0.0
  0
LINE
  5
5E4
330
520
100
AcDbEntity
  8
0
  6
Continuous
 62
     8
370
    25
100
AcDbLine
 10
-209.500117298
 20
339.5057168821
 30
0.0
 11
-114.4657120478
 21
394.3679112584
 31
0.0
  0
LINE
  5
5E5
330
520
100
AcDbEntity
  8
0
  6
Continuous
 62
     8
370
    25
100
AcDbLine
 10
58.9019948728
 20
119.60415233
 30
0.0
 11
58.9019948728
 21
66.7835484915
 31
0.0
  0
LINE
  5
5E6
330
520
100
AcDbEntity
  8
0
  6
Continuous
 62
     8
370
    25
100
AcDbLine
 10
44.7598592491
 20
66.7835484915
 30
0.0
 11
44.7598592491
 21
120.014239021
 31
0.0
  0
LINE
  5
5E7
330
520
100
AcDbEntity
  8
0
  6
Continuous
 62
     8
370
    25
100
AcDbLine
 10
-334.9564822481
 20
334.4593039196
 30
0.0
 11
-334.9564822481
 21
285.9891265159
 31
0.0
  0
ARC
  5
5E8
330
520
100
AcDbEntity
  8
0
  6
Continuous
 62
     7
370
    25
100
AcDbCircle
 10
66.672225604
 20
156.9258815866
 30
0.0
 40
15.36804807572003
100
AcDbArc
 50
2.6054784857
 51
57.39452166
  0
ARC
  5
5E9
330
520
100
AcDbEntity
  8
0
  6
Continuous
 62
     7
370
    25
100
AcDbCircle
 10
40.8080051364
 20
156.9258815866
 30
0.0
 40
15.36804807572073
100
AcDbArc
 50
122.60547834
 51
177.3945215143
  0
ARC
  5
5EA
330
520
100
AcDbEntity
  8
0
  6
Continuous
 62
     7
370
    25
100
AcDbCircle
 10
356.5860058904
 20
324.2895445103
 30
0.0
 40
15.36804807572022
100
AcDbArc
 50
2.6054784857
 51
57.39452166
  0
ARC
  5
5EB
330
520
100
AcDbEntity
  8
0
  6
Continuous
 62
     7
370
    25
100
AcDbCircle
 10
-326.8875210806
 20
369.1919906605
 30
0.0
 40
15.36804807572138
100
AcDbArc
 50
122.60547834
 51
177.3945215143
  0
ARC
  5
5EC
330
520
100
AcDbEntity
  8
0
  6
Continuous
 62
     7
370
    25
100
AcDbCircle
 10
370.5111102365
 20
294.5944509073
 30
0.0
 40
1.438576639148905
100
AcDbArc
 50
304.0563508292
 51
7.2558295642
  0
ARC
  5
5ED
330
520
100
AcDbEntity
  8
0
  6
Continuous
 62
     7
370
    25
100
AcDbCircle
 10
-93.7517368238
 20
360.3285431173
 30
0.0
 40
15.42573252852922
100
AcDbArc
 50
62.0638763504
 51
116.9622899691
  0
ARC
  5
5EE
330
520
100
AcDbEntity
  8
0
  6
Continuous
 62
     7
370
    25
100
AcDbCircle
 10
236.4551583366
 20
304.8803186421
 30
0.0
 40
15.45737246981451
100
AcDbArc
 50
122.7105939299
 51
175.9116715922
  0
ARC
  5
5EF
330
520
100
AcDbEntity
  8
0
  6
Continuous
 62
     7
370
    25
100
AcDbCircle
 10
-70.4193039488
 20
482.0351748723
 30
0.0
 40
15.45737246981251
100
AcDbArc
 50
122.7105939299
 51
175.9116715922
  0
ARC
  5
5F0
330
520
100
AcDbEntity
  8
0
  6
Continuous
 62
     7
370
    25
100
AcDbCircle
 10
-103.0920196403
 20
399.8861309055
 30
0.0
 40
30.7701310124044
100
AcDbArc
 50
302.5756659133
 51
356.0465996088
  0
ARC
  5
5F1
330
520
100
AcDbEntity
  8
0
  6
Continuous
 62
     7
370
    25
100
AcDbCircle
 10
-291.6958465334
 20
397.2101465868
 30
0.0
 40
15.67163075448275
100
AcDbArc
 50
11.0657585285
 51
57.0656641375
  0
ARC
  5
5F2
330
520
100
AcDbEntity
  8
0
  6
Continuous
 62
     7
370
    25
100
AcDbCircle
 10
-144.1760870165
 20
482.3714910457
 30
0.0
 40
15.67163075448277
100
AcDbArc
 50
11.0657585285
 51
57.0656641375
  0
ARC
  5
5F3
330
520
100
AcDbEntity
  8
0
  6
Continuous
 62
     7
370
    25
100
AcDbCircle
 10
11.1561071001
 20
215.2260569088
 30
0.0
 40
43.99305934842361
100
AcDbArc
 50
86.3727446762
 51
109.2098830426
  0
ARC
  5
5F4
330
520
100
AcDbEntity
  8
0
  6
Continuous
 62
     7
370
    25
100
AcDbCircle
 10
-48.1840345444
 20
569.9051408482
 30
0.0
 40
5.029772359018406
100
AcDbArc
 50
54.3824225248
 51
114.3071190461
  0
ARC
  5
5F5
330
520
100
AcDbEntity
  8
0
  6
Continuous
 62
     7
370
    25
100
AcDbCircle
 10
113.8429988891
 20
395.0684173435
 30
0.0
 40
28.13158253042611
100
AcDbArc
 50
65.6560459346
 51
114.2665229471
  0
ARC
  5
5F6
330
520
100
AcDbEntity
  8
0
  6
Continuous
 62
     7
370
    25
100
AcDbCircle
 10
-83.8506567764
 20
400.2854397742
 30
0.0
 40
31.18170542172473
100
AcDbArc
 50
190.9396918723
 51
237.1917307936
  0
ARC
  5
5F7
330
520
100
AcDbEntity
  8
0
  6
Continuous
 62
     7
370
    25
100
AcDbCircle
 10
51.830927061
 20
80.4306593411
 30
0.0
 40
15.37021907911734
100
AcDbArc
 50
242.6096722366
 51
297.3903277634
  0
ARC
  5
5F8
330
520
100
AcDbEntity
  8
0
  6
Continuous
 62
     7
370
    25
100
AcDbCircle
 10
-332.8808438113
 20
290.5702308441
 30
0.0
 40
5.029392784937902
100
AcDbArc
 50
185.6947992512
 51
245.6253417064
  0
ARC
  5
5F9
330
520
100
AcDbEntity
  8
0
  6
Continuous
 62
     7
370
    25
100
AcDbCircle
 10
53.033008589
 20
69.4482584063
 30
0.0
 40
15.37021907911736
100
AcDbArc
 50
242.6096722366
 51
297.3903277634
  0
ARC
  5
5FA
330
520
100
AcDbEntity
  8
0
  6
Continuous
 62
     7
370
    25
100
AcDbCircle
 10
53.033008589
 20
-179.5966892189
 30
0.0
 40
15.37021907911732
100
AcDbArc
 50
242.6096722366
 51
297.3903277634
  0
ARC
  5
5FB
330
520
100
AcDbEntity
  8
0
  6
Continuous
 62
     7
370
    25
100
AcDbCircle
 10
-331.6787622833
 20
30.5428822841
 30
0.0
 40
5.029392784937876
100
AcDbArc
 50
185.6947992512
 51
245.6253417064
  0
ARC
  5
5FC
330
520
100
AcDbEntity
  8
0
  6
Continuous
 62
     8
370
    25
100
AcDbCircle
 10
80.5974447682
 20
127.2307607929
 30
0.0
 40
1.438466175196424
100
AcDbArc
 50
304.0398986374
 51
7.2574815411
  0
ARC
  5
5FD
330
520
100
AcDbEntity
  8
0
  6
Continuous
 62
     8
370
    25
100
AcDbCircle
 10
26.8827862716
 20
127.2307608638
 30
0.0
 40
1.438466463231422
100
AcDbArc
 50
172.7425227657
 51
235.9600584418
  0
ARC
  5
5FE
330
520
100
AcDbEntity
  8
0
  6
Continuous
 62
     8
370
    25
100
AcDbCircle
 10
29.7048628354
 20
195.7068587951
 30
0.0
 40
4.965142672850173
100
AcDbArc
 50
65.2837284517
 51
126.0506276513
  0
ARC
  5
5FF
330
520
100
AcDbEntity
  8
0
  6
Continuous
 62
     8
370
    25
100
AcDbCircle
 10
78.5005987135
 20
195.9016345587
 30
0.0
 40
4.939995517597758
100
AcDbArc
 50
53.7782208235
 51
114.8874737153
  0
ARC
  5
600
330
520
100
AcDbEntity
  8
0
  6
Continuous
 62
     8
370
    25
100
AcDbCircle
 10
-340.8126254265
 20
339.4968970576
 30
0.0
 40
1.438576639335169
100
AcDbArc
 50
172.7441704404
 51
235.9436491662
  0
ARC
  5
601
330
520
100
AcDbEntity
  8
0
  6
Continuous
 62
     8
370
    25
100
AcDbCircle
 10
-280.5408821279
 20
374.8084490061
 30
0.0
 40
4.964468816934659
100
AcDbArc
 50
65.2574461083
 51
126.0530123208
  0
ARC
  5
602
330
520
100
AcDbEntity
  8
0
  6
Continuous
 62
     8
370
    25
100
AcDbCircle
 10
226.0205803788
 20
281.0636361733
 30
0.0
 40
4.939334100772291
100
AcDbArc
 50
53.7757952103
 51
114.9137463606
  0
ARC
  5
603
330
520
100
AcDbEntity
  8
0
  6
Continuous
 62
     8
370
    25
100
AcDbCircle
 10
-338.0980582935
 20
402.5408000359
 30
0.0
 40
5.03046521952034
100
AcDbArc
 50
54.3846647983
 51
114.2813817633
  0
ARC
  5
604
330
520
100
AcDbEntity
  8
0
  6
Continuous
 62
     8
370
    25
100
AcDbCircle
 10
70.7515772084
 20
366.3822476621
 30
0.0
 40
6.296024750477145
100
AcDbArc
 50
234.4095443552
 51
293.7503281289
  0
ARC
  5
605
330
520
100
AcDbEntity
  8
0
  6
Continuous
 62
     8
370
    25
100
AcDbCircle
 10
11.3143674154
 20
217.2206289612
 30
0.0
 40
40.2699775971282
100
AcDbArc
 50
72.9695996004
 51
107.0876918305
  0
ARC
  5
606
330
520
100
AcDbEntity
  8
0
  6
Continuous
 62
     8
370
    25
100
AcDbCircle
 10
11.313827982
 20
216.2582336258
 30
0.0
 40
38.42737813617924
100
AcDbArc
 50
81.8447480283
 51
98.2147060157
  0
VIEWPORT
  5
7C1
330
520
100
AcDbEntity
  8
0
100
AcDbViewport
 10
0.0
 20
0.0
 30
0.0
 40
205.6
 41
156.0
 68
     1
 69
     1
 12
0.0
 22
222.5
 13
0.0
 23
0.0
 14
10.0
 24
10.0
 15
10.0
 25
10.0
 16
0.0
 26
0.0
 36
1.0
 17
0.0
 27
0.0
 37
0.0
 42
50.0
 43
0.0
 44
0.0
 45
464.3579766537
 50
0.0
 51
0.0
 72
   100
 90
   557152
  1

281
     0
 71
     1
 74
     0
110
0.0
120
0.0
130
0.0
111
1.0
121
0.0
131
0.0
112
0.0
122
1.0
132
0.0
 79
     0
146
0.0
  0
ENDBLK
  5
523
330
520
100
AcDbEntity
  8
0
100
AcDbBlockEnd
  0
BLOCK
  5
609
330
607
100
AcDbEntity
  8
0
100
AcDbBlockBegin
  2
*Paper_Space5
 70
     0
 10
0.0
 20
0.0
 30
0.0
  3
*Paper_Space5
  1

  0
SPLINE
  5
60B
330
607
100
AcDbEntity
  8
0
  6
Continuous
 62
     7
370
    25
100
AcDbSpline
210
0.0
220
0.0
230
1.0
 70
     8
 71
     3
 72
    25
 73
    21
 74
     0
 42
0.000000001
 43
0.00000001
 40
0.0
 40
0.0
 40
0.0
 40
0.0
 40
0.0308704043202499
 40
0.0893212531625263
 40
0.1476828532111893
 40
0.2059662818409333
 40
0.264197637792026
 40
0.3224029960784049
 40
0.3806083110754773
 40
0.4388332004678836
 40
0.4971020802946423
 40
0.5554423589107271
 40
0.613882462333255
 40
0.6724515042594081
 40
0.731177871310666
 40
0.7900856870967119
 40
0.8491873431194382
 40
0.9084692564985433
 40
0.9678672259001018
 40
1.0
 40
1.0
 40
1.0
 40
1.0
 10
126.0222351075659
 20
175.0949750409643
 30
0.0
 10
126.5845479740462
 20
174.9475353203642
 30
0.0
 10
128.2115590550278
 20
174.5209292910643
 30
0.0
 10
131.0035029330715
 20
173.9344965299203
 30
0.0
 10
134.4098490297715
 20
173.3921204551342
 30
0.0
 10
137.8908130274981
 20
173.0163574217493
 30
0.0
 10
141.4173282950482
 20
172.8066145105223
 30
0.0
 10
144.9635754809489
 20
172.7646681267503
 30
0.0
 10
148.5025934783657
 20
172.8905007254106
 30
0.0
 10
152.0076973948696
 20
173.1833848823908
 30
0.0
 10
155.4524592791652
 20
173.6416073068782
 30
0.0
 10
158.8111293796094
 20
174.2626472415809
 30
0.0
 10
162.058722871132
 20
175.0432600664983
 30
0.0
 10
165.1710836936409
 20
175.9796327557424
 30
0.0
 10
168.1250946051336
 20
177.0674804984859
 30
0.0
 10
170.8980485055701
 20
178.3024366349501
 30
0.0
 10
173.4695033256814
 20
179.679244287826
 30
0.0
 10
175.8128754431098
 20
181.1949066656067
 30
0.0
 10
177.6014224839624
 20
182.5847106289357
 30
0.0
 10
178.5593685842459
 20
183.4867083526144
 30
0.0
 10
178.895665051015
 20
183.8033635876189
 30
0.0
  0
SPLINE
  5
60D
330
607
100
AcDbEntity
  8
0
  6
Continuous
 62
     7
370
    25
100
AcDbSpline
210
0.0
220
0.0
230
1.0
 70
     8
 71
     3
 72
    25
 73
    21
 74
     0
 42
0.000000001
 43
0.00000001
 40
0.0
 40
0.0
 40
0.0
 40
0.0
 40
0.0308361946989496
 40
0.0885874148512895
 40
0.1456931846195343
 40
0.2024788303687858
 40
0.2591811612993131
 40
0.3159121003086488
 40
0.3727275477210296
 40
0.4296734546984168
 40
0.4867833240588254
 40
0.5440890630019852
 40
0.6016250534304725
 40
0.6594280281606645
 40
0.7175344541139405
 40
0.7759765717419386
 40
0.8347778888521824
 40
0.8939487223365681
 40
0.953482296920658
 40
1.0
 40
1.0
 40
1.0
 40
1.0
 10
154.4449519671676
 20
253.0716526644396
 30
0.0
 10
154.2716700015646
 20
252.9078979891638
 30
0.0
 10
153.7738588571295
 20
252.4374572135062
 30
0.0
 10
152.740438395103
 20
251.6160255694942
 30
0.0
 10
151.2605948196218
 20
250.6330851469305
 30
0.0
 10
149.5238781406195
 20
249.6697652223118
 30
0.0
 10
147.5480592853757
 20
248.7524371383147
 30
0.0
 10
145.3493356560594
 20
247.9027886070599
 30
0.0
 10
142.9496808056564
 20
247.1402140378636
 30
0.0
 10
140.3736320975594
 20
246.4810130825904
 30
0.0
 10
137.6479431743826
 20
245.9386084467671
 30
0.0
 10
134.8010118559718
 20
245.5236786817262
 30
0.0
 10
131.8623595933215
 20
245.2442913120873
 30
0.0
 10
128.8622723788758
 20
245.1060601959478
 30
0.0
 10
125.8314618576345
 20
245.112191665445
 30
0.0
 10
122.8013201942872
 20
245.2638093357905
 30
0.0
 10
119.8023325372614
 20
245.5589514030835
 30
0.0
 10
116.8696022557474
 20
245.9962244816616
 30
0.0
 10
114.2344732285473
 20
246.5183537378172
 30
0.0
 10
112.6383073943156
 20
246.9311182423822
 30
0.0
 10
111.9381746851386
 20
247.1121708151385
 30
0.0
  0
SPLINE
  5
611
330
607
100
AcDbEntity
  8
0
  6
Continuous
 62
     7
370
    25
100
AcDbSpline
210
0.0
220
0.0
230
1.0
 70
     8
 71
     3
 72
    14
 73
    10
 74
     0
 42
0.000000001
 43
0.00000001
 40
0.0
 40
0.0
 40
0.0
 40
0.0
 40
0.105366259316285
 40
0.262273284646902
 40
0.4135374426261616
 40
0.5601203803723385
 40
0.7181411851026155
 40
0.8713046722265366
 40
0.9999999999999999
 40
0.9999999999999999
 40
0.9999999999999999
 40
0.9999999999999999
 10
-349.3379884360899
 20
365.9165417408441
 30
0.0
 10
-349.7394821130474
 20
365.5090352876701
 30
0.0
 10
-350.7388633770674
 20
364.4946872726387
 30
0.0
 10
-352.1284540366682
 20
362.7506996195046
 30
0.0
 10
-353.4398640460268
 20
360.6894180891067
 30
0.0
 10
-354.5047108541416
 20
358.4822027037031
 30
0.0
 10
-355.2794216586707
 20
356.1434997820992
 30
0.0
 10
-355.7458772334058
 20
353.8103591088293
 30
0.0
 10
-355.7838585325908
 20
352.2898527852566
 30
0.0
 10
-355.8012006041865
 20
351.5955971886557
 30
0.0
  0
SPLINE
  5
613
330
607
100
AcDbEntity
  8
0
  6
Continuous
 62
     7
370
    25
100
AcDbSpline
210
0.0
220
0.0
230
1.0
 70
     8
 71
     3
 72
    11
 73
     7
 74
     0
 42
0.000000001
 43
0.00000001
 40
0.0
 40
0.0
 40
0.0
 40
0.0
 40
0.2669733823182037
 40
0.5268108329428189
 40
0.7737355023883531
 40
1.0
 40
1.0
 40
1.0
 40
1.0
 10
253.2463629792453
 20
350.102781588514
 30
0.0
 10
253.2218400166055
 20
350.024898318676
 30
0.0
 10
253.1734495656087
 20
349.8712135209657
 30
0.0
 10
252.9189118008576
 20
349.4039577405407
 30
0.0
 10
252.4951881318333
 20
348.8119496009292
 30
0.0
 10
252.0309856391067
 20
348.3316369566812
 30
0.0
 10
251.8090182926012
 20
348.1019662314971
 30
0.0
  0
SPLINE
  5
614
330
607
100
AcDbEntity
  8
0
  6
Continuous
 62
     7
370
    25
100
AcDbSpline
210
0.0
220
0.0
230
1.0
 70
     8
 71
     3
 72
    18
 73
    14
 74
     0
 42
0.000000001
 43
0.00000001
 40
0.0
 40
0.0
 40
0.0
 40
0.0
 40
0.0587034810732444
 40
0.1684199618474044
 40
0.2757028704142935
 40
0.3804516716479001
 40
0.4827732666984463
 40
0.5829501173333095
 40
0.6815362116777792
 40
0.7795090075118011
 40
0.8781252935572319
 40
0.9794946816136806
 40
1.0
 40
1.0
 40
1.0
 40
1.0
 10
-276.1032970332826
 20
352.5735281052405
 30
0.0
 10
-276.5608639122648
 20
352.7021220761864
 30
0.0
 10
-277.8736207520959
 20
353.0710574661244
 30
0.0
 10
-279.8914784532769
 20
353.7517989646665
 30
0.0
 10
-282.0498194844508
 20
354.6220931469565
 30
0.0
 10
-283.9281671867791
 20
355.531474354024
 30
0.0
 10
-285.5146250186305
 20
356.4486943541468
 30
0.0
 10
-286.8024621247097
 20
357.3419933431842
 30
0.0
 10
-287.7935535369915
 20
358.1742315552514
 30
0.0
 10
-288.5042098865936
 20
358.9125980603486
 30
0.0
 10
-288.9469703684002
 20
359.4984478910438
 30
0.0
 10
-289.1407048731625
 20
359.8415947990236
 30
0.0
 10
-289.1735235670558
 20
359.928466627933
 30
0.0
 10
-289.1790452851133
 20
359.943082741174
 30
0.0
  0
SPLINE
  5
615
330
607
100
AcDbEntity
  8
0
  6
Continuous
 62
     7
370
    25
100
AcDbSpline
210
0.0
220
0.0
230
1.0
 70
     8
 71
     3
 72
    20
 73
    16
 74
     0
 42
0.000000001
 43
0.00000001
 40
0.0
 40
0.0
 40
0.0
 40
0.0
 40
0.0595021982479772
 40
0.1365114968665443
 40
0.2140476374652073
 40
0.2928420400637481
 40
0.3733034660369329
 40
0.4554458031460941
 40
0.5389457046194362
 40
0.6233178538616077
 40
0.7081041026076145
 40
0.7929438037191726
 40
0.8776477752747186
 40
0.9621581841846517
 40
1.0
 40
1.0
 40
1.0
 40
1.0
 10
-355.7890205284928
 20
319.526903849032
 30
0.0
 10
-355.7695909118661
 20
319.0090227683312
 30
0.0
 10
-355.7250149780797
 20
317.8208864707327
 30
0.0
 10
-355.2839926809661
 20
315.9869559129442
 30
0.0
 10
-354.5403256401974
 20
314.0477151291925
 30
0.0
 10
-353.4866653659784
 20
312.1628756570436
 30
0.0
 10
-352.1371124250159
 20
310.3394775878671
 30
0.0
 10
-350.4909799235689
 20
308.5893319980556
 30
0.0
 10
-348.5581873442751
 20
306.9279363263569
 30
0.0
 10
-346.3548609608206
 20
305.3719650816449
 30
0.0
 10
-343.9033480142177
 20
303.9369375714481
 30
0.0
 10
-341.2295704108647
 20
302.6344721279133
 30
0.0
 10
-338.357292919089
 20
301.4761152748071
 30
0.0
 10
-335.8760246879174
 20
300.6457376246018
 30
0.0
 10
-334.3478355049623
 20
300.2176436877191
 30
0.0
 10
-333.8751881646933
 20
300.0852402766035
 30
0.0
  0
SPLINE
  5
617
330
607
100
AcDbEntity
  8
0
  6
Continuous
 62
     7
370
    25
100
AcDbSpline
210
0.0
220
0.0
230
1.0
 70
     8
 71
     3
 72
    16
 73
    12
 74
     0
 42
0.000000001
 43
0.00000001
 40
0.0
 40
0.0
 40
0.0
 40
0.0
 40
0.0945293426778691
 40
0.2197397382759198
 40
0.3333250162969787
 40
0.4412282546813909
 40
0.5557808571482502
 40
0.6681262116887547
 40
0.7803023893449258
 40
0.8931192063194012
 40
1.0
 40
1.0
 40
1.0
 40
1.0
 10
29.94589691402928
 20
278.3936344247704
 30
0.0
 10
29.94843318094639
 20
278.2611024122892
 30
0.0
 10
29.95432890192338
 20
277.9530229428801
 30
0.0
 10
29.78968035896901
 20
277.408196094906
 30
0.0
 10
29.43388146074612
 20
276.699033331486
 30
0.0
 10
28.83852531438854
 20
275.8936275585111
 30
0.0
 10
27.9693324971641
 20
275.0129014750862
 30
0.0
 10
26.7992999130271
 20
274.0901608508847
 30
0.0
 10
25.35972100515568
 20
273.1875934437482
 30
0.0
 10
23.71559104591105
 20
272.338937372706
 30
0.0
 10
22.44985325427437
 20
271.8421932698885
 30
0.0
 10
21.83408388218934
 20
271.600531998257
 30
0.0
  0
SPLINE
  5
618
330
607
100
AcDbEntity
  8
0
  6
Continuous
 62
     7
370
    25
100
AcDbSpline
210
0.0
220
0.0
230
1.0
 70
     8
 71
     3
 72
    17
 73
    13
 74
     0
 42
0.000000001
 43
0.00000001
 40
0.0
 40
0.0
 40
0.0
 40
0.0
 40
0.0402002425612754
 40
0.1539040146620433
 40
0.2676753865464926
 40
0.3814160453826572
 40
0.4950191417098238
 40
0.608392773534413
 40
0.7214410039312741
 40
0.8340666680678898
 40
0.946181945681005
 40
1.0
 40
1.0
 40
1.0
 40
1.0
 10
3.512273712579053
 20
276.5800074134538
 30
0.0
 10
3.821323161414347
 20
276.6121684884088
 30
0.0
 10
5.004498880624087
 20
276.7352950726298
 30
0.0
 10
7.113656366534746
 20
276.7895371621469
 30
0.0
 10
9.79261796100968
 20
276.7397537755615
 30
0.0
 10
12.4423451520689
 20
276.5226744089585
 30
0.0
 10
15.01905319151871
 20
276.1554307604646
 30
0.0
 10
17.48475805415743
 20
275.6408777692487
 30
0.0
 10
19.80724071276343
 20
274.9912879528503
 30
0.0
 10
21.93548617514436
 20
274.2136774396259
 30
0.0
 10
23.56350781612699
 20
273.494341633095
 30
0.0
 10
24.3814948071304
 20
273.0094597143176
 30
0.0
 10
24.64679694866796
 20
272.8521953410948
 30
0.0
  0
SPLINE
  5
619
330
607
100
AcDbEntity
  8
0
  6
Continuous
 62
     7
370
    25
100
AcDbSpline
210
0.0
220
0.0
230
1.0
 70
     8
 71
     3
 72
    28
 73
    24
 74
     0
 42
0.000000001
 43
0.00000001
 40
0.0
 40
0.0
 40
0.0
 40
0.0
 40
0.0105783352060992
 40
0.0633804972247133
 40
0.1161714089602137
 40
0.168606905345184
 40
0.2206013235350589
 40
0.2722360064591127
 40
0.3236407838853651
 40
0.3749237907383952
 40
0.4261533901181583
 40
0.4773594828401691
 40
0.528554688482607
 40
0.5797397892439461
 40
0.6309077555912462
 40
0.6820515693167029
 40
0.7331725289979856
 40
0.7842904652937611
 40
0.8354561657043438
 40
0.88676289764851
 40
0.9383462450849308
 40
0.9903500631846622
 40
1.0
 40
1.0
 40
1.0
 40
1.0
 10
36.0965067125636
 20
401.9568753179419
 30
0.0
 10
36.16459589681762
 20
402.0312904817654
 30
0.0
 10
36.57255483076761
 20
402.4771517626104
 30
0.0
 10
37.52790012045623
 20
403.0683444798639
 30
0.0
 10
38.94103810276477
 20
403.6902434079177
 30
0.0
 10
40.51771223416407
 20
404.0171759889593
 30
0.0
 10
42.1904140319573
 20
404.0654129052877
 30
0.0
 10
43.9216834376333
 20
403.828299658656
 30
0.0
 10
45.66661054055856
 20
403.3142844586474
 30
0.0
 10
47.38255509400938
 20
402.5356485350679
 30
0.0
 10
49.02659745876058
 20
401.5115241045094
 30
0.0
 10
50.55728303372241
 20
400.2672178444481
 30
0.0
 10
51.93575286247594
 20
398.8340514426687
 30
0.0
 10
53.12709809420041
 20
397.2485473848869
 30
0.0
 10
54.10142536951663
 20
395.5515426117136
 30
0.0
 10
54.83490652597846
 20
393.7869653385039
 30
0.0
 10
55.31038207849052
 20
392.0006078276366
 30
0.0
 10
55.51856579018006
 20
390.2377133393987
 30
0.0
 10
55.45524321985766
 20
388.544015618202
 30
0.0
 10
55.13081288279251
 20
386.953342298609
 30
0.0
 10
54.52998991670311
 20
385.5264842489126
 30
0.0
 10
53.96829855399257
 20
384.5647071310849
 30
0.0
 10
53.54764347436122
 20
384.1558520937711
 30
0.0
 10
53.48180328433411
 20
384.0918588255242
 30
0.0
  0
SPLINE
  5
61A
330
607
100
AcDbEntity
  8
0
  6
Continuous
 62
     7
370
    25
100
AcDbSpline
210
0.0
220
0.0
230
1.0
 70
     8
 71
     3
 72
    24
 73
    20
 74
     0
 42
0.000000001
 43
0.00000001
 40
0.0
 40
0.0
 40
0.0
 40
0.0
 40
0.0133775750239308
 40
0.0821824192771921
 40
0.1499420134413693
 40
0.2150331365211325
 40
0.2785595520446042
 40
0.3415332089274947
 40
0.404424855361561
 40
0.4674020816212409
 40
0.5305432958194428
 40
0.5938472715361041
 40
0.6572830403782628
 40
0.7208108312712207
 40
0.784389703283166
 40
0.8479794023953592
 40
0.9115285456034288
 40
0.9749937616549368
 40
1.0
 40
1.0
 40
1.0
 40
1.0
 10
93.11425481800946
 20
453.8711574690448
 30
0.0
 10
93.12064992988923
 20
453.7982583292041
 30
0.0
 10
93.15993700283678
 20
453.3504172470483
 30
0.0
 10
92.93603522742619
 20
452.5316768407091
 30
0.0
 10
92.41119009223736
 20
451.4132488031181
 30
0.0
 10
91.55516937870217
 20
450.3291573609849
 30
0.0
 10
90.4278766187235
 20
449.3077034376861
 30
0.0
 10
89.03879856235525
 20
448.3627182985745
 30
0.0
 10
87.40869011661417
 20
447.509344349317
 30
0.0
 10
85.56174482916217
 20
446.7641656156422
 30
0.0
 10
83.52863761700924
 20
446.1427760429191
 30
0.0
 10
81.344244400009
 20
445.6584701216212
 30
0.0
 10
79.04726653587169
 20
445.321757735506
 30
0.0
 10
76.67883390347747
 20
445.1399274284505
 30
0.0
 10
74.28177946123101
 20
445.1171314799157
 30
0.0
 10
71.89885385940542
 20
445.2535271594082
 30
0.0
 10
69.57573609294899
 20
445.5482572516607
 30
0.0
 10
67.79468709715958
 20
445.8995558690748
 30
0.0
 10
66.81103676084658
 20
446.1568365633478
 30
0.0
 10
66.53301041974238
 20
446.2295563169279
 30
0.0
  0
SPLINE
  5
61B
330
607
100
AcDbEntity
  8
0
  6
Continuous
 62
     7
370
    25
100
AcDbSpline
210
0.0
220
0.0
230
1.0
 70
     8
 71
     3
 72
    16
 73
    12
 74
     0
 42
0.000000001
 43
0.00000001
 40
0.0
 40
0.0
 40
0.0
 40
0.0
 40
0.0655093037621397
 40
0.1901870160711554
 40
0.3145283765786711
 40
0.4384193285024458
 40
0.561942772419345
 40
0.6853928718694049
 40
0.8094194815800285
 40
0.9355758116000338
 40
1.0
 40
1.0
 40
1.0
 40
1.0
 10
66.53301041974238
 20
446.2295563169279
 30
0.0
 10
66.17145489594141
 20
446.3327361736539
 30
0.0
 10
65.12178466184106
 20
446.632288572205
 30
0.0
 10
63.51108760723234
 20
447.2283037471234
 30
0.0
 10
61.79822080611922
 20
448.0431672987789
 30
0.0
 10
60.32628203009519
 20
448.953547455283
 30
0.0
 10
59.11826313293466
 20
449.9342020232075
 30
0.0
 10
58.18577352202286
 20
450.9611789130239
 30
0.0
 10
57.55237768863223
 20
452.0114474417804
 30
0.0
 10
57.21553952918471
 20
452.8895204213789
 30
0.0
 10
57.19450996982462
 20
453.4149016422321
 30
0.0
 10
57.18740109896298
 20
453.5925024748598
 30
0.0
  0
LWPOLYLINE
  5
61E
330
607
100
AcDbEntity
  8
0
  6
Continuous
 62
     7
370
    25
100
AcDbPolyline
 90
       15
 70
   128
 43
0.0
 10
130.0758984051
 20
221.4653887385
 10
133.1346352341
 20
220.7439398452
 10
136.3309756317
 20
220.2034122918
 10
139.6247237628
 20
219.8506035261
 10
142.9744588337
 20
219.689950323
 10
146.3380559823
 20
219.7234729897
 10
149.6732160227
 20
219.9507499591
 10
152.9379973824
 20
220.3689230916
 10
156.0913435416
 20
220.9727336175
 10
159.0935993426
 20
221.7545882689
 10
161.9070096769
 20
222.70465477
 10
164.496194277
 20
223.8109854833
 10
166.8285926443
 20
225.0596676581
 10
168.8748735162
 20
226.4349983917
 10
170.6093037233
 20
227.9196821021
  0
LWPOLYLINE
  5
620
330
607
100
AcDbEntity
  8
0
  6
Continuous
 62
     7
370
    25
100
AcDbPolyline
 90
       17
 70
   128
 43
0.0
 10
179.4534849401
 20
216.9443501483
 10
177.4533704433
 20
215.2047396379
 10
175.1318209431
 20
213.5744767262
 10
172.5111942304
 20
212.0692617363
 10
169.6167283728
 20
210.7035907113
 10
166.476298659
 20
209.4906158097
 10
163.1201491437
 20
208.442018643
 10
159.5806013815
 20
207.567897775
 10
155.8917431523
 20
206.8766714676
 10
152.0891001772
 20
206.374996608
 10
148.209293987
 20
206.0677045993
 10
144.2896892361
 20
205.9577548316
 10
140.368033861
 20
206.0462061811
 10
136.4820955467
 20
206.3322068132
 10
132.6692980034
 20
206.8130023852
 10
128.9663605558
 20
207.4839625731
 10
125.4089445158
 20
208.3386256635
  0
LWPOLYLINE
  5
623
330
607
100
AcDbEntity
  8
0
  6
Continuous
 62
     7
370
    25
100
AcDbPolyline
 90
       17
 70
   128
 43
0.0
 10
125.4089445158
 20
176.6234355375
 10
128.9663605558
 20
175.7687724471
 10
132.6692980034
 20
175.0978122592
 10
136.4820955467
 20
174.6170166872
 10
140.368033861
 20
174.3310160552
 10
144.2896892361
 20
174.2425647056
 10
148.209293987
 20
174.3525144733
 10
152.0891001772
 20
174.659806482
 10
155.8917431523
 20
175.1614813417
 10
159.5806013815
 20
175.852707649
 10
163.1201491437
 20
176.726828517
 10
166.476298659
 20
177.7754256837
 10
169.6167283728
 20
178.9884005853
 10
172.5111942304
 20
180.3540716103
 10
175.1318209431
 20
181.8592866002
 10
177.4533704433
 20
183.4895495119
 10
179.4534849401
 20
185.2291600223
  0
LWPOLYLINE
  5
626
330
607
100
AcDbEntity
  8
0
  6
Continuous
 62
     7
370
    25
100
AcDbPolyline
 90
       15
 70
   128
 43
0.0
 10
-342.3532068496
 20
367.3319010188
 10
-343.7539749258
 20
365.7565350907
 10
-344.8034653997
 20
364.1102980856
 10
-345.4884803197
 20
362.4138923889
 10
-345.8004052258
 20
360.6886512865
 10
-345.7353174812
 20
358.9562706864
 10
-345.2940356022
 20
357.2385362796
 10
-344.4821089644
 20
355.5570495731
 10
-343.3097480163
 20
353.9329562378
 10
-341.791695877
 20
352.3866801896
 10
-339.9470429332
 20
350.9376667471
 10
-337.7989867657
 20
349.6041380951
 10
-335.3745404272
 20
348.4028641301
 10
-332.7041927372
 20
347.3489515691
 10
-329.8215248672
 20
346.4556539742
  0
LWPOLYLINE
  5
62A
330
607
100
AcDbEntity
  8
0
  6
Continuous
 62
     7
370
    25
100
AcDbPolyline
 90
       17
 70
   128
 43
0.0
 10
161.4297335537
 20
254.4870119424
 10
159.4552393068
 20
252.7604136818
 10
157.1883203394
 20
251.1477690624
 10
154.6489614037
 20
249.6632948708
 10
151.8595490338
 20
248.3200779659
 10
148.8446741905
 20
247.1299599079
 10
145.6309154712
 20
246.1034325645
 10
142.246604798
 20
245.2495456174
 10
138.7215776485
 20
244.5758267811
 10
135.0869100318
 20
244.0882154405
 10
131.3746445275
 20
243.7910102898
 10
127.6175078045
 20
243.6868314366
 10
123.8486221081
 20
243.776597303
 10
120.1012132607
 20
244.0595165292
 10
116.4083177485
 20
244.5330949499
 10
112.8024914778
 20
245.1931575823
 10
109.3155227684
 20
246.0338854324
  0
LWPOLYLINE
  5
62C
330
607
100
AcDbEntity
  8
0
  6
Continuous
 62
     7
370
    25
100
AcDbPolyline
 90
       17
 70
   128
 43
0.0
 10
241.1918574331
 20
377.3798406996
 10
244.6524508818
 20
376.3284993442
 10
247.8990099598
 20
375.1147291802
 10
250.9006688756
 20
373.7500698023
 10
253.6288901606
 20
372.2474953444
 10
256.0577359809
 20
370.621291131
 10
258.1641147351
 20
368.8869178634
 10
259.928000591
 20
367.0608646313
 10
261.3326238758
 20
365.1604921469
 10
262.3646305096
 20
363.2038676931
 10
263.0142089656
 20
361.2095933532
 10
263.2751835504
 20
359.1966291566
 10
263.1450731181
 20
357.1841128218
 10
262.6251146587
 20
355.1911778091
 10
261.7202515382
 20
353.2367714147
 10
260.4390865004
 20
351.3394746344
 10
258.7937998791
 20
349.5173255095
  0
LWPOLYLINE
  5
62E
330
607
100
AcDbEntity
  8
0
  6
Continuous
 62
     7
370
    25
100
AcDbPolyline
 90
       17
 70
   128
 43
0.0
 10
-197.2259170156
 20
473.4537132409
 10
-195.2339444765
 20
475.1816405619
 10
-192.9160177086
 20
476.7971677191
 10
-190.2941737805
 20
478.2849355204
 10
-187.3933391716
 20
479.6307994117
 10
-184.2410927904
 20
480.8219639522
 10
-180.8674037757
 20
481.8471044638
 10
-177.3043465729
 20
482.6964746975
 10
-173.5857959947
 20
483.3619994932
 10
-169.7471051655
 20
483.837351552
 10
-165.8247694108
 20
484.1180115915
 10
-161.8560792881
 20
484.2013113113
 10
-157.8787660565
 20
484.0864587617
 10
-153.930642957
 20
483.7745458727
 10
-150.0492457133
 20
483.2685380725
 10
-146.2714756708
 20
482.5732460947
 10
-142.6332489671
 20
481.6952802419
  0
LWPOLYLINE
  5
630
330
607
100
AcDbEntity
  8
0
  6
Continuous
 62
     7
370
    25
100
AcDbPolyline
 90
       17
 70
   128
 43
0.0
 10
-278.72594895
 20
351.4952427225
 10
-282.0414883641
 20
352.5032908203
 10
-285.1345380388
 20
353.6638391302
 10
-287.9778302013
 20
354.966656466
 10
-290.5462988964
 20
356.400257423
 10
-292.8173009633
 20
357.9520036315
 10
-294.7708156539
 20
359.6082151745
 10
-296.3896211323
 20
361.3542911872
 10
-297.6594462986
 20
363.1748385757
 10
-298.5690966014
 20
365.0538077198
 10
-299.1105527262
 20
366.9746339637
 10
-299.2790412928
 20
368.9203836465
 10
-299.073076936
 20
370.8739033871
 10
-298.4944754007
 20
372.8179713049
 10
-297.5483375347
 20
374.7354488447
 10
-296.2430043201
 20
376.6094318674
 10
-294.5899833411
 20
378.4233996738
  0
LWPOLYLINE
  5
632
330
607
100
AcDbEntity
  8
0
  6
Continuous
 62
     7
370
    25
100
AcDbPolyline
 90
       47
 70
   128
 43
0.0
 10
66.2707452281
 20
446.1217277787
 10
64.0651981342
 20
446.8242044029
 10
62.0659155991
 20
447.6748153646
 10
60.3101404735
 20
448.657715391
 10
58.830579526
 20
449.7545949144
 10
57.6547941776
 20
450.9450211445
 10
56.8046870847
 20
452.2068186931
 10
56.296094134
 20
453.5164826593
 10
56.1384894497
 20
454.8496164814
 10
56.3348089091
 20
456.1813863985
 10
56.881395452
 20
457.4869840571
 10
57.7680672053
 20
458.742088643
 10
58.9783071519
 20
459.9233199325
 10
60.4895708114
 20
461.0086738216
 10
62.2737062013
 20
461.977932221
 10
64.297478255
 20
462.8130396806
 10
66.5231879283
 20
463.4984397286
 10
68.9093744611
 20
464.0213646587
 10
71.4115877131
 20
464.3720733691
 10
73.983216186
 20
464.54403282
 10
76.5763553068
 20
464.5340397322
 10
79.1426998003
 20
464.342280258
 10
81.6344435242
 20
463.9723265136
 10
84.0051700074
 20
463.4310700372
 10
86.2107171013
 20
462.728593413
 10
88.2099996364
 20
461.8779824513
 10
89.965774762
 20
460.8950824249
 10
91.4453357094
 20
459.7982029015
 10
92.6211210578
 20
458.6077766714
 10
93.4712281507
 20
457.3459791228
 10
93.9798211015
 20
456.0363151566
 10
94.1374257857
 20
454.7031813345
 10
93.9411063264
 20
453.3714114173
 10
93.3945197835
 20
452.0658137588
 10
92.5078480302
 20
450.8107091729
 10
91.2976080836
 20
449.6294778834
 10
89.7863444241
 20
448.5441239943
 10
88.0022090342
 20
447.5748655949
 10
85.9784369805
 20
446.7397581352
 10
83.7527273072
 20
446.0543580873
 10
81.3665407744
 20
445.5314331571
 10
78.8643275223
 20
445.1807244467
 10
76.2926990495
 20
445.0087649959
 10
73.6995599286
 20
445.0187580837
 10
71.1332154352
 20
445.2105175579
 10
68.6414717113
 20
445.5804713023
 10
66.2707452281
 20
446.1217277787
  0
LWPOLYLINE
  5
63C
330
607
100
AcDbEntity
  8
0
  6
Continuous
 62
     7
370
    25
100
AcDbPolyline
 90
        9
 70
   128
 43
0.0
 10
-138.2208177999
 20
357.9666362546
 10
-140.0748169865
 20
358.3599507122
 10
-142.0321970723
 20
358.5644308845
 10
-144.0186979109
 20
358.5723190919
 10
-145.9589545568
 20
358.3833160674
 10
-147.7793565021
 20
358.00459231
 10
-149.410840351
 20
357.450516047
 10
-150.7915099853
 20
356.7421081239
 10
-151.8689848121
 20
355.9062445043
  0
LWPOLYLINE
  5
63D
330
607
100
AcDbEntity
  8
0
  6
Continuous
 62
     7
370
    25
100
AcDbPolyline
 90
        3
 70
   128
 43
0.0
 10
-355.8206631993
 20
319.8340610453
 10
-355.8200964599
 20
319.724394419
 10
-355.8175916026
 20
319.5787567727
  0
LWPOLYLINE
  5
646
330
607
100
AcDbEntity
  8
0
  6
Continuous
 62
     7
370
    25
100
AcDbPolyline
 90
       39
 70
   128
 43
0.0
 10
43.8118391684
 20
380.5212989607
 10
41.8502186286
 20
381.216716724
 10
39.9492667399
 20
382.2158018296
 10
38.1608365146
 20
383.4913018401
 10
36.5337116669
 20
385.0084244402
 10
35.1122759213
 20
386.7257864803
 10
33.9353023394
 20
388.5965428006
 10
33.0348956924
 20
390.5696640456
 10
32.4356167264
 20
392.5913286112
 10
32.1538122095
 20
394.6063907581
 10
32.1971690342
 20
396.5598848438
 10
32.5645045394
 20
398.398524642
 10
33.2457987701
 20
400.0721568521
 10
34.2224677957
 20
401.5351291501
 10
35.4678706311
 20
402.7475354655
 10
36.9480359335
 20
403.6763045145
 10
38.622588652
 20
404.2961018986
 10
40.4458513536
 20
404.5900211607
 10
42.3680901847
 20
404.5500449497
 10
44.336871481
 20
404.1772637123
 10
46.2984920208
 20
403.481845949
 10
48.1994439095
 20
402.4827608434
 10
49.9878741349
 20
401.2072608329
 10
51.6149989825
 20
399.6901382328
 10
53.0364347282
 20
397.9727761928
 10
54.2134083101
 20
396.1020198724
 10
55.1138149571
 20
394.1288986274
 10
55.713093923
 20
392.1072340618
 10
55.9948984399
 20
390.0921719149
 10
55.9515416152
 20
388.1386778292
 10
55.58420611
 20
386.300038031
 10
54.9029118793
 20
384.6264058209
 10
53.9262428538
 20
383.1634335229
 10
52.6808400184
 20
381.9510272075
 10
51.2006747159
 20
381.0222581585
 10
49.5261219975
 20
380.4024607744
 10
47.7028592958
 20
380.1085415123
 10
45.7806204647
 20
380.1485177233
 10
43.8118391684
 20
380.5212989607
  0
LWPOLYLINE
  5
648
330
607
100
AcDbEntity
  8
0
  6
Continuous
 62
     7
370
    25
100
AcDbPolyline
 90
       12
 70
   128
 43
0.0
 10
-128.8950018371
 20
383.4985777116
 10
-129.0388106173
 20
380.9916637836
 10
-129.3597750692
 20
378.3712699574
 10
-129.8517025738
 20
375.6879535479
 10
-130.5051019876
 20
372.9934858849
 10
-131.3073667628
 20
370.3398534479
 10
-132.2430181754
 20
367.7782548505
 10
-133.2940039682
 20
365.3581130249
 10
-134.4400466475
 20
363.1261216672
 10
-135.6590347123
 20
361.1253443385
 10
-136.927449269
 20
359.3943836063
 10
-138.2208177999
 20
357.9666362546
  0
LWPOLYLINE
  5
64E
330
607
100
AcDbEntity
  8
0
  6
Continuous
 62
     7
370
    25
100
AcDbPolyline
 90
       13
 70
   128
 43
0.0
 10
38.4351136371
 20
403.4315873783
 10
38.2450858373
 20
402.9516695305
 10
37.8097393887
 20
401.2431655069
 10
37.6889675065
 20
399.4089066747
 10
37.8862445778
 20
397.5016613207
 10
38.3958953007
 20
395.5762974213
 10
39.2032579515
 20
393.6882041904
 10
40.2851061769
 20
391.8916986326
 10
41.6103171732
 20
390.2384629419
 10
43.1407670327
 20
388.7760576991
 10
44.8324274995
 20
387.5465536404
 10
46.636632582
 20
386.585321359
 10
48.5014785848
 20
385.9200137576
  0
LWPOLYLINE
  5
652
330
607
100
AcDbEntity
  8
0
  6
Continuous
 62
     7
370
    25
100
AcDbPolyline
 90
       15
 70
   128
 43
0.0
 10
-169.0292169668
 20
373.555501778
 10
-167.2899854473
 20
374.9765454573
 10
-165.2467178633
 20
376.3423364651
 10
-162.9247805551
 20
377.6359190587
 10
-160.3529994349
 20
378.8412339335
 10
-157.5633021246
 20
379.9433175932
 10
-154.5903215876
 20
380.928488115
 10
-151.4709661742
 20
381.7845150056
 10
-148.2439614197
 20
382.5007710374
 10
-144.9493692823
 20
383.0683641817
 10
-141.6280907905
 20
383.4802479992
 10
-138.3213582726
 20
383.7313091191
 10
-135.070223475
 20
383.818430719
 10
-131.9150479205
 20
383.7405312196
 10
-128.8950018371
 20
383.4985777116
  0
LWPOLYLINE
  5
653
330
607
100
AcDbEntity
  8
0
  6
Continuous
 62
     7
370
    25
100
AcDbPolyline
 90
       15
 70
   128
 43
0.0
 10
-147.2961569485
 20
468.9293095134
 10
-150.4775971579
 20
469.9205648021
 10
-153.7890365166
 20
470.7239476244
 10
-157.189364845
 20
471.3294843077
 10
-160.6363684426
 20
471.7296573589
 10
-164.0872541547
 20
471.9194987917
 10
-167.4991806313
 20
471.8966518014
 10
-170.829790186
 20
471.6614000242
 10
-174.0377346488
 20
471.2166640156
 10
-177.0831886872
 20
470.5679649934
 10
-179.9283442216
 20
469.7233562934
 10
-182.5378797973
 20
468.6933233908
 10
-184.879399086
 20
467.4906537273
 10
-186.9238330732
 20
466.1302779601
 10
-188.6458009383
 20
464.629084604
  0
LWPOLYLINE
  5
65A
330
607
100
AcDbEntity
  8
0
  6
Continuous
 62
     7
370
    25
100
AcDbPolyline
 90
        9
 70
   128
 43
0.0
 10
154.9191010551
 20
117.1233375266
 10
153.8386850558
 20
116.2808691711
 10
152.4599119133
 20
115.5631476673
 10
150.835767106
 20
114.9977546503
 10
149.0286656081
 20
114.6064178564
 10
147.1080533168
 20
114.4041761393
 10
145.1477382853
 20
114.3988015348
 10
143.2230543209
 20
114.5905005858
 10
141.407965949
 20
114.9719064054
  0
LWPOLYLINE
  5
65E
330
607
100
AcDbEntity
  8
0
  6
Continuous
 62
     7
370
    25
100
AcDbPolyline
 90
        7
 70
   128
 43
0.0
 10
-333.5245653918
 20
244.0483918506
 10
-335.160305343
 20
244.604847227
 10
-336.5538363045
 20
245.3149678921
 10
-337.6516056629
 20
246.151464307
 10
-338.4114267575
 20
247.0821903836
 10
-338.8041000897
 20
248.0713788408
 10
-338.8576115025
 20
248.6034819187
  0
LWPOLYLINE
  5
662
330
607
100
AcDbEntity
  8
0
  6
Continuous
 62
     7
370
    25
100
AcDbPolyline
 90
        9
 70
   128
 43
0.0
 10
142.786159936
 20
103.7145886758
 10
144.6012483079
 20
103.3331828562
 10
146.5259322723
 20
103.1414838052
 10
148.4862473038
 20
103.1468584098
 10
150.4068595952
 20
103.3491001269
 10
152.213961093
 20
103.7404369207
 10
153.8381059003
 20
104.3058299378
 10
155.2168790429
 20
105.0235514415
 10
156.2972950421
 20
105.866019797
  0
LWPOLYLINE
  5
664
330
607
100
AcDbEntity
  8
0
  6
Continuous
 62
     7
370
    25
100
AcDbPolyline
 90
        9
 70
   128
 43
0.0
 10
156.2972950421
 20
-155.5700069171
 10
155.2168790429
 20
-156.4124752727
 10
153.8381059003
 20
-157.1301967764
 10
152.213961093
 20
-157.6955897935
 10
150.4068595952
 20
-158.0869265873
 10
148.4862473038
 20
-158.2891683044
 10
146.5259322723
 20
-158.2945429089
 10
144.6012483079
 20
-158.1028438579
 10
142.786159936
 20
-157.7214380383
  0
LWPOLYLINE
  5
66B
330
607
100
AcDbEntity
  8
0
  6
Continuous
 62
     7
370
    25
100
AcDbPolyline
 90
       22
 70
   128
 43
0.0
 10
-20.8311925743
 20
148.1822791923
 10
-27.4101876729
 20
146.9075416153
 10
-34.1240496626
 20
145.9579590148
 10
-40.9593181777
 20
145.3354351727
 10
-47.9022894492
 20
145.0412181633
 10
-54.9390437791
 20
145.075897851
 10
-62.0554734472
 20
145.4394047079
 10
-69.2373109953
 20
146.1310099529
 10
-76.4701578314
 20
147.1493270131
 10
-83.739513097
 20
148.4923143035
 10
-91.0308027391
 20
150.1572793201
 10
-98.3294087296
 20
152.1408840381
 10
-105.6206983717
 20
154.4391516041
 10
-112.8900536373
 20
157.0474743092
 10
-120.1229004734
 20
159.9606228268
 10
-127.3047380215
 20
163.1727566966
 10
-134.4211676896
 20
166.677436034
 10
-141.4579220195
 20
170.4676344412
 10
-148.400893291
 20
174.535753094
 10
-155.2361618061
 20
178.8736359768
 10
-161.9500237958
 20
183.4725862336
 10
-168.5290188944
 20
188.3233836045
  0
LWPOLYLINE
  5
670
330
607
100
AcDbEntity
  8
0
  6
Continuous
 62
     7
370
    25
100
AcDbPolyline
 90
       22
 70
   128
 43
0.0
 10
-12.3373364958
 20
156.4725431162
 10
-18.9163315944
 20
155.1978055392
 10
-25.6301935841
 20
154.2482229387
 10
-32.4654620992
 20
153.6256990966
 10
-39.4084333707
 20
153.3314820871
 10
-46.4451877006
 20
153.3661617749
 10
-53.5616173687
 20
153.7296686317
 10
-60.7434549168
 20
154.4212738768
 10
-67.9763017529
 20
155.439590937
 10
-75.2456570184
 20
156.7825782273
 10
-82.5369466606
 20
158.4475432439
 10
-89.835552651
 20
160.4311479619
 10
-97.1268422932
 20
162.7294155279
 10
-104.3961975588
 20
165.337738233
 10
-111.6290443949
 20
168.2508867506
 10
-118.810881943
 20
171.4630206204
 10
-125.9273116111
 20
174.9676999578
 10
-132.9640659409
 20
178.757898365
 10
-139.9070372125
 20
182.8260170179
 10
-146.7423057275
 20
187.1638999006
 10
-153.4561677172
 20
191.7628501574
 10
-160.0351628159
 20
196.6136475284
  0
LWPOLYLINE
  5
671
330
607
100
AcDbEntity
  8
0
  6
Continuous
 62
     7
370
    25
100
AcDbPolyline
 90
        9
 70
   128
 43
0.0
 10
-336.3235987322
 20
239.749823136
 10
-337.0641378072
 20
238.8149835151
 10
-337.4363414565
 20
237.8236979913
 10
-337.4259061026
 20
236.8140611112
 10
-337.0332327705
 20
235.8248726541
 10
-336.2734116759
 20
234.8941465774
 10
-335.1756423174
 20
234.0576501625
 10
-333.7821113559
 20
233.3475294974
 10
-332.1463714047
 20
232.7910741211
  0
LWPOLYLINE
  5
674
330
607
100
AcDbEntity
  8
0
  6
Continuous
 62
     7
370
    25
100
AcDbPolyline
 90
        7
 70
   128
 43
0.0
 10
-332.1463714047
 20
-28.6449525931
 10
-333.7821113559
 20
-28.0884972167
 10
-335.1756423174
 20
-27.3783765516
 10
-336.2734116759
 20
-26.5418801367
 10
-337.0332327705
 20
-25.6111540601
 10
-337.4259061026
 20
-24.6219656029
 10
-337.4794175154
 20
-24.089862525
  0
LWPOLYLINE
  5
676
330
607
100
AcDbEntity
  8
0
  6
Continuous
 62
     8
370
    25
100
AcDbPolyline
 90
        6
 70
   128
 43
0.0
 10
125.4089445158
 20
176.6234355375
 10
125.4358467789
 20
176.1480178368
 10
125.5155197293
 20
175.7433850389
 10
125.6449015803
 20
175.4250869551
 10
125.8190202598
 20
175.2053556023
 10
126.0220352704
 20
175.0950293987
  0
LWPOLYLINE
  5
677
330
607
100
AcDbEntity
  8
0
  6
Continuous
 62
     8
370
    25
100
AcDbPolyline
 90
        6
 70
   128
 43
0.0
 10
-334.4884787565
 20
301.6137007731
 10
-334.4615764934
 20
301.1382830725
 10
-334.3819035429
 20
300.7336502745
 10
-334.252521692
 20
300.4153521907
 10
-334.0784030125
 20
300.1956208379
 10
-333.8751881647
 20
300.0852402766
  0
LWPOLYLINE
  5
67E
330
607
100
AcDbEntity
  8
0
  6
Continuous
 62
     8
370
    25
100
AcDbPolyline
 90
       23
 70
   128
 43
0.0
 10
24.4989699532
 20
302.4911184531
 10
27.5806024788
 20
301.5512602072
 10
30.468531233
 20
300.460358939
 10
33.134943883
 20
299.2289206241
 10
35.5541614176
 20
297.8688046866
 10
37.7028854493
 20
296.3931097865
 10
39.560422591
 20
294.8160476725
 10
41.1088837448
 20
293.1528063148
 10
42.3333563832
 20
291.4194036369
 10
43.2220481653
 20
289.6325332541
 10
43.7664005035
 20
287.809403705
 10
43.9611709872
 20
285.9675727239
 10
43.8044838701
 20
284.1247781499
 10
43.2978481348
 20
282.2987671021
 10
42.4461429605
 20
280.5071250651
 10
41.2575707335
 20
278.7671065312
 10
39.7435780541
 20
277.09546883
 10
37.9187454995
 20
275.5083107465
 10
35.8006472047
 20
274.0209174804
 10
33.4096816142
 20
272.6476134422
 10
30.7688750336
 20
271.4016243005
 10
27.903659874
 20
270.2949496117
 10
27.3425050407
 20
270.1034611585
  0
LWPOLYLINE
  5
67F
330
607
100
AcDbEntity
  8
0
  6
Continuous
 62
     8
370
    25
100
AcDbPolyline
 90
       23
 70
   128
 43
0.0
 10
-29.0171273376
 20
285.4208015982
 10
-29.0269185414
 20
285.7674609502
 10
-28.8702314243
 20
287.6102555242
 10
-28.363595689
 20
289.436266572
 10
-27.5118905147
 20
291.227908609
 10
-26.3233182877
 20
292.9679271429
 10
-24.8093256083
 20
294.6395648441
 10
-22.9844930537
 20
296.2267229277
 10
-20.866394759
 20
297.7141161937
 10
-18.4754291684
 20
299.0874202319
 10
-15.8346225879
 20
300.3334093737
 10
-12.9694074282
 20
301.4400840625
 10
-9.9073772777
 20
302.396786416
 10
-6.6780211607
 20
303.1943028677
 10
-3.3124395418
 20
303.8249528982
 10
0.1569551881
 20
304.2826630028
 10
3.6967508612
 20
304.5630251832
 10
7.2728573101
 20
304.6633393981
 10
10.8508346749
 20
304.582639567
 10
14.3962250775
 20
304.3217028732
 10
17.8748844704
 20
303.8830422798
 10
21.2533114619
 20
303.2708823282
 10
24.4989699532
 20
302.4911184531
  0
LWPOLYLINE
  5
680
330
607
100
AcDbEntity
  8
0
  6
Continuous
 62
     8
370
    25
100
AcDbPolyline
 90
       13
 70
   128
 43
0.0
 10
-334.4884787565
 20
333.3288908991
 10
-337.8661135278
 20
334.3590260191
 10
-341.0314385612
 20
335.5547124045
 10
-343.9539700463
 20
336.9044349417
 10
-346.6055624072
 20
338.3951950649
 10
-348.96067936
 20
340.0126359391
 10
-350.996639841
 20
341.7411807245
 10
-352.6938364378
 20
343.56418259
 10
-354.0359242194
 20
345.464085031
 10
-355.0099781468
 20
347.4225909485
 10
-355.6066175481
 20
349.4208388597
 10
-355.8200964599
 20
351.439584545
 10
-355.8206257988
 20
351.5774234864
  0
LWPOLYLINE
  5
682
330
607
100
AcDbEntity
  8
0
  6
Continuous
 62
     8
370
    25
100
AcDbPolyline
 90
       12
 70
   128
 43
0.0
 10
-355.8175916026
 20
319.5787567727
 10
-355.6066175481
 20
317.7056487337
 10
-355.0099781468
 20
315.7074008225
 10
-354.0359242194
 20
313.748894905
 10
-352.6938364378
 20
311.848992464
 10
-350.996639841
 20
310.0259905985
 10
-348.96067936
 20
308.2974458131
 10
-346.6055624072
 20
306.6800049389
 10
-343.9539700463
 20
305.1892448157
 10
-341.0314385612
 20
303.8395222785
 10
-337.8661135278
 20
302.6438358931
 10
-334.4884787565
 20
301.6137007731
  0
LWPOLYLINE
  5
683
330
607
100
AcDbEntity
  8
0
  6
Continuous
 62
     8
370
    25
100
AcDbPolyline
 90
       13
 70
   128
 43
0.0
 10
253.2606356372
 20
350.1459269192
 10
253.2885417533
 20
350.2450406439
 10
253.5524286469
 20
351.9125705971
 10
253.4263386802
 20
353.5647001583
 10
252.9118372092
 20
355.1809188073
 10
252.0153115614
 20
356.7411618437
 10
250.7478917401
 20
358.2260594815
 10
249.1253122493
 20
359.6171773173
 10
247.1677167571
 20
360.8972451862
 10
244.8994080192
 20
362.0503715634
 10
242.3485461709
 20
363.0622408516
 10
239.5467991297
 20
363.920291103
 10
236.5289494517
 20
364.613869971
  0
LWPOLYLINE
  5
684
330
607
100
AcDbEntity
  8
0
  6
Continuous
 62
     8
370
    25
100
AcDbPolyline
 90
        8
 70
   128
 43
0.0
 10
-286.0098672637
 20
369.598771037
 10
-287.501788259
 20
368.2510146237
 10
-288.6403171154
 20
366.8224336421
 10
-289.4123471451
 20
365.3294738456
 10
-289.8089907768
 20
363.7893221132
 10
-289.8256818688
 20
362.2197085951
 10
-289.462228274
 20
360.6387026042
 10
-289.208934234
 20
360.0021133013
  0
LWPOLYLINE
  5
689
330
607
100
AcDbEntity
  8
0
  6
Continuous
 62
     8
370
    25
100
AcDbPolyline
 90
       43
 70
   128
 43
0.0
 10
25.9396940815
 20
270.4847151187
 10
27.8182918657
 20
271.1415121603
 10
30.5424054427
 20
272.2758011274
 10
33.0297354292
 20
273.5462118275
 10
35.2547584534
 20
274.9397081278
 10
37.1946427683
 20
276.4419908706
 10
38.8294825357
 20
278.0376446019
 10
40.1425020873
 20
279.7102957552
 10
41.1202280656
 20
281.4427806662
 10
41.7526276791
 20
283.2173216954
 10
42.033211652
 20
285.0157096503
 10
41.959100813
 20
286.8194906371
 10
41.5310556396
 20
288.6101554218
 10
40.7534684545
 20
290.3693293607
 10
39.6343183545
 20
292.0789609484
 10
38.1850893341
 20
293.7215070516
 10
36.4206524441
 20
295.2801129244
 10
34.3591131946
 20
296.7387851614
 10
32.0216257682
 20
298.0825558117
 10
29.4321759489
 20
299.2976359698
 10
26.617334996
 20
300.3715572691
 10
23.6059869867
 20
301.2932998239
 10
20.4290324265
 20
302.0534053082
 10
17.1190711685
 20
302.6440740112
 10
13.7100678941
 20
303.0592448726
 10
10.2370035902
 20
303.2946576776
 10
6.7355165962
 20
303.3478967723
 10
3.241536907
 20
303.2184158515
 10
-0.2090825177
 20
302.9075435647
 10
-3.5809336531
 20
302.4184698822
 10
-6.8394167438
 20
301.7562133618
 10
-9.9510953438
 20
300.9275696515
 10
-12.8840394199
 20
299.9410417573
 10
-15.608152997
 20
298.8067527903
 10
-18.0954829834
 20
297.5363420901
 10
-20.3205060077
 20
296.1428457898
 10
-22.2603903226
 20
294.6405630471
 10
-23.8952300899
 20
293.0449093158
 10
-25.2082496415
 20
291.3722581625
 10
-26.1859756198
 20
289.6397732515
 10
-26.8183752334
 20
287.8652322223
 10
-27.0989592062
 20
286.0668442673
 10
-27.0914161295
 20
284.8974345548
  0
LWPOLYLINE
  5
68A
330
607
100
AcDbEntity
  8
0
  6
Continuous
 62
     8
370
    25
100
AcDbPolyline
 90
       36
 70
   128
 43
0.0
 10
-18.1185481761
 20
282.4588013103
 10
-17.9909628838
 20
283.6667874469
 10
-17.5093728064
 20
285.2083135239
 10
-16.6771674317
 20
286.7096836281
 10
-15.506029099
 20
288.1498218143
 10
-14.0123980234
 20
289.5085116991
 10
-12.2172415111
 20
290.766680255
 10
-10.1457596245
 20
291.9066655532
 10
-7.8270314285
 20
292.9124646991
 10
-5.2936067842
 20
293.7699584774
 10
-2.5810494205
 20
294.4671095551
 10
0.2725623035
 20
294.9941314592
 10
3.2271699342
 20
295.3436259576
 10
6.241297257
 20
295.5106869134
 10
9.2726325316
 20
295.4929691571
 10
12.2786224552
 20
295.2907214072
 10
15.2170695187
 20
294.9067827787
 10
18.0467243664
 20
294.3465429284
 10
20.7278648469
 20
293.6178663957
 10
23.2228536251
 20
292.7309822018
 10
25.4966665275
 20
291.6983402568
 10
27.5173842052
 20
290.53443659
 10
29.2566402116
 20
289.2556098575
 10
30.6900192048
 20
287.8798119835
 10
31.7973996857
 20
286.4263561543
 10
32.5632364599
 20
284.9156457038
 10
32.9767788576
 20
283.3688876951
 10
33.0322216503
 20
281.8077952202
 10
32.7287865425
 20
280.2542825954
 10
32.070733098
 20
278.7301577327
 10
31.0672989448
 20
277.2568160042
 10
29.7325700988
 20
275.8549398982
 10
28.0852832273
 20
274.5442086823
 10
26.1485626269
 20
273.3430221495
 10
23.9495956097
 20
272.2682423258
 10
22.0854323938
 20
271.5322208585
  0
LWPOLYLINE
  5
68B
330
607
100
AcDbEntity
  8
0
  6
Continuous
 62
     8
370
    25
100
AcDbPolyline
 90
       16
 70
   128
 43
0.0
 10
17.9677724738
 20
288.6371109176
 10
15.3909146239
 20
289.2341261482
 10
12.6890938976
 20
289.6600939862
 10
9.9049196215
 20
289.9082966643
 10
7.0822998872
 20
289.974819878
 10
4.2657490942
 20
289.8586145166
 10
1.4996859309
 20
289.5615132079
 10
-1.1722671342
 20
289.0882014172
 10
-3.7079718052
 20
288.446143554
 10
-6.0674385046
 20
287.6454652545
 10
-8.2134570331
 20
286.6987936937
 10
-10.1121833965
 20
285.6210584476
 10
-11.7336735458
 20
284.4292560449
 10
-13.0523556128
 20
283.1421819215
 10
-14.0474331935
 20
281.7801340051
 10
-14.2550592395
 20
281.4087878019
  0
LWPOLYLINE
  5
68C
330
607
100
AcDbEntity
  8
0
  6
Continuous
 62
     8
370
    25
100
AcDbPolyline
 90
       10
 70
   128
 43
0.0
 10
29.9670947506
 20
278.4075407576
 10
29.8952795026
 20
279.3134998791
 10
29.4932472364
 20
280.7539716937
 10
28.743849884
 20
282.1571332173
 10
27.6589058894
 20
283.5008557543
 10
26.2555254675
 20
284.7639479978
 10
24.5558407658
 20
285.9264902285
 10
22.5866568274
 20
286.9701484609
 10
20.3790288595
 20
287.8784635813
 10
17.9677724738
 20
288.6371109176
  0
LWPOLYLINE
  5
68D
330
607
100
AcDbEntity
  8
0
  6
Continuous
 62
     8
370
    25
100
AcDbPolyline
 90
       11
 70
   128
 43
0.0
 10
1.0252718318
 20
277.2559212346
 10
2.8736533431
 20
277.4969598855
 10
5.6704792183
 20
277.7040218099
 10
8.49563929
 20
277.7289119989
 10
11.3045790962
 20
277.5712379192
 10
14.0529999782
 20
277.2334861852
 10
16.6975576969
 20
276.7209833437
 10
19.1965459973
 20
276.0418118705
 10
21.510554341
 20
275.2066827055
 10
23.6030894341
 20
274.2287663345
 10
25.3407716272
 20
273.191617243
  0
LWPOLYLINE
  5
68F
330
607
100
AcDbEntity
  8
0
  6
Continuous
 62
     8
370
    25
100
AcDbPolyline
 90
       15
 70
   128
 43
0.0
 10
35.9707007009
 20
401.8712750104
 10
35.8083765403
 20
401.707990343
 10
34.7873342512
 20
400.3906746739
 10
34.0468769869
 20
398.8540889904
 10
33.6083063546
 20
397.1424380648
 10
33.4842392331
 20
395.3049629779
 10
33.6782448074
 20
393.3945245425
 10
34.1847418904
 20
391.466082594
 10
34.9891594832
 20
389.5751148962
 10
36.0683559563
 20
387.7760211469
 10
37.3912847921
 20
386.1205579976
 10
38.9198877365
 20
384.656350109
 10
40.610189666
 20
383.4255200762
 10
42.4135636716
 20
382.4634766384
 10
44.2781299666
 20
381.7978960336
  0
LWPOLYLINE
  5
690
330
607
100
AcDbEntity
  8
0
  6
Continuous
 62
     8
370
    25
100
AcDbPolyline
 90
       25
 70
   128
 43
0.0
 10
93.1376051744
 20
453.8612175686
 10
93.124930215
 20
454.2718791905
 10
92.8545901381
 20
455.5577434794
 10
92.2394159616
 20
456.8117159985
 10
91.291381351
 20
458.0093895991
 10
90.0289387216
 20
459.1274529268
 10
88.4766600834
 20
460.1441441508
 10
86.6647587742
 20
461.0396745329
 10
84.628501392
 20
461.7966135929
 10
82.4075213706
 20
462.4002283729
 10
80.0450475597
 20
462.8387701978
 10
77.5870628249
 20
463.1037033499
 10
75.081409043
 20
463.1898712067
 10
72.5768559148
 20
463.0955966088
 10
70.122151718
 20
462.8227145042
 10
67.7650744777
 20
462.3765362326
 10
65.5515020212
 20
461.7657461465
 10
63.5245190184
 20
461.0022325801
 10
61.7235783879
 20
460.1008564566
 10
60.1837333904
 20
459.0791620369
 10
58.9349553574
 20
457.9570354407
 10
58.0015503327
 20
456.7563175859
 10
57.4016859835
 20
455.5003790796
 10
57.1470379869
 20
454.2136653363
 10
57.1379576177
 20
453.9192316072
  0
LINE
  5
694
330
607
100
AcDbEntity
  8
0
  6
Continuous
 62
     7
370
    25
100
AcDbLine
 10
-333.8751881647
 20
300.0852402766
 30
0.0
 11
126.0222351076
 21
175.094975041
 31
0.0
  0
LINE
  5
695
330
607
100
AcDbEntity
  8
0
  6
Continuous
 62
     7
370
    25
100
AcDbLine
 10
178.895665051
 20
183.8033635876
 30
0.0
 11
370.2407745123
 21
370.5620563774
 31
0.0
  0
LINE
  5
696
330
607
100
AcDbEntity
  8
0
  6
Continuous
 62
     7
370
    25
100
AcDbLine
 10
111.9381746851
 20
247.1121708151
 30
0.0
 11
-276.1032970333
 21
352.5735281052
 31
0.0
  0
LINE
  5
697
330
607
100
AcDbEntity
  8
0
  6
Continuous
 62
     7
370
    25
100
AcDbLine
 10
251.8090182926
 20
348.1019662315
 30
0.0
 11
154.4449519672
 21
253.0716526644
 31
0.0
  0
LINE
  5
698
330
607
100
AcDbEntity
  8
0
  6
Continuous
 62
     7
370
    25
100
AcDbLine
 10
-355.8206631993
 20
351.5492511713
 30
0.0
 11
-355.8206631993
 21
319.8340610453
 31
0.0
  0
LINE
  5
699
330
607
100
AcDbEntity
  8
0
  6
Continuous
 62
     7
370
    25
100
AcDbLine
 10
-157.9928789748
 20
552.6752345306
 30
0.0
 11
-349.3379884361
 21
365.9165417408
 31
0.0
  0
LINE
  5
69A
330
607
100
AcDbEntity
  8
0
  6
Continuous
 62
     7
370
    25
100
AcDbLine
 10
-338.8576115025
 20
301.7132090475
 30
0.0
 11
-338.8576115025
 21
248.6034819187
 31
0.0
  0
LINE
  5
69B
330
607
100
AcDbEntity
  8
0
  6
Continuous
 62
     7
370
    25
100
AcDbLine
 10
-337.4794175154
 20
237.3461641891
 30
0.0
 11
-337.4794175154
 21
-24.089862525
 31
0.0
  0
LINE
  5
69C
330
607
100
AcDbEntity
  8
0
  6
Continuous
 62
     7
370
    25
100
AcDbLine
 10
179.4534849401
 20
216.9443501483
 30
0.0
 11
179.4534849401
 21
185.2291600223
 31
0.0
  0
LINE
  5
69D
330
607
100
AcDbEntity
  8
0
  6
Continuous
 62
     7
370
    25
100
AcDbLine
 10
125.4089445158
 20
176.6234355375
 30
0.0
 11
125.4089445158
 21
208.3386256635
 31
0.0
  0
LINE
  5
69E
330
607
100
AcDbEntity
  8
0
  6
Continuous
 62
     7
370
    25
100
AcDbLine
 10
-329.8215248672
 20
346.4556539742
 30
0.0
 11
130.0758984051
 21
221.4653887385
 31
0.0
  0
LINE
  5
69F
330
607
100
AcDbEntity
  8
0
  6
Continuous
 62
     7
370
    25
100
AcDbLine
 10
-151.0080973883
 20
554.0905938086
 30
0.0
 11
-342.3532068496
 21
367.3319010188
 31
0.0
  0
LINE
  5
6A0
330
607
100
AcDbEntity
  8
0
  6
Continuous
 62
     7
370
    25
100
AcDbLine
 10
-151.0080973883
 20
554.0905938086
 30
0.0
 11
361.9544131846
 21
414.6783748919
 31
0.0
  0
LINE
  5
6A1
330
607
100
AcDbEntity
  8
0
  6
Continuous
 62
     7
370
    25
100
AcDbLine
 10
170.6093037233
 20
227.9196821021
 30
0.0
 11
361.9544131846
 21
414.6783748919
 31
0.0
  0
LINE
  5
6A2
330
607
100
AcDbEntity
  8
0
  6
Continuous
 62
     7
370
    25
100
AcDbLine
 10
258.7937998791
 20
349.5173255095
 30
0.0
 11
161.4297335537
 21
254.4870119424
 31
0.0
  0
LINE
  5
6A3
330
607
100
AcDbEntity
  8
0
  6
Continuous
 62
     7
370
    25
100
AcDbLine
 10
-142.6332489671
 20
481.6952802419
 30
0.0
 11
241.1918574331
 21
377.3798406996
 31
0.0
  0
LINE
  5
6A4
330
607
100
AcDbEntity
  8
0
  6
Continuous
 62
     7
370
    25
100
AcDbLine
 10
-294.5899833411
 20
378.4233996738
 30
0.0
 11
-197.2259170156
 21
473.4537132409
 31
0.0
  0
LINE
  5
6A5
330
607
100
AcDbEntity
  8
0
  6
Continuous
 62
     7
370
    25
100
AcDbLine
 10
109.3155227684
 20
246.0338854324
 30
0.0
 11
-278.72594895
 21
351.4952427225
 31
0.0
  0
LINE
  5
6A6
330
607
100
AcDbEntity
  8
0
  6
Continuous
 62
     7
370
    25
100
AcDbLine
 10
125.4089445158
 20
208.3386256635
 30
0.0
 11
-334.4884787565
 21
333.3288908991
 31
0.0
  0
LINE
  5
6A7
330
607
100
AcDbEntity
  8
0
  6
Continuous
 62
     7
370
    25
100
AcDbLine
 10
-334.4884787565
 20
301.6137007731
 30
0.0
 11
125.4089445158
 21
176.6234355375
 31
0.0
  0
LINE
  5
6A8
330
607
100
AcDbEntity
  8
0
  6
Continuous
 62
     7
370
    25
100
AcDbLine
 10
-334.4884787565
 20
333.3288908991
 30
0.0
 11
-334.4884787565
 21
301.6137007731
 31
0.0
  0
LINE
  5
6A9
330
607
100
AcDbEntity
  8
0
  6
Continuous
 62
     7
370
    25
100
AcDbLine
 10
370.7985944014
 20
403.703042938
 30
0.0
 11
179.4534849401
 21
216.9443501483
 31
0.0
  0
LINE
  5
6AA
330
607
100
AcDbEntity
  8
0
  6
Continuous
 62
     7
370
    25
100
AcDbLine
 10
370.7985944014
 20
371.987852812
 30
0.0
 11
370.7985944014
 21
403.703042938
 31
0.0
  0
LINE
  5
6AB
330
607
100
AcDbEntity
  8
0
  6
Continuous
 62
     7
370
    25
100
AcDbLine
 10
179.4534849401
 20
185.2291600223
 30
0.0
 11
370.7985944014
 21
371.987852812
 31
0.0
  0
LINE
  5
6AC
330
607
100
AcDbEntity
  8
0
  6
Continuous
 62
     7
370
    25
100
AcDbLine
 10
-188.6458009383
 20
464.629084604
 30
0.0
 11
-286.0098672637
 21
369.598771037
 31
0.0
  0
LINE
  5
6AD
330
607
100
AcDbEntity
  8
0
  6
Continuous
 62
     7
370
    25
100
AcDbLine
 10
-169.0292169668
 20
373.555501778
 30
0.0
 11
-188.6458009383
 21
464.629084604
 31
0.0
  0
LINE
  5
6AE
330
607
100
AcDbEntity
  8
0
  6
Continuous
 62
     7
370
    25
100
AcDbLine
 10
236.5289494517
 20
364.613869971
 30
0.0
 11
-147.2961569485
 21
468.9293095134
 31
0.0
  0
LINE
  5
6AF
330
607
100
AcDbEntity
  8
0
  6
Continuous
 62
     7
370
    25
100
AcDbLine
 10
-147.2961569485
 20
468.9293095134
 30
0.0
 11
-128.8950018371
 21
383.4985777116
 31
0.0
  0
LINE
  5
6B0
330
607
100
AcDbEntity
  8
0
  6
Continuous
 62
     7
370
    25
100
AcDbLine
 10
7.7281939959
 20
275.4342106167
 30
0.0
 11
9.0534770808
 21
276.727727536
 31
0.0
  0
LINE
  5
6B1
330
607
100
AcDbEntity
  8
0
  6
Continuous
 62
     7
370
    25
100
AcDbLine
 10
53.1105915448
 20
383.6661472069
 30
0.0
 11
53.520295713
 21
384.0984513075
 31
0.0
  0
LINE
  5
6B2
330
607
100
AcDbEntity
  8
0
  6
Continuous
 62
     7
370
    25
100
AcDbLine
 10
36.0846021039
 20
401.9801715814
 30
0.0
 11
35.9707007009
 21
401.8712750104
 31
0.0
  0
LINE
  5
6B3
330
607
100
AcDbEntity
  8
0
  6
Continuous
 62
     7
370
    25
100
AcDbLine
 10
37.7738846129
 20
398.2322772123
 30
0.0
 11
37.8454149745
 21
401.455164019
 31
0.0
  0
LINE
  5
6B4
330
607
100
AcDbEntity
  8
0
  6
Continuous
 62
     7
370
    25
100
AcDbLine
 10
57.1379576177
 20
453.9192316072
 30
0.0
 11
57.1535342246
 21
453.5336351464
 31
0.0
  0
LINE
  5
6B5
330
607
100
AcDbEntity
  8
0
  6
Continuous
 62
     7
370
    25
100
AcDbLine
 10
-317.6384720988
 20
239.7308920914
 30
0.0
 11
-317.6384720988
 21
239.4468499611
 31
0.0
  0
LINE
  5
6B6
330
607
100
AcDbEntity
  8
0
  6
Continuous
 62
     7
370
    25
100
AcDbLine
 10
-333.7348819133
 20
244.10721919
 30
0.0
 11
-333.7348819133
 21
242.276490112
 31
0.0
  0
LINE
  5
6B7
330
607
100
AcDbEntity
  8
0
  6
Continuous
 62
     7
370
    25
100
AcDbLine
 10
144.0277874168
 20
113.9758529361
 30
0.0
 11
144.0277874168
 21
114.4856905383
 31
0.0
  0
LINE
  5
6B8
330
607
100
AcDbEntity
  8
0
  6
Continuous
 62
     7
370
    25
100
AcDbLine
 10
160.1241972313
 20
174.6094460897
 30
0.0
 11
160.1241972313
 21
-151.8348330613
 31
0.0
  0
LINE
  5
6B9
330
607
100
AcDbEntity
  8
0
  6
Continuous
 62
     7
370
    25
100
AcDbLine
 10
352.4026974705
 20
35.834877742
 30
0.0
 11
352.4026974705
 21
353.151546333
 31
0.0
  0
LINE
  5
6BA
330
607
100
AcDbEntity
  8
0
  6
Continuous
 62
     7
370
    25
100
AcDbLine
 10
156.2972950421
 20
-155.5700069171
 30
0.0
 11
352.4026974705
 21
35.834877742
 31
0.0
  0
LINE
  5
6BB
330
607
100
AcDbEntity
  8
0
  6
Continuous
 62
     7
370
    25
100
AcDbLine
 10
141.407965949
 20
114.9719064054
 30
0.0
 11
-333.5245653918
 21
244.0483918506
 31
0.0
  0
LINE
  5
6BC
330
607
100
AcDbEntity
  8
0
  6
Continuous
 62
     7
370
    25
100
AcDbLine
 10
158.886011861
 20
174.3117708855
 30
0.0
 11
158.886011861
 21
120.9951640844
 31
0.0
  0
LINE
  5
6BD
330
607
100
AcDbEntity
  8
0
  6
Continuous
 62
     7
370
    25
100
AcDbLine
 10
158.886011861
 20
120.9951640844
 30
0.0
 11
154.9191010551
 21
117.1233375266
 31
0.0
  0
LINE
  5
6BE
330
607
100
AcDbEntity
  8
0
  6
Continuous
 62
     7
370
    25
100
AcDbLine
 10
142.786159936
 20
-157.7214380383
 30
0.0
 11
142.786159936
 21
103.7145886758
 31
0.0
  0
LINE
  5
6BF
330
607
100
AcDbEntity
  8
0
  6
Continuous
 62
     7
370
    25
100
AcDbLine
 10
156.2972950421
 20
105.866019797
 30
0.0
 11
156.2972950421
 21
-155.5700069171
 31
0.0
  0
LINE
  5
6C0
330
607
100
AcDbEntity
  8
0
  6
Continuous
 62
     7
370
    25
100
AcDbLine
 10
-20.8311925743
 20
148.1822791923
 30
0.0
 11
-12.3373364958
 21
156.4725431162
 31
0.0
  0
LINE
  5
6C1
330
607
100
AcDbEntity
  8
0
  6
Continuous
 62
     7
370
    25
100
AcDbLine
 10
160.1241972313
 20
109.6011936528
 30
0.0
 11
-12.3373364958
 21
156.4725431162
 31
0.0
  0
LINE
  5
6C2
330
607
100
AcDbEntity
  8
0
  6
Continuous
 62
     7
370
    25
100
AcDbLine
 10
156.2972950421
 20
105.866019797
 30
0.0
 11
160.1241972313
 21
109.6011936528
 31
0.0
  0
LINE
  5
6C3
330
607
100
AcDbEntity
  8
0
  6
Continuous
 62
     7
370
    25
100
AcDbLine
 10
142.786159936
 20
103.7145886758
 30
0.0
 11
-20.8311925743
 21
148.1822791923
 31
0.0
  0
LINE
  5
6C4
330
607
100
AcDbEntity
  8
0
  6
Continuous
 62
     7
370
    25
100
AcDbLine
 10
-332.1463714047
 20
232.7910741211
 30
0.0
 11
-332.1463714047
 21
-28.6449525931
 31
0.0
  0
LINE
  5
6C5
330
607
100
AcDbEntity
  8
0
  6
Continuous
 62
     7
370
    25
100
AcDbLine
 10
-168.5290188944
 20
188.3233836045
 30
0.0
 11
-332.1463714047
 21
232.7910741211
 31
0.0
  0
LINE
  5
6C6
330
607
100
AcDbEntity
  8
0
  6
Continuous
 62
     7
370
    25
100
AcDbLine
 10
-332.1463714047
 20
-28.6449525931
 30
0.0
 11
142.786159936
 21
-157.7214380383
 31
0.0
  0
LINE
  5
6C7
330
607
100
AcDbEntity
  8
0
  6
Continuous
 62
     7
370
    25
100
AcDbLine
 10
-168.5290188944
 20
188.3233836045
 30
0.0
 11
-160.0351628159
 21
196.6136475284
 31
0.0
  0
LINE
  5
6C8
330
607
100
AcDbEntity
  8
0
  6
Continuous
 62
     7
370
    25
100
AcDbLine
 10
-336.3235987322
 20
239.749823136
 30
0.0
 11
-332.496696543
 21
243.4849969917
 31
0.0
  0
LINE
  5
6C9
330
607
100
AcDbEntity
  8
0
  6
Continuous
 62
     7
370
    25
100
AcDbLine
 10
-160.0351628159
 20
196.6136475284
 30
0.0
 11
-332.496696543
 21
243.4849969917
 31
0.0
  0
LINE
  5
6CA
330
607
100
AcDbEntity
  8
0
  6
Continuous
 62
     8
370
    25
100
AcDbLine
 10
-151.8689848121
 20
355.9062445043
 30
0.0
 11
-181.5986418614
 21
326.8891878193
 31
0.0
  0
LINE
  5
6CB
330
607
100
AcDbEntity
  8
0
  6
Continuous
 62
     8
370
    25
100
AcDbLine
 10
174.7643227867
 20
272.9039815034
 30
0.0
 11
-138.2208177999
 21
357.9666362546
 31
0.0
  0
LINE
  5
6CC
330
607
100
AcDbEntity
  8
0
  6
Continuous
 62
     8
370
    25
100
AcDbLine
 10
-286.0098672637
 20
369.598771037
 30
0.0
 11
-278.6087384111
 21
353.3471758892
 31
0.0
  0
LINE
  5
6CD
330
607
100
AcDbEntity
  8
0
  6
Continuous
 62
     8
370
    25
100
AcDbLine
 10
223.5238935766
 20
320.4948173881
 30
0.0
 11
236.5289494517
 21
364.613869971
 31
0.0
  0
LINE
  5
6CE
330
607
100
AcDbEntity
  8
0
  6
Continuous
 62
     8
370
    25
100
AcDbLine
 10
-209.1654919282
 20
334.3812669813
 30
0.0
 11
-169.0292169668
 21
373.555501778
 31
0.0
  0
LINE
  5
6CF
330
607
100
AcDbEntity
  8
0
  6
Continuous
 62
     8
370
    25
100
AcDbLine
 10
-128.8950018371
 20
383.4985777116
 30
0.0
 11
197.2569424558
 21
294.8574678436
 31
0.0
  0
LINE
  5
6D0
330
607
100
AcDbEntity
  8
0
  6
Continuous
 62
     8
370
    25
100
AcDbLine
 10
154.9191010551
 20
173.5996372348
 30
0.0
 11
154.9191010551
 21
117.1233375266
 31
0.0
  0
LINE
  5
6D1
330
607
100
AcDbEntity
  8
0
  6
Continuous
 62
     8
370
    25
100
AcDbLine
 10
141.407965949
 20
114.9719064054
 30
0.0
 11
141.407965949
 21
172.835347341
 31
0.0
  0
LINE
  5
6D2
330
607
100
AcDbEntity
  8
0
  6
Continuous
 62
     8
370
    25
100
AcDbLine
 10
-333.5245653918
 20
299.9899485199
 30
0.0
 11
-333.5245653918
 21
244.0483918506
 31
0.0
  0
ARC
  5
6D3
330
607
100
AcDbEntity
  8
0
  6
Continuous
 62
     7
370
    25
100
AcDbCircle
 10
167.3297629918
 20
216.2258600361
 30
0.0
 40
12.14499328616467
100
AcDbArc
 50
3.391562315
 51
74.3338098233
  0
ARC
  5
6D4
330
607
100
AcDbEntity
  8
0
  6
Continuous
 62
     7
370
    25
100
AcDbCircle
 10
145.8584989995
 20
208.4612039316
 30
0.0
 40
20.44992185835564
100
AcDbArc
 50
140.5129436103
 51
180.3434369839
  0
ARC
  5
6D5
330
607
100
AcDbEntity
  8
0
  6
Continuous
 62
     7
370
    25
100
AcDbCircle
 10
-314.0389242728
 20
333.4514691673
 30
0.0
 40
20.44992185835735
100
AcDbArc
 50
140.5129436103
 51
180.3434369839
  0
ARC
  5
6D6
330
607
100
AcDbEntity
  8
0
  6
Continuous
 62
     7
370
    25
100
AcDbCircle
 10
358.6748724531
 20
402.9845528259
 30
0.0
 40
12.1449932861652
100
AcDbArc
 50
3.391562315
 51
74.3338098233
  0
ARC
  5
6D7
330
607
100
AcDbEntity
  8
0
  6
Continuous
 62
     7
370
    25
100
AcDbCircle
 10
368.8626346127
 20
371.9232486553
 30
0.0
 40
1.937037428801794
100
AcDbArc
 50
315.3544713609
 51
1.9112857848
  0
ARC
  5
6D8
330
607
100
AcDbEntity
  8
0
  6
Continuous
 62
     7
370
    25
100
AcDbCircle
 10
256.9267699789
 20
364.3979208313
 30
0.0
 40
20.39896360823786
100
AcDbArc
 50
140.4760318964
 51
179.3934395074
  0
ARC
  5
6D9
330
607
100
AcDbEntity
  8
0
  6
Continuous
 62
     7
370
    25
100
AcDbCircle
 10
-298.1073317952
 20
366.4200062598
 30
0.0
 40
12.50812510327505
100
AcDbArc
 50
14.7223946411
 51
73.6678585483
  0
ARC
  5
6DA
330
607
100
AcDbEntity
  8
0
  6
Continuous
 62
     7
370
    25
100
AcDbCircle
 10
-153.2683618865
 20
547.3023852241
 30
0.0
 40
7.154618884850486
100
AcDbArc
 50
71.583829316
 51
131.326192755
  0
ARC
  5
6DB
330
607
100
AcDbEntity
  8
0
  6
Continuous
 62
     7
370
    25
100
AcDbCircle
 10
-126.8983364213
 20
468.7133603737
 30
0.0
 40
20.39896360823504
100
AcDbArc
 50
140.4760318964
 51
179.3934395075
  0
ARC
  5
6DC
330
607
100
AcDbEntity
  8
0
  6
Continuous
 62
     7
370
    25
100
AcDbCircle
 10
-200.7432654698
 20
461.4503198269
 30
0.0
 40
12.50812510327577
100
AcDbArc
 50
14.7223946411
 51
73.6678585483
  0
ARC
  5
6DD
330
607
100
AcDbEntity
  8
0
  6
Continuous
 62
     7
370
    25
100
AcDbCircle
 10
-144.897659453
 20
379.8514156802
 30
0.0
 40
24.93933840153489
100
AcDbArc
 50
194.6224856385
 51
253.7677675509
  0
ARC
  5
6DE
330
607
100
AcDbEntity
  8
0
  6
Continuous
 62
     7
370
    25
100
AcDbCircle
 10
51.3220828553
 20
395.3231326305
 30
0.0
 40
9.817049097788653
100
AcDbArc
 50
253.3026083146
 51
290.9746504205
  0
ARC
  5
6DF
330
607
100
AcDbEntity
  8
0
  6
Continuous
 62
     7
370
    25
100
AcDbCircle
 10
75.1382968753
 20
413.4734908407
 30
0.0
 40
33.43874930698517
100
AcDbArc
 50
76.9579647047
 51
103.0874898288
  0
ARC
  5
6E0
330
607
100
AcDbEntity
  8
0
  6
Continuous
 62
     8
370
    25
100
AcDbCircle
 10
177.5176453506
 20
185.1645315905
 30
0.0
 40
1.936918106281948
100
AcDbArc
 50
315.3254316151
 51
1.9121220516
  0
ARC
  5
6E1
330
607
100
AcDbEntity
  8
0
  6
Continuous
 62
     8
370
    25
100
AcDbCircle
 10
111.5653592529
 20
244.290814483
 30
0.0
 40
2.846060530195917
100
AcDbArc
 50
82.4992573
 51
142.2331044879
  0
ARC
  5
6E2
330
607
100
AcDbEntity
  8
0
  6
Continuous
 62
     8
370
    25
100
AcDbCircle
 10
159.1574940232
 20
247.7508204665
 30
0.0
 40
7.109103184218994
100
AcDbArc
 50
71.3598164318
 51
131.2937266349
  0
ARC
  5
6E3
330
607
100
AcDbEntity
  8
0
  6
Continuous
 62
     8
370
    25
100
AcDbCircle
 10
-276.4765870476
 20
349.752854192
 30
0.0
 40
2.845267431974439
100
AcDbArc
 50
82.4612430742
 51
142.2381146346
  0
ARC
  5
6E4
330
607
100
AcDbEntity
  8
0
  6
Continuous
 62
     8
370
    25
100
AcDbCircle
 10
256.5218442038
 20
342.7868127481
 30
0.0
 40
7.103631790908758
100
AcDbArc
 50
71.3473461486
 51
131.5626759225
  0
ARC
  5
6E5
330
607
100
AcDbEntity
  8
0
  6
Continuous
 62
     8
370
    25
100
AcDbCircle
 10
-344.6361149087
 20
360.6553332803
 30
0.0
 40
7.056077236925613
100
AcDbArc
 50
71.1229854095
 51
131.7828605221
  0
ARC
  5
6E6
330
607
100
AcDbEntity
  8
0
  6
Continuous
 62
     8
370
    25
100
AcDbCircle
 10
47.0892242779
 20
390.3205656394
 30
0.0
 40
8.97430489995482
100
AcDbArc
 50
251.7455171379
 51
312.1409228346
  0
VIEWPORT
  5
7C3
330
607
100
AcDbEntity
  8
0
100
AcDbViewport
 10
0.0
 20
0.0
 30
0.0
 40
205.6
 41
156.0
 68
     1
 69
     1
 12
0.0
 22
222.5
 13
0.0
 23
0.0
 14
10.0
 24
10.0
 15
10.0
 25
10.0
 16
0.0
 26
0.0
 36
1.0
 17
0.0
 27
0.0
 37
0.0
 42
50.0
 43
0.0
 44
0.0
 45
464.3579766537
 50
0.0
 51
0.0
 72
   100
 90
   557152
  1

281
     0
 71
     1
 74
     0
110
0.0
120
0.0
130
0.0
111
1.0
121
0.0
131
0.0
112
0.0
122
1.0
132
0.0
 79
     0
146
0.0
  0
ENDBLK
  5
60A
330
607
100
AcDbEntity
  8
0
100
AcDbBlockEnd
  0
BLOCK
  5
6E9
330
6E7
100
AcDbEntity
  8
0
100
AcDbBlockBegin
  2
*Paper_Space6
 70
     0
 10
0.0
 20
0.0
 30
0.0
  3
*Paper_Space6
  1

  0
SPLINE
  5
6EB
330
6E7
100
AcDbEntity
  8
0
  6
Continuous
 62
     7
370
    25
100
AcDbSpline
210
0.0
220
0.0
230
1.0
 70
     8
 71
     3
 72
    25
 73
    21
 74
     0
 42
0.000000001
 43
0.00000001
 40
0.0
 40
0.0
 40
0.0
 40
0.0
 40
0.0307626788992426
 40
0.0892683056080342
 40
0.1477042671564053
 40
0.2060841747330199
 40
0.2644398350795816
 40
0.3227999392125749
 40
0.381185511360119
 40
0.4396276591166229
 40
0.4981610245489519
 40
0.5568263212139818
 40
0.6156735100564481
 40
0.6747658437062501
 40
0.7341847908584744
 40
0.7940348907796649
 40
0.854444167292761
 40
0.9155445002308696
 40
0.9773828916750292
 40
1.0
 40
1.0
 40
1.0
 40
1.0
 10
164.697430845273
 20
272.7113776398039
 30
0.0
 10
165.2787387402236
 20
272.6413680877813
 30
0.0
 10
166.9655999849409
 20
272.438211720746
 30
0.0
 10
169.8319321803449
 20
272.1810866165514
 30
0.0
 10
173.2958095627868
 20
271.9768033645714
 30
0.0
 10
176.7977723629884
 20
271.8814088421192
 30
0.0
 10
180.3088065881483
 20
271.8936330674187
 30
0.0
 10
183.8025659536979
 20
272.0137922319927
 30
0.0
 10
187.2521776593649
 20
272.240998762959
 30
0.0
 10
190.6314649109445
 20
272.5739463997556
 30
0.0
 10
193.9151771570606
 20
273.0108190608631
 30
0.0
 10
197.0792084438514
 20
273.5494789270763
 30
0.0
 10
200.1009239457709
 20
274.1876713727315
 30
0.0
 10
202.9594635164804
 20
274.9233907784466
 30
0.0
 10
205.6361466219612
 20
275.7553639426801
 30
0.0
 10
208.114188587869
 20
276.6840749822495
 30
0.0
 10
210.3800637349016
 20
277.7122002611882
 30
0.0
 10
212.4158403561259
 20
278.8489371939498
 30
0.0
 10
213.8326517651827
 20
279.8319145906324
 30
0.0
 10
214.5550839140708
 20
280.4489038187668
 30
0.0
 10
214.7485506061573
 20
280.6141329897056
 30
0.0
  0
SPLINE
  5
6EE
330
6E7
100
AcDbEntity
  8
0
  6
Continuous
 62
     7
370
    25
100
AcDbSpline
210
0.0
220
0.0
230
1.0
 70
     8
 71
     3
 72
    26
 73
    22
 74
     0
 42
0.000000001
 43
0.00000001
 40
0.0
 40
0.0
 40
0.0
 40
0.0
 40
0.0308926544226962
 40
0.0782522270291929
 40
0.1264689800542461
 40
0.1760395061960739
 40
0.2269807336192604
 40
0.2791752567990922
 40
0.3324462202735208
 40
0.3866097532996314
 40
0.441505162322669
 40
0.4970083027251002
 40
0.5530336907990591
 40
0.6095300594480967
 40
0.6664727122049854
 40
0.723854744766997
 40
0.7816782395061089
 40
0.8399459210537666
 40
0.8986534113482653
 40
0.9577820475931441
 40
1.0
 40
1.0
 40
1.0
 40
1.0
 10
184.103745404908
 20
342.756017415889
 30
0.0
 10
184.0389661128578
 20
342.7008587946579
 30
0.0
 10
183.8748777894999
 20
342.5611399834438
 30
0.0
 10
183.3740626878417
 20
342.2035834957463
 30
0.0
 10
182.5426431839303
 20
341.7105519759761
 30
0.0
 10
181.4171627720829
 20
341.1481726715072
 30
0.0
 10
180.0002510282511
 20
340.5492470382403
 30
0.0
 10
178.2979358368599
 20
339.9395944252653
 30
0.0
 10
176.3256612210227
 20
339.3430497515711
 30
0.0
 10
174.1042859517545
 20
338.7796376357753
 30
0.0
 10
171.6589645502995
 20
338.2660658002985
 30
0.0
 10
169.0174401150683
 20
337.8158308479236
 30
0.0
 10
166.2089636612362
 20
337.4396083307891
 30
0.0
 10
163.2635427576627
 20
337.1456256406427
 30
0.0
 10
160.2115621880735
 20
336.9400323759213
 30
0.0
 10
157.0835429360261
 20
336.8271354768924
 30
0.0
 10
153.9104106389516
 20
336.8097941226726
 30
0.0
 10
150.7224998130455
 20
336.888815216388
 30
0.0
 10
147.5536704216927
 20
337.0657119582856
 30
0.0
 10
144.7311795081291
 20
337.3063732224986
 30
0.0
 10
143.0065912431515
 20
337.511634085667
 30
0.0
 10
142.2881794420158
 20
337.597139611482
 30
0.0
  0
SPLINE
  5
6F1
330
6E7
100
AcDbEntity
  8
0
  6
Continuous
 62
     7
370
    25
100
AcDbSpline
210
0.0
220
0.0
230
1.0
 70
     8
 71
     3
 72
    14
 73
    10
 74
     0
 42
0.000000001
 43
0.00000001
 40
0.0
 40
0.0
 40
0.0
 40
0.0
 40
0.1337400993826717
 40
0.3039886611341981
 40
0.4642974737037868
 40
0.6183097861286801
 40
0.7684998535558278
 40
0.9315697471750529
 40
1.0
 40
1.0
 40
1.0
 40
1.0
 10
-342.9383626819911
 20
394.42668092293
 30
0.0
 10
-343.3301712828996
 20
394.0640284100882
 30
0.0
 10
-344.2207446603746
 20
393.2397262572963
 30
0.0
 10
-345.4387977028476
 20
391.7889776238257
 30
0.0
 10
-346.5381238305785
 20
390.0942997258405
 30
0.0
 10
-347.3849861707156
 20
388.3005720118915
 30
0.0
 10
-347.9689561011285
 20
386.362617629259
 30
0.0
 10
-348.2627070622329
 20
384.7028999165684
 30
0.0
 10
-348.23110755623
 20
383.6865832499545
 30
0.0
 10
-348.2217669047527
 20
383.3861652695997
 30
0.0
  0
SPLINE
  5
6F3
330
6E7
100
AcDbEntity
  8
0
  6
Continuous
 62
     7
370
    25
100
AcDbSpline
210
0.0
220
0.0
230
1.0
 70
     8
 71
     3
 72
    22
 73
    18
 74
     0
 42
0.000000001
 43
0.00000001
 40
0.0
 40
0.0
 40
0.0
 40
0.0
 40
0.0494685565911515
 40
0.1103205030757468
 40
0.172395618590407
 40
0.2378144023434109
 40
0.3079490094717521
 40
0.3826976866361352
 40
0.4602874465268418
 40
0.5384921524072127
 40
0.6160864380782656
 40
0.692928650967588
 40
0.7691163248708399
 40
0.8447892097263612
 40
0.9200721440509615
 40
0.9909845756543766
 40
1.0
 40
1.0
 40
1.0
 40
1.0
 10
-348.2363437092909
 20
348.4830006145035
 30
0.0
 10
-348.2248718768897
 20
348.0773238332974
 30
0.0
 10
-348.1992883869129
 20
347.1726185078782
 30
0.0
 10
-347.7869402137117
 20
345.8117035931102
 30
0.0
 10
-347.1006866414193
 20
344.4319876083889
 30
0.0
 10
-346.1254947075914
 20
343.1132422465749
 30
0.0
 10
-344.8542177977443
 20
341.8402261216385
 30
0.0
 10
-343.2646062717377
 20
340.6146690938876
 30
0.0
 10
-341.3631248365147
 20
339.4535760074279
 30
0.0
 10
-339.1821482025593
 20
338.3773100368857
 30
0.0
 10
-336.7623256618335
 20
337.3980201104184
 30
0.0
 10
-334.134676595472
 20
336.5188513084194
 30
0.0
 10
-331.3203174666871
 20
335.7394290624733
 30
0.0
 10
-328.3389218203252
 20
335.0597384431045
 30
0.0
 10
-325.2668951101769
 20
334.4918653982476
 30
0.0
 10
-323.0265053109374
 20
334.1606130397967
 30
0.0
 10
-321.8506585277181
 20
334.0108569775318
 30
0.0
 10
-321.7180294512805
 20
333.9939653139984
 30
0.0
  0
SPLINE
  5
6F4
330
6E7
100
AcDbEntity
  8
0
  6
Continuous
 62
     7
370
    25
100
AcDbSpline
210
0.0
220
0.0
230
1.0
 70
     8
 71
     3
 72
    19
 73
    15
 74
     0
 42
0.000000001
 43
0.00000001
 40
0.0
 40
0.0
 40
0.0
 40
0.0
 40
0.056611242275892
 40
0.1621818641032969
 40
0.2656886514883546
 40
0.3668368309543921
 40
0.4654056007085111
 40
0.5611493342048248
 40
0.6538123612422394
 40
0.7431754251879604
 40
0.8291509461164771
 40
0.9119383313797539
 40
0.9922269781463945
 40
1.0
 40
1.0
 40
1.0
 40
1.0
 10
-268.1280601991624
 20
389.3047254957575
 30
0.0
 10
-268.6528676693127
 20
389.3736488534274
 30
0.0
 10
-270.1563544394763
 20
389.5711028957303
 30
0.0
 10
-272.519393559821
 20
389.956721047489
 30
0.0
 10
-275.1201472331637
 20
390.4754650066537
 30
0.0
 10
-277.469580496998
 20
391.04508369279
 30
0.0
 10
-279.5419895323365
 20
391.6469218629318
 30
0.0
 10
-281.312824925679
 20
392.2597113262543
 30
0.0
 10
-282.7632981099349
 20
392.8576088561736
 30
0.0
 10
-283.8777255866044
 20
393.405110504701
 30
0.0
 10
-284.6615165362038
 20
393.8731523079111
 30
0.0
 10
-285.0932320510271
 20
394.1798375623684
 30
0.0
 10
-285.2477076661856
 20
394.3367555359708
 30
0.0
 10
-285.2119829649544
 20
394.2951632360024
 30
0.0
 10
-285.2088296192622
 20
394.2914919694722
 30
0.0
  0
SPLINE
  5
6F6
330
6E7
100
AcDbEntity
  8
0
  6
Continuous
 62
     7
370
    25
100
AcDbSpline
210
0.0
220
0.0
230
1.0
 70
     8
 71
     3
 72
     9
 73
     5
 74
     0
 42
0.000000001
 43
0.00000001
 40
0.0
 40
0.0
 40
0.0
 40
0.0
 40
0.3363503348438192
 40
1.0
 40
1.0
 40
1.0
 40
1.0
 10
257.9058429589044
 20
407.8416438844537
 30
0.0
 10
257.9122278194812
 20
407.8488244718197
 30
0.0
 10
257.9312105880866
 20
407.8701730082176
 30
0.0
 10
257.890585784041
 20
407.8316696609974
 30
0.0
 10
257.8636251464391
 20
407.8061169275071
 30
0.0
  0
SPLINE
  5
6F7
330
6E7
100
AcDbEntity
  8
0
  6
Continuous
 62
     7
370
    25
100
AcDbSpline
210
0.0
220
0.0
230
1.0
 70
     8
 71
     3
 72
    20
 73
    16
 74
     0
 42
0.000000001
 43
0.00000001
 40
0.0
 40
0.0
 40
0.0
 40
0.0
 40
0.0333607526535923
 40
0.1207994580840435
 40
0.2080431288766822
 40
0.2951373194488362
 40
0.3821278939235206
 40
0.4690525149545121
 40
0.5559389631612945
 40
0.642801990616139
 40
0.7296589669107363
 40
0.8165293122969154
 40
0.9034387154899279
 40
0.9904232900103328
 40
0.9999999999999999
 40
0.9999999999999999
 40
0.9999999999999999
 40
0.9999999999999999
 10
32.57240841108047
 20
425.9166974774632
 30
0.0
 10
32.8049449810307
 20
425.9223076491319
 30
0.0
 10
33.6469611047792
 20
425.9426221097909
 30
0.0
 10
35.12355000691717
 20
425.6627144375325
 30
0.0
 10
36.94093547299846
 20
425.0870958456922
 30
0.0
 10
38.67902853919753
 20
424.2118836067147
 30
0.0
 10
40.29128452588817
 20
423.083926609194
 30
0.0
 10
41.73815760526371
 20
421.7252322691421
 30
0.0
 10
42.98300861612943
 20
420.1720491747145
 30
0.0
 10
43.99553126330934
 20
418.4630620176251
 30
0.0
 10
44.74802637962584
 20
416.6425827079225
 30
0.0
 10
45.23199436446379
 20
414.7533275854706
 30
0.0
 10
45.39936797223834
 20
412.8548643361523
 30
0.0
 10
45.38823924256513
 20
411.5153929990729
 30
0.0
 10
45.24014642794742
 20
410.8537831692741
 30
0.0
 10
45.22545894792536
 20
410.7881663384868
 30
0.0
  0
SPLINE
  5
6F9
330
6E7
100
AcDbEntity
  8
0
  6
Continuous
 62
     7
370
    25
100
AcDbSpline
210
0.0
220
0.0
230
1.0
 70
     8
 71
     3
 72
    13
 73
     9
 74
     0
 42
0.000000001
 43
0.00000001
 40
0.0
 40
0.0
 40
0.0
 40
0.0
 40
0.1269731391305967
 40
0.3060815533848753
 40
0.4766072179312575
 40
0.6576231127999556
 40
0.8373978560986113
 40
1.0
 40
1.0
 40
1.0
 40
1.0
 10
74.89832404889272
 20
468.8200039363674
 30
0.0
 10
74.9017724506845
 20
468.7217998248975
 30
0.0
 10
74.91008517087366
 20
468.4850689131995
 30
0.0
 10
74.70594930379049
 20
468.0482981072927
 30
0.0
 10
74.23957505527889
 20
467.4685910853041
 30
0.0
 10
73.46798615829861
 20
466.849370805778
 30
0.0
 10
72.45022955909077
 20
466.2390115956447
 30
0.0
 10
71.57588954147722
 20
465.8694561911501
 30
0.0
 10
71.16064667118478
 20
465.6939463851213
 30
0.0
  0
SPLINE
  5
6FA
330
6E7
100
AcDbEntity
  8
0
  6
Continuous
 62
     7
370
    25
100
AcDbSpline
210
0.0
220
0.0
230
1.0
 70
     8
 71
     3
 72
    16
 73
    12
 74
     0
 42
0.000000001
 43
0.00000001
 40
0.0
 40
0.0
 40
0.0
 40
0.0
 40
0.1177948570357521
 40
0.2440324231890886
 40
0.3693645599856877
 40
0.4934388489660024
 40
0.6159176621426378
 40
0.7369249765033904
 40
0.857965118098374
 40
0.984358841417178
 40
1.0
 40
1.0
 40
1.0
 40
1.0
 10
46.93005219517417
 20
464.4465886967938
 30
0.0
 10
46.32184013527699
 20
464.5840944694253
 30
0.0
 10
45.06182364114022
 20
464.8689614639803
 30
0.0
 10
43.39936695399071
 20
465.3950338195213
 30
0.0
 10
41.92940778090468
 20
465.9838134154314
 30
0.0
 10
40.73983049671017
 20
466.6108863102112
 30
0.0
 10
39.84924055313507
 20
467.2471099776571
 30
0.0
 10
39.25952479229294
 20
467.8541875155625
 30
0.0
 10
38.98155135074749
 20
468.3953955908356
 30
0.0
 10
38.88301246413223
 20
468.6843105914357
 30
0.0
 10
38.93167200398434
 20
468.8609157215036
 30
0.0
 10
38.93703048754278
 20
468.8803638233289
 30
0.0
  0
SPLINE
  5
6FB
330
6E7
100
AcDbEntity
  8
0
  6
Continuous
 62
     7
370
    25
100
AcDbSpline
210
0.0
220
0.0
230
1.0
 70
     8
 71
     3
 72
    10
 73
     6
 74
     0
 42
0.000000001
 43
0.00000001
 40
0.0
 40
0.0
 40
0.0
 40
0.0
 40
0.3294749603646974
 40
0.9553597177872415
 40
1.0
 40
1.0
 40
1.0
 40
1.0
 10
50.3295814526662
 20
463.8756502842844
 30
0.0
 10
49.94158157110956
 20
463.9283939207001
 30
0.0
 10
48.81652048320436
 20
464.0813316296707
 30
0.0
 10
47.66302663464727
 20
464.2699779321795
 30
0.0
 10
46.97580411411267
 20
464.4355647361326
 30
0.0
 10
46.93005219517417
 20
464.4465886967938
 30
0.0
  0
LWPOLYLINE
  5
6FE
330
6E7
100
AcDbEntity
  8
0
  6
Continuous
 62
     7
370
    25
100
AcDbPolyline
 90
       15
 70
   128
 43
0.0
 10
167.5473045787
 20
322.1825062956
 10
170.7559919821
 20
321.845468985
 10
174.0577124504
 20
321.6303038956
 10
177.4109449329
 20
321.5397168533
 10
180.7735205857
 20
321.5748470426
 10
184.1031530688
 20
321.7352526811
 10
187.3579703218
 20
322.0189165747
 10
190.4970411294
 20
322.4222714855
 10
193.4808898548
 20
322.9402449914
 10
196.2719928689
 20
323.566323275
 10
198.8352504321
 20
324.2926330386
 10
201.1384280931
 20
325.1100405156
 10
203.1525620565
 20
326.0082663327
 10
204.8523234192
 20
326.976014779
 10
206.2163366958
 20
328.0011158564
  0
LWPOLYLINE
  5
700
330
6E7
100
AcDbEntity
  8
0
  6
Continuous
 62
     7
370
    25
100
AcDbPolyline
 90
       17
 70
   128
 43
0.0
 10
215.570480163
 20
317.3945141388
 10
214.0041374412
 20
316.1947250314
 10
212.0925373956
 20
315.0518893813
 10
209.8540897799
 20
313.9770133204
 10
207.3103520681
 20
312.9804484929
 10
204.4858218449
 20
312.0717923629
 10
201.4077008805
 20
311.2597957856
 10
198.1056331624
 20
310.5522787318
 10
194.6114194078
 20
309.9560549777
 10
190.9587108054
 20
309.4768664838
 10
187.1826849357
 20
309.1193280974
 10
183.3197069921
 20
308.8868831086
 10
179.4069795638
 20
308.7817700896
 10
175.4821843549
 20
308.8050013362
 10
171.5831192888
 20
308.956353119
 10
167.7473344936
 20
309.2343678374
 10
164.0117706736
 20
309.6363680578
  0
LWPOLYLINE
  5
701
330
6E7
100
AcDbEntity
  8
0
  6
Continuous
 62
     7
370
    25
100
AcDbPolyline
 90
        9
 70
   128
 43
0.0
 10
167.5473045787
 20
322.1825062956
 10
166.8575561306
 20
321.3930472284
 10
166.1943143286
 20
320.2716104029
 10
165.5830671832
 20
318.8612920077
 10
165.0473045792
 20
317.2162897876
 10
164.6076155733
 20
315.3998202555
 10
164.2808971672
 20
313.4816893168
 10
164.0797049662
 20
311.5356096677
 10
164.0117706736
 20
309.6363680578
  0
LWPOLYLINE
  5
703
330
6E7
100
AcDbEntity
  8
0
  6
Continuous
 62
     7
370
    25
100
AcDbPolyline
 90
       17
 70
   128
 43
0.0
 10
164.0117706736
 20
274.7524335183
 10
167.7473344936
 20
274.3504332979
 10
171.5831192888
 20
274.0724185794
 10
175.4821843549
 20
273.9210667967
 10
179.4069795638
 20
273.89783555
 10
183.3197069921
 20
274.002948569
 10
187.1826849357
 20
274.2353935579
 10
190.9587108054
 20
274.5929319443
 10
194.6114194078
 20
275.0721204381
 10
198.1056331624
 20
275.6683441922
 10
201.4077008805
 20
276.375861246
 10
204.4858218449
 20
277.1878578233
 10
207.3103520681
 20
278.0965139534
 10
209.8540897799
 20
279.0930787808
 10
212.0925373956
 20
280.1679548417
 10
214.0041374412
 20
281.3107904918
 10
215.570480163
 20
282.5105795993
  0
LWPOLYLINE
  5
706
330
6E7
100
AcDbEntity
  8
0
  6
Continuous
 62
     7
370
    25
100
AcDbPolyline
 90
       15
 70
   128
 43
0.0
 10
-336.3239844042
 20
396.3547713391
 10
-337.3350963363
 20
395.2852088715
 10
-337.9805916046
 20
394.1846353824
 10
-338.2523527317
 20
393.0668912218
 10
-338.1469621637
 20
391.9460326712
 10
-337.6657452482
 20
390.8361551771
 10
-336.8147535671
 20
389.751216093
 10
-335.6046888344
 20
388.7048591574
 10
-334.0507683164
 20
387.7102429158
 10
-332.1725334652
 20
386.7798752446
 10
-329.9936041737
 20
385.9254560571
 10
-327.5413817421
 20
385.1577301703
 10
-324.8467042903
 20
384.4863521826
 10
-321.9434589507
 20
383.9197650619
 10
-318.8681557179
 20
383.4650939698
  0
LWPOLYLINE
  5
70A
330
6E7
100
AcDbEntity
  8
0
  6
Continuous
 62
     7
370
    25
100
AcDbPolyline
 90
       17
 70
   128
 43
0.0
 10
190.7181236827
 20
344.6841078321
 10
189.1740745202
 20
343.4937332305
 10
187.3124471784
 20
342.3644679482
 10
185.149653431
 20
341.3062673861
 10
182.7047600809
 20
340.328460451
 10
179.9993208706
 20
339.4396673139
 10
177.0571864684
 20
338.6477234164
 10
173.904294205
 20
337.959610394
 10
170.5684394147
 20
337.3813945282
 10
167.0790303969
 20
336.9181732666
 10
163.4668291574
 20
336.5740302851
 10
159.7636802163
 20
336.3519994866
 10
156.0022298724
 20
336.2540382549
 10
152.2156383994
 20
336.2810101988
 10
148.4372877104
 20
336.4326775383
 10
144.7004870694
 20
336.7077032014
 10
141.0381794426
 20
337.103662611
  0
LWPOLYLINE
  5
70C
330
6E7
100
AcDbEntity
  8
0
  6
Continuous
 62
     7
370
    25
100
AcDbPolyline
 90
       17
 70
   128
 43
0.0
 10
240.3107909281
 20
426.9012453868
 10
243.9975780874
 20
426.3689373472
 10
247.5110425853
 20
425.7234776218
 10
250.8177810986
 20
424.9710027463
 10
253.8863556957
 20
424.1186666741
 10
256.6875927251
 20
423.1745727623
 10
259.1948601754
 20
422.147696731
 10
261.3843208724
 20
421.0478013294
 10
263.2351591046
 20
419.8853435186
 10
264.7297785228
 20
418.671375055
 10
265.8539694329
 20
417.4174374189
 10
266.5970438908
 20
416.1354520868
 10
266.9519373149
 20
414.8376071911
 10
266.9152756511
 20
413.5362416447
 10
266.4874074501
 20
412.2437278324
 10
265.6724005545
 20
410.9723539832
 10
264.4780034242
 20
409.7342073437
  0
LWPOLYLINE
  5
70E
330
6E7
100
AcDbEntity
  8
0
  6
Continuous
 62
     7
370
    25
100
AcDbPolyline
 90
       17
 70
   128
 43
0.0
 10
-217.8361589806
 20
470.5000800527
 10
-216.2750857573
 20
471.6920298468
 10
-214.3635366577
 20
472.825252364
 10
-212.1196852231
 20
473.8889737945
 10
-209.5648642706
 20
474.8730810915
 10
-206.7233630766
 20
475.7682181183
 10
-203.6221964531
 20
476.5658745992
 10
-200.2908479118
 20
477.2584670286
 10
-196.7609893572
 20
477.8394107695
 10
-193.066179975
 20
478.3031826546
 10
-189.2415471762
 20
478.645373497
 10
-185.3234526337
 20
478.8627300088
 10
-181.3491465826
 20
478.9531857311
 10
-177.3564136739
 20
478.9158806804
 10
-173.3832137472
 20
478.7511695244
 10
-169.4673209373
 20
478.4606182104
 10
-165.6459645471
 20
478.0469890771
  0
LWPOLYLINE
  5
710
330
6E7
100
AcDbEntity
  8
0
  6
Continuous
 62
     7
370
    25
100
AcDbPolyline
 90
       17
 70
   128
 43
0.0
 10
-269.3780601985
 20
388.8112484953
 10
-272.9104985144
 20
389.3217418715
 10
-276.2588361271
 20
389.9393597233
 10
-279.3935546911
 20
390.6586572424
 10
-282.2870190882
 20
391.4732932303
 10
-284.9137210536
 20
392.376086002
 10
-287.2505040527
 20
393.3590766977
 10
-289.2767674243
 20
394.4135994473
 10
-290.974647993
 20
395.5303577668
 10
-292.3291775472
 20
396.6995065147
 10
-293.3284147968
 20
397.9107386845
 10
-293.9635506447
 20
399.1533762702
 10
-294.228985847
 20
400.4164644009
 10
-294.1223803744
 20
401.6888679177
 10
-293.6446740416
 20
402.9593695386
 10
-292.8000782223
 20
404.2167687486
 10
-291.5960387221
 20
405.4499805411
  0
LWPOLYLINE
  5
715
330
6E7
100
AcDbEntity
  8
0
  6
Continuous
 62
     7
370
    25
100
AcDbPolyline
 90
        9
 70
   128
 43
0.0
 10
-318.8681557179
 20
383.4650939698
 10
-319.5579041659
 20
382.6756349025
 10
-320.2211459679
 20
381.5541980771
 10
-320.8323931134
 20
380.1438796819
 10
-321.3681557173
 20
378.4988774618
 10
-321.8078447233
 20
376.6824079297
 10
-322.1345631293
 20
374.764276991
 10
-322.3357553304
 20
372.8181973419
 10
-322.403689623
 20
370.918955732
  0
LWPOLYLINE
  5
721
330
6E7
100
AcDbEntity
  8
0
  6
Continuous
 62
     7
370
    25
100
AcDbPolyline
 90
        9
 70
   128
 43
0.0
 10
236.7783220725
 20
414.7503068082
 10
236.8706199617
 20
416.6141759665
 10
237.0882261024
 20
418.509333441
 10
237.4232141895
 20
420.3667481074
 10
237.8633822796
 20
422.1187636236
 10
238.3926972469
 20
423.701562812
 10
238.99187879
 20
425.0574922011
 10
239.639101717
 20
426.1371620533
 10
240.3107909281
 20
426.9012453868
  0
LWPOLYLINE
  5
724
330
6E7
100
AcDbEntity
  8
0
  6
Continuous
 62
     7
370
    25
100
AcDbPolyline
 90
       39
 70
   128
 43
0.0
 10
33.1904378102
 20
400.7772268327
 10
31.1146342839
 20
401.2150795831
 10
29.100878025
 20
401.9929575737
 10
27.2040990547
 20
403.0896423206
 10
25.4760365588
 20
404.4752191228
 10
23.9638275774
 20
406.1118930571
 10
22.7087212296
 20
407.955019925
 10
21.7449535446
 20
409.9543240303
 10
21.0988135926
 20
412.0552695688
 10
20.7879263871
 20
414.2005482229
 10
20.8207721206
 20
416.3316423832
 10
21.1964548472
 20
418.3904213565
 10
21.9047269214
 20
420.3207270191
 10
22.9262685273
 20
422.0699056645
 10
24.2332146729
 20
423.5902442591
 10
25.7899152743
 20
424.8402719292
 10
27.5539075972
 20
425.7858911786
 10
29.4770745292
 20
426.4013079791
 10
31.5069570899
 20
426.6697353647
 10
33.5881853745
 20
426.5838513362
 10
35.6639889007
 20
426.1459985858
 10
37.6777451596
 20
425.3681205952
 10
39.5745241299
 20
424.2714358483
 10
41.3025866259
 20
422.8858590461
 10
42.8147956072
 20
421.2491851118
 10
44.0699019551
 20
419.4060582439
 10
45.0336696401
 20
417.4067541386
 10
45.6798095921
 20
415.3058086001
 10
45.9906967976
 20
413.160529946
 10
45.9578510641
 20
411.0294357857
 10
45.5821683375
 20
408.9706568124
 10
44.8738962633
 20
407.0403511498
 10
43.8523546574
 20
405.2911725044
 10
42.5454085118
 20
403.7708339098
 10
40.9887079103
 20
402.5208062397
 10
39.2247155875
 20
401.5751869903
 10
37.3015486555
 20
400.9597701898
 10
35.2716660948
 20
400.6913428042
 10
33.1904378102
 20
400.7772268327
  0
LWPOLYLINE
  5
725
330
6E7
100
AcDbEntity
  8
0
  6
Continuous
 62
     7
370
    25
100
AcDbPolyline
 90
        9
 70
   128
 43
0.0
 10
-169.1784334027
 20
465.8960504985
 10
-169.0861355136
 20
467.7599196568
 10
-168.8685293728
 20
469.6550771313
 10
-168.5335412857
 20
471.5124917978
 10
-168.0933731956
 20
473.2645073139
 10
-167.5640582283
 20
474.8473065023
 10
-166.9648766852
 20
476.2032358914
 10
-166.3176537583
 20
477.2829057436
 10
-165.6459645471
 20
478.0469890771
  0
LWPOLYLINE
  5
729
330
6E7
100
AcDbEntity
  8
0
  6
Continuous
 62
     7
370
    25
100
AcDbPolyline
 90
       14
 70
   128
 43
0.0
 10
27.3497458235
 20
424.6815535493
 10
26.5695057961
 20
423.4557202261
 10
25.8010699966
 20
421.668571869
 10
25.3527155748
 20
419.7402560421
 10
25.2373408711
 20
417.7262468807
 10
25.4582650057
 20
415.6844837615
 10
26.0091323935
 20
413.6737044921
 10
26.8740955827
 20
411.751755531
 10
28.0282711571
 20
409.9739278504
 10
29.438455587
 20
408.3913663161
 10
31.0640804336
 20
407.0495983418
 10
32.8583794301
 20
405.9872241492
 10
34.7697338611
 20
405.2348063097
 10
36.7431575397
 20
404.8139905145
  0
LWPOLYLINE
  5
72B
330
6E7
100
AcDbEntity
  8
0
  6
Continuous
 62
     7
370
    25
100
AcDbPolyline
 90
       15
 70
   128
 43
0.0
 10
-169.1784334027
 20
465.8960504985
 10
-172.5187717016
 20
466.505958437
 10
-175.9446736414
 20
466.9865170305
 10
-179.4136080359
 20
467.3317603386
 10
-182.8825094681
 20
467.5374023052
 10
-186.3083129304
 20
467.6008899686
 10
-189.648488459
 20
467.5214351551
 10
-192.8615691263
 20
467.3000242641
 10
-195.907665836
 20
466.9394060221
 10
-198.7489625298
 20
466.4440573588
 10
-201.3501856591
 20
465.8201278274
 10
-203.6790420913
 20
465.0753632605
 10
-205.706620016
 20
464.219009609
 10
-207.4077478737
 20
463.2616981567
 10
-208.7613068505
 20
462.2153135381
  0
LWPOLYLINE
  5
732
330
6E7
100
AcDbEntity
  8
0
  6
Continuous
 62
     7
370
    25
100
AcDbPolyline
 90
        9
 70
   128
 43
0.0
 10
191.0919710653
 20
206.3339202427
 10
190.2224853735
 20
205.7482640533
 10
189.0269390416
 20
205.2304038312
 10
187.5512762447
 20
204.8002406544
 10
185.8522058766
 20
204.4743054524
 10
183.9950222585
 20
204.2651237323
 10
182.0510959155
 20
204.1807342304
 10
180.0951308468
 20
204.2243799877
 10
178.202293693
 20
204.3943837225
  0
LWPOLYLINE
  5
736
330
6E7
100
AcDbEntity
  8
0
  6
Continuous
 62
     7
370
    25
100
AcDbPolyline
 90
        8
 70
   128
 43
0.0
 10
-324.1152104979
 20
267.6804406091
 10
-325.8721790665
 20
267.9702691729
 10
-327.4257597331
 20
268.3687846168
 10
-328.7162492639
 20
268.8606722157
 10
-329.6940548701
 20
269.4270290049
 10
-330.3216000304
 20
270.0460902108
 10
-330.5747685364
 20
270.6940656583
 10
-330.5796765928
 20
270.7984884307
  0
LWPOLYLINE
  5
73C
330
6E7
100
AcDbEntity
  8
0
  6
Continuous
 62
     7
370
    25
100
AcDbPolyline
 90
        9
 70
   128
 43
0.0
 10
179.6179397956
 20
192.1606969381
 10
181.5107769494
 20
191.9906932034
 10
183.4667420181
 20
191.9470474461
 10
185.4106683611
 20
192.031436948
 10
187.2678519791
 20
192.2406186681
 10
188.9669223473
 20
192.5665538701
 10
190.4425851442
 20
192.9967170469
 10
191.6381314761
 20
193.514577269
 10
192.5076171679
 20
194.1002334584
  0
LWPOLYLINE
  5
740
330
6E7
100
AcDbEntity
  8
0
  6
Continuous
 62
     7
370
    25
100
AcDbPolyline
 90
        9
 70
   128
 43
0.0
 10
192.5076171679
 20
-93.4565242327
 10
191.6381314761
 20
-94.0421804221
 10
190.4425851442
 20
-94.5600406442
 10
188.9669223473
 20
-94.990203821
 10
187.2678519791
 20
-95.316139023
 10
185.4106683611
 20
-95.5253207431
 10
183.4667420181
 20
-95.609710245
 10
181.5107769494
 20
-95.5660644877
 10
179.6179397956
 20
-95.396060753
  0
LWPOLYLINE
  5
743
330
6E7
100
AcDbEntity
  8
0
  6
Continuous
 62
     7
370
    25
100
AcDbPolyline
 90
       22
 70
   128
 43
0.0
 10
6.5662856516
 20
213.9631560145
 10
-0.3920593342
 20
211.4710488037
 10
-7.493047739
 20
209.3142388848
 10
-14.7224430624
 20
207.4970503638
 10
-22.0657513654
 20
206.0231264525
 10
-29.5082503297
 20
204.8954221648
 10
-37.035018773
 20
204.116198392
 10
-44.6309665648
 20
203.6870173699
 10
-52.2808648791
 20
203.6087395474
 10
-59.9693767268
 20
203.8815218606
 10
-67.681087704
 20
204.5048174186
 10
-75.4005368957
 20
205.4773766
 10
-83.112247873
 20
206.797249558
 10
-90.8007597207
 20
208.4617901297
 10
-98.450658035
 20
210.4676611412
 10
-106.0466058267
 20
212.8108410984
 10
-113.5733742701
 20
215.4866322491
 10
-121.0158732343
 20
218.4896700017
 10
-128.3591815374
 20
221.8139336807
 10
-135.5885768607
 20
225.4527585965
 10
-142.6895652656
 20
229.398849408
 10
-149.6479102513
 20
233.6442947484
  0
LWPOLYLINE
  5
748
330
6E7
100
AcDbEntity
  8
0
  6
Continuous
 62
     7
370
    25
100
AcDbPolyline
 90
       22
 70
   128
 43
0.0
 10
13.0009573589
 20
219.63800305
 10
6.0426123731
 20
217.1458958391
 10
-1.0583760317
 20
214.9890859202
 10
-8.287771355
 20
213.1718973992
 10
-15.6310796581
 20
211.697973488
 10
-23.0735786224
 20
210.5702692003
 10
-30.6003470657
 20
209.7910454274
 10
-38.1962948574
 20
209.3618644054
 10
-45.8461931717
 20
209.2835865828
 10
-53.5347050195
 20
209.556368896
 10
-61.2464159967
 20
210.179664454
 10
-68.9658651884
 20
211.1522236354
 10
-76.6775761656
 20
212.4720965935
 10
-84.3660880134
 20
214.1366371652
 10
-92.0159863277
 20
216.1425081767
 10
-99.6119341194
 20
218.4856881338
 10
-107.1387025628
 20
221.1614792845
 10
-114.581201527
 20
224.1645170372
 10
-121.9245098301
 20
227.4887807161
 10
-129.1539051534
 20
231.1276056319
 10
-136.2548935582
 20
235.0736964434
 10
-143.213238544
 20
239.3191417838
  0
LWPOLYLINE
  5
749
330
6E7
100
AcDbEntity
  8
0
  6
Continuous
 62
     7
370
    25
100
AcDbPolyline
 90
        9
 70
   128
 43
0.0
 10
-328.5181739574
 20
259.7433129478
 10
-329.0281851617
 20
259.1123672301
 10
-329.1591224338
 20
258.460378874
 10
-328.9059539278
 20
257.8124034265
 10
-328.2784087675
 20
257.1933422206
 10
-327.3006031614
 20
256.6269854313
 10
-326.0101136305
 20
256.1350978325
 10
-324.4565329639
 20
255.7365823886
 10
-322.6995643953
 20
255.4467538248
  0
LWPOLYLINE
  5
74C
330
6E7
100
AcDbEntity
  8
0
  6
Continuous
 62
     7
370
    25
100
AcDbPolyline
 90
        8
 70
   128
 43
0.0
 10
-322.6995643953
 20
-32.1100038663
 10
-324.4565329639
 20
-31.8201753025
 10
-326.0101136305
 20
-31.4216598586
 10
-327.3006031614
 20
-30.9297722597
 10
-328.2784087675
 20
-30.3634154705
 10
-328.9059539278
 20
-29.7443542646
 10
-329.1591224338
 20
-29.0963788171
 10
-329.1640304902
 20
-28.9919560447
  0
LWPOLYLINE
  5
74D
330
6E7
100
AcDbEntity
  8
0
  6
Continuous
 62
     8
370
    25
100
AcDbPolyline
 90
       19
 70
   128
 43
0.0
 10
50.2045814527
 20
463.8263025842
 10
47.8470762394
 20
464.1863822252
 10
45.6586214713
 20
464.6501125933
 10
43.67998392
 20
465.2088552692
 10
41.9480218593
 20
465.852201934
 10
40.4949984654
 20
466.5681682567
 10
39.347980815
 20
467.3434171392
 10
38.5283356766
 20
468.1635071618
 10
38.0513314883
 20
469.0131615989
 10
37.9258539356
 20
469.8765529961
 10
38.1542404279
 20
470.7375980052
 10
38.732236557
 20
471.5802569868
 10
39.6490753487
 20
472.3888327984
 10
40.8876778308
 20
473.1482632027
 10
42.4249711828
 20
473.8444014481
 10
44.2323185382
 20
474.4642797961
 10
46.2760524353
 20
474.996351086
 10
48.5181019786
 20
475.4307038365
 10
50.6698963437
 20
475.731210293
  0
LWPOLYLINE
  5
74E
330
6E7
100
AcDbEntity
  8
0
  6
Continuous
 62
     8
370
    25
100
AcDbPolyline
 90
       15
 70
   128
 43
0.0
 10
65.7258801424
 20
475.3630140204
 10
65.9971155055
 20
475.3148046656
 10
68.1855702736
 20
474.8510742975
 10
70.1642078249
 20
474.2923316216
 10
71.8961698856
 20
473.6489849568
 10
73.3491932795
 20
472.9330186341
 10
74.4962109299
 20
472.1577697516
 10
75.3158560684
 20
471.337679729
 10
75.7928602567
 20
470.4880252919
 10
75.9183378093
 20
469.6246338947
 10
75.689951317
 20
468.7635888857
 10
75.1119551879
 20
467.9209299041
 10
74.1951163963
 20
467.1123540924
 10
72.9565139141
 20
466.3529236881
 10
71.5494338616
 20
465.7085782264
  0
LWPOLYLINE
  5
751
330
6E7
100
AcDbEntity
  8
0
  6
Continuous
 62
     8
370
    25
100
AcDbPolyline
 90
        8
 70
   128
 43
0.0
 10
164.0117706736
 20
274.7524335183
 10
164.0321509613
 20
274.2186084841
 10
164.0925086217
 20
273.7412454953
 10
164.1905241435
 20
273.3386893439
 10
164.3224308453
 20
273.0264100371
 10
164.4831596264
 20
272.8164082934
 10
164.6665337701
 20
272.7167543621
 10
164.6973523141
 20
272.7113875433
  0
LWPOLYLINE
  5
752
330
6E7
100
AcDbEntity
  8
0
  6
Continuous
 62
     8
370
    25
100
AcDbPolyline
 90
        8
 70
   128
 43
0.0
 10
-322.403689623
 20
336.0350211925
 10
-322.3833093352
 20
335.5011961583
 10
-322.3229516749
 20
335.0238331695
 10
-322.2249361531
 20
334.6212770181
 10
-322.0930294513
 20
334.3089977113
 10
-321.9323006701
 20
334.0989959676
 10
-321.7489265265
 20
333.9993420363
 10
-321.7180294513
 20
333.993965314
  0
LWPOLYLINE
  5
757
330
6E7
100
AcDbEntity
  8
0
  6
Continuous
 62
     8
370
    25
100
AcDbPolyline
 90
       14
 70
   128
 43
0.0
 10
-322.403689623
 20
370.918955732
 10
-326.0030569461
 20
371.4410699725
 10
-329.4315638974
 20
372.0782699876
 10
-332.6561920807
 20
372.8244191926
 10
-335.6458865638
 20
373.672331763
 10
-338.3718549546
 20
374.6138418372
 10
-340.8078446872
 20
375.6398821584
 10
-342.9303958489
 20
376.7405713975
 10
-344.7190671117
 20
377.9053093154
 10
-346.1566325936
 20
379.1228788493
 10
-347.2292477531
 20
380.3815541389
 10
-347.9265827199
 20
381.6692134531
 10
-348.241921777
 20
382.9734559289
 10
-348.2615536236
 20
383.3893117631
  0
LWPOLYLINE
  5
759
330
6E7
100
AcDbEntity
  8
0
  6
Continuous
 62
     8
370
    25
100
AcDbPolyline
 90
       14
 70
   128
 43
0.0
 10
-348.2615540025
 20
348.5072124792
 10
-348.241921777
 20
348.0895213893
 10
-347.9265827199
 20
346.7852789136
 10
-347.2292477531
 20
345.4976195993
 10
-346.1566325936
 20
344.2389443097
 10
-344.7190671117
 20
343.0213747759
 10
-342.9303958489
 20
341.856636858
 10
-340.8078446872
 20
340.7559476188
 10
-338.3718549546
 20
339.7299072976
 10
-335.6458865638
 20
338.7883972235
 10
-332.6561920807
 20
337.9404846531
 10
-329.4315638974
 20
337.194335448
 10
-326.0030569461
 20
336.557135433
 10
-322.403689623
 20
336.0350211925
  0
LWPOLYLINE
  5
75D
330
6E7
100
AcDbEntity
  8
0
  6
Continuous
 62
     8
370
    25
100
AcDbPolyline
 90
       12
 70
   128
 43
0.0
 10
257.2750700808
 20
407.2870601486
 10
257.1254199755
 20
408.0576309659
 10
256.5840733165
 20
409.0774870751
 10
255.6601447447
 20
410.0472095326
 10
254.3651044593
 20
410.9547596264
 10
252.7150298614
 20
411.7888704895
 10
250.7304059596
 20
412.5391869728
 10
248.4358710565
 20
413.196394201
 10
245.8599108745
 20
413.7523332121
 10
243.0345049169
 20
414.2001022484
 10
239.9947294554
 20
414.5341424383
 10
236.7783220725
 20
414.7503068082
  0
LWPOLYLINE
  5
761
330
6E7
100
AcDbEntity
  8
0
  6
Continuous
 62
     8
370
    25
100
AcDbPolyline
 90
        3
 70
   128
 43
0.0
 10
33.5436846957
 20
401.9923206906
 10
35.5226177133
 20
401.9153999202
 10
35.673141637
 20
401.9238455146
  0
LWPOLYLINE
  5
763
330
6E7
100
AcDbEntity
  8
0
  6
Continuous
 62
     8
370
    25
100
AcDbPolyline
 90
       25
 70
   128
 43
0.0
 10
74.9219541167
 20
468.831596601
 10
74.9174970673
 20
468.9434047225
 10
74.685742959
 20
469.7769101371
 10
74.108239666
 20
470.5915526217
 10
73.196227633
 20
471.3714760869
 10
71.9674581368
 20
472.1015002097
 10
70.445847778
 20
472.7674159008
 10
68.6610129714
 20
473.3562618689
 10
66.6476934963
 20
473.8565768969
 10
64.4450763262
 20
474.258622922
 10
62.0960328988
 20
474.5545745756
 10
59.6462846724
 20
474.7386714953
 10
57.1435132097
 20
474.8073304441
 10
54.6364321105
 20
474.7592150536
 10
52.1738388565
 20
474.5952618352
 10
49.8036650242
 20
474.3186619517
 10
47.5720433513
 20
473.9347991052
 10
45.5224098152
 20
473.4511447495
 10
43.6946582012
 20
472.8771126664
 10
42.1243636155
 20
472.2238757375
 10
40.8420900561
 20
471.5041484765
 10
39.8727955191
 20
470.7319395559
 10
39.2353462202
 20
469.922279144
 10
38.9421493849
 20
469.0909263596
 10
38.9259215156
 20
468.9314813979
  0
LINE
  5
768
330
6E7
100
AcDbEntity
  8
0
  6
Continuous
 62
     7
370
    25
100
AcDbLine
 10
-321.7180294513
 20
333.993965314
 30
0.0
 11
164.6974308453
 21
272.7113776398
 31
0.0
  0
LINE
  5
769
330
6E7
100
AcDbEntity
  8
0
  6
Continuous
 62
     7
370
    25
100
AcDbLine
 10
214.7485506062
 20
280.6141329897
 30
0.0
 11
359.7054407161
 21
408.4540936783
 31
0.0
  0
LINE
  5
76A
330
6E7
100
AcDbEntity
  8
0
  6
Continuous
 62
     7
370
    25
100
AcDbLine
 10
142.288179442
 20
337.5971396115
 30
0.0
 11
-268.1280601992
 21
389.3047254958
 31
0.0
  0
LINE
  5
76B
330
6E7
100
AcDbEntity
  8
0
  6
Continuous
 62
     7
370
    25
100
AcDbLine
 10
257.8636251464
 20
407.8061169275
 30
0.0
 11
184.1037454049
 21
342.7560174159
 31
0.0
  0
LINE
  5
76C
330
6E7
100
AcDbEntity
  8
0
  6
Continuous
 62
     7
370
    25
100
AcDbLine
 10
-348.2615540025
 20
383.3911470187
 30
0.0
 11
-348.2615540025
 21
348.5072124792
 31
0.0
  0
LINE
  5
76D
330
6E7
100
AcDbEntity
  8
0
  6
Continuous
 62
     7
370
    25
100
AcDbLine
 10
-197.981472572
 20
522.2666416115
 30
0.0
 11
-342.938362682
 21
394.4266809229
 31
0.0
  0
LINE
  5
76E
330
6E7
100
AcDbEntity
  8
0
  6
Continuous
 62
     7
370
    25
100
AcDbLine
 10
51.0438457784
 20
463.7952706787
 30
0.0
 11
50.3295814527
 21
463.8756502843
 31
0.0
  0
LINE
  5
76F
330
6E7
100
AcDbEntity
  8
0
  6
Continuous
 62
     7
370
    25
100
AcDbLine
 10
-330.5796765928
 20
335.5932851271
 30
0.0
 11
-330.5796765928
 21
270.7984884307
 31
0.0
  0
LINE
  5
770
330
6E7
100
AcDbEntity
  8
0
  6
Continuous
 62
     7
370
    25
100
AcDbLine
 10
-329.1640304902
 20
258.5648016464
 30
0.0
 11
-329.1640304902
 21
-28.9919560447
 31
0.0
  0
LINE
  5
771
330
6E7
100
AcDbEntity
  8
0
  6
Continuous
 62
     7
370
    25
100
AcDbLine
 10
215.570480163
 20
317.3945141388
 30
0.0
 11
215.570480163
 21
282.5105795993
 31
0.0
  0
LINE
  5
772
330
6E7
100
AcDbEntity
  8
0
  6
Continuous
 62
     7
370
    25
100
AcDbLine
 10
164.0117706736
 20
274.7524335183
 30
0.0
 11
164.0117706736
 21
309.6363680578
 31
0.0
  0
LINE
  5
773
330
6E7
100
AcDbEntity
  8
0
  6
Continuous
 62
     7
370
    25
100
AcDbLine
 10
-318.8681557179
 20
383.4650939698
 30
0.0
 11
167.5473045787
 21
322.1825062956
 31
0.0
  0
LINE
  5
774
330
6E7
100
AcDbEntity
  8
0
  6
Continuous
 62
     7
370
    25
100
AcDbLine
 10
-191.3670942943
 20
524.1947320277
 30
0.0
 11
-336.3239844042
 21
396.3547713391
 31
0.0
  0
LINE
  5
775
330
6E7
100
AcDbEntity
  8
0
  6
Continuous
 62
     7
370
    25
100
AcDbLine
 10
-191.3670942943
 20
524.1947320277
 30
0.0
 11
351.1732268058
 21
455.8410765449
 31
0.0
  0
LINE
  5
776
330
6E7
100
AcDbEntity
  8
0
  6
Continuous
 62
     7
370
    25
100
AcDbLine
 10
206.2163366958
 20
328.0011158564
 30
0.0
 11
351.1732268058
 21
455.8410765449
 31
0.0
  0
LINE
  5
777
330
6E7
100
AcDbEntity
  8
0
  6
Continuous
 62
     7
370
    25
100
AcDbLine
 10
264.4780034242
 20
409.7342073437
 30
0.0
 11
190.7181236827
 21
344.6841078321
 31
0.0
  0
LINE
  5
778
330
6E7
100
AcDbEntity
  8
0
  6
Continuous
 62
     7
370
    25
100
AcDbLine
 10
-165.6459645471
 20
478.0469890771
 30
0.0
 11
240.3107909281
 21
426.9012453868
 31
0.0
  0
LINE
  5
779
330
6E7
100
AcDbEntity
  8
0
  6
Continuous
 62
     7
370
    25
100
AcDbLine
 10
-291.5960387221
 20
405.4499805411
 30
0.0
 11
-217.8361589806
 21
470.5000800527
 31
0.0
  0
LINE
  5
77A
330
6E7
100
AcDbEntity
  8
0
  6
Continuous
 62
     7
370
    25
100
AcDbLine
 10
141.0381794426
 20
337.103662611
 30
0.0
 11
-269.3780601985
 21
388.8112484953
 31
0.0
  0
LINE
  5
77B
330
6E7
100
AcDbEntity
  8
0
  6
Continuous
 62
     7
370
    25
100
AcDbLine
 10
164.0117706736
 20
309.6363680578
 30
0.0
 11
-322.403689623
 21
370.918955732
 31
0.0
  0
LINE
  5
77C
330
6E7
100
AcDbEntity
  8
0
  6
Continuous
 62
     7
370
    25
100
AcDbLine
 10
-322.403689623
 20
336.0350211925
 30
0.0
 11
164.0117706736
 21
274.7524335183
 31
0.0
  0
LINE
  5
77D
330
6E7
100
AcDbEntity
  8
0
  6
Continuous
 62
     7
370
    25
100
AcDbLine
 10
-322.403689623
 20
370.918955732
 30
0.0
 11
-322.403689623
 21
336.0350211925
 31
0.0
  0
LINE
  5
77E
330
6E7
100
AcDbEntity
  8
0
  6
Continuous
 62
     7
370
    25
100
AcDbLine
 10
360.527370273
 20
445.2344748274
 30
0.0
 11
215.570480163
 21
317.3945141388
 31
0.0
  0
LINE
  5
77F
330
6E7
100
AcDbEntity
  8
0
  6
Continuous
 62
     7
370
    25
100
AcDbLine
 10
360.527370273
 20
410.3505402878
 30
0.0
 11
360.527370273
 21
445.2344748274
 31
0.0
  0
LINE
  5
780
330
6E7
100
AcDbEntity
  8
0
  6
Continuous
 62
     7
370
    25
100
AcDbLine
 10
215.570480163
 20
282.5105795993
 30
0.0
 11
360.527370273
 21
410.3505402878
 31
0.0
  0
LINE
  5
781
330
6E7
100
AcDbEntity
  8
0
  6
Continuous
 62
     7
370
    25
100
AcDbLine
 10
-208.7613068505
 20
462.2153135382
 30
0.0
 11
-282.5211865921
 21
397.1652140265
 31
0.0
  0
LINE
  5
782
330
6E7
100
AcDbEntity
  8
0
  6
Continuous
 62
     7
370
    25
100
AcDbLine
 10
-169.1784334027
 20
465.8960504985
 30
0.0
 11
-149.1837705253
 21
375.9918064692
 31
0.0
  0
LINE
  5
783
330
6E7
100
AcDbEntity
  8
0
  6
Continuous
 62
     7
370
    25
100
AcDbLine
 10
236.7783220725
 20
414.7503068082
 30
0.0
 11
-169.1784334027
 21
465.8960504985
 31
0.0
  0
LINE
  5
784
330
6E7
100
AcDbEntity
  8
0
  6
Continuous
 62
     7
370
    25
100
AcDbLine
 10
38.9259215156
 20
468.9314813979
 30
0.0
 11
38.9220958725
 21
468.8077844038
 31
0.0
  0
LINE
  5
785
330
6E7
100
AcDbEntity
  8
0
  6
Continuous
 62
     7
370
    25
100
AcDbLine
 10
-309.9040751303
 20
265.8900058466
 30
0.0
 11
-309.9040751303
 21
260.3202131752
 31
0.0
  0
LINE
  5
786
330
6E7
100
AcDbEntity
  8
0
  6
Continuous
 62
     7
370
    25
100
AcDbLine
 10
-326.9286162406
 20
268.223157485
 30
0.0
 11
-326.9286162406
 21
261.1451710856
 31
0.0
  0
LINE
  5
787
330
6E7
100
AcDbEntity
  8
0
  6
Continuous
 62
     7
370
    25
100
AcDbLine
 10
178.3822138597
 20
198.8019232407
 30
0.0
 11
178.3822138597
 21
204.3723703912
 31
0.0
  0
LINE
  5
788
330
6E7
100
AcDbEntity
  8
0
  6
Continuous
 62
     7
370
    25
100
AcDbLine
 10
195.4067549701
 20
273.2852246068
 30
0.0
 11
195.4067549701
 21
-90.8997250189
 31
0.0
  0
LINE
  5
789
330
6E7
100
AcDbEntity
  8
0
  6
Continuous
 62
     7
370
    25
100
AcDbLine
 10
341.0707518611
 20
37.5638452339
 30
0.0
 11
341.0707518611
 21
392.0198428547
 31
0.0
  0
LINE
  5
78A
330
6E7
100
AcDbEntity
  8
0
  6
Continuous
 62
     7
370
    25
100
AcDbLine
 10
192.5076171679
 20
-93.4565242327
 30
0.0
 11
341.0707518611
 21
37.5638452339
 31
0.0
  0
LINE
  5
78B
330
6E7
100
AcDbEntity
  8
0
  6
Continuous
 62
     7
370
    25
100
AcDbLine
 10
178.202293693
 20
204.3943837225
 30
0.0
 11
-324.1152104979
 21
267.6804406091
 31
0.0
  0
LINE
  5
78C
330
6E7
100
AcDbEntity
  8
0
  6
Continuous
 62
     7
370
    25
100
AcDbLine
 10
194.0971748847
 20
273.0622342015
 30
0.0
 11
194.0971748847
 21
208.9842608911
 31
0.0
  0
LINE
  5
78D
330
6E7
100
AcDbEntity
  8
0
  6
Continuous
 62
     7
370
    25
100
AcDbLine
 10
194.0971748847
 20
208.9842608911
 30
0.0
 11
191.0919710653
 21
206.3339202427
 31
0.0
  0
LINE
  5
78E
330
6E7
100
AcDbEntity
  8
0
  6
Continuous
 62
     7
370
    25
100
AcDbLine
 10
6.5662856516
 20
213.9631560145
 30
0.0
 11
13.0009573589
 21
219.63800305
 31
0.0
  0
LINE
  5
78F
330
6E7
100
AcDbEntity
  8
0
  6
Continuous
 62
     7
370
    25
100
AcDbLine
 10
195.4067549701
 20
196.6570326721
 30
0.0
 11
13.0009573589
 21
219.63800305
 31
0.0
  0
LINE
  5
790
330
6E7
100
AcDbEntity
  8
0
  6
Continuous
 62
     7
370
    25
100
AcDbLine
 10
192.5076171679
 20
194.1002334584
 30
0.0
 11
195.4067549701
 21
196.6570326721
 31
0.0
  0
LINE
  5
791
330
6E7
100
AcDbEntity
  8
0
  6
Continuous
 62
     7
370
    25
100
AcDbLine
 10
179.6179397956
 20
192.1606969381
 30
0.0
 11
6.5662856516
 21
213.9631560145
 31
0.0
  0
LINE
  5
792
330
6E7
100
AcDbEntity
  8
0
  6
Continuous
 62
     7
370
    25
100
AcDbLine
 10
179.6179397956
 20
-95.396060753
 30
0.0
 11
179.6179397956
 21
192.1606969381
 31
0.0
  0
LINE
  5
793
330
6E7
100
AcDbEntity
  8
0
  6
Continuous
 62
     7
370
    25
100
AcDbLine
 10
192.5076171679
 20
194.1002334584
 30
0.0
 11
192.5076171679
 21
-93.4565242327
 31
0.0
  0
LINE
  5
794
330
6E7
100
AcDbEntity
  8
0
  6
Continuous
 62
     7
370
    25
100
AcDbLine
 10
-322.6995643953
 20
255.4467538248
 30
0.0
 11
-322.6995643953
 21
-32.1100038663
 31
0.0
  0
LINE
  5
795
330
6E7
100
AcDbEntity
  8
0
  6
Continuous
 62
     7
370
    25
100
AcDbLine
 10
-149.6479102513
 20
233.6442947484
 30
0.0
 11
-322.6995643953
 21
255.4467538248
 31
0.0
  0
LINE
  5
796
330
6E7
100
AcDbEntity
  8
0
  6
Continuous
 62
     7
370
    25
100
AcDbLine
 10
-322.6995643953
 20
-32.1100038663
 30
0.0
 11
179.6179397956
 21
-95.396060753
 31
0.0
  0
LINE
  5
797
330
6E7
100
AcDbEntity
  8
0
  6
Continuous
 62
     7
370
    25
100
AcDbLine
 10
-149.6479102513
 20
233.6442947484
 30
0.0
 11
-143.213238544
 21
239.3191417838
 31
0.0
  0
LINE
  5
798
330
6E7
100
AcDbEntity
  8
0
  6
Continuous
 62
     7
370
    25
100
AcDbLine
 10
-328.5181739574
 20
259.7433129478
 30
0.0
 11
-325.6190361552
 21
262.3001121616
 31
0.0
  0
LINE
  5
799
330
6E7
100
AcDbEntity
  8
0
  6
Continuous
 62
     7
370
    25
100
AcDbLine
 10
-143.213238544
 20
239.3191417838
 30
0.0
 11
-325.6190361552
 21
262.3001121616
 31
0.0
  0
LINE
  5
79A
330
6E7
100
AcDbEntity
  8
0
  6
Continuous
 62
     8
370
    25
100
AcDbLine
 10
50.9741081867
 20
463.735598827
 30
0.0
 11
50.2045814527
 21
463.8263025842
 31
0.0
  0
LINE
  5
79B
330
6E7
100
AcDbEntity
  8
0
  6
Continuous
 62
     8
370
    25
100
AcDbLine
 10
-282.5211865921
 20
397.1652140265
 30
0.0
 11
-280.5515393216
 21
392.0137475454
 31
0.0
  0
LINE
  5
79C
330
6E7
100
AcDbEntity
  8
0
  6
Continuous
 62
     8
370
    25
100
AcDbLine
 10
-190.3671883297
 20
379.507776515
 30
0.0
 11
-208.7613068505
 21
462.2153135382
 31
0.0
  0
LINE
  5
79D
330
6E7
100
AcDbEntity
  8
0
  6
Continuous
 62
     8
370
    25
100
AcDbLine
 10
227.7997904222
 20
381.2923068811
 30
0.0
 11
236.7783220725
 21
414.7503068082
 31
0.0
  0
LINE
  5
79E
330
6E7
100
AcDbEntity
  8
0
  6
Continuous
 62
     8
370
    25
100
AcDbLine
 10
-149.1837705253
 20
375.9918064692
 30
0.0
 11
160.4986547642
 21
336.9754882638
 31
0.0
  0
LINE
  5
79F
330
6E7
100
AcDbEntity
  8
0
  6
Continuous
 62
     8
370
    25
100
AcDbLine
 10
-149.1837705253
 20
375.9918064692
 30
0.0
 11
-149.2354192066
 21
374.3256607041
 31
0.0
  0
LINE
  5
7A0
330
6E7
100
AcDbEntity
  8
0
  6
Continuous
 62
     8
370
    25
100
AcDbLine
 10
191.0919710653
 20
272.6547044423
 30
0.0
 11
191.0919710653
 21
206.3339202427
 31
0.0
  0
LINE
  5
7A1
330
6E7
100
AcDbEntity
  8
0
  6
Continuous
 62
     8
370
    25
100
AcDbLine
 10
178.202293693
 20
204.3943837225
 30
0.0
 11
178.202293693
 21
271.9042469534
 31
0.0
  0
LINE
  5
7A2
330
6E7
100
AcDbEntity
  8
0
  6
Continuous
 62
     8
370
    25
100
AcDbLine
 10
-324.1152104979
 20
334.3396733825
 30
0.0
 11
-324.1152104979
 21
267.6804406091
 31
0.0
  0
ARC
  5
7A3
330
6E7
100
AcDbEntity
  8
0
  6
Continuous
 62
     7
370
    25
100
AcDbCircle
 10
204.6512237966
 20
317.1927256052
 30
0.0
 40
10.92112073957665
100
AcDbArc
 50
1.0587090425
 51
81.7605351794
  0
ARC
  5
7A4
330
6E7
100
AcDbEntity
  8
0
  6
Continuous
 62
     7
370
    25
100
AcDbCircle
 10
56.8943534579
 20
422.2440233819
 30
0.0
 40
53.84814787931096
100
AcDbArc
 50
80.5603883522
 51
96.6378168653
  0
ARC
  5
7A5
330
6E7
100
AcDbEntity
  8
0
  6
Continuous
 62
     7
370
    25
100
AcDbCircle
 10
57.0325127972
 20
508.8271437604
 30
0.0
 40
45.49672175993502
100
AcDbArc
 50
262.3476872735
 51
288.6070665456
  0
ARC
  5
7A6
330
6E7
100
AcDbEntity
  8
0
  6
Continuous
 62
     7
370
    25
100
AcDbCircle
 10
349.6081139065
 20
445.0326862938
 30
0.0
 40
10.92112073957688
100
AcDbArc
 50
1.0587090425
 51
81.7605351794
  0
ARC
  5
7A7
330
6E7
100
AcDbEntity
  8
0
  6
Continuous
 62
     7
370
    25
100
AcDbCircle
 10
358.0270097973
 20
410.3078716508
 30
0.0
 40
2.500724519197314
100
AcDbArc
 50
312.1580374309
 51
0.9776572489
  0
ARC
  5
7A8
330
6E7
100
AcDbEntity
  8
0
  6
Continuous
 62
     7
370
    25
100
AcDbCircle
 10
-293.1988819606
 20
394.5817546339
 30
0.0
 40
10.98578357769316
100
AcDbArc
 50
13.6012826046
 51
81.6105085311
  0
ARC
  5
7A9
330
6E7
100
AcDbEntity
  8
0
  6
Continuous
 62
     7
370
    25
100
AcDbCircle
 10
-192.5500244113
 20
515.9433456181
 30
0.0
 40
8.335748397240716
100
AcDbArc
 50
81.8415869733
 51
130.6612067915
  0
ARC
  5
7AA
330
6E7
100
AcDbEntity
  8
0
  6
Continuous
 62
     7
370
    25
100
AcDbCircle
 10
-219.4390022191
 20
459.6318541456
 30
0.0
 40
10.98578357769322
100
AcDbArc
 50
13.6012826046
 51
81.6105085311
  0
ARC
  5
7AB
330
6E7
100
AcDbEntity
  8
0
  6
Continuous
 62
     7
370
    25
100
AcDbCircle
 10
35.0499675758
 20
412.2473009718
 30
0.0
 40
10.34224726490661
100
AcDbArc
 50
273.4544605089
 51
352.3601108328
  0
ARC
  5
7AC
330
6E7
100
AcDbEntity
  8
0
  6
Continuous
 62
     7
370
    25
100
AcDbCircle
 10
32.5038674322
 20
415.5517201489
 30
0.0
 40
10.45219684855705
100
AcDbArc
 50
89.0254258994
 51
180.1911957668
  0
ARC
  5
7AD
330
6E7
100
AcDbEntity
  8
0
  6
Continuous
 62
     7
370
    25
100
AcDbCircle
 10
38.1810393785
 20
415.3796382713
 30
0.0
 40
10.66303974960901
100
AcDbArc
 50
262.2502114414
 51
298.8133573433
  0
ARC
  5
7AE
330
6E7
100
AcDbEntity
  8
0
  6
Continuous
 62
     8
370
    25
100
AcDbCircle
 10
213.0927099024
 20
282.4581264436
 30
0.0
 40
2.478325401917799
100
AcDbArc
 50
311.9104856515
 51
1.2127418211
  0
ARC
  5
7AF
330
6E7
100
AcDbEntity
  8
0
  6
Continuous
 62
     8
370
    25
100
AcDbCircle
 10
142.1785625697
 20
336.0505987028
 30
0.0
 40
1.552229773973331
100
AcDbArc
 50
87.2827167555
 51
137.2796914007
  0
ARC
  5
7B0
330
6E7
100
AcDbEntity
  8
0
  6
Continuous
 62
     8
370
    25
100
AcDbCircle
 10
189.5264430864
 20
336.4625658846
 30
0.0
 40
8.30745777224417
100
AcDbArc
 50
81.7526363859
 51
130.7252908782
  0
ARC
  5
7B1
330
6E7
100
AcDbEntity
  8
0
  6
Continuous
 62
     8
370
    25
100
AcDbCircle
 10
-268.2448123352
 20
387.7705717184
 30
0.0
 40
1.538589897837823
100
AcDbArc
 50
85.6480663733
 51
137.438322899
  0
ARC
  5
7B2
330
6E7
100
AcDbEntity
  8
0
  6
Continuous
 62
     8
370
    25
100
AcDbCircle
 10
263.2863026533
 20
401.5129089536
 30
0.0
 40
8.307219627872001
100
AcDbArc
 50
81.7522577096
 51
130.750536054
  0
ARC
  5
7B3
330
6E7
100
AcDbEntity
  8
0
  6
Continuous
 62
     8
370
    25
100
AcDbCircle
 10
-337.5302379168
 20
388.185411473
 30
0.0
 40
8.25793486036205
100
AcDbArc
 50
81.6006355739
 51
131.2747514069
  0
ARC
  5
7B4
330
6E7
100
AcDbEntity
  8
0
  6
Continuous
 62
     8
370
    25
100
AcDbCircle
 10
-281.0836549689
 20
393.7809801723
 30
0.0
 40
3.676892158790023
100
AcDbArc
 50
113.0144813324
 51
177.6962620865
  0
ARC
  5
7B5
330
6E7
100
AcDbEntity
  8
0
  6
Continuous
 62
     8
370
    25
100
AcDbCircle
 10
35.5077021924
 20
415.3058614762
 30
0.0
 40
13.45762731601241
100
AcDbArc
 50
179.101717772
 51
261.6082347954
  0
ARC
  5
7B6
330
6E7
100
AcDbEntity
  8
0
  6
Continuous
 62
     8
370
    25
100
AcDbCircle
 10
-144.5842210218
 20
266.9520841289
 30
0.0
 40
109.1366890816109
100
AcDbArc
 50
92.4154374979
 51
96.6990472169
  0
VIEWPORT
  5
7C5
330
6E7
100
AcDbEntity
  8
0
100
AcDbViewport
 10
0.0
 20
0.0
 30
0.0
 40
205.6
 41
156.0
 68
     1
 69
     1
 12
0.0
 22
222.5
 13
0.0
 23
0.0
 14
10.0
 24
10.0
 15
10.0
 25
10.0
 16
0.0
 26
0.0
 36
1.0
 17
0.0
 27
0.0
 37
0.0
 42
50.0
 43
0.0
 44
0.0
 45
464.3579766537
 50
0.0
 51
0.0
 72
   100
 90
   557152
  1

281
     0
 71
     1
 74
     0
110
0.0
120
0.0
130
0.0
111
1.0
121
0.0
131
0.0
112
0.0
122
1.0
132
0.0
 79
     0
146
0.0
  0
ENDBLK
  5
6EA
330
6E7
100
AcDbEntity
  8
0
100
AcDbBlockEnd
  0
ENDSEC
  0
SECTION
  2
ENTITIES
  0
SPLINE
  5
8B
330
1F
100
AcDbEntity
  8
0
  6
Continuous
 62
     7
370
    25
100
AcDbSpline
210
0.0
220
0.0
230
1.0
 70
     8
 71
     3
 72
     9
 73
     5
 74
     0
 42
0.000000001
 43
0.00000001
 40
0.0
 40
0.0
 40
0.0
 40
0.0
 40
0.2329803385325427
 40
1.0
 40
1.0
 40
1.0
 40
1.0
 10
246.8013842032774
 20
394.9999999999999
 30
0.0
 10
246.7809557630996
 20
394.9683071387311
 30
0.0
 10
246.6932726551325
 20
394.8322747959657
 30
0.0
 10
246.6081461893322
 20
394.6442322952443
 30
0.0
 10
246.5428525163522
 20
394.4999999999995
 30
0.0
  0
SPLINE
  5
8C
330
1F
100
AcDbEntity
  8
0
  6
Continuous
 62
     7
370
    25
100
AcDbSpline
210
0.0
220
0.0
230
1.0
 70
     8
 71
     3
 72
     9
 73
     5
 74
     0
 42
0.000000001
 43
0.00000001
 40
0.0
 40
0.0
 40
0.0
 40
0.0
 40
0.7669915094780166
 40
1.0
 40
1.0
 40
1.0
 40
1.0
 10
-246.5428525163484
 20
394.4999999999999
 30
0.0
 10
-246.6081461565166
 20
394.6442384108011
 30
0.0
 10
-246.6932757040557
 20
394.8322957869505
 30
0.0
 10
-246.7809622486373
 20
394.9683079996307
 30
0.0
 10
-246.8013939580293
 20
394.9999999999999
 30
0.0
  0
SPLINE
  5
AD
330
1F
100
AcDbEntity
  8
0
  6
Continuous
 62
     8
370
    25
100
AcDbSpline
210
0.0
220
0.0
230
1.0
 70
     8
 71
     3
 72
     9
 73
     5
 74
     0
 42
0.000000001
 43
0.00000001
 40
0.0
 40
0.0
 40
0.0
 40
0.0
 40
0.7669915098581271
 40
0.9999999999999999
 40
0.9999999999999999
 40
0.9999999999999999
 40
0.9999999999999999
 10
201.9757041986533
 20
394.4999999999995
 30
0.0
 10
202.367467697796
 20
394.6442384108507
 30
0.0
 10
202.8782471446443
 20
394.8322957869717
 30
0.0
 10
203.4043601186578
 20
394.9683079996767
 30
0.0
 10
203.5269489083767
 20
394.9999999999999
 30
0.0
  0
SPLINE
  5
AE
330
1F
100
AcDbEntity
  8
0
  6
Continuous
 62
     8
370
    25
100
AcDbSpline
210
0.0
220
0.0
230
1.0
 70
     8
 71
     3
 72
     9
 73
     5
 74
     0
 42
0.000000001
 43
0.00000001
 40
0.0
 40
0.0
 40
0.0
 40
0.0
 40
0.2329803388942172
 40
1.0
 40
1.0
 40
1.0
 40
1.0
 10
-203.5268870158924
 20
394.9999999999999
 30
0.0
 10
-203.4043190930575
 20
394.9683071386846
 30
0.0
 10
-202.8782321132866
 20
394.8322747959313
 30
0.0
 10
-202.3674693105171
 20
394.6442322951912
 30
0.0
 10
-201.9757041986314
 20
394.4999999999999
 30
0.0
  0
LINE
  5
AF
330
1F
100
AcDbEntity
  8
0
  6
Continuous
 62
     7
370
    25
100
AcDbLine
 10
300.0
 20
435.0
 30
0.0
 11
-300.0
 21
435.0
 31
0.0
  0
LINE
  5
B0
330
1F
100
AcDbEntity
  8
0
  6
Continuous
 62
     7
370
    25
100
AcDbLine
 10
260.0
 20
395.0
 30
0.0
 11
260.0
 21
445.0
 31
0.0
  0
LINE
  5
B1
330
1F
100
AcDbEntity
  8
0
  6
Continuous
 62
     7
370
    25
100
AcDbLine
 10
-300.0
 20
398.0
 30
0.0
 11
300.0
 21
398.0
 31
0.0
  0
LINE
  5
B2
330
1F
100
AcDbEntity
  8
0
  6
Continuous
 62
     7
370
    25
100
AcDbLine
 10
-260.0
 20
445.0
 30
0.0
 11
-260.0
 21
395.0
 31
0.0
  0
LINE
  5
B3
330
1F
100
AcDbEntity
  8
0
  6
Continuous
 62
     7
370
    25
100
AcDbLine
 10
297.0
 20
395.0
 30
0.0
 11
-297.0
 21
395.0
 31
0.0
  0
LINE
  5
B4
330
1F
100
AcDbEntity
  8
0
  6
Continuous
 62
     7
370
    25
100
AcDbLine
 10
-300.0
 20
398.0
 30
0.0
 11
-300.0
 21
435.0
 31
0.0
  0
LINE
  5
B5
330
1F
100
AcDbEntity
  8
0
  6
Continuous
 62
     7
370
    25
100
AcDbLine
 10
300.0
 20
435.0
 30
0.0
 11
300.0
 21
398.0
 31
0.0
  0
LINE
  5
B6
330
1F
100
AcDbEntity
  8
0
  6
Continuous
 62
     7
370
    25
100
AcDbLine
 10
-290.0
 20
445.0
 30
0.0
 11
290.0
 21
445.0
 31
0.0
  0
LINE
  5
B7
330
1F
100
AcDbEntity
  8
0
  6
Continuous
 62
     7
370
    25
100
AcDbLine
 10
-261.0
 20
395.0
 30
0.0
 11
-261.0
 21
394.5
 31
0.0
  0
LINE
  5
B8
330
1F
100
AcDbEntity
  8
0
  6
Continuous
 62
     7
370
    25
100
AcDbLine
 10
-261.0
 20
317.9
 30
0.0
 11
-261.0
 21
305.0
 31
0.0
  0
LINE
  5
B9
330
1F
100
AcDbEntity
  8
0
  6
Continuous
 62
     7
370
    25
100
AcDbLine
 10
-279.2
 20
395.0
 30
0.0
 11
-279.2
 21
0.0
 31
0.0
  0
LINE
  5
BA
330
1F
100
AcDbEntity
  8
0
  6
Continuous
 62
     7
370
    25
100
AcDbLine
 10
261.0
 20
395.0
 30
0.0
 11
261.0
 21
394.5
 31
0.0
  0
LINE
  5
BB
330
1F
100
AcDbEntity
  8
0
  6
Continuous
 62
     7
370
    25
100
AcDbLine
 10
261.0
 20
305.0
 30
0.0
 11
261.0
 21
317.9
 31
0.0
  0
LINE
  5
BC
330
1F
100
AcDbEntity
  8
0
  6
Continuous
 62
     7
370
    25
100
AcDbLine
 10
279.2
 20
395.0
 30
0.0
 11
279.2
 21
0.0
 31
0.0
  0
LINE
  5
BD
330
1F
100
AcDbEntity
  8
0
  6
Continuous
 62
     7
370
    25
100
AcDbLine
 10
277.8
 20
394.5
 30
0.0
 11
277.8
 21
317.9
 31
0.0
  0
LINE
  5
BE
330
1F
100
AcDbEntity
  8
0
  6
Continuous
 62
     7
370
    25
100
AcDbLine
 10
267.8
 20
317.9
 30
0.0
 11
267.8
 21
394.5
 31
0.0
  0
LINE
  5
BF
330
1F
100
AcDbEntity
  8
0
  6
Continuous
 62
     7
370
    25
100
AcDbLine
 10
-269.2
 20
394.5
 30
0.0
 11
-269.2
 21
317.9
 31
0.0
  0
LINE
  5
C0
330
1F
100
AcDbEntity
  8
0
  6
Continuous
 62
     7
370
    25
100
AcDbLine
 10
277.8
 20
317.9
 30
0.0
 11
-279.2
 21
317.9
 31
0.0
  0
LINE
  5
C1
330
1F
100
AcDbEntity
  8
0
  6
Continuous
 62
     7
370
    25
100
AcDbLine
 10
-279.2
 20
394.5
 30
0.0
 11
277.8
 21
394.5
 31
0.0
  0
LINE
  5
C2
330
1F
100
AcDbEntity
  8
0
  6
Continuous
 62
     7
370
    25
100
AcDbLine
 10
269.2
 20
0.0
 30
0.0
 11
269.2
 21
305.0
 31
0.0
  0
LINE
  5
C3
330
1F
100
AcDbEntity
  8
0
  6
Continuous
 62
     7
370
    25
100
AcDbLine
 10
279.2
 20
305.0
 30
0.0
 11
84.2
 21
305.0
 31
0.0
  0
LINE
  5
C4
330
1F
100
AcDbEntity
  8
0
  6
Continuous
 62
     7
370
    25
100
AcDbLine
 10
-279.2
 20
0.0
 30
0.0
 11
279.2
 21
0.0
 31
0.0
  0
LINE
  5
C5
330
1F
100
AcDbEntity
  8
0
  6
Continuous
 62
     7
370
    25
100
AcDbLine
 10
-267.8
 20
305.0
 30
0.0
 11
-267.8
 21
0.0
 31
0.0
  0
LINE
  5
C6
330
1F
100
AcDbEntity
  8
0
  6
Continuous
 62
     7
370
    25
100
AcDbLine
 10
-277.8
 20
0.0
 30
0.0
 11
-277.8
 21
305.0
 31
0.0
  0
LINE
  5
C7
330
1F
100
AcDbEntity
  8
0
  6
Continuous
 62
     7
370
    25
100
AcDbLine
 10
-82.8
 20
305.0
 30
0.0
 11
-277.8
 21
305.0
 31
0.0
  0
ARC
  5
C8
330
1F
100
AcDbEntity
  8
0
  6
Continuous
 62
     7
370
    25
100
AcDbCircle
 10
-297.0
 20
398.0
 30
0.0
 40
2.999999999999943
100
AcDbArc
 50
180.0
 51
270.0
  0
ARC
  5
C9
330
1F
100
AcDbEntity
  8
0
  6
Continuous
 62
     7
370
    25
100
AcDbCircle
 10
297.0
 20
398.0
 30
0.0
 40
3.000000000000171
100
AcDbArc
 50
270.0
 51
360.0
  0
ARC
  5
CA
330
1F
100
AcDbEntity
  8
0
  6
Continuous
 62
     7
370
    25
100
AcDbCircle
 10
-290.0
 20
435.0
 30
0.0
 40
10.0
100
AcDbArc
 50
90.0
 51
180.0
  0
ARC
  5
CB
330
1F
100
AcDbEntity
  8
0
  6
Continuous
 62
     7
370
    25
100
AcDbCircle
 10
290.0
 20
435.0
 30
0.0
 40
9.999999999999716
100
AcDbArc
 50
360.0
 51
90.0
  0
ARC
  5
CC
330
1F
100
AcDbEntity
  8
0
  6
Continuous
 62
     7
370
    25
100
AcDbCircle
 10
0.7
 20
469.30625
 30
0.0
 40
184.3062499999993
100
AcDbArc
 50
243.0604435409
 51
296.9395564591
  0
SPLINE
  5
CE
330
1B
100
AcDbEntity
 67
     1
  8
0
  6
Continuous
 62
     7
370
    25
100
AcDbSpline
210
0.0
220
0.0
230
1.0
 70
    24
 71
     3
 72
     9
 73
     5
 74
     0
 42
0.000000001
 43
0.00000001
 40
0.0
 40
0.0
 40
0.0
 40
0.0
 40
0.4442746459207071
 40
1.0
 40
1.0
 40
1.0
 40
1.0
 10
180.647660139178
 20
299.9999999999999
 30
0.0
 10
180.6551137006674
 20
300.0000000000001
 30
0.0
 10
180.671890623586
 20
300.0000000000002
 30
0.0
 10
180.7417657924768
 20
300.0000000000001
 30
0.0
 10
180.7805971954501
 20
299.9999999999999
 30
0.0
  0
SPLINE
  5
F9
330
1B
100
AcDbEntity
 67
     1
  8
0
  6
Continuous
 62
     7
370
    25
100
AcDbSpline
210
0.0
220
0.0
230
1.0
 70
     8
 71
     3
 72
    14
 73
    10
 74
     0
 42
0.000000001
 43
0.00000001
 40
0.0
 40
0.0
 40
0.0
 40
0.0
 40
0.2499999999999939
 40
0.2499999999999939
 40
0.3749999999999949
 40
0.3749999999999949
 40
0.499999999999996
 40
0.499999999999996
 40
1.0
 40
1.0
 40
1.0
 40
1.0
 10
284.9999999999997
 20
400.1010205144336
 30
0.0
 10
284.9999999999996
 20
400.5544600574215
 30
0.0
 10
284.9269255083099
 20
400.995567701436
 30
0.0
 10
284.7481100397858
 20
401.6455504899957
 30
0.0
 10
284.6763975998247
 20
401.8603637213773
 30
0.0
 10
284.5167560717302
 20
402.2788402577935
 30
0.0
 10
284.4285199532426
 20
402.4836902562815
 30
0.0
 10
283.9555851270791
 20
403.4913816898011
 30
0.0
 10
283.4779878144927
 20
404.2442330169126
 30
0.0
 10
282.9999999999997
 20
404.9999999999999
 30
0.0
  0
SPLINE
  5
103
330
1B
100
AcDbEntity
 67
     1
  8
0
  6
Continuous
 62
     7
370
    25
100
AcDbSpline
210
0.0
220
0.0
230
1.0
 70
     8
 71
     3
 72
    14
 73
    10
 74
     0
 42
0.000000001
 43
0.00000001
 40
0.0
 40
0.0
 40
0.0
 40
0.0
 40
0.2500000000000231
 40
0.2500000000000231
 40
0.3750000000000306
 40
0.3750000000000306
 40
0.5000000000000381
 40
0.5000000000000381
 40
1.0
 40
1.0
 40
1.0
 40
1.0
 10
-285.0000000000003
 20
400.1010205144337
 30
0.0
 10
-285.0000000000002
 20
400.5544600574216
 30
0.0
 10
-284.9269255083105
 20
400.9955677014361
 30
0.0
 10
-284.7481100397865
 20
401.6455504899956
 30
0.0
 10
-284.6763975998253
 20
401.8603637213773
 30
0.0
 10
-284.5167560717307
 20
402.2788402577935
 30
0.0
 10
-284.4285199532432
 20
402.4836902562815
 30
0.0
 10
-283.9555851270797
 20
403.4913816898012
 30
0.0
 10
-283.4779878144933
 20
404.2442330169128
 30
0.0
 10
-283.0000000000003
 20
405.0
 30
0.0
  0
LWPOLYLINE
  5
132
330
1B
100
AcDbEntity
 67
     1
  8
0
  6
Continuous
 62
     7
370
    25
100
AcDbPolyline
 90
        9
 70
   128
 43
0.0
 10
22.5
 20
278.8578643763
 10
23.4754516101
 20
278.9257986689
 10
24.4134171618
 20
279.12699087
 10
25.2778511651
 20
279.4537092762
 10
26.0355339059
 20
279.8933982822
 10
26.6573480615
 20
280.4291608862
 10
27.1193976626
 20
281.0404080318
 10
27.403926402
 20
281.703649834
 10
27.5
 20
282.3933982822
  0
LWPOLYLINE
  5
136
330
1B
100
AcDbEntity
 67
     1
  8
0
  6
Continuous
 62
     7
370
    25
100
AcDbPolyline
 90
        9
 70
   128
 43
0.0
 10
-27.5
 20
282.3933982822
 10
-27.403926402
 20
281.703649834
 10
-27.1193976626
 20
281.0404080318
 10
-26.6573480615
 20
280.4291608862
 10
-26.0355339059
 20
279.8933982822
 10
-25.2778511651
 20
279.4537092762
 10
-24.4134171618
 20
279.12699087
 10
-23.4754516101
 20
278.9257986689
 10
-22.5
 20
278.8578643763
  0
LWPOLYLINE
  5
140
330
1B
100
AcDbEntity
 67
     1
  8
0
  6
Continuous
 62
     7
370
    25
100
AcDbPolyline
 90
        9
 70
   128
 43
0.0
 10
-27.5
 20
305.0
 10
-27.596073598
 20
305.585270966
 10
-27.8806023374
 20
306.1480502971
 10
-28.3426519385
 20
306.6667106991
 10
-28.9644660941
 20
307.1213203436
 10
-29.7221488349
 20
307.4944088369
 10
-30.5865828382
 20
307.7716385975
 10
-31.5245483899
 20
307.9423558412
 10
-32.5
 20
308.0
  0
LWPOLYLINE
  5
144
330
1B
100
AcDbEntity
 67
     1
  8
0
  6
Continuous
 62
     7
370
    25
100
AcDbPolyline
 90
        9
 70
   128
 43
0.0
 10
32.5
 20
308.0
 10
31.5245483899
 20
307.9423558412
 10
30.5865828382
 20
307.7716385975
 10
29.7221488349
 20
307.4944088369
 10
28.9644660941
 20
307.1213203436
 10
28.3426519385
 20
306.6667106991
 10
27.8806023374
 20
306.1480502971
 10
27.596073598
 20
305.585270966
 10
27.5
 20
305.0
  0
SPLINE
  5
145
330
1B
100
AcDbEntity
 67
     1
  8
0
  6
Continuous
 62
     7
370
    25
100
AcDbSpline
210
0.0
220
0.0
230
1.0
 70
     8
 71
     3
 72
     8
 73
     4
 74
     0
 42
0.000000001
 43
0.00000001
 40
0.0
 40
0.0
 40
0.0
 40
0.0
 40
1.0
 40
1.0
 40
1.0
 40
1.0
 10
-175.0229612406939
 20
300.0580234318344
 30
0.0
 10
-174.8264966380532
 20
300.0958248042197
 30
0.0
 10
-174.6295430199399
 20
300.1236998018134
 30
0.0
 10
-174.4325877972727
 20
300.1417680389855
 30
0.0
  0
SPLINE
  5
148
330
1B
100
AcDbEntity
 67
     1
  8
0
  6
Continuous
 62
     7
370
    25
100
AcDbSpline
210
0.0
220
0.0
230
1.0
 70
     8
 71
     3
 72
    10
 73
     6
 74
     0
 42
0.000000001
 43
0.00000001
 40
0.0
 40
0.0
 40
0.0
 40
0.0
 40
0.5
 40
0.5
 40
1.0
 40
1.0
 40
1.0
 40
1.0
 10
-175.8362082528662
 20
300.0000000000005
 30
0.0
 10
-175.6935193730706
 20
300.0000000000006
 30
0.0
 10
-175.5520086890562
 20
300.0035755662502
 30
0.0
 10
-175.27302033858
 20
300.0216510218864
 30
0.0
 10
-175.136400269208
 20
300.0361968488168
 30
0.0
 10
-175.0229612407022
 20
300.0580234318348
 30
0.0
  0
SPLINE
  5
149
330
1B
100
AcDbEntity
 67
     1
  8
0
  6
Continuous
 62
     7
370
    25
100
AcDbSpline
210
0.0
220
0.0
230
1.0
 70
    24
 71
     3
 72
     9
 73
     5
 74
     0
 42
0.000000001
 43
0.00000001
 40
0.0
 40
0.0
 40
0.0
 40
0.0
 40
0.8121080050592391
 40
1.0
 40
1.0
 40
1.0
 40
1.0
 10
-175.8362082528773
 20
300.0000000000005
 30
0.0
 10
-177.2709929749688
 20
300.0000000000006
 30
0.0
 10
-179.0377342374034
 20
300.0000000000007
 30
0.0
 10
-180.409829280568
 20
300.0000000000004
 30
0.0
 10
-180.6676349554766
 20
300.0000000000003
 30
0.0
  0
SPLINE
  5
14D
330
1B
100
AcDbEntity
 67
     1
  8
0
  6
Continuous
 62
     7
370
    25
100
AcDbSpline
210
0.0
220
0.0
230
1.0
 70
     8
 71
     3
 72
     8
 73
     4
 74
     0
 42
0.000000001
 43
0.00000001
 40
0.0
 40
0.0
 40
0.0
 40
0.0
 40
1.0
 40
1.0
 40
1.0
 40
1.0
 10
104.2738761024105
 20
300.0000000000004
 30
0.0
 10
104.2738761024105
 20
300.0000000000004
 30
0.0
 10
104.2504198154464
 20
300.0473269798172
 30
0.0
 10
104.2069028109469
 20
300.1417680389854
 30
0.0
  0
SPLINE
  5
150
330
1B
100
AcDbEntity
 67
     1
  8
0
  6
Continuous
 62
     7
370
    25
100
AcDbSpline
210
0.0
220
0.0
230
1.0
 70
    24
 71
     3
 72
    11
 73
     7
 74
     0
 42
0.000000001
 43
0.00000001
 40
0.0
 40
0.0
 40
0.0
 40
0.0
 40
0.0857037870310141
 40
0.5414151885058192
 40
0.9975078709340416
 40
1.0
 40
1.0
 40
1.0
 40
1.0
 10
180.3035873104446
 20
299.9999999999998
 30
0.0
 10
180.1643385449937
 20
299.9999999999998
 30
0.0
 10
179.2846645048191
 20
299.9999999999999
 30
0.0
 10
177.2554711524744
 20
299.9999999999961
 30
0.0
 10
175.3880166887988
 20
300.0000000000073
 30
0.0
 10
174.4377519074275
 20
299.9999999999998
 30
0.0
 10
174.4325877972724
 20
299.9999999999998
 30
0.0
  0
SPLINE
  5
153
330
1B
100
AcDbEntity
 67
     1
  8
0
  6
Continuous
 62
     7
370
    25
100
AcDbSpline
210
0.0
220
0.0
230
1.0
 70
     8
 71
     3
 72
     8
 73
     4
 74
     0
 42
0.000000001
 43
0.00000001
 40
0.0
 40
0.0
 40
0.0
 40
0.0
 40
1.0
 40
1.0
 40
1.0
 40
1.0
 10
-104.2069028109472
 20
300.1417680389849
 30
0.0
 10
-104.2504198154467
 20
300.0473269798168
 30
0.0
 10
-104.2738761024108
 20
299.9999999999999
 30
0.0
 10
-104.2738761024108
 20
299.9999999999999
 30
0.0
  0
SPLINE
  5
158
330
1B
100
AcDbEntity
 67
     1
  8
0
  6
Continuous
 62
     7
370
    25
100
AcDbSpline
210
0.0
220
0.0
230
1.0
 70
     8
 71
     3
 72
    16
 73
    12
 74
     0
 42
0.000000001
 43
0.00000001
 40
0.0
 40
0.0
 40
0.0
 40
0.0
 40
0.2499999999999997
 40
0.2499999999999997
 40
0.3749999999999997
 40
0.3749999999999997
 40
0.4999999999999998
 40
0.4999999999999998
 40
0.7499999999999999
 40
0.7499999999999999
 40
1.0
 40
1.0
 40
1.0
 40
1.0
 10
123.0087075301372
 20
300.1417680389854
 30
0.0
 10
123.0067504673151
 20
300.1035763358817
 30
0.0
 10
123.0026834588863
 20
300.0231284193592
 30
0.0
 10
122.9870375495762
 20
299.8407850983908
 30
0.0
 10
122.9800808792726
 20
299.7690723988545
 30
0.0
 10
122.9614047626653
 20
299.6089556057457
 30
0.0
 10
122.9496679649852
 20
299.5202049283433
 30
0.0
 10
122.9042470276582
 20
299.2285122224757
 30
0.0
 10
122.8594800033389
 20
298.9970691804698
 30
0.0
 10
122.73058158294
 20
298.4985182693774
 30
0.0
 10
122.6449606822507
 20
298.225571204477
 30
0.0
 10
122.5346914520737
 20
297.944384963872
 30
0.0
  0
SPLINE
  5
15A
330
1B
100
AcDbEntity
 67
     1
  8
0
  6
Continuous
 62
     7
370
    25
100
AcDbSpline
210
0.0
220
0.0
230
1.0
 70
     8
 71
     3
 72
     8
 73
     4
 74
     0
 42
0.000000001
 43
0.00000001
 40
0.0
 40
0.0
 40
0.0
 40
0.0
 40
1.0
 40
1.0
 40
1.0
 40
1.0
 10
107.4619401036724
 20
297.944384963872
 30
0.0
 10
107.3182519421415
 20
298.2615352158076
 30
0.0
 10
107.1393268641575
 20
298.5346696489135
 30
0.0
 10
106.9330042996278
 20
298.7757498172614
 30
0.0
  0
SPLINE
  5
15B
330
1B
100
AcDbEntity
 67
     1
  8
0
  6
Continuous
 62
     7
370
    25
100
AcDbSpline
210
0.0
220
0.0
230
1.0
 70
     8
 71
     3
 72
    16
 73
    12
 74
     0
 42
0.000000001
 43
0.00000001
 40
0.0
 40
0.0
 40
0.0
 40
0.0
 40
0.2500000000000004
 40
0.2500000000000004
 40
0.5000000000000009
 40
0.5000000000000009
 40
0.7500000000000013
 40
0.7500000000000013
 40
0.8750000000000007
 40
0.8750000000000007
 40
1.0
 40
1.0
 40
1.0
 40
1.0
 10
106.9330042996277
 20
298.7757498172615
 30
0.0
 10
106.7459422697842
 20
298.9943247741452
 30
0.0
 10
106.5435157012726
 20
299.1784177454352
 30
0.0
 10
106.1155046862024
 20
299.4962332344068
 30
0.0
 10
105.8882962319378
 20
299.6303015814707
 30
0.0
 10
105.4208608203882
 20
299.8515634412958
 30
0.0
 10
105.1827683289639
 20
299.9381164178275
 30
0.0
 10
104.8204474926725
 20
300.0372853524103
 30
0.0
 10
104.6988034812433
 20
300.0651749969473
 30
0.0
 10
104.4539443381111
 20
300.1109636406327
 30
0.0
 10
104.3293935513756
 20
300.1289976703276
 30
0.0
 10
104.2069028109469
 20
300.1417680389853
 30
0.0
  0
SPLINE
  5
15D
330
1B
100
AcDbEntity
 67
     1
  8
0
  6
Continuous
 62
     7
370
    25
100
AcDbSpline
210
0.0
220
0.0
230
1.0
 70
     8
 71
     3
 72
     8
 73
     4
 74
     0
 42
0.000000001
 43
0.00000001
 40
0.0
 40
0.0
 40
0.0
 40
0.0
 40
1.0
 40
1.0
 40
1.0
 40
1.0
 10
-107.4619401036727
 20
297.9443849638716
 30
0.0
 10
-107.3182519421419
 20
298.2615352158073
 30
0.0
 10
-107.1393268641578
 20
298.5346696489132
 30
0.0
 10
-106.933004299628
 20
298.7757498172612
 30
0.0
  0
SPLINE
  5
15F
330
1B
100
AcDbEntity
 67
     1
  8
0
  6
Continuous
 62
     7
370
    25
100
AcDbSpline
210
0.0
220
0.0
230
1.0
 70
     8
 71
     3
 72
    18
 73
    14
 74
     0
 42
0.000000001
 43
0.00000001
 40
0.0
 40
0.0
 40
0.0
 40
0.0
 40
0.0625000000000073
 40
0.0625000000000073
 40
0.1250000000000146
 40
0.1250000000000146
 40
0.2500000000000112
 40
0.2500000000000112
 40
0.5000000000000074
 40
0.5000000000000074
 40
0.7500000000000037
 40
0.7500000000000037
 40
1.0
 40
1.0
 40
1.0
 40
1.0
 10
-125.7261238975895
 20
299.9999999999999
 30
0.0
 10
-125.6284704789152
 20
299.9999999999998
 30
0.0
 10
-125.5333879446638
 20
299.9959360869183
 30
0.0
 10
-125.3472894947347
 20
299.9806896969683
 30
0.0
 10
-125.2557902590525
 20
299.9693748286184
 30
0.0
 10
-124.9946310772807
 20
299.9272467062933
 30
0.0
 10
-124.8335813639105
 20
299.8881775264381
 30
0.0
 10
-124.368666228669
 20
299.742348713114
 30
0.0
 10
-124.0915781996769
 20
299.6105980805896
 30
0.0
 10
-123.5666041578107
 20
299.2720091181375
 30
0.0
 10
-123.3197051843866
 20
299.0628106152656
 30
0.0
 10
-122.88318884222
 20
298.5679868335951
 30
0.0
 10
-122.688584305622
 20
298.2766242647407
 30
0.0
 10
-122.5380598963277
 20
297.9443849638715
 30
0.0
  0
SPLINE
  5
160
330
1B
100
AcDbEntity
 67
     1
  8
0
  6
Continuous
 62
     7
370
    25
100
AcDbSpline
210
0.0
220
0.0
230
1.0
 70
     8
 71
     3
 72
    16
 73
    12
 74
     0
 42
0.000000001
 43
0.00000001
 40
0.0
 40
0.0
 40
0.0
 40
0.0
 40
0.2500000000000039
 40
0.2500000000000039
 40
0.5000000000000078
 40
0.5000000000000078
 40
0.7500000000000117
 40
0.7500000000000117
 40
0.8750000000000058
 40
0.8750000000000058
 40
1.0
 40
1.0
 40
1.0
 40
1.0
 10
-106.933004299628
 20
298.7757498172612
 30
0.0
 10
-106.7459422697845
 20
298.9943247741447
 30
0.0
 10
-106.543515701273
 20
299.1784177454351
 30
0.0
 10
-106.1155046862028
 20
299.4962332344068
 30
0.0
 10
-105.8882962319381
 20
299.6303015814707
 30
0.0
 10
-105.4208608203885
 20
299.8515634412957
 30
0.0
 10
-105.1827683289642
 20
299.9381164178275
 30
0.0
 10
-104.8204474926727
 20
300.0372853524102
 30
0.0
 10
-104.6988034812435
 20
300.0651749969472
 30
0.0
 10
-104.4539443381114
 20
300.1109636406328
 30
0.0
 10
-104.3293935513491
 20
300.1289976703237
 30
0.0
 10
-104.2069028109472
 20
300.1417680389849
 30
0.0
  0
SPLINE
  5
165
330
1B
100
AcDbEntity
 67
     1
  8
0
  6
Continuous
 62
     7
370
    25
100
AcDbSpline
210
0.0
220
0.0
230
1.0
 70
     8
 71
     3
 72
     8
 73
     4
 74
     0
 42
0.000000001
 43
0.00000001
 40
0.0
 40
0.0
 40
0.0
 40
0.0
 40
0.0001289637430952
 40
0.0001289637430952
 40
0.0001289637430952
 40
0.0001289637430952
 10
107.4619401036723
 20
297.944384963872
 30
0.0
 10
107.4786465639743
 20
297.9075102621758
 30
0.0
 10
107.4946539122449
 20
297.8704758529252
 30
0.0
 10
107.5099574089018
 20
297.8333333333337
 30
0.0
  0
SPLINE
  5
16A
330
1B
100
AcDbEntity
 67
     1
  8
0
  6
Continuous
 62
     7
370
    25
100
AcDbSpline
210
0.0
220
0.0
230
1.0
 70
     8
 71
     3
 72
     8
 73
     4
 74
     0
 42
0.000000001
 43
0.00000001
 40
0.0
 40
0.0
 40
0.0
 40
0.0
 40
0.0001289637430952
 40
0.0001289637430952
 40
0.0001289637430952
 40
0.0001289637430952
 10
-107.5099574089021
 20
297.8333333333333
 30
0.0
 10
-107.4946539122452
 20
297.8704758529248
 30
0.0
 10
-107.4786465639747
 20
297.9075102621753
 30
0.0
 10
-107.4619401036727
 20
297.9443849638715
 30
0.0
  0
SPLINE
  5
16B
330
1B
100
AcDbEntity
 67
     1
  8
0
  6
Continuous
 62
     7
370
    25
100
AcDbSpline
210
0.0
220
0.0
230
1.0
 70
     8
 71
     3
 72
     8
 73
     4
 74
     0
 42
0.000000001
 43
0.00000001
 40
0.0
 40
0.0
 40
0.0
 40
0.0
 40
0.0001289637430952
 40
0.0001289637430952
 40
0.0001289637430952
 40
0.0001289637430952
 10
-122.5380598963277
 20
297.9443849638715
 30
0.0
 10
-122.5213534360257
 20
297.9075102621753
 30
0.0
 10
-122.5053460877551
 20
297.8704758529248
 30
0.0
 10
-122.4900425910982
 20
297.8333333333333
 30
0.0
  0
SPLINE
  5
1E9
330
1B
100
AcDbEntity
 67
     1
  8
0
  6
Continuous
 62
     8
370
    25
100
AcDbSpline
210
0.0
220
0.0
230
1.0
 70
     8
 71
     3
 72
    14
 73
    10
 74
     0
 42
0.000000001
 43
0.00000001
 40
0.0
 40
0.0
 40
0.0
 40
0.0
 40
0.0029572419348336
 40
0.0128805550371812
 40
0.0462571291228315
 40
0.1656916489566756
 40
0.5679460375070715
 40
0.9745105597135605
 40
1.0
 40
1.0
 40
1.0
 40
1.0
 10
174.4325877972724
 20
299.9999999999998
 30
0.0
 10
174.4353867755898
 20
300.0000024640369
 30
0.0
 10
174.4475779980392
 20
300.0000131963901
 30
0.0
 10
174.4913601925881
 20
300.0003487408253
 30
0.0
 10
174.6453638922853
 20
300.0047009148794
 30
0.0
 10
175.1711417289307
 20
300.055754947919
 30
0.0
 10
176.0390625961745
 20
300.3821192312571
 30
0.0
 10
176.8334697639363
 20
300.8666155079786
 30
0.0
 10
177.1998197999077
 20
301.2604009911014
 30
0.0
 10
177.2214329736695
 20
301.2836327455329
 30
0.0
  0
SPLINE
  5
1EC
330
1B
100
AcDbEntity
 67
     1
  8
0
  6
Continuous
 62
     8
370
    25
100
AcDbSpline
210
0.0
220
0.0
230
1.0
 70
     8
 71
     3
 72
    10
 73
     6
 74
     0
 42
0.000000001
 43
0.00000001
 40
0.0
 40
0.0
 40
0.0
 40
0.0
 40
0.0323368380794909
 40
0.5140886389583009
 40
1.0
 40
1.0
 40
1.0
 40
1.0
 10
-177.2217310665174
 20
301.2840158309845
 30
0.0
 10
-177.2000207997442
 20
301.2606631250313
 30
0.0
 10
-176.8548725985048
 20
300.8894035482592
 30
0.0
 10
-176.103072541088
 20
300.4017839807166
 30
0.0
 10
-175.3840286257954
 20
300.1729381840829
 30
0.0
 10
-175.0229612406991
 20
300.0580234318354
 30
0.0
  0
LINE
  5
204
330
1B
100
AcDbEntity
 67
     1
  8
0
  6
Continuous
 62
     7
370
    25
100
AcDbLine
 10
-36.0
 20
295.0
 30
0.0
 11
-36.0
 21
272.0
 31
0.0
  0
LINE
  5
205
330
1B
100
AcDbEntity
 67
     1
  8
0
  6
Continuous
 62
     7
370
    25
100
AcDbLine
 10
36.0
 20
272.0
 30
0.0
 11
36.0
 21
295.0
 31
0.0
  0
LINE
  5
206
330
1B
100
AcDbEntity
 67
     1
  8
0
  6
Continuous
 62
     7
370
    25
100
AcDbLine
 10
208.1
 20
216.7316441283
 30
0.0
 11
208.1
 21
306.7316441283
 31
0.0
  0
LINE
  5
207
330
1B
100
AcDbEntity
 67
     1
  8
0
  6
Continuous
 62
     7
370
    25
100
AcDbLine
 10
208.1
 20
306.7316441283
 30
0.0
 11
256.0
 21
306.7316441283
 31
0.0
  0
LINE
  5
208
330
1B
100
AcDbEntity
 67
     1
  8
0
  6
Continuous
 62
     7
370
    25
100
AcDbLine
 10
256.0
 20
212.0
 30
0.0
 11
256.0
 21
310.0
 31
0.0
  0
LINE
  5
209
330
1B
100
AcDbEntity
 67
     1
  8
0
  6
Continuous
 62
     7
370
    25
100
AcDbLine
 10
256.0
 20
216.7316441283
 30
0.0
 11
208.1
 21
216.7316441283
 31
0.0
  0
LINE
  5
20A
330
1B
100
AcDbEntity
 67
     1
  8
0
  6
Continuous
 62
     7
370
    25
100
AcDbLine
 10
223.1
 20
232.7316441283
 30
0.0
 11
239.1
 21
232.7316441283
 31
0.0
  0
LINE
  5
20B
330
1B
100
AcDbEntity
 67
     1
  8
0
  6
Continuous
 62
     7
370
    25
100
AcDbLine
 10
239.1
 20
226.7316441283
 30
0.0
 11
223.1
 21
226.7316441283
 31
0.0
  0
LINE
  5
20C
330
1B
100
AcDbEntity
 67
     1
  8
0
  6
Continuous
 62
     7
370
    25
100
AcDbLine
 10
228.1
 20
256.7316441283
 30
0.0
 11
228.1
 21
266.7316441283
 31
0.0
  0
LINE
  5
20D
330
1B
100
AcDbEntity
 67
     1
  8
0
  6
Continuous
 62
     7
370
    25
100
AcDbLine
 10
234.1
 20
266.7316441283
 30
0.0
 11
234.1
 21
256.7316441283
 31
0.0
  0
LINE
  5
20E
330
1B
100
AcDbEntity
 67
     1
  8
0
  6
Continuous
 62
     7
370
    25
100
AcDbLine
 10
223.1
 20
296.7316441283
 30
0.0
 11
239.1
 21
296.7316441283
 31
0.0
  0
LINE
  5
20F
330
1B
100
AcDbEntity
 67
     1
  8
0
  6
Continuous
 62
     7
370
    25
100
AcDbLine
 10
239.1
 20
290.7316441283
 30
0.0
 11
223.1
 21
290.7316441283
 31
0.0
  0
LINE
  5
210
330
1B
100
AcDbEntity
 67
     1
  8
0
  6
Continuous
 62
     7
370
    25
100
AcDbLine
 10
187.4776062384
 20
300.0
 30
0.0
 11
187.4776062384
 21
305.0
 31
0.0
  0
LINE
  5
211
330
1B
100
AcDbEntity
 67
     1
  8
0
  6
Continuous
 62
     7
370
    25
100
AcDbLine
 10
236.717993889
 20
341.3175911167
 30
0.0
 11
231.793955124
 21
342.185832005
 31
0.0
  0
LINE
  5
212
330
1B
100
AcDbEntity
 67
     1
  8
0
  6
Continuous
 62
     7
370
    25
100
AcDbLine
 10
245.6082046498
 20
391.7364817767
 30
0.0
 11
236.717993889
 21
341.3175911167
 31
0.0
  0
LINE
  5
213
330
1B
100
AcDbEntity
 67
     1
  8
0
  6
Continuous
 62
     7
370
    25
100
AcDbLine
 10
231.793955124
 20
342.185832005
 30
0.0
 11
240.6841658847
 21
392.604722665
 31
0.0
  0
LINE
  5
214
330
1B
100
AcDbEntity
 67
     1
  8
0
  6
Continuous
 62
     7
370
    25
100
AcDbLine
 10
245.6082046498
 20
391.7364817767
 30
0.0
 11
240.6841658847
 21
392.604722665
 31
0.0
  0
LINE
  5
215
330
1B
100
AcDbEntity
 67
     1
  8
0
  6
Continuous
 62
     7
370
    25
100
AcDbLine
 10
290.0
 20
445.0
 30
0.0
 11
-290.0
 21
445.0
 31
0.0
  0
LINE
  5
216
330
1B
100
AcDbEntity
 67
     1
  8
0
  6
Continuous
 62
     7
370
    25
100
AcDbLine
 10
300.0
 20
398.0
 30
0.0
 11
300.0
 21
435.0
 31
0.0
  0
LINE
  5
217
330
1B
100
AcDbEntity
 67
     1
  8
0
  6
Continuous
 62
     7
370
    25
100
AcDbLine
 10
297.0
 20
395.0
 30
0.0
 11
279.2
 21
395.0
 31
0.0
  0
LINE
  5
218
330
1B
100
AcDbEntity
 67
     1
  8
0
  6
Continuous
 62
     7
370
    25
100
AcDbLine
 10
285.0
 20
400.1010205144
 30
0.0
 11
285.0
 21
397.0
 31
0.0
  0
LINE
  5
219
330
1B
100
AcDbEntity
 67
     1
  8
0
  6
Continuous
 62
     7
370
    25
100
AcDbLine
 10
255.4562821799
 20
405.0
 30
0.0
 11
283.0
 21
405.0
 31
0.0
  0
LINE
  5
21A
330
1B
100
AcDbEntity
 67
     1
  8
0
  6
Continuous
 62
     7
370
    25
100
AcDbLine
 10
180.8205009495
 20
305.0
 30
0.0
 11
187.4776062384
 21
305.0
 31
0.0
  0
LINE
  5
21B
330
1B
100
AcDbEntity
 67
     1
  8
0
  6
Continuous
 62
     7
370
    25
100
AcDbLine
 10
-187.4776062384
 20
305.0
 30
0.0
 11
-180.8205009495
 21
305.0
 31
0.0
  0
LINE
  5
21C
330
1B
100
AcDbEntity
 67
     1
  8
0
  6
Continuous
 62
     7
370
    25
100
AcDbLine
 10
-240.6841658847
 20
392.604722665
 30
0.0
 11
-231.793955124
 21
342.185832005
 31
0.0
  0
LINE
  5
21D
330
1B
100
AcDbEntity
 67
     1
  8
0
  6
Continuous
 62
     7
370
    25
100
AcDbLine
 10
-283.0
 20
405.0
 30
0.0
 11
-255.4562821799
 21
405.0
 31
0.0
  0
LINE
  5
21E
330
1B
100
AcDbEntity
 67
     1
  8
0
  6
Continuous
 62
     7
370
    25
100
AcDbLine
 10
-285.0
 20
400.1010205144
 30
0.0
 11
-285.0
 21
397.0
 31
0.0
  0
LINE
  5
21F
330
1B
100
AcDbEntity
 67
     1
  8
0
  6
Continuous
 62
     7
370
    25
100
AcDbLine
 10
-279.2
 20
395.0
 30
0.0
 11
-297.0
 21
395.0
 31
0.0
  0
LINE
  5
220
330
1B
100
AcDbEntity
 67
     1
  8
0
  6
Continuous
 62
     7
370
    25
100
AcDbLine
 10
-300.0
 20
398.0
 30
0.0
 11
-300.0
 21
435.0
 31
0.0
  0
LINE
  5
221
330
1B
100
AcDbEntity
 67
     1
  8
0
  6
Continuous
 62
     7
370
    25
100
AcDbLine
 10
146.0
 20
410.0
 30
0.0
 11
134.0
 21
410.0
 31
0.0
  0
LINE
  5
222
330
1B
100
AcDbEntity
 67
     1
  8
0
  6
Continuous
 62
     7
370
    25
100
AcDbLine
 10
134.0
 20
390.0
 30
0.0
 11
146.0
 21
390.0
 31
0.0
  0
LINE
  5
223
330
1B
100
AcDbEntity
 67
     1
  8
0
  6
Continuous
 62
     7
370
    25
100
AcDbLine
 10
-146.0
 20
390.0
 30
0.0
 11
-134.0
 21
390.0
 31
0.0
  0
LINE
  5
224
330
1B
100
AcDbEntity
 67
     1
  8
0
  6
Continuous
 62
     7
370
    25
100
AcDbLine
 10
-134.0
 20
410.0
 30
0.0
 11
-146.0
 21
410.0
 31
0.0
  0
LINE
  5
225
330
1B
100
AcDbEntity
 67
     1
  8
0
  6
Continuous
 62
     7
370
    25
100
AcDbLine
 10
255.4562821799
 20
400.0
 30
0.0
 11
255.4562821799
 21
405.0
 31
0.0
  0
LINE
  5
226
330
1B
100
AcDbEntity
 67
     1
  8
0
  6
Continuous
 62
     7
370
    25
100
AcDbLine
 10
187.4776062384
 20
300.0
 30
0.0
 11
180.8205009495
 21
300.0
 31
0.0
  0
LINE
  5
227
330
1B
100
AcDbEntity
 67
     1
  8
0
  6
Continuous
 62
     7
370
    25
100
AcDbLine
 10
180.8205009495
 20
300.0
 30
0.0
 11
180.8205009495
 21
305.0
 31
0.0
  0
LINE
  5
228
330
1B
100
AcDbEntity
 67
     1
  8
0
  6
Continuous
 62
     7
370
    25
100
AcDbLine
 10
-255.4562821799
 20
400.0
 30
0.0
 11
-255.4562821799
 21
405.0
 31
0.0
  0
LINE
  5
229
330
1B
100
AcDbEntity
 67
     1
  8
0
  6
Continuous
 62
     7
370
    25
100
AcDbLine
 10
-255.4562821799
 20
400.0
 30
0.0
 11
-283.0
 21
400.0
 31
0.0
  0
LINE
  5
22A
330
1B
100
AcDbEntity
 67
     1
  8
0
  6
Continuous
 62
     7
370
    25
100
AcDbLine
 10
-283.0
 20
405.0
 30
0.0
 11
-283.0
 21
400.0
 31
0.0
  0
LINE
  5
22B
330
1B
100
AcDbEntity
 67
     1
  8
0
  6
Continuous
 62
     7
370
    25
100
AcDbLine
 10
-236.717993889
 20
341.3175911167
 30
0.0
 11
-245.6082046498
 21
391.7364817767
 31
0.0
  0
LINE
  5
22C
330
1B
100
AcDbEntity
 67
     1
  8
0
  6
Continuous
 62
     7
370
    25
100
AcDbLine
 10
-245.6082046498
 20
391.7364817767
 30
0.0
 11
-240.6841658847
 21
392.604722665
 31
0.0
  0
LINE
  5
22D
330
1B
100
AcDbEntity
 67
     1
  8
0
  6
Continuous
 62
     7
370
    25
100
AcDbLine
 10
-236.717993889
 20
341.3175911167
 30
0.0
 11
-231.793955124
 21
342.185832005
 31
0.0
  0
LINE
  5
22E
330
1B
100
AcDbEntity
 67
     1
  8
0
  6
Continuous
 62
     7
370
    25
100
AcDbLine
 10
178.2517399288
 20
300.7103069086
 30
0.0
 11
180.8205009495
 21
305.0
 31
0.0
  0
LINE
  5
22F
330
1B
100
AcDbEntity
 67
     1
  8
0
  6
Continuous
 62
     7
370
    25
100
AcDbLine
 10
-180.8205009495
 20
305.0
 30
0.0
 11
-178.2517399288
 21
300.7103069086
 31
0.0
  0
LINE
  5
230
330
1B
100
AcDbEntity
 67
     1
  8
0
  6
Continuous
 62
     7
370
    25
100
AcDbLine
 10
-187.4776062384
 20
300.0
 30
0.0
 11
-187.4776062384
 21
305.0
 31
0.0
  0
LINE
  5
231
330
1B
100
AcDbEntity
 67
     1
  8
0
  6
Continuous
 62
     7
370
    25
100
AcDbLine
 10
-180.8205009495
 20
300.0
 30
0.0
 11
-180.8205009495
 21
305.0
 31
0.0
  0
LINE
  5
232
330
1B
100
AcDbEntity
 67
     1
  8
0
  6
Continuous
 62
     7
370
    25
100
AcDbLine
 10
-180.8205009495
 20
300.0
 30
0.0
 11
-187.4776062384
 21
300.0
 31
0.0
  0
LINE
  5
233
330
1B
100
AcDbEntity
 67
     1
  8
0
  6
Continuous
 62
     7
370
    25
100
AcDbLine
 10
283.0
 20
400.0
 30
0.0
 11
283.0
 21
405.0
 31
0.0
  0
LINE
  5
234
330
1B
100
AcDbEntity
 67
     1
  8
0
  6
Continuous
 62
     7
370
    25
100
AcDbLine
 10
255.4562821799
 20
400.0
 30
0.0
 11
283.0
 21
400.0
 31
0.0
  0
LINE
  5
235
330
1B
100
AcDbEntity
 67
     1
  8
0
  6
Continuous
 62
     7
370
    25
100
AcDbLine
 10
-180.6535755775
 20
300.0
 30
0.0
 11
-180.6816943335
 21
300.0
 31
0.0
  0
LINE
  5
236
330
1B
100
AcDbEntity
 67
     1
  8
0
  6
Continuous
 62
     7
370
    25
100
AcDbLine
 10
27.5
 20
348.9084616575
 30
0.0
 11
27.5
 21
278.0
 31
0.0
  0
LINE
  5
237
330
1B
100
AcDbEntity
 67
     1
  8
0
  6
Continuous
 62
     7
370
    25
100
AcDbLine
 10
-27.5
 20
293.0
 30
0.0
 11
27.5
 21
293.0
 31
0.0
  0
LINE
  5
238
330
1B
100
AcDbEntity
 67
     1
  8
0
  6
Continuous
 62
     7
370
    25
100
AcDbLine
 10
22.5
 20
273.0
 30
0.0
 11
22.5
 21
349.2696815444
 31
0.0
  0
LINE
  5
239
330
1B
100
AcDbEntity
 67
     1
  8
0
  6
Continuous
 62
     7
370
    25
100
AcDbLine
 10
-27.5
 20
278.0
 30
0.0
 11
-27.5
 21
348.9084616575
 31
0.0
  0
LINE
  5
23A
330
1B
100
AcDbEntity
 67
     1
  8
0
  6
Continuous
 62
     7
370
    25
100
AcDbLine
 10
-22.5
 20
349.2696815444
 30
0.0
 11
-22.5
 21
273.0
 31
0.0
  0
LINE
  5
23B
330
1B
100
AcDbEntity
 67
     1
  8
0
  6
Continuous
 62
     7
370
    25
100
AcDbLine
 10
22.5
 20
273.0
 30
0.0
 11
-22.5
 21
273.0
 31
0.0
  0
LINE
  5
23C
330
1B
100
AcDbEntity
 67
     1
  8
0
  6
Continuous
 62
     7
370
    25
100
AcDbLine
 10
27.5
 20
320.0
 30
0.0
 11
141.1298414162
 21
320.0
 31
0.0
  0
LINE
  5
23D
330
1B
100
AcDbEntity
 67
     1
  8
0
  6
Continuous
 62
     7
370
    25
100
AcDbLine
 10
-32.5
 20
300.0
 30
0.0
 11
-32.5
 21
348.4744991952
 31
0.0
  0
LINE
  5
23E
330
1B
100
AcDbEntity
 67
     1
  8
0
  6
Continuous
 62
     7
370
    25
100
AcDbLine
 10
-141.1298414162
 20
320.0
 30
0.0
 11
-27.5
 21
320.0
 31
0.0
  0
LINE
  5
23F
330
1B
100
AcDbEntity
 67
     1
  8
0
  6
Continuous
 62
     7
370
    25
100
AcDbLine
 10
32.5
 20
348.4744991952
 30
0.0
 11
32.5
 21
300.0
 31
0.0
  0
LINE
  5
240
330
1B
100
AcDbEntity
 67
     1
  8
0
  6
Continuous
 62
     7
370
    25
100
AcDbLine
 10
104.2069028109
 20
300.141768039
 30
0.0
 11
123.0087075301
 21
300.141768039
 31
0.0
  0
LINE
  5
241
330
1B
100
AcDbEntity
 67
     1
  8
0
  6
Continuous
 62
     7
370
    25
100
AcDbLine
 10
104.2738761024
 20
300.0
 30
0.0
 11
32.5
 21
300.0
 31
0.0
  0
LINE
  5
242
330
1B
100
AcDbEntity
 67
     1
  8
0
  6
Continuous
 62
     7
370
    25
100
AcDbLine
 10
174.4325877973
 20
300.0
 30
0.0
 11
123.0
 21
300.0
 31
0.0
  0
LINE
  5
243
330
1B
100
AcDbEntity
 67
     1
  8
0
  6
Continuous
 62
     7
370
    25
100
AcDbLine
 10
-32.5
 20
300.0
 30
0.0
 11
-104.2738761024
 21
300.0
 31
0.0
  0
LINE
  5
244
330
1B
100
AcDbEntity
 67
     1
  8
0
  6
Continuous
 62
     7
370
    25
100
AcDbLine
 10
-174.4325877973
 20
300.141768039
 30
0.0
 11
-104.2069028109
 21
300.141768039
 31
0.0
  0
LINE
  5
245
330
1B
100
AcDbEntity
 67
     1
  8
0
  6
Continuous
 62
     7
370
    25
100
AcDbLine
 10
122.5346914521
 20
297.9443849639
 30
0.0
 11
107.4619401037
 21
297.9443849639
 31
0.0
  0
LINE
  5
246
330
1B
100
AcDbEntity
 67
     1
  8
0
  6
Continuous
 62
     7
370
    25
100
AcDbLine
 10
105.1178682259
 20
299.8746036456
 30
0.0
 11
104.2738761024
 21
300.0
 31
0.0
  0
LINE
  5
247
330
1B
100
AcDbEntity
 67
     1
  8
0
  6
Continuous
 62
     7
370
    25
100
AcDbLine
 10
-107.4619401037
 20
297.9443849639
 30
0.0
 11
-122.5380598963
 21
297.9443849639
 31
0.0
  0
LINE
  5
248
330
1B
100
AcDbEntity
 67
     1
  8
0
  6
Continuous
 62
     7
370
    25
100
AcDbLine
 10
-125.7261238976
 20
300.0
 30
0.0
 11
-175.8362082529
 21
300.0
 31
0.0
  0
LINE
  5
249
330
1B
100
AcDbEntity
 67
     1
  8
0
  6
Continuous
 62
     7
370
    25
100
AcDbLine
 10
-104.2738761024
 20
300.0
 30
0.0
 11
-105.1178682259
 21
299.8746036456
 31
0.0
  0
LINE
  5
24A
330
1B
100
AcDbEntity
 67
     1
  8
0
  6
Continuous
 62
     7
370
    25
100
AcDbLine
 10
116.0178799781
 20
293.5
 30
0.0
 11
36.0
 21
293.5
 31
0.0
  0
LINE
  5
24B
330
1B
100
AcDbEntity
 67
     1
  8
0
  6
Continuous
 62
     7
370
    25
100
AcDbLine
 10
-36.0
 20
293.5
 30
0.0
 11
-116.0178799781
 21
293.5
 31
0.0
  0
LINE
  5
24C
330
1B
100
AcDbEntity
 67
     1
  8
0
  6
Continuous
 62
     7
370
    25
100
AcDbLine
 10
-108.2375573753
 20
296.5
 30
0.0
 11
-77.0
 21
296.5
 31
0.0
  0
LINE
  5
24D
330
1B
100
AcDbEntity
 67
     1
  8
0
  6
Continuous
 62
     7
370
    25
100
AcDbLine
 10
77.0
 20
296.5
 30
0.0
 11
108.2375573753
 21
296.5
 31
0.0
  0
LINE
  5
24E
330
1B
100
AcDbEntity
 67
     1
  8
0
  6
Continuous
 62
     7
370
    25
100
AcDbLine
 10
34.0
 20
270.0
 30
0.0
 11
-34.0
 21
270.0
 31
0.0
  0
LINE
  5
24F
330
1B
100
AcDbEntity
 67
     1
  8
0
  6
Continuous
 62
     7
370
    25
100
AcDbLine
 10
-255.0
 20
395.0
 30
0.0
 11
-255.0
 21
399.9895849049
 31
0.0
  0
LINE
  5
250
330
1B
100
AcDbEntity
 67
     1
  8
0
  6
Continuous
 62
     7
370
    25
100
AcDbLine
 10
-246.796028142
 20
395.0
 30
0.0
 11
-261.0
 21
395.0
 31
0.0
  0
LINE
  5
251
330
1B
100
AcDbEntity
 67
     1
  8
0
  6
Continuous
 62
     7
370
    25
100
AcDbLine
 10
255.0
 20
395.0
 30
0.0
 11
255.0
 21
399.9895849049
 31
0.0
  0
LINE
  5
252
330
1B
100
AcDbEntity
 67
     1
  8
0
  6
Continuous
 62
     7
370
    25
100
AcDbLine
 10
261.0
 20
395.0
 30
0.0
 11
246.796028142
 21
395.0
 31
0.0
  0
LINE
  5
253
330
1B
100
AcDbEntity
 67
     1
  8
0
  6
Continuous
 62
     7
370
    25
100
AcDbLine
 10
-250.7
 20
47.5
 30
0.0
 11
-250.7
 21
31.5
 31
0.0
  0
LINE
  5
254
330
1B
100
AcDbEntity
 67
     1
  8
0
  6
Continuous
 62
     7
370
    25
100
AcDbLine
 10
-250.7
 20
47.5
 30
0.0
 11
249.3
 21
47.5
 31
0.0
  0
LINE
  5
255
330
1B
100
AcDbEntity
 67
     1
  8
0
  6
Continuous
 62
     7
370
    25
100
AcDbLine
 10
-250.7
 20
31.5
 30
0.0
 11
249.3
 21
31.5
 31
0.0
  0
LINE
  5
256
330
1B
100
AcDbEntity
 67
     1
  8
0
  6
Continuous
 62
     7
370
    25
100
AcDbLine
 10
249.3
 20
47.5
 30
0.0
 11
249.3
 21
31.5
 31
0.0
  0
LINE
  5
257
330
1B
100
AcDbEntity
 67
     1
  8
0
  6
Continuous
 62
     7
370
    25
100
AcDbLine
 10
-279.2
 20
0.0
 30
0.0
 11
279.2
 21
0.0
 31
0.0
  0
LINE
  5
258
330
1B
100
AcDbEntity
 67
     1
  8
0
  6
Continuous
 62
     7
370
    25
100
AcDbLine
 10
279.2
 20
0.0
 30
0.0
 11
279.2
 21
400.0
 31
0.0
  0
LINE
  5
259
330
1B
100
AcDbEntity
 67
     1
  8
0
  6
Continuous
 62
     7
370
    25
100
AcDbLine
 10
261.0
 20
0.0
 30
0.0
 11
261.0
 21
400.0
 31
0.0
  0
LINE
  5
25A
330
1B
100
AcDbEntity
 67
     1
  8
0
  6
Continuous
 62
     7
370
    25
100
AcDbLine
 10
256.0
 20
308.2
 30
0.0
 11
261.0
 21
308.2
 31
0.0
  0
LINE
  5
25B
330
1B
100
AcDbEntity
 67
     1
  8
0
  6
Continuous
 62
     7
370
    25
100
AcDbLine
 10
261.0
 20
213.8
 30
0.0
 11
256.0
 21
213.8
 31
0.0
  0
LINE
  5
25C
330
1B
100
AcDbEntity
 67
     1
  8
0
  6
Continuous
 62
     7
370
    25
100
AcDbLine
 10
259.0
 20
308.2
 30
0.0
 11
259.0
 21
213.8
 31
0.0
  0
LINE
  5
25D
330
1B
100
AcDbEntity
 67
     1
  8
0
  6
Continuous
 62
     7
370
    25
100
AcDbLine
 10
257.8
 20
212.0
 30
0.0
 11
256.0
 21
212.0
 31
0.0
  0
LINE
  5
25E
330
1B
100
AcDbEntity
 67
     1
  8
0
  6
Continuous
 62
     7
370
    25
100
AcDbLine
 10
257.8
 20
213.8
 30
0.0
 11
257.8
 21
212.0
 31
0.0
  0
LINE
  5
25F
330
1B
100
AcDbEntity
 67
     1
  8
0
  6
Continuous
 62
     7
370
    25
100
AcDbLine
 10
257.8
 20
310.0
 30
0.0
 11
256.0
 21
310.0
 31
0.0
  0
LINE
  5
260
330
1B
100
AcDbEntity
 67
     1
  8
0
  6
Continuous
 62
     7
370
    25
100
AcDbLine
 10
257.8
 20
310.0
 30
0.0
 11
257.8
 21
308.2
 31
0.0
  0
LINE
  5
261
330
1B
100
AcDbEntity
 67
     1
  8
0
  6
Continuous
 62
     7
370
    25
100
AcDbLine
 10
-256.0
 20
213.8
 30
0.0
 11
-261.0
 21
213.8
 31
0.0
  0
LINE
  5
262
330
1B
100
AcDbEntity
 67
     1
  8
0
  6
Continuous
 62
     7
370
    25
100
AcDbLine
 10
-261.0
 20
308.2
 30
0.0
 11
-256.0
 21
308.2
 31
0.0
  0
LINE
  5
263
330
1B
100
AcDbEntity
 67
     1
  8
0
  6
Continuous
 62
     7
370
    25
100
AcDbLine
 10
-259.0
 20
213.8
 30
0.0
 11
-259.0
 21
308.2
 31
0.0
  0
LINE
  5
264
330
1B
100
AcDbEntity
 67
     1
  8
0
  6
Continuous
 62
     7
370
    25
100
AcDbLine
 10
-256.0
 20
310.0
 30
0.0
 11
-256.0
 21
212.0
 31
0.0
  0
LINE
  5
265
330
1B
100
AcDbEntity
 67
     1
  8
0
  6
Continuous
 62
     7
370
    25
100
AcDbLine
 10
-257.8
 20
310.0
 30
0.0
 11
-256.0
 21
310.0
 31
0.0
  0
LINE
  5
266
330
1B
100
AcDbEntity
 67
     1
  8
0
  6
Continuous
 62
     7
370
    25
100
AcDbLine
 10
-257.8
 20
308.2
 30
0.0
 11
-257.8
 21
310.0
 31
0.0
  0
LINE
  5
267
330
1B
100
AcDbEntity
 67
     1
  8
0
  6
Continuous
 62
     7
370
    25
100
AcDbLine
 10
-257.8
 20
212.0
 30
0.0
 11
-256.0
 21
212.0
 31
0.0
  0
LINE
  5
268
330
1B
100
AcDbEntity
 67
     1
  8
0
  6
Continuous
 62
     7
370
    25
100
AcDbLine
 10
-257.8
 20
212.0
 30
0.0
 11
-257.8
 21
213.8
 31
0.0
  0
LINE
  5
269
330
1B
100
AcDbEntity
 67
     1
  8
0
  6
Continuous
 62
     7
370
    25
100
AcDbLine
 10
-261.0
 20
18.2
 30
0.0
 11
261.0
 21
18.2
 31
0.0
  0
LINE
  5
26A
330
1B
100
AcDbEntity
 67
     1
  8
0
  6
Continuous
 62
     7
370
    25
100
AcDbLine
 10
-261.0
 20
0.0
 30
0.0
 11
-261.0
 21
400.0
 31
0.0
  0
LINE
  5
26B
330
1B
100
AcDbEntity
 67
     1
  8
0
  6
Continuous
 62
     7
370
    25
100
AcDbLine
 10
-279.2
 20
0.0
 30
0.0
 11
-279.2
 21
400.0
 31
0.0
  0
LINE
  5
26C
330
1B
100
AcDbEntity
 67
     1
  8
0
  6
Continuous
 62
     7
370
    25
100
AcDbLine
 10
261.0
 20
394.5
 30
0.0
 11
246.5259966301
 21
394.5
 31
0.0
  0
LINE
  5
26D
330
1B
100
AcDbEntity
 67
     1
  8
0
  6
Continuous
 62
     7
370
    25
100
AcDbLine
 10
-246.5259966301
 20
394.5
 30
0.0
 11
-261.0
 21
394.5
 31
0.0
  0
LINE
  5
26E
330
1B
100
AcDbEntity
 67
     1
  8
0
  6
Continuous
 62
     7
370
    25
100
AcDbLine
 10
-208.1
 20
306.7316441283
 30
0.0
 11
-208.1
 21
216.7316441283
 31
0.0
  0
LINE
  5
26F
330
1B
100
AcDbEntity
 67
     1
  8
0
  6
Continuous
 62
     7
370
    25
100
AcDbLine
 10
-208.1
 20
216.7316441283
 30
0.0
 11
-256.0
 21
216.7316441283
 31
0.0
  0
LINE
  5
270
330
1B
100
AcDbEntity
 67
     1
  8
0
  6
Continuous
 62
     7
370
    25
100
AcDbLine
 10
-256.0
 20
306.7316441283
 30
0.0
 11
-208.1
 21
306.7316441283
 31
0.0
  0
LINE
  5
271
330
1B
100
AcDbEntity
 67
     1
  8
0
  6
Continuous
 62
     7
370
    25
100
AcDbLine
 10
-223.1
 20
290.7316441283
 30
0.0
 11
-239.1
 21
290.7316441283
 31
0.0
  0
LINE
  5
272
330
1B
100
AcDbEntity
 67
     1
  8
0
  6
Continuous
 62
     7
370
    25
100
AcDbLine
 10
-228.1
 20
266.7316441283
 30
0.0
 11
-228.1
 21
256.7316441283
 31
0.0
  0
LINE
  5
273
330
1B
100
AcDbEntity
 67
     1
  8
0
  6
Continuous
 62
     7
370
    25
100
AcDbLine
 10
-234.1
 20
256.7316441283
 30
0.0
 11
-234.1
 21
266.7316441283
 31
0.0
  0
LINE
  5
274
330
1B
100
AcDbEntity
 67
     1
  8
0
  6
Continuous
 62
     7
370
    25
100
AcDbLine
 10
-223.1
 20
226.7316441283
 30
0.0
 11
-239.1
 21
226.7316441283
 31
0.0
  0
LINE
  5
275
330
1B
100
AcDbEntity
 67
     1
  8
0
  6
Continuous
 62
     7
370
    25
100
AcDbLine
 10
-239.1
 20
232.7316441283
 30
0.0
 11
-223.1
 21
232.7316441283
 31
0.0
  0
LINE
  5
276
330
1B
100
AcDbEntity
 67
     1
  8
0
  6
Continuous
 62
     7
370
    25
100
AcDbLine
 10
-239.1
 20
296.7316441283
 30
0.0
 11
-223.1
 21
296.7316441283
 31
0.0
  0
LINE
  5
277
330
1B
100
AcDbEntity
 67
     1
  8
0
  6
Continuous
 62
     7
370
    25
100
AcDbLine
 10
-218.2999687854
 20
199.0
 30
0.0
 11
-218.2999687854
 21
49.0
 31
0.0
  0
LINE
  5
278
330
1B
100
AcDbEntity
 67
     1
  8
0
  6
Continuous
 62
     7
370
    25
100
AcDbLine
 10
-245.2
 20
199.0
 30
0.0
 11
-147.2
 21
199.0
 31
0.0
  0
LINE
  5
279
330
1B
100
AcDbEntity
 67
     1
  8
0
  6
Continuous
 62
     7
370
    25
100
AcDbLine
 10
-218.2999687854
 20
49.0
 30
0.0
 11
-199.2999687854
 21
49.0
 31
0.0
  0
LINE
  5
27A
330
1B
100
AcDbEntity
 67
     1
  8
0
  6
Continuous
 62
     7
370
    25
100
AcDbLine
 10
-199.2999687854
 20
199.0
 30
0.0
 11
-199.2999687854
 21
49.0
 31
0.0
  0
LINE
  5
27B
330
1B
100
AcDbEntity
 67
     1
  8
0
  6
Continuous
 62
     7
370
    25
100
AcDbLine
 10
-250.7
 20
33.0
 30
0.0
 11
-252.2
 21
33.0
 31
0.0
  0
LINE
  5
27C
330
1B
100
AcDbEntity
 67
     1
  8
0
  6
Continuous
 62
     7
370
    25
100
AcDbLine
 10
-252.2
 20
116.0
 30
0.0
 11
-245.2
 21
116.0
 31
0.0
  0
LINE
  5
27D
330
1B
100
AcDbEntity
 67
     1
  8
0
  6
Continuous
 62
     7
370
    25
100
AcDbLine
 10
-245.2
 20
199.0
 30
0.0
 11
-245.2
 21
116.0
 31
0.0
  0
LINE
  5
27E
330
1B
100
AcDbEntity
 67
     1
  8
0
  6
Continuous
 62
     7
370
    25
100
AcDbLine
 10
-252.2
 20
33.0
 30
0.0
 11
-252.2
 21
116.0
 31
0.0
  0
LINE
  5
27F
330
1B
100
AcDbEntity
 67
     1
  8
0
  6
Continuous
 62
     7
370
    25
100
AcDbLine
 10
197.8999687854
 20
199.0
 30
0.0
 11
197.8999687854
 21
49.0
 31
0.0
  0
LINE
  5
280
330
1B
100
AcDbEntity
 67
     1
  8
0
  6
Continuous
 62
     7
370
    25
100
AcDbLine
 10
145.8
 20
199.0
 30
0.0
 11
243.8
 21
199.0
 31
0.0
  0
LINE
  5
281
330
1B
100
AcDbEntity
 67
     1
  8
0
  6
Continuous
 62
     7
370
    25
100
AcDbLine
 10
216.8999687854
 20
199.0
 30
0.0
 11
216.8999687854
 21
49.0
 31
0.0
  0
LINE
  5
282
330
1B
100
AcDbEntity
 67
     1
  8
0
  6
Continuous
 62
     7
370
    25
100
AcDbLine
 10
216.8999687854
 20
49.0
 30
0.0
 11
197.8999687854
 21
49.0
 31
0.0
  0
LINE
  5
283
330
1B
100
AcDbEntity
 67
     1
  8
0
  6
Continuous
 62
     7
370
    25
100
AcDbLine
 10
243.8
 20
199.0
 30
0.0
 11
243.8
 21
116.0
 31
0.0
  0
LINE
  5
284
330
1B
100
AcDbEntity
 67
     1
  8
0
  6
Continuous
 62
     7
370
    25
100
AcDbLine
 10
250.8
 20
116.0
 30
0.0
 11
243.8
 21
116.0
 31
0.0
  0
LINE
  5
285
330
1B
100
AcDbEntity
 67
     1
  8
0
  6
Continuous
 62
     7
370
    25
100
AcDbLine
 10
250.8
 20
33.0
 30
0.0
 11
250.8
 21
116.0
 31
0.0
  0
LINE
  5
286
330
1B
100
AcDbEntity
 67
     1
  8
0
  6
Continuous
 62
     7
370
    25
100
AcDbLine
 10
249.3
 20
33.0
 30
0.0
 11
250.8
 21
33.0
 31
0.0
  0
LINE
  5
287
330
1B
100
AcDbEntity
 67
     1
  8
0
  6
Continuous
 62
     7
370
    25
100
AcDbLine
 10
-217.2
 20
47.5
 30
0.0
 11
-217.2
 21
49.0
 31
0.0
  0
LINE
  5
288
330
1B
100
AcDbEntity
 67
     1
  8
0
  6
Continuous
 62
     7
370
    25
100
AcDbLine
 10
215.8
 20
49.0
 30
0.0
 11
215.8
 21
47.5
 31
0.0
  0
LINE
  5
289
330
1B
100
AcDbEntity
 67
     1
  8
0
  6
Continuous
 62
     7
370
    25
100
AcDbLine
 10
-18.6285714286
 20
109.0
 30
0.0
 11
17.2285714286
 21
109.0
 31
0.0
  0
LINE
  5
28A
330
1B
100
AcDbEntity
 67
     1
  8
0
  6
Continuous
 62
     7
370
    25
100
AcDbLine
 10
-261.0
 20
344.0
 30
0.0
 11
-237.1909749484
 21
344.0
 31
0.0
  0
LINE
  5
28B
330
1B
100
AcDbEntity
 67
     1
  8
0
  6
Continuous
 62
     7
370
    25
100
AcDbLine
 10
237.1909749484
 20
344.0
 30
0.0
 11
261.0
 21
344.0
 31
0.0
  0
LINE
  5
28C
330
1B
100
AcDbEntity
 67
     1
  8
0
  6
Continuous
 62
     7
370
    25
100
AcDbLine
 10
208.1
 20
284.0
 30
0.0
 11
36.0
 21
284.0
 31
0.0
  0
LINE
  5
28D
330
1B
100
AcDbEntity
 67
     1
  8
0
  6
Continuous
 62
     7
370
    25
100
AcDbLine
 10
-36.0
 20
284.0
 30
0.0
 11
-208.1
 21
284.0
 31
0.0
  0
LINE
  5
28E
330
1B
100
AcDbEntity
 67
     1
  8
0
  6
Continuous
 62
     8
370
    25
100
AcDbLine
 10
-177.5458477632
 20
301.1318749196
 30
0.0
 11
-177.5496868065
 21
301.1604204724
 31
0.0
  0
LINE
  5
28F
330
1B
100
AcDbEntity
 67
     1
  8
0
  6
Continuous
 62
     8
370
    25
100
AcDbLine
 10
177.5433587884
 20
301.1113062699
 30
0.0
 11
177.5458477632
 21
301.1318749196
 31
0.0
  0
LINE
  5
290
330
1B
100
AcDbEntity
 67
     1
  8
0
  6
Continuous
 62
     8
370
    25
100
AcDbLine
 10
174.4325877973
 20
300.0
 30
0.0
 11
174.4325877973
 21
302.9642642776
 31
0.0
  0
LINE
  5
291
330
1B
100
AcDbEntity
 67
     1
  8
0
  6
Continuous
 62
     8
370
    25
100
AcDbLine
 10
-174.4325877973
 20
302.9642642776
 30
0.0
 11
-174.4325877973
 21
300.141768039
 31
0.0
  0
LINE
  5
292
330
1B
100
AcDbEntity
 67
     1
  8
0
  6
Continuous
 62
     8
370
    25
100
AcDbLine
 10
-36.0
 20
272.0
 30
0.0
 11
36.0
 21
272.0
 31
0.0
  0
LINE
  5
293
330
1B
100
AcDbEntity
 67
     1
  8
0
  6
Continuous
 62
     8
370
    25
100
AcDbLine
 10
-27.5
 20
295.0
 30
0.0
 11
-36.0
 21
295.0
 31
0.0
  0
LINE
  5
294
330
1B
100
AcDbEntity
 67
     1
  8
0
  6
Continuous
 62
     8
370
    25
100
AcDbLine
 10
36.0
 20
295.0
 30
0.0
 11
27.5
 21
295.0
 31
0.0
  0
LINE
  5
295
330
1B
100
AcDbEntity
 67
     1
  8
0
  6
Continuous
 62
     8
370
    25
100
AcDbLine
 10
76.7360813065
 20
297.8333333333
 30
0.0
 11
36.8802643019
 21
297.8333333333
 31
0.0
  0
LINE
  5
296
330
1B
100
AcDbEntity
 67
     1
  8
0
  6
Continuous
 62
     8
370
    25
100
AcDbLine
 10
-36.8802643019
 20
297.8333333333
 30
0.0
 11
-76.7360813065
 21
297.8333333333
 31
0.0
  0
LINE
  5
297
330
1B
100
AcDbEntity
 67
     1
  8
0
  6
Continuous
 62
     8
370
    25
100
AcDbLine
 10
-285.0
 20
397.0
 30
0.0
 11
-279.2
 21
397.0
 31
0.0
  0
LINE
  5
298
330
1B
100
AcDbEntity
 67
     1
  8
0
  6
Continuous
 62
     8
370
    25
100
AcDbLine
 10
-261.0
 20
397.0
 30
0.0
 11
-248.3148537513
 21
397.0
 31
0.0
  0
LINE
  5
299
330
1B
100
AcDbEntity
 67
     1
  8
0
  6
Continuous
 62
     8
370
    25
100
AcDbLine
 10
-249.4562821799
 20
398.0
 30
0.0
 11
-261.0
 21
398.0
 31
0.0
  0
LINE
  5
29A
330
1B
100
AcDbEntity
 67
     1
  8
0
  6
Continuous
 62
     8
370
    25
100
AcDbLine
 10
-279.2
 20
398.0
 30
0.0
 11
-285.0
 21
398.0
 31
0.0
  0
LINE
  5
29B
330
1B
100
AcDbEntity
 67
     1
  8
0
  6
Continuous
 62
     8
370
    25
100
AcDbLine
 10
248.3148537513
 20
397.0
 30
0.0
 11
261.0
 21
397.0
 31
0.0
  0
LINE
  5
29C
330
1B
100
AcDbEntity
 67
     1
  8
0
  6
Continuous
 62
     8
370
    25
100
AcDbLine
 10
279.2
 20
397.0
 30
0.0
 11
285.0
 21
397.0
 31
0.0
  0
LINE
  5
29D
330
1B
100
AcDbEntity
 67
     1
  8
0
  6
Continuous
 62
     8
370
    25
100
AcDbLine
 10
285.0
 20
398.0
 30
0.0
 11
279.2
 21
398.0
 31
0.0
  0
LINE
  5
29E
330
1B
100
AcDbEntity
 67
     1
  8
0
  6
Continuous
 62
     8
370
    25
100
AcDbLine
 10
261.0
 20
398.0
 30
0.0
 11
249.4562821799
 21
398.0
 31
0.0
  0
ARC
  5
29F
330
1B
100
AcDbEntity
 67
     1
  8
0
  6
Continuous
 62
     7
370
    25
100
AcDbCircle
 10
-180.6474824413
 20
304.9998789254
 30
0.0
 40
4.999878925371588
100
AcDbArc
 50
269.9998400785
 51
308.8165448213
  0
ARC
  5
2A0
330
1B
100
AcDbEntity
 67
     1
  8
0
  6
Continuous
 62
     7
370
    25
100
AcDbCircle
 10
180.6474823743
 20
304.9998786327
 30
0.0
 40
4.999878632593513
100
AcDbArc
 50
231.3968887469
 51
270.0020370846
  0
ARC
  5
2A1
330
1B
100
AcDbEntity
 67
     1
  8
0
  6
Continuous
 62
     7
370
    25
100
AcDbCircle
 10
-174.4325891633
 20
297.1657664614
 30
0.0
 40
5.000000173419447
100
AcDbArc
 50
120.639903837
 51
128.0037561725
  0
ARC
  5
2A2
330
1B
100
AcDbEntity
 67
     1
  8
0
  6
Continuous
 62
     7
370
    25
100
AcDbCircle
 10
174.4325891745
 20
297.1657664792
 30
0.0
 40
5.000000152433322
100
AcDbArc
 50
51.6917851936
 51
59.4431938298
  0
ARC
  5
2A3
330
1B
100
AcDbEntity
 67
     1
  8
0
  6
Continuous
 62
     7
370
    25
100
AcDbCircle
 10
34.0
 20
272.0
 30
0.0
 40
2.000000000000121
100
AcDbArc
 50
270.0
 51
360.0
  0
ARC
  5
2A4
330
1B
100
AcDbEntity
 67
     1
  8
0
  6
Continuous
 62
     7
370
    25
100
AcDbCircle
 10
-34.0
 20
272.0
 30
0.0
 40
2.000000000000071
100
AcDbArc
 50
180.0
 51
270.0
  0
ARC
  5
2A5
330
1B
100
AcDbEntity
 67
     1
  8
0
  6
Continuous
 62
     7
370
    25
100
AcDbCircle
 10
125.7261238976
 20
296.5
 30
0.0
 40
3.499999999999944
100
AcDbArc
 50
90.0
 51
157.5833744386
  0
ARC
  5
2A6
330
1B
100
AcDbEntity
 67
     1
  8
0
  6
Continuous
 62
     7
370
    25
100
AcDbCircle
 10
-41.0
 20
295.0
 30
0.0
 40
5.000000000000007
100
AcDbArc
 50
0.0
 51
90.0
  0
ARC
  5
2A7
330
1B
100
AcDbEntity
 67
     1
  8
0
  6
Continuous
 62
     7
370
    25
100
AcDbCircle
 10
41.0
 20
295.0
 30
0.0
 40
5.000000000000057
100
AcDbArc
 50
90.0
 51
180.0
  0
ARC
  5
2A8
330
1B
100
AcDbEntity
 67
     1
  8
0
  6
Continuous
 62
     7
370
    25
100
AcDbCircle
 10
223.1
 20
229.7316441283
 30
0.0
 40
3.000000000000057
100
AcDbArc
 50
90.0
 51
270.0
  0
ARC
  5
2A9
330
1B
100
AcDbEntity
 67
     1
  8
0
  6
Continuous
 62
     7
370
    25
100
AcDbCircle
 10
239.1
 20
229.7316441283
 30
0.0
 40
3.000000000000057
100
AcDbArc
 50
270.0
 51
90.0
  0
ARC
  5
2AA
330
1B
100
AcDbEntity
 67
     1
  8
0
  6
Continuous
 62
     7
370
    25
100
AcDbCircle
 10
231.1
 20
256.7316441283
 30
0.0
 40
3.0
100
AcDbArc
 50
180.0
 51
0.0
  0
ARC
  5
2AB
330
1B
100
AcDbEntity
 67
     1
  8
0
  6
Continuous
 62
     7
370
    25
100
AcDbCircle
 10
231.1
 20
266.7316441283
 30
0.0
 40
3.0
100
AcDbArc
 50
0.0
 51
180.0
  0
ARC
  5
2AC
330
1B
100
AcDbEntity
 67
     1
  8
0
  6
Continuous
 62
     7
370
    25
100
AcDbCircle
 10
223.1
 20
293.7316441283
 30
0.0
 40
3.0
100
AcDbArc
 50
90.0
 51
270.0
  0
ARC
  5
2AD
330
1B
100
AcDbEntity
 67
     1
  8
0
  6
Continuous
 62
     7
370
    25
100
AcDbCircle
 10
239.1
 20
293.7316441283
 30
0.0
 40
3.0
100
AcDbArc
 50
270.0
 51
90.0
  0
ARC
  5
2AE
330
1B
100
AcDbEntity
 67
     1
  8
0
  6
Continuous
 62
     7
370
    25
100
AcDbCircle
 10
187.4776062384
 20
350.0
 30
0.0
 40
50.00000000000012
100
AcDbArc
 50
300.0753482677
 51
350.0
  0
ARC
  5
2AF
330
1B
100
AcDbEntity
 67
     1
  8
0
  6
Continuous
 62
     7
370
    25
100
AcDbCircle
 10
187.4776062384
 20
350.0
 30
0.0
 40
49.9999999999979
100
AcDbArc
 50
270.0
 51
294.3586995321
  0
ARC
  5
2B0
330
1B
100
AcDbEntity
 67
     1
  8
0
  6
Continuous
 62
     7
370
    25
100
AcDbCircle
 10
187.4776062384
 20
350.0
 30
0.0
 40
45.00000000000011
100
AcDbArc
 50
270.0
 51
350.0
  0
ARC
  5
2B1
330
1B
100
AcDbEntity
 67
     1
  8
0
  6
Continuous
 62
     7
370
    25
100
AcDbCircle
 10
-290.0
 20
435.0
 30
0.0
 40
10.00000000000006
100
AcDbArc
 50
90.0
 51
180.0
  0
ARC
  5
2B2
330
1B
100
AcDbEntity
 67
     1
  8
0
  6
Continuous
 62
     7
370
    25
100
AcDbCircle
 10
290.0
 20
435.0
 30
0.0
 40
9.999999999999886
100
AcDbArc
 50
0.0
 51
90.0
  0
ARC
  5
2B3
330
1B
100
AcDbEntity
 67
     1
  8
0
  6
Continuous
 62
     7
370
    25
100
AcDbCircle
 10
297.0
 20
398.0
 30
0.0
 40
3.000000000000057
100
AcDbArc
 50
270.0
 51
0.0
  0
ARC
  5
2B4
330
1B
100
AcDbEntity
 67
     1
  8
0
  6
Continuous
 62
     7
370
    25
100
AcDbCircle
 10
287.0
 20
397.0
 30
0.0
 40
2.000000000000057
100
AcDbArc
 50
180.0
 51
270.0
  0
ARC
  5
2B5
330
1B
100
AcDbEntity
 67
     1
  8
0
  6
Continuous
 62
     7
370
    25
100
AcDbCircle
 10
255.4562821799
 20
390.0
 30
0.0
 40
15.00000000000049
100
AcDbArc
 50
90.0
 51
170.0
  0
ARC
  5
2B6
330
1B
100
AcDbEntity
 67
     1
  8
0
  6
Continuous
 62
     7
370
    25
100
AcDbCircle
 10
0.0
 20
3.0394643637
 30
0.0
 40
351.9605356362564
100
AcDbArc
 50
59.0859130088
 51
120.9140869912
  0
ARC
  5
2B7
330
1B
100
AcDbEntity
 67
     1
  8
0
  6
Continuous
 62
     7
370
    25
100
AcDbCircle
 10
-187.4776062384
 20
350.0
 30
0.0
 40
45.0
100
AcDbArc
 50
190.0
 51
270.0
  0
ARC
  5
2B8
330
1B
100
AcDbEntity
 67
     1
  8
0
  6
Continuous
 62
     7
370
    25
100
AcDbCircle
 10
-255.4562821799
 20
390.0
 30
0.0
 40
15.00000000000024
100
AcDbArc
 50
10.0
 51
90.0
  0
ARC
  5
2B9
330
1B
100
AcDbEntity
 67
     1
  8
0
  6
Continuous
 62
     7
370
    25
100
AcDbCircle
 10
-287.0
 20
397.0
 30
0.0
 40
2.000000000000171
100
AcDbArc
 50
270.0
 51
360.0
  0
ARC
  5
2BA
330
1B
100
AcDbEntity
 67
     1
  8
0
  6
Continuous
 62
     7
370
    25
100
AcDbCircle
 10
-297.0
 20
398.0
 30
0.0
 40
3.000000000000114
100
AcDbArc
 50
180.0
 51
270.0
  0
ARC
  5
2BB
330
1B
100
AcDbEntity
 67
     1
  8
0
  6
Continuous
 62
     7
370
    25
100
AcDbCircle
 10
146.0
 20
400.0
 30
0.0
 40
10.00000000000051
100
AcDbArc
 50
270.0
 51
90.0
  0
ARC
  5
2BC
330
1B
100
AcDbEntity
 67
     1
  8
0
  6
Continuous
 62
     7
370
    25
100
AcDbCircle
 10
134.0
 20
400.0
 30
0.0
 40
10.00000000000011
100
AcDbArc
 50
90.0
 51
270.0
  0
ARC
  5
2BD
330
1B
100
AcDbEntity
 67
     1
  8
0
  6
Continuous
 62
     7
370
    25
100
AcDbCircle
 10
-146.0
 20
400.0
 30
0.0
 40
10.00000000000051
100
AcDbArc
 50
90.0
 51
270.0
  0
ARC
  5
2BE
330
1B
100
AcDbEntity
 67
     1
  8
0
  6
Continuous
 62
     7
370
    25
100
AcDbCircle
 10
-134.0
 20
400.0
 30
0.0
 40
10.00000000000097
100
AcDbArc
 50
270.0
 51
90.0
  0
ARC
  5
2BF
330
1B
100
AcDbEntity
 67
     1
  8
0
  6
Continuous
 62
     7
370
    25
100
AcDbCircle
 10
255.4562821799
 20
390.0
 30
0.0
 40
9.999999999999606
100
AcDbArc
 50
90.0
 51
170.0
  0
ARC
  5
2C0
330
1B
100
AcDbEntity
 67
     1
  8
0
  6
Continuous
 62
     7
370
    25
100
AcDbCircle
 10
-283.0
 20
398.0
 30
0.0
 40
1.999999999999943
100
AcDbArc
 50
90.0
 51
180.0
  0
ARC
  5
2C1
330
1B
100
AcDbEntity
 67
     1
  8
0
  6
Continuous
 62
     7
370
    25
100
AcDbCircle
 10
0.0
 20
3.0394643637
 30
0.0
 40
346.9605356362605
100
AcDbArc
 50
59.0859130088
 51
120.9140869912
  0
ARC
  5
2C2
330
1B
100
AcDbEntity
 67
     1
  8
0
  6
Continuous
 62
     7
370
    25
100
AcDbCircle
 10
-187.4776062384
 20
350.0
 30
0.0
 40
49.99999999999727
100
AcDbArc
 50
245.6413004679
 51
270.0
  0
ARC
  5
2C3
330
1B
100
AcDbEntity
 67
     1
  8
0
  6
Continuous
 62
     7
370
    25
100
AcDbCircle
 10
-187.4776062384
 20
350.0
 30
0.0
 40
49.99999999999886
100
AcDbArc
 50
190.0
 51
239.9246517323
  0
ARC
  5
2C4
330
1B
100
AcDbEntity
 67
     1
  8
0
  6
Continuous
 62
     7
370
    25
100
AcDbCircle
 10
-180.8205009495
 20
305.0
 30
0.0
 40
4.999999999999545
100
AcDbArc
 50
270.0
 51
300.9140869912
  0
ARC
  5
2C5
330
1B
100
AcDbEntity
 67
     1
  8
0
  6
Continuous
 62
     7
370
    25
100
AcDbCircle
 10
180.8205009495
 20
305.0
 30
0.0
 40
4.999999999998937
100
AcDbArc
 50
239.0859130088
 51
270.0
  0
ARC
  5
2C6
330
1B
100
AcDbEntity
 67
     1
  8
0
  6
Continuous
 62
     7
370
    25
100
AcDbCircle
 10
283.0
 20
398.0
 30
0.0
 40
2.000000000000057
100
AcDbArc
 50
0.0
 51
90.0
  0
ARC
  5
2C7
330
1B
100
AcDbEntity
 67
     1
  8
0
  6
Continuous
 62
     7
370
    25
100
AcDbCircle
 10
-255.4562821799
 20
390.0
 30
0.0
 40
9.999999999999783
100
AcDbArc
 50
10.0
 51
90.0
  0
ARC
  5
2C8
330
1B
100
AcDbEntity
 67
     1
  8
0
  6
Continuous
 62
     7
370
    25
100
AcDbCircle
 10
22.5
 20
278.0
 30
0.0
 40
5.000000000000227
100
AcDbArc
 50
270.0
 51
360.0
  0
ARC
  5
2C9
330
1B
100
AcDbEntity
 67
     1
  8
0
  6
Continuous
 62
     7
370
    25
100
AcDbCircle
 10
-22.5
 20
278.0
 30
0.0
 40
5.000000000000014
100
AcDbArc
 50
180.0
 51
270.0
  0
ARC
  5
2CA
330
1B
100
AcDbEntity
 67
     1
  8
0
  6
Continuous
 62
     7
370
    25
100
AcDbCircle
 10
-32.1175881283
 20
298.7132587011
 30
0.0
 40
4.640346701198269
100
AcDbArc
 50
5.6769175607
 51
94.7271172904
  0
ARC
  5
2CB
330
1B
100
AcDbEntity
 67
     1
  8
0
  6
Continuous
 62
     7
370
    25
100
AcDbCircle
 10
32.1175881283
 20
298.7132587011
 30
0.0
 40
4.640346701198066
100
AcDbArc
 50
85.2728827096
 51
174.3230824393
  0
ARC
  5
2CC
330
1B
100
AcDbEntity
 67
     1
  8
0
  6
Continuous
 62
     7
370
    25
100
AcDbCircle
 10
32.5
 20
295.0
 30
0.0
 40
5.0
100
AcDbArc
 50
90.0
 51
180.0
  0
ARC
  5
2CD
330
1B
100
AcDbEntity
 67
     1
  8
0
  6
Continuous
 62
     7
370
    25
100
AcDbCircle
 10
-32.5
 20
295.0
 30
0.0
 40
5.000000000000057
100
AcDbArc
 50
0.0
 51
90.0
  0
ARC
  5
2CE
330
1B
100
AcDbEntity
 67
     1
  8
0
  6
Continuous
 62
     7
370
    25
100
AcDbCircle
 10
113.9821200219
 20
300.5
 30
0.0
 40
7.000000000000022
100
AcDbArc
 50
202.3926878054
 51
270.0
  0
ARC
  5
2CF
330
1B
100
AcDbEntity
 67
     1
  8
0
  6
Continuous
 62
     7
370
    25
100
AcDbCircle
 10
116.0178799781
 20
300.5
 30
0.0
 40
6.999999999999952
100
AcDbArc
 50
270.0
 51
338.5870100011
  0
ARC
  5
2D0
330
1B
100
AcDbEntity
 67
     1
  8
0
  6
Continuous
 62
     7
370
    25
100
AcDbCircle
 10
-113.9821200219
 20
300.5
 30
0.0
 40
7.000000000000058
100
AcDbArc
 50
270.0
 51
337.6073121946
  0
ARC
  5
2D1
330
1B
100
AcDbEntity
 67
     1
  8
0
  6
Continuous
 62
     7
370
    25
100
AcDbCircle
 10
-116.0178799781
 20
300.5
 30
0.0
 40
7.000000000000171
100
AcDbArc
 50
202.3926878054
 51
270.0
  0
ARC
  5
2D2
330
1B
100
AcDbEntity
 67
     1
  8
0
  6
Continuous
 62
     7
370
    25
100
AcDbCircle
 10
-73.5
 20
296.5
 30
0.0
 40
3.500000000000114
100
AcDbArc
 50
90.0
 51
180.0
  0
ARC
  5
2D3
330
1B
100
AcDbEntity
 67
     1
  8
0
  6
Continuous
 62
     7
370
    25
100
AcDbCircle
 10
73.5
 20
296.5
 30
0.0
 40
3.500000000000028
100
AcDbArc
 50
0.0
 51
90.0
  0
ARC
  5
2D4
330
1B
100
AcDbEntity
 67
     1
  8
0
  6
Continuous
 62
     7
370
    25
100
AcDbCircle
 10
-80.0
 20
296.5
 30
0.0
 40
2.999999999999972
100
AcDbArc
 50
270.0
 51
0.0
  0
ARC
  5
2D5
330
1B
100
AcDbEntity
 67
     1
  8
0
  6
Continuous
 62
     7
370
    25
100
AcDbCircle
 10
80.0
 20
296.5
 30
0.0
 40
2.999999999999972
100
AcDbArc
 50
180.0
 51
270.0
  0
ARC
  5
2D6
330
1B
100
AcDbEntity
 67
     1
  8
0
  6
Continuous
 62
     7
370
    25
100
AcDbCircle
 10
-223.1
 20
293.7316441283
 30
0.0
 40
3.0
100
AcDbArc
 50
270.0
 51
90.0
  0
ARC
  5
2D7
330
1B
100
AcDbEntity
 67
     1
  8
0
  6
Continuous
 62
     7
370
    25
100
AcDbCircle
 10
-239.1
 20
293.7316441283
 30
0.0
 40
3.0
100
AcDbArc
 50
90.0
 51
270.0
  0
ARC
  5
2D8
330
1B
100
AcDbEntity
 67
     1
  8
0
  6
Continuous
 62
     7
370
    25
100
AcDbCircle
 10
-231.1
 20
266.7316441283
 30
0.0
 40
3.0
100
AcDbArc
 50
0.0
 51
180.0
  0
ARC
  5
2D9
330
1B
100
AcDbEntity
 67
     1
  8
0
  6
Continuous
 62
     7
370
    25
100
AcDbCircle
 10
-231.1
 20
256.7316441283
 30
0.0
 40
3.0
100
AcDbArc
 50
180.0
 51
0.0
  0
ARC
  5
2DA
330
1B
100
AcDbEntity
 67
     1
  8
0
  6
Continuous
 62
     7
370
    25
100
AcDbCircle
 10
-223.1
 20
229.7316441283
 30
0.0
 40
3.000000000000057
100
AcDbArc
 50
270.0
 51
90.0
  0
ARC
  5
2DB
330
1B
100
AcDbEntity
 67
     1
  8
0
  6
Continuous
 62
     7
370
    25
100
AcDbCircle
 10
-239.1
 20
229.7316441283
 30
0.0
 40
3.000000000000057
100
AcDbArc
 50
90.0
 51
270.0
  0
ARC
  5
2DC
330
1B
100
AcDbEntity
 67
     1
  8
0
  6
Continuous
 62
     7
370
    25
100
AcDbCircle
 10
-219.2
 20
49.5
 30
0.0
 40
2.000000000000099
100
AcDbArc
 50
270.0
 51
345.5224878141
  0
ARC
  5
2DD
330
1B
100
AcDbEntity
 67
     1
  8
0
  6
Continuous
 62
     7
370
    25
100
AcDbCircle
 10
-247.2
 20
204.5
 30
0.0
 40
8.000000000000002
100
AcDbArc
 50
316.5674634422
 51
284.4775121859
  0
ARC
  5
2DE
330
1B
100
AcDbEntity
 67
     1
  8
0
  6
Continuous
 62
     7
370
    25
100
AcDbCircle
 10
217.8
 20
49.5
 30
0.0
 40
2.000000000000028
100
AcDbArc
 50
194.4775121859
 51
270.0
  0
ARC
  5
2DF
330
1B
100
AcDbEntity
 67
     1
  8
0
  6
Continuous
 62
     7
370
    25
100
AcDbCircle
 10
245.8
 20
204.5
 30
0.0
 40
8.000000000000014
100
AcDbArc
 50
255.5224878141
 51
223.4325365578
  0
ARC
  5
2E0
330
1B
100
AcDbEntity
 67
     1
  8
0
  6
Continuous
 62
     7
370
    25
100
AcDbCircle
 10
-147.2
 20
115.3775510204
 30
0.0
 40
83.62244897959194
100
AcDbArc
 50
20.0159596029
 51
90.0
  0
ARC
  5
2E1
330
1B
100
AcDbEntity
 67
     1
  8
0
  6
Continuous
 62
     7
370
    25
100
AcDbCircle
 10
-18.6285714286
 20
162.2142857143
 30
0.0
 40
53.21428571428571
100
AcDbArc
 50
200.0159596029
 51
270.0
  0
ARC
  5
2E2
330
1B
100
AcDbEntity
 67
     1
  8
0
  6
Continuous
 62
     7
370
    25
100
AcDbCircle
 10
17.2285714286
 20
162.2142857143
 30
0.0
 40
53.21428571428561
100
AcDbArc
 50
270.0
 51
339.9840403971
  0
ARC
  5
2E3
330
1B
100
AcDbEntity
 67
     1
  8
0
  6
Continuous
 62
     7
370
    25
100
AcDbCircle
 10
145.8
 20
115.3775510204
 30
0.0
 40
83.62244897959188
100
AcDbArc
 50
90.0
 51
159.9840403971
  0
VIEWPORT
  5
7B7
330
1B
100
AcDbEntity
 67
     1
  8
0
100
AcDbViewport
 10
0.0
 20
0.0
 30
0.0
 40
205.6
 41
156.0
 68
     1
 69
     1
 12
0.0
 22
222.5
 13
0.0
 23
0.0
 14
10.0
 24
10.0
 15
10.0
 25
10.0
 16
0.0
 26
0.0
 36
1.0
 17
0.0
 27
0.0
 37
0.0
 42
50.0
 43
0.0
 44
0.0
 45
464.3579766537
 50
0.0
 51
0.0
 72
   100
 90
   557152
  1

281
     0
 71
     1
 74
     0
110
0.0
120
0.0
130
0.0
111
1.0
121
0.0
131
0.0
112
0.0
122
1.0
132
0.0
 79
     0
146
0.0
  0
ENDSEC
  0
SECTION
  2
OBJECTS
  0
DICTIONARY
  5
C
330
0
100
AcDbDictionary
281
     1
  3
ACAD_GROUP
350
D
  3
ACAD_LAYOUT
350
1A
  3
ACAD_MLINESTYLE
350
17
  3
ACAD_PLOTSETTINGS
350
19
  3
ACAD_PLOTSTYLENAME
350
E
  3
ACAD_SCALELIST
350
47
  0
DICTIONARY
  5
D
102
{ACAD_REACTORS
330
C
102
}
330
C
100
AcDbDictionary
281
     1
  0
DICTIONARY
  5
1A
102
{ACAD_REACTORS
330
C
102
}
330
C
100
AcDbDictionary
281
     1
  3
_Back
350
1E
  3
_Bottom
350
3F0
  3
_Dimetric
350
6E8
  3
_Isometric
350
521
  3
_Left
350
26
  3
_Right
350
318
  3
_Top
350
34F
  3
_Trimetric
350
608
  3
Model
350
22
  0
DICTIONARY
  5
17
102
{ACAD_REACTORS
330
C
102
}
330
C
100
AcDbDictionary
281
     1
  3
Standard
350
18
  0
DICTIONARY
  5
19
102
{ACAD_REACTORS
330
C
102
}
330
C
100
AcDbDictionary
281
     1
  0
ACDBDICTIONARYWDFLT
  5
E
102
{ACAD_REACTORS
330
C
102
}
330
C
100
AcDbDictionary
281
     1
  3
Normal
350
F
100
AcDbDictionaryWithDefault
340
F
  0
DICTIONARY
  5
47
102
{ACAD_REACTORS
330
C
102
}
330
C
100
AcDbDictionary
281
     1
  3
A0
350
48
  3
A1
350
49
  3
A2
350
4A
  3
A3
350
4B
  3
A4
350
4C
  3
A5
350
4D
  3
A6
350
4E
  3
A7
350
4F
  3
A8
350
50
  3
A9
350
51
  3
B0
350
52
  3
B1
350
53
  3
B2
350
54
  3
B3
350
55
  3
B4
350
56
  3
B5
350
57
  3
B6
350
58
  3
B7
350
59
  3
B8
350
5A
  3
B9
350
5B
  3
C0
350
5C
  3
C1
350
5D
  3
C2
350
5E
  3
C3
350
5F
  3
C4
350
60
  3
C5
350
61
  3
C6
350
62
  3
C7
350
63
  3
C8
350
64
  3
C9
350
65
  3
D0
350
66
  3
D1
350
67
  3
D2
350
68
  0
LAYOUT
  5
1E
102
{ACAD_REACTORS
330
1A
102
}
330
1A
100
AcDbPlotSettings
  1

  2
none_device
  4
ISO_A4_(210.00_x_297.00_MM)
  6

 40
7.5
 41
20.0
 42
7.5
 43
20.0
 44
210.0
 45
297.0
 46
0.0
 47
0.0
 48
0.0
 49
0.0
140
0.0
141
0.0
142
1.0
143
2.3346303502
 70
   688
 72
     1
 73
     1
 74
     1
  7

 75
     0
147
0.4283333333
148
300.0
149
0.0
100
AcDbLayout
  1
_Back
 70
     1
 71
     1
 10
-346.6926070039
 20
-17.5097276265
 11
346.6926070039
 21
472.7626459144
 12
0.0
 22
0.0
 32
0.0
 14
-300.0
 24
0.0
 34
0.0
 15
300.0
 25
445.0
 35
0.0
146
0.0
 13
0.0
 23
0.0
 33
0.0
 16
1.0
 26
0.0
 36
0.0
 17
0.0
 27
1.0
 37
0.0
 76
     0
330
1B
331
7B7
  0
LAYOUT
  5
3F0
102
{ACAD_REACTORS
330
1A
102
}
330
1A
100
AcDbPlotSettings
  1

  2
none_device
  4
ISO_A4_(210.00_x_297.00_MM)
  6

 40
7.5
 41
20.0
 42
7.5
 43
20.0
 44
210.0
 45
297.0
 46
0.0
 47
0.0
 48
0.0
 49
0.0
140
0.0
141
0.0
142
1.0
143
2.3346303502
 70
   688
 72
     1
 73
     1
 74
     1
  7

 75
     0
147
0.4283333333
148
300.0
149
0.0
100
AcDbLayout
  1
_Bottom
 70
     1
 71
     5
 10
0.0
 20
0.0
 11
0.0
 21
0.0
 12
0.0
 22
0.0
 32
0.0
 14
0.0
 24
0.0
 34
0.0
 15
0.0
 25
0.0
 35
0.0
146
0.0
 13
0.0
 23
0.0
 33
0.0
 16
1.0
 26
0.0
 36
0.0
 17
0.0
 27
1.0
 37
0.0
 76
     0
330
3EF
331
7BF
  0
LAYOUT
  5
6E8
102
{ACAD_REACTORS
330
1A
102
}
330
1A
100
AcDbPlotSettings
  1

  2
none_device
  4
ISO_A4_(210.00_x_297.00_MM)
  6

 40
7.5
 41
20.0
 42
7.5
 43
20.0
 44
210.0
 45
297.0
 46
0.0
 47
0.0
 48
0.0
 49
0.0
140
0.0
141
0.0
142
1.0
143
2.3346303502
 70
   688
 72
     1
 73
     1
 74
     1
  7

 75
     0
147
0.4283333333
148
300.0
149
0.0
100
AcDbLayout
  1
_Dimetric
 70
     1
 71
     8
 10
0.0
 20
0.0
 11
0.0
 21
0.0
 12
0.0
 22
0.0
 32
0.0
 14
0.0
 24
0.0
 34
0.0
 15
0.0
 25
0.0
 35
0.0
146
0.0
 13
0.0
 23
0.0
 33
0.0
 16
1.0
 26
0.0
 36
0.0
 17
0.0
 27
1.0
 37
0.0
 76
     0
330
6E7
331
7C5
  0
LAYOUT
  5
521
102
{ACAD_REACTORS
330
1A
102
}
330
1A
100
AcDbPlotSettings
  1

  2
none_device
  4
ISO_A4_(210.00_x_297.00_MM)
  6

 40
7.5
 41
20.0
 42
7.5
 43
20.0
 44
210.0
 45
297.0
 46
0.0
 47
0.0
 48
0.0
 49
0.0
140
0.0
141
0.0
142
1.0
143
2.3346303502
 70
   688
 72
     1
 73
     1
 74
     1
  7

 75
     0
147
0.4283333333
148
300.0
149
0.0
100
AcDbLayout
  1
_Isometric
 70
     1
 71
     6
 10
0.0
 20
0.0
 11
0.0
 21
0.0
 12
0.0
 22
0.0
 32
0.0
 14
0.0
 24
0.0
 34
0.0
 15
0.0
 25
0.0
 35
0.0
146
0.0
 13
0.0
 23
0.0
 33
0.0
 16
1.0
 26
0.0
 36
0.0
 17
0.0
 27
1.0
 37
0.0
 76
     0
330
520
331
7C1
  0
LAYOUT
  5
26
102
{ACAD_REACTORS
330
1A
102
}
330
1A
100
AcDbPlotSettings
  1

  2
none_device
  4
ISO_A4_(210.00_x_297.00_MM)
  6

 40
7.5
 41
20.0
 42
7.5
 43
20.0
 44
210.0
 45
297.0
 46
0.0
 47
0.0
 48
0.0
 49
0.0
140
0.0
141
0.0
142
1.0
143
2.3346303502
 70
   688
 72
     1
 73
     1
 74
     1
  7

 75
     0
147
0.4283333333
148
300.0
149
0.0
100
AcDbLayout
  1
_Left
 70
     1
 71
     2
 10
0.0
 20
0.0
 11
0.0
 21
0.0
 12
0.0
 22
0.0
 32
0.0
 14
0.0
 24
0.0
 34
0.0
 15
0.0
 25
0.0
 35
0.0
146
0.0
 13
0.0
 23
0.0
 33
0.0
 16
1.0
 26
0.0
 36
0.0
 17
0.0
 27
1.0
 37
0.0
 76
     0
330
23
331
7B9
  0
LAYOUT
  5
318
102
{ACAD_REACTORS
330
1A
102
}
330
1A
100
AcDbPlotSettings
  1

  2
none_device
  4
ISO_A4_(210.00_x_297.00_MM)
  6

 40
7.5
 41
20.0
 42
7.5
 43
20.0
 44
210.0
 45
297.0
 46
0.0
 47
0.0
 48
0.0
 49
0.0
140
0.0
141
0.0
142
1.0
143
2.3346303502
 70
   688
 72
     1
 73
     1
 74
     1
  7

 75
     0
147
0.4283333333
148
300.0
149
0.0
100
AcDbLayout
  1
_Right
 70
     1
 71
     3
 10
0.0
 20
0.0
 11
0.0
 21
0.0
 12
0.0
 22
0.0
 32
0.0
 14
0.0
 24
0.0
 34
0.0
 15
0.0
 25
0.0
 35
0.0
146
0.0
 13
0.0
 23
0.0
 33
0.0
 16
1.0
 26
0.0
 36
0.0
 17
0.0
 27
1.0
 37
0.0
 76
     0
330
317
331
7BB
  0
LAYOUT
  5
34F
102
{ACAD_REACTORS
330
1A
102
}
330
1A
100
AcDbPlotSettings
  1

  2
none_device
  4
ISO_A4_(210.00_x_297.00_MM)
  6

 40
7.5
 41
20.0
 42
7.5
 43
20.0
 44
210.0
 45
297.0
 46
0.0
 47
0.0
 48
0.0
 49
0.0
140
0.0
141
0.0
142
1.0
143
2.3346303502
 70
   688
 72
     1
 73
     1
 74
     1
  7

 75
     0
147
0.4283333333
148
300.0
149
0.0
100
AcDbLayout
  1
_Top
 70
     1
 71
     4
 10
0.0
 20
0.0
 11
0.0
 21
0.0
 12
0.0
 22
0.0
 32
0.0
 14
0.0
 24
0.0
 34
0.0
 15
0.0
 25
0.0
 35
0.0
146
0.0
 13
0.0
 23
0.0
 33
0.0
 16
1.0
 26
0.0
 36
0.0
 17
0.0
 27
1.0
 37
0.0
 76
     0
330
34E
331
7BD
  0
LAYOUT
  5
608
102
{ACAD_REACTORS
330
1A
102
}
330
1A
100
AcDbPlotSettings
  1

  2
none_device
  4
ISO_A4_(210.00_x_297.00_MM)
  6

 40
7.5
 41
20.0
 42
7.5
 43
20.0
 44
210.0
 45
297.0
 46
0.0
 47
0.0
 48
0.0
 49
0.0
140
0.0
141
0.0
142
1.0
143
2.3346303502
 70
   688
 72
     1
 73
     1
 74
     1
  7

 75
     0
147
0.4283333333
148
300.0
149
0.0
100
AcDbLayout
  1
_Trimetric
 70
     1
 71
     7
 10
0.0
 20
0.0
 11
0.0
 21
0.0
 12
0.0
 22
0.0
 32
0.0
 14
0.0
 24
0.0
 34
0.0
 15
0.0
 25
0.0
 35
0.0
146
0.0
 13
0.0
 23
0.0
 33
0.0
 16
1.0
 26
0.0
 36
0.0
 17
0.0
 27
1.0
 37
0.0
 76
     0
330
607
331
7C3
  0
LAYOUT
  5
22
102
{ACAD_REACTORS
330
1A
102
}
330
1A
100
AcDbPlotSettings
  1

  2
none_device
  4
ANSI_A_(11.00_x_8.50_Inches)
  6

 40
6.35
 41
19.05
 42
6.35000508
 43
19.05000254
 44
279.4
 45
215.9
 46
133.34999746
 47
-13.67472627
 48
0.0
 49
0.0
140
0.0
141
0.0
142
0.01815
143
1.0
 70
  1696
 72
     0
 73
     0
 74
     0
  7

 75
     0
147
0.0179189148
148
-1300.4909072572
149
0.0
100
AcDbLayout
  1
Model
 70
     1
 71
     0
 10
0.0
 20
0.0
 11
420.0
 21
297.0
 12
0.0
 22
0.0
 32
0.0
 14
-300.0
 24
0.0
 34
0.0
 15
300.0
 25
445.0
 35
0.0
146
0.0
 13
0.0
 23
0.0
 33
0.0
 16
1.0
 26
0.0
 36
0.0
 17
0.0
 27
1.0
 37
0.0
 76
     0
330
1F
331
29
  0
MLINESTYLE
  5
18
102
{ACAD_REACTORS
330
17
102
}
330
17
100
AcDbMlineStyle
  2
Standard
 70
     0
  3

 62
   256
 51
90.0
 52
90.0
 71
     2
 49
0.5
 62
   256
  6
BYLAYER
 49
-0.5
 62
   256
  6
BYLAYER
  0
ACDBPLACEHOLDER
  5
F
102
{ACAD_REACTORS
330
E
102
}
330
E
  0
SCALE
  5
48
102
{ACAD_REACTORS
330
47
102
}
330
47
100
AcDbScale
 70
     0
300
1:1
140
1.0
141
1.0
290
     1
  0
SCALE
  5
49
102
{ACAD_REACTORS
330
47
102
}
330
47
100
AcDbScale
 70
     0
300
1:2
140
1.0
141
2.0
290
     0
  0
SCALE
  5
4A
102
{ACAD_REACTORS
330
47
102
}
330
47
100
AcDbScale
 70
     0
300
1:4
140
1.0
141
4.0
290
     0
  0
SCALE
  5
4B
102
{ACAD_REACTORS
330
47
102
}
330
47
100
AcDbScale
 70
     0
300
1:5
140
1.0
141
5.0
290
     0
  0
SCALE
  5
4C
102
{ACAD_REACTORS
330
47
102
}
330
47
100
AcDbScale
 70
     0
300
1:8
140
1.0
141
8.0
290
     0
  0
SCALE
  5
4D
102
{ACAD_REACTORS
330
47
102
}
330
47
100
AcDbScale
 70
     0
300
1:10
140
1.0
141
10.0
290
     0
  0
SCALE
  5
4E
102
{ACAD_REACTORS
330
47
102
}
330
47
100
AcDbScale
 70
     0
300
1:16
140
1.0
141
16.0
290
     0
  0
SCALE
  5
4F
102
{ACAD_REACTORS
330
47
102
}
330
47
100
AcDbScale
 70
     0
300
1:20
140
1.0
141
20.0
290
     0
  0
SCALE
  5
50
102
{ACAD_REACTORS
330
47
102
}
330
47
100
AcDbScale
 70
     0
300
1:30
140
1.0
141
30.0
290
     0
  0
SCALE
  5
51
102
{ACAD_REACTORS
330
47
102
}
330
47
100
AcDbScale
 70
     0
300
1:40
140
1.0
141
40.0
290
     0
  0
SCALE
  5
52
102
{ACAD_REACTORS
330
47
102
}
330
47
100
AcDbScale
 70
     0
300
1:50
140
1.0
141
50.0
290
     0
  0
SCALE
  5
53
102
{ACAD_REACTORS
330
47
102
}
330
47
100
AcDbScale
 70
     0
300
1:100
140
1.0
141
100.0
290
     0
  0
SCALE
  5
54
102
{ACAD_REACTORS
330
47
102
}
330
47
100
AcDbScale
 70
     0
300
2:1
140
2.0
141
1.0
290
     0
  0
SCALE
  5
55
102
{ACAD_REACTORS
330
47
102
}
330
47
100
AcDbScale
 70
     0
300
4:1
140
4.0
141
1.0
290
     0
  0
SCALE
  5
56
102
{ACAD_REACTORS
330
47
102
}
330
47
100
AcDbScale
 70
     0
300
8:1
140
8.0
141
1.0
290
     0
  0
SCALE
  5
57
102
{ACAD_REACTORS
330
47
102
}
330
47
100
AcDbScale
 70
     0
300
10:1
140
10.0
141
1.0
290
     0
  0
SCALE
  5
58
102
{ACAD_REACTORS
330
47
102
}
330
47
100
AcDbScale
 70
     0
300
100:1
140
100.0
141
1.0
290
     0
  0
SCALE
  5
59
102
{ACAD_REACTORS
330
47
102
}
330
47
100
AcDbScale
 70
     0
300
1/128" = 1'-0"
140
0.0078125
141
12.0
290
     0
  0
SCALE
  5
5A
102
{ACAD_REACTORS
330
47
102
}
330
47
100
AcDbScale
 70
     0
300
1/64" = 1'-0"
140
0.015625
141
12.0
290
     0
  0
SCALE
  5
5B
102
{ACAD_REACTORS
330
47
102
}
330
47
100
AcDbScale
 70
     0
300
1/32" = 1'-0"
140
0.03125
141
12.0
290
     0
  0
SCALE
  5
5C
102
{ACAD_REACTORS
330
47
102
}
330
47
100
AcDbScale
 70
     0
300
1/16" = 1'-0"
140
0.0625
141
12.0
290
     0
  0
SCALE
  5
5D
102
{ACAD_REACTORS
330
47
102
}
330
47
100
AcDbScale
 70
     0
300
3/32" = 1'-0"
140
0.09375
141
12.0
290
     0
  0
SCALE
  5
5E
102
{ACAD_REACTORS
330
47
102
}
330
47
100
AcDbScale
 70
     0
300
1/8" = 1'-0"
140
0.125
141
12.0
290
     0
  0
SCALE
  5
5F
102
{ACAD_REACTORS
330
47
102
}
330
47
100
AcDbScale
 70
     0
300
3/16" = 1'-0"
140
0.1875
141
12.0
290
     0
  0
SCALE
  5
60
102
{ACAD_REACTORS
330
47
102
}
330
47
100
AcDbScale
 70
     0
300
1/4" = 1'-0"
140
0.25
141
12.0
290
     0
  0
SCALE
  5
61
102
{ACAD_REACTORS
330
47
102
}
330
47
100
AcDbScale
 70
     0
300
3/8" = 1'-0"
140
0.375
141
12.0
290
     0
  0
SCALE
  5
62
102
{ACAD_REACTORS
330
47
102
}
330
47
100
AcDbScale
 70
     0
300
1/2" = 1'-0"
140
0.5
141
12.0
290
     0
  0
SCALE
  5
63
102
{ACAD_REACTORS
330
47
102
}
330
47
100
AcDbScale
 70
     0
300
3/4" = 1'-0"
140
0.75
141
12.0
290
     0
  0
SCALE
  5
64
102
{ACAD_REACTORS
330
47
102
}
330
47
100
AcDbScale
 70
     0
300
1" = 1'-0"
140
1.0
141
12.0
290
     0
  0
SCALE
  5
65
102
{ACAD_REACTORS
330
47
102
}
330
47
100
AcDbScale
 70
     0
300
1-1/2" = 1'-0"
140
1.5
141
12.0
290
     0
  0
SCALE
  5
66
102
{ACAD_REACTORS
330
47
102
}
330
47
100
AcDbScale
 70
     0
300
3" = 1'-0"
140
3.0
141
12.0
290
     0
  0
SCALE
  5
67
102
{ACAD_REACTORS
330
47
102
}
330
47
100
AcDbScale
 70
     0
300
6" = 1'-0"
140
6.0
141
12.0
290
     0
  0
SCALE
  5
68
102
{ACAD_REACTORS
330
47
102
}
330
47
100
AcDbScale
 70
     0
300
1'-0" = 1'-0"
140
12.0
141
12.0
290
     0
  0
ENDSEC
  0
EOF
