  0
SECTION
  2
HEADER
  9
$ACADVER
  1
AC1015
  9
$ACADMAINTVER
 70
     6
  9
$DWGCODEPAGE
  3
ANSI_1252
  9
$INSBASE
 10
0.0
 20
0.0
 30
0.0
  9
$EXTMIN
 10
-250.0
 20
-200.0
 30
0.0
  9
$EXTMAX
 10
250.0
 20
200.0
 30
0.0
  9
$LIMMIN
 10
0.0
 20
0.0
  9
$LIMMAX
 10
420.0
 20
297.0
  9
$ORTHOMODE
 70
     0
  9
$REGENMODE
 70
     1
  9
$FILLMODE
 70
     1
  9
$QTEXTMODE
 70
     0
  9
$MIRRTEXT
 70
     1
  9
$LTSCALE
 40
1.0
  9
$ATTMODE
 70
     1
  9
$TEXTSIZE
 40
3.5
  9
$TRACEWID
 40
1.0
  9
$TEXTSTYLE
  7
Standard
  9
$CLAYER
  8
0
  9
$CELTYPE
  6
ByLayer
  9
$CECOLOR
 62
   256
  9
$CELTSCALE
 40
1.0
  9
$DISPSILH
 70
     0
  9
$DIMSCALE
 40
1.0
  9
$DIMASZ
 40
3.302
  9
$DIMEXO
 40
1.0
  9
$DIMDLI
 40
3.75
  9
$DIMRND
 40
0.0
  9
$DIMDLE
 40
0.0
  9
$DIMEXE
 40
1.0
  9
$DIMTP
 40
0.0
  9
$DIMTM
 40
0.0
  9
$DIMTXT
 40
3.5
  9
$DIMCEN
 40
2.5
  9
$DIMTSZ
 40
0.0
  9
$DIMTOL
 70
     0
  9
$DIMLIM
 70
     0
  9
$DIMTIH
 70
     1
  9
$DIMTOH
 70
     1
  9
$DIMSE1
 70
     0
  9
$DIMSE2
 70
     0
  9
$DIMTAD
 70
     1
  9
$DIMZIN
 70
     1
  9
$DIMBLK
  1

  9
$DIMASO
 70
     1
  9
$DIMSHO
 70
     1
  9
$DIMPOST
  1

  9
$DIMAPOST
  1

  9
$DIMALT
 70
     0
  9
$DIMALTD
 70
     3
  9
$DIMALTF
 40
0.0393700787
  9
$DIMLFAC
 40
1.0
  9
$DIMTOFL
 70
     1
  9
$DIMTVP
 40
0.0
  9
$DIMTIX
 70
     0
  9
$DIMSOXD
 70
     0
  9
$DIMSAH
 70
     0
  9
$DIMBLK1
  1

  9
$DIMBLK2
  1

  9
$DIMSTYLE
  2
ISO-25
  9
$DIMCLRD
 70
     0
  9
$DIMCLRE
 70
     0
  9
$DIMCLRT
 70
     0
  9
$DIMTFAC
 40
1.0
  9
$DIMGAP
 40
1.524
  9
$DIMJUST
 70
     0
  9
$DIMSD1
 70
     0
  9
$DIMSD2
 70
     0
  9
$DIMTOLJ
 70
     0
  9
$DIMTZIN
 70
     1
  9
$DIMALTZ
 70
     0
  9
$DIMALTTZ
 70
     0
  9
$DIMUPT
 70
     0
  9
$DIMDEC
 70
     2
  9
$DIMTDEC
 70
     2
  9
$DIMALTU
 70
     2
  9
$DIMALTTD
 70
     3
  9
$DIMTXSTY
  7
Standard
  9
$DIMAUNIT
 70
     0
  9
$DIMADEC
 70
     2
  9
$DIMALTRND
 40
0.0
  9
$DIMAZIN
 70
     0
  9
$DIMDSEP
 70
    44
  9
$DIMATFIT
 70
     3
  9
$DIMFRAC
 70
     0
  9
$DIMLDRBLK
  1

  9
$DIMLUNIT
 70
     2
  9
$DIMLWD
 70
    -2
  9
$DIMLWE
 70
    -2
  9
$DIMTMOVE
 70
     0
  9
$LUNITS
 70
     2
  9
$LUPREC
 70
     2
  9
$SKETCHINC
 40
1.0
  9
$FILLETRAD
 40
10.0
  9
$AUNITS
 70
     0
  9
$AUPREC
 70
     2
  9
$MENU
  1
.
  9
$ELEVATION
 40
0.0
  9
$PELEVATION
 40
0.0
  9
$THICKNESS
 40
0.0
  9
$LIMCHECK
 70
     0
  9
$CHAMFERA
 40
0.0
  9
$CHAMFERB
 40
0.0
  9
$CHAMFERC
 40
0.0
  9
$CHAMFERD
 40
0.0
  9
$SKPOLY
 70
     0
  9
$TDCREATE
 40
2460409.648380961
  9
$TDUCREATE
 40
2460409.606714294
  9
$TDUPDATE
 40
2460409.648437951
  9
$TDUUPDATE
 40
2460409.606771285
  9
$TDINDWG
 40
0.0000000116
  9
$TDUSRTIMER
 40
0.0000000116
  9
$USRTIMER
 70
     1
  9
$ANGBASE
 50
0.0
  9
$ANGDIR
 70
     0
  9
$PDMODE
 70
     0
  9
$PDSIZE
 40
-1.0
  9
$PLINEWID
 40
0.0
  9
$SPLFRAME
 70
     0
  9
$SPLINETYPE
 70
     6
  9
$SPLINESEGS
 70
     8
  9
$HANDSEED
  5
6F4
  9
$SURFTAB1
 70
     6
  9
$SURFTAB2
 70
     6
  9
$SURFTYPE
 70
     6
  9
$SURFU
 70
     6
  9
$SURFV
 70
     6
  9
$UCSBASE
  2

  9
$UCSNAME
  2

  9
$UCSORG
 10
0.0
 20
0.0
 30
0.0
  9
$UCSXDIR
 10
1.0
 20
0.0
 30
0.0
  9
$UCSYDIR
 10
0.0
 20
1.0
 30
0.0
  9
$UCSORTHOREF
  2

  9
$UCSORTHOVIEW
 70
     0
  9
$UCSORGTOP
 10
0.0
 20
0.0
 30
0.0
  9
$UCSORGBOTTOM
 10
0.0
 20
0.0
 30
0.0
  9
$UCSORGLEFT
 10
0.0
 20
0.0
 30
0.0
  9
$UCSORGRIGHT
 10
0.0
 20
0.0
 30
0.0
  9
$UCSORGFRONT
 10
0.0
 20
0.0
 30
0.0
  9
$UCSORGBACK
 10
0.0
 20
0.0
 30
0.0
  9
$PUCSBASE
  2

  9
$PUCSNAME
  2

  9
$PUCSORG
 10
0.0
 20
0.0
 30
0.0
  9
$PUCSXDIR
 10
1.0
 20
0.0
 30
0.0
  9
$PUCSYDIR
 10
0.0
 20
1.0
 30
0.0
  9
$PUCSORTHOREF
  2

  9
$PUCSORTHOVIEW
 70
     0
  9
$PUCSORGTOP
 10
0.0
 20
0.0
 30
0.0
  9
$PUCSORGBOTTOM
 10
0.0
 20
0.0
 30
0.0
  9
$PUCSORGLEFT
 10
0.0
 20
0.0
 30
0.0
  9
$PUCSORGRIGHT
 10
0.0
 20
0.0
 30
0.0
  9
$PUCSORGFRONT
 10
0.0
 20
0.0
 30
0.0
  9
$PUCSORGBACK
 10
0.0
 20
0.0
 30
0.0
  9
$USERI1
 70
     0
  9
$USERI2
 70
     0
  9
$USERI3
 70
     0
  9
$USERI4
 70
     0
  9
$USERI5
 70
     0
  9
$USERR1
 40
0.0
  9
$USERR2
 40
0.0
  9
$USERR3
 40
0.0
  9
$USERR4
 40
0.0
  9
$USERR5
 40
0.0
  9
$WORLDVIEW
 70
     1
  9
$SHADEDGE
 70
     3
  9
$SHADEDIF
 70
    70
  9
$TILEMODE
 70
     1
  9
$MAXACTVP
 70
    64
  9
$PINSBASE
 10
0.0
 20
0.0
 30
0.0
  9
$PLIMCHECK
 70
     0
  9
$PEXTMIN
 10
-250.0
 20
0.0
 30
0.0
  9
$PEXTMAX
 10
250.0
 20
175.0
 30
0.0
  9
$PLIMMIN
 10
-288.9105058366
 20
-14.5914396887
  9
$PLIMMAX
 10
288.9105058366
 20
393.9688715953
  9
$UNITMODE
 70
     0
  9
$VISRETAIN
 70
     1
  9
$PLINEGEN
 70
     0
  9
$PSLTSCALE
 70
     1
  9
$TREEDEPTH
 70
  3020
  9
$CMLSTYLE
  2
Standard
  9
$CMLJUST
 70
     0
  9
$CMLSCALE
 40
20.0
  9
$PROXYGRAPHICS
 70
     1
  9
$MEASUREMENT
 70
     1
  9
$CELWEIGHT
370
    -1
  9
$ENDCAPS
280
     0
  9
$JOINSTYLE
280
     0
  9
$LWDISPLAY
290
     1
  9
$INSUNITS
 70
     4
  9
$HYPERLINKBASE
  1

  9
$STYLESHEET
  1

  9
$XEDIT
290
     1
  9
$CEPSNTYPE
380
     0
  9
$PSTYLEMODE
290
     1
  9
$FINGERPRINTGUID
  2
{33c1dc56-43f1-4a3e-8f49-d9baad00fe42}
  9
$VERSIONGUID
  2
{FAEB1C32-E019-11D5-929B-00C0DF256EC4}
  9
$EXTNAMES
290
     1
  9
$PSVPSCALE
 40
0.0
  9
$OLESTARTUP
290
     0
  0
ENDSEC
  0
SECTION
  2
CLASSES
  0
CLASS
  1
ACDBDICTIONARYWDFLT
  2
AcDbDictionaryWithDefault
  3
ObjectDBX Classes
 90
        0
280
     0
281
     0
  0
CLASS
  1
VISUALSTYLE
  2
AcDbVisualStyle
  3
ObjectDBX Classes
 90
     4095
280
     0
281
     0
  0
CLASS
  1
MATERIAL
  2
AcDbMaterial
  3
ObjectDBX Classes
 90
     1153
280
     0
281
     0
  0
CLASS
  1
SCALE
  2
AcDbScale
  3
ObjectDBX Classes
 90
     1153
280
     0
281
     0
  0
CLASS
  1
TABLESTYLE
  2
AcDbTableStyle
  3
ObjectDBX Classes
 90
     4095
280
     0
281
     0
  0
CLASS
  1
MLEADERSTYLE
  2
AcDbMLeaderStyle
  3
ACDB_MLEADERSTYLE_CLASS
 90
     4095
280
     0
281
     0
  0
CLASS
  1
SUN
  2
AcDbSun
  3
SCENEOE
 90
     1153
280
     0
281
     0
  0
CLASS
  1
ACDBPLACEHOLDER
  2
AcDbPlaceHolder
  3
ObjectDBX Classes
 90
        0
280
     0
281
     0
  0
CLASS
  1
LAYOUT
  2
AcDbLayout
  3
ObjectDBX Classes
 90
        0
280
     0
281
     0
  0
ENDSEC
  0
SECTION
  2
TABLES
  0
TABLE
  2
VPORT
  5
8
330
0
100
AcDbSymbolTable
 70
     1
  0
VPORT
  5
29
330
8
100
AcDbSymbolTableRecord
100
AcDbViewportTableRecord
  2
*Active
 70
     0
 10
0.0
 20
0.0
 11
1.0
 21
1.0
 12
0.0
 22
0.0
 13
0.0
 23
0.0
 14
10.0
 24
10.0
 15
10.0
 25
10.0
 16
0.0
 26
0.0
 36
1.0
 17
0.0
 27
0.0
 37
0.0
 40
408.0
 41
1.25
 42
50.0
 43
0.0
 44
0.0
 50
0.0
 51
0.0
 71
     0
 72
   100
 73
     1
 74
     3
 75
     0
 76
     0
 77
     0
 78
     0
281
     0
 65
     1
110
0.0
120
0.0
130
0.0
111
1.0
121
0.0
131
0.0
112
0.0
122
1.0
132
0.0
 79
     0
146
0.0
  0
ENDTAB
  0
TABLE
  2
LTYPE
  5
5
330
0
100
AcDbSymbolTable
 70
     6
  0
LTYPE
  5
14
330
5
100
AcDbSymbolTableRecord
100
AcDbLinetypeTableRecord
  2
ByBlock
 70
     0
  3

 72
    65
 73
     0
 40
0.0
  0
LTYPE
  5
15
330
5
100
AcDbSymbolTableRecord
100
AcDbLinetypeTableRecord
  2
ByLayer
 70
     0
  3

 72
    65
 73
     0
 40
0.0
  0
LTYPE
  5
16
330
5
100
AcDbSymbolTableRecord
100
AcDbLinetypeTableRecord
  2
Continuous
 70
     0
  3
Solid line
 72
    65
 73
     0
 40
0.0
  0
LTYPE
  5
6E
330
5
100
AcDbSymbolTableRecord
100
AcDbLinetypeTableRecord
  2
HIDDEN
 70
     0
  3
Hidden __ __ __ __ __ __ __ __ __ __ __ __ __ __
 72
    65
 73
     2
 40
1.905
 49
1.27
 74
     0
 49
-0.635
 74
     0
  0
LTYPE
  5
6F
330
5
100
AcDbSymbolTableRecord
100
AcDbLinetypeTableRecord
  2
PHANTOM
 70
     0
  3
Phantom ______  __  __  ______  __  __  ______
 72
    65
 73
     6
 40
12.7
 49
6.35
 74
     0
 49
-1.27
 74
     0
 49
1.27
 74
     0
 49
-1.27
 74
     0
 49
1.27
 74
     0
 49
-1.27
 74
     0
  0
LTYPE
  5
70
330
5
100
AcDbSymbolTableRecord
100
AcDbLinetypeTableRecord
  2
CENTER
 70
     0
  3
Center ____ _ ____ _ ____ _ ____ _ ____ _ ____
 72
    65
 73
     4
 40
10.16
 49
6.35
 74
     0
 49
-1.27
 74
     0
 49
1.27
 74
     0
 49
-1.27
 74
     0
  0
LTYPE
  5
71
330
5
100
AcDbSymbolTableRecord
100
AcDbLinetypeTableRecord
  2
CENTERX2
 70
     0
  3
Center (2x) ________  __  ________  __  _____
 72
    65
 73
     4
 40
20.32
 49
12.7
 74
     0
 49
-2.54
 74
     0
 49
2.54
 74
     0
 49
-2.54
 74
     0
  0
LTYPE
  5
72
330
5
100
AcDbSymbolTableRecord
100
AcDbLinetypeTableRecord
  2
DOT2
 70
     0
  3
Dot (.5x) ........................................
 72
    65
 73
     2
 40
0.635
 49
0.0
 74
     0
 49
-0.635
 74
     0
  0
ENDTAB
  0
TABLE
  2
LAYER
  5
2
330
0
100
AcDbSymbolTable
 70
     1
  0
LAYER
  5
10
330
2
100
AcDbSymbolTableRecord
100
AcDbLayerTableRecord
  2
0
 70
     0
 62
     7
  6
Continuous
370
    -3
390
F
  0
ENDTAB
  0
TABLE
  2
STYLE
  5
3
330
0
100
AcDbSymbolTable
 70
     1
  0
STYLE
  5
11
330
3
100
AcDbSymbolTableRecord
100
AcDbTextStyleTableRecord
  2
Standard
 70
     0
 40
0.0
 41
1.0
 50
0.0
 71
     0
 42
3.5
  3
txt
  4

  0
ENDTAB
  0
TABLE
  2
VIEW
  5
6
330
0
100
AcDbSymbolTable
 70
     0
  0
ENDTAB
  0
TABLE
  2
UCS
  5
7
330
0
100
AcDbSymbolTable
 70
     0
  0
ENDTAB
  0
TABLE
  2
APPID
  5
9
330
0
100
AcDbSymbolTable
 70
     1
  0
APPID
  5
12
330
9
100
AcDbSymbolTableRecord
100
AcDbRegAppTableRecord
  2
ACAD
 70
     0
  0
ENDTAB
  0
TABLE
  2
DIMSTYLE
  5
A
330
0
100
AcDbSymbolTable
 70
     1
100
AcDbDimStyleTable
  0
DIMSTYLE
105
27
330
A
100
AcDbSymbolTableRecord
100
AcDbDimStyleTableRecord
  2
ISO-25
 70
     0
 41
2.5
 42
0.625
 43
3.75
 44
1.25
 73
     0
 74
     0
 77
     1
 78
     8
140
2.5
141
2.5
143
0.0393700787
147
0.625
171
     3
172
     1
178
     0
271
     2
272
     2
274
     3
278
    44
283
     0
284
     8
340
11
  0
ENDTAB
  0
TABLE
  2
BLOCK_RECORD
  5
1
330
0
100
AcDbSymbolTable
 70
     4
  0
BLOCK_RECORD
  5
1F
330
1
100
AcDbSymbolTableRecord
100
AcDbBlockTableRecord
  2
*Model_Space
340
22
  0
BLOCK_RECORD
  5
1B
330
1
100
AcDbSymbolTableRecord
100
AcDbBlockTableRecord
  2
*Paper_Space
340
1E
  0
BLOCK_RECORD
  5
23
330
1
100
AcDbSymbolTableRecord
100
AcDbBlockTableRecord
  2
*Paper_Space0
340
26
  0
BLOCK_RECORD
  5
389
330
1
100
AcDbSymbolTableRecord
100
AcDbBlockTableRecord
  2
*Paper_Space1
340
38A
  0
BLOCK_RECORD
  5
40A
330
1
100
AcDbSymbolTableRecord
100
AcDbBlockTableRecord
  2
*Paper_Space2
340
40B
  0
BLOCK_RECORD
  5
4AC
330
1
100
AcDbSymbolTableRecord
100
AcDbBlockTableRecord
  2
*Paper_Space3
340
4AD
  0
ENDTAB
  0
ENDSEC
  0
SECTION
  2
BLOCKS
  0
BLOCK
  5
20
330
1F
100
AcDbEntity
  8
0
100
AcDbBlockBegin
  2
*Model_Space
 70
     0
 10
0.0
 20
0.0
 30
0.0
  3
*Model_Space
  1

  0
ENDBLK
  5
21
330
1F
100
AcDbEntity
  8
0
100
AcDbBlockEnd
  0
BLOCK
  5
1C
330
1B
100
AcDbEntity
 67
     1
  8
0
100
AcDbBlockBegin
  2
*Paper_Space
 70
     0
 10
0.0
 20
0.0
 30
0.0
  3
*Paper_Space
  1

  0
ENDBLK
  5
1D
330
1B
100
AcDbEntity
 67
     1
  8
0
100
AcDbBlockEnd
  0
BLOCK
  5
24
330
23
100
AcDbEntity
  8
0
100
AcDbBlockBegin
  2
*Paper_Space0
 70
     0
 10
0.0
 20
0.0
 30
0.0
  3
*Paper_Space0
  1

  0
SPLINE
  5
34A
330
23
100
AcDbEntity
  8
0
  6
Continuous
 62
     7
370
    25
100
AcDbSpline
210
0.0
220
0.0
230
1.0
 70
     8
 71
     3
 72
    22
 73
    18
 74
     0
 42
0.000000001
 43
0.00000001
 40
0.0
 40
0.0
 40
0.0
 40
0.0
 40
0.125
 40
0.125
 40
0.25
 40
0.25
 40
0.375
 40
0.375
 40
0.5
 40
0.5
 40
0.625
 40
0.625
 40
0.75
 40
0.75
 40
0.875
 40
0.875
 40
1.0
 40
1.0
 40
1.0
 40
1.0
 10
-195.7970239170013
 20
52.41180954897472
 30
0.0
 10
-195.5938584975444
 20
53.1700332167287
 30
0.0
 10
-195.105456731132
 20
53.85181115534829
 30
0.0
 10
-193.5753460675956
 20
55.03851353507412
 30
0.0
 10
-192.5336689533794
 20
55.54341332642607
 30
0.0
 10
-189.9336823592068
 20
56.35856470274573
 30
0.0
 10
-188.3754268852352
 20
56.66879935568274
 30
0.0
 10
-184.7971586516613
 20
57.0836829603134
 30
0.0
 10
-182.7772202185574
 20
57.18832329419431
 30
0.0
 10
-178.3467282812028
 20
57.18832329419426
 30
0.0
 10
-175.9362668055344
 20
57.08368296031333
 30
0.0
 10
-170.8096318802513
 20
56.66879935568258
 30
0.0
 10
-168.0935649192503
 20
56.35856470274555
 30
0.0
 10
-162.451391972793
 20
55.54341332642581
 30
0.0
 10
-159.5254031845204
 20
55.03851353507384
 30
0.0
 10
-153.5664589463844
 20
53.85181115534795
 30
0.0
 10
-150.5336272735639
 20
53.17003321672833
 30
0.0
 10
-147.500732602548
 20
52.4118095489743
 30
0.0
  0
SPLINE
  5
34B
330
23
100
AcDbEntity
  8
0
  6
Continuous
 62
     7
370
    25
100
AcDbSpline
210
0.0
220
0.0
230
1.0
 70
     8
 71
     3
 72
    10
 73
     6
 74
     0
 42
0.000000001
 43
0.00000001
 40
0.0
 40
0.0
 40
0.0
 40
0.0
 40
0.0584262647455935
 40
0.5391185017068773
 40
1.0
 40
1.0
 40
1.0
 40
1.0
 10
-196.8013842032799
 20
50.0
 30
0.0
 10
-196.7809929103341
 20
50.03236789449497
 30
0.0
 10
-196.592835694591
 20
50.33103718063745
 30
0.0
 10
-196.2481433255556
 20
51.01106242770702
 30
0.0
 10
-195.9452729191443
 20
51.95148937864965
 30
0.0
 10
-195.7970239170014
 20
52.41180954897447
 30
0.0
  0
SPLINE
  5
34C
330
23
100
AcDbEntity
  8
0
  6
Continuous
 62
     7
370
    25
100
AcDbSpline
210
0.0
220
0.0
230
1.0
 70
     8
 71
     3
 72
    22
 73
    18
 74
     0
 42
0.000000001
 43
0.00000001
 40
0.0
 40
0.0
 40
0.0
 40
0.0
 40
0.125
 40
0.125
 40
0.25
 40
0.25
 40
0.375
 40
0.375
 40
0.5
 40
0.5
 40
0.625
 40
0.625
 40
0.75
 40
0.75
 40
0.875
 40
0.875
 40
1.0
 40
1.0
 40
1.0
 40
1.0
 10
147.5007326025477
 20
52.41180954897484
 30
0.0
 10
150.5336272735636
 20
53.17003321672882
 30
0.0
 10
153.5664589463841
 20
53.85181115534844
 30
0.0
 10
159.52540318452
 20
55.03851353507425
 30
0.0
 10
162.4513919727927
 20
55.54341332642622
 30
0.0
 10
168.0935649192501
 20
56.35856470274589
 30
0.0
 10
170.8096318802511
 20
56.66879935568293
 30
0.0
 10
175.9362668055342
 20
57.08368296031362
 30
0.0
 10
178.3467282812026
 20
57.18832329419455
 30
0.0
 10
182.7772202185573
 20
57.18832329419455
 30
0.0
 10
184.7971586516611
 20
57.08368296031362
 30
0.0
 10
188.3754268852351
 20
56.6687993556829
 30
0.0
 10
189.9336823592067
 20
56.35856470274588
 30
0.0
 10
192.5336689533793
 20
55.54341332642618
 30
0.0
 10
193.5753460675955
 20
55.03851353507424
 30
0.0
 10
195.1054567311317
 20
53.85181115534841
 30
0.0
 10
195.5938584975443
 20
53.1700332167288
 30
0.0
 10
195.7970239170011
 20
52.41180954897481
 30
0.0
  0
SPLINE
  5
34D
330
23
100
AcDbEntity
  8
0
  6
Continuous
 62
     7
370
    25
100
AcDbSpline
210
0.0
220
0.0
230
1.0
 70
     8
 71
     3
 72
    10
 73
     6
 74
     0
 42
0.000000001
 43
0.00000001
 40
0.0
 40
0.0
 40
0.0
 40
0.0
 40
0.4608772560860471
 40
0.9415650684907919
 40
0.9999999999999999
 40
0.9999999999999999
 40
0.9999999999999999
 40
0.9999999999999999
 10
195.7970239170012
 20
52.41180954897469
 30
0.0
 10
195.945272955716
 20
51.95149428949498
 30
0.0
 10
196.2481434368429
 20
51.01107737133304
 30
0.0
 10
196.5928385714732
 20
50.33099121409366
 30
0.0
 10
196.780999408298
 20
50.03236750144999
 30
0.0
 10
196.8013939580304
 20
50.0
 30
0.0
  0
LWPOLYLINE
  5
34E
330
23
100
AcDbEntity
  8
0
  6
Continuous
 62
     7
370
    25
100
AcDbPolyline
 90
       19
 70
   128
 43
0.0
 10
-195.6082046498
 20
53.2635182233
 10
-195.2438351554
 20
54.2960535168
 10
-194.5284654086
 20
55.2588215096
 10
-193.4672327953
 20
56.1449081399
 10
-192.0677584952
 20
56.9479500286
 10
-190.3400927505
 20
57.6621801776
 10
-188.2966426915
 20
58.282469385
 10
-185.9520832346
 20
58.8043630804
 10
-183.3232516957
 20
59.2241133148
 10
-180.4290268742
 20
59.5387056767
 10
-177.2901934754
 20
59.7458809394
 10
-173.929292847
 20
59.8441512859
 10
-170.3704610994
 20
59.8328109937
 10
-166.6392557736
 20
59.7119415022
 10
-162.7624723015
 20
59.4824108286
 10
-158.7679515756
 20
59.145867334
 10
-154.684380012
 20
58.7047278858
 10
-150.5410835398
 20
58.1621605009
 10
-146.3678169992
 20
57.5220615951
  0
LWPOLYLINE
  5
352
330
23
100
AcDbEntity
  8
0
  6
Continuous
 62
     7
370
    25
100
AcDbPolyline
 90
       19
 70
   128
 43
0.0
 10
146.3678169992
 20
57.5220615951
 10
150.5410835398
 20
58.1621605009
 10
154.684380012
 20
58.7047278858
 10
158.7679515756
 20
59.145867334
 10
162.7624723015
 20
59.4824108286
 10
166.6392557736
 20
59.7119415022
 10
170.3704610994
 20
59.8328109937
 10
173.929292847
 20
59.8441512859
 10
177.2901934754
 20
59.7458809394
 10
180.4290268742
 20
59.5387056767
 10
183.3232516957
 20
59.2241133148
 10
185.9520832346
 20
58.8043630804
 10
188.2966426915
 20
58.282469385
 10
190.3400927505
 20
57.6621801776
 10
192.0677584952
 20
56.9479500286
 10
193.4672327953
 20
56.1449081399
 10
194.5284654086
 20
55.2588215096
 10
195.2438351554
 20
54.2960535168
 10
195.6082046498
 20
53.2635182233
  0
LWPOLYLINE
  5
358
330
23
100
AcDbEntity
  8
0
  6
Continuous
 62
     7
370
    25
100
AcDbPolyline
 90
       19
 70
   128
 43
0.0
 10
-186.717993889
 20
103.6824088833
 10
-186.3536243946
 20
104.7149441769
 10
-185.6382546479
 20
105.6777121696
 10
-184.5770220346
 20
106.5637987999
 10
-183.1775477344
 20
107.3668406886
 10
-181.4498819898
 20
108.0810708376
 10
-179.4064319308
 20
108.701360045
 10
-177.0618724738
 20
109.2232537404
 10
-174.433040935
 20
109.6430039749
 10
-171.5388161134
 20
109.9575963367
 10
-168.3999827147
 20
110.1647715994
 10
-165.0390820863
 20
110.263041946
 10
-161.4802503387
 20
110.2517016537
 10
-157.7490450129
 20
110.1308321622
 10
-153.8722615407
 20
109.9013014886
 10
-149.8777408149
 20
109.564757994
 10
-145.7941692513
 20
109.1236185458
 10
-141.6508727791
 20
108.5810511609
 10
-137.4776062384
 20
107.9409522551
  0
LWPOLYLINE
  5
35A
330
23
100
AcDbEntity
  8
0
  6
Continuous
 62
     7
370
    25
100
AcDbPolyline
 90
       19
 70
   128
 43
0.0
 10
137.4776062384
 20
107.9409522551
 10
141.6508727791
 20
108.5810511609
 10
145.7941692513
 20
109.1236185458
 10
149.8777408149
 20
109.564757994
 10
153.8722615407
 20
109.9013014886
 10
157.7490450129
 20
110.1308321622
 10
161.4802503387
 20
110.2517016537
 10
165.0390820863
 20
110.263041946
 10
168.3999827147
 20
110.1647715994
 10
171.5388161134
 20
109.9575963367
 10
174.433040935
 20
109.6430039749
 10
177.0618724738
 20
109.2232537404
 10
179.4064319308
 20
108.701360045
 10
181.4498819898
 20
108.0810708376
 10
183.1775477344
 20
107.3668406886
 10
184.5770220346
 20
106.5637987999
 10
185.6382546479
 20
105.6777121696
 10
186.3536243946
 20
104.7149441769
 10
186.717993889
 20
103.6824088833
  0
SPLINE
  5
361
330
23
100
AcDbEntity
  8
0
  6
Continuous
 62
     8
370
    25
100
AcDbSpline
210
0.0
220
0.0
230
1.0
 70
     8
 71
     3
 72
    10
 73
     6
 74
     0
 42
0.000000001
 43
0.00000001
 40
0.0
 40
0.0
 40
0.0
 40
0.0
 40
0.4608772561333647
 40
0.9415650685879987
 40
1.0
 40
1.0
 40
1.0
 40
1.0
 10
-147.5007326025484
 20
52.41180954897449
 30
0.0
 10
-148.3902255595798
 20
51.95149428945515
 30
0.0
 10
-150.2074458410109
 20
51.0110773712117
 30
0.0
 10
-152.2756308415638
 20
50.33099121406794
 30
0.0
 10
-153.4045830039531
 20
50.03236750140147
 30
0.0
 10
-153.5269489084289
 20
50.0
 30
0.0
  0
SPLINE
  5
362
330
23
100
AcDbEntity
  8
0
  6
Continuous
 62
     8
370
    25
100
AcDbSpline
210
0.0
220
0.0
230
1.0
 70
     8
 71
     3
 72
    10
 73
     6
 74
     0
 42
0.000000001
 43
0.00000001
 40
0.0
 40
0.0
 40
0.0
 40
0.0
 40
0.058426264826179
 40
0.5391185017460686
 40
1.0
 40
1.0
 40
1.0
 40
1.0
 10
153.5268870158193
 20
50.0
 30
0.0
 10
153.4045418416522
 20
50.03236789454427
 30
0.0
 10
152.2756223875495
 20
50.3310371807513
 30
0.0
 10
150.2074418579936
 20
51.01106242779972
 30
0.0
 10
148.3902242506618
 20
51.9514893786801
 30
0.0
 10
147.5007326025478
 20
52.41180954897467
 30
0.0
  0
LINE
  5
365
330
23
100
AcDbEntity
  8
0
  6
Continuous
 62
     7
370
    25
100
AcDbLine
 10
36.0
 20
150.0
 30
0.0
 11
36.0
 21
173.0
 31
0.0
  0
LINE
  5
366
330
23
100
AcDbEntity
  8
0
  6
Continuous
 62
     7
370
    25
100
AcDbLine
 10
-36.0
 20
173.0
 30
0.0
 11
-36.0
 21
150.0
 31
0.0
  0
LINE
  5
367
330
23
100
AcDbEntity
  8
0
  6
Continuous
 62
     7
370
    25
100
AcDbLine
 10
240.0
 20
0.0
 30
0.0
 11
-240.0
 21
0.0
 31
0.0
  0
LINE
  5
368
330
23
100
AcDbEntity
  8
0
  6
Continuous
 62
     7
370
    25
100
AcDbLine
 10
-210.0
 20
50.0
 30
0.0
 11
-210.0
 21
0.0
 31
0.0
  0
LINE
  5
369
330
23
100
AcDbEntity
  8
0
  6
Continuous
 62
     7
370
    25
100
AcDbLine
 10
-250.0
 20
10.0
 30
0.0
 11
250.0
 21
10.0
 31
0.0
  0
LINE
  5
36A
330
23
100
AcDbEntity
  8
0
  6
Continuous
 62
     7
370
    25
100
AcDbLine
 10
210.0
 20
0.0
 30
0.0
 11
210.0
 21
50.0
 31
0.0
  0
LINE
  5
36B
330
23
100
AcDbEntity
  8
0
  6
Continuous
 62
     7
370
    25
100
AcDbLine
 10
250.0
 20
47.0
 30
0.0
 11
-250.0
 21
47.0
 31
0.0
  0
LINE
  5
36C
330
23
100
AcDbEntity
  8
0
  6
Continuous
 62
     7
370
    25
100
AcDbLine
 10
250.0
 20
47.0
 30
0.0
 11
250.0
 21
10.0
 31
0.0
  0
LINE
  5
36D
330
23
100
AcDbEntity
  8
0
  6
Continuous
 62
     7
370
    25
100
AcDbLine
 10
-250.0
 20
10.0
 30
0.0
 11
-250.0
 21
47.0
 31
0.0
  0
LINE
  5
36E
330
23
100
AcDbEntity
  8
0
  6
Continuous
 62
     7
370
    25
100
AcDbLine
 10
-247.0
 20
50.0
 30
0.0
 11
247.0
 21
50.0
 31
0.0
  0
LINE
  5
36F
330
23
100
AcDbEntity
  8
0
  6
Continuous
 62
     7
370
    25
100
AcDbLine
 10
-147.5007326025
 20
52.411809549
 30
0.0
 11
147.5007326025
 21
52.411809549
 31
0.0
  0
LINE
  5
370
330
23
100
AcDbEntity
  8
0
  6
Continuous
 62
     7
370
    25
100
AcDbLine
 10
-137.4776062384
 20
107.9409522551
 30
0.0
 11
-146.3678169992
 21
57.5220615951
 31
0.0
  0
LINE
  5
371
330
23
100
AcDbEntity
  8
0
  6
Continuous
 62
     7
370
    25
100
AcDbLine
 10
137.4776062384
 20
107.9409522551
 30
0.0
 11
-137.4776062384
 21
107.9409522551
 31
0.0
  0
LINE
  5
372
330
23
100
AcDbEntity
  8
0
  6
Continuous
 62
     7
370
    25
100
AcDbLine
 10
146.3678169992
 20
57.5220615951
 30
0.0
 11
137.4776062384
 21
107.9409522551
 31
0.0
  0
LINE
  5
373
330
23
100
AcDbEntity
  8
0
  6
Continuous
 62
     7
370
    25
100
AcDbLine
 10
-195.6082046498
 20
53.2635182233
 30
0.0
 11
-186.717993889
 21
103.6824088833
 31
0.0
  0
LINE
  5
374
330
23
100
AcDbEntity
  8
0
  6
Continuous
 62
     7
370
    25
100
AcDbLine
 10
186.717993889
 20
103.6824088833
 30
0.0
 11
195.6082046498
 21
53.2635182233
 31
0.0
  0
LINE
  5
375
330
23
100
AcDbEntity
  8
0
  6
Continuous
 62
     7
370
    25
100
AcDbLine
 10
-137.4776062384
 20
145.0
 30
0.0
 11
-137.4776062384
 21
107.9409522551
 31
0.0
  0
LINE
  5
376
330
23
100
AcDbEntity
  8
0
  6
Continuous
 62
     7
370
    25
100
AcDbLine
 10
-137.4776062384
 20
145.0
 30
0.0
 11
137.4776062384
 21
145.0
 31
0.0
  0
LINE
  5
377
330
23
100
AcDbEntity
  8
0
  6
Continuous
 62
     7
370
    25
100
AcDbLine
 10
137.4776062384
 20
107.9409522551
 30
0.0
 11
137.4776062384
 21
145.0
 31
0.0
  0
LINE
  5
378
330
23
100
AcDbEntity
  8
0
  6
Continuous
 62
     7
370
    25
100
AcDbLine
 10
-34.0
 20
175.0
 30
0.0
 11
34.0
 21
175.0
 31
0.0
  0
LINE
  5
379
330
23
100
AcDbEntity
  8
0
  6
Continuous
 62
     8
370
    25
100
AcDbLine
 10
-36.0
 20
150.0
 30
0.0
 11
36.0
 21
150.0
 31
0.0
  0
LINE
  5
37A
330
23
100
AcDbEntity
  8
0
  6
Continuous
 62
     8
370
    25
100
AcDbLine
 10
36.0
 20
173.0
 30
0.0
 11
-36.0
 21
173.0
 31
0.0
  0
ARC
  5
37B
330
23
100
AcDbEntity
  8
0
  6
Continuous
 62
     7
370
    25
100
AcDbCircle
 10
41.0
 20
150.0
 30
0.0
 40
4.999999999999972
100
AcDbArc
 50
180.0
 51
270.0
  0
ARC
  5
37C
330
23
100
AcDbEntity
  8
0
  6
Continuous
 62
     7
370
    25
100
AcDbCircle
 10
-41.0
 20
150.0
 30
0.0
 40
5.000000000000028
100
AcDbArc
 50
270.0
 51
0.0
  0
ARC
  5
37D
330
23
100
AcDbEntity
  8
0
  6
Continuous
 62
     7
370
    25
100
AcDbCircle
 10
-34.0
 20
173.0
 30
0.0
 40
2.000000000000043
100
AcDbArc
 50
90.0
 51
180.0
  0
ARC
  5
37E
330
23
100
AcDbEntity
  8
0
  6
Continuous
 62
     7
370
    25
100
AcDbCircle
 10
34.0
 20
173.0
 30
0.0
 40
2.000000000000043
100
AcDbArc
 50
0.0
 51
90.0
  0
ARC
  5
37F
330
23
100
AcDbEntity
  8
0
  6
Continuous
 62
     7
370
    25
100
AcDbCircle
 10
-240.0
 20
10.0
 30
0.0
 40
10.00000000000006
100
AcDbArc
 50
180.0
 51
270.0
  0
ARC
  5
380
330
23
100
AcDbEntity
  8
0
  6
Continuous
 62
     7
370
    25
100
AcDbCircle
 10
-247.0
 20
47.0
 30
0.0
 40
2.999999999999979
100
AcDbArc
 50
90.0
 51
180.0
  0
ARC
  5
381
330
23
100
AcDbEntity
  8
0
  6
Continuous
 62
     7
370
    25
100
AcDbCircle
 10
247.0
 20
47.0
 30
0.0
 40
3.0
100
AcDbArc
 50
0.0
 51
90.0
  0
ARC
  5
382
330
23
100
AcDbEntity
  8
0
  6
Continuous
 62
     7
370
    25
100
AcDbCircle
 10
240.0
 20
10.0
 30
0.0
 40
10.00000000000001
100
AcDbArc
 50
270.0
 51
0.0
  0
ARC
  5
383
330
23
100
AcDbEntity
  8
0
  6
Continuous
 62
     7
370
    25
100
AcDbCircle
 10
-205.4562821799
 20
67.9409522551
 30
0.0
 40
59.99999999998366
100
AcDbArc
 50
345.0
 51
350.0
  0
ARC
  5
384
330
23
100
AcDbEntity
  8
0
  6
Continuous
 62
     7
370
    25
100
AcDbCircle
 10
-205.4562821799
 20
55.0
 30
0.0
 40
10.00000000001939
100
AcDbArc
 50
345.0
 51
350.0
  0
ARC
  5
385
330
23
100
AcDbEntity
  8
0
  6
Continuous
 62
     7
370
    25
100
AcDbCircle
 10
205.4562821799
 20
67.9409522551
 30
0.0
 40
59.99999999999375
100
AcDbArc
 50
190.0
 51
195.0
  0
ARC
  5
386
330
23
100
AcDbEntity
  8
0
  6
Continuous
 62
     7
370
    25
100
AcDbCircle
 10
205.4562821799
 20
55.0
 30
0.0
 40
9.999999999981917
100
AcDbArc
 50
190.0
 51
195.0
  0
ARC
  5
387
330
23
100
AcDbEntity
  8
0
  6
Continuous
 62
     7
370
    25
100
AcDbCircle
 10
-137.4776062384
 20
95.0
 30
0.0
 40
50.00000000000001
100
AcDbArc
 50
90.0
 51
170.0
  0
ARC
  5
388
330
23
100
AcDbEntity
  8
0
  6
Continuous
 62
     7
370
    25
100
AcDbCircle
 10
137.4776062384
 20
95.0
 30
0.0
 40
49.99999999999991
100
AcDbArc
 50
10.0
 51
90.0
  0
VIEWPORT
  5
6EC
330
23
100
AcDbEntity
  8
0
100
AcDbViewport
 10
0.0
 20
0.0
 30
0.0
 40
205.6
 41
156.0
 68
     1
 69
     1
 12
0.0
 22
0.0
 13
0.0
 23
0.0
 14
10.0
 24
10.0
 15
10.0
 25
10.0
 16
0.0
 26
0.0
 36
1.0
 17
0.0
 27
0.0
 37
0.0
 42
50.0
 43
0.0
 44
0.0
 45
408.0
 50
0.0
 51
0.0
 72
   100
 90
   557152
  1

281
     0
 71
     1
 74
     0
110
0.0
120
0.0
130
0.0
111
1.0
121
0.0
131
0.0
112
0.0
122
1.0
132
0.0
 79
     0
146
0.0
  0
ENDBLK
  5
25
330
23
100
AcDbEntity
  8
0
100
AcDbBlockEnd
  0
BLOCK
  5
38B
330
389
100
AcDbEntity
  8
0
100
AcDbBlockBegin
  2
*Paper_Space1
 70
     0
 10
0.0
 20
0.0
 30
0.0
  3
*Paper_Space1
  1

  0
SPLINE
  5
3AE
330
389
100
AcDbEntity
  8
0
  6
Continuous
 62
     7
370
    25
100
AcDbSpline
210
0.0
220
0.0
230
1.0
 70
     8
 71
     3
 72
    22
 73
    18
 74
     0
 42
0.000000001
 43
0.00000001
 40
0.0
 40
0.0
 40
0.0
 40
0.0
 40
0.125
 40
0.125
 40
0.25
 40
0.25
 40
0.375
 40
0.375
 40
0.5
 40
0.5
 40
0.625
 40
0.625
 40
0.75
 40
0.75
 40
0.875
 40
0.875
 40
1.0
 40
1.0
 40
1.0
 40
1.0
 10
92.66000664304528
 20
52.41180954897472
 30
0.0
 10
95.6929013140612
 20
53.1700332167287
 30
0.0
 10
98.72573298688168
 20
53.85181115534829
 30
0.0
 10
104.6846772250177
 20
55.03851353507412
 30
0.0
 10
107.6106660132903
 20
55.54341332642607
 30
0.0
 10
113.2528389597477
 20
56.35856470274573
 30
0.0
 10
115.9689059207487
 20
56.66879935568274
 30
0.0
 10
121.0955408460317
 20
57.0836829603134
 30
0.0
 10
123.5060023217002
 20
57.18832329419431
 30
0.0
 10
127.9364942590548
 20
57.18832329419426
 30
0.0
 10
129.9564326921586
 20
57.08368296031333
 30
0.0
 10
133.5347009257326
 20
56.66879935568258
 30
0.0
 10
135.0929563997041
 20
56.35856470274555
 30
0.0
 10
137.6929429938768
 20
55.54341332642581
 30
0.0
 10
138.7346201080931
 20
55.03851353507384
 30
0.0
 10
140.2647307716293
 20
53.85181115534795
 30
0.0
 10
140.7531325380418
 20
53.17003321672833
 30
0.0
 10
140.9562979574987
 20
52.4118095489743
 30
0.0
  0
SPLINE
  5
3AF
330
389
100
AcDbEntity
  8
0
  6
Continuous
 62
     7
370
    25
100
AcDbSpline
210
0.0
220
0.0
230
1.0
 70
     8
 71
     3
 72
    10
 73
     6
 74
     0
 42
0.000000001
 43
0.00000001
 40
0.0
 40
0.0
 40
0.0
 40
0.0
 40
0.4608772561333647
 40
0.9415650685879987
 40
1.0
 40
1.0
 40
1.0
 40
1.0
 10
140.9562979574987
 20
52.41180954897449
 30
0.0
 10
141.1045469962269
 20
51.95149428945515
 30
0.0
 10
141.4074174773814
 20
51.0110773712117
 30
0.0
 10
141.752112612003
 20
50.33099121406794
 30
0.0
 10
141.9402734488116
 20
50.03236750140147
 30
0.0
 10
141.9606679985101
 20
50.0
 30
0.0
  0
LWPOLYLINE
  5
3B0
330
389
100
AcDbEntity
  8
0
  6
Continuous
 62
     7
370
    25
100
AcDbPolyline
 90
       19
 70
   128
 43
0.0
 10
91.2907187342
 20
53.2635182233
 10
95.3839703554
 20
54.2960535168
 10
99.4478265306
 20
55.2588215096
 10
103.4531029155
 20
56.1449081399
 10
107.3710358531
 20
56.9479500286
 10
111.1734889382
 20
57.6621801776
 10
114.8331550774
 20
58.282469385
 10
118.3237525935
 20
58.8043630804
 10
121.6202139654
 20
59.2241133148
 10
124.6988658495
 20
59.5387056767
 10
127.5375990882
 20
59.7458809394
 10
130.1160274856
 20
59.8441512859
 10
132.4156342096
 20
59.8328109937
 10
134.4199047698
 20
59.7119415022
 10
136.1144456147
 20
59.4824108286
 10
137.487087499
 20
59.145867334
 10
138.5279728756
 20
58.7047278858
 10
139.2296266874
 20
58.1621605009
 10
139.5870100486
 20
57.5220615951
  0
LWPOLYLINE
  5
3B8
330
389
100
AcDbEntity
  8
0
  6
Continuous
 62
     7
370
    25
100
AcDbPolyline
 90
       19
 70
   128
 43
0.0
 10
77.7810176985
 20
103.6824088833
 10
81.8742693197
 20
104.7149441769
 10
85.938125495
 20
105.6777121696
 10
89.9434018799
 20
106.5637987999
 10
93.8613348175
 20
107.3668406886
 10
97.6637879026
 20
108.0810708376
 10
101.3234540418
 20
108.701360045
 10
104.8140515579
 20
109.2232537404
 10
108.1105129297
 20
109.6430039749
 10
111.1891648138
 20
109.9575963367
 10
114.0278980526
 20
110.1647715994
 10
116.60632645
 20
110.263041946
 10
118.905933174
 20
110.2517016537
 10
120.9102037341
 20
110.1308321622
 10
122.6047445791
 20
109.9013014886
 10
123.9773864634
 20
109.564757994
 10
125.01827184
 20
109.1236185458
 10
125.7199256517
 20
108.5810511609
 10
126.077309013
 20
107.9409522551
  0
SPLINE
  5
3BF
330
389
100
AcDbEntity
  8
0
  6
Continuous
 62
     7
370
    25
100
AcDbSpline
210
0.0
220
0.0
230
1.0
 70
     8
 71
     3
 72
    24
 73
    20
 74
     0
 42
0.000000001
 43
0.00000001
 40
0.0
 40
0.0
 40
0.0
 40
0.0
 40
0.1250000000000003
 40
0.1250000000000003
 40
0.2500000000000006
 40
0.2500000000000006
 40
0.3750000000000009
 40
0.3750000000000009
 40
0.5000000000000012
 40
0.5000000000000012
 40
0.6250000000000016
 40
0.6250000000000016
 40
0.7500000000000018
 40
0.7500000000000018
 40
0.8750000000000021
 40
0.8750000000000021
 40
0.9375000000000011
 40
0.9375000000000011
 40
1.0
 40
1.0
 40
1.0
 40
1.0
 10
-13.23252031097776
 20
150.0
 30
0.0
 10
-13.23252031097776
 20
149.6597836589181
 30
0.0
 10
-13.24510108523291
 20
149.3258900143821
 30
0.0
 10
-13.29409774120939
 20
148.6701326148366
 30
0.0
 10
-13.33119736916416
 20
148.3448470061316
 30
0.0
 10
-13.42625967323368
 20
147.7318440146423
 30
0.0
 10
-13.48406908193896
 20
147.4422236935341
 30
0.0
 10
-13.61944994199639
 20
146.8960936740988
 30
0.0
 10
-13.69640670657569
 20
146.6431414520627
 30
0.0
 10
-13.86298359946084
 20
146.1897053341459
 30
0.0
 10
-13.95398253756193
 20
145.9853833441261
 30
0.0
 10
-14.14611112452236
 20
145.6318050761437
 30
0.0
 10
-14.24602207228148
 20
145.4841406426049
 30
0.0
 10
-14.45292289410575
 20
145.2445737011934
 30
0.0
 10
-14.56080751577398
 20
145.1524907008899
 30
0.0
 10
-14.72289585744735
 20
145.0611782588163
 30
0.0
 10
-14.77709682707021
 20
145.0383234304339
 30
0.0
 10
-14.88583374353972
 20
145.0077309318032
 30
0.0
 10
-14.94102543886761
 20
145.0
 30
0.0
 10
-14.99499949989984
 20
145.0
 30
0.0
  0
SPLINE
  5
3C1
330
389
100
AcDbEntity
  8
0
  6
Continuous
 62
     7
370
    25
100
AcDbSpline
210
0.0
220
0.0
230
1.0
 70
     8
 71
     3
 72
    22
 73
    18
 74
     0
 42
0.000000001
 43
0.00000001
 40
0.0
 40
0.0
 40
0.0
 40
0.0
 40
0.2499999999999977
 40
0.2499999999999977
 40
0.3749999999999977
 40
0.3749999999999977
 40
0.4999999999999981
 40
0.4999999999999981
 40
0.6249999999999984
 40
0.6249999999999984
 40
0.7499999999999989
 40
0.7499999999999989
 40
0.8749999999999992
 40
0.8749999999999992
 40
0.9374999999999996
 40
0.9374999999999996
 40
1.0
 40
1.0
 40
1.0
 40
1.0
 10
-18.10249099279265
 20
172.0
 30
0.0
 10
-17.60880158133563
 20
172.0
 30
0.0
 10
-17.10573733387677
 20
171.8897847998182
 30
0.0
 10
-16.33921032832347
 20
171.5730905527118
 30
0.0
 10
-16.08422237692821
 20
171.4423405181697
 30
0.0
 10
-15.58590387260512
 20
171.1344947592159
 30
0.0
 10
-15.34115468089075
 20
170.9569237156584
 30
0.0
 10
-14.86417198796333
 20
170.5483595512748
 30
0.0
 10
-14.62980267657987
 20
170.3147985404665
 30
0.0
 10
-14.19608635375177
 20
169.7964606958585
 30
0.0
 10
-13.99552583572784
 20
169.5117809619511
 30
0.0
 10
-13.64272741815708
 20
168.8738457297401
 30
0.0
 10
-13.49659679944367
 20
168.5310987737297
 30
0.0
 10
-13.34135607368172
 20
167.9747630388899
 30
0.0
 10
-13.30071839559731
 20
167.7823156240133
 30
0.0
 10
-13.24655471994914
 20
167.3952666562269
 30
0.0
 10
-13.23252031097774
 20
167.1990667141713
 30
0.0
 10
-13.23252031097774
 20
167.0000000000001
 30
0.0
  0
SPLINE
  5
3D4
330
389
100
AcDbEntity
  8
0
  6
Continuous
 62
     8
370
    25
100
AcDbSpline
210
0.0
220
0.0
230
1.0
 70
     8
 71
     3
 72
    10
 73
     6
 74
     0
 42
0.000000001
 43
0.00000001
 40
0.0
 40
0.0
 40
0.0
 40
0.0
 40
0.0584262647455935
 40
0.5391185017068773
 40
1.0
 40
1.0
 40
1.0
 40
1.0
 10
98.68616105631807
 20
50.0
 30
0.0
 10
98.56381588231866
 20
50.03236789449497
 30
0.0
 10
97.43489642828844
 20
50.33103718063745
 30
0.0
 10
95.36671589873333
 20
51.01106242770702
 30
0.0
 10
93.54949829123875
 20
51.95148937864965
 30
0.0
 10
92.66000664304569
 20
52.41180954897447
 30
0.0
  0
LWPOLYLINE
  5
3D8
330
389
100
AcDbEntity
  8
0
  6
Continuous
 62
     8
370
    25
100
AcDbPolyline
 90
        3
 70
   128
 43
0.0
 10
-74.9636349284
 20
145.027222217
 10
-74.7031917465
 20
145.2192025675
 10
-73.8277234512
 20
145.8277234512
  0
LINE
  5
3DC
330
389
100
AcDbEntity
  8
0
  6
Continuous
 62
     7
370
    25
100
AcDbLine
 10
46.0
 20
150.0
 30
0.0
 11
46.0
 21
173.0
 31
0.0
  0
LINE
  5
3DD
330
389
100
AcDbEntity
  8
0
  6
Continuous
 62
     7
370
    25
100
AcDbLine
 10
-26.0
 20
173.0
 30
0.0
 11
-26.0
 21
172.0
 31
0.0
  0
LINE
  5
3DE
330
389
100
AcDbEntity
  8
0
  6
Continuous
 62
     7
370
    25
100
AcDbLine
 10
190.0
 20
0.0
 30
0.0
 11
-198.0
 21
0.0
 31
0.0
  0
LINE
  5
3DF
330
389
100
AcDbEntity
  8
0
  6
Continuous
 62
     7
370
    25
100
AcDbLine
 10
-200.0
 20
10.0
 30
0.0
 11
200.0
 21
10.0
 31
0.0
  0
LINE
  5
3E0
330
389
100
AcDbEntity
  8
0
  6
Continuous
 62
     7
370
    25
100
AcDbLine
 10
160.0
 20
0.0
 30
0.0
 11
160.0
 21
50.0
 31
0.0
  0
LINE
  5
3E1
330
389
100
AcDbEntity
  8
0
  6
Continuous
 62
     7
370
    25
100
AcDbLine
 10
200.0
 20
47.0
 30
0.0
 11
-200.0
 21
47.0
 31
0.0
  0
LINE
  5
3E2
330
389
100
AcDbEntity
  8
0
  6
Continuous
 62
     7
370
    25
100
AcDbLine
 10
-198.0
 20
50.0
 30
0.0
 11
197.0
 21
50.0
 31
0.0
  0
LINE
  5
3E3
330
389
100
AcDbEntity
  8
0
  6
Continuous
 62
     7
370
    25
100
AcDbLine
 10
200.0
 20
47.0
 30
0.0
 11
200.0
 21
10.0
 31
0.0
  0
LINE
  5
3E4
330
389
100
AcDbEntity
  8
0
  6
Continuous
 62
     7
370
    25
100
AcDbLine
 10
-200.0
 20
2.0
 30
0.0
 11
-200.0
 21
143.0
 31
0.0
  0
LINE
  5
3E5
330
389
100
AcDbEntity
  8
0
  6
Continuous
 62
     7
370
    25
100
AcDbLine
 10
92.660006643
 20
52.411809549
 30
0.0
 11
91.2907187342
 21
53.2635182233
 31
0.0
  0
LINE
  5
3E6
330
389
100
AcDbEntity
  8
0
  6
Continuous
 62
     7
370
    25
100
AcDbLine
 10
-198.0
 20
53.2635182233
 30
0.0
 11
91.2907187342
 21
53.2635182233
 31
0.0
  0
LINE
  5
3E7
330
389
100
AcDbEntity
  8
0
  6
Continuous
 62
     7
370
    25
100
AcDbLine
 10
126.077309013
 20
107.9409522551
 30
0.0
 11
140.9562979575
 21
52.411809549
 31
0.0
  0
LINE
  5
3E8
330
389
100
AcDbEntity
  8
0
  6
Continuous
 62
     7
370
    25
100
AcDbLine
 10
91.2907187342
 20
53.2635182233
 30
0.0
 11
77.7810176985
 21
103.6824088833
 31
0.0
  0
LINE
  5
3E9
330
389
100
AcDbEntity
  8
0
  6
Continuous
 62
     7
370
    25
100
AcDbLine
 10
-198.0
 20
145.0
 30
0.0
 11
-198.0
 21
0.0
 31
0.0
  0
LINE
  5
3EA
330
389
100
AcDbEntity
  8
0
  6
Continuous
 62
     7
370
    25
100
AcDbLine
 10
77.7810176985
 20
103.6824088833
 30
0.0
 11
-198.0
 21
103.6824088833
 31
0.0
  0
LINE
  5
3EB
330
389
100
AcDbEntity
  8
0
  6
Continuous
 62
     7
370
    25
100
AcDbLine
 10
77.7810176985
 20
103.6824088833
 30
0.0
 11
77.7810176985
 21
145.0
 31
0.0
  0
LINE
  5
3EC
330
389
100
AcDbEntity
  8
0
  6
Continuous
 62
     7
370
    25
100
AcDbLine
 10
-198.0
 20
145.0
 30
0.0
 11
77.7810176985
 21
145.0
 31
0.0
  0
LINE
  5
3ED
330
389
100
AcDbEntity
  8
0
  6
Continuous
 62
     7
370
    25
100
AcDbLine
 10
-13.232520311
 20
167.0
 30
0.0
 11
-13.232520311
 21
150.0
 31
0.0
  0
LINE
  5
3EE
330
389
100
AcDbEntity
  8
0
  6
Continuous
 62
     7
370
    25
100
AcDbLine
 10
-24.0
 20
175.0
 30
0.0
 11
43.9999999987
 21
175.0
 31
0.0
  0
LINE
  5
3EF
330
389
100
AcDbEntity
  8
0
  6
Continuous
 62
     7
370
    25
100
AcDbLine
 10
-60.0
 20
150.0
 30
0.0
 11
46.0
 21
150.0
 31
0.0
  0
LINE
  5
3F0
330
389
100
AcDbEntity
  8
0
  6
Continuous
 62
     7
370
    25
100
AcDbLine
 10
-60.0
 20
150.0
 30
0.0
 11
-60.0
 21
145.0
 31
0.0
  0
LINE
  5
3F1
330
389
100
AcDbEntity
  8
0
  6
Continuous
 62
     7
370
    25
100
AcDbLine
 10
-13.232520311
 20
167.0
 30
0.0
 11
-80.0
 21
167.0
 31
0.0
  0
LINE
  5
3F2
330
389
100
AcDbEntity
  8
0
  6
Continuous
 62
     7
370
    25
100
AcDbLine
 10
-80.0
 20
167.0
 30
0.0
 11
-80.0
 21
172.0
 31
0.0
  0
LINE
  5
3F3
330
389
100
AcDbEntity
  8
0
  6
Continuous
 62
     7
370
    25
100
AcDbLine
 10
-80.0
 20
172.0
 30
0.0
 11
-18.1024909928
 21
172.0
 31
0.0
  0
LINE
  5
3F4
330
389
100
AcDbEntity
  8
0
  6
Continuous
 62
     7
370
    25
100
AcDbLine
 10
-100.0
 20
145.0
 30
0.0
 11
-100.0
 21
152.0
 31
0.0
  0
LINE
  5
3F5
330
389
100
AcDbEntity
  8
0
  6
Continuous
 62
     7
370
    25
100
AcDbLine
 10
-95.0
 20
152.0
 30
0.0
 11
-100.0
 21
152.0
 31
0.0
  0
LINE
  5
3F6
330
389
100
AcDbEntity
  8
0
  6
Continuous
 62
     7
370
    25
100
AcDbLine
 10
-73.8277234512
 20
145.8277234512
 30
0.0
 11
-94.1421356237
 21
166.1421356237
 31
0.0
  0
LINE
  5
3F7
330
389
100
AcDbEntity
  8
0
  6
Continuous
 62
     7
370
    25
100
AcDbLine
 10
-80.0
 20
152.0
 30
0.0
 11
-13.232520311
 21
152.0
 31
0.0
  0
LINE
  5
3F8
330
389
100
AcDbEntity
  8
0
  6
Continuous
 62
     8
370
    25
100
AcDbLine
 10
46.0
 20
173.0
 30
0.0
 11
-26.0
 21
173.0
 31
0.0
  0
LINE
  5
3F9
330
389
100
AcDbEntity
  8
0
  6
Continuous
 62
     8
370
    25
100
AcDbLine
 10
-73.8277234512
 20
145.8277234512
 30
0.0
 11
-73.2671186638
 21
144.9833240446
 31
0.0
  0
LINE
  5
3FA
330
389
100
AcDbEntity
  8
0
  6
Continuous
 62
     8
370
    25
100
AcDbLine
 10
-95.0
 20
152.0
 30
0.0
 11
-95.0
 21
145.0
 31
0.0
  0
LINE
  5
3FB
330
389
100
AcDbEntity
  8
0
  6
Continuous
 62
     8
370
    25
100
AcDbLine
 10
-80.0
 20
145.0
 30
0.0
 11
-80.0
 21
152.0
 31
0.0
  0
ARC
  5
3FC
330
389
100
AcDbEntity
  8
0
  6
Continuous
 62
     7
370
    25
100
AcDbCircle
 10
51.0
 20
150.0
 30
0.0
 40
5.0
100
AcDbArc
 50
180.0
 51
270.0
  0
ARC
  5
3FD
330
389
100
AcDbEntity
  8
0
  6
Continuous
 62
     7
370
    25
100
AcDbCircle
 10
-24.0
 20
173.0
 30
0.0
 40
2.000000000000032
100
AcDbArc
 50
90.0
 51
180.0
  0
ARC
  5
3FE
330
389
100
AcDbEntity
  8
0
  6
Continuous
 62
     7
370
    25
100
AcDbCircle
 10
44.0
 20
173.0
 30
0.0
 40
2.000000000000028
100
AcDbArc
 50
0.0
 51
90.0
  0
ARC
  5
3FF
330
389
100
AcDbEntity
  8
0
  6
Continuous
 62
     7
370
    25
100
AcDbCircle
 10
190.0
 20
10.0
 30
0.0
 40
10.00000000000003
100
AcDbArc
 50
270.0
 51
0.0
  0
ARC
  5
400
330
389
100
AcDbEntity
  8
0
  6
Continuous
 62
     7
370
    25
100
AcDbCircle
 10
-198.0
 20
2.0
 30
0.0
 40
2.000000000000035
100
AcDbArc
 50
180.0
 51
270.0
  0
ARC
  5
401
330
389
100
AcDbEntity
  8
0
  6
Continuous
 62
     7
370
    25
100
AcDbCircle
 10
-198.0
 20
48.0
 30
0.0
 40
2.000000000000028
100
AcDbArc
 50
90.0
 51
180.0
  0
ARC
  5
402
330
389
100
AcDbEntity
  8
0
  6
Continuous
 62
     7
370
    25
100
AcDbCircle
 10
197.0
 20
47.0
 30
0.0
 40
2.999999999999972
100
AcDbArc
 50
0.0
 51
90.0
  0
ARC
  5
403
330
389
100
AcDbEntity
  8
0
  6
Continuous
 62
     7
370
    25
100
AcDbCircle
 10
-198.4849231552
 20
50.1236607153
 30
0.0
 40
3.177082881739691
100
AcDbArc
 50
81.2205390529
 51
118.4816131802
  0
ARC
  5
404
330
389
100
AcDbEntity
  8
0
  6
Continuous
 62
     7
370
    25
100
AcDbCircle
 10
-198.4849231552
 20
100.5425513753
 30
0.0
 40
3.177082881739991
100
AcDbArc
 50
81.2205390529
 51
118.4816131802
  0
ARC
  5
405
330
389
100
AcDbEntity
  8
0
  6
Continuous
 62
     7
370
    25
100
AcDbCircle
 10
-198.0
 20
143.0
 30
0.0
 40
2.000000000000085
100
AcDbArc
 50
90.0
 51
180.0
  0
ARC
  5
406
330
389
100
AcDbEntity
  8
0
  6
Continuous
 62
     7
370
    25
100
AcDbCircle
 10
77.7810176985
 20
95.0
 30
0.0
 40
50.00000000000001
100
AcDbArc
 50
15.0
 51
90.0
  0
ARC
  5
407
330
389
100
AcDbEntity
  8
0
  6
Continuous
 62
     7
370
    25
100
AcDbCircle
 10
-60.0
 20
125.0
 30
0.0
 40
24.99999999999931
100
AcDbArc
 50
90.0
 51
123.5805616622
  0
ARC
  5
408
330
389
100
AcDbEntity
  8
0
  6
Continuous
 62
     7
370
    25
100
AcDbCircle
 10
-80.0
 20
152.0
 30
0.0
 40
15.0000000000002
100
AcDbArc
 50
90.0
 51
180.0
  0
ARC
  5
409
330
389
100
AcDbEntity
  8
0
  6
Continuous
 62
     7
370
    25
100
AcDbCircle
 10
-80.0
 20
152.0
 30
0.0
 40
20.00000000000011
100
AcDbArc
 50
90.0
 51
180.0
  0
VIEWPORT
  5
6EE
330
389
100
AcDbEntity
  8
0
100
AcDbViewport
 10
0.0
 20
0.0
 30
0.0
 40
205.6
 41
156.0
 68
     1
 69
     1
 12
0.0
 22
0.0
 13
0.0
 23
0.0
 14
10.0
 24
10.0
 15
10.0
 25
10.0
 16
0.0
 26
0.0
 36
1.0
 17
0.0
 27
0.0
 37
0.0
 42
50.0
 43
0.0
 44
0.0
 45
408.0
 50
0.0
 51
0.0
 72
   100
 90
   557152
  1

281
     0
 71
     1
 74
     0
110
0.0
120
0.0
130
0.0
111
1.0
121
0.0
131
0.0
112
0.0
122
1.0
132
0.0
 79
     0
146
0.0
  0
ENDBLK
  5
38C
330
389
100
AcDbEntity
  8
0
100
AcDbBlockEnd
  0
BLOCK
  5
40C
330
40A
100
AcDbEntity
  8
0
100
AcDbBlockBegin
  2
*Paper_Space2
 70
     0
 10
0.0
 20
0.0
 30
0.0
  3
*Paper_Space2
  1

  0
LWPOLYLINE
  5
415
330
40A
100
AcDbEntity
  8
0
  6
Continuous
 62
     7
370
    25
100
AcDbPolyline
 90
       17
 70
   128
 43
0.0
 10
166.993013255
 20
79.5920101246
 10
171.0062847939
 20
79.401700493
 10
174.9774433151
 20
78.8325809162
 10
178.868734092
 20
77.8900621462
 10
182.6431617189
 20
76.583104928
 10
186.2648418354
 20
74.9241348074
 10
189.6993422872
 20
72.928923999
 10
192.9140104804
 20
70.6164414354
 10
195.8782838176
 20
68.0086724257
 10
198.5639802634
 20
65.1304096358
 10
200.9455662777
 20
62.0090173788
 10
203.0003995689
 20
58.6741714561
 10
204.7089443595
 20
55.1575770228
 10
206.054957117
 20
51.4926671592
 10
207.0256409856
 20
47.714285015
 10
207.6117674481
 20
43.8583525471
 10
207.807764064
 20
39.9615290014
  0
LWPOLYLINE
  5
417
330
40A
100
AcDbEntity
  8
0
  6
Continuous
 62
     7
370
    25
100
AcDbPolyline
 90
       15
 70
   128
 43
0.0
 10
198.1063390626
 20
39.9615290014
 10
197.9215229993
 20
43.3009945852
 10
197.3475737385
 20
46.5939837523
 10
196.3916166281
 20
49.7996153747
 10
195.0655194889
 20
52.8780928328
 10
193.3857452801
 20
55.7911980747
 10
191.373147719
 20
58.5027660775
 10
189.0527123899
 20
60.9791338217
 10
186.4532465584
 20
63.1895582037
 10
183.6070215411
 20
65.1065976992
 10
180.5493720697
 20
66.7064530387
 10
177.3182576254
 20
67.9692626654
 10
173.9537911865
 20
68.8793493088
 10
170.4977412425
 20
69.4254146115
 10
166.993013255
 20
69.6006793936
  0
LWPOLYLINE
  5
41F
330
40A
100
AcDbEntity
  8
0
  6
Continuous
 62
     7
370
    25
100
AcDbPolyline
 90
       15
 70
   128
 43
0.0
 10
-166.993013255
 20
69.6006793936
 10
-170.4977412425
 20
69.4254146115
 10
-173.9537911865
 20
68.8793493088
 10
-177.3182576254
 20
67.9692626654
 10
-180.5493720697
 20
66.7064530387
 10
-183.6070215411
 20
65.1065976992
 10
-186.4532465584
 20
63.1895582037
 10
-189.0527123899
 20
60.9791338217
 10
-191.373147719
 20
58.5027660775
 10
-193.3857452801
 20
55.7911980747
 10
-195.0655194889
 20
52.8780928328
 10
-196.3916166281
 20
49.7996153747
 10
-197.3475737385
 20
46.5939837523
 10
-197.9215229993
 20
43.3009945852
 10
-198.1063390626
 20
39.9615290014
  0
LWPOLYLINE
  5
421
330
40A
100
AcDbEntity
  8
0
  6
Continuous
 62
     7
370
    25
100
AcDbPolyline
 90
       17
 70
   128
 43
0.0
 10
-207.807764064
 20
39.9615290014
 10
-207.6117674481
 20
43.8583525471
 10
-207.0256409856
 20
47.714285015
 10
-206.054957117
 20
51.4926671592
 10
-204.7089443595
 20
55.1575770228
 10
-203.0003995689
 20
58.6741714561
 10
-200.9455662777
 20
62.0090173788
 10
-198.5639802634
 20
65.1304096358
 10
-195.8782838176
 20
68.0086724257
 10
-192.9140104804
 20
70.6164414354
 10
-189.6993422872
 20
72.928923999
 10
-186.2648418354
 20
74.9241348074
 10
-182.6431617189
 20
76.583104928
 10
-178.868734092
 20
77.8900621462
 10
-174.9774433151
 20
78.8325809162
 10
-171.0062847939
 20
79.401700493
 10
-166.993013255
 20
79.5920101246
  0
CIRCLE
  5
43B
330
40A
100
AcDbEntity
  8
0
  6
Continuous
 62
     7
370
    25
100
AcDbCircle
 10
100.0
 20
135.0
 30
0.0
 40
17.50000000000003
  0
CIRCLE
  5
43C
330
40A
100
AcDbEntity
  8
0
  6
Continuous
 62
     7
370
    25
100
AcDbCircle
 10
-100.0
 20
135.0
 30
0.0
 40
17.50000000000003
  0
CIRCLE
  5
43D
330
40A
100
AcDbEntity
  8
0
  6
Continuous
 62
     7
370
    25
100
AcDbCircle
 10
0.0
 20
135.0
 30
0.0
 40
17.99999999999997
  0
LWPOLYLINE
  5
451
330
40A
100
AcDbEntity
  8
0
  6
Continuous
 62
     7
370
    25
100
AcDbPolyline
 90
       38
 70
   128
 43
0.0
 10
0.0
 20
67.9166666667
 10
-2.112510254
 20
67.92415838
 10
-4.1642474343
 20
67.9464179972
 10
-6.0961867977
 20
67.9828051494
 10
-7.8527499662
 20
68.0322730446
 10
-9.3834038157
 20
68.0933985816
 10
-10.6441142217
 20
68.1644232898
 10
-11.5986128412
 20
68.2433039178
 10
-12.2194404868
 20
68.3277712135
 10
-12.4887370776
 20
68.4153952067
 10
-12.3987554407
 20
68.5036551145
 10
-11.9520841842
 20
68.59001186
 10
-11.1615732269
 20
68.6719811171
 10
-10.0499641296
 20
68.7472047793
 10
-8.6492358622
 20
68.8135187989
 10
-6.9996848267
 20
68.8690154423
 10
-5.148765603
 20
68.9120981721
 10
-3.1497257673
 20
68.9415275765
 10
-1.0600740559
 20
68.9564570253
 10
1.0600740559
 20
68.9564570253
 10
3.1497257673
 20
68.9415275765
 10
5.148765603
 20
68.9120981721
 10
6.9996848267
 20
68.8690154423
 10
8.6492358622
 20
68.8135187989
 10
10.0499641296
 20
68.7472047793
 10
11.1615732269
 20
68.6719811171
 10
11.9520841842
 20
68.59001186
 10
12.3987554407
 20
68.5036551145
 10
12.4887370776
 20
68.4153952067
 10
12.2194404868
 20
68.3277712135
 10
11.5986128412
 20
68.2433039178
 10
10.6441142217
 20
68.1644232898
 10
9.3834038157
 20
68.0933985816
 10
7.8527499662
 20
68.0322730446
 10
6.0961867977
 20
67.9828051494
 10
4.1642474343
 20
67.9464179972
 10
2.112510254
 20
67.92415838
 10
0.0
 20
67.9166666667
  0
CIRCLE
  5
462
330
40A
100
AcDbEntity
  8
0
  6
Continuous
 62
     7
370
    25
100
AcDbCircle
 10
0.0
 20
-10.0
 30
0.0
 40
36.49456183689838
  0
CIRCLE
  5
463
330
40A
100
AcDbEntity
  8
0
  6
Continuous
 62
     7
370
    25
100
AcDbCircle
 10
0.0
 20
-10.0
 30
0.0
 40
34.58114467507295
  0
CIRCLE
  5
464
330
40A
100
AcDbEntity
  8
0
  6
Continuous
 62
     7
370
    25
100
AcDbCircle
 10
0.0
 20
-10.0
 30
0.0
 40
25.58658283817457
  0
CIRCLE
  5
465
330
40A
100
AcDbEntity
  8
0
  6
Continuous
 62
     7
370
    25
100
AcDbCircle
 10
0.0
 20
-10.0
 30
0.0
 40
22.50000000000001
  0
LINE
  5
466
330
40A
100
AcDbEntity
  8
0
  6
Continuous
 62
     7
370
    25
100
AcDbLine
 10
240.0
 20
-160.0
 30
0.0
 11
250.0
 21
-160.0
 31
0.0
  0
LINE
  5
467
330
40A
100
AcDbEntity
  8
0
  6
Continuous
 62
     7
370
    25
100
AcDbLine
 10
210.0
 20
-190.0
 30
0.0
 11
210.0
 21
-200.0
 31
0.0
  0
LINE
  5
468
330
40A
100
AcDbEntity
  8
0
  6
Continuous
 62
     7
370
    25
100
AcDbLine
 10
240.0
 20
-160.0
 30
0.0
 11
240.0
 21
200.0
 31
0.0
  0
LINE
  5
469
330
40A
100
AcDbEntity
  8
0
  6
Continuous
 62
     7
370
    25
100
AcDbLine
 10
250.0
 20
198.0
 30
0.0
 11
250.0
 21
-160.0
 31
0.0
  0
LINE
  5
46A
330
40A
100
AcDbEntity
  8
0
  6
Continuous
 62
     7
370
    25
100
AcDbLine
 10
207.807764064
 20
39.9615290014
 30
0.0
 11
198.1063390626
 21
39.9615290014
 31
0.0
  0
LINE
  5
46B
330
40A
100
AcDbEntity
  8
0
  6
Continuous
 62
     7
370
    25
100
AcDbLine
 10
166.993013255
 20
69.6006793936
 30
0.0
 11
166.993013255
 21
79.5920101246
 31
0.0
  0
LINE
  5
46C
330
40A
100
AcDbEntity
  8
0
  6
Continuous
 62
     7
370
    25
100
AcDbLine
 10
207.807764064
 20
39.9615290014
 30
0.0
 11
207.807764064
 21
-118.6629156254
 31
0.0
  0
LINE
  5
46D
330
40A
100
AcDbEntity
  8
0
  6
Continuous
 62
     7
370
    25
100
AcDbLine
 10
207.807764064
 20
-118.6629156254
 30
0.0
 11
198.1063390626
 21
-118.6629156254
 31
0.0
  0
LINE
  5
46E
330
40A
100
AcDbEntity
  8
0
  6
Continuous
 62
     7
370
    25
100
AcDbLine
 10
198.1063390626
 20
-118.6629156254
 30
0.0
 11
198.1063390626
 21
39.9615290014
 31
0.0
  0
LINE
  5
46F
330
40A
100
AcDbEntity
  8
0
  6
Continuous
 62
     7
370
    25
100
AcDbLine
 10
169.3767078079
 20
-157.5
 30
0.0
 11
169.3767078079
 21
-147.9
 31
0.0
  0
LINE
  5
470
330
40A
100
AcDbEntity
  8
0
  6
Continuous
 62
     7
370
    25
100
AcDbLine
 10
-198.1063390626
 20
39.9615290014
 30
0.0
 11
-207.807764064
 21
39.9615290014
 31
0.0
  0
LINE
  5
471
330
40A
100
AcDbEntity
  8
0
  6
Continuous
 62
     7
370
    25
100
AcDbLine
 10
-166.993013255
 20
69.6006793936
 30
0.0
 11
-166.993013255
 21
79.5920101246
 31
0.0
  0
LINE
  5
472
330
40A
100
AcDbEntity
  8
0
  6
Continuous
 62
     7
370
    25
100
AcDbLine
 10
169.3767078079
 20
-157.5
 30
0.0
 11
-169.3767078079
 21
-157.5
 31
0.0
  0
LINE
  5
473
330
40A
100
AcDbEntity
  8
0
  6
Continuous
 62
     7
370
    25
100
AcDbLine
 10
-169.3767078079
 20
-157.5
 30
0.0
 11
-169.3767078079
 21
-147.9
 31
0.0
  0
LINE
  5
474
330
40A
100
AcDbEntity
  8
0
  6
Continuous
 62
     7
370
    25
100
AcDbLine
 10
-169.3767078079
 20
-147.9
 30
0.0
 11
169.3767078079
 21
-147.9
 31
0.0
  0
LINE
  5
475
330
40A
100
AcDbEntity
  8
0
  6
Continuous
 62
     7
370
    25
100
AcDbLine
 10
-198.1063390626
 20
39.9615290014
 30
0.0
 11
-198.1063390626
 21
-118.6629156254
 31
0.0
  0
LINE
  5
476
330
40A
100
AcDbEntity
  8
0
  6
Continuous
 62
     7
370
    25
100
AcDbLine
 10
-198.1063390626
 20
-118.6629156254
 30
0.0
 11
-207.807764064
 21
-118.6629156254
 31
0.0
  0
LINE
  5
477
330
40A
100
AcDbEntity
  8
0
  6
Continuous
 62
     7
370
    25
100
AcDbLine
 10
-207.807764064
 20
-118.6629156254
 30
0.0
 11
-207.807764064
 21
39.9615290014
 31
0.0
  0
LINE
  5
478
330
40A
100
AcDbEntity
  8
0
  6
Continuous
 62
     7
370
    25
100
AcDbLine
 10
250.0
 20
198.0
 30
0.0
 11
-250.0
 21
198.0
 31
0.0
  0
LINE
  5
479
330
40A
100
AcDbEntity
  8
0
  6
Continuous
 62
     7
370
    25
100
AcDbLine
 10
-248.0
 20
200.0
 30
0.0
 11
248.0
 21
200.0
 31
0.0
  0
LINE
  5
47A
330
40A
100
AcDbEntity
  8
0
  6
Continuous
 62
     7
370
    25
100
AcDbLine
 10
-240.0
 20
200.0
 30
0.0
 11
-240.0
 21
-160.0
 31
0.0
  0
LINE
  5
47B
330
40A
100
AcDbEntity
  8
0
  6
Continuous
 62
     7
370
    25
100
AcDbLine
 10
-210.0
 20
-190.0
 30
0.0
 11
210.0
 21
-190.0
 31
0.0
  0
LINE
  5
47C
330
40A
100
AcDbEntity
  8
0
  6
Continuous
 62
     7
370
    25
100
AcDbLine
 10
210.0
 20
-200.0
 30
0.0
 11
-210.0
 21
-200.0
 31
0.0
  0
LINE
  5
47D
330
40A
100
AcDbEntity
  8
0
  6
Continuous
 62
     7
370
    25
100
AcDbLine
 10
-210.0
 20
-190.0
 30
0.0
 11
-210.0
 21
-200.0
 31
0.0
  0
LINE
  5
47E
330
40A
100
AcDbEntity
  8
0
  6
Continuous
 62
     7
370
    25
100
AcDbLine
 10
-240.0
 20
-160.0
 30
0.0
 11
-250.0
 21
-160.0
 31
0.0
  0
LINE
  5
47F
330
40A
100
AcDbEntity
  8
0
  6
Continuous
 62
     7
370
    25
100
AcDbLine
 10
-250.0
 20
-160.0
 30
0.0
 11
-250.0
 21
198.0
 31
0.0
  0
LINE
  5
480
330
40A
100
AcDbEntity
  8
0
  6
Continuous
 62
     7
370
    25
100
AcDbLine
 10
-166.993013255
 20
79.5920101246
 30
0.0
 11
166.993013255
 21
79.5920101246
 31
0.0
  0
LINE
  5
481
330
40A
100
AcDbEntity
  8
0
  6
Continuous
 62
     7
370
    25
100
AcDbLine
 10
166.993013255
 20
69.6006793936
 30
0.0
 11
-166.993013255
 21
69.6006793936
 31
0.0
  0
LINE
  5
482
330
40A
100
AcDbEntity
  8
0
  6
Continuous
 62
     7
370
    25
100
AcDbLine
 10
173.7873218748
 20
-90.2907289064
 30
0.0
 11
198.1063390626
 21
-118.6629156254
 31
0.0
  0
LINE
  5
483
330
40A
100
AcDbEntity
  8
0
  6
Continuous
 62
     7
370
    25
100
AcDbLine
 10
169.3767078079
 20
-147.9
 30
0.0
 11
144.7767078079
 21
-119.2
 31
0.0
  0
LINE
  5
484
330
40A
100
AcDbEntity
  8
0
  6
Continuous
 62
     7
370
    25
100
AcDbLine
 10
-144.7767078079
 20
-119.2
 30
0.0
 11
-169.3767078079
 21
-147.9
 31
0.0
  0
LINE
  5
485
330
40A
100
AcDbEntity
  8
0
  6
Continuous
 62
     7
370
    25
100
AcDbLine
 10
-198.1063390626
 20
-118.6629156254
 30
0.0
 11
-173.7873218748
 21
-90.2907289064
 31
0.0
  0
LINE
  5
486
330
40A
100
AcDbEntity
  8
0
  6
Continuous
 62
     7
370
    25
100
AcDbLine
 10
144.7767078079
 20
-119.2
 30
0.0
 11
-144.7767078079
 21
-119.2
 31
0.0
  0
LINE
  5
487
330
40A
100
AcDbEntity
  8
0
  6
Continuous
 62
     7
370
    25
100
AcDbLine
 10
144.1807841696
 20
65.7986412127
 30
0.0
 11
166.993013255
 21
69.6006793936
 31
0.0
  0
LINE
  5
488
330
40A
100
AcDbEntity
  8
0
  6
Continuous
 62
     7
370
    25
100
AcDbLine
 10
198.1063390626
 20
39.9615290014
 30
0.0
 11
173.7873218748
 21
35.9083594701
 31
0.0
  0
LINE
  5
489
330
40A
100
AcDbEntity
  8
0
  6
Continuous
 62
     7
370
    25
100
AcDbLine
 10
-173.7873218748
 20
35.9083594701
 30
0.0
 11
-198.1063390626
 21
39.9615290014
 31
0.0
  0
LINE
  5
48A
330
40A
100
AcDbEntity
  8
0
  6
Continuous
 62
     7
370
    25
100
AcDbLine
 10
-166.993013255
 20
69.6006793936
 30
0.0
 11
-144.1807841696
 21
65.7986412127
 31
0.0
  0
LINE
  5
48B
330
40A
100
AcDbEntity
  8
0
  6
Continuous
 62
     7
370
    25
100
AcDbLine
 10
173.7873218748
 20
35.9083594701
 30
0.0
 11
173.7873218748
 21
-90.2907289064
 31
0.0
  0
LINE
  5
48C
330
40A
100
AcDbEntity
  8
0
  6
Continuous
 62
     7
370
    25
100
AcDbLine
 10
-173.7873218748
 20
-90.2907289064
 30
0.0
 11
-173.7873218748
 21
35.9083594701
 31
0.0
  0
LINE
  5
48D
330
40A
100
AcDbEntity
  8
0
  6
Continuous
 62
     7
370
    25
100
AcDbLine
 10
-144.1807841696
 20
65.7986412127
 30
0.0
 11
144.1807841696
 21
65.7986412127
 31
0.0
  0
LINE
  5
48E
330
40A
100
AcDbEntity
  8
0
  6
Continuous
 62
     7
370
    25
100
AcDbLine
 10
144.1807841696
 20
65.7986412127
 30
0.0
 11
144.1807841696
 21
45.8159797509
 31
0.0
  0
LINE
  5
48F
330
40A
100
AcDbEntity
  8
0
  6
Continuous
 62
     7
370
    25
100
AcDbLine
 10
144.1807841696
 20
45.8159797509
 30
0.0
 11
-144.1807841696
 21
45.8159797509
 31
0.0
  0
LINE
  5
490
330
40A
100
AcDbEntity
  8
0
  6
Continuous
 62
     7
370
    25
100
AcDbLine
 10
-144.1807841696
 20
65.7986412127
 30
0.0
 11
-144.1807841696
 21
45.8159797509
 31
0.0
  0
LINE
  5
491
330
40A
100
AcDbEntity
  8
0
  6
Continuous
 62
     7
370
    25
100
AcDbLine
 10
-154.3844718719
 20
35.9083594701
 30
0.0
 11
-173.7873218748
 21
35.9083594701
 31
0.0
  0
LINE
  5
492
330
40A
100
AcDbEntity
  8
0
  6
Continuous
 62
     7
370
    25
100
AcDbLine
 10
173.7873218748
 20
35.9083594701
 30
0.0
 11
154.3844718719
 21
35.9083594701
 31
0.0
  0
LINE
  5
493
330
40A
100
AcDbEntity
  8
0
  6
Continuous
 62
     7
370
    25
100
AcDbLine
 10
-154.3844718719
 20
35.9083594701
 30
0.0
 11
-154.3844718719
 21
-90.2907289064
 31
0.0
  0
LINE
  5
494
330
40A
100
AcDbEntity
  8
0
  6
Continuous
 62
     7
370
    25
100
AcDbLine
 10
-154.3844718719
 20
-90.2907289064
 30
0.0
 11
-173.7873218748
 21
-90.2907289064
 31
0.0
  0
LINE
  5
495
330
40A
100
AcDbEntity
  8
0
  6
Continuous
 62
     7
370
    25
100
AcDbLine
 10
173.7873218748
 20
-90.2907289064
 30
0.0
 11
154.3844718719
 21
-90.2907289064
 31
0.0
  0
LINE
  5
496
330
40A
100
AcDbEntity
  8
0
  6
Continuous
 62
     7
370
    25
100
AcDbLine
 10
154.3844718719
 20
-90.2907289064
 30
0.0
 11
154.3844718719
 21
35.9083594701
 31
0.0
  0
LINE
  5
497
330
40A
100
AcDbEntity
  8
0
  6
Continuous
 62
     7
370
    25
100
AcDbLine
 10
-144.7767078079
 20
-100.0
 30
0.0
 11
-144.7767078079
 21
-119.2
 31
0.0
  0
LINE
  5
498
330
40A
100
AcDbEntity
  8
0
  6
Continuous
 62
     7
370
    25
100
AcDbLine
 10
144.7767078079
 20
-100.0
 30
0.0
 11
144.7767078079
 21
-119.2
 31
0.0
  0
LINE
  5
499
330
40A
100
AcDbEntity
  8
0
  6
Continuous
 62
     7
370
    25
100
AcDbLine
 10
-144.7767078079
 20
-100.0
 30
0.0
 11
144.7767078079
 21
-100.0
 31
0.0
  0
ARC
  5
49A
330
40A
100
AcDbEntity
  8
0
  6
Continuous
 62
     7
370
    25
100
AcDbCircle
 10
210.0
 20
-160.0
 30
0.0
 40
30.00000000000009
100
AcDbArc
 50
270.0
 51
0.0
  0
ARC
  5
49B
330
40A
100
AcDbEntity
  8
0
  6
Continuous
 62
     7
370
    25
100
AcDbCircle
 10
210.0
 20
-160.0
 30
0.0
 40
39.99999999999991
100
AcDbArc
 50
270.0
 51
0.0
  0
ARC
  5
49C
330
40A
100
AcDbEntity
  8
0
  6
Continuous
 62
     7
370
    25
100
AcDbCircle
 10
169.6039745693
 20
-119.29171207
 30
0.0
 40
38.20896382691424
100
AcDbArc
 50
269.659202927
 51
0.9429465032
  0
ARC
  5
49D
330
40A
100
AcDbEntity
  8
0
  6
Continuous
 62
     7
370
    25
100
AcDbCircle
 10
170.205311763
 20
-119.9801872432
 30
0.0
 40
27.93210570091304
100
AcDbArc
 50
268.3000753354
 51
2.7030582407
  0
ARC
  5
49E
330
40A
100
AcDbEntity
  8
0
  6
Continuous
 62
     7
370
    25
100
AcDbCircle
 10
-169.6039745693
 20
-119.29171207
 30
0.0
 40
38.20896382691418
100
AcDbArc
 50
179.0570534968
 51
270.340797073
  0
ARC
  5
49F
330
40A
100
AcDbEntity
  8
0
  6
Continuous
 62
     7
370
    25
100
AcDbCircle
 10
-170.205311763
 20
-119.9801872432
 30
0.0
 40
27.93210570091301
100
AcDbArc
 50
177.2969417593
 51
271.6999246646
  0
ARC
  5
4A0
330
40A
100
AcDbEntity
  8
0
  6
Continuous
 62
     7
370
    25
100
AcDbCircle
 10
-248.0
 20
198.0
 30
0.0
 40
2.000000000000028
100
AcDbArc
 50
90.0
 51
180.0
  0
ARC
  5
4A1
330
40A
100
AcDbEntity
  8
0
  6
Continuous
 62
     7
370
    25
100
AcDbCircle
 10
-210.0
 20
-160.0
 30
0.0
 40
30.0
100
AcDbArc
 50
180.0
 51
270.0
  0
ARC
  5
4A2
330
40A
100
AcDbEntity
  8
0
  6
Continuous
 62
     7
370
    25
100
AcDbCircle
 10
-210.0
 20
-160.0
 30
0.0
 40
39.99999999999991
100
AcDbArc
 50
180.0
 51
270.0
  0
ARC
  5
4A3
330
40A
100
AcDbEntity
  8
0
  6
Continuous
 62
     7
370
    25
100
AcDbCircle
 10
248.0
 20
198.0
 30
0.0
 40
2.000000000000085
100
AcDbArc
 50
0.0
 51
90.0
  0
ARC
  5
4A4
330
40A
100
AcDbEntity
  8
0
  6
Continuous
 62
     7
370
    25
100
AcDbCircle
 10
143.3936987522
 20
-88.8013510347
 30
0.0
 40
30.43009321317841
100
AcDbArc
 50
272.604917654
 51
357.1945806112
  0
ARC
  5
4A5
330
40A
100
AcDbEntity
  8
0
  6
Continuous
 62
     7
370
    25
100
AcDbCircle
 10
-143.3962876441
 20
-88.8039490021
 30
0.0
 40
30.42738036858452
100
AcDbArc
 50
182.8007717937
 51
267.3997299411
  0
ARC
  5
4A6
330
40A
100
AcDbEntity
  8
0
  6
Continuous
 62
     7
370
    25
100
AcDbCircle
 10
143.8224323208
 20
35.8358066698
 30
0.0
 40
29.96497738850542
100
AcDbArc
 50
0.1387277306
 51
89.3147821307
  0
ARC
  5
4A7
330
40A
100
AcDbEntity
  8
0
  6
Continuous
 62
     7
370
    25
100
AcDbCircle
 10
-143.8224323208
 20
35.8358066698
 30
0.0
 40
29.96497738850534
100
AcDbArc
 50
90.6852178693
 51
179.8612722694
  0
ARC
  5
4A8
330
40A
100
AcDbEntity
  8
0
  6
Continuous
 62
     7
370
    25
100
AcDbCircle
 10
-144.343686602
 20
35.7756388
 30
0.0
 40
10.04166239291479
100
AcDbArc
 50
89.0704695176
 51
179.242699528
  0
ARC
  5
4A9
330
40A
100
AcDbEntity
  8
0
  6
Continuous
 62
     7
370
    25
100
AcDbCircle
 10
144.343686602
 20
35.7756388
 30
0.0
 40
10.04166239291482
100
AcDbArc
 50
0.757300472
 51
90.9295304824
  0
ARC
  5
4AA
330
40A
100
AcDbEntity
  8
0
  6
Continuous
 62
     7
370
    25
100
AcDbCircle
 10
-144.8335244982
 20
-90.4479280175
 30
0.0
 40
9.552240956728532
100
AcDbArc
 50
179.0570534968
 51
270.340797073
  0
ARC
  5
4AB
330
40A
100
AcDbEntity
  8
0
  6
Continuous
 62
     7
370
    25
100
AcDbCircle
 10
144.8335244982
 20
-90.4479280175
 30
0.0
 40
9.552240956728586
100
AcDbArc
 50
269.659202927
 51
0.9429465032
  0
VIEWPORT
  5
6F0
330
40A
100
AcDbEntity
  8
0
100
AcDbViewport
 10
0.0
 20
0.0
 30
0.0
 40
205.6
 41
156.0
 68
     1
 69
     1
 12
0.0
 22
0.0
 13
0.0
 23
0.0
 14
10.0
 24
10.0
 15
10.0
 25
10.0
 16
0.0
 26
0.0
 36
1.0
 17
0.0
 27
0.0
 37
0.0
 42
50.0
 43
0.0
 44
0.0
 45
408.0
 50
0.0
 51
0.0
 72
   100
 90
   557152
  1

281
     0
 71
     1
 74
     0
110
0.0
120
0.0
130
0.0
111
1.0
121
0.0
131
0.0
112
0.0
122
1.0
132
0.0
 79
     0
146
0.0
  0
ENDBLK
  5
40D
330
40A
100
AcDbEntity
  8
0
100
AcDbBlockEnd
  0
BLOCK
  5
4AE
330
4AC
100
AcDbEntity
  8
0
100
AcDbBlockBegin
  2
*Paper_Space3
 70
     0
 10
0.0
 20
0.0
 30
0.0
  3
*Paper_Space3
  1

  0
SPLINE
  5
4B3
330
4AC
100
AcDbEntity
  8
0
  6
Continuous
 62
     7
370
    25
100
AcDbSpline
210
0.0
220
0.0
230
1.0
 70
     8
 71
     3
 72
     9
 73
     5
 74
     0
 42
0.000000001
 43
0.00000001
 40
0.0
 40
0.0
 40
0.0
 40
0.0
 40
0.3766267148149424
 40
1.0
 40
1.0
 40
1.0
 40
1.0
 10
25.577164466275
 20
-139.1913461628089
 30
0.0
 10
25.57359145763741
 20
-139.2605644553893
 30
0.0
 10
25.56410458775529
 20
-139.4443493274063
 30
0.0
 10
25.54909514776785
 20
-139.4736619331186
 30
0.0
 10
25.53973866385412
 20
-139.4919346284388
 30
0.0
  0
SPLINE
  5
4B4
330
4AC
100
AcDbEntity
  8
0
  6
Continuous
 62
     7
370
    25
100
AcDbSpline
210
0.0
220
0.0
230
1.0
 70
     8
 71
     3
 72
    13
 73
     9
 74
     0
 42
0.000000001
 43
0.00000001
 40
0.0
 40
0.0
 40
0.0
 40
0.0
 40
0.1253775551477767
 40
0.3585220008935545
 40
0.5611522090570992
 40
0.7546740689751692
 40
0.9632747599527559
 40
1.0
 40
1.0
 40
1.0
 40
1.0
 10
28.69856607719856
 20
-178.8923925901632
 30
0.0
 10
28.94970949800923
 20
-179.0283405067871
 30
0.0
 10
29.66786388883438
 20
-179.4170888679104
 30
0.0
 10
30.82861447792923
 20
-179.8082550618506
 30
0.0
 10
32.14853241524845
 20
-179.9808668896775
 30
0.0
 10
33.38578936465866
 20
-179.8394703763956
 30
0.0
 10
34.27383683606416
 20
-179.5807821476261
 30
0.0
 10
34.67771959994767
 20
-179.2818499771765
 30
0.0
 10
34.73818076437743
 20
-179.2370998944121
 30
0.0
  0
SPLINE
  5
4B7
330
4AC
100
AcDbEntity
  8
0
  6
Continuous
 62
     7
370
    25
100
AcDbSpline
210
0.0
220
0.0
230
1.0
 70
     8
 71
     3
 72
    13
 73
     9
 74
     0
 42
0.000000001
 43
0.00000001
 40
0.0
 40
0.0
 40
0.0
 40
0.0
 40
0.1688592838188147
 40
0.3627556728541283
 40
0.6018190708404761
 40
0.7779228647614639
 40
0.9443302308136147
 40
1.0
 40
1.0
 40
1.0
 40
1.0
 10
-26.63910714013877
 20
-3.599206754773474
 30
0.0
 10
-26.95736384038107
 20
-3.768377967001468
 30
0.0
 10
-27.6410658011249
 20
-4.131803746925761
 30
0.0
 10
-29.02285623894473
 20
-4.643477904945612
 30
0.0
 10
-30.50226550686247
 20
-5.079955691378979
 30
0.0
 10
-31.91075076962503
 20
-5.548266601629562
 30
0.0
 10
-32.85317332081916
 20
-5.978104733745007
 30
0.0
 10
-33.25246068986842
 20
-6.309473270994904
 30
0.0
 10
-33.35255309987785
 20
-6.392539949446608
 30
0.0
  0
SPLINE
  5
4B8
330
4AC
100
AcDbEntity
  8
0
  6
Continuous
 62
     7
370
    25
100
AcDbSpline
210
0.0
220
0.0
230
1.0
 70
     8
 71
     3
 72
     9
 73
     5
 74
     0
 42
0.000000001
 43
0.00000001
 40
0.0
 40
0.0
 40
0.0
 40
0.0
 40
0.4099740109194816
 40
1.0
 40
1.0
 40
1.0
 40
1.0
 10
-33.54395878316672
 20
-6.541073324754191
 30
0.0
 10
-33.46141231480994
 20
-6.479356458770652
 30
0.0
 10
-33.26006670226331
 20
-6.328817975013751
 30
0.0
 10
-33.17873324133696
 20
-6.297636900955972
 30
0.0
 10
-33.13074438560857
 20
-6.27923925689447
 30
0.0
  0
SPLINE
  5
4B9
330
4AC
100
AcDbEntity
  8
0
  6
Continuous
 62
     7
370
    25
100
AcDbSpline
210
0.0
220
0.0
230
1.0
 70
     8
 71
     3
 72
    44
 73
    40
 74
     0
 42
0.000000001
 43
0.00000001
 40
0.0
 40
0.0
 40
0.0
 40
0.0
 40
0.0083299764392138
 40
0.037186804191287
 40
0.0659996656271153
 40
0.0947383766202689
 40
0.1233892430660861
 40
0.1519463440293478
 40
0.1804104800417529
 40
0.2087875243851096
 40
0.2370866496946593
 40
0.2653187496248149
 40
0.2934952054289745
 40
0.3216270228241668
 40
0.349724294958449
 40
0.3777959201881925
 40
0.4058495017810941
 40
0.4338913671549933
 40
0.4619266584786691
 40
0.4899594600918643
 40
0.5179922238281519
 40
0.546027333715971
 40
0.5740667377333011
 40
0.602111816200857
 40
0.6301634882568304
 40
0.6582223028855202
 40
0.6862885152442666
 40
0.7143621496982395
 40
0.7424430512130422
 40
0.7705309267815255
 40
0.7986253784667513
 40
0.8267259294872913
 40
0.8548320445922203
 40
0.8829431457936853
 40
0.9110586243575098
 40
0.9391778498028878
 40
0.9673001765336682
 40
0.9954249486156128
 40
1.0
 40
1.0
 40
1.0
 40
1.0
 10
-33.1426149432659
 20
-6.268268402950833
 30
0.0
 10
-33.52860795875459
 20
-6.441564780130943
 30
0.0
 10
-35.25176369525947
 20
-7.215197033749329
 30
0.0
 10
-38.41509632034953
 20
-8.397036732427033
 30
0.0
 10
-42.68675845634316
 20
-9.695780359252323
 30
0.0
 10
-47.09453679358418
 20
-10.70329415988525
 30
0.0
 10
-51.62402716181467
 20
-11.428727359556
 30
0.0
 10
-56.26878329626229
 20
-11.8691732898857
 30
0.0
 10
-61.02079664708267
 20
-12.02568808241419
 30
0.0
 10
-65.87285570856652
 20
-11.89874516457573
 30
0.0
 10
-70.81777212107777
 20
-11.48928402725104
 30
0.0
 10
-75.84841677869167
 20
-10.79834827793197
 30
0.0
 10
-80.95755421595923
 20
-9.827168775676215
 30
0.0
 10
-86.13776668292705
 20
-8.577175577354602
 30
0.0
 10
-91.38139669621499
 20
-7.050054867906913
 30
0.0
 10
-96.68052411259858
 20
-5.247802644160054
 30
0.0
 10
-102.0269659604096
 20
-3.172776372321135
 30
0.0
 10
-107.4122935457937
 20
-0.8277376286211918
 30
0.0
 10
-112.8278603754558
 20
1.784115320968394
 30
0.0
 10
-118.2647899508402
 20
4.65910071925911
 30
0.0
 10
-123.7140577215913
 20
7.793054456338891
 30
0.0
 10
-129.1665427664389
 20
11.18133374364252
 30
0.0
 10
-134.6131079160496
 20
14.81885448474637
 30
0.0
 10
-140.0445848082106
 20
18.70007417515648
 30
0.0
 10
-145.4517889692415
 20
22.8189910187328
 30
0.0
 10
-150.8255488794383
 20
27.16915551801392
 30
0.0
 10
-156.156732558139
 20
31.74368431748407
 30
0.0
 10
-161.4362720820913
 20
36.53527544399156
 30
0.0
 10
-166.6551852553431
 20
41.53622521764188
 30
0.0
 10
-171.8045984078137
 20
46.73844364126673
 30
0.0
 10
-176.8757566249539
 20
52.13347861194077
 30
0.0
 10
-181.8600736757269
 20
57.71250923313396
 30
0.0
 10
-186.7490275536197
 20
63.4664557680582
 30
0.0
 10
-191.5346271090066
 20
69.38565495182665
 30
0.0
 10
-196.2077423152102
 20
75.46115833309813
 30
0.0
 10
-200.7644056171165
 20
81.67997231575742
 30
0.0
 10
-205.1823556662821
 20
88.0429128157464
 30
0.0
 10
-208.3010392724945
 20
92.69620388836857
 30
0.0
 10
-209.9095879863922
 20
95.25103405450749
 30
0.0
 10
-210.1346409756828
 20
95.6084818340193
 30
0.0
  0
SPLINE
  5
4BC
330
4AC
100
AcDbEntity
  8
0
  6
Continuous
 62
     7
370
    25
100
AcDbSpline
210
0.0
220
0.0
230
1.0
 70
     8
 71
     3
 72
    11
 73
     7
 74
     0
 42
0.000000001
 43
0.00000001
 40
0.0
 40
0.0
 40
0.0
 40
0.0
 40
0.0283266928678903
 40
0.4123556737355778
 40
0.7420139906244917
 40
1.0
 40
1.0
 40
1.0
 40
1.0
 10
40.5994930834721
 20
36.21304308343228
 30
0.0
 10
40.57819367841128
 20
36.1819616873491
 30
0.0
 10
40.26813522700749
 20
35.72950540936787
 30
0.0
 10
39.52822068616221
 20
34.9712872131343
 30
0.0
 10
38.45163654186918
 20
34.00896751284127
 30
0.0
 10
37.61169819794139
 20
33.49684491938489
 30
0.0
 10
37.242950757038
 20
33.27201425516883
 30
0.0
  0
SPLINE
  5
4BE
330
4AC
100
AcDbEntity
  8
0
  6
Continuous
 62
     7
370
    25
100
AcDbSpline
210
0.0
220
0.0
230
1.0
 70
     8
 71
     3
 72
    14
 73
    10
 74
     0
 42
0.000000001
 43
0.00000001
 40
0.0
 40
0.0
 40
0.0
 40
0.0
 40
0.09564823046427
 40
0.2721910727148219
 40
0.4494706877977755
 40
0.6279372667236452
 40
0.8080881081577971
 40
0.9791265175073389
 40
0.9999999999999999
 40
0.9999999999999999
 40
0.9999999999999999
 40
0.9999999999999999
 10
-84.3085720873662
 20
107.4735355345924
 30
0.0
 10
-84.5303963313177
 20
107.0772986299332
 30
0.0
 10
-85.16165295386313
 20
105.9497069577727
 30
0.0
 10
-86.05990354868621
 20
104.0189240155624
 30
0.0
 10
-86.92563092866953
 20
101.689597195027
 30
0.0
 10
-87.57029439778667
 20
99.32806117043502
 30
0.0
 10
-87.96956579944673
 20
97.01230884402997
 30
0.0
 10
-88.08106664043007
 20
95.41573640389177
 30
0.0
 10
-88.0846563510703
 20
94.60733582386145
 30
0.0
 10
-88.0850467894193
 20
94.519409353061
 30
0.0
  0
SPLINE
  5
4BF
330
4AC
100
AcDbEntity
  8
0
  6
Continuous
 62
     7
370
    25
100
AcDbSpline
210
0.0
220
0.0
230
1.0
 70
     8
 71
     3
 72
    14
 73
    10
 74
     0
 42
0.000000001
 43
0.00000001
 40
0.0
 40
0.0
 40
0.0
 40
0.0
 40
0.0995344511997373
 40
0.2781654642839356
 40
0.4563695209694826
 40
0.6339548127134111
 40
0.810820173105076
 40
0.977996964055403
 40
1.0
 40
1.0
 40
1.0
 40
1.0
 10
-74.97824190321123
 20
117.220826681921
 30
0.0
 10
-75.33878201558502
 20
117.0031506464701
 30
0.0
 10
-76.34637091111419
 20
116.3948190111937
 30
0.0
 10
-77.94012892981671
 20
115.1934767620302
 30
0.0
 10
-79.715639876112
 20
113.5724224187484
 30
0.0
 10
-81.37159968802762
 20
111.7517742547346
 30
0.0
 10
-82.86115467131339
 20
109.8014513632107
 30
0.0
 10
-83.8045376767395
 20
108.3400160449981
 30
0.0
 10
-84.25605699639138
 20
107.5638137018613
 30
0.0
 10
-84.30857208736617
 20
107.4735355345924
 30
0.0
  0
SPLINE
  5
4C0
330
4AC
100
AcDbEntity
  8
0
  6
Continuous
 62
     7
370
    25
100
AcDbSpline
210
0.0
220
0.0
230
1.0
 70
     8
 71
     3
 72
    41
 73
    37
 74
     0
 42
0.000000001
 43
0.00000001
 40
0.0
 40
0.0
 40
0.0
 40
0.0
 40
0.0230297575151721
 40
0.051691721980371
 40
0.0804368642219517
 40
0.1094292097530392
 40
0.1387584249709873
 40
0.1684283773990535
 40
0.1983769451914335
 40
0.2285130596245159
 40
0.2587500894480036
 40
0.2890220428760141
 40
0.3192811133350872
 40
0.3495115936506149
 40
0.3797089359207384
 40
0.4098751352444491
 40
0.4400157580401469
 40
0.4701382068109828
 40
0.5002507845994858
 40
0.5303622322779403
 40
0.5604800095463607
 40
0.5906117374292652
 40
0.6207665580508026
 40
0.6509534421304678
 40
0.6811807121673054
 40
0.7114550673952886
 40
0.741779748269344
 40
0.7721513332355515
 40
0.8025546163705433
 40
0.8329399728801371
 40
0.8632361544018875
 40
0.8933453611048632
 40
0.9231602246636913
 40
0.9526030321521514
 40
0.981670777111832
 40
1.0
 40
1.0
 40
1.0
 40
1.0
 10
43.04538141632096
 20
145.2285501494752
 30
0.0
 10
43.04057913589986
 20
145.7782918052137
 30
0.0
 10
43.0298001190459
 20
147.0122211164861
 30
0.0
 10
42.63637067473348
 20
148.9140821747853
 30
0.0
 10
41.94234746924437
 20
150.9096721366045
 30
0.0
 10
40.93616201906796
 20
152.851529905574
 30
0.0
 10
39.63496146362601
 20
154.7271621463765
 30
0.0
 10
38.0426657034816
 20
156.5216879859613
 30
0.0
 10
36.17187223393226
 20
158.2184299344451
 30
0.0
 10
34.03910293028147
 20
159.8005251542919
 30
0.0
 10
31.66537486574245
 20
161.2524770112636
 30
0.0
 10
29.07452304294403
 20
162.5608938853274
 30
0.0
 10
26.29182367665205
 20
163.7148007636275
 30
0.0
 10
23.34327566063766
 20
164.7053026834567
 30
0.0
 10
20.25516196436999
 20
165.5252407593473
 30
0.0
 10
17.0544401592196
 20
166.1688085634926
 30
0.0
 10
13.76869725924878
 20
166.6314852606292
 30
0.0
 10
10.42604953678272
 20
166.9100294126679
 30
0.0
 10
7.054988701535112
 20
167.0024962440716
 30
0.0
 10
3.684243992398729
 20
166.9082555750823
 30
0.0
 10
0.3425600522383339
 20
166.62801025456
 30
0.0
 10
-2.941597052824253
 20
166.1637837568302
 30
0.0
 10
-6.140325155528398
 20
165.5188569539763
 30
0.0
 10
-9.226482895080158
 20
164.6976801256188
 30
0.0
 10
-12.17379677218141
 20
163.7057892360977
 30
0.0
 10
-14.9569610916605
 20
162.5497169584172
 30
0.0
 10
-17.55165761333608
 20
161.2369365336268
 30
0.0
 10
-19.93446241925096
 20
159.7758996582986
 30
0.0
 10
-22.0823596393875
 20
158.1765349805793
 30
0.0
 10
-23.97279510603045
 20
156.4508061315507
 30
0.0
 10
-25.58464226659105
 20
154.6135913898649
 30
0.0
 10
-26.89740669087245
 20
152.6832137673834
 30
0.0
 10
-27.90046237813565
 20
150.6817328933792
 30
0.0
 10
-28.56696343985983
 20
148.6338651906344
 30
0.0
 10
-28.91067983242938
 20
146.8125053768314
 30
0.0
 10
-28.89702576517161
 20
145.6812800127511
 30
0.0
 10
-28.89174550245731
 20
145.2438157027653
 30
0.0
  0
SPLINE
  5
4C6
330
4AC
100
AcDbEntity
  8
0
  6
Continuous
 62
     7
370
    25
100
AcDbSpline
210
0.0
220
0.0
230
1.0
 70
     8
 71
     3
 72
    29
 73
    25
 74
     0
 42
0.000000001
 43
0.00000001
 40
0.0
 40
0.0
 40
0.0
 40
0.0
 40
0.0049607983504987
 40
0.0582207227142081
 40
0.1117237174777872
 40
0.1633003088011339
 40
0.2130632035617903
 40
0.2617816990123133
 40
0.3100428351664563
 40
0.3581774775405728
 40
0.4063169602813709
 40
0.4545417526844635
 40
0.5028795813058311
 40
0.5513255491448955
 40
0.5998590623873779
 40
0.6484525048821997
 40
0.6970753705499572
 40
0.7456948622508395
 40
0.7942693416872894
 40
0.8427665508702028
 40
0.8911550947954644
 40
0.9394069112259372
 40
0.9875028280509943
 40
1.0
 40
1.0
 40
1.0
 40
1.0
 10
29.55456623992978
 20
145.5639428911122
 30
0.0
 10
29.56019810567338
 20
145.5210375994997
 30
0.0
 10
29.6262945826222
 20
145.0174942362246
 30
0.0
 10
29.46895021642093
 20
144.0554735292482
 30
0.0
 10
29.04806032777715
 20
142.6730575591332
 30
0.0
 10
28.28301318753521
 20
141.3104766466404
 30
0.0
 10
27.23713609754165
 20
140.0032849524311
 30
0.0
 10
25.91955081444778
 20
138.7678788464608
 30
0.0
 10
24.34673093893705
 20
137.6167162910444
 30
0.0
 10
22.53438378121237
 20
136.5651631017942
 30
0.0
 10
20.5040563790919
 20
135.6298907635975
 30
0.0
 10
18.28198946193465
 20
134.8269582827201
 30
0.0
 10
15.89807808007271
 20
134.1705015821698
 30
0.0
 10
13.38560416980127
 20
133.6723366583979
 30
0.0
 10
10.78047292249974
 20
133.3415363936996
 30
0.0
 10
8.120368538610899
 20
133.1841888586247
 30
0.0
 10
5.4440335597771
 20
133.2032830475638
 30
0.0
 10
2.790780567388345
 20
133.3986467929502
 30
0.0
 10
0.1995982328481943
 20
133.7668501700645
 30
0.0
 10
-2.291202389695278
 20
134.3013083564756
 30
0.0
 10
-4.645926956980317
 20
134.991913418279
 30
0.0
 10
-6.827715162810978
 20
135.8265893765986
 30
0.0
 10
-8.327136467953567
 20
136.5499973787473
 30
0.0
 10
-9.094800766453726
 20
136.9849843939589
 30
0.0
 10
-9.25312959456879
 20
137.0746993702815
 30
0.0
  0
SPLINE
  5
4C7
330
4AC
100
AcDbEntity
  8
0
  6
Continuous
 62
     7
370
    25
100
AcDbSpline
210
0.0
220
0.0
230
1.0
 70
     8
 71
     3
 72
    15
 73
    11
 74
     0
 42
0.000000001
 43
0.00000001
 40
0.0
 40
0.0
 40
0.0
 40
0.0
 40
0.0768314880471885
 40
0.2234674447032836
 40
0.3699768827955116
 40
0.5167998840983046
 40
0.6649618814607622
 40
0.8161630873276824
 40
0.9725840295647891
 40
1.0
 40
1.0
 40
1.0
 40
1.0
 10
-9.25312959456879
 20
137.0746993702815
 30
0.0
 10
-9.561203339448534
 20
137.2590740214156
 30
0.0
 10
-10.45724810310279
 20
137.7953350415288
 30
0.0
 10
-11.75893561065738
 20
138.7564041674311
 30
0.0
 10
-13.05475033525275
 20
139.9627604589332
 30
0.0
 10
-14.07121741691605
 20
141.2164201504476
 30
0.0
 10
-14.81825993237028
 20
142.4970491655732
 30
0.0
 10
-15.26513724340189
 20
143.7976764247615
 30
0.0
 10
-15.45953491050694
 20
144.7416292302494
 30
0.0
 10
-15.41417581918686
 20
145.259772141008
 30
0.0
 10
-15.40741132619945
 20
145.3370438407775
 30
0.0
  0
SPLINE
  5
4C8
330
4AC
100
AcDbEntity
  8
0
  6
Continuous
 62
     7
370
    25
100
AcDbSpline
210
0.0
220
0.0
230
1.0
 70
     8
 71
     3
 72
    16
 73
    12
 74
     0
 42
0.000000001
 43
0.00000001
 40
0.0
 40
0.0
 40
0.0
 40
0.0
 40
0.0944582077175042
 40
0.218033604128936
 40
0.3417668524446092
 40
0.4660920279213573
 40
0.5912940413614348
 40
0.7174672135919407
 40
0.8445350291062431
 40
0.9663061584647331
 40
0.9999999999999999
 40
0.9999999999999999
 40
0.9999999999999999
 40
0.9999999999999999
 10
-261.9161895990594
 20
96.30516567782624
 30
0.0
 10
-262.4449208781545
 20
96.00541757731203
 30
0.0
 10
-263.6653673505414
 20
95.3135226084664
 30
0.0
 10
-265.3827600087238
 20
93.91158042938021
 30
0.0
 10
-267.083736404892
 20
92.16836464542853
 30
0.0
 10
-268.5886305387829
 20
90.17158440701135
 30
0.0
 10
-269.8958702802392
 20
87.94174843358324
 30
0.0
 10
-270.9960016735655
 20
85.48718199788225
 30
0.0
 10
-271.8649933081989
 20
82.86298012818622
 30
0.0
 10
-272.3612872794907
 20
80.76028172097861
 30
0.0
 10
-272.5710472805969
 20
79.55870242990964
 30
0.0
 10
-272.6165084555295
 20
79.2982847808882
 30
0.0
  0
SPLINE
  5
4CB
330
4AC
100
AcDbEntity
  8
0
  6
Continuous
 62
     7
370
    25
100
AcDbSpline
210
0.0
220
0.0
230
1.0
 70
     8
 71
     3
 72
    26
 73
    22
 74
     0
 42
0.000000001
 43
0.00000001
 40
0.0
 40
0.0
 40
0.0
 40
0.0
 40
0.0173592492026523
 40
0.0765197579000033
 40
0.0920102924926664
 40
0.1228267180716844
 40
0.1818742410650185
 40
0.2410638379470757
 40
0.3003925319669152
 40
0.3598532012203435
 40
0.4194200698249998
 40
0.4790590318941159
 40
0.5387325641990734
 40
0.5983998577751733
 40
0.6580103190401165
 40
0.7175243713240117
 40
0.7769035724868653
 40
0.8361137555308629
 40
0.8951320552197233
 40
0.9539609916900619
 40
1.0
 40
1.0
 40
1.0
 40
1.0
 10
-11.75014749260687
 20
138.7978837521091
 30
0.0
 10
-11.61918674829591
 20
138.9157049307352
 30
0.0
 10
-11.04191037348886
 20
139.4350619581455
 30
0.0
 10
-10.15840623886924
 20
140.00965213134
 30
0.0
 10
-9.102612347063062
 20
140.6408356327599
 30
0.0
 10
-7.988901173140517
 20
141.2455990652303
 30
0.0
 10
-6.275933070152366
 20
142.0277695979574
 30
0.0
 10
-4.047069405338428
 20
142.8248175626268
 30
0.0
 10
-1.657375957733348
 20
143.475161948301
 30
0.0
 10
0.859532218593818
 20
143.9667585730529
 30
0.0
 10
3.467601297322615
 20
144.2906975180861
 30
0.0
 10
6.129110111391506
 20
144.441001447674
 30
0.0
 10
8.80526864467237
 20
144.4148080874025
 30
0.0
 10
11.45679221305443
 20
144.2124269744025
 30
0.0
 10
14.04460933744981
 20
143.8373850544945
 30
0.0
 10
16.53086271514391
 20
143.296519552728
 30
0.0
 10
18.87845639656649
 20
142.5996049878082
 30
0.0
 10
21.05612682702406
 20
141.7605627229031
 30
0.0
 10
23.02245092851434
 20
140.7929043017528
 30
0.0
 10
24.66268114480301
 20
139.8025901016869
 30
0.0
 10
25.51988464756385
 20
139.1062362461495
 30
0.0
 10
25.89621317454703
 20
138.8005237521274
 30
0.0
  0
SPLINE
  5
4CC
330
4AC
100
AcDbEntity
  8
0
  6
Continuous
 62
     7
370
    25
100
AcDbSpline
210
0.0
220
0.0
230
1.0
 70
     8
 71
     3
 72
    16
 73
    12
 74
     0
 42
0.000000001
 43
0.00000001
 40
0.0
 40
0.0
 40
0.0
 40
0.0
 40
0.4527178413957075
 40
0.5293399804095417
 40
0.5937528858614343
 40
0.650752271984461
 40
0.7080615954880637
 40
0.8297826174589528
 40
0.8857363780785081
 40
0.9414010484399873
 40
1.0
 40
1.0
 40
1.0
 40
1.0
 10
216.8062985054773
 20
31.16718831643772
 30
0.0
 10
216.6699110803838
 20
31.2390955971726
 30
0.0
 10
216.5104401907354
 20
31.32317312868354
 30
0.0
 10
216.0912747998964
 20
31.56615040739476
 30
0.0
 10
215.9066643633743
 20
31.67930627008372
 30
0.0
 10
215.6941994151132
 20
31.81610521043537
 30
0.0
 10
215.3871843683099
 20
32.02277775792182
 30
0.0
 10
215.0961200809487
 20
32.22439747652491
 30
0.0
 10
214.8023432395665
 20
32.42951212401543
 30
0.0
 10
214.6041561833634
 20
32.5702490697248
 30
0.0
 10
214.4967554551973
 20
32.64833583453716
 30
0.0
 10
214.4416760698122
 20
32.68838184806071
 30
0.0
  0
SPLINE
  5
4CD
330
4AC
100
AcDbEntity
  8
0
  6
Continuous
 62
     7
370
    25
100
AcDbSpline
210
0.0
220
0.0
230
1.0
 70
     8
 71
     3
 72
     9
 73
     5
 74
     0
 42
0.000000001
 43
0.00000001
 40
0.0
 40
0.0
 40
0.0
 40
0.0
 40
0.2492795169547704
 40
1.0
 40
1.0
 40
1.0
 40
1.0
 10
215.1733596706948
 20
30.89111714568253
 30
0.0
 10
215.1006390868984
 20
31.04922302237881
 30
0.0
 10
214.8089160256353
 20
31.68347439861593
 30
0.0
 10
214.5881538251108
 20
32.21673038303192
 30
0.0
 10
214.4224231192949
 20
32.61705657323943
 30
0.0
  0
SPLINE
  5
4CE
330
4AC
100
AcDbEntity
  8
0
  6
Continuous
 62
     7
370
    25
100
AcDbSpline
210
0.0
220
0.0
230
1.0
 70
     8
 71
     3
 72
    17
 73
    13
 74
     0
 42
0.000000001
 43
0.00000001
 40
0.0
 40
0.0
 40
0.0
 40
0.0
 40
0.0598305492634314
 40
0.1677276357903174
 40
0.275866556946319
 40
0.3849568847723427
 40
0.4954744720240788
 40
0.6075823090473962
 40
0.7211427692724067
 40
0.8358171099390885
 40
0.9512030047561747
 40
1.0
 40
1.0
 40
1.0
 40
1.0
 10
301.5887339805139
 20
18.18415022045339
 30
0.0
 10
301.5888622834277
 20
18.59087219258049
 30
0.0
 10
301.589221964973
 20
19.73106755512827
 30
0.0
 10
301.2417198478452
 20
21.59184811134322
 30
0.0
 10
300.5813526001414
 20
23.73843816736149
 30
0.0
 10
299.602862991769
 20
25.83175013182593
 30
0.0
 10
298.329596316301
 20
27.86127646739715
 30
0.0
 10
296.7609123923348
 20
29.81374890150251
 30
0.0
 10
294.9074595417782
 20
31.67426212655892
 30
0.0
 10
292.7793612570889
 20
33.4237854338588
 30
0.0
 10
290.8659295217071
 20
34.7388791252444
 30
0.0
 10
289.6528722578076
 20
35.45582705728793
 30
0.0
 10
289.2923380418791
 20
35.66891201892444
 30
0.0
  0
SPLINE
  5
4CF
330
4AC
100
AcDbEntity
  8
0
  6
Continuous
 62
     7
370
    25
100
AcDbSpline
210
0.0
220
0.0
230
1.0
 70
     8
 71
     3
 72
    10
 73
     6
 74
     0
 42
0.000000001
 43
0.00000001
 40
0.0
 40
0.0
 40
0.0
 40
0.0
 40
0.2383791677622701
 40
0.679721674730816
 40
1.0
 40
1.0
 40
1.0
 40
1.0
 10
-88.0850467894193
 20
19.39765465957197
 30
0.0
 10
-88.08766320242344
 20
19.28648773774859
 30
0.0
 10
-88.09512372276022
 20
18.96950296518732
 30
0.0
 10
-88.16463529385506
 20
18.67711252167083
 30
0.0
 10
-88.16708418553641
 20
18.67474278604049
 30
0.0
 10
-88.16811399839504
 20
18.67374626004372
 30
0.0
  0
SPLINE
  5
4D1
330
4AC
100
AcDbEntity
  8
0
  6
Continuous
 62
     7
370
    25
100
AcDbSpline
210
0.0
220
0.0
230
1.0
 70
     8
 71
     3
 72
    15
 73
    11
 74
     0
 42
0.000000001
 43
0.00000001
 40
0.0
 40
0.0
 40
0.0
 40
0.0
 40
0.1133546556172016
 40
0.2527549913149336
 40
0.3896107123467094
 40
0.5232197992758704
 40
0.6543480502779592
 40
0.784009050336753
 40
0.9129680177242867
 40
0.9999999999999999
 40
0.9999999999999999
 40
0.9999999999999999
 40
0.9999999999999999
 10
284.5352021525355
 20
18.76100731164865
 30
0.0
 10
284.5233775605903
 20
18.31363518788617
 30
0.0
 10
284.4970114213426
 20
17.31609753369413
 30
0.0
 10
284.0808983747722
 20
15.77442646023976
 30
0.0
 10
283.3581671907264
 20
14.15179418976326
 30
0.0
 10
282.3279116216253
 20
12.57670961953437
 30
0.0
 10
281.0185942389763
 20
11.06551905081168
 30
0.0
 10
279.4360300808349
 20
9.632738327689149
 30
0.0
 10
277.8072636717748
 20
8.427695312418937
 30
0.0
 10
276.6516041084712
 20
7.733175726490571
 30
0.0
 10
276.1859394924907
 20
7.453324110546056
 30
0.0
  0
SPLINE
  5
4D3
330
4AC
100
AcDbEntity
  8
0
  6
Continuous
 62
     7
370
    25
100
AcDbSpline
210
0.0
220
0.0
230
1.0
 70
     8
 71
     3
 72
    17
 73
    13
 74
     0
 42
0.000000001
 43
0.00000001
 40
0.0
 40
0.0
 40
0.0
 40
0.0
 40
0.0644128031946478
 40
0.181297782335645
 40
0.2979477479125983
 40
0.4129184940926601
 40
0.525234837255389
 40
0.6342900181652283
 40
0.7399878781360261
 40
0.8426704207213986
 40
0.9429518732694365
 40
1.0
 40
1.0
 40
1.0
 40
1.0
 10
287.8423061377994
 20
-33.15140497785794
 30
0.0
 10
288.354067419557
 20
-32.84623397423221
 30
0.0
 10
289.7944826920847
 20
-31.98729253019511
 30
0.0
 10
291.9940570291607
 20
-30.41605256733548
 30
0.0
 10
294.3403544573782
 20
-28.38665702056811
 30
0.0
 10
296.3959070012276
 20
-26.18219184696606
 30
0.0
 10
298.131217788321
 20
-23.83880013498427
 30
0.0
 10
299.5241632951481
 20
-21.39061841130761
 30
0.0
 10
300.5727662748355
 20
-18.87343426026257
 30
0.0
 10
301.2585723362897
 20
-16.31981391785578
 30
0.0
 10
301.6056711939679
 20
-14.11208209535093
 30
0.0
 10
301.5944841524748
 20
-12.76549748507203
 30
0.0
 10
301.5904277012737
 20
-12.27722229961191
 30
0.0
  0
SPLINE
  5
4D8
330
4AC
100
AcDbEntity
  8
0
  6
Continuous
 62
     7
370
    25
100
AcDbSpline
210
0.0
220
0.0
230
1.0
 70
     8
 71
     3
 72
    12
 73
     8
 74
     0
 42
0.000000001
 43
0.00000001
 40
0.0
 40
0.0
 40
0.0
 40
0.0
 40
0.1483494952743561
 40
0.3632772245702837
 40
0.612639929941745
 40
0.8878719082637121
 40
1.0
 40
1.0
 40
1.0
 40
1.0
 10
-119.9080404044262
 20
9.210501714017292
 30
0.0
 10
-119.9066126876643
 20
9.212614044374657
 30
0.0
 10
-119.903116504669
 20
9.217786704437819
 30
0.0
 10
-120.0328064212859
 20
8.958175458174358
 30
0.0
 10
-120.4622587527229
 20
8.496007942682168
 30
0.0
 10
-120.9963721283614
 20
8.059677344240097
 30
0.0
 10
-121.4161591756568
 20
7.835888804478608
 30
0.0
 10
-121.5376738184587
 20
7.771109329629447
 30
0.0
  0
SPLINE
  5
4D9
330
4AC
100
AcDbEntity
  8
0
  6
Continuous
 62
     7
370
    25
100
AcDbSpline
210
0.0
220
0.0
230
1.0
 70
     8
 71
     3
 72
    12
 73
     8
 74
     0
 42
0.000000001
 43
0.00000001
 40
0.0
 40
0.0
 40
0.0
 40
0.0
 40
0.0950468273227803
 40
0.3394898234682364
 40
0.5787340276108298
 40
0.8331944883265618
 40
1.0
 40
1.0
 40
1.0
 40
1.0
 10
-109.92392164321
 20
30.09849727314919
 30
0.0
 10
-109.9188505429436
 20
29.99134092826226
 30
0.0
 10
-109.9007375034792
 20
29.60859813048721
 30
0.0
 10
-110.0136798106557
 20
29.16990788304452
 30
0.0
 10
-110.158566843743
 20
28.85086338529896
 30
0.0
 10
-110.2342747537951
 20
28.76860314503538
 30
0.0
 10
-110.3054129193487
 20
28.72058612200268
 30
0.0
 10
-110.3335809625386
 20
28.70157318333454
 30
0.0
  0
SPLINE
  5
4DA
330
4AC
100
AcDbEntity
  8
0
  6
Continuous
 62
     7
370
    25
100
AcDbSpline
210
0.0
220
0.0
230
1.0
 70
     8
 71
     3
 72
    12
 73
     8
 74
     0
 42
0.000000001
 43
0.00000001
 40
0.0
 40
0.0
 40
0.0
 40
0.0
 40
0.1382724186361421
 40
0.4043918348873214
 40
0.6748122466788934
 40
0.9638701710414085
 40
1.0
 40
1.0
 40
1.0
 40
1.0
 10
-278.902836770634
 20
41.75822295742529
 30
0.0
 10
-278.9390907184957
 20
41.57354580880418
 30
0.0
 10
-279.0451190981415
 20
41.03343859342979
 30
0.0
 10
-279.3262362239579
 20
40.30820621175356
 30
0.0
 10
-279.7618714963073
 20
39.69702459373048
 30
0.0
 10
-280.0692536505829
 20
39.37905021983354
 30
0.0
 10
-280.2992097787823
 20
39.2959873492128
 30
0.0
 10
-280.3247589438261
 20
39.28675868891523
 30
0.0
  0
SPLINE
  5
4DB
330
4AC
100
AcDbEntity
  8
0
  6
Continuous
 62
     7
370
    25
100
AcDbSpline
210
0.0
220
0.0
230
1.0
 70
     8
 71
     3
 72
    11
 73
     7
 74
     0
 42
0.000000001
 43
0.00000001
 40
0.0
 40
0.0
 40
0.0
 40
0.0
 40
0.2563182252009228
 40
0.5554117542781873
 40
0.8380792979675744
 40
1.0
 40
1.0
 40
1.0
 40
1.0
 10
-316.1487545918206
 20
60.94939871306733
 30
0.0
 10
-316.3410946854147
 20
60.83081240660115
 30
0.0
 10
-316.7578732766265
 20
60.57384968592019
 30
0.0
 10
-317.1548306490353
 20
59.93570015087628
 30
0.0
 10
-317.3474255629834
 20
59.31414665907889
 30
0.0
 10
-317.3636979463225
 20
58.92818839691793
 30
0.0
 10
-317.3696244092
 20
58.7876209541983
 30
0.0
  0
SPLINE
  5
4DE
330
4AC
100
AcDbEntity
  8
0
  6
Continuous
 62
     7
370
    25
100
AcDbSpline
210
0.0
220
0.0
230
1.0
 70
     8
 71
     3
 72
    16
 73
    12
 74
     0
 42
0.000000001
 43
0.00000001
 40
0.0
 40
0.0
 40
0.0
 40
0.0
 40
0.067484300354874
 40
0.1908902407144712
 40
0.3138537695944565
 40
0.4363352034618157
 40
0.5585850447561426
 40
0.6810874501373905
 40
0.8042321351469047
 40
0.928608210575069
 40
1.0
 40
1.0
 40
1.0
 40
1.0
 10
-317.3696244092
 20
28.57561091442556
 30
0.0
 10
-317.3619389570664
 20
28.2879812286783
 30
0.0
 10
-317.340199414683
 20
27.47437421697055
 30
0.0
 10
-317.1090455311511
 20
26.08208936042385
 30
0.0
 10
-316.6189379661028
 20
24.42817497719747
 30
0.0
 10
-315.9150843952208
 20
22.80243736694594
 30
0.0
 10
-315.0255970677768
 20
21.25349905592193
 30
0.0
 10
-313.9749720299951
 20
19.82415644695169
 30
0.0
 10
-312.7884502310912
 20
18.56111689783079
 30
0.0
 10
-311.6832660172503
 20
17.64290775822559
 30
0.0
 10
-310.9720515491387
 20
17.20518215285712
 30
0.0
 10
-310.7126888923437
 20
17.04555424728735
 30
0.0
  0
SPLINE
  5
4E0
330
4AC
100
AcDbEntity
  8
0
  6
Continuous
 62
     7
370
    25
100
AcDbSpline
210
0.0
220
0.0
230
1.0
 70
     8
 71
     3
 72
    15
 73
    11
 74
     0
 42
0.000000001
 43
0.00000001
 40
0.0
 40
0.0
 40
0.0
 40
0.0
 40
0.0799423565896064
 40
0.23042846305183
 40
0.3807575298729227
 40
0.5308964924537108
 40
0.6808256243500221
 40
0.8305605613030747
 40
0.9801366559452024
 40
1.0
 40
1.0
 40
1.0
 40
1.0
 10
-7.692510056470342
 20
207.1146155016936
 30
0.0
 10
-8.158321228095872
 20
207.3757560648444
 30
0.0
 10
-9.50099058297954
 20
208.1284761643562
 30
0.0
 10
-11.87981010290612
 20
209.255406735371
 30
0.0
 10
-14.86997894936995
 20
210.4373147180433
 30
0.0
 10
-18.02097016577919
 20
211.4471721385272
 30
0.0
 10
-21.30241217604273
 20
212.2878285157131
 30
0.0
 10
-24.69551488887428
 20
212.9304712853422
 30
0.0
 10
-27.15394511842445
 20
213.3058427266959
 30
0.0
 10
-28.48491283762611
 20
213.4107924323927
 30
0.0
 10
-28.64094185858873
 20
213.4230956607836
 30
0.0
  0
LWPOLYLINE
  5
4E2
330
4AC
100
AcDbEntity
  8
0
  6
Continuous
 62
     7
370
    25
100
AcDbPolyline
 90
       17
 70
   128
 43
0.0
 10
-10.7845250695
 20
-72.6785118813
 10
-11.425398914
 20
-68.9703598021
 10
-12.3157834342
 20
-65.1953713295
 10
-13.4489022662
 20
-61.3822764052
 10
-14.8161316914
 20
-57.560094984
 10
-16.4070662685
 20
-53.7579161744
 10
-18.2095980247
 20
-50.0046768529
 10
-20.2100086048
 20
-46.3289414371
 10
-22.3930736766
 20
-42.7586844929
 10
-24.7421787966
 20
-39.3210778314
 10
-27.2394458564
 20
-36.0422837151
 10
-29.8658691458
 20
-32.947255747
 10
-32.6014599977
 20
-30.0595489587
 10
-35.425398914
 20
-27.4011405425
 10
-38.3161940143
 20
-24.9922625916
 10
-41.2518446025
 20
-22.8512481219
 10
-44.2100086048
 20
-20.9943915461
  0
LWPOLYLINE
  5
4F4
330
4AC
100
AcDbEntity
  8
0
  6
Continuous
 62
     7
370
    25
100
AcDbPolyline
 90
        9
 70
   128
 43
0.0
 10
-278.3445157202
 20
40.6115010532
 10
-278.7273303114
 20
39.1827042342
 10
-279.3524173757
 20
37.9955953103
 10
-280.2007839591
 20
37.0862439853
 10
-281.246652872
 20
36.4822804391
 10
-282.458245917
 20
36.2020557984
 10
-283.7987494523
 20
36.2540845472
 10
-285.2274329565
 20
36.6367858183
 10
-286.7008866041
 20
37.3385314271
  0
LWPOLYLINE
  5
4F6
330
4AC
100
AcDbEntity
  8
0
  6
Continuous
 62
     7
370
    25
100
AcDbPolyline
 90
       17
 70
   128
 43
0.0
 10
-238.6327038698
 20
91.2434413809
 10
-241.5908678722
 20
92.8020082629
 10
-244.5265184603
 20
94.0504238162
 10
-247.4173135606
 20
94.9791868445
 10
-250.2412524769
 20
95.5812289004
 10
-252.9768433288
 20
95.8519680803
 10
-255.6032666183
 20
95.7893438956
 10
-258.1005336781
 20
95.3938329542
 10
-260.449638798
 20
94.668445333
 10
-262.6327038698
 20
93.61870167
 10
-264.6331144499
 20
92.2525911483
 10
-266.4356462061
 20
90.5805106937
 10
-268.0265807832
 20
88.6151858483
 10
-269.3938102085
 20
86.3715739207
 10
-270.5269290404
 20
83.8667501525
 10
-271.4173135606
 20
81.1197777649
 10
-272.0581874051
 20
78.1515628766
  0
LWPOLYLINE
  5
4F8
330
4AC
100
AcDbEntity
  8
0
  6
Continuous
 62
     7
370
    25
100
AcDbPolyline
 90
       36
 70
   128
 43
0.0
 10
-46.2137870242
 20
-19.8376348869
 10
-50.6797741901
 20
-21.8615252783
 10
-55.3124075335
 20
-23.5640313961
 10
-60.103179261
 20
-24.9420266017
 10
-65.0432911592
 20
-25.9929802182
 10
-70.1236707528
 20
-26.7149621776
 10
-75.3349879659
 20
-27.1066465662
 10
-80.667672257
 20
-27.1673140585
 10
-86.1119301947
 20
-26.8968532394
 10
-91.6577634435
 20
-26.2957608078
 10
-97.2949871258
 20
-25.3651406652
 10
-103.0132485261
 20
-24.1067018879
 10
-108.8020461039
 20
-22.5227555885
 10
-114.6507487795
 20
-20.6162106713
 10
-120.5486154579
 20
-18.3905684908
 10
-126.4848147551
 20
-15.8499164206
 10
-132.4484448893
 20
-12.9989203477
 10
-138.4285537021
 20
-9.842816103
 10
-144.4141587725
 20
-6.3873998465
 10
-150.3942675854
 20
-2.6390174219
 10
-156.3578977195
 20
1.3954472968
 10
-162.2940970167
 20
5.7085850482
 10
-168.1919636952
 20
10.2924747896
 10
-174.0406663707
 20
15.138698245
 10
-179.8294639485
 20
20.2383553644
 10
-185.5477253488
 20
25.5820806688
 10
-191.1849490311
 20
31.1600604504
 10
-196.7307822799
 20
36.9620507944
 10
-202.1750402176
 20
42.977396393
 10
-207.5077245087
 20
49.1950501127
 10
-212.7190417218
 20
55.6035932831
 10
-217.7994213154
 20
62.1912566668
 10
-222.7395332136
 20
68.9459420735
 10
-227.5303049411
 20
75.8552445785
 10
-232.1629382845
 20
82.9064753038
 10
-236.6289254504
 20
90.0866847216
  0
LWPOLYLINE
  5
4F9
330
4AC
100
AcDbEntity
  8
0
  6
Continuous
 62
     7
370
    25
100
AcDbPolyline
 90
       17
 70
   128
 43
0.0
 10
-216.3746750431
 20
6.538563398
 10
-217.7541719395
 20
7.1780339778
 10
-219.0806555438
 20
7.479138007
 10
-220.303149835
 20
7.4303042267
 10
-221.3746750431
 20
7.0334092916
 10
-222.2540530552
 20
6.3037056516
 10
-222.9074898675
 20
5.2692354082
 10
-223.3098742697
 20
3.9697526729
 10
-223.4457428549
 20
2.4551958383
 10
-223.3098742697
 20
0.7837684743
 10
-222.9074898675
 20
-0.9802974029
 10
-222.2540530552
 20
-2.769209731
 10
-221.3746750431
 20
-4.5142216124
 10
-220.303149835
 20
-6.1482732191
 10
-219.0806555438
 20
-7.6085688642
 10
-217.7541719395
 20
-8.8389902051
 10
-216.3746750431
 20
-9.7922528397
  0
LWPOLYLINE
  5
4FB
330
4AC
100
AcDbEntity
  8
0
  6
Continuous
 62
     7
370
    25
100
AcDbPolyline
 90
       17
 70
   128
 43
0.0
 10
-207.8893936688
 20
-14.6907015106
 10
-206.5098967724
 20
-15.3301720904
 10
-205.1834131681
 20
-15.6312761196
 10
-203.9609188769
 20
-15.5824423392
 10
-202.8893936688
 20
-15.1855474042
 10
-202.0100156567
 20
-14.4558437641
 10
-201.3565788445
 20
-13.4213735208
 10
-200.9541944422
 20
-12.1218907854
 10
-200.818325857
 20
-10.6073339509
 10
-200.9541944422
 20
-8.9359065868
 10
-201.3565788445
 20
-7.1718407096
 10
-202.0100156567
 20
-5.3829283815
 10
-202.8893936688
 20
-3.6379165002
 10
-203.9609188769
 20
-2.0038648935
 10
-205.1834131681
 20
-0.5435692483
 10
-206.5098967724
 20
0.6868520926
 10
-207.8893936688
 20
1.6401147271
  0
LWPOLYLINE
  5
4FD
330
4AC
100
AcDbEntity
  8
0
  6
Continuous
 62
     7
370
    25
100
AcDbPolyline
 90
       17
 70
   128
 43
0.0
 10
-66.4680374315
 20
-96.3315126929
 10
-65.0885405351
 20
-96.9709832726
 10
-63.7620569308
 20
-97.2720873018
 10
-62.5395626396
 20
-97.2232535215
 10
-61.4680374315
 20
-96.8263585864
 10
-60.5886594194
 20
-96.0966549464
 10
-59.9352226072
 20
-95.062184703
 10
-59.5328382049
 20
-93.7627019677
 10
-59.3969696197
 20
-92.2481451331
 10
-59.5328382049
 20
-90.5767177691
 10
-59.9352226072
 20
-88.8126518919
 10
-60.5886594194
 20
-87.0237395638
 10
-61.4680374315
 20
-85.2787276824
 10
-62.5395626396
 20
-83.6446760758
 10
-63.7620569308
 20
-82.1843804306
 10
-65.0885405351
 20
-80.9539590897
 10
-66.4680374315
 20
-80.0006964552
  0
LWPOLYLINE
  5
4FF
330
4AC
100
AcDbEntity
  8
0
  6
Continuous
 62
     7
370
    25
100
AcDbPolyline
 90
       17
 70
   128
 43
0.0
 10
-74.9533188058
 20
-75.1022477842
 10
-76.3328157022
 20
-74.4627772045
 10
-77.6592993065
 20
-74.1616731753
 10
-78.8817935977
 20
-74.2105069556
 10
-79.9533188058
 20
-74.6074018907
 10
-80.8326968179
 20
-75.3371055307
 10
-81.4861336302
 20
-76.371575774
 10
-81.8885180324
 20
-77.6710585094
 10
-82.0243866176
 20
-79.185615344
 10
-81.8885180324
 20
-80.857042708
 10
-81.4861336302
 20
-82.6211085852
 10
-80.8326968179
 20
-84.4100209133
 10
-79.9533188058
 20
-86.1550327947
 10
-78.8817935977
 20
-87.7890844013
 10
-77.6592993065
 20
-89.2493800465
 10
-76.3328157022
 20
-90.4798013874
 10
-74.9533188058
 20
-91.4330640219
  0
LWPOLYLINE
  5
501
330
4AC
100
AcDbEntity
  8
0
  6
Continuous
 62
     7
370
    25
100
AcDbPolyline
 90
       17
 70
   128
 43
0.0
 10
-42.7957950425
 20
-18.5449018105
 10
-39.7143742067
 20
-20.4791274103
 10
-36.656404844
 20
-22.7093508163
 10
-33.6451599479
 20
-25.2185986817
 10
-30.7035569101
 20
-27.9877741153
 10
-27.853983106
 20
-30.9958020198
 10
-25.1181255128
 20
-34.2197894866
 10
-22.5168056588
 20
-37.6352000244
 10
-20.0698211589
 20
-41.2160402967
 10
-17.7957950425
 20
-44.9350579469
 10
-15.7120340215
 20
-48.7639490051
 10
-13.8343967755
 20
-52.6735732983
 10
-12.1771732577
 20
-56.634176225
 10
-10.7529759397
 20
-60.6156152054
 10
-9.572643823
 20
-64.5875890849
 10
-8.6451599479
 20
-68.5198687439
 10
-7.9775830265
 20
-72.3825271597
  0
LWPOLYLINE
  5
504
330
4AC
100
AcDbEntity
  8
0
  6
Continuous
 62
     7
370
    25
100
AcDbPolyline
 90
       17
 70
   128
 43
0.0
 10
187.0290447107
 20
40.1924028082
 10
186.3614677893
 20
44.055061224
 10
185.4339839141
 20
47.987340883
 10
184.2536517975
 20
51.9593147625
 10
182.8294544795
 20
55.9407537429
 10
181.1722309617
 20
59.9013566696
 10
179.2945937157
 20
63.8109809628
 10
177.2108326947
 20
67.639872021
 10
174.9368065783
 20
71.3588896712
 10
172.4898220783
 20
74.9397299435
 10
169.8885022244
 20
78.3551404813
 10
167.1526446312
 20
81.5791279481
 10
164.3030708271
 20
84.5871558526
 10
161.3614677893
 20
87.3563312862
 10
158.3502228931
 20
89.8655791516
 10
155.2922535305
 20
92.0958025576
 10
152.2108326947
 20
94.0300281574
  0
LWPOLYLINE
  5
518
330
4AC
100
AcDbEntity
  8
0
  6
Continuous
 62
     7
370
    25
100
AcDbPolyline
 90
       17
 70
   128
 43
0.0
 10
287.7924599429
 20
5.31328773
 10
290.2308958134
 20
6.8664222384
 10
292.3938846942
 20
8.550054656
 10
294.2605958199
 20
10.3479706823
 10
295.8130517419
 20
12.2428554032
 10
297.0363014611
 20
14.2164600428
 10
297.9185644139
 20
16.2497777098
 10
298.4513439259
 20
18.3232264433
 10
298.629509039
 20
20.4168377987
 10
298.4513439259
 20
22.5104491541
 10
297.9185644139
 20
24.5838978876
 10
297.0363014611
 20
26.6172155546
 10
295.8130517419
 20
28.5908201943
 10
294.2605958199
 20
30.4857049151
 10
292.3938846942
 20
32.2836209415
 10
290.2308958134
 20
33.9672533591
 10
287.7924599429
 20
35.5203878674
  0
LWPOLYLINE
  5
51A
330
4AC
100
AcDbEntity
  8
0
  6
Continuous
 62
     7
370
    25
100
AcDbPolyline
 90
       16
 70
   128
 43
0.0
 10
277.1858582251
 20
33.4793675879
 10
279.4271119938
 20
32.0424035177
 10
281.3958994014
 20
30.4780673167
 10
283.0706500012
 20
28.8034981796
 10
284.4330148751
 20
27.0370430364
 10
285.4680676684
 20
25.1980555392
 10
286.1644681262
 20
23.30668402
 10
286.5145863393
 20
21.3836507408
 10
286.5145863393
 20
19.4500248567
 10
286.1644681262
 20
17.5269915775
 10
285.4680676684
 20
15.6356200582
 10
284.4330148751
 20
13.796632561
 10
283.0706500012
 20
12.0301774178
 10
281.3958994014
 20
10.3556082808
 10
279.4271119938
 20
8.7912720797
 10
277.1858582251
 20
7.3543080096
  0
SPLINE
  5
51F
330
4AC
100
AcDbEntity
  8
0
  6
Continuous
 62
     7
370
    25
100
AcDbSpline
210
0.0
220
0.0
230
1.0
 70
     8
 71
     3
 72
    20
 73
    16
 74
     0
 42
0.000000001
 43
0.00000001
 40
0.0
 40
0.0
 40
0.0
 40
0.0
 40
0.1249999999999964
 40
0.1249999999999964
 40
0.1874999999999944
 40
0.1874999999999944
 40
0.2499999999999923
 40
0.2499999999999923
 40
0.3749999999999975
 40
0.3749999999999975
 40
0.5000000000000027
 40
0.5000000000000027
 40
0.7500000000000013
 40
0.7500000000000013
 40
1.0
 40
1.0
 40
1.0
 40
1.0
 10
-216.7814227396009
 20
99.55186870478597
 30
0.0
 10
-216.4585780000703
 20
99.66354078896383
 30
0.0
 10
-216.1480160597717
 20
99.784739287401
 30
0.0
 10
-215.7258688523995
 20
100.0004269783007
 30
0.0
 10
-215.5924378061835
 20
100.0782059051515
 30
0.0
 10
-215.3479867133692
 20
100.2401690148005
 30
0.0
 10
-215.2356571418132
 20
100.3248304761198
 30
0.0
 10
-214.9196454183682
 20
100.586615341325
 30
0.0
 10
-214.7358980118118
 20
100.7711516580292
 30
0.0
 10
-214.3812016838639
 20
101.1449835222757
 30
0.0
 10
-214.2105142502969
 20
101.3343906327709
 30
0.0
 10
-213.6869573517944
 20
101.8982451113722
 30
0.0
 10
-213.3216739469391
 20
102.2675967901689
 30
0.0
 10
-212.4931082275978
 20
102.9667801562236
 30
0.0
 10
-212.0320936234746
 20
103.2975263423744
 30
0.0
 10
-211.5051898435986
 20
103.6017014199482
 30
0.0
  0
SPLINE
  5
521
330
4AC
100
AcDbEntity
  8
0
  6
Continuous
 62
     7
370
    25
100
AcDbSpline
210
0.0
220
0.0
230
1.0
 70
     8
 71
     3
 72
    18
 73
    14
 74
     0
 42
0.000000001
 43
0.00000001
 40
0.0
 40
0.0
 40
0.0
 40
0.0
 40
0.2500000000000062
 40
0.2500000000000062
 40
0.5000000000000124
 40
0.5000000000000124
 40
0.6250000000000093
 40
0.6250000000000093
 40
0.7500000000000062
 40
0.7500000000000062
 40
0.8750000000000031
 40
0.8750000000000031
 40
1.0
 40
1.0
 40
1.0
 40
1.0
 10
-235.2147118880313
 20
92.53617445723937
 30
0.0
 10
-234.8658401713374
 20
92.33477510209782
 30
0.0
 10
-234.4829057080082
 20
92.15853939431454
 30
0.0
 10
-233.6439451400868
 20
91.86006398515562
 30
0.0
 10
-233.1988088671656
 20
91.7415050664743
 30
0.0
 10
-232.4902594440751
 20
91.62593859665142
 30
0.0
 10
-232.2459814178904
 20
91.59811947304996
 30
0.0
 10
-231.7585403792555
 20
91.57126009883468
 30
0.0
 10
-231.5115270368981
 20
91.57175663573562
 30
0.0
 10
-231.0210044017661
 20
91.60992026032984
 30
0.0
 10
-230.7824036739932
 20
91.64718321775173
 30
0.0
 10
-230.3316368852253
 20
91.76674993922514
 30
0.0
 10
-230.1293809923593
 20
91.84625642403753
 30
0.0
 10
-229.9531748074272
 20
91.9479780893923
 30
0.0
  0
SPLINE
  5
525
330
4AC
100
AcDbEntity
  8
0
  6
Continuous
 62
     7
370
    25
100
AcDbSpline
210
0.0
220
0.0
230
1.0
 70
     8
 71
     3
 72
    20
 73
    16
 74
     0
 42
0.000000001
 43
0.00000001
 40
0.0
 40
0.0
 40
0.0
 40
0.0
 40
0.0624999999999979
 40
0.0624999999999979
 40
0.1249999999999957
 40
0.1249999999999957
 40
0.2499999999999963
 40
0.2499999999999963
 40
0.3749999999999969
 40
0.3749999999999969
 40
0.4999999999999976
 40
0.4999999999999976
 40
0.7499999999999988
 40
0.7499999999999988
 40
1.0
 40
1.0
 40
1.0
 40
1.0
 10
-45.81846985532645
 20
-14.35072444795273
 30
0.0
 10
-45.90658888172892
 20
-14.40159447909582
 30
0.0
 10
-45.9853628426668
 20
-14.45650158724034
 30
0.0
 10
-46.12524702961512
 20
-14.57394655350158
 30
0.0
 10
-46.18667117329976
 20
-14.63703728179007
 30
0.0
 10
-46.34044388213839
 20
-14.83132057108219
 30
0.0
 10
-46.4051197640006
 20
-14.96999003543943
 30
0.0
 10
-46.47032534045319
 20
-15.25270703014224
 30
0.0
 10
-46.47108893240355
 20
-15.39426515633899
 30
0.0
 10
-46.42367638280697
 20
-15.67768825638041
 30
0.0
 10
-46.37520076522297
 20
-15.81811889911174
 30
0.0
 10
-46.17488239362592
 20
-16.22596295830314
 30
0.0
 10
-45.96466399052172
 20
-16.48772349817595
 30
0.0
 10
-45.45208275154214
 20
-16.96655897139405
 30
0.0
 10
-45.14858743672217
 20
-17.18666367222328
 30
0.0
 10
-44.79957346184156
 20
-17.38814515126798
 30
0.0
  0
SPLINE
  5
527
330
4AC
100
AcDbEntity
  8
0
  6
Continuous
 62
     7
370
    25
100
AcDbSpline
210
0.0
220
0.0
230
1.0
 70
     8
 71
     3
 72
    20
 73
    16
 74
     0
 42
0.000000001
 43
0.00000001
 40
0.0
 40
0.0
 40
0.0
 40
0.0
 40
0.2499999999999969
 40
0.2499999999999969
 40
0.4999999999999938
 40
0.4999999999999938
 40
0.6249999999999953
 40
0.6249999999999953
 40
0.7499999999999969
 40
0.7499999999999969
 40
0.8124999999999977
 40
0.8124999999999977
 40
0.8749999999999984
 40
0.8749999999999984
 40
1.0
 40
1.0
 40
1.0
 40
1.0
 10
-25.63144164289684
 20
-3.700929415591844
 30
0.0
 10
-26.15834542277312
 20
-4.00510449316617
 30
0.0
 10
-26.73127669989324
 20
-4.271242559219123
 30
0.0
 10
-27.94242904458677
 20
-4.749563367650908
 30
0.0
 10
-28.58223424234961
 20
-4.96043698870298
 30
0.0
 10
-29.55896467814017
 20
-5.262679952786536
 30
0.0
 10
-29.8870629669659
 20
-5.361215710792234
 30
0.0
 10
-30.53462891444887
 20
-5.56597754243858
 30
0.0
 10
-30.85428982674818
 20
-5.672052662371224
 30
0.0
 10
-31.30776364876974
 20
-5.854482347191062
 30
0.0
 10
-31.45441749146744
 20
-5.919328828554213
 30
0.0
 10
-31.7349762254546
 20
-6.060447440641894
 30
0.0
 10
-31.86970787697363
 20
-6.137475544033127
 30
0.0
 10
-32.24333039895811
 20
-6.381175939540615
 30
0.0
 10
-32.45327510399871
 20
-6.560459531516558
 30
0.0
 10
-32.64671778749964
 20
-6.746833832559293
 30
0.0
  0
SPLINE
  5
529
330
4AC
100
AcDbEntity
  8
0
  6
Continuous
 62
     7
370
    25
100
AcDbSpline
210
0.0
220
0.0
230
1.0
 70
     8
 71
     3
 72
    18
 73
    14
 74
     0
 42
0.000000001
 43
0.00000001
 40
0.0
 40
0.0
 40
0.0
 40
0.0
 40
0.1249999999999996
 40
0.1249999999999996
 40
0.2499999999999991
 40
0.2499999999999991
 40
0.3749999999999987
 40
0.3749999999999987
 40
0.4999999999999982
 40
0.4999999999999982
 40
0.7499999999999991
 40
0.7499999999999991
 40
1.0
 40
1.0
 40
1.0
 40
1.0
 10
38.24262308276948
 20
33.1727832714918
 30
0.0
 10
38.80906256931172
 20
33.4997818267127
 30
0.0
 10
39.32141458865817
 20
33.84900937704863
 30
0.0
 10
40.26241559915145
 20
34.58186494609939
 30
0.0
 10
40.69079767701056
 20
34.96560266146818
 30
0.0
 10
41.47898677838526
 20
35.76126123013114
 30
0.0
 10
41.83882047129264
 20
36.17389374221554
 30
0.0
 10
42.49110443823332
 20
37.00669085799316
 30
0.0
 10
42.78568298836132
 20
37.42891108571455
 30
0.0
 10
43.59800105928051
 20
38.70874427655197
 30
0.0
 10
44.04467225718619
 20
39.57946532923828
 30
0.0
 10
44.84810270339517
 20
41.33749110847553
 30
0.0
 10
45.20391943242585
 20
42.22378219687199
 30
0.0
 10
45.56071976084899
 20
43.11228734236008
 30
0.0
  0
SPLINE
  5
52C
330
4AC
100
AcDbEntity
  8
0
  6
Continuous
 62
     7
370
    25
100
AcDbSpline
210
0.0
220
0.0
230
1.0
 70
     8
 71
     3
 72
    18
 73
    14
 74
     0
 42
0.000000001
 43
0.00000001
 40
0.0
 40
0.0
 40
0.0
 40
0.0
 40
0.1249999999999991
 40
0.1249999999999991
 40
0.2499999999999981
 40
0.2499999999999981
 40
0.3749999999999972
 40
0.3749999999999972
 40
0.4999999999999962
 40
0.4999999999999962
 40
0.7499999999999981
 40
0.7499999999999981
 40
1.0
 40
1.0
 40
1.0
 40
1.0
 10
-147.6311251179256
 20
140.4754141070357
 30
0.0
 10
-147.0646856313834
 20
140.8024126622566
 30
0.0
 10
-146.4597402237038
 20
141.0981871872874
 30
0.0
 10
-145.1902595926278
 20
141.6414155077053
 30
0.0
 10
-144.5255343484642
 20
141.8887152173311
 30
0.0
 10
-143.1472639435937
 20
142.3437271003545
 30
0.0
 10
-142.432486020132
 20
142.5514546696642
 30
0.0
 10
-140.9898827941444
 20
142.9280101885695
 30
0.0
 10
-140.2584966605368
 20
143.0980667658024
 30
0.0
 10
-138.0415203347913
 20
143.567008006449
 30
0.0
 10
-136.5332238052485
 20
143.8248658003425
 30
0.0
 10
-133.4879038678363
 20
144.2886763244543
 30
0.0
 10
-131.9526363230021
 20
144.4940849498782
 30
0.0
 10
-130.4135335032344
 20
144.700061395145
 30
0.0
  0
SPLINE
  5
52E
330
4AC
100
AcDbEntity
  8
0
  6
Continuous
 62
     7
370
    25
100
AcDbSpline
210
0.0
220
0.0
230
1.0
 70
     8
 71
     3
 72
    20
 73
    16
 74
     0
 42
0.000000001
 43
0.00000001
 40
0.0
 40
0.0
 40
0.0
 40
0.0
 40
0.2499999999999916
 40
0.2499999999999916
 40
0.374999999999993
 40
0.374999999999993
 40
0.4999999999999944
 40
0.4999999999999944
 40
0.6249999999999959
 40
0.6249999999999959
 40
0.7499999999999972
 40
0.7499999999999972
 40
0.8749999999999987
 40
0.8749999999999987
 40
1.0
 40
1.0
 40
1.0
 40
1.0
 10
-46.21378702421467
 20
-19.83763488686217
 30
0.0
 10
-46.70895200362001
 20
-19.40662414778414
 30
0.0
 10
-47.12381239702937
 20
-18.93164864592094
 30
0.0
 10
-47.59279561192517
 20
-18.18629273175429
 30
0.0
 10
-47.72526367916656
 20
-17.92901000349005
 30
0.0
 10
-47.92989381386743
 20
-17.41286733509668
 30
0.0
 10
-48.00256935736871
 20
-17.15438441286882
 30
0.0
 10
-48.0837511126845
 20
-16.63661276576946
 30
0.0
 10
-48.09163001429367
 20
-16.37493317220681
 30
0.0
 10
-48.03341700825513
 20
-15.87126581203502
 30
0.0
 10
-47.96799028931953
 20
-15.62672764088326
 30
0.0
 10
-47.75564284392519
 20
-15.15934554968187
 30
0.0
 10
-47.61186750629068
 20
-14.94289941360334
 30
0.0
 10
-47.24329864783302
 20
-14.54724685903108
 30
0.0
 10
-47.02151786746059
 20
-14.37209554845857
 30
0.0
 10
-46.76504183635878
 20
-14.22403508725906
 30
0.0
  0
SPLINE
  5
530
330
4AC
100
AcDbEntity
  8
0
  6
Continuous
 62
     7
370
    25
100
AcDbSpline
210
0.0
220
0.0
230
1.0
 70
     8
 71
     3
 72
    22
 73
    18
 74
     0
 42
0.000000001
 43
0.00000001
 40
0.0
 40
0.0
 40
0.0
 40
0.0
 40
0.1249999999999882
 40
0.1249999999999882
 40
0.1874999999999834
 40
0.1874999999999834
 40
0.2499999999999787
 40
0.2499999999999787
 40
0.3124999999999739
 40
0.3124999999999739
 40
0.3749999999999692
 40
0.3749999999999692
 40
0.4999999999999731
 40
0.4999999999999731
 40
0.7499999999999866
 40
0.7499999999999866
 40
1.0
 40
1.0
 40
1.0
 40
1.0
 10
-229.0066028263949
 20
90.9817787035771
 30
0.0
 10
-229.263687335538
 20
90.83336697548125
 30
0.0
 10
-229.5477615425518
 20
90.69679661964871
 30
0.0
 10
-230.0124120811321
 20
90.50887316200671
 30
0.0
 10
-230.1741094392565
 20
90.4490372073878
 30
0.0
 10
-230.5026191776625
 20
90.3377293464718
 30
0.0
 10
-230.6703402943261
 20
90.28586420488399
 30
0.0
 10
-231.0124130563795
 20
90.18939135136577
 30
0.0
 10
-231.1877618692122
 20
90.14457266947196
 30
0.0
 10
-231.5388285948016
 20
90.06348467502777
 30
0.0
 10
-231.7146495273603
 20
90.02712326161512
 30
0.0
 10
-232.2429153203321
 20
89.92967562596448
 30
0.0
 10
-232.5982801548077
 20
89.87992072171963
 30
0.0
 10
-233.6534422894746
 20
89.77574833724078
 30
0.0
 10
-234.3159615421965
 20
89.76664872201921
 30
0.0
 10
-235.5710974560541
 20
89.85244746723389
 30
0.0
 10
-236.1329438436061
 20
89.9457581107232
 30
0.0
 10
-236.6289254504044
 20
90.0866847216452
 30
0.0
  0
LWPOLYLINE
  5
531
330
4AC
100
AcDbEntity
  8
0
  6
Continuous
 62
     7
370
    25
100
AcDbPolyline
 90
       35
 70
   128
 43
0.0
 10
-229.0066028264
 20
90.9817787036
 10
-224.560215377
 20
83.9861459533
 10
-219.9525804951
 20
77.1229581618
 10
-215.1922701391
 20
70.4049834764
 10
-210.2881403019
 20
63.8447198924
 10
-205.2493145358
 20
57.4543720025
 10
-200.0851669788
 20
51.2458282915
 10
-194.8053049151
 20
45.2306390186
 10
-189.4195509021
 20
39.4199947306
 10
-183.9379244967
 20
33.8247054422
 10
-178.3706236149
 20
28.4551805258
 10
-172.72800556
 20
23.3214093459
 10
-167.0205677539
 20
18.4329426752
 10
-161.2589282081
 20
13.7988749262
 10
-155.4538057697
 20
9.4278272328
 10
-149.616000181
 20
5.3279314109
 10
-143.756371987
 20
1.5068148307
 10
-137.8858223314
 20
-2.0284137736
 10
-132.0152726757
 20
-5.2711775281
 10
-126.1556444818
 20
-8.2154436554
 10
-120.317838893
 20
-10.8557346974
 10
-114.5127164547
 20
-13.1871387056
 10
-108.7510769088
 20
-15.2053183792
 10
-103.0436391027
 20
-16.9065191343
 10
-97.4010210478
 20
-18.2875760886
 10
-91.8337201661
 20
-19.3459199492
 10
-86.3520937607
 20
-20.079581793
 10
-80.9663397477
 20
-20.487196729
 10
-75.686477684
 20
-20.568006438
 10
-70.5223301269
 20
-20.321860583
 10
-65.4835043609
 20
-19.7492170894
 10
-60.5793745237
 20
-18.8511412923
 10
-55.8190641676
 20
-17.6293039554
 10
-51.2114292857
 20
-16.0859781622
 10
-46.7650418364
 20
-14.2240350873
  0
SPLINE
  5
537
330
4AC
100
AcDbEntity
  8
0
  6
Continuous
 62
     7
370
    25
100
AcDbSpline
210
0.0
220
0.0
230
1.0
 70
     8
 71
     3
 72
    12
 73
     8
 74
     0
 42
0.000000001
 43
0.00000001
 40
0.0
 40
0.0
 40
0.0
 40
0.0
 40
0.4999999999999708
 40
0.4999999999999708
 40
0.7499999999999853
 40
0.7499999999999853
 40
1.0
 40
1.0
 40
1.0
 40
1.0
 10
-33.70631684962721
 20
-6.685393616914531
 30
0.0
 10
-33.56144151020553
 20
-6.616599874807894
 30
0.0
 10
-33.39602452016378
 20
-6.58759654239173
 30
0.0
 10
-33.12393155728487
 20
-6.603538271669026
 30
0.0
 10
-33.03118296528848
 20
-6.61872053242335
 30
0.0
 10
-32.84167834366233
 20
-6.668230994207672
 30
0.0
 10
-32.74313045225066
 20
-6.703399658441509
 30
0.0
 10
-32.64671778749899
 20
-6.746833832558419
 30
0.0
  0
SPLINE
  5
538
330
4AC
100
AcDbEntity
  8
0
  6
Continuous
 62
     7
370
    25
100
AcDbSpline
210
0.0
220
0.0
230
1.0
 70
     8
 71
     3
 72
    12
 73
     8
 74
     0
 42
0.000000001
 43
0.00000001
 40
0.0
 40
0.0
 40
0.0
 40
0.0
 40
0.499999999999992
 40
0.499999999999992
 40
0.749999999999996
 40
0.749999999999996
 40
1.0
 40
1.0
 40
1.0
 40
1.0
 10
-215.4222091013515
 20
98.22338080345448
 30
0.0
 10
-215.1995696105369
 20
98.1901274801472
 30
0.0
 10
-214.9740376083707
 20
98.14431854867966
 30
0.0
 10
-214.6365292898071
 20
98.05753490704394
 30
0.0
 10
-214.5242519645155
 20
98.02565060360563
 30
0.0
 10
-214.3001274819732
 20
97.95611634418867
 30
0.0
 10
-214.1871084856283
 20
97.9179317764859
 30
0.0
 10
-214.0767870371012
 20
97.87808381491224
 30
0.0
  0
LWPOLYLINE
  5
539
330
4AC
100
AcDbEntity
  8
0
  6
Continuous
 62
     7
370
    25
100
AcDbPolyline
 90
       35
 70
   128
 43
0.0
 10
-33.4105863782
 20
-6.4182938147
 10
-37.8383823709
 20
-8.2057177685
 10
-42.4226307465
 20
-9.6807146567
 10
-47.154982584
 20
-10.8405981864
 10
-52.0268192339
 20
-11.6832559559
 10
-57.0292680141
 20
-12.2071533004
 10
-62.1532183692
 20
-12.4113360883
 10
-67.3893384628
 20
-12.295432458
 10
-72.728092173
 20
-11.8596534952
 10
-78.1597564594
 20
-11.1047928491
 10
-83.6744390712
 20
-10.0322252862
 10
-89.2620965629
 20
-8.6439041871
 10
-94.9125525858
 20
-6.9423579888
 10
-100.6155164215
 20
-4.9306855797
 10
-106.3606017231
 20
-2.612550656
 10
-112.1373454314
 20
0.0078249506
 10
-117.9352268305
 20
2.9256689619
 10
-123.7436867076
 20
6.1356673447
 10
-129.5521465848
 20
9.6319739884
 10
-135.3500279838
 20
13.4082213526
 10
-141.1267716922
 20
17.4575320635
 10
-146.8718569938
 20
21.7725314388
 10
-152.5748208295
 20
26.3453609193
 10
-158.2252768524
 20
31.1676923804
 10
-163.8129343441
 20
36.2307432999
 10
-169.3276169559
 20
41.5252927526
 10
-174.7592812423
 20
47.0416982039
 10
-180.0980349525
 20
52.7699130707
 10
-185.3341550461
 20
58.6995050184
 10
-190.4581054012
 20
64.819674961
 10
-195.4605541814
 20
71.1192767279
 10
-200.3323908313
 20
77.5868373638
 10
-205.0647426688
 20
84.2105780238
 10
-209.6489910444
 20
90.9784354246
 10
-214.0767870371
 20
97.8780838149
  0
SPLINE
  5
53A
330
4AC
100
AcDbEntity
  8
0
  6
Continuous
 62
     7
370
    25
100
AcDbSpline
210
0.0
220
0.0
230
1.0
 70
     8
 71
     3
 72
     9
 73
     5
 74
     0
 42
0.000000001
 43
0.00000001
 40
0.0
 40
0.0
 40
0.0
 40
0.0
 40
0.9824164846952034
 40
1.0
 40
1.0
 40
1.0
 40
1.0
 10
-33.5483001590683
 20
-6.534610839364921
 30
0.0
 10
-33.49656738276124
 20
-6.493222139537486
 30
0.0
 10
-33.44390868137238
 20
-6.451092655278809
 30
0.0
 10
-33.41116217685383
 20
-6.418860568057225
 30
0.0
 10
-33.41058637819049
 20
-6.418293814658235
 30
0.0
  0
SPLINE
  5
53B
330
4AC
100
AcDbEntity
  8
0
  6
Continuous
 62
     7
370
    25
100
AcDbSpline
210
0.0
220
0.0
230
1.0
 70
     8
 71
     3
 72
    10
 73
     6
 74
     0
 42
0.000000001
 43
0.00000001
 40
0.0
 40
0.0
 40
0.0
 40
0.0
 40
0.298377604475213
 40
0.6824336443472737
 40
1.0
 40
1.0
 40
1.0
 40
1.0
 10
-33.70631684962721
 20
-6.685393616914531
 30
0.0
 10
-33.72669398095354
 20
-6.694677885529507
 30
0.0
 10
-33.77329948948979
 20
-6.715912378906203
 30
0.0
 10
-33.79465634285457
 20
-6.720439689090377
 30
0.0
 10
-33.77931723472831
 20
-6.70748466054584
 30
0.0
 10
-33.77237449074281
 20
-6.701620991956453
 30
0.0
  0
SPLINE
  5
53D
330
4AC
100
AcDbEntity
  8
0
  6
Continuous
 62
     7
370
    25
100
AcDbSpline
210
0.0
220
0.0
230
1.0
 70
     8
 71
     3
 72
    10
 73
     6
 74
     0
 42
0.000000001
 43
0.00000001
 40
0.0
 40
0.0
 40
0.0
 40
0.0
 40
0.5
 40
0.5
 40
1.0
 40
1.0
 40
1.0
 40
1.0
 10
-215.4222091013515
 20
98.22338080345268
 30
0.0
 10
-215.5191931013689
 20
98.23786628532491
 30
0.0
 10
-215.6173526006023
 20
98.26344813706346
 30
0.0
 10
-215.8033134504871
 20
98.35340647442278
 30
0.0
 10
-215.8963550427503
 20
98.42231528620921
 30
0.0
 10
-215.9478778397048
 20
98.52042017388347
 30
0.0
  0
SPLINE
  5
540
330
4AC
100
AcDbEntity
  8
0
  6
Continuous
 62
     7
370
    25
100
AcDbSpline
210
0.0
220
0.0
230
1.0
 70
     8
 71
     3
 72
    26
 73
    22
 74
     0
 42
0.000000001
 43
0.00000001
 40
0.0
 40
0.0
 40
0.0
 40
0.0
 40
0.0432686097934431
 40
0.0844960779626842
 40
0.1749479956780202
 40
0.3849991165277464
 40
0.4461920872108511
 40
0.5118964471357708
 40
0.6587764825250312
 40
0.7236413235700327
 40
0.7744158623205318
 40
0.8266429751753828
 40
0.8493923806473895
 40
0.8708734617224889
 40
0.8935725186821745
 40
0.9151036588859526
 40
0.9343684128938153
 40
0.9524736995996386
 40
0.9694345231386794
 40
0.985269141298066
 40
1.0
 40
1.0
 40
1.0
 40
1.0
 10
232.4123351090179
 20
7.022661932729698
 30
0.0
 10
231.993478035311
 20
6.879963290698162
 30
0.0
 10
231.1755229375134
 20
6.601297633543362
 30
0.0
 10
229.482837749636
 20
6.036125496481636
 30
0.0
 10
226.1784858117006
 20
4.961369896228973
 30
0.0
 10
222.6877527420825
 20
3.902314962009532
 30
0.0
 10
219.4469233767756
 20
3.003813040752895
 30
0.0
 10
216.8186475029337
 20
2.312745846803216
 30
0.0
 10
214.1653160202759
 20
1.684675574583919
 30
0.0
 10
211.6736912903089
 20
1.192671791990479
 30
0.0
 10
210.0899453078092
 20
0.9233648804522487
 30
0.0
 10
208.9120164038464
 20
0.7594226122135811
 30
0.0
 10
208.0156367745149
 20
0.6606043791638899
 30
0.0
 10
207.3971778966531
 20
0.6047885961182192
 30
0.0
 10
206.7941525845501
 20
0.5647710692401609
 30
0.0
 10
206.2165638190248
 20
0.5424805944051203
 30
0.0
 10
205.6863316136736
 20
0.5383616896507959
 30
0.0
 10
205.2031224765596
 20
0.5511759381519044
 30
0.0
 10
204.7574248112285
 20
0.5813215205362765
 30
0.0
 10
204.3480295790955
 20
0.6261735473725716
 30
0.0
 10
204.0928869412333
 20
0.6729089113488018
 30
0.0
 10
203.9699223899443
 20
0.6954327556925599
 30
0.0
  0
LWPOLYLINE
  5
54E
330
4AC
100
AcDbEntity
  8
0
  6
Continuous
 62
     7
370
    25
100
AcDbPolyline
 90
        9
 70
   128
 43
0.0
 10
-44.6231060123
 20
84.5633327335
 10
-45.17876611
 20
84.8842000097
 10
-45.8489410869
 20
85.2711718011
 10
-46.6078764947
 20
85.7093769988
 10
-47.4264068712
 20
86.1819756228
 10
-48.273076553
 20
86.6708059731
 10
-49.1153484991
 20
87.1570825734
 10
-49.920854671
 20
87.6221180866
 10
-50.6586399182
 20
88.0480414589
  0
SPLINE
  5
558
330
4AC
100
AcDbEntity
  8
0
  6
Continuous
 62
     7
370
    25
100
AcDbSpline
210
0.0
220
0.0
230
1.0
 70
     8
 71
     3
 72
    22
 73
    18
 74
     0
 42
0.000000001
 43
0.00000001
 40
0.0
 40
0.0
 40
0.0
 40
0.0
 40
0.2499999999999977
 40
0.2499999999999977
 40
0.3749999999999977
 40
0.3749999999999977
 40
0.4999999999999981
 40
0.4999999999999981
 40
0.6249999999999984
 40
0.6249999999999984
 40
0.7499999999999989
 40
0.7499999999999989
 40
0.8749999999999992
 40
0.8749999999999992
 40
0.9374999999999996
 40
0.9374999999999996
 40
1.0
 40
1.0
 40
1.0
 40
1.0
 10
3.109508439325184
 20
123.8709181409868
 30
0.0
 10
3.894614252389093
 20
123.8207382426526
 30
0.0
 10
4.665292280308369
 20
123.6965458105152
 30
0.0
 10
5.80139995928719
 20
123.4078898954478
 30
0.0
 10
6.17298112755336
 20
123.2947921455424
 30
0.0
 10
6.888450159191112
 20
123.0372233084492
 30
0.0
 10
7.234430079386126
 20
122.8923145732961
 30
0.0
 10
7.899816041132206
 20
122.5639986589977
 30
0.0
 10
8.22207184236285
 20
122.3785932543844
 30
0.0
 10
8.811737970973825
 20
121.9690317638237
 30
0.0
 10
9.080893085529452
 20
121.7449384363197
 30
0.0
 10
9.550488723033647
 20
121.2409739826425
 30
0.0
 10
9.74283931894014
 20
120.9693676919844
 30
0.0
 10
9.946455062501308
 20
120.5242917804296
 30
0.0
 10
9.999581876995604
 20
120.3696580848849
 30
0.0
 10
10.07033584264291
 20
120.0569910757048
 30
0.0
 10
10.08863163854892
 20
119.8976816828963
 30
0.0
 10
10.08863163854892
 20
119.7351355864875
 30
0.0
  0
LWPOLYLINE
  5
55C
330
4AC
100
AcDbEntity
  8
0
  6
Continuous
 62
     7
370
    25
100
AcDbPolyline
 90
        9
 70
   128
 43
0.0
 10
-93.6916485072
 20
13.2732668203
 10
-92.3121516108
 20
12.6337962405
 10
-90.9856680065
 20
12.3326922113
 10
-89.7631737153
 20
12.3815259916
 10
-88.6916485072
 20
12.7784209267
 10
-87.8122704951
 20
13.5081245667
 10
-87.1588336828
 20
14.5425948101
 10
-86.7564492806
 20
15.8420775454
 10
-86.6205806954
 20
17.35663438
  0
LWPOLYLINE
  5
55F
330
4AC
100
AcDbEntity
  8
0
  6
Continuous
 62
     7
370
    25
100
AcDbPolyline
 90
       14
 70
   128
 43
0.0
 10
-28.7102967141
 20
142.240100657
 10
-28.1067280057
 20
140.1108023609
 10
-27.1239943145
 20
138.0291048394
 10
-25.7726880664
 20
136.017445735
 10
-24.0673743587
 20
134.0975077787
 10
-22.0264339689
 20
132.2899850826
 10
-19.6718652375
 20
130.614360087
 10
-17.0290469579
 20
129.0886935689
 10
-14.1264648303
 20
127.729429973
 10
-10.9954044279
 20
126.5512201649
 10
-7.669613984
 20
125.5667635162
 10
-4.1849406359
 20
124.7866710239
 10
-0.5789440455
 20
124.2193509397
 10
3.1095084393
 20
123.870918141
  0
SPLINE
  5
569
330
4AC
100
AcDbEntity
  8
0
  6
Continuous
 62
     7
370
    25
100
AcDbSpline
210
0.0
220
0.0
230
1.0
 70
     8
 71
     3
 72
    24
 73
    20
 74
     0
 42
0.000000001
 43
0.00000001
 40
0.0
 40
0.0
 40
0.0
 40
0.0
 40
0.1250000000000003
 40
0.1250000000000003
 40
0.2500000000000006
 40
0.2500000000000006
 40
0.3750000000000009
 40
0.3750000000000009
 40
0.5000000000000012
 40
0.5000000000000012
 40
0.6250000000000016
 40
0.6250000000000016
 40
0.7500000000000018
 40
0.7500000000000018
 40
0.8750000000000021
 40
0.8750000000000021
 40
0.9375000000000011
 40
0.9375000000000011
 40
1.0
 40
1.0
 40
1.0
 40
1.0
 10
10.0886316385489
 20
105.8539417844298
 30
0.0
 10
10.0886316385489
 20
105.5761412570659
 30
0.0
 10
10.10403205539506
 20
105.2843419519118
 30
0.0
 10
10.16423271271269
 20
104.6741349053665
 30
0.0
 10
10.20987971579559
 20
104.3518860391586
 30
0.0
 10
10.32754280119241
 20
103.705808989263
 30
0.0
 10
10.39936719892943
 20
103.3806627646785
 30
0.0
 10
10.56888316773974
 20
102.7263397970807
 30
0.0
 10
10.66582564700633
 20
102.4010021554092
 30
0.0
 10
10.8775620462022
 20
101.7725255114964
 30
0.0
 10
10.9941107055688
 20
101.4641138877341
 30
0.0
 10
11.24264696997218
 20
100.8750705333754
 30
0.0
 10
11.37304345589137
 20
100.5976520996962
 30
0.0
 10
11.64584266341794
 20
100.0756367752032
 30
0.0
 10
11.7894608114324
 20
99.8294603750224
 30
0.0
 10
12.00748136013021
 20
99.49670921871694
 30
0.0
 10
12.0807498667609
 20
99.3915001987646
 30
0.0
 10
12.2284797116311
 20
99.19246385028288
 30
0.0
 10
12.30385427995132
 20
99.09757946908573
 30
0.0
 10
12.37790455829466
 20
99.01076629206688
 30
0.0
  0
LWPOLYLINE
  5
56A
330
4AC
100
AcDbEntity
  8
0
  6
Continuous
 62
     7
370
    25
100
AcDbPolyline
 90
       62
 70
   128
 43
0.0
 10
-16.9705627485
 20
133.0977447381
 10
-14.3711546891
 20
131.7442586012
 10
-11.5444537369
 20
130.5522399484
 10
-8.5204236254
 20
129.534324474
 10
-5.3311198259
 20
128.7013023354
 10
-2.0103497521
 20
128.0620037743
 10
1.406685607
 20
127.6232055147
 10
4.8837648266
 20
127.3895589271
 10
8.384030002
 20
127.3635407236
 10
11.8703774516
 20
127.5454267036
 10
15.305851025
 20
127.9332888304
 10
18.6540338479
 20
128.523015669
 10
21.8794343492
 20
129.3083559683
 10
24.9478624813
 20
130.2809849256
 10
27.8267921428
 20
131.4305924321
 10
30.4857059629
 20
132.7449923622
 10
32.8964187937
 20
134.2102517497
 10
35.0333764795
 20
135.8108384805
 10
36.8739267373
 20
137.5297859371
 10
38.3985592763
 20
139.3488728489
 10
39.5911126125
 20
141.248816442
 10
40.4389453837
 20
143.2094768418
 10
40.9330703517
 20
145.2100705601
 10
41.0682496689
 20
147.229390806
 10
40.843050401
 20
149.2460322825
 10
40.2598597161
 20
151.2386180882
 10
39.3248595806
 20
153.1860263179
 10
38.0479612285
 20
155.0676139598
 10
36.4427001001
 20
156.863435717
 10
34.5260923627
 20
158.5544554321
 10
32.318454535
 20
160.1227478753
 10
29.8431881272
 20
161.5516887566
 10
27.126531579
 20
162.8261309473
 10
24.1972821257
 20
163.932565043
 10
21.0864905401
 20
164.8592625671
 10
17.827131987
 20
165.5964002954
 10
14.4537564779
 20
166.1361643844
 10
11.0021226323
 20
166.4728332006
 10
7.5088186277
 20
166.6028379707
 10
4.0108743555
 20
166.524800612
 10
0.5453688952
 20
166.2395483397
 10
-2.8509625331
 20
165.750104899
 10
-6.1421179715
 20
165.061658512
 10
-9.2932103535
 20
164.1815068818
 10
-12.270837316
 20
163.1189798345
 10
-15.0434352724
 20
161.8853404212
 10
-17.5816139947
 20
160.4936655266
 10
-19.858468157
 20
158.9587072508
 10
-21.8498625388
 20
157.2967365333
 10
-23.5346878641
 20
155.5253706772
 10
-24.8950845654
 20
153.6633866012
 10
-25.9166320993
 20
151.7305217998
 10
-26.5885018078
 20
149.7472651206
 10
-26.9035717048
 20
147.7346395779
 10
-26.858501971
 20
145.7139795031
 10
-26.4537703568
 20
143.7067043957
 10
-25.6936671181
 20
141.7340918711
 10
-24.5862495381
 20
139.8170521129
 10
-23.1432565189
 20
137.9759062193
 10
-21.3799841452
 20
136.2301707949
 10
-19.3151235431
 20
134.5983510695
 10
-16.9705627485
 20
133.0977447381
  0
SPLINE
  5
56C
330
4AC
100
AcDbEntity
  8
0
  6
Continuous
 62
     7
370
    25
100
AcDbSpline
210
0.0
220
0.0
230
1.0
 70
     8
 71
     3
 72
     9
 73
     5
 74
     0
 42
0.000000001
 43
0.00000001
 40
0.0
 40
0.0
 40
0.0
 40
0.0
 40
0.4903033009971358
 40
1.0
 40
1.0
 40
1.0
 40
1.0
 10
-28.91255839011715
 20
143.6597686506019
 30
0.0
 10
-28.9125482878039
 20
143.5607237921439
 30
0.0
 10
-28.91252768359172
 20
143.3587164667669
 30
0.0
 10
-28.77857298285222
 20
142.6177624655374
 30
0.0
 10
-28.71029671406939
 20
142.2401006569978
 30
0.0
  0
LWPOLYLINE
  5
56D
330
4AC
100
AcDbEntity
  8
0
  6
Continuous
 62
     7
370
    25
100
AcDbPolyline
 90
       53
 70
   128
 43
0.0
 10
-10.2530483272
 20
136.9756832693
 10
-12.2149274631
 20
138.2540890781
 10
-13.8955733595
 20
139.6596899426
 10
-15.2704784149
 20
141.1719890371
 10
-16.3195934176
 20
142.7689336353
 10
-17.0276199083
 20
144.427236689
 10
-17.3842332666
 20
146.1227164055
 10
-17.3842332666
 20
147.8306488727
 10
-17.0276199083
 20
149.5261285892
 10
-16.3195934176
 20
151.1844316429
 10
-15.2704784149
 20
152.7813762411
 10
-13.8955733595
 20
154.2936753356
 10
-12.2149274631
 20
155.6992762001
 10
-10.2530483272
 20
156.9776820089
 10
-8.0385445675
 20
158.1102507267
 10
-5.6037086355
 20
159.0804669511
 10
-2.9840459217
 20
159.8741827448
 10
-0.2177570076
 20
160.4798239444
 10
2.6548193854
 20
160.8885589374
 10
5.591794625
 20
161.0944274471
 10
8.5503409987
 20
161.0944274471
 10
11.4873162383
 20
160.8885589374
 10
14.3598926313
 20
160.4798239444
 10
17.1261815455
 20
159.8741827448
 10
19.7458442592
 20
159.0804669511
 10
22.1806801913
 20
158.1102507267
 10
24.3951839509
 20
156.9776820089
 10
26.3570630868
 20
155.6992762001
 10
28.0377089833
 20
154.2936753356
 10
29.4126140387
 20
152.7813762411
 10
30.4617290413
 20
151.1844316429
 10
31.1697555321
 20
149.5261285892
 10
31.5263688903
 20
147.8306488727
 10
31.5263688903
 20
146.1227164055
 10
31.1697555321
 20
144.427236689
 10
30.4617290413
 20
142.7689336353
 10
29.4126140387
 20
141.1719890371
 10
28.0377089833
 20
139.6596899426
 10
26.3570630868
 20
138.2540890781
 10
24.3951839509
 20
136.9756832693
 10
22.1806801913
 20
135.8431145516
 10
19.7458442592
 20
134.8728983272
 10
17.1261815455
 20
134.0791825334
 10
14.3598926313
 20
133.4735413338
 10
11.4873162383
 20
133.0648063409
 10
8.5503409987
 20
132.8589378312
 10
5.591794625
 20
132.8589378312
 10
2.6548193854
 20
133.0648063409
 10
-0.2177570076
 20
133.4735413338
 10
-2.9840459217
 20
134.0791825334
 10
-5.6037086355
 20
134.8728983272
 10
-8.0385445675
 20
135.8431145516
 10
-10.2530483272
 20
136.9756832693
  0
SPLINE
  5
572
330
4AC
100
AcDbEntity
  8
0
  6
Continuous
 62
     7
370
    25
100
AcDbSpline
210
0.0
220
0.0
230
1.0
 70
     8
 71
     3
 72
    12
 73
     8
 74
     0
 42
0.000000001
 43
0.00000001
 40
0.0
 40
0.0
 40
0.0
 40
0.0
 40
0.5
 40
0.5
 40
0.75
 40
0.75
 40
1.0
 40
1.0
 40
1.0
 40
1.0
 10
-215.9478778396634
 20
98.52042017392156
 30
0.0
 10
-216.0627611055777
 20
98.73917013639038
 30
0.0
 10
-216.1935588804167
 20
98.93917284134236
 30
0.0
 10
-216.4077346808727
 20
99.2039498831938
 30
0.0
 10
-216.4805923394208
 20
99.28437002769294
 30
0.0
 10
-216.6291225661703
 20
99.43000247038134
 30
0.0
 10
-216.7061844271014
 20
99.49621088482886
 30
0.0
 10
-216.7814227395953
 20
99.55186870478396
 30
0.0
  0
SPLINE
  5
575
330
4AC
100
AcDbEntity
  8
0
  6
Continuous
 62
     7
370
    25
100
AcDbSpline
210
0.0
220
0.0
230
1.0
 70
     8
 71
     3
 72
    16
 73
    12
 74
     0
 42
0.000000001
 43
0.00000001
 40
0.0
 40
0.0
 40
0.0
 40
0.0
 40
0.2499999999999996
 40
0.2499999999999996
 40
0.4999999999999991
 40
0.4999999999999991
 40
0.7499999999999987
 40
0.7499999999999987
 40
0.8749999999999993
 40
0.8749999999999993
 40
1.0
 40
1.0
 40
1.0
 40
1.0
 10
-210.0909762812254
 20
101.152211684354
 30
0.0
 10
-210.5999568282596
 20
100.9561338230684
 30
0.0
 10
-211.042365040915
 20
100.7408890488039
 30
0.0
 10
-211.860993833818
 20
100.2967170707904
 30
0.0
 10
-212.2360432764402
 20
100.0683746888583
 30
0.0
 10
-213.0084853496313
 20
99.6084960614379
 30
0.0
 10
-213.4090461142017
 20
99.37994115402897
 30
0.0
 10
-214.1001574491779
 20
98.99210025217859
 30
0.0
 10
-214.3450636180255
 20
98.8538524476332
 30
0.0
 10
-214.8674702064855
 20
98.55133696529482
 30
0.0
 10
-215.139699658361
 20
98.39021252823555
 30
0.0
 10
-215.4222091013517
 20
98.22338080345305
 30
0.0
  0
SPLINE
  5
576
330
4AC
100
AcDbEntity
  8
0
  6
Continuous
 62
     7
370
    25
100
AcDbSpline
210
0.0
220
0.0
230
1.0
 70
     8
 71
     3
 72
    16
 73
    12
 74
     0
 42
0.000000001
 43
0.00000001
 40
0.0
 40
0.0
 40
0.0
 40
0.0
 40
0.2500000000000012
 40
0.2500000000000012
 40
0.3750000000000018
 40
0.3750000000000018
 40
0.5000000000000024
 40
0.5000000000000024
 40
0.7500000000000012
 40
0.7500000000000012
 40
1.0
 40
1.0
 40
1.0
 40
1.0
 10
-210.0909762812254
 20
101.1522116843541
 30
0.0
 10
-209.7688326400541
 20
100.8109208784602
 30
0.0
 10
-209.4931332290873
 20
100.4157329733876
 30
0.0
 10
-209.1386614462804
 20
99.75439368902067
 30
0.0
 10
-209.0304642785884
 20
99.52238887935096
 30
0.0
 10
-208.8333192640162
 20
99.03604101587771
 30
0.0
 10
-208.7440838339294
 20
98.78062654626116
 30
0.0
 10
-208.5076666907322
 20
97.99027978503251
 30
0.0
 10
-208.3911987491681
 20
97.43227566736809
 30
0.0
 10
-208.2349890416247
 20
96.2582590856526
 30
0.0
 10
-208.1952794337548
 20
95.64222230866348
 30
0.0
 10
-208.1952794337548
 20
94.99616333037693
 30
0.0
  0
SPLINE
  5
57D
330
4AC
100
AcDbEntity
  8
0
  6
Continuous
 62
     7
370
    25
100
AcDbSpline
210
0.0
220
0.0
230
1.0
 70
     8
 71
     3
 72
    10
 73
     6
 74
     0
 42
0.000000001
 43
0.00000001
 40
0.0
 40
0.0
 40
0.0
 40
0.0
 40
0.5
 40
0.5
 40
1.0
 40
1.0
 40
1.0
 40
1.0
 10
232.412335109018
 20
22.99578112596361
 30
0.0
 10
232.7845899463378
 20
21.41466527297862
 30
0.0
 10
232.9744035774681
 20
19.23304897669723
 30
0.0
 10
232.9744035774681
 20
13.83828491127989
 30
0.0
 10
232.7845899463378
 20
10.62569049351
 30
0.0
 10
232.412335109018
 20
7.022661932729712
 30
0.0
  0
SPLINE
  5
58F
330
4AC
100
AcDbEntity
  8
0
  6
Continuous
 62
     7
370
    25
100
AcDbSpline
210
0.0
220
0.0
230
1.0
 70
     8
 71
     3
 72
    22
 73
    18
 74
     0
 42
0.000000001
 43
0.00000001
 40
0.0
 40
0.0
 40
0.0
 40
0.0
 40
0.1250000000000005
 40
0.1250000000000005
 40
0.2500000000000011
 40
0.2500000000000011
 40
0.3750000000000016
 40
0.3750000000000016
 40
0.5000000000000021
 40
0.5000000000000021
 40
0.750000000000001
 40
0.750000000000001
 40
0.8750000000000016
 40
0.8750000000000016
 40
0.9375000000000009
 40
0.9375000000000009
 40
1.0
 40
1.0
 40
1.0
 40
1.0
 10
-146.2169115555525
 20
138.0259243714414
 30
0.0
 10
-145.6823146588191
 20
138.4367329136999
 30
0.0
 10
-145.1136061429001
 20
138.8222276623825
 30
0.0
 10
-143.9288438402753
 20
139.5559253835537
 30
0.0
 10
-143.3125763881927
 20
139.9039566438669
 30
0.0
 10
-142.0452233045206
 20
140.5690947788105
 30
0.0
 10
-141.3946608285458
 20
140.8857501210476
 30
0.0
 10
-140.0763579309277
 20
141.487864195021
 30
0.0
 10
-139.407358402346
 20
141.773930510005
 30
0.0
 10
-137.3787073783547
 20
142.5915215829889
 30
0.0
 10
-135.9972456083741
 20
143.0826187446754
 30
0.0
 10
-133.9122819336867
 20
143.7433459104614
 30
0.0
 10
-133.2145959564346
 20
143.9510464406689
 30
0.0
 10
-132.1656317821687
 20
144.24487501677
 30
0.0
 10
-131.8155680098133
 20
144.3398660934082
 30
0.0
 10
-131.1148659520668
 20
144.5241694549476
 30
0.0
 10
-130.7628274037699
 20
144.6138262867383
 30
0.0
 10
-130.4135335032344
 20
144.700061395145
 30
0.0
  0
LWPOLYLINE
  5
590
330
4AC
100
AcDbEntity
  8
0
  6
Continuous
 62
     7
370
    25
100
AcDbPolyline
 90
        9
 70
   128
 43
0.0
 10
-111.3693180369
 20
36.0540182087
 10
-110.3105490855
 20
35.0208128418
 10
-109.4283366164
 20
33.9488777129
 10
-108.75658356
 20
32.879406688
 10
-108.3211050096
 20
31.8534989387
 10
-108.1386361617
 20
30.9105795246
 10
-108.2161891916
 20
30.08688431
 10
-108.5507837801
 20
29.4140674399
 10
-109.1295616446
 20
28.9179848894
  0
LWPOLYLINE
  5
5A6
330
4AC
100
AcDbEntity
  8
0
  6
Continuous
 62
     8
370
    25
100
AcDbPolyline
 90
       22
 70
   128
 43
0.0
 10
43.0710678119
 20
133.8076611355
 10
44.6018664736
 20
132.0090138973
 10
45.9694776029
 20
129.9610404813
 10
47.0025838662
 20
127.8487381851
 10
47.6923011196
 20
125.6902716431
 10
48.0326981751
 20
123.5042024768
 10
48.0208478058
 20
121.3093296752
 10
47.6568519185
 20
119.1245279337
 10
46.9438406769
 20
116.9685853418
 10
45.8879455843
 20
114.8600418166
 10
44.4982467561
 20
112.8170296692
 10
42.7866948356
 20
110.8571176771
 10
40.7680082252
 20
108.9971600022
 10
38.459546516
 20
107.2531512545
 10
35.8811612053
 20
105.6400889471
 10
33.0550249845
 20
104.1718445261
 10
30.005441066
 20
102.8610440835
 10
26.7586341891
 20
101.71895978
 10
23.342525102
 20
100.7554129106
 10
19.7864904584
 20
99.9786894468
 10
16.1211101944
 20
99.395468782
 10
12.3779045583
 20
99.0107662921
  0
LWPOLYLINE
  5
5AA
330
4AC
100
AcDbEntity
  8
0
  6
Continuous
 62
     8
370
    25
100
AcDbPolyline
 90
       11
 70
   128
 43
0.0
 10
281.0887681612
 20
11.1661429413
 10
281.8564227682
 20
12.7372929154
 10
282.3823831042
 20
14.5243336844
 10
282.5584412272
 20
16.3341337393
 10
282.3823831042
 20
18.1439337941
 10
281.8564227682
 20
19.9309745632
 10
280.9871744758
 20
21.672782972
 10
279.7855695284
 20
23.3474547691
 10
278.2667188055
 20
24.9339299851
 10
276.4497227363
 20
26.4122577736
 10
274.3574311004
 20
27.7638473048
  0
SPLINE
  5
5B3
330
4AC
100
AcDbEntity
  8
0
  6
Continuous
 62
     8
370
    25
100
AcDbSpline
210
0.0
220
0.0
230
1.0
 70
     8
 71
     3
 72
    13
 73
     9
 74
     0
 42
0.000000001
 43
0.00000001
 40
0.0
 40
0.0
 40
0.0
 40
0.0
 40
0.2147911006917778
 40
0.5733807476985763
 40
0.7502963848510766
 40
0.8275476889351825
 40
0.9654893194952561
 40
1.0
 40
1.0
 40
1.0
 40
1.0
 10
-210.214422658343
 20
95.55823796772059
 30
0.0
 10
-210.4059643325402
 20
95.90026958178333
 30
0.0
 10
-210.9172811795274
 20
96.8133164537264
 30
0.0
 10
-211.8715008368799
 20
97.66168835658786
 30
0.0
 10
-212.7601583310762
 20
98.05533064362196
 30
0.0
 10
-213.3660939622523
 20
98.11997532676392
 30
0.0
 10
-213.7666033318793
 20
98.04446022050897
 30
0.0
 10
-214.0250645012627
 20
97.9058267603226
 30
0.0
 10
-214.0767870371012
 20
97.87808381491224
 30
0.0
  0
SPLINE
  5
5B8
330
4AC
100
AcDbEntity
  8
0
  6
Continuous
 62
     8
370
    25
100
AcDbSpline
210
0.0
220
0.0
230
1.0
 70
     8
 71
     3
 72
    10
 73
     6
 74
     0
 42
0.000000001
 43
0.00000001
 40
0.0
 40
0.0
 40
0.0
 40
0.0
 40
0.3753761515455863
 40
0.9975761842565811
 40
1.0
 40
1.0
 40
1.0
 40
1.0
 10
40.57444974962079
 20
36.23487825495184
 30
0.0
 10
41.2718076528432
 20
37.14114707198984
 30
0.0
 10
43.12506240356037
 20
39.54959040193775
 30
0.0
 10
44.59833219986445
 20
41.81297676194094
 30
0.0
 10
45.55699970852319
 20
43.10726493398474
 30
0.0
 10
45.56071976084899
 20
43.11228734236008
 30
0.0
  0
LWPOLYLINE
  5
5C3
330
4AC
100
AcDbEntity
  8
0
  6
Continuous
 62
     8
370
    25
100
AcDbPolyline
 90
       10
 70
   128
 43
0.0
 10
152.2108326947
 20
94.0300281574
 10
155.2922535305
 20
95.6535353262
 10
158.3502228931
 20
96.9539681942
 10
161.3614677893
 20
97.921429682
 10
164.3030708271
 20
98.5485568235
 10
167.1526446312
 20
98.8305768026
 10
169.8885022244
 20
98.7653432769
 10
172.4898220783
 20
98.3533527129
 10
174.9368065783
 20
97.5977406075
 10
177.2088010106
 20
96.5054306821
  0
LWPOLYLINE
  5
5C4
330
4AC
100
AcDbEntity
  8
0
  6
Continuous
 62
     8
370
    25
100
AcDbPolyline
 90
       13
 70
   128
 43
0.0
 10
187.0290447107
 20
40.1924028082
 10
189.6657625488
 20
42.8551290342
 10
192.0335000091
 20
45.5921677981
 10
194.1152533241
 20
48.383863217
 10
195.8960725048
 20
51.2101668941
 10
197.3631687028
 20
54.0507818958
 10
198.5060060529
 20
56.8853085123
 10
199.316377336
 20
59.6933907573
 10
199.7884629183
 20
62.4548625532
 10
199.9188725449
 20
65.1498925525
 10
199.7066696867
 20
67.7591265556
 10
199.153378266
 20
70.2638265018
 10
198.5832935901
 20
71.9004438207
  0
LWPOLYLINE
  5
5C6
330
4AC
100
AcDbEntity
  8
0
  6
Continuous
 62
     8
370
    25
100
AcDbPolyline
 90
        6
 70
   128
 43
0.0
 10
-82.4784450716
 20
106.4172239749
 10
-83.1201567208
 20
106.7876672098
 10
-83.6411341533
 20
107.0883943816
 10
-84.0213564983
 20
107.3078487137
 10
-84.2462120246
 20
107.4375966992
 10
-84.3085718652
 20
107.4735355152
  0
LWPOLYLINE
  5
5C8
330
4AC
100
AcDbEntity
  8
0
  6
Continuous
 62
     8
370
    25
100
AcDbPolyline
 90
        9
 70
   128
 43
0.0
 10
-18.3847763109
 20
130.6482550025
 10
-20.7928640857
 20
132.1844634354
 10
-22.924027587
 20
133.8514532896
 10
-24.7570863543
 20
135.6326572709
 10
-26.2738226261
 20
137.510372974
 10
-27.4591623959
 20
139.4659388166
 10
-28.3013252245
 20
141.4799195068
 10
-28.7919413194
 20
143.5322991996
 10
-28.9285847618
 20
145.2522972032
  0
LWPOLYLINE
  5
5C9
330
4AC
100
AcDbEntity
  8
0
  6
Continuous
 62
     8
370
    25
100
AcDbPolyline
 90
       25
 70
   128
 43
0.0
 10
43.0706254885
 20
145.2405796796
 10
43.0011527808
 20
144.0490091391
 10
42.5993230507
 20
141.9902063267
 10
41.8443975583
 20
139.9647310573
 10
40.7438790922
 20
137.992713414
 10
39.3087050995
 20
136.0937521943
 10
37.5531389841
 20
134.2867201279
 10
35.4946283507
 20
132.5895763112
 10
33.1536316028
 20
131.019187722
 10
30.5534146179
 20
129.5911615877
 10
27.7198195205
 20
128.3196902734
 10
24.6810078518
 20
127.2174102325
 10
21.4671806874
 20
126.295276419
 10
18.1102784855
 20
125.5624534133
 10
14.6436636483
 20
125.0262243395
 10
11.1017889516
 20
124.691918483
 10
7.5198551373
 20
124.5628583257
 10
3.9334610729
 20
124.6403265254
 10
0.378249954
 20
124.9235531684
 10
-3.1104449342
 20
125.4097234209
 10
-6.4979513745
 20
126.0940055047
 10
-9.750602806
 20
126.9695987169
 10
-12.8360729174
 20
128.0278010188
 10
-15.7236969206
 20
129.2580955205
 10
-18.3847763109
 20
130.6482550025
  0
LWPOLYLINE
  5
5CA
330
4AC
100
AcDbEntity
  8
0
  6
Continuous
 62
     8
370
    25
100
AcDbPolyline
 90
       17
 70
   128
 43
0.0
 10
10.0886316385
 20
105.8539417844
 10
13.612242577
 20
106.1267449217
 10
17.0720611774
 20
106.5988527549
 10
20.434345807
 20
107.2656610861
 10
23.666306026
 20
108.1206669148
 10
26.736422374
 20
109.1555318581
 10
29.6147537614
 20
110.3601634697
 10
32.2732294677
 20
111.7228136662
 10
34.6859228992
 20
113.2301932993
 10
36.8293044362
 20
114.8676017572
 10
38.6824709038
 20
116.6190703312
 10
40.227349429
 20
118.4675179497
 10
41.4488736946
 20
120.3949177597
 10
42.3351308729
 20
122.3824729328
 10
42.8774778042
 20
124.4107999797
 10
43.0706252891
 20
126.4601177862
 10
43.0710678119
 20
126.563162342
  0
LWPOLYLINE
  5
5CC
330
4AC
100
AcDbEntity
  8
0
  6
Continuous
 62
     8
370
    25
100
AcDbPolyline
 90
       13
 70
   128
 43
0.0
 10
202.8681742399
 20
0.9090155607
 10
205.504892078
 20
3.5717417867
 10
207.8726295383
 20
6.3087805507
 10
209.9543828533
 20
9.1004759695
 10
211.735202034
 20
11.9267796467
 10
213.202298232
 20
14.7673946484
 10
214.3451355821
 20
17.6019212649
 10
215.1555068652
 20
20.4100035099
 10
215.6275924475
 20
23.1714753057
 10
215.7580020741
 20
25.866505305
 10
215.5457992158
 20
28.4757393081
 10
214.9925077952
 20
30.9804392544
 10
214.4224231193
 20
32.6170565732
  0
LWPOLYLINE
  5
5CE
330
4AC
100
AcDbEntity
  8
0
  6
Continuous
 62
     8
370
    25
100
AcDbPolyline
 90
       27
 70
   128
 43
0.0
 10
29.5662915949
 20
145.6112203863
 10
29.5599654201
 20
145.7515945333
 10
29.2940554753
 20
147.3755241397
 10
28.6776757396
 20
148.9674091045
 10
27.7205468898
 20
150.5021444511
 10
26.4377634195
 20
151.9555264861
 10
24.8495555903
 20
153.3046345066
 10
22.9809703886
 20
154.5281922734
 10
20.8614765191
 20
155.6069035493
 10
18.5244996662
 20
156.5237564133
 10
16.0068953511
 20
157.264291548
 10
13.3483676977
 20
157.8168302719
 10
10.5908432753
 20
158.1726587193
 10
7.7778098911
 20
158.3261652629
 10
4.9536307622
 20
158.274929013
 10
2.1628448804
 20
158.0197579958
 10
-0.5505353937
 20
157.5646764106
 10
-3.1437184323
 20
156.9168611659
 10
-5.5758081898
 20
156.0865286951
 10
-7.8084491579
 20
155.0867738373
 10
-9.8064312548
 20
153.9333633238
 10
-11.5382451093
 20
152.6444871274
 10
-12.9765789824
 20
151.2404715957
 10
-14.0987494896
 20
149.7434588923
 10
-14.8870593318
 20
148.1770578018
 10
-15.3290763917
 20
146.5659714052
 10
-15.4289260647
 20
145.3340181025
  0
LWPOLYLINE
  5
5CF
330
4AC
100
AcDbEntity
  8
0
  6
Continuous
 62
     8
370
    25
100
AcDbPolyline
 90
       16
 70
   128
 43
0.0
 10
-8.8388347648
 20
141.4635392832
 10
-6.7193408953
 20
142.5422505591
 10
-4.3823640425
 20
143.4591034231
 10
-1.8647597274
 20
144.1996385578
 10
0.793767926
 20
144.7521772817
 10
3.5512923485
 20
145.1080057291
 10
6.3643257326
 20
145.2615122728
 10
9.1885048615
 20
145.2102760228
 10
11.9792907433
 20
144.9551050056
 10
14.6926710174
 20
144.5000234204
 10
17.285854056
 20
143.8522081757
 10
19.7179438135
 20
143.0218757049
 10
21.9505847816
 20
142.0221208471
 10
23.9485668786
 20
140.8687103336
 10
25.680380733
 20
139.5798341372
 10
26.2538634869
 20
139.0671826497
  0
LWPOLYLINE
  5
5D0
330
4AC
100
AcDbEntity
  8
0
  6
Continuous
 62
     8
370
    25
100
AcDbPolyline
 90
        3
 70
   128
 43
0.0
 10
-12.105349558
 20
139.0731858216
 10
-10.7074199666
 20
140.2399815165
 10
-8.8388347648
 20
141.4635392832
  0
LWPOLYLINE
  5
5D1
330
4AC
100
AcDbEntity
  8
0
  6
Continuous
 62
     8
370
    25
100
AcDbPolyline
 90
       10
 70
   128
 43
0.0
 10
-261.9511981827
 20
96.3182498471
 10
-259.944464191
 20
97.2606435666
 10
-257.497479691
 20
98.016255672
 10
-254.8961598371
 20
98.428246236
 10
-252.1603022439
 20
98.4934797617
 10
-249.3107284398
 20
98.2114597826
 10
-246.369125402
 20
97.5843326411
 10
-243.3578805059
 20
96.6168711533
 10
-240.2999111432
 20
95.3164382853
 10
-237.2184903074
 20
93.6929311165
  0
LWPOLYLINE
  5
5D3
330
4AC
100
AcDbEntity
  8
0
  6
Continuous
 62
     8
370
    25
100
AcDbPolyline
 90
       10
 70
   128
 43
0.0
 10
-42.2118625702
 20
206.2678610844
 10
-45.2932834061
 20
207.8913682532
 10
-48.3512527687
 20
209.1918011212
 10
-51.3624976649
 20
210.159262609
 10
-54.3041007026
 20
210.7863897505
 10
-57.1536745068
 20
211.0684097296
 10
-59.8895320999
 20
211.0031762039
 10
-62.4908519539
 20
210.5911856399
 10
-64.9378364538
 20
209.8355735345
 10
-67.2098308861
 20
208.7432636091
  0
LWPOLYLINE
  5
5D4
330
4AC
100
AcDbEntity
  8
0
  6
Continuous
 62
     8
370
    25
100
AcDbPolyline
 90
       10
 70
   128
 43
0.0
 10
-17.2138942543
 20
208.7432636091
 10
-19.4858886866
 20
209.8355735345
 10
-21.9328731866
 20
210.5911856399
 10
-24.5341930406
 20
211.0031762039
 10
-27.2700506337
 20
211.0684097296
 10
-30.1196244378
 20
210.7863897505
 10
-33.0612274756
 20
210.159262609
 10
-36.0724723718
 20
209.1918011212
 10
-39.1304417344
 20
207.8913682532
 10
-42.2118625702
 20
206.2678610844
  0
LWPOLYLINE
  5
5D5
330
4AC
100
AcDbEntity
  8
0
  6
Continuous
 62
     8
370
    25
100
AcDbPolyline
 90
        3
 70
   128
 43
0.0
 10
-208.1952794338
 20
94.9961633304
 10
-208.8170935893
 20
94.5587623944
 10
-209.2186467623
 20
94.1405411369
  0
SPLINE
  5
5DA
330
4AC
100
AcDbEntity
  8
0
  6
Continuous
 62
     8
370
    25
100
AcDbSpline
210
0.0
220
0.0
230
1.0
 70
     8
 71
     3
 72
    15
 73
    11
 74
     0
 42
0.000000001
 43
0.00000001
 40
0.0
 40
0.0
 40
0.0
 40
0.0
 40
0.1256103240496969
 40
0.251220648099394
 40
0.3768309721490908
 40
0.5024412961987875
 40
0.6280516202484845
 40
0.7536619442981817
 40
0.8792722683478784
 40
0.9999999999999999
 40
0.9999999999999999
 40
0.9999999999999999
 40
0.9999999999999999
 10
203.969922389944
 20
0.6954327556926293
 30
0.0
 10
205.2522004772788
 20
2.002669623185377
 30
0.0
 10
207.8167566519481
 20
4.6171433581709
 30
0.0
 10
210.9241013201796
 20
8.659224262016943
 30
0.0
 10
213.4255458923354
 20
12.70970851961979
 30
0.0
 10
215.2317344464321
 20
16.7175010541498
 30
0.0
 10
216.3325235788851
 20
20.61861117698426
 30
0.0
 10
216.6880446030739
 20
24.34397818802859
 30
0.0
 10
216.3691459451156
 20
27.82217652149242
 30
0.0
 10
215.5554716537271
 20
29.88247935016894
 30
0.0
 10
215.1566983045459
 20
30.8922124436364
 30
0.0
  0
SPLINE
  5
5DB
330
4AC
100
AcDbEntity
  8
0
  6
Continuous
 62
     8
370
    25
100
AcDbSpline
210
0.0
220
0.0
230
1.0
 70
     8
 71
     3
 72
    14
 73
    10
 74
     0
 42
0.000000001
 43
0.00000001
 40
0.0
 40
0.0
 40
0.0
 40
0.0
 40
0.0510777020543094
 40
0.1728745983645548
 40
0.2863086827049984
 40
0.4727840570272985
 40
0.6756975394954727
 40
0.8433692564978444
 40
1.0
 40
1.0
 40
1.0
 40
1.0
 10
216.8074084769291
 20
31.17189635017039
 30
0.0
 10
217.0710638260045
 20
31.01828162711197
 30
0.0
 10
217.9634162761914
 20
30.49836623382803
 30
0.0
 10
219.4471707121207
 20
29.67097533104044
 30
0.0
 10
221.6348769191429
 20
28.47091459176164
 30
0.0
 10
224.2493154324235
 20
27.08153142600033
 30
0.0
 10
227.1510875923108
 20
25.59006960224784
 30
0.0
 10
229.9011174624039
 20
24.21514186138617
 30
0.0
 10
231.5944795652376
 20
23.39290358911531
 30
0.0
 10
232.412335109018
 20
22.99578112596363
 30
0.0
  0
LWPOLYLINE
  5
5E2
330
4AC
100
AcDbEntity
  8
0
  6
Continuous
 62
     8
370
    25
100
AcDbPolyline
 90
        9
 70
   128
 43
0.0
 10
301.629509039
 20
17.9672153631
 10
301.4368981059
 20
15.7038517356
 10
300.8609202552
 20
13.4622855372
 10
299.9071224683
 20
11.2641042756
 10
298.5846903395
 20
9.1304776381
 10
296.906359613
 20
7.0819536156
 10
294.8882935311
 20
5.1382606142
 10
292.5499271735
 20
3.31811746
 10
289.9137802865
 20
1.6390531266
  0
LWPOLYLINE
  5
5E5
330
4AC
100
AcDbEntity
  8
0
  6
Continuous
 62
     8
370
    25
100
AcDbPolyline
 90
        9
 70
   128
 43
0.0
 10
289.9137802865
 20
-28.5729569132
 10
292.5499271735
 20
-26.8938925798
 10
294.8882935311
 20
-25.0737494256
 10
296.906359613
 20
-23.1300564242
 10
298.5846903395
 20
-21.0815324016
 10
299.9071224683
 20
-18.9479057641
 10
300.8609202552
 20
-16.7497245026
 10
301.4368981059
 20
-14.5081583042
 10
301.629509039
 20
-12.2447946767
  0
LWPOLYLINE
  5
5E6
330
4AC
100
AcDbEntity
  8
0
  6
Continuous
 62
     8
370
    25
100
AcDbPolyline
 90
        9
 70
   128
 43
0.0
 10
284.5584089547
 20
18.7583532579
 10
284.5584412272
 20
18.7837561749
 10
284.369807524
 20
20.7228276623
 10
283.8062785926
 20
22.6375142006
 10
282.8749411364
 20
24.5037374957
 10
281.5875072642
 20
26.2980287069
 10
279.960167204
 20
27.9978235812
 10
278.0133857012
 20
29.5817462117
 10
275.7716446628
 20
31.0298778523
  0
LWPOLYLINE
  5
5E7
330
4AC
100
AcDbEntity
  8
0
  6
Continuous
 62
     8
370
    25
100
AcDbPolyline
 90
        8
 70
   128
 43
0.0
 10
275.7716446628
 20
30.2133370404
 10
278.0133857012
 20
28.7652053998
 10
279.960167204
 20
27.1812827693
 10
281.5875072642
 20
25.4814878951
 10
282.8749411364
 20
23.6871966838
 10
283.8062785926
 20
21.8209733887
 10
284.369807524
 20
19.9062868504
 10
284.5584412272
 20
17.9672153631
  0
LWPOLYLINE
  5
5F4
330
4AC
100
AcDbEntity
  8
0
  6
Continuous
 62
     8
370
    25
100
AcDbPolyline
 90
        3
 70
   128
 43
0.0
 10
-122.5852037434
 20
7.1937642959
 10
-121.5469875665
 20
7.7442203138
 10
-121.4667233756
 20
7.7908951012
  0
LINE
  5
5FC
330
4AC
100
AcDbEntity
  8
0
  6
Continuous
 62
     7
370
    25
100
AcDbLine
 10
25.5771644663
 20
-138.3748053509
 30
0.0
 11
25.5771644663
 21
-139.1913461628
 31
0.0
  0
LINE
  5
5FD
330
4AC
100
AcDbEntity
  8
0
  6
Continuous
 62
     7
370
    25
100
AcDbLine
 10
276.1859394925
 20
7.4533241105
 30
0.0
 11
26.5772457336
 21
-136.6427076262
 31
0.0
  0
LINE
  5
5FE
330
4AC
100
AcDbEntity
  8
0
  6
Continuous
 62
     7
370
    25
100
AcDbLine
 10
34.698078473
 20
-179.2884569941
 30
0.0
 11
287.8423061378
 21
-33.1514049779
 31
0.0
  0
LINE
  5
5FF
330
4AC
100
AcDbEntity
  8
0
  6
Continuous
 62
     7
370
    25
100
AcDbLine
 10
-33.5183203876
 20
-6.5234699502
 30
0.0
 11
-33.7615806594
 21
-6.7156071806
 31
0.0
  0
LINE
  5
600
330
4AC
100
AcDbEntity
  8
0
  6
Continuous
 62
     7
370
    25
100
AcDbLine
 10
37.2427043501
 20
33.2717993725
 30
0.0
 11
-26.6313603755
 21
-3.6019133146
 31
0.0
  0
LINE
  5
601
330
4AC
100
AcDbEntity
  8
0
  6
Continuous
 62
     7
370
    25
100
AcDbLine
 10
-310.7126888923
 20
17.0455542473
 30
0.0
 11
28.6985660772
 21
-178.8923925902
 31
0.0
  0
LINE
  5
602
330
4AC
100
AcDbEntity
  8
0
  6
Continuous
 62
     7
370
    25
100
AcDbLine
 10
43.0710678119
 20
126.563162342
 30
0.0
 11
43.0710678119
 21
145.3436010153
 31
0.0
  0
LINE
  5
603
330
4AC
100
AcDbEntity
  8
0
  6
Continuous
 62
     7
370
    25
100
AcDbLine
 10
-28.9289321881
 20
145.3436010153
 30
0.0
 11
-28.9289321881
 21
143.6596057731
 31
0.0
  0
LINE
  5
604
330
4AC
100
AcDbEntity
  8
0
  6
Continuous
 62
     7
370
    25
100
AcDbLine
 10
-28.9325481281
 20
143.8024398928
 30
0.0
 11
-74.9782419032
 21
117.2208266819
 31
0.0
  0
LINE
  5
605
330
4AC
100
AcDbEntity
  8
0
  6
Continuous
 62
     7
370
    25
100
AcDbLine
 10
-88.0850467894
 20
94.5194093531
 30
0.0
 11
-88.0850467894
 21
19.3976546596
 31
0.0
  0
LINE
  5
606
330
4AC
100
AcDbEntity
  8
0
  6
Continuous
 62
     7
370
    25
100
AcDbLine
 10
214.4224231193
 20
32.6170565732
 30
0.0
 11
198.5832935901
 21
71.9004438207
 31
0.0
  0
LINE
  5
607
330
4AC
100
AcDbEntity
  8
0
  6
Continuous
 62
     7
370
    25
100
AcDbLine
 10
-67.2098308861
 20
208.7432636091
 30
0.0
 11
-262.2164586233
 21
96.1683336412
 31
0.0
  0
LINE
  5
608
330
4AC
100
AcDbEntity
  8
0
  6
Continuous
 62
     7
370
    25
100
AcDbLine
 10
177.2088010106
 20
96.5054306821
 30
0.0
 11
-17.2138942543
 21
208.7432636091
 31
0.0
  0
LINE
  5
609
330
4AC
100
AcDbEntity
  8
0
  6
Continuous
 62
     7
370
    25
100
AcDbLine
 10
301.629509039
 20
-12.2447946767
 30
0.0
 11
301.629509039
 21
17.9672153631
 31
0.0
  0
LINE
  5
60A
330
4AC
100
AcDbEntity
  8
0
  6
Continuous
 62
     7
370
    25
100
AcDbLine
 10
-272.6165084555
 20
79.2982847809
 30
0.0
 11
-278.9028367706
 21
41.7582229574
 31
0.0
  0
LINE
  5
60B
330
4AC
100
AcDbEntity
  8
0
  6
Continuous
 62
     7
370
    25
100
AcDbLine
 10
-119.9048519428
 20
20.2892883123
 30
0.0
 11
-119.9048519428
 21
9.1879087596
 31
0.0
  0
LINE
  5
60C
330
4AC
100
AcDbEntity
  8
0
  6
Continuous
 62
     7
370
    25
100
AcDbLine
 10
-110.3335809625
 20
28.7015731833
 30
0.0
 11
-117.4046487744
 21
24.6195326242
 31
0.0
  0
LINE
  5
60D
330
4AC
100
AcDbEntity
  8
0
  6
Continuous
 62
     7
370
    25
100
AcDbLine
 10
289.2923380419
 20
35.6689120189
 30
0.0
 11
-7.6925100565
 21
207.1146155017
 31
0.0
  0
LINE
  5
60E
330
4AC
100
AcDbEntity
  8
0
  6
Continuous
 62
     7
370
    25
100
AcDbLine
 10
-269.9801655116
 20
87.6379975055
 30
0.0
 11
-316.162395727
 21
60.9775634854
 31
0.0
  0
LINE
  5
60F
330
4AC
100
AcDbEntity
  8
0
  6
Continuous
 62
     7
370
    25
100
AcDbLine
 10
-317.3696244092
 20
58.7876209542
 30
0.0
 11
-317.3696244092
 21
28.5756109144
 31
0.0
  0
LINE
  5
610
330
4AC
100
AcDbEntity
  8
0
  6
Continuous
 62
     7
370
    25
100
AcDbLine
 10
-44.2100086048
 20
-20.9943915461
 30
0.0
 11
-46.2137870242
 21
-19.8376348869
 31
0.0
  0
LINE
  5
611
330
4AC
100
AcDbEntity
  8
0
  6
Continuous
 62
     7
370
    25
100
AcDbLine
 10
-4.4981967544
 20
-117.4766138857
 30
0.0
 11
-10.7845250695
 21
-72.6785118813
 31
0.0
  0
LINE
  5
612
330
4AC
100
AcDbEntity
  8
0
  6
Continuous
 62
     7
370
    25
100
AcDbLine
 10
23.3345237792
 20
-141.6411012985
 30
0.0
 11
3.8581741295
 21
-130.3976439695
 31
0.0
  0
LINE
  5
613
330
4AC
100
AcDbEntity
  8
0
  6
Continuous
 62
     7
370
    25
100
AcDbLine
 10
26.1629509039
 20
-139.1912134627
 30
0.0
 11
26.1629509039
 21
-140.0077542746
 31
0.0
  0
LINE
  5
614
330
4AC
100
AcDbEntity
  8
0
  6
Continuous
 62
     7
370
    25
100
AcDbLine
 10
33.2340187158
 20
-143.2732540219
 30
0.0
 11
26.1629509039
 21
-139.1912134627
 31
0.0
  0
LINE
  5
615
330
4AC
100
AcDbEntity
  8
0
  6
Continuous
 62
     7
370
    25
100
AcDbLine
 10
33.941125497
 20
-174.7100089294
 30
0.0
 11
33.941125497
 21
-144.4979988897
 31
0.0
  0
LINE
  5
616
330
4AC
100
AcDbEntity
  8
0
  6
Continuous
 62
     7
370
    25
100
AcDbLine
 10
-311.1269837221
 20
17.9612438602
 30
0.0
 11
28.2842712475
 21
-177.9767029772
 31
0.0
  0
LINE
  5
617
330
4AC
100
AcDbEntity
  8
0
  6
Continuous
 62
     7
370
    25
100
AcDbLine
 10
-316.7838379716
 20
57.9712128424
 30
0.0
 11
-316.7838379716
 21
27.7592028026
 31
0.0
  0
LINE
  5
618
330
4AC
100
AcDbEntity
  8
0
  6
Continuous
 62
     7
370
    25
100
AcDbLine
 10
-309.0056633785
 20
54.2975090392
 30
0.0
 11
-316.0767311904
 21
58.3795495983
 31
0.0
  0
LINE
  5
619
330
4AC
100
AcDbEntity
  8
0
  6
Continuous
 62
     7
370
    25
100
AcDbLine
 10
-309.0056633785
 20
53.4809682274
 30
0.0
 11
-309.0056633785
 21
54.2975090392
 31
0.0
  0
LINE
  5
61A
330
4AC
100
AcDbEntity
  8
0
  6
Continuous
 62
     7
370
    25
100
AcDbLine
 10
-286.7008866041
 20
37.3385314271
 30
0.0
 11
-306.1772362538
 21
48.5819887562
 31
0.0
  0
LINE
  5
61B
330
4AC
100
AcDbEntity
  8
0
  6
Continuous
 62
     7
370
    25
100
AcDbLine
 10
-272.0581874051
 20
78.1515628766
 30
0.0
 11
-278.3445157202
 21
40.6115010532
 31
0.0
  0
LINE
  5
61C
330
4AC
100
AcDbEntity
  8
0
  6
Continuous
 62
     7
370
    25
100
AcDbLine
 10
-236.6289254504
 20
90.0866847216
 30
0.0
 11
-238.6327038698
 21
91.2434413809
 31
0.0
  0
LINE
  5
61D
330
4AC
100
AcDbEntity
  8
0
  6
Continuous
 62
     7
370
    25
100
AcDbLine
 10
-216.3746750431
 20
-9.7922528397
 30
0.0
 11
-207.8893936688
 21
-14.6907015106
 31
0.0
  0
LINE
  5
61E
330
4AC
100
AcDbEntity
  8
0
  6
Continuous
 62
     7
370
    25
100
AcDbLine
 10
-207.8893936688
 20
1.6401147271
 30
0.0
 11
-216.3746750431
 21
6.538563398
 31
0.0
  0
LINE
  5
61F
330
4AC
100
AcDbEntity
  8
0
  6
Continuous
 62
     7
370
    25
100
AcDbLine
 10
-66.4680374315
 20
-80.0006964552
 30
0.0
 11
-74.9533188058
 21
-75.1022477842
 31
0.0
  0
LINE
  5
620
330
4AC
100
AcDbEntity
  8
0
  6
Continuous
 62
     7
370
    25
100
AcDbLine
 10
-74.9533188058
 20
-91.4330640219
 30
0.0
 11
-66.4680374315
 21
-96.3315126929
 31
0.0
  0
LINE
  5
621
330
4AC
100
AcDbEntity
  8
0
  6
Continuous
 62
     7
370
    25
100
AcDbLine
 10
187.0290447107
 20
40.1924028082
 30
0.0
 11
-7.9775830265
 21
-72.3825271597
 31
0.0
  0
LINE
  5
622
330
4AC
100
AcDbEntity
  8
0
  6
Continuous
 62
     7
370
    25
100
AcDbLine
 10
-42.7957950425
 20
-18.5449018105
 30
0.0
 11
152.2108326947
 21
94.0300281574
 31
0.0
  0
LINE
  5
623
330
4AC
100
AcDbEntity
  8
0
  6
Continuous
 62
     7
370
    25
100
AcDbLine
 10
-7.9775830265
 20
-72.3825271597
 30
0.0
 11
-1.6912547114
 21
-117.1806291641
 31
0.0
  0
LINE
  5
624
330
4AC
100
AcDbEntity
  8
0
  6
Continuous
 62
     7
370
    25
100
AcDbLine
 10
289.9137802865
 20
1.6390531266
 30
0.0
 11
36.7695526217
 21
-144.4979988897
 31
0.0
  0
LINE
  5
625
330
4AC
100
AcDbEntity
  8
0
  6
Continuous
 62
     7
370
    25
100
AcDbLine
 10
34.6482322781
 20
-140.8237642863
 30
0.0
 11
287.7924599429
 21
5.31328773
 31
0.0
  0
LINE
  5
626
330
4AC
100
AcDbEntity
  8
0
  6
Continuous
 62
     7
370
    25
100
AcDbLine
 10
202.8681742399
 20
0.9090155607
 30
0.0
 11
187.0290447107
 21
40.1924028082
 31
0.0
  0
LINE
  5
627
330
4AC
100
AcDbEntity
  8
0
  6
Continuous
 62
     7
370
    25
100
AcDbLine
 10
-1.6912547114
 20
-117.1806291641
 30
0.0
 11
202.8681742399
 21
0.9090155607
 31
0.0
  0
LINE
  5
628
330
4AC
100
AcDbEntity
  8
0
  6
Continuous
 62
     7
370
    25
100
AcDbLine
 10
36.7695526217
 20
-144.4979988897
 30
0.0
 11
36.7695526217
 21
-174.7100089294
 31
0.0
  0
LINE
  5
629
330
4AC
100
AcDbEntity
  8
0
  6
Continuous
 62
     7
370
    25
100
AcDbLine
 10
27.5771644663
 20
-136.7417237272
 30
0.0
 11
34.6482322781
 21
-140.8237642863
 31
0.0
  0
LINE
  5
62A
330
4AC
100
AcDbEntity
  8
0
  6
Continuous
 62
     7
370
    25
100
AcDbLine
 10
289.9137802865
 20
-28.5729569132
 30
0.0
 11
289.9137802865
 21
1.6390531266
 31
0.0
  0
LINE
  5
62B
330
4AC
100
AcDbEntity
  8
0
  6
Continuous
 62
     7
370
    25
100
AcDbLine
 10
36.7695526217
 20
-174.7100089294
 30
0.0
 11
289.9137802865
 21
-28.5729569132
 31
0.0
  0
LINE
  5
62C
330
4AC
100
AcDbEntity
  8
0
  6
Continuous
 62
     7
370
    25
100
AcDbLine
 10
287.7924599429
 20
35.5203878674
 30
0.0
 11
-9.1923881554
 21
206.9660913502
 31
0.0
  0
LINE
  5
62D
330
4AC
100
AcDbEntity
  8
0
  6
Continuous
 62
     7
370
    25
100
AcDbLine
 10
277.1858582251
 20
7.3543080096
 30
0.0
 11
27.5771644663
 21
-136.7417237272
 31
0.0
  0
LINE
  5
62E
330
4AC
100
AcDbEntity
  8
0
  6
Continuous
 62
     7
370
    25
100
AcDbLine
 10
-314.662517628
 20
60.8290393339
 30
0.0
 11
-307.5914498161
 21
56.7469987748
 31
0.0
  0
LINE
  5
62F
330
4AC
100
AcDbEntity
  8
0
  6
Continuous
 62
     7
370
    25
100
AcDbLine
 10
-44.7995734618
 20
-17.3881451513
 30
0.0
 11
-42.7957950425
 21
-18.5449018105
 31
0.0
  0
LINE
  5
630
330
4AC
100
AcDbEntity
  8
0
  6
Continuous
 62
     7
370
    25
100
AcDbLine
 10
-229.9531748074
 20
91.9479780894
 30
0.0
 11
-216.7814227396
 21
99.5518687048
 31
0.0
  0
LINE
  5
631
330
4AC
100
AcDbEntity
  8
0
  6
Continuous
 62
     7
370
    25
100
AcDbLine
 10
-237.2184903074
 20
93.6929311165
 30
0.0
 11
-235.214711888
 21
92.5361744572
 31
0.0
  0
LINE
  5
632
330
4AC
100
AcDbEntity
  8
0
  6
Continuous
 62
     7
370
    25
100
AcDbLine
 10
-42.2118625702
 20
206.2678610844
 30
0.0
 11
-237.2184903074
 21
93.6929311165
 31
0.0
  0
LINE
  5
633
330
4AC
100
AcDbEntity
  8
0
  6
Continuous
 62
     7
370
    25
100
AcDbLine
 10
152.2108326947
 20
94.0300281574
 30
0.0
 11
-42.2118625702
 21
206.2678610844
 31
0.0
  0
LINE
  5
634
330
4AC
100
AcDbEntity
  8
0
  6
Continuous
 62
     7
370
    25
100
AcDbLine
 10
-32.6467177875
 20
-6.7468338326
 30
0.0
 11
-45.8184698553
 21
-14.350724448
 31
0.0
  0
LINE
  5
635
330
4AC
100
AcDbEntity
  8
0
  6
Continuous
 62
     7
370
    25
100
AcDbLine
 10
38.2426230828
 20
33.1727832715
 30
0.0
 11
-25.6314416429
 21
-3.7009294156
 31
0.0
  0
LINE
  5
636
330
4AC
100
AcDbEntity
  8
0
  6
Continuous
 62
     7
370
    25
100
AcDbLine
 10
-19.4454364826
 20
80.6395425516
 30
0.0
 11
45.5607197608
 21
43.1122873424
 31
0.0
  0
LINE
  5
637
330
4AC
100
AcDbEntity
  8
0
  6
Continuous
 62
     7
370
    25
100
AcDbLine
 10
12.3779045583
 20
99.0107662921
 30
0.0
 11
-19.4454364826
 21
80.6395425516
 31
0.0
  0
LINE
  5
638
330
4AC
100
AcDbEntity
  8
0
  6
Continuous
 62
     7
370
    25
100
AcDbLine
 10
-211.5051898436
 20
103.6017014199
 30
0.0
 11
-147.6311251179
 21
140.475414107
 31
0.0
  0
LINE
  5
639
330
4AC
100
AcDbEntity
  8
0
  6
Continuous
 62
     7
370
    25
100
AcDbLine
 10
5.2723876918
 20
-127.9481542339
 30
0.0
 11
24.7487373415
 21
-139.1916115629
 31
0.0
  0
LINE
  5
63A
330
4AC
100
AcDbEntity
  8
0
  6
Continuous
 62
     7
370
    25
100
AcDbLine
 10
251.7808115224
 20
14.3581297691
 30
0.0
 11
5.2723876918
 21
-127.9481542339
 31
0.0
  0
LINE
  5
63B
330
4AC
100
AcDbEntity
  8
0
  6
Continuous
 62
     7
370
    25
100
AcDbLine
 10
-304.7630226914
 20
51.0314784918
 30
0.0
 11
-285.2866730417
 21
39.7880211627
 31
0.0
  0
LINE
  5
63C
330
4AC
100
AcDbEntity
  8
0
  6
Continuous
 62
     7
370
    25
100
AcDbLine
 10
-46.7650418364
 20
-14.2240350873
 30
0.0
 11
-33.7063168496
 21
-6.6853936169
 31
0.0
  0
LINE
  5
63D
330
4AC
100
AcDbEntity
  8
0
  6
Continuous
 62
     7
370
    25
100
AcDbLine
 10
-215.9478778397
 20
98.5204201739
 30
0.0
 11
-229.0066028264
 21
90.9817787036
 31
0.0
  0
LINE
  5
63E
330
4AC
100
AcDbEntity
  8
0
  6
Continuous
 62
     7
370
    25
100
AcDbLine
 10
40.464550725
 20
36.0893994595
 30
0.0
 11
40.5744497496
 21
36.234878255
 31
0.0
  0
LINE
  5
63F
330
4AC
100
AcDbEntity
  8
0
  6
Continuous
 62
     7
370
    25
100
AcDbLine
 10
-72.4784450716
 20
116.9732864294
 30
0.0
 11
-40.6586399182
 21
98.6041039134
 31
0.0
  0
LINE
  5
640
330
4AC
100
AcDbEntity
  8
0
  6
Continuous
 62
     7
370
    25
100
AcDbLine
 10
-54.800775542
 20
74.1092065575
 30
0.0
 11
-86.6205806954
 21
92.4783890735
 31
0.0
  0
LINE
  5
641
330
4AC
100
AcDbEntity
  8
0
  6
Continuous
 62
     7
370
    25
100
AcDbLine
 10
-32.7586474093
 20
77.7119000132
 30
0.0
 11
-44.6231060123
 21
84.5633327335
 31
0.0
  0
LINE
  5
642
330
4AC
100
AcDbEntity
  8
0
  6
Continuous
 62
     7
370
    25
100
AcDbLine
 10
-37.1231060123
 20
70.4337776535
 30
0.0
 11
-37.1231060123
 21
80.2322673962
 31
0.0
  0
LINE
  5
643
330
4AC
100
AcDbEntity
  8
0
  6
Continuous
 62
     7
370
    25
100
AcDbLine
 10
10.0886316385
 20
119.7351355865
 30
0.0
 11
10.0886316385
 21
105.8539417844
 31
0.0
  0
LINE
  5
644
330
4AC
100
AcDbEntity
  8
0
  6
Continuous
 62
     7
370
    25
100
AcDbLine
 10
-37.1231060123
 20
80.2322673962
 30
0.0
 11
10.0886316385
 21
107.4870234082
 31
0.0
  0
LINE
  5
645
330
4AC
100
AcDbEntity
  8
0
  6
Continuous
 62
     7
370
    25
100
AcDbLine
 10
10.0886316385
 20
119.7351355865
 30
0.0
 11
-37.1231060123
 21
92.4803795744
 31
0.0
  0
LINE
  5
646
330
4AC
100
AcDbEntity
  8
0
  6
Continuous
 62
     7
370
    25
100
AcDbLine
 10
-40.6586399182
 20
98.6041039134
 30
0.0
 11
3.1095084393
 21
123.870918141
 31
0.0
  0
LINE
  5
647
330
4AC
100
AcDbEntity
  8
0
  6
Continuous
 62
     7
370
    25
100
AcDbLine
 10
-118.4403858487
 20
18.2482680328
 30
0.0
 11
-118.4403858487
 21
7.14688848
 31
0.0
  0
LINE
  5
648
330
4AC
100
AcDbEntity
  8
0
  6
Continuous
 62
     7
370
    25
100
AcDbLine
 10
-97.9684408226
 20
15.7422064711
 30
0.0
 11
-118.4403858487
 21
18.2482680328
 31
0.0
  0
LINE
  5
649
330
4AC
100
AcDbEntity
  8
0
  6
Continuous
 62
     7
370
    25
100
AcDbLine
 10
-93.6916485072
 20
13.2732668203
 30
0.0
 11
-97.9684408226
 21
15.7422064711
 31
0.0
  0
LINE
  5
64A
330
4AC
100
AcDbEntity
  8
0
  6
Continuous
 62
     7
370
    25
100
AcDbLine
 10
-86.6205806954
 20
92.4783890735
 30
0.0
 11
-86.6205806954
 21
17.35663438
 31
0.0
  0
LINE
  5
64B
330
4AC
100
AcDbEntity
  8
0
  6
Continuous
 62
     7
370
    25
100
AcDbLine
 10
-28.7102967141
 20
142.240100657
 30
0.0
 11
-72.4784450716
 21
116.9732864294
 31
0.0
  0
LINE
  5
64C
330
4AC
100
AcDbEntity
  8
0
  6
Continuous
 62
     7
370
    25
100
AcDbLine
 10
-22.9809703886
 20
86.7632668906
 30
0.0
 11
10.0886316385
 21
105.8539417844
 31
0.0
  0
LINE
  5
64D
330
4AC
100
AcDbEntity
  8
0
  6
Continuous
 62
     7
370
    25
100
AcDbLine
 10
43.0710678119
 20
145.3436010153
 30
0.0
 11
43.0706254885
 21
145.2405796796
 31
0.0
  0
LINE
  5
64E
330
4AC
100
AcDbEntity
  8
0
  6
Continuous
 62
     7
370
    25
100
AcDbLine
 10
29.5710678119
 20
145.3436010153
 30
0.0
 11
29.5662915949
 21
145.6112203863
 31
0.0
  0
LINE
  5
64F
330
4AC
100
AcDbEntity
  8
0
  6
Continuous
 62
     7
370
    25
100
AcDbLine
 10
-262.2164586233
 20
96.1683336412
 30
0.0
 11
-261.9511981827
 21
96.3182498471
 31
0.0
  0
LINE
  5
650
330
4AC
100
AcDbEntity
  8
0
  6
Continuous
 62
     7
370
    25
100
AcDbLine
 10
-146.2169115556
 20
138.0259243714
 30
0.0
 11
-210.0909762812
 21
101.1522116844
 31
0.0
  0
LINE
  5
651
330
4AC
100
AcDbEntity
  8
0
  6
Continuous
 62
     7
370
    25
100
AcDbLine
 10
-151.6267369388
 20
38.5510828506
 30
0.0
 11
-151.6267369388
 21
120.2051640392
 31
0.0
  0
LINE
  5
652
330
4AC
100
AcDbEntity
  8
0
  6
Continuous
 62
     7
370
    25
100
AcDbLine
 10
-144.555669127
 20
120.2051640392
 30
0.0
 11
-144.555669127
 21
38.5510828506
 31
0.0
  0
LINE
  5
653
330
4AC
100
AcDbEntity
  8
0
  6
Continuous
 62
     7
370
    25
100
AcDbLine
 10
301.6281744109
 20
18.1558466873
 30
0.0
 11
301.629509039
 21
17.9672153631
 31
0.0
  0
LINE
  5
654
330
4AC
100
AcDbEntity
  8
0
  6
Continuous
 62
     7
370
    25
100
AcDbLine
 10
275.7716446628
 20
30.2133370404
 30
0.0
 11
275.7716446628
 21
31.0298778523
 31
0.0
  0
LINE
  5
655
330
4AC
100
AcDbEntity
  8
0
  6
Continuous
 62
     7
370
    25
100
AcDbLine
 10
-94.4329069166
 20
21.8659308101
 30
0.0
 11
-90.1561146013
 21
19.3969911593
 31
0.0
  0
LINE
  5
656
330
4AC
100
AcDbEntity
  8
0
  6
Continuous
 62
     7
370
    25
100
AcDbLine
 10
-116.2006294565
 20
24.8359443303
 30
0.0
 11
-95.7286844303
 21
22.3298827686
 31
0.0
  0
LINE
  5
657
330
4AC
100
AcDbEntity
  8
0
  6
Continuous
 62
     7
370
    25
100
AcDbLine
 10
-95.7286844303
 20
22.3298827686
 30
0.0
 11
-88.6576166184
 21
26.4119233277
 31
0.0
  0
LINE
  5
658
330
4AC
100
AcDbEntity
  8
0
  6
Continuous
 62
     7
370
    25
100
AcDbLine
 10
-109.1295616446
 20
28.9179848894
 30
0.0
 11
-116.2006294565
 21
24.8359443303
 31
0.0
  0
LINE
  5
659
330
4AC
100
AcDbEntity
  8
0
  6
Continuous
 62
     7
370
    25
100
AcDbLine
 10
-88.6576166184
 20
26.4119233277
 30
0.0
 11
-109.1295616446
 21
28.9179848894
 31
0.0
  0
LINE
  5
65A
330
4AC
100
AcDbEntity
  8
0
  6
Continuous
 62
     7
370
    25
100
AcDbLine
 10
-306.1772362538
 20
54.2975090392
 30
0.0
 11
-306.1772362538
 21
53.4809682274
 31
0.0
  0
LINE
  5
65B
330
4AC
100
AcDbEntity
  8
0
  6
Continuous
 62
     8
370
    25
100
AcDbLine
 10
193.0502961302
 20
82.0497937347
 30
0.0
 11
277.1858582251
 21
33.4793675879
 31
0.0
  0
LINE
  5
65C
330
4AC
100
AcDbEntity
  8
0
  6
Continuous
 62
     8
370
    25
100
AcDbLine
 10
-307.5914498161
 20
56.7469987748
 30
0.0
 11
-273.0541247051
 21
76.6849721697
 31
0.0
  0
LINE
  5
65D
330
4AC
100
AcDbEntity
  8
0
  6
Continuous
 62
     8
370
    25
100
AcDbLine
 10
-270.5938062436
 20
86.2693649036
 30
0.0
 11
-314.662517628
 21
60.8290393339
 31
0.0
  0
LINE
  5
65E
330
4AC
100
AcDbEntity
  8
0
  6
Continuous
 62
     8
370
    25
100
AcDbLine
 10
-130.4135335032
 20
144.7000613951
 30
0.0
 11
-78.4336796452
 21
114.6927304869
 31
0.0
  0
LINE
  5
65F
330
4AC
100
AcDbEntity
  8
0
  6
Continuous
 62
     8
370
    25
100
AcDbLine
 10
24.7487373415
 20
-139.1916115629
 30
0.0
 11
25.5771644663
 21
-138.7133707635
 31
0.0
  0
LINE
  5
660
330
4AC
100
AcDbEntity
  8
0
  6
Continuous
 62
     8
370
    25
100
AcDbLine
 10
274.3574311004
 20
27.7638473048
 30
0.0
 11
198.7898867993
 21
71.3880620623
 31
0.0
  0
LINE
  5
661
330
4AC
100
AcDbEntity
  8
0
  6
Continuous
 62
     8
370
    25
100
AcDbLine
 10
212.6841916868
 20
36.9281279842
 30
0.0
 11
251.7808115224
 21
14.3581297691
 31
0.0
  0
LINE
  5
662
330
4AC
100
AcDbEntity
  8
0
  6
Continuous
 62
     8
370
    25
100
AcDbLine
 10
-285.2866730417
 20
39.7880211627
 30
0.0
 11
-278.584895056
 21
43.656875243
 31
0.0
  0
LINE
  5
663
330
4AC
100
AcDbEntity
  8
0
  6
Continuous
 62
     8
370
    25
100
AcDbLine
 10
-274.4163375269
 20
68.5502469397
 30
0.0
 11
-304.7630226914
 21
51.0314784918
 31
0.0
  0
LINE
  5
664
330
4AC
100
AcDbEntity
  8
0
  6
Continuous
 62
     8
370
    25
100
AcDbLine
 10
-33.4105863782
 20
-6.4182938147
 30
0.0
 11
-33.1255611873
 21
-6.291806038
 31
0.0
  0
LINE
  5
665
330
4AC
100
AcDbEntity
  8
0
  6
Continuous
 62
     8
370
    25
100
AcDbLine
 10
-59.3969697131
 20
-92.2494721877
 30
0.0
 11
-66.4680374315
 21
-96.3315126929
 31
0.0
  0
LINE
  5
666
330
4AC
100
AcDbEntity
  8
0
  6
Continuous
 62
     8
370
    25
100
AcDbLine
 10
21.6381781827
 20
24.2634981631
 30
0.0
 11
-33.5875721064
 21
56.1446451957
 31
0.0
  0
LINE
  5
667
330
4AC
100
AcDbEntity
  8
0
  6
Continuous
 62
     8
370
    25
100
AcDbLine
 10
-62.2242147579
 20
-84.0847086693
 30
0.0
 11
-74.9533188058
 21
-91.4330640219
 31
0.0
  0
LINE
  5
668
330
4AC
100
AcDbEntity
  8
0
  6
Continuous
 62
     8
370
    25
100
AcDbLine
 10
-33.5875721064
 20
56.1446451957
 30
0.0
 11
-33.5875721064
 21
-6.4654544479
 31
0.0
  0
LINE
  5
669
330
4AC
100
AcDbEntity
  8
0
  6
Continuous
 62
     8
370
    25
100
AcDbLine
 10
-124.00497297
 20
8.0158977709
 30
0.0
 11
-119.9048519428
 21
10.382847258
 31
0.0
  0
LINE
  5
66A
330
4AC
100
AcDbEntity
  8
0
  6
Continuous
 62
     8
370
    25
100
AcDbLine
 10
-148.0912030329
 20
32.4273585116
 30
0.0
 11
-153.3588386362
 21
29.3864172061
 31
0.0
  0
LINE
  5
66B
330
4AC
100
AcDbEntity
  8
0
  6
Continuous
 62
     8
370
    25
100
AcDbLine
 10
-119.9048519428
 20
16.1557243788
 30
0.0
 11
-148.0912030329
 21
32.4273585116
 31
0.0
  0
LINE
  5
66C
330
4AC
100
AcDbEntity
  8
0
  6
Continuous
 62
     8
370
    25
100
AcDbLine
 10
-40.6586399182
 20
-9.0271811032
 30
0.0
 11
-40.6586399182
 21
56.1446451957
 31
0.0
  0
LINE
  5
66D
330
4AC
100
AcDbEntity
  8
0
  6
Continuous
 62
     8
370
    25
100
AcDbLine
 10
-47.7297077301
 20
74.1092065575
 30
0.0
 11
-47.7297077301
 21
-10.7548766362
 31
0.0
  0
LINE
  5
66E
330
4AC
100
AcDbEntity
  8
0
  6
Continuous
 62
     8
370
    25
100
AcDbLine
 10
-54.800775542
 20
-11.6807689953
 30
0.0
 11
-54.800775542
 21
74.1092065575
 31
0.0
  0
LINE
  5
66F
330
4AC
100
AcDbEntity
  8
0
  6
Continuous
 62
     8
370
    25
100
AcDbLine
 10
-118.4403858487
 20
7.14688848
 30
0.0
 11
-97.7874313655
 21
-4.7758083614
 31
0.0
  0
LINE
  5
670
330
4AC
100
AcDbEntity
  8
0
  6
Continuous
 62
     8
370
    25
100
AcDbLine
 10
-88.0850467894
 20
87.6053676699
 30
0.0
 11
-144.555669127
 21
120.2051640392
 31
0.0
  0
LINE
  5
671
330
4AC
100
AcDbEntity
  8
0
  6
Continuous
 62
     8
370
    25
100
AcDbLine
 10
-158.9504272421
 20
34.3232064314
 30
0.0
 11
-151.6267369388
 21
38.5510828506
 31
0.0
  0
LINE
  5
672
330
4AC
100
AcDbEntity
  8
0
  6
Continuous
 62
     8
370
    25
100
AcDbLine
 10
-208.1952794338
 20
94.9961633304
 30
0.0
 11
-208.1952794338
 21
92.6304290504
 31
0.0
  0
LINE
  5
673
330
4AC
100
AcDbEntity
  8
0
  6
Continuous
 62
     8
370
    25
100
AcDbLine
 10
-111.3693180369
 20
36.0540182087
 30
0.0
 11
-88.0850467894
 21
33.2036873247
 31
0.0
  0
LINE
  5
674
330
4AC
100
AcDbEntity
  8
0
  6
Continuous
 62
     8
370
    25
100
AcDbLine
 10
-111.3693180369
 20
28.1036548974
 30
0.0
 11
-111.3693180369
 21
36.0540182087
 31
0.0
  0
LINE
  5
675
330
4AC
100
AcDbEntity
  8
0
  6
Continuous
 62
     8
370
    25
100
AcDbLine
 10
-144.555669127
 20
38.5510828506
 30
0.0
 11
-118.6534595854
 21
23.5980555664
 31
0.0
  0
LINE
  5
676
330
4AC
100
AcDbEntity
  8
0
  6
Continuous
 62
     8
370
    25
100
AcDbLine
 10
-200.8183259504
 20
-10.6086610054
 30
0.0
 11
-207.8893936688
 21
-14.6907015106
 31
0.0
  0
LINE
  5
677
330
4AC
100
AcDbEntity
  8
0
  6
Continuous
 62
     8
370
    25
100
AcDbLine
 10
-203.6455709953
 20
-2.443897487
 30
0.0
 11
-216.3746750431
 21
-9.7922528397
 31
0.0
  0
LINE
  5
678
330
4AC
100
AcDbEntity
  8
0
  6
Continuous
 62
     8
370
    25
100
AcDbLine
 10
-90.1561146013
 20
19.3969911593
 30
0.0
 11
-88.0850467894
 21
20.5925931579
 31
0.0
  0
LINE
  5
679
330
4AC
100
AcDbEntity
  8
0
  6
Continuous
 62
     8
370
    25
100
AcDbLine
 10
-88.0850467894
 20
25.5304724595
 30
0.0
 11
-94.4329069166
 21
21.8659308101
 31
0.0
  0
LINE
  5
67A
330
4AC
100
AcDbEntity
  8
0
  6
Continuous
 62
     8
370
    25
100
AcDbLine
 10
-88.6576166184
 20
26.4119233277
 30
0.0
 11
-88.0850467894
 21
26.8009437008
 31
0.0
  0
LINE
  5
67B
330
4AC
100
AcDbEntity
  8
0
  6
Continuous
 62
     8
370
    25
100
AcDbLine
 10
275.7716446628
 20
31.0298778523
 30
0.0
 11
196.2048045176
 21
76.9628369576
 31
0.0
  0
LINE
  5
67C
330
4AC
100
AcDbEntity
  8
0
  6
Continuous
 62
     8
370
    25
100
AcDbLine
 10
196.8167854075
 20
75.7930070979
 30
0.0
 11
275.7716446628
 21
30.2133370404
 31
0.0
  0
LINE
  5
67D
330
4AC
100
AcDbEntity
  8
0
  6
Continuous
 62
     8
370
    25
100
AcDbLine
 10
-273.6595471594
 20
73.0695713789
 30
0.0
 11
-306.1772362538
 21
54.2975090392
 31
0.0
  0
LINE
  5
67E
330
4AC
100
AcDbEntity
  8
0
  6
Continuous
 62
     8
370
    25
100
AcDbLine
 10
-306.1772362538
 20
53.4809682274
 30
0.0
 11
-273.8109150727
 21
72.1656477306
 31
0.0
  0
ARC
  5
67F
330
4AC
100
AcDbEntity
  8
0
  6
Continuous
 62
     7
370
    25
100
AcDbCircle
 10
27.5771644663
 20
-138.3748053509
 30
0.0
 40
2.000000000000069
100
AcDbArc
 50
119.9973117337
 51
180.0
  0
ARC
  5
680
330
4AC
100
AcDbEntity
  8
0
  6
Continuous
 62
     7
370
    25
100
AcDbCircle
 10
152.2108326947
 20
53.2029875631
 30
0.0
 40
49.99999999999903
100
AcDbArc
 50
21.9593772421
 51
60.0026882664
  0
ARC
  5
681
330
4AC
100
AcDbEntity
  8
0
  6
Continuous
 62
     7
370
    25
100
AcDbCircle
 10
-114.9048519428
 20
20.2892883123
 30
0.0
 40
5.0
100
AcDbArc
 50
119.9973117336
 51
180.0
  0
ARC
  5
682
330
4AC
100
AcDbEntity
  8
0
  6
Continuous
 62
     7
370
    25
100
AcDbCircle
 10
-42.2118625702
 20
165.4408204901
 30
0.0
 40
50.00000000000004
100
AcDbArc
 50
60.0026882663
 51
119.9973117337
  0
ARC
  5
683
330
4AC
100
AcDbEntity
  8
0
  6
Continuous
 62
     7
370
    25
100
AcDbCircle
 10
14.0543343647
 20
-114.6408605255
 30
0.0
 40
18.76800223898281
100
AcDbArc
 50
188.690395101
 51
237.0932333861
  0
ARC
  5
684
330
4AC
100
AcDbEntity
  8
0
  6
Continuous
 62
     7
370
    25
100
AcDbCircle
 10
24.4386534342
 20
-140.2874630622
 30
0.0
 40
1.746836789713925
100
AcDbArc
 50
230.7967147643
 51
9.2140369905
  0
ARC
  5
685
330
4AC
100
AcDbEntity
  8
0
  6
Continuous
 62
     7
370
    25
100
AcDbCircle
 10
32.4059093956
 20
-144.5678597419
 30
0.0
 40
1.536804807572019
100
AcDbArc
 50
2.6054784857
 51
57.39452166
  0
ARC
  5
686
330
4AC
100
AcDbEntity
  8
0
  6
Continuous
 62
     7
370
    25
100
AcDbCircle
 10
30.4925305575
 20
-175.2694265046
 30
0.0
 40
3.493673579427805
100
AcDbArc
 50
230.7967147643
 51
9.2140369905
  0
ARC
  5
687
330
4AC
100
AcDbEntity
  8
0
  6
Continuous
 62
     7
370
    25
100
AcDbCircle
 10
-304.5021091606
 20
28.3180896207
 30
0.0
 40
12.29443846057653
100
AcDbArc
 50
182.6054784857
 51
237.39452166
  0
ARC
  5
688
330
4AC
100
AcDbEntity
  8
0
  6
Continuous
 62
     7
370
    25
100
AcDbCircle
 10
-316.3527636041
 20
58.0411400393
 30
0.0
 40
0.4367091974284992
100
AcDbArc
 50
50.7967147643
 51
189.2140369905
  0
ARC
  5
689
330
4AC
100
AcDbEntity
  8
0
  6
Continuous
 62
     7
370
    25
100
AcDbCircle
 10
-302.8647989731
 20
53.7604116364
 30
0.0
 40
6.147219230288206
100
AcDbArc
 50
182.6054784857
 51
237.39452166
  0
ARC
  5
68A
330
4AC
100
AcDbEntity
  8
0
  6
Continuous
 62
     7
370
    25
100
AcDbCircle
 10
-9.737578621
 20
-69.1494537413
 30
0.0
 40
3.681079762997981
100
AcDbArc
 50
253.4762439808
 51
298.5626479952
  0
ARC
  5
68B
330
4AC
100
AcDbEntity
  8
0
  6
Continuous
 62
     7
370
    25
100
AcDbCircle
 10
-41.1395764021
 20
-21.1341132506
 30
0.0
 40
3.073609615143971
100
AcDbArc
 50
122.60547834
 51
177.3945215143
  0
ARC
  5
68C
330
4AC
100
AcDbEntity
  8
0
  6
Continuous
 62
     7
370
    25
100
AcDbCircle
 10
32.1639043176
 20
-144.7075814464
 30
0.0
 40
4.610414422716387
100
AcDbArc
 50
2.6054784857
 51
57.39452166
  0
ARC
  5
68D
330
4AC
100
AcDbEntity
  8
0
  6
Continuous
 62
     7
370
    25
100
AcDbCircle
 10
35.3553390593
 20
-141.7685767197
 30
0.0
 40
3.074043815823704
100
AcDbArc
 50
242.6096722366
 51
297.3903277634
  0
ARC
  5
68E
330
4AC
100
AcDbEntity
  8
0
  6
Continuous
 62
     7
370
    25
100
AcDbCircle
 10
36.3044509185
 20
-143.4129757264
 30
0.0
 40
3.073609615144045
100
AcDbArc
 50
122.60547834
 51
177.3945215143
  0
ARC
  5
68F
330
4AC
100
AcDbEntity
  8
0
  6
Continuous
 62
     7
370
    25
100
AcDbCircle
 10
-3.4512503059
 20
-113.9475557457
 30
0.0
 40
3.68107976299751
100
AcDbArc
 50
253.4762439808
 51
298.5626479952
  0
ARC
  5
690
330
4AC
100
AcDbEntity
  8
0
  6
Continuous
 62
     7
370
    25
100
AcDbCircle
 10
285.3081319824
 20
1.4294705698
 30
0.0
 40
4.610414422715947
100
AcDbArc
 50
2.6054784857
 51
57.39452166
  0
ARC
  5
691
330
4AC
100
AcDbEntity
  8
0
  6
Continuous
 62
     7
370
    25
100
AcDbCircle
 10
35.3553390593
 20
-171.9805867595
 30
0.0
 40
3.074043815823289
100
AcDbArc
 50
242.6096722366
 51
297.3903277634
  0
ARC
  5
692
330
4AC
100
AcDbEntity
  8
0
  6
Continuous
 62
     7
370
    25
100
AcDbCircle
 10
29.2333831066
 20
-139.3309351673
 30
0.0
 40
3.073609615143982
100
AcDbArc
 50
122.60547834
 51
177.3945215143
  0
ARC
  5
693
330
4AC
100
AcDbEntity
  8
0
  6
Continuous
 62
     7
370
    25
100
AcDbCircle
 10
26.4049559819
 20
-141.7808230031
 30
0.0
 40
3.073609615144
100
AcDbArc
 50
122.60547834
 51
177.3945215143
  0
ARC
  5
694
330
4AC
100
AcDbEntity
  8
0
  6
Continuous
 62
     7
370
    25
100
AcDbCircle
 10
-43.1433548215
 20
-19.9773565914
 30
0.0
 40
3.073609615144025
100
AcDbArc
 50
122.60547834
 51
177.3945215143
  0
ARC
  5
695
330
4AC
100
AcDbEntity
  8
0
  6
Continuous
 62
     7
370
    25
100
AcDbCircle
 10
-46.4146977472
 20
-15.2059522388
 30
0.0
 40
1.042546053361499
100
AcDbArc
 50
55.1174560268
 51
109.6361956156
  0
ARC
  5
696
330
4AC
100
AcDbEntity
  8
0
  6
Continuous
 62
     7
370
    25
100
AcDbCircle
 10
6.9286063322
 20
-130.537365674
 30
0.0
 40
3.073609615144079
100
AcDbArc
 50
122.60547834
 51
177.3945215143
  0
ARC
  5
697
330
4AC
100
AcDbEntity
  8
0
  6
Continuous
 62
     7
370
    25
100
AcDbCircle
 10
13.7691878878
 20
-114.8175013639
 30
0.0
 40
15.64000186581891
100
AcDbArc
 50
188.690395101
 51
237.0932333861
  0
ARC
  5
698
330
4AC
100
AcDbEntity
  8
0
  6
Continuous
 62
     7
370
    25
100
AcDbCircle
 10
191.87399279
 20
-58.7519312606
 30
0.0
 40
60.66548113530398
100
AcDbArc
 50
78.4988646998
 51
79.5588028074
  0
ARC
  5
699
330
4AC
100
AcDbEntity
  8
0
  6
Continuous
 62
     7
370
    25
100
AcDbCircle
 10
121.9055854404
 20
328.0411587064
 30
0.0
 40
339.5064314458687
100
AcDbArc
 50
288.9954071425
 51
292.4911847124
  0
ARC
  5
69A
330
4AC
100
AcDbEntity
  8
0
  6
Continuous
 62
     7
370
    25
100
AcDbCircle
 10
-6.1663340293
 20
55.425427676
 30
0.0
 40
27.43066844825308
100
AcDbArc
 50
153.7074915218
 51
178.4975629937
  0
ARC
  5
69B
330
4AC
100
AcDbEntity
  8
0
  6
Continuous
 62
     7
370
    25
100
AcDbCircle
 10
0.3578038274
 20
52.8742459626
 30
0.0
 40
34.41518035621628
100
AcDbArc
 50
143.3895963833
 51
154.710850825
  0
ARC
  5
69C
330
4AC
100
AcDbEntity
  8
0
  6
Continuous
 62
     7
370
    25
100
AcDbCircle
 10
-5.5289914585
 20
57.7609440333
 30
0.0
 40
26.77868018168225
100
AcDbArc
 50
121.3110406827
 51
144.2709034254
  0
ARC
  5
69D
330
4AC
100
AcDbEntity
  8
0
  6
Continuous
 62
     7
370
    25
100
AcDbCircle
 10
-57.7812776938
 20
91.4932205528
 30
0.0
 40
28.85612507998297
100
AcDbArc
 50
148.8562722006
 51
178.043501357
  0
ARC
  5
69E
330
4AC
100
AcDbEntity
  8
0
  6
Continuous
 62
     7
370
    25
100
AcDbCircle
 10
-57.2083161722
 20
92.492897328
 30
0.0
 40
28.85249187094199
100
AcDbArc
 50
121.9546716495
 51
151.1443911208
  0
ARC
  5
69F
330
4AC
100
AcDbEntity
  8
0
  6
Continuous
 62
     7
370
    25
100
AcDbCircle
 10
-25.3885110188
 20
74.123714812
 30
0.0
 40
28.85249187094188
100
AcDbArc
 50
121.9546716495
 51
151.1443911208
  0
ARC
  5
6A0
330
4AC
100
AcDbEntity
  8
0
  6
Continuous
 62
     7
370
    25
100
AcDbCircle
 10
-25.9614725404
 20
73.1240380368
 30
0.0
 40
28.85612507998255
100
AcDbArc
 50
148.8562722006
 51
178.043501357
  0
ARC
  5
6A1
330
4AC
100
AcDbEntity
  8
0
  6
Continuous
 62
     7
370
    25
100
AcDbCircle
 10
-26.1002304789
 20
73.370330167
 30
0.0
 40
21.64209380998621
100
AcDbArc
 50
148.8562722006
 51
178.043501357
  0
ARC
  5
6A2
330
4AC
100
AcDbEntity
  8
0
  6
Continuous
 62
     7
370
    25
100
AcDbCircle
 10
-51.265241636
 20
80.9327619823
 30
0.0
 40
7.685109539558656
100
AcDbArc
 50
242.6096722366
 51
297.3903277634
  0
ARC
  5
6A3
330
4AC
100
AcDbEntity
  8
0
  6
Continuous
 62
     7
370
    25
100
AcDbCircle
 10
-25.6705093377
 20
74.1200877484
 30
0.0
 40
21.63936890320605
100
AcDbArc
 50
121.9546716495
 51
151.1443911208
  0
ARC
  5
6A4
330
4AC
100
AcDbEntity
  8
0
  6
Continuous
 62
     7
370
    25
100
AcDbCircle
 10
-44.7991865191
 20
92.1310753131
 30
0.0
 40
7.684024037860422
100
AcDbArc
 50
2.6054784857
 51
57.39452166
  0
ARC
  5
6A5
330
4AC
100
AcDbEntity
  8
0
  6
Continuous
 62
     7
370
    25
100
AcDbCircle
 10
-6.3820923219
 20
55.2456232961
 30
0.0
 40
34.28833556031673
100
AcDbArc
 50
153.7074915218
 51
178.4975629937
  0
ARC
  5
6A6
330
4AC
100
AcDbEntity
  8
0
  6
Continuous
 62
     7
370
    25
100
AcDbCircle
 10
-5.5854141084
 20
58.1650187427
 30
0.0
 40
33.47335022710164
100
AcDbArc
 50
121.3110406827
 51
144.2709034254
  0
ARC
  5
6A7
330
4AC
100
AcDbEntity
  8
0
  6
Continuous
 62
     7
370
    25
100
AcDbCircle
 10
1.7730799989
 20
52.0566461543
 30
0.0
 40
43.01897544527305
100
AcDbArc
 50
143.3895963833
 51
154.710850825
  0
ARC
  5
6A8
330
4AC
100
AcDbEntity
  8
0
  6
Continuous
 62
     7
370
    25
100
AcDbCircle
 10
-14.8979005261
 20
94.7970017096
 30
0.0
 40
24.7165325076328
100
AcDbArc
 50
223.7284927498
 51
239.9694502833
  0
ARC
  5
6A9
330
4AC
100
AcDbEntity
  8
0
  6
Continuous
 62
     7
370
    25
100
AcDbCircle
 10
-47.9720356557
 20
37.7600824943
 30
0.0
 40
34.42774505782693
100
AcDbArc
 50
60.001886803
 51
71.6318389699
  0
ARC
  5
6AA
330
4AC
100
AcDbEntity
  8
0
  6
Continuous
 62
     7
370
    25
100
AcDbCircle
 10
-37.1231060123
 20
49.3210897709
 30
0.0
 40
7.685109539558661
100
AcDbArc
 50
62.6096722366
 51
117.3903277634
  0
ARC
  5
6AB
330
4AC
100
AcDbEntity
  8
0
  6
Continuous
 62
     7
370
    25
100
AcDbCircle
 10
-15.3048898817
 20
87.1125711519
 30
0.0
 40
7.68402403786046
100
AcDbArc
 50
182.6054784857
 51
237.39452166
  0
ARC
  5
6AC
330
4AC
100
AcDbEntity
  8
0
  6
Continuous
 62
     7
370
    25
100
AcDbCircle
 10
7.0706858287
 20
93.6671265408
 30
0.0
 40
44.72215644585388
100
AcDbArc
 50
71.4100941345
 51
108.5633296552
  0
ARC
  5
6AD
330
4AC
100
AcDbEntity
  8
0
  6
Continuous
 62
     7
370
    25
100
AcDbCircle
 10
-231.4472768845
 20
89.5374559121
 30
0.0
 40
2.8360109633013
100
AcDbArc
 50
30.6158623289
 51
58.2083275255
  0
ARC
  5
6AE
330
4AC
100
AcDbEntity
  8
0
  6
Continuous
 62
     7
370
    25
100
AcDbCircle
 10
-233.5584932477
 20
89.9469630171
 30
0.0
 40
3.073609615144438
100
AcDbArc
 50
122.60547834
 51
177.3945215143
  0
ARC
  5
6AF
330
4AC
100
AcDbEntity
  8
0
  6
Continuous
 62
     7
370
    25
100
AcDbCircle
 10
-235.562271667
 20
91.1037196764
 30
0.0
 40
3.073609615143938
100
AcDbArc
 50
122.60547834
 51
177.3945215143
  0
ARC
  5
6B0
330
4AC
100
AcDbEntity
  8
0
  6
Continuous
 62
     7
370
    25
100
AcDbCircle
 10
-213.161408484
 20
101.0124899798
 30
0.0
 40
3.073609615144028
100
AcDbArc
 50
2.6054784857
 51
57.39452166
  0
ARC
  5
6B1
330
4AC
100
AcDbEntity
  8
0
  6
Continuous
 62
     7
370
    25
100
AcDbCircle
 10
-113.9701527168
 20
118.8765394493
 30
0.0
 40
30.61436031301729
100
AcDbArc
 50
122.4873455707
 51
177.5126542837
  0
ARC
  5
6B2
330
4AC
100
AcDbEntity
  8
0
  6
Continuous
 62
     7
370
    25
100
AcDbCircle
 10
-149.2873437583
 20
137.8862026669
 30
0.0
 40
3.073609615144372
100
AcDbArc
 50
2.6054784857
 51
57.39452166
  0
ARC
  5
6B3
330
4AC
100
AcDbEntity
  8
0
  6
Continuous
 62
     7
370
    25
100
AcDbCircle
 10
-115.3731214342
 20
118.9312074727
 30
0.0
 40
36.27599209524512
100
AcDbArc
 50
148.2392547797
 51
177.9874472813
  0
ARC
  5
6B4
330
4AC
100
AcDbEntity
  8
0
  6
Continuous
 62
     7
370
    25
100
AcDbCircle
 10
-86.0155680004
 20
12.923962559
 30
0.0
 40
7.684024037860362
100
AcDbArc
 50
122.60547834
 51
177.3945215143
  0
ARC
  5
6B5
330
4AC
100
AcDbEntity
  8
0
  6
Continuous
 62
     7
370
    25
100
AcDbCircle
 10
278.8420768655
 20
30.8901561478
 30
0.0
 40
3.073609615144193
100
AcDbArc
 50
122.60547834
 51
177.3945215143
  0
ARC
  5
6B6
330
4AC
100
AcDbEntity
  8
0
  6
Continuous
 62
     7
370
    25
100
AcDbCircle
 10
272.70121246
 20
30.3530587449
 30
0.0
 40
3.073609615144069
100
AcDbArc
 50
302.60547834
 51
357.3945215143
  0
ARC
  5
6B7
330
4AC
100
AcDbEntity
  8
0
  6
Continuous
 62
     7
370
    25
100
AcDbCircle
 10
391.3535946046
 20
353.3606532397
 30
0.0
 40
366.6105190754225
100
AcDbArc
 50
244.3074096898
 51
247.622248161
  0
ARC
  5
6B8
330
4AC
100
AcDbEntity
  8
0
  6
Continuous
 62
     7
370
    25
100
AcDbCircle
 10
-90.2923603157
 20
15.3929022098
 30
0.0
 40
7.684024037860413
100
AcDbArc
 50
122.60547834
 51
177.3945215143
  0
ARC
  5
6B9
330
4AC
100
AcDbEntity
  8
0
  6
Continuous
 62
     7
370
    25
100
AcDbCircle
 10
-92.3060577461
 20
17.4916298849
 30
0.0
 40
5.926471495402215
100
AcDbArc
 50
125.275956019
 51
197.1688124917
  0
ARC
  5
6BA
330
4AC
100
AcDbEntity
  8
0
  6
Continuous
 62
     7
370
    25
100
AcDbCircle
 10
-96.2291611121
 20
18.8906218854
 30
0.0
 40
3.475484474449615
100
AcDbArc
 50
58.8797700745
 51
81.7205090608
  0
ARC
  5
6BB
330
4AC
100
AcDbEntity
  8
0
  6
Continuous
 62
     7
370
    25
100
AcDbCircle
 10
-112.7780027723
 20
19.9976914466
 30
0.0
 40
5.926471495402363
100
AcDbArc
 50
125.275956019
 51
197.1688124917
  0
ARC
  5
6BC
330
4AC
100
AcDbEntity
  8
0
  6
Continuous
 62
     7
370
    25
100
AcDbCircle
 10
-148.0912030329
 20
113.3816086144
 30
0.0
 40
7.685109539558592
100
AcDbArc
 50
62.6096722366
 51
117.3903277634
  0
ARC
  5
6BD
330
4AC
100
AcDbEntity
  8
0
  6
Continuous
 62
     7
370
    25
100
AcDbCircle
 10
-148.0912030329
 20
31.7275274259
 30
0.0
 40
7.6851095395586
100
AcDbArc
 50
62.6096722366
 51
117.3903277634
  0
ARC
  5
6BE
330
4AC
100
AcDbEntity
  8
0
  6
Continuous
 62
     7
370
    25
100
AcDbCircle
 10
-143.950656432
 20
38.9003871119
 30
0.0
 40
7.684024037860287
100
AcDbArc
 50
182.6054784857
 51
237.39452166
  0
ARC
  5
6BF
330
4AC
100
AcDbEntity
  8
0
  6
Continuous
 62
     7
370
    25
100
AcDbCircle
 10
-283.6304544014
 20
37.1988097226
 30
0.0
 40
3.073609615143994
100
AcDbArc
 50
122.60547834
 51
177.3945215143
  0
ARC
  5
6C0
330
4AC
100
AcDbEntity
  8
0
  6
Continuous
 62
     7
370
    25
100
AcDbCircle
 10
-303.106804051
 20
48.4422670516
 30
0.0
 40
3.073609615144171
100
AcDbArc
 50
122.60547834
 51
177.3945215143
  0
ARC
  5
6C1
330
4AC
100
AcDbEntity
  8
0
  6
Continuous
 62
     7
370
    25
100
AcDbCircle
 10
-152.2317496338
 20
38.9003871119
 30
0.0
 40
7.684024037860424
100
AcDbArc
 50
302.60547834
 51
357.3945215143
  0
ARC
  5
6C2
330
4AC
100
AcDbEntity
  8
0
  6
Continuous
 62
     7
370
    25
100
AcDbCircle
 10
-307.5914498161
 20
57.0269312091
 30
0.0
 40
3.07404381582339
100
AcDbArc
 50
242.6096722366
 51
297.3903277634
  0
ARC
  5
6C3
330
4AC
100
AcDbEntity
  8
0
  6
Continuous
 62
     7
370
    25
100
AcDbCircle
 10
-305.9352311758
 20
54.1577873347
 30
0.0
 40
3.073609615143937
100
AcDbArc
 50
122.60547834
 51
177.3945215143
  0
ARC
  5
6C4
330
4AC
100
AcDbEntity
  8
0
  6
Continuous
 62
     7
370
    25
100
AcDbCircle
 10
-309.2476684565
 20
54.1577873347
 30
0.0
 40
3.073609615144167
100
AcDbArc
 50
2.6054784857
 51
57.39452166
  0
ARC
  5
6C5
330
4AC
100
AcDbEntity
  8
0
  6
Continuous
 62
     7
370
    25
100
AcDbCircle
 10
-303.106804051
 20
53.6206899319
 30
0.0
 40
3.073609615144115
100
AcDbArc
 50
182.6054784857
 51
237.39452166
  0
ARC
  5
6C6
330
4AC
100
AcDbEntity
  8
0
  6
Continuous
 62
     7
370
    25
100
AcDbCircle
 10
-307.5914498161
 20
56.2103903973
 30
0.0
 40
3.074043815823233
100
AcDbArc
 50
242.6096722366
 51
297.3903277634
  0
ARC
  5
6C7
330
4AC
100
AcDbEntity
  8
0
  6
Continuous
 62
     7
370
    25
100
AcDbCircle
 10
-313.0062989877
 20
58.2398278938
 30
0.0
 40
3.073609615144226
100
AcDbArc
 50
122.60547834
 51
177.3945215143
  0
ARC
  5
6C8
330
4AC
100
AcDbEntity
  8
0
  6
Continuous
 62
     8
370
    25
100
AcDbCircle
 10
-32.4726506209
 20
164.6677200578
 30
0.0
 40
48.28170289510568
100
AcDbArc
 50
61.1724048505
 51
80.9974223279
  0
ARC
  5
6C9
330
4AC
100
AcDbEntity
  8
0
  6
Continuous
 62
     8
370
    25
100
AcDbCircle
 10
26.5780785913
 20
-138.2749925971
 30
0.0
 40
1.005878556987439
100
AcDbArc
 50
185.6947992512
 51
245.6253417064
  0
ARC
  5
6CA
330
4AC
100
AcDbEntity
  8
0
  6
Continuous
 62
     8
370
    25
100
AcDbCircle
 10
26.9913243566
 20
-137.5594863854
 30
0.0
 40
1.005954471803566
100
AcDbArc
 50
54.3824225248
 51
114.3071190461
  0
ARC
  5
6CB
330
4AC
100
AcDbEntity
  8
0
  6
Continuous
 62
     8
370
    25
100
AcDbCircle
 10
26.5780785913
 20
-139.091533409
 30
0.0
 40
1.005878556987401
100
AcDbArc
 50
185.6947992512
 51
245.6253417064
  0
ARC
  5
6CC
330
4AC
100
AcDbEntity
  8
0
  6
Continuous
 62
     8
370
    25
100
AcDbCircle
 10
276.6000181154
 20
6.5365453513
 30
0.0
 40
1.005954471803554
100
AcDbArc
 50
54.3824225248
 51
114.3071190461
  0
ARC
  5
6CD
330
4AC
100
AcDbEntity
  8
0
  6
Continuous
 62
     8
370
    25
100
AcDbCircle
 10
25.3614277014
 20
-138.2987297773
 30
0.0
 40
1.082879199259878
100
AcDbArc
 50
235.5423094917
 51
281.9011611926
  0
ARC
  5
6CE
330
4AC
100
AcDbEntity
  8
0
  6
Continuous
 62
     8
370
    25
100
AcDbCircle
 10
31.7457727156
 20
-175.1996021271
 30
0.0
 40
5.047580216749182
100
AcDbArc
 50
306.3174443056
 51
5.5661912481
  0
ARC
  5
6CF
330
4AC
100
AcDbEntity
  8
0
  6
Continuous
 62
     8
370
    25
100
AcDbCircle
 10
29.28563766
 20
-178.0752342252
 30
0.0
 40
1.006202315185141
100
AcDbArc
 50
174.3803684982
 51
234.2933833519
  0
ARC
  5
6D0
330
4AC
100
AcDbEntity
  8
0
  6
Continuous
 62
     8
370
    25
100
AcDbCircle
 10
285.0137612627
 20
-29.1138242866
 30
0.0
 40
4.92977930027312
100
AcDbArc
 50
305.0133328767
 51
6.2988475167
  0
ARC
  5
6D1
330
4AC
100
AcDbEntity
  8
0
  6
Continuous
 62
     8
370
    25
100
AcDbCircle
 10
-26.2112168266
 20
-4.4619680238
 30
0.0
 40
0.9567230669581052
100
AcDbArc
 50
52.6990888282
 51
116.4317743851
  0
ARC
  5
6D2
330
4AC
100
AcDbEntity
  8
0
  6
Continuous
 62
     8
370
    25
100
AcDbCircle
 10
37.6567829731
 20
32.3550206133
 30
0.0
 40
1.005954471803461
100
AcDbArc
 50
54.3824225248
 51
114.3071190461
  0
ARC
  5
6D3
330
4AC
100
AcDbEntity
  8
0
  6
Continuous
 62
     8
370
    25
100
AcDbCircle
 10
-310.1469799172
 20
17.8530703856
 30
0.0
 40
0.9859558601463584
100
AcDbArc
 50
173.7011524865
 51
234.9866671202
  0
ARC
  5
6D4
330
4AC
100
AcDbEntity
  8
0
  6
Continuous
 62
     8
370
    25
100
AcDbCircle
 10
61.0167837026
 20
18.4336846999
 30
0.0
 40
29.1191232862317
100
AcDbArc
 50
122.0586721931
 51
151.8403163866
  0
ARC
  5
6D5
330
4AC
100
AcDbEntity
  8
0
  6
Continuous
 62
     8
370
    25
100
AcDbCircle
 10
-85.6941771029
 20
94.6889501828
 30
0.0
 40
2.396832082986553
100
AcDbArc
 50
184.0422487933
 51
247.2623807521
  0
ARC
  5
6D6
330
4AC
100
AcDbEntity
  8
0
  6
Continuous
 62
     8
370
    25
100
AcDbCircle
 10
-73.9294923137
 20
115.0653203466
 30
0.0
 40
2.397054999824288
100
AcDbArc
 50
52.7462685432
 51
115.9597881983
  0
ARC
  5
6D7
330
4AC
100
AcDbEntity
  8
0
  6
Continuous
 62
     8
370
    25
100
AcDbCircle
 10
-85.582761477
 20
19.6471865441
 30
0.0
 40
2.514696392468861
100
AcDbArc
 50
185.6947992512
 51
245.6253417064
  0
ARC
  5
6D8
330
4AC
100
AcDbEntity
  8
0
  6
Continuous
 62
     8
370
    25
100
AcDbCircle
 10
7.070888394
 20
96.2486178289
 30
0.0
 40
40.39295773984878
100
AcDbArc
 50
73.5797966745
 51
106.4029687954
  0
ARC
  5
6D9
330
4AC
100
AcDbEntity
  8
0
  6
Continuous
 62
     8
370
    25
100
AcDbCircle
 10
-271.3770002468
 20
79.1925549501
 30
0.0
 40
1.244058054025964
100
AcDbArc
 50
175.1521775807
 51
236.8007309246
  0
ARC
  5
6DA
330
4AC
100
AcDbEntity
  8
0
  6
Continuous
 62
     8
370
    25
100
AcDbCircle
 10
7.0713230805
 20
95.2118345819
 30
0.0
 40
38.62505382196288
100
AcDbArc
 50
83.2244005039
 51
96.9221783268
  0
ARC
  5
6DB
330
4AC
100
AcDbEntity
  8
0
  6
Continuous
 62
     8
370
    25
100
AcDbCircle
 10
-120.4539645403
 20
7.3468196539
 30
0.0
 40
2.023480076803691
100
AcDbArc
 50
294.4971172412
 51
354.329603922
  0
ARC
  5
6DC
330
4AC
100
AcDbEntity
  8
0
  6
Continuous
 62
     8
370
    25
100
AcDbCircle
 10
288.6712648251
 20
34.2936193705
 30
0.0
 40
1.509058967009813
100
AcDbArc
 50
65.7086402054
 51
125.6162045938
  0
ARC
  5
6DD
330
4AC
100
AcDbEntity
  8
0
  6
Continuous
 62
     8
370
    25
100
AcDbCircle
 10
-88.6253989822
 20
21.6263580863
 30
0.0
 40
2.704286819485479
100
AcDbArc
 50
235.5259435683
 51
282.0663320372
  0
ARC
  5
6DE
330
4AC
100
AcDbEntity
  8
0
  6
Continuous
 62
     8
370
    25
100
AcDbCircle
 10
-277.6634676053
 20
41.6523726498
 30
0.0
 40
1.243881109926795
100
AcDbArc
 50
175.1184084744
 51
236.8030515388
  0
ARC
  5
6DF
330
4AC
100
AcDbEntity
  8
0
  6
Continuous
 62
     8
370
    25
100
AcDbCircle
 10
-89.0297247388
 20
23.5064457434
 30
0.0
 40
2.929208843041868
100
AcDbArc
 50
71.185650818
 51
82.7017877078
  0
ARC
  5
6E0
330
4AC
100
AcDbEntity
  8
0
  6
Continuous
 62
     8
370
    25
100
AcDbCircle
 10
-117.4025666304
 20
20.5388201968
 30
0.0
 40
2.51469639246893
100
AcDbArc
 50
185.6947992512
 51
245.6253417064
  0
ARC
  5
6E1
330
4AC
100
AcDbEntity
  8
0
  6
Continuous
 62
     8
370
    25
100
AcDbCircle
 10
-116.484699438
 20
22.9588622897
 30
0.0
 40
1.89845535673427
100
AcDbArc
 50
81.3943895212
 51
118.98481528
  0
ARC
  5
6E2
330
4AC
100
AcDbEntity
  8
0
  6
Continuous
 62
     8
370
    25
100
AcDbCircle
 10
-117.4025666304
 20
9.4374406441
 30
0.0
 40
2.514696392468926
100
AcDbArc
 50
185.6947992512
 51
245.6253417064
  0
ARC
  5
6E3
330
4AC
100
AcDbEntity
  8
0
  6
Continuous
 62
     8
370
    25
100
AcDbCircle
 10
-109.4136316261
 20
27.0409028488
 30
0.0
 40
1.898455356734343
100
AcDbArc
 50
81.3943895212
 51
118.98481528
  0
ARC
  5
6E4
330
4AC
100
AcDbEntity
  8
0
  6
Continuous
 62
     8
370
    25
100
AcDbCircle
 10
-8.3136279909
 20
205.7394473629
 30
0.0
 40
1.50893170770497
100
AcDbArc
 50
65.6928809539
 51
125.6175774752
  0
ARC
  5
6E5
330
4AC
100
AcDbEntity
  8
0
  6
Continuous
 62
     8
370
    25
100
AcDbCircle
 10
-124.2527312598
 20
29.7299297475
 30
0.0
 40
14.35187901075436
100
AcDbArc
 50
1.3541715289
 51
26.1450629704
  0
ARC
  5
6E6
330
4AC
100
AcDbEntity
  8
0
  6
Continuous
 62
     8
370
    25
100
AcDbCircle
 10
-282.3662050877
 20
43.7419296139
 30
0.0
 40
4.915539147480014
100
AcDbArc
 50
233.5493825302
 51
294.3931123527
  0
ARC
  5
6E7
330
4AC
100
AcDbEntity
  8
0
  6
Continuous
 62
     8
370
    25
100
AcDbCircle
 10
-315.5373044993
 20
59.638785551
 30
0.0
 40
1.477144589372607
100
AcDbArc
 50
53.6856656304
 51
115.1945509784
  0
ARC
  5
6E8
330
4AC
100
AcDbEntity
  8
0
  6
Continuous
 62
     8
370
    25
100
AcDbCircle
 10
-316.368653384
 20
58.8875009509
 30
0.0
 40
1.005963289372937
100
AcDbArc
 50
185.7105328914
 51
245.6239703614
  0
ARC
  5
6E9
330
4AC
100
AcDbEntity
  8
0
  6
Continuous
 62
     8
370
    25
100
AcDbCircle
 10
-316.3687102842
 20
28.6754236682
 30
0.0
 40
1.005878556987418
100
AcDbArc
 50
185.6947992512
 51
245.6253417064
  0
VIEWPORT
  5
6F2
330
4AC
100
AcDbEntity
  8
0
100
AcDbViewport
 10
0.0
 20
0.0
 30
0.0
 40
205.6
 41
156.0
 68
     1
 69
     1
 12
0.0
 22
0.0
 13
0.0
 23
0.0
 14
10.0
 24
10.0
 15
10.0
 25
10.0
 16
0.0
 26
0.0
 36
1.0
 17
0.0
 27
0.0
 37
0.0
 42
50.0
 43
0.0
 44
0.0
 45
408.0
 50
0.0
 51
0.0
 72
   100
 90
   557152
  1

281
     0
 71
     1
 74
     0
110
0.0
120
0.0
130
0.0
111
1.0
121
0.0
131
0.0
112
0.0
122
1.0
132
0.0
 79
     0
146
0.0
  0
ENDBLK
  5
4AF
330
4AC
100
AcDbEntity
  8
0
100
AcDbBlockEnd
  0
ENDSEC
  0
SECTION
  2
ENTITIES
  0
CIRCLE
  5
73
330
1F
100
AcDbEntity
  8
0
  6
Continuous
 62
     7
370
    25
100
AcDbCircle
 10
0.0
 20
10.0
 30
0.0
 40
34.0
  0
CIRCLE
  5
74
330
1F
100
AcDbEntity
  8
0
  6
Continuous
 62
     7
370
    25
100
AcDbCircle
 10
0.0
 20
10.0
 30
0.0
 40
35.99999999999997
  0
CIRCLE
  5
75
330
1F
100
AcDbEntity
  8
0
  6
Continuous
 62
     7
370
    25
100
AcDbCircle
 10
0.0
 20
10.0
 30
0.0
 40
22.50000000000001
  0
CIRCLE
  5
76
330
1F
100
AcDbEntity
  8
0
  6
Continuous
 62
     7
370
    25
100
AcDbCircle
 10
0.0
 20
10.0
 30
0.0
 40
24.5
  0
LWPOLYLINE
  5
78
330
1F
100
AcDbEntity
  8
0
  6
Continuous
 62
     7
370
    25
100
AcDbPolyline
 90
        9
 70
   128
 43
0.0
 10
-22.5
 20
-94.1421356237
 10
-23.4754516101
 20
-94.0742013311
 10
-24.4134171618
 20
-93.87300913
 10
-25.2778511651
 20
-93.5462907238
 10
-26.0355339059
 20
-93.1066017178
 10
-26.6573480615
 20
-92.5708391138
 10
-27.1193976626
 20
-91.9595919682
 10
-27.403926402
 20
-91.296350166
 10
-27.5
 20
-90.6066017178
  0
LWPOLYLINE
  5
7E
330
1F
100
AcDbEntity
  8
0
  6
Continuous
 62
     7
370
    25
100
AcDbPolyline
 90
        9
 70
   128
 43
0.0
 10
27.5
 20
-90.6066017178
 10
27.403926402
 20
-91.296350166
 10
27.1193976626
 20
-91.9595919682
 10
26.6573480615
 20
-92.5708391138
 10
26.0355339059
 20
-93.1066017178
 10
25.2778511651
 20
-93.5462907238
 10
24.4134171618
 20
-93.87300913
 10
23.4754516101
 20
-94.0742013311
 10
22.5
 20
-94.1421356237
  0
SPLINE
  5
8B
330
1F
100
AcDbEntity
  8
0
  6
Continuous
 62
     7
370
    25
100
AcDbSpline
210
0.0
220
0.0
230
1.0
 70
     8
 71
     3
 72
    24
 73
    20
 74
     0
 42
0.000000001
 43
0.00000001
 40
0.0
 40
0.0
 40
0.0
 40
0.0
 40
0.1250000000000003
 40
0.1250000000000003
 40
0.2500000000000006
 40
0.2500000000000006
 40
0.3750000000000009
 40
0.3750000000000009
 40
0.5000000000000012
 40
0.5000000000000012
 40
0.6250000000000016
 40
0.6250000000000016
 40
0.7500000000000018
 40
0.7500000000000018
 40
0.8750000000000021
 40
0.8750000000000021
 40
0.9375000000000011
 40
0.9375000000000011
 40
1.0
 40
1.0
 40
1.0
 40
1.0
 10
-27.50000000000001
 20
-13.23252031097772
 30
0.0
 10
-27.50000000000001
 20
-13.23252031097772
 30
0.0
 10
-27.5343602526252
 20
-13.24510108523288
 30
0.0
 10
-27.66849349464405
 20
-13.29409774120936
 30
0.0
 10
-27.77014773344034
 20
-13.33119736916413
 30
0.0
 10
-28.0316107686687
 20
-13.42625967323366
 30
0.0
 10
-28.19099521476296
 20
-13.48406908193894
 30
0.0
 10
-28.56610785695075
 20
-13.61944994199638
 30
0.0
 10
-28.78016199047893
 20
-13.69640670657568
 30
0.0
 10
-29.24617937075492
 20
-13.86298359946083
 30
0.0
 10
-29.50200300360865
 20
-13.9539825375619
 30
0.0
 10
-30.04561494642991
 20
-14.14611112452234
 30
0.0
 10
-30.32993437306173
 20
-14.24602207228145
 30
0.0
 10
-30.9226315339747
 20
-14.45292289410573
 30
0.0
 10
-31.23362288836788
 20
-14.56080751577395
 30
0.0
 10
-31.70403884688573
 20
-14.72289585744733
 30
0.0
 10
-31.86185713228054
 20
-14.77709682707019
 30
0.0
 10
-32.17951559893275
 20
-14.8858337435397
 30
0.0
 10
-32.34130303103709
 20
-14.94102543886764
 30
0.0
 10
-32.50000000000001
 20
-14.99499949989981
 30
0.0
  0
SPLINE
  5
8D
330
1F
100
AcDbEntity
  8
0
  6
Continuous
 62
     7
370
    25
100
AcDbSpline
210
0.0
220
0.0
230
1.0
 70
     8
 71
     3
 72
    24
 73
    20
 74
     0
 42
0.000000001
 43
0.00000001
 40
0.0
 40
0.0
 40
0.0
 40
0.0
 40
0.1250000000000003
 40
0.1250000000000003
 40
0.2500000000000006
 40
0.2500000000000006
 40
0.3750000000000009
 40
0.3750000000000009
 40
0.5000000000000012
 40
0.5000000000000012
 40
0.6250000000000016
 40
0.6250000000000016
 40
0.7500000000000018
 40
0.7500000000000018
 40
0.8750000000000021
 40
0.8750000000000021
 40
0.9375000000000011
 40
0.9375000000000011
 40
1.0
 40
1.0
 40
1.0
 40
1.0
 10
27.49999999999998
 20
-13.23252031097776
 30
0.0
 10
27.49999999999999
 20
-13.23252031097776
 30
0.0
 10
27.53436025262517
 20
-13.24510108523291
 30
0.0
 10
27.66849349464403
 20
-13.29409774120939
 30
0.0
 10
27.77014773344031
 20
-13.33119736916416
 30
0.0
 10
28.03161076866868
 20
-13.42625967323368
 30
0.0
 10
28.19099521476294
 20
-13.48406908193896
 30
0.0
 10
28.56610785695073
 20
-13.61944994199639
 30
0.0
 10
28.78016199047891
 20
-13.69640670657569
 30
0.0
 10
29.2461793707549
 20
-13.86298359946084
 30
0.0
 10
29.50200300360863
 20
-13.95398253756193
 30
0.0
 10
30.04561494642988
 20
-14.14611112452236
 30
0.0
 10
30.32993437306171
 20
-14.24602207228148
 30
0.0
 10
30.92263153397468
 20
-14.45292289410575
 30
0.0
 10
31.23362288836787
 20
-14.56080751577398
 30
0.0
 10
31.70403884688571
 20
-14.72289585744735
 30
0.0
 10
31.86185713228051
 20
-14.77709682707021
 30
0.0
 10
32.17951559893274
 20
-14.88583374353972
 30
0.0
 10
32.3413030310371
 20
-14.94102543886761
 30
0.0
 10
32.49999999999999
 20
-14.99499949989984
 30
0.0
  0
LWPOLYLINE
  5
93
330
1F
100
AcDbEntity
  8
0
  6
Continuous
 62
     7
370
    25
100
AcDbPolyline
 90
        9
 70
   128
 43
0.0
 10
-32.5
 20
-71.0621787609
 10
-31.5245483899
 20
-71.1153179267
 10
-30.5865828382
 20
-71.2726933156
 10
-29.7221488349
 20
-71.5282570798
 10
-28.9644660941
 20
-71.872188047
 10
-28.3426519385
 20
-72.2912691432
 10
-27.8806023374
 20
-72.7693953167
 10
-27.596073598
 20
-73.288192447
 10
-27.5
 20
-73.8277234512
  0
LWPOLYLINE
  5
95
330
1F
100
AcDbEntity
  8
0
  6
Continuous
 62
     7
370
    25
100
AcDbPolyline
 90
        9
 70
   128
 43
0.0
 10
27.5
 20
-73.8277234512
 10
27.596073598
 20
-73.288192447
 10
27.8806023374
 20
-72.7693953167
 10
28.3426519385
 20
-72.2912691432
 10
28.9644660941
 20
-71.872188047
 10
29.7221488349
 20
-71.5282570798
 10
30.5865828382
 20
-71.2726933156
 10
31.5245483899
 20
-71.1153179267
 10
32.5
 20
-71.0621787609
  0
SPLINE
  5
9A
330
1F
100
AcDbEntity
  8
0
  6
Continuous
 62
     7
370
    25
100
AcDbSpline
210
0.0
220
0.0
230
1.0
 70
     8
 71
     3
 72
    24
 73
    20
 74
     0
 42
0.000000001
 43
0.00000001
 40
0.0
 40
0.0
 40
0.0
 40
0.0
 40
0.0625000000000007
 40
0.0625000000000007
 40
0.1250000000000015
 40
0.1250000000000015
 40
0.1875000000000022
 40
0.1875000000000022
 40
0.250000000000003
 40
0.250000000000003
 40
0.3750000000000027
 40
0.3750000000000027
 40
0.5000000000000024
 40
0.5000000000000024
 40
0.6250000000000021
 40
0.6250000000000021
 40
0.7500000000000019
 40
0.7500000000000019
 40
1.0
 40
1.0
 40
1.0
 40
1.0
 10
127.7502956171255
 20
-174.9999999999998
 30
0.0
 10
127.7502956171255
 20
-174.74510658869
 30
0.0
 10
127.7367729663736
 20
-174.4974260177725
 30
0.0
 10
127.6860674973475
 20
-174.0146903795606
 30
0.0
 10
127.6487356440657
 20
-173.7822169728805
 30
0.0
 10
127.5603829479922
 20
-173.3569272281411
 30
0.0
 10
127.5089451011769
 20
-173.1598208783592
 30
0.0
 10
127.3951536654401
 20
-172.7890253294903
 30
0.0
 10
127.332510165636
 20
-172.6151371424051
 30
0.0
 10
127.1374572707425
 20
-172.136050786734
 30
0.0
 10
126.9965402749331
 20
-171.8663578128735
 30
0.0
 10
126.7010207474886
 20
-171.390339408281
 30
0.0
 10
126.5465157781729
 20
-171.1857018301053
 30
0.0
 10
126.2338248427172
 20
-170.8334581669138
 30
0.0
 10
126.0746343025843
 20
-170.6845581158429
 30
0.0
 10
125.751686813953
 20
-170.4317759188977
 30
0.0
 10
125.5875305811562
 20
-170.3279250599271
 30
0.0
 10
125.0948842298618
 20
-170.0812037250223
 30
0.0
 10
124.764548241376
 20
-170.0
 30
0.0
 10
124.4325877972736
 20
-169.9999999999998
 30
0.0
  0
SPLINE
  5
9C
330
1F
100
AcDbEntity
  8
0
  6
Continuous
 62
     7
370
    25
100
AcDbSpline
210
0.0
220
0.0
230
1.0
 70
     8
 71
     3
 72
    16
 73
    12
 74
     0
 42
0.000000001
 43
0.00000001
 40
0.0
 40
0.0
 40
0.0
 40
0.0
 40
0.1249999999999971
 40
0.1249999999999971
 40
0.2499999999999942
 40
0.2499999999999942
 40
0.4999999999999961
 40
0.4999999999999961
 40
0.749999999999998
 40
0.749999999999998
 40
1.0
 40
1.0
 40
1.0
 40
1.0
 10
128.476827845347
 20
-176.1761819021571
 30
0.0
 10
128.4396397833617
 20
-175.8138412783662
 30
0.0
 10
128.4189351097455
 20
-175.4495553690626
 30
0.0
 10
128.4135528997729
 20
-174.7161430965617
 30
0.0
 10
128.4288634881856
 20
-174.3544828826559
 30
0.0
 10
128.523150867033
 20
-173.282816480775
 30
0.0
 10
128.6540623514964
 20
-172.5854265305014
 30
0.0
 10
128.9505034216293
 20
-171.1965874043135
 30
0.0
 10
129.1116339354029
 20
-170.5050568822228
 30
0.0
 10
129.3519967656283
 20
-169.1069781105239
 30
0.0
 10
129.4325877972733
 20
-168.4007273844301
 30
0.0
 10
129.4325877972727
 20
-167.68092019183
 30
0.0
  0
SPLINE
  5
9D
330
1F
100
AcDbEntity
  8
0
  6
Continuous
 62
     7
370
    25
100
AcDbSpline
210
0.0
220
0.0
230
1.0
 70
     8
 71
     3
 72
    12
 73
     8
 74
     0
 42
0.000000001
 43
0.00000001
 40
0.0
 40
0.0
 40
0.0
 40
0.0
 40
0.4999999999999756
 40
0.4999999999999756
 40
0.7499999999999878
 40
0.7499999999999878
 40
1.0
 40
1.0
 40
1.0
 40
1.0
 10
128.4768278453478
 20
-176.1761819021562
 30
0.0
 10
128.3724248772031
 20
-175.9660403388269
 30
0.0
 10
128.2590671465217
 20
-175.761624371613
 30
0.0
 10
128.0764842185892
 20
-175.4661799196074
 30
0.0
 10
128.0137639180088
 20
-175.3699109403585
 30
0.0
 10
127.8846830033187
 20
-175.1816878058839
 30
0.0
 10
127.8174620007426
 20
-175.0887649919002
 30
0.0
 10
127.7502956171255
 20
-174.9999999999981
 30
0.0
  0
SPLINE
  5
9F
330
1F
100
AcDbEntity
  8
0
  6
Continuous
 62
     7
370
    25
100
AcDbSpline
210
0.0
220
0.0
230
1.0
 70
     8
 71
     3
 72
    24
 73
    20
 74
     0
 42
0.000000001
 43
0.00000001
 40
0.0
 40
0.0
 40
0.0
 40
0.0
 40
0.2500000000000041
 40
0.2500000000000041
 40
0.3750000000000041
 40
0.3750000000000041
 40
0.500000000000004
 40
0.500000000000004
 40
0.6250000000000039
 40
0.6250000000000039
 40
0.7500000000000039
 40
0.7500000000000039
 40
0.8125000000000029
 40
0.8125000000000029
 40
0.8750000000000019
 40
0.8750000000000019
 40
0.937500000000001
 40
0.937500000000001
 40
1.0
 40
1.0
 40
1.0
 40
1.0
 10
-124.4325877972724
 20
-169.9999999999999
 30
0.0
 10
-124.7644135099221
 20
-169.9999999999999
 30
0.0
 10
-125.0946160240865
 20
-170.0811396146374
 30
0.0
 10
-125.5870648373838
 20
-170.3276567710935
 30
0.0
 10
-125.7511568697389
 20
-170.4314211710365
 30
0.0
 10
-126.0739845655781
 20
-170.6839897053836
 30
0.0
 10
-126.2331174505797
 20
-170.8327615758418
 30
0.0
 10
-126.545700197319
 20
-171.1846832925828
 30
0.0
 10
-126.7001520732015
 20
-171.3891215388935
 30
0.0
 10
-126.995609652731
 20
-171.8646785040163
 30
0.0
 10
-127.1365049627808
 20
-172.1340986259896
 30
0.0
 10
-127.3315610425732
 20
-172.6126145895162
 30
0.0
 10
-127.3940165784274
 20
-172.7856915483219
 30
0.0
 10
-127.5079835238409
 20
-173.1563228321076
 30
0.0
 10
-127.5600709265506
 20
-173.3552556797935
 30
0.0
 10
-127.6494819895861
 20
-173.7859799857005
 30
0.0
 10
-127.6862961994576
 20
-174.0168975318384
 30
0.0
 10
-127.7365251599656
 20
-174.495036996549
 30
0.0
 10
-127.7502956171254
 20
-174.7460371113852
 30
0.0
 10
-127.7502956171253
 20
-174.9999999999998
 30
0.0
  0
SPLINE
  5
A0
330
1F
100
AcDbEntity
  8
0
  6
Continuous
 62
     7
370
    25
100
AcDbSpline
210
0.0
220
0.0
230
1.0
 70
     8
 71
     3
 72
    12
 73
     8
 74
     0
 42
0.000000001
 43
0.00000001
 40
0.0
 40
0.0
 40
0.0
 40
0.0
 40
0.499999999999992
 40
0.499999999999992
 40
0.749999999999996
 40
0.749999999999996
 40
1.0
 40
1.0
 40
1.0
 40
1.0
 10
-128.4768278453476
 20
-176.1761819021564
 30
0.0
 10
-128.3723202381003
 20
-175.9658297219738
 30
0.0
 10
-128.2585141290775
 20
-175.7606854147839
 30
0.0
 10
-128.0761803422432
 20
-175.465710360092
 30
0.0
 10
-128.0135359912419
 20
-175.3695705949188
 30
0.0
 10
-127.8845885784687
 20
-175.181558124821
 30
0.0
 10
-127.8174993534705
 20
-175.0888143523824
 30
0.0
 10
-127.7502956171253
 20
-174.9999999999998
 30
0.0
  0
SPLINE
  5
A1
330
1F
100
AcDbEntity
  8
0
  6
Continuous
 62
     7
370
    25
100
AcDbSpline
210
0.0
220
0.0
230
1.0
 70
     8
 71
     3
 72
    16
 73
    12
 74
     0
 42
0.000000001
 43
0.00000001
 40
0.0
 40
0.0
 40
0.0
 40
0.0
 40
0.2499999999999996
 40
0.2499999999999996
 40
0.4999999999999991
 40
0.4999999999999991
 40
0.7499999999999987
 40
0.7499999999999987
 40
0.8749999999999993
 40
0.8749999999999993
 40
1.0
 40
1.0
 40
1.0
 40
1.0
 10
-129.4325877972724
 20
-167.6809201918407
 30
0.0
 10
-129.4325877972725
 20
-168.4007273844404
 30
0.0
 10
-129.3519967656275
 20
-169.1069781105279
 30
0.0
 10
-129.111633935402
 20
-170.505056882226
 30
0.0
 10
-128.9505034216284
 20
-171.1965874043163
 30
0.0
 10
-128.6540623514958
 20
-172.5854265305035
 30
0.0
 10
-128.5231508670326
 20
-173.2828164807767
 30
0.0
 10
-128.4288634881853
 20
-174.354482882657
 30
0.0
 10
-128.4135528997727
 20
-174.7161430965627
 30
0.0
 10
-128.4189351097454
 20
-175.4495553690632
 30
0.0
 10
-128.4396397833618
 20
-175.8138412783666
 30
0.0
 10
-128.476827845347
 20
-176.1761819021572
 30
0.0
  0
SPLINE
  5
A4
330
1F
100
AcDbEntity
  8
0
  6
Continuous
 62
     7
370
    25
100
AcDbSpline
210
0.0
220
0.0
230
1.0
 70
     8
 71
     3
 72
    22
 73
    18
 74
     0
 42
0.000000001
 43
0.00000001
 40
0.0
 40
0.0
 40
0.0
 40
0.0
 40
0.1250000000000007
 40
0.1250000000000007
 40
0.2500000000000013
 40
0.2500000000000013
 40
0.375000000000002
 40
0.375000000000002
 40
0.5000000000000027
 40
0.5000000000000027
 40
0.7500000000000004
 40
0.7500000000000004
 40
0.8750000000000004
 40
0.8750000000000004
 40
0.9375000000000002
 40
0.9375000000000002
 40
1.0
 40
1.0
 40
1.0
 40
1.0
 10
129.4325877972727
 20
-77.34935157289733
 30
0.0
 10
129.4325877972727
 20
-76.59331739113432
 30
0.0
 10
129.3768082308099
 20
-75.84482166134744
 30
0.0
 10
129.1884553502357
 20
-74.3576676253612
 30
0.0
 10
129.0555364630723
 20
-73.61905272374038
 30
0.0
 10
128.7342385731509
 20
-72.14804269441731
 30
0.0
 10
128.5458389385272
 20
-71.41640805234645
 30
0.0
 10
128.1321562039329
 20
-69.96572894981331
 30
0.0
 10
127.9065057637756
 20
-69.24527118342937
 30
0.0
 10
127.1905657144872
 20
-67.09226544126707
 30
0.0
 10
126.661912635223
 20
-65.66723654952492
 30
0.0
 10
125.8411457374074
 20
-63.5394195415422
 30
0.0
 10
125.5624874803107
 20
-62.83140082733151
 30
0.0
 10
125.1407495598817
 20
-61.76967938607023
 30
0.0
 10
124.9995370383922
 20
-61.41582697299924
 30
0.0
 10
124.7164201386474
 20
-60.70800151949615
 30
0.0
 10
124.5739484312583
 20
-60.35261553740534
 30
0.0
 10
124.4325877972727
 20
-59.99999999999984
 30
0.0
  0
SPLINE
  5
A6
330
1F
100
AcDbEntity
  8
0
  6
Continuous
 62
     7
370
    25
100
AcDbSpline
210
0.0
220
0.0
230
1.0
 70
     8
 71
     3
 72
    18
 73
    14
 74
     0
 42
0.000000001
 43
0.00000001
 40
0.0
 40
0.0
 40
0.0
 40
0.0
 40
0.1249999999999996
 40
0.1249999999999996
 40
0.2499999999999991
 40
0.2499999999999991
 40
0.3749999999999987
 40
0.3749999999999987
 40
0.4999999999999982
 40
0.4999999999999982
 40
0.7499999999999991
 40
0.7499999999999991
 40
1.0
 40
1.0
 40
1.0
 40
1.0
 10
131.4325877972727
 20
-77.34935157289733
 30
0.0
 10
131.4325877972727
 20
-76.54828516876567
 30
0.0
 10
131.3671143844893
 20
-75.75823658151332
 30
0.0
 10
131.1348442172937
 20
-74.1951900230713
 30
0.0
 10
130.9677243617126
 20
-73.42224642310433
 30
0.0
 10
130.5504738705594
 20
-71.89032821507227
 30
0.0
 10
130.2994903981914
 20
-71.13046305399588
 30
0.0
 10
129.740650290817
 20
-69.6491541140555
 30
0.0
 10
129.4317806864649
 20
-68.92368752892814
 30
0.0
 10
128.4385373092275
 20
-66.78165291883612
 30
0.0
 10
127.6878548381475
 20
-65.39928198175645
 30
0.0
 10
126.1025995762468
 20
-62.67780448640352
 30
0.0
 10
125.2686019063161
 20
-61.34060597255846
 30
0.0
 10
124.4325877972727
 20
-59.99999999999984
 30
0.0
  0
SPLINE
  5
A8
330
1F
100
AcDbEntity
  8
0
  6
Continuous
 62
     7
370
    25
100
AcDbSpline
210
0.0
220
0.0
230
1.0
 70
     8
 71
     3
 72
    22
 73
    18
 74
     0
 42
0.000000001
 43
0.00000001
 40
0.0
 40
0.0
 40
0.0
 40
0.0
 40
0.1250000000000005
 40
0.1250000000000005
 40
0.2500000000000011
 40
0.2500000000000011
 40
0.3750000000000016
 40
0.3750000000000016
 40
0.5000000000000021
 40
0.5000000000000021
 40
0.750000000000001
 40
0.750000000000001
 40
0.8750000000000016
 40
0.8750000000000016
 40
0.9375000000000009
 40
0.9375000000000009
 40
1.0
 40
1.0
 40
1.0
 40
1.0
 10
-129.4325877972724
 20
-77.34935157289733
 30
0.0
 10
-129.4325877972724
 20
-76.59331739113433
 30
0.0
 10
-129.3768082308096
 20
-75.84482166134744
 30
0.0
 10
-129.1884553502354
 20
-74.35766762536122
 30
0.0
 10
-129.055536463072
 20
-73.61905272374035
 30
0.0
 10
-128.7342385731506
 20
-72.14804269441727
 30
0.0
 10
-128.5458389385269
 20
-71.41640805234644
 30
0.0
 10
-128.1321562039327
 20
-69.96572894981333
 30
0.0
 10
-127.9065057637752
 20
-69.24527118342937
 30
0.0
 10
-127.190565714487
 20
-67.09226544126707
 30
0.0
 10
-126.6619126352227
 20
-65.6672365495249
 30
0.0
 10
-125.8411457374072
 20
-63.53941954154222
 30
0.0
 10
-125.5624874803105
 20
-62.83140082733151
 30
0.0
 10
-125.1407495598814
 20
-61.76967938607022
 30
0.0
 10
-124.9995370383918
 20
-61.41582697299924
 30
0.0
 10
-124.7164201386471
 20
-60.70800151949617
 30
0.0
 10
-124.5739484312587
 20
-60.35261553740503
 30
0.0
 10
-124.4325877972724
 20
-59.99999999999984
 30
0.0
  0
SPLINE
  5
AA
330
1F
100
AcDbEntity
  8
0
  6
Continuous
 62
     7
370
    25
100
AcDbSpline
210
0.0
220
0.0
230
1.0
 70
     8
 71
     3
 72
    18
 73
    14
 74
     0
 42
0.000000001
 43
0.00000001
 40
0.0
 40
0.0
 40
0.0
 40
0.0
 40
0.1249999999999991
 40
0.1249999999999991
 40
0.2499999999999981
 40
0.2499999999999981
 40
0.3749999999999972
 40
0.3749999999999972
 40
0.4999999999999962
 40
0.4999999999999962
 40
0.7499999999999981
 40
0.7499999999999981
 40
1.0
 40
1.0
 40
1.0
 40
1.0
 10
-131.4325877972724
 20
-77.34935157289733
 30
0.0
 10
-131.4325877972724
 20
-76.54828516876564
 30
0.0
 10
-131.367114384489
 20
-75.75823658151332
 30
0.0
 10
-131.1348442172934
 20
-74.1951900230713
 30
0.0
 10
-130.9677243617124
 20
-73.42224642310434
 30
0.0
 10
-130.5504738705591
 20
-71.89032821507229
 30
0.0
 10
-130.2994903981911
 20
-71.1304630539959
 30
0.0
 10
-129.7406502908167
 20
-69.6491541140555
 30
0.0
 10
-129.4317806864646
 20
-68.92368752892816
 30
0.0
 10
-128.4385373092273
 20
-66.78165291883613
 30
0.0
 10
-127.6878548381472
 20
-65.39928198175645
 30
0.0
 10
-126.1025995762465
 20
-62.67780448640353
 30
0.0
 10
-125.2686019063158
 20
-61.34060597255846
 30
0.0
 10
-124.4325877972724
 20
-59.99999999999984
 30
0.0
  0
SPLINE
  5
B0
330
1F
100
AcDbEntity
  8
0
  6
Continuous
 62
     7
370
    25
100
AcDbSpline
210
0.0
220
0.0
230
1.0
 70
     8
 71
     3
 72
    20
 73
    16
 74
     0
 42
0.000000001
 43
0.00000001
 40
0.0
 40
0.0
 40
0.0
 40
0.0
 40
0.0624999999999979
 40
0.0624999999999979
 40
0.1249999999999957
 40
0.1249999999999957
 40
0.2499999999999963
 40
0.2499999999999963
 40
0.3749999999999969
 40
0.3749999999999969
 40
0.4999999999999976
 40
0.4999999999999976
 40
0.7499999999999988
 40
0.7499999999999988
 40
1.0
 40
1.0
 40
1.0
 40
1.0
 10
130.2028985234149
 20
-194.9999999999998
 30
0.0
 10
130.202898523415
 20
-195.1246191222413
 30
0.0
 10
130.2144514077214
 20
-195.247575210468
 30
0.0
 10
130.2593940577141
 20
-195.4903439748046
 30
0.0
 10
130.2932390483676
 20
-195.611055822514
 30
0.0
 10
130.4224785702409
 20
-195.9577627947498
 30
0.0
 10
130.5465989348262
 20
-196.1733486686231
 30
0.0
 10
130.8467853405077
 20
-196.5657496848662
 30
0.0
 10
131.0196367758416
 20
-196.7396810022924
 30
0.0
 10
131.400321114742
 20
-197.0533138705266
 30
0.0
 10
131.6066088998086
 20
-197.1910467797615
 30
0.0
 10
132.2478144268466
 20
-197.5489593488945
 30
0.0
 10
132.7170859042989
 20
-197.7209371096164
 30
0.0
 10
133.6660504144591
 20
-197.9450022797936
 30
0.0
 10
134.1502553250004
 20
-197.9999999999998
 30
0.0
 10
134.6438356217343
 20
-197.9999999999998
 30
0.0
  0
SPLINE
  5
B2
330
1F
100
AcDbEntity
  8
0
  6
Continuous
 62
     7
370
    25
100
AcDbSpline
210
0.0
220
0.0
230
1.0
 70
     8
 71
     3
 72
    20
 73
    16
 74
     0
 42
0.000000001
 43
0.00000001
 40
0.0
 40
0.0
 40
0.0
 40
0.0
 40
0.2499999999999916
 40
0.2499999999999916
 40
0.374999999999993
 40
0.374999999999993
 40
0.4999999999999944
 40
0.4999999999999944
 40
0.6249999999999959
 40
0.6249999999999959
 40
0.7499999999999972
 40
0.7499999999999972
 40
0.8749999999999987
 40
0.8749999999999987
 40
1.0
 40
1.0
 40
1.0
 40
1.0
 10
134.6438356217343
 20
-199.9999999999999
 30
0.0
 10
133.9435665922471
 20
-199.9999999999999
 30
0.0
 10
133.2463102087254
 20
-199.8894448113292
 30
0.0
 10
132.2555546286531
 20
-199.5619316542878
 30
0.0
 10
131.9302718279978
 20
-199.4239869909067
 30
0.0
 10
131.3123484158842
 20
-199.0954542905573
 30
0.0
 10
131.0197832446331
 20
-198.9056678585785
 30
0.0
 10
130.4701323822304
 20
-198.4708253355606
 30
0.0
 10
130.2110746207276
 20
-198.2229100235702
 30
0.0
 10
129.7538014974637
 20
-197.6833112776601
 30
0.0
 10
129.5527289736362
 20
-197.3897114005723
 30
0.0
 10
129.2174928315417
 20
-196.7541706212658
 30
0.0
 10
129.0877827340219
 20
-196.4211314913285
 30
0.0
 10
128.9100330168242
 20
-195.7221466958316
 30
0.0
 10
128.8642435900766
 20
-195.3627118816076
 30
0.0
 10
128.8642435900766
 20
-194.9999999999998
 30
0.0
  0
SPLINE
  5
B4
330
1F
100
AcDbEntity
  8
0
  6
Continuous
 62
     7
370
    25
100
AcDbSpline
210
0.0
220
0.0
230
1.0
 70
     8
 71
     3
 72
    20
 73
    16
 74
     0
 42
0.000000001
 43
0.00000001
 40
0.0
 40
0.0
 40
0.0
 40
0.0
 40
0.1249999999999964
 40
0.1249999999999964
 40
0.1874999999999944
 40
0.1874999999999944
 40
0.2499999999999923
 40
0.2499999999999923
 40
0.3749999999999975
 40
0.3749999999999975
 40
0.5000000000000027
 40
0.5000000000000027
 40
0.7500000000000013
 40
0.7500000000000013
 40
1.0
 40
1.0
 40
1.0
 40
1.0
 10
-130.202898523415
 20
-176.3723295854637
 30
0.0
 10
-130.1113974520968
 20
-176.007259247597
 30
0.0
 10
-130.0402503227414
 20
-175.6392054690251
 30
0.0
 10
-130.0059381886484
 20
-175.0765112971345
 30
0.0
 10
-130.0068578554778
 20
-174.8868916351049
 30
0.0
 10
-130.0323898134034
 20
-174.5156536263843
 30
0.0
 10
-130.0566607382869
 20
-174.3325246979508
 30
0.0
 10
-130.153861120346
 20
-173.7884162507268
 30
0.0
 10
-130.2499664819115
 20
-173.4324528147584
 30
0.0
 10
-130.4570565758877
 20
-172.7237463632743
 30
0.0
 10
-130.5683628590734
 20
-172.3710515966116
 30
0.0
 10
-130.8888049403433
 20
-171.3101882488054
 30
0.0
 10
-131.0829211616913
 20
-170.5994832822012
 30
0.0
 10
-131.3534507588686
 20
-169.157184807414
 30
0.0
 10
-131.4325877972725
 20
-168.4260746634071
 30
0.0
 10
-131.4325877972724
 20
-167.6809201918407
 30
0.0
  0
SPLINE
  5
B6
330
1F
100
AcDbEntity
  8
0
  6
Continuous
 62
     7
370
    25
100
AcDbSpline
210
0.0
220
0.0
230
1.0
 70
     8
 71
     3
 72
    18
 73
    14
 74
     0
 42
0.000000001
 43
0.00000001
 40
0.0
 40
0.0
 40
0.0
 40
0.0
 40
0.2500000000000062
 40
0.2500000000000062
 40
0.5000000000000124
 40
0.5000000000000124
 40
0.6250000000000093
 40
0.6250000000000093
 40
0.7500000000000062
 40
0.7500000000000062
 40
0.8750000000000031
 40
0.8750000000000031
 40
1.0
 40
1.0
 40
1.0
 40
1.0
 10
-134.6438356217339
 20
-197.9999999999998
 30
0.0
 10
-134.1504565084571
 20
-197.9999999999999
 30
0.0
 10
-133.663813783766
 20
-197.9450916131506
 30
0.0
 10
-132.7049832373661
 20
-197.7174527460999
 30
0.0
 10
-132.2450041977118
 20
-197.5479140314849
 30
0.0
 10
-131.6024293168631
 20
-197.1884487085873
 30
0.0
 10
-131.395623646996
 20
-197.0497930808343
 30
0.0
 10
-131.0180513376063
 20
-196.7380196625293
 30
0.0
 10
-130.8439947251041
 20
-196.5627466561825
 30
0.0
 10
-130.5438886119737
 20
-196.1691490060583
 30
0.0
 10
-130.4208149808313
 20
-195.9547902519922
 30
0.0
 10
-130.2485293253341
 20
-195.4895954013463
 30
0.0
 10
-130.2028985234147
 20
-195.2491931765048
 30
0.0
 10
-130.2028985234147
 20
-194.9999999999998
 30
0.0
  0
SPLINE
  5
BC
330
1F
100
AcDbEntity
  8
0
  6
Continuous
 62
     7
370
    25
100
AcDbSpline
210
0.0
220
0.0
230
1.0
 70
     8
 71
     3
 72
    20
 73
    16
 74
     0
 42
0.000000001
 43
0.00000001
 40
0.0
 40
0.0
 40
0.0
 40
0.0
 40
0.2499999999999969
 40
0.2499999999999969
 40
0.4999999999999938
 40
0.4999999999999938
 40
0.6249999999999953
 40
0.6249999999999953
 40
0.7499999999999969
 40
0.7499999999999969
 40
0.8124999999999977
 40
0.8124999999999977
 40
0.8749999999999984
 40
0.8749999999999984
 40
1.0
 40
1.0
 40
1.0
 40
1.0
 10
131.4325877972727
 20
-167.6809201918314
 30
0.0
 10
131.4325877972731
 20
-168.4260746633985
 30
0.0
 10
131.3534507588699
 20
-169.1571848074063
 30
0.0
 10
131.082921161693
 20
-170.599483282195
 30
0.0
 10
130.888804940345
 20
-171.3101882488
 30
0.0
 10
130.5683628590749
 20
-172.3710515966075
 30
0.0
 10
130.4570565758891
 20
-172.7237463632705
 30
0.0
 10
130.2499664819126
 20
-173.4324528147553
 30
0.0
 10
130.1538611203469
 20
-173.7884162507239
 30
0.0
 10
130.0566607382874
 20
-174.3325246979484
 30
0.0
 10
130.0323898134039
 20
-174.5156536263821
 30
0.0
 10
130.006857855478
 20
-174.8868916351032
 30
0.0
 10
130.0059381886486
 20
-175.0765112971329
 30
0.0
 10
130.0402503227415
 20
-175.6392054690243
 30
0.0
 10
130.1113974520969
 20
-176.0072592475965
 30
0.0
 10
130.2028985234153
 20
-176.3723295854637
 30
0.0
  0
SPLINE
  5
D4
330
1F
100
AcDbEntity
  8
0
  6
Continuous
 62
     7
370
    25
100
AcDbSpline
210
0.0
220
0.0
230
1.0
 70
     8
 71
     3
 72
    22
 73
    18
 74
     0
 42
0.000000001
 43
0.00000001
 40
0.0
 40
0.0
 40
0.0
 40
0.0
 40
0.1249999999999882
 40
0.1249999999999882
 40
0.1874999999999834
 40
0.1874999999999834
 40
0.2499999999999787
 40
0.2499999999999787
 40
0.3124999999999739
 40
0.3124999999999739
 40
0.3749999999999692
 40
0.3749999999999692
 40
0.4999999999999731
 40
0.4999999999999731
 40
0.7499999999999866
 40
0.7499999999999866
 40
1.0
 40
1.0
 40
1.0
 40
1.0
 10
-128.8642435900764
 20
-194.9999999999998
 30
0.0
 10
-128.8642435900764
 20
-195.363572399506
 30
0.0
 10
-128.9096628102903
 20
-195.7198947755715
 30
0.0
 10
-129.0426454399669
 20
-196.2440272393191
 30
0.0
 10
-129.0981265415935
 20
-196.417220734552
 30
0.0
 10
-129.2278032981515
 20
-196.7521269054194
 30
0.0
 10
-129.3022164945597
 20
-196.9149071868932
 30
0.0
 10
-129.4693549988668
 20
-197.2315326220003
 30
0.0
 10
-129.5626834604376
 20
-197.3861848296836
 30
0.0
 10
-129.7637877059419
 20
-197.6815639088058
 30
0.0
 10
-129.8715097518134
 20
-197.8224902103079
 30
0.0
 10
-130.2145913681022
 20
-198.2264892429775
 30
0.0
 10
-130.4713809332311
 20
-198.4722614463545
 30
0.0
 10
-131.3052592893529
 20
-199.1306076915811
 30
0.0
 10
-131.9211191740074
 20
-199.4516915194594
 30
0.0
 10
-133.255630281412
 20
-199.8922106440537
 30
0.0
 10
-133.9424117067122
 20
-199.9999999999999
 30
0.0
 10
-134.643835621734
 20
-199.9999999999999
 30
0.0
  0
SPLINE
  5
D9
330
1F
100
AcDbEntity
  8
0
  6
Continuous
 62
     7
370
    25
100
AcDbSpline
210
0.0
220
0.0
230
1.0
 70
     8
 71
     3
 72
    12
 73
     8
 74
     0
 42
0.000000001
 43
0.00000001
 40
0.0
 40
0.0
 40
0.0
 40
0.0
 40
0.5
 40
0.5
 40
0.75
 40
0.75
 40
1.0
 40
1.0
 40
1.0
 40
1.0
 10
-128.8642435900764
 20
-176.5321740164638
 30
0.0
 10
-129.0479211784657
 20
-176.5109659008203
 30
0.0
 10
-129.2573746918824
 20
-176.4864883745092
 30
0.0
 10
-129.6012211798896
 20
-176.4455322082388
 30
0.0
 10
-129.7183227952917
 20
-176.4314668816783
 30
0.0
 10
-129.9573489631956
 20
-176.4024941748659
 30
0.0
 10
-130.0815229860999
 20
-176.3873020808319
 30
0.0
 10
-130.2028985234085
 20
-176.3723295854623
 30
0.0
  0
SPLINE
  5
DD
330
1F
100
AcDbEntity
  8
0
  6
Continuous
 62
     7
370
    25
100
AcDbSpline
210
0.0
220
0.0
230
1.0
 70
     8
 71
     3
 72
    10
 73
     6
 74
     0
 42
0.000000001
 43
0.00000001
 40
0.0
 40
0.0
 40
0.0
 40
0.0
 40
0.5
 40
0.5
 40
1.0
 40
1.0
 40
1.0
 40
1.0
 10
-128.4768278453468
 20
-176.1761819021572
 30
0.0
 10
-128.5223524095022
 20
-176.2678134261596
 30
0.0
 10
-128.5754646156688
 20
-176.3535197150847
 30
0.0
 10
-128.7027873741401
 20
-176.4891853125908
 30
0.0
 10
-128.7818679454064
 20
-176.541685422968
 30
0.0
 10
-128.8642435900672
 20
-176.5321740165315
 30
0.0
  0
SPLINE
  5
DF
330
1F
100
AcDbEntity
  8
0
  6
Continuous
 62
     7
370
    25
100
AcDbSpline
210
0.0
220
0.0
230
1.0
 70
     8
 71
     3
 72
    12
 73
     8
 74
     0
 42
0.000000001
 43
0.00000001
 40
0.0
 40
0.0
 40
0.0
 40
0.0
 40
0.4999999999999708
 40
0.4999999999999708
 40
0.7499999999999853
 40
0.7499999999999853
 40
1.0
 40
1.0
 40
1.0
 40
1.0
 10
128.8642435900767
 20
-176.5321740164637
 30
0.0
 10
129.0479202513456
 20
-176.5109660078691
 30
0.0
 10
129.2573772619863
 20
-176.4864880677458
 30
0.0
 10
129.6012191972779
 20
-176.4455324447078
 30
0.0
 10
129.7183202571349
 20
-176.4314671878725
 30
0.0
 10
129.9573474366571
 20
-176.4024943613586
 30
0.0
 10
130.0815229278853
 20
-176.3873020880092
 30
0.0
 10
130.2028985234147
 20
-176.3723295854622
 30
0.0
  0
SPLINE
  5
E1
330
1F
100
AcDbEntity
  8
0
  6
Continuous
 62
     7
370
    25
100
AcDbSpline
210
0.0
220
0.0
230
1.0
 70
     8
 71
     3
 72
    10
 73
     6
 74
     0
 42
0.000000001
 43
0.00000001
 40
0.0
 40
0.0
 40
0.0
 40
0.0
 40
0.5
 40
0.5
 40
1.0
 40
1.0
 40
1.0
 40
1.0
 10
128.8642435900767
 20
-176.5321740164637
 30
0.0
 10
128.7816401209034
 20
-176.5417117283977
 30
0.0
 10
128.7030368187205
 20
-176.489476832097
 30
0.0
 10
128.5750564542377
 20
-176.3530590468594
 30
0.0
 10
128.5223911443659
 20
-176.267891391419
 30
0.0
 10
128.4768278453477
 20
-176.176181902156
 30
0.0
  0
SPLINE
  5
F9
330
1F
100
AcDbEntity
  8
0
  6
Continuous
 62
     7
370
    25
100
AcDbSpline
210
0.0
220
0.0
230
1.0
 70
     8
 71
     3
 72
    26
 73
    22
 74
     0
 42
0.000000001
 43
0.00000001
 40
0.0
 40
0.0
 40
0.0
 40
0.0
 40
0.0432686097934431
 40
0.0844960779626842
 40
0.1749479956780202
 40
0.3849991165277464
 40
0.4461920872108511
 40
0.5118964471357708
 40
0.6587764825250312
 40
0.7236413235700327
 40
0.7744158623205318
 40
0.8266429751753828
 40
0.8493923806473895
 40
0.8708734617224889
 40
0.8935725186821745
 40
0.9151036588859526
 40
0.9343684128938153
 40
0.9524736995996386
 40
0.9694345231386794
 40
0.985269141298066
 40
1.0
 40
1.0
 40
1.0
 40
1.0
 10
201.5432590332767
 20
127.1374173406973
 30
0.0
 10
201.4586496680435
 20
126.6296733515982
 30
0.0
 10
201.293422276749
 20
125.6381375501751
 30
0.0
 10
200.9515514270617
 20
123.5861900503382
 30
0.0
 10
200.2837264181073
 20
119.5809557338105
 30
0.0
 10
199.578485981481
 20
115.3495541207586
 30
0.0
 10
198.9239684779699
 20
111.4208467825157
 30
0.0
 10
198.3927771595559
 20
108.2350947144844
 30
0.0
 10
197.8568231965151
 20
105.018671309279
 30
0.0
 10
197.3534092042243
 20
101.9983958161064
 30
0.0
 10
197.0335359030425
 20
100.0785140694833
 30
0.0
 10
196.7954444364879
 20
98.6507625045424
 30
0.0
 10
196.6144199843835
 20
97.56411472781129
 30
0.0
 10
196.4895484122211
 20
96.81435336713139
 30
0.0
 10
196.3676490184351
 20
96.08344618608704
 30
0.0
 10
196.250904603632
 20
95.38335673520989
 30
0.0
 10
196.1437903715793
 20
94.74060939124799
 30
0.0
 10
196.0461582242828
 20
94.15488062337522
 30
0.0
 10
195.9561140294452
 20
93.6146131351836
 30
0.0
 10
195.873409645997
 20
93.11834522897837
 30
0.0
 10
195.8218653830204
 20
92.80906331315073
 30
0.0
 10
195.7970239170014
 20
92.66000664304569
 30
0.0
  0
SPLINE
  5
FA
330
1F
100
AcDbEntity
  8
0
  6
Continuous
 62
     7
370
    25
100
AcDbSpline
210
0.0
220
0.0
230
1.0
 70
     8
 71
     3
 72
    22
 73
    18
 74
     0
 42
0.000000001
 43
0.00000001
 40
0.0
 40
0.0
 40
0.0
 40
0.0
 40
0.125
 40
0.125
 40
0.25
 40
0.25
 40
0.375
 40
0.375
 40
0.5
 40
0.5
 40
0.625
 40
0.625
 40
0.75
 40
0.75
 40
0.875
 40
0.875
 40
1.0
 40
1.0
 40
1.0
 40
1.0
 10
195.7970239170013
 20
92.66000664304528
 30
0.0
 10
195.5938584975444
 20
95.6929013140612
 30
0.0
 10
195.105456731132
 20
98.72573298688168
 30
0.0
 10
193.5753460675956
 20
104.6846772250177
 30
0.0
 10
192.5336689533794
 20
107.6106660132903
 30
0.0
 10
189.9336823592068
 20
113.2528389597477
 30
0.0
 10
188.3754268852352
 20
115.9689059207487
 30
0.0
 10
184.7971586516613
 20
121.0955408460317
 30
0.0
 10
182.7772202185574
 20
123.5060023217002
 30
0.0
 10
178.3467282812028
 20
127.9364942590548
 30
0.0
 10
175.9362668055344
 20
129.9564326921586
 30
0.0
 10
170.8096318802513
 20
133.5347009257326
 30
0.0
 10
168.0935649192503
 20
135.0929563997041
 30
0.0
 10
162.451391972793
 20
137.6929429938768
 30
0.0
 10
159.5254031845204
 20
138.7346201080931
 30
0.0
 10
153.5664589463844
 20
140.2647307716293
 30
0.0
 10
150.5336272735639
 20
140.7531325380418
 30
0.0
 10
147.500732602548
 20
140.9562979574987
 30
0.0
  0
SPLINE
  5
FB
330
1F
100
AcDbEntity
  8
0
  6
Continuous
 62
     7
370
    25
100
AcDbSpline
210
0.0
220
0.0
230
1.0
 70
     8
 71
     3
 72
    29
 73
    25
 74
     0
 42
0.000000001
 43
0.00000001
 40
0.0
 40
0.0
 40
0.0
 40
0.0
 40
0.0090790756951646
 40
0.0185856189849754
 40
0.0285257954837523
 40
0.0389049980540781
 40
0.0497279633052433
 40
0.0609988683852699
 40
0.0727214116025443
 40
0.084898879783637
 40
0.1064285766683587
 40
0.1291289563544341
 40
0.1506085995274056
 40
0.1733593222898376
 40
0.2231285196311128
 40
0.2716002318053057
 40
0.3412253142821975
 40
0.4881049490566771
 40
0.5538091297729635
 40
0.6150019335526771
 40
0.8250524814887077
 40
0.9155041524973977
 40
0.9567307766825117
 40
1.0
 40
1.0
 40
1.0
 40
1.0
 10
147.5007326025484
 20
140.9562979574986
 30
0.0
 10
147.5922838301266
 20
140.9715559617919
 30
0.0
 10
147.7796967662564
 20
141.0027903587488
 30
0.0
 10
148.0734867527009
 20
141.0517504958236
 30
0.0
 10
148.3845185619227
 20
141.1035854704718
 30
0.0
 10
148.7133187988769
 20
141.158383987582
 30
0.0
 10
149.0597398474575
 20
141.2161223316573
 30
0.0
 10
149.4238272724478
 20
141.2768067985651
 30
0.0
 10
149.8055681538073
 20
141.3404367996028
 30
0.0
 10
150.3022120922284
 20
141.4232047642185
 30
0.0
 10
150.9241563472592
 20
141.5269213474461
 30
0.0
 10
151.655048624023
 20
141.6488170097188
 30
0.0
 10
152.4048250135885
 20
141.7736918201408
 30
0.0
 10
153.4637852592236
 20
141.9501015200339
 30
0.0
 10
154.8371466475924
 20
142.1791331239225
 30
0.0
 10
156.7561619254892
 20
142.4988415552817
 30
0.0
 10
159.804224670788
 20
143.0069132778512
 30
0.0
 10
163.0758186131451
 20
143.5520494909577
 30
0.0
 10
166.2615730646877
 20
144.0832427866323
 30
0.0
 10
170.1902797515454
 20
144.7377597448844
 30
0.0
 10
174.4216817380681
 20
145.4430005448342
 30
0.0
 10
178.4269074419281
 20
146.1108239871449
 30
0.0
 10
180.4788549124413
 20
146.4526949657073
 30
0.0
 10
181.4703907223566
 20
146.6179223047917
 30
0.0
 10
181.9781433001999
 20
146.7025330737739
 30
0.0
  0
SPLINE
  5
FC
330
1F
100
AcDbEntity
  8
0
  6
Continuous
 62
     7
370
    25
100
AcDbSpline
210
0.0
220
0.0
230
1.0
 70
     8
 71
     3
 72
    10
 73
     6
 74
     0
 42
0.000000001
 43
0.00000001
 40
0.0
 40
0.0
 40
0.0
 40
0.0
 40
0.5
 40
0.5
 40
1.0
 40
1.0
 40
1.0
 40
1.0
 10
181.9781433001999
 20
146.7025330737739
 30
0.0
 10
185.4163383763916
 20
143.790785837179
 30
0.0
 10
188.8541807902762
 20
140.6213804347622
 30
0.0
 10
195.4621063942649
 20
134.0134548307735
 30
0.0
 10
198.6315117966817
 20
130.575612416889
 30
0.0
 10
201.5432590332767
 20
127.1374173406973
 30
0.0
  0
SPLINE
  5
FD
330
1F
100
AcDbEntity
  8
0
  6
Continuous
 62
     7
370
    25
100
AcDbSpline
210
0.0
220
0.0
230
1.0
 70
     8
 71
     3
 72
    26
 73
    22
 74
     0
 42
0.000000001
 43
0.00000001
 40
0.0
 40
0.0
 40
0.0
 40
0.0
 40
0.0432686075816537
 40
0.0844960779624293
 40
0.1749479956800916
 40
0.3849991165322385
 40
0.4461920872134225
 40
0.5118964471410459
 40
0.6587764825301433
 40
0.7236413235749808
 40
0.7744158623241194
 40
0.8266429751787112
 40
0.8493923806821528
 40
0.870873461725048
 40
0.8935725188417103
 40
0.9151036588878132
 40
0.934368412929122
 40
0.9524736996515972
 40
0.969434523190365
 40
0.9852691413324508
 40
1.0
 40
1.0
 40
1.0
 40
1.0
 10
-181.978143297782
 20
146.7025330733709
 30
0.0
 10
-181.4703993346828
 20
146.6179237124079
 30
0.0
 10
-180.4788635333512
 20
146.4526963210065
 30
0.0
 10
-178.4269160335191
 20
146.1108254717742
 30
0.0
 10
-174.4216816913949
 20
145.4430004580528
 30
0.0
 10
-170.1902800785609
 20
144.7377600216981
 30
0.0
 10
-166.2615727405513
 20
144.0832425182379
 30
0.0
 10
-163.0758206727459
 20
143.5520511998344
 30
0.0
 10
-159.8593972677297
 20
143.0160972368508
 30
0.0
 10
-156.8391217748078
 20
142.5126832445711
 30
0.0
 10
-154.9192400283186
 20
142.1928099434527
 30
0.0
 10
-153.4914884631926
 20
141.9547184767897
 30
0.0
 10
-152.4048406864683
 20
141.7736940248166
 30
0.0
 10
-151.6550793241593
 20
141.648822452291
 30
0.0
 10
-150.924172143546
 20
141.5269230585891
 30
0.0
 10
-150.2240826923575
 20
141.410178643762
 30
0.0
 10
-149.5813353497309
 20
141.3030644118217
 30
0.0
 10
-148.9956065813849
 20
141.2054322644516
 30
0.0
 10
-148.4553390932425
 20
141.1153880696484
 30
0.0
 10
-147.9590711875885
 20
141.0326836863339
 30
0.0
 10
-147.6497892722981
 20
140.9811394234547
 30
0.0
 10
-147.5007326025479
 20
140.9562979574986
 30
0.0
  0
SPLINE
  5
FE
330
1F
100
AcDbEntity
  8
0
  6
Continuous
 62
     7
370
    25
100
AcDbSpline
210
0.0
220
0.0
230
1.0
 70
     8
 71
     3
 72
    22
 73
    18
 74
     0
 42
0.000000001
 43
0.00000001
 40
0.0
 40
0.0
 40
0.0
 40
0.0
 40
0.125
 40
0.125
 40
0.25
 40
0.25
 40
0.375
 40
0.375
 40
0.5
 40
0.5
 40
0.625
 40
0.625
 40
0.75
 40
0.75
 40
0.875
 40
0.875
 40
1.0
 40
1.0
 40
1.0
 40
1.0
 10
-147.5007326025477
 20
140.9562979574985
 30
0.0
 10
-150.5336272735636
 20
140.7531325380417
 30
0.0
 10
-153.5664589463841
 20
140.2647307716292
 30
0.0
 10
-159.52540318452
 20
138.7346201080929
 30
0.0
 10
-162.4513919727927
 20
137.6929429938767
 30
0.0
 10
-168.0935649192501
 20
135.092956399704
 30
0.0
 10
-170.8096318802511
 20
133.5347009257325
 30
0.0
 10
-175.9362668055342
 20
129.9564326921585
 30
0.0
 10
-178.3467282812026
 20
127.9364942590547
 30
0.0
 10
-182.7772202185573
 20
123.5060023217001
 30
0.0
 10
-184.7971586516611
 20
121.0955408460316
 30
0.0
 10
-188.3754268852351
 20
115.9689059207485
 30
0.0
 10
-189.9336823592067
 20
113.2528389597475
 30
0.0
 10
-192.5336689533793
 20
107.6106660132902
 30
0.0
 10
-193.5753460675955
 20
104.6846772250175
 30
0.0
 10
-195.1054567311317
 20
98.72573298688151
 30
0.0
 10
-195.5938584975443
 20
95.69290131406103
 30
0.0
 10
-195.7970239170011
 20
92.66000664304511
 30
0.0
  0
SPLINE
  5
FF
330
1F
100
AcDbEntity
  8
0
  6
Continuous
 62
     7
370
    25
100
AcDbSpline
210
0.0
220
0.0
230
1.0
 70
     8
 71
     3
 72
    29
 73
    25
 74
     0
 42
0.000000001
 43
0.00000001
 40
0.0
 40
0.0
 40
0.0
 40
0.0
 40
0.0090790757039868
 40
0.0185856190000424
 40
0.02852579550249
 40
0.0389049980739187
 40
0.0497279633236298
 40
0.0609988683996554
 40
0.0727214116103978
 40
0.0848988797824372
 40
0.1064285767039466
 40
0.129128956353632
 40
0.1506085995488125
 40
0.1733593222870513
 40
0.2231285196278273
 40
0.2716002318009548
 40
0.3412253142775169
 40
0.4881049490517376
 40
0.5538091297692781
 40
0.615001933548429
 40
0.8250524814867429
 40
0.9155041524960079
 40
0.9567307729112772
 40
1.0
 40
1.0
 40
1.0
 40
1.0
 10
-195.7970239170012
 20
92.66000664304532
 30
0.0
 10
-195.812281921309
 20
92.75155787070474
 30
0.0
 10
-195.8435163182909
 20
92.93897080697062
 30
0.0
 10
-195.8924764554019
 20
93.23276079358017
 30
0.0
 10
-195.9443114300742
 20
93.54379260288948
 30
0.0
 10
-195.9991099471945
 20
93.87259283985283
 30
0.0
 10
-196.0568482912629
 20
94.2190138883643
 30
0.0
 10
-196.1175327581442
 20
94.58310131320772
 30
0.0
 10
-196.1811627591355
 20
94.96484219434032
 30
0.0
 10
-196.2639307237554
 20
95.4614861329917
 30
0.0
 10
-196.3676473069565
 20
96.08343038788996
 30
0.0
 10
-196.4895429692761
 20
96.81432266484475
 30
0.0
 10
-196.6144177796243
 20
97.56409905392542
 30
0.0
 10
-196.7908274794897
 20
98.62305929946686
 30
0.0
 10
-197.0198590833135
 20
99.99642068744438
 30
0.0
 10
-197.3395675146513
 20
101.915435965181
 30
0.0
 10
-197.8476392371773
 20
104.9634987102469
 30
0.0
 10
-198.3927754502672
 20
108.2350926523758
 30
0.0
 10
-198.9239687458634
 20
111.420847103714
 30
0.0
 10
-199.5784857041051
 20
115.349553790322
 30
0.0
 10
-200.283726504267
 20
119.5809557765282
 30
0.0
 10
-200.9515499386075
 20
123.5861814360752
 30
0.0
 10
-201.29342091783
 20
125.6381289062886
 30
0.0
 10
-201.4586482566524
 20
126.6296647161947
 30
0.0
 10
-201.5432590328736
 20
127.1374173382796
 30
0.0
  0
SPLINE
  5
100
330
1F
100
AcDbEntity
  8
0
  6
Continuous
 62
     7
370
    25
100
AcDbSpline
210
0.0
220
0.0
230
1.0
 70
     8
 71
     3
 72
    10
 73
     6
 74
     0
 42
0.000000001
 43
0.00000001
 40
0.0
 40
0.0
 40
0.0
 40
0.0
 40
0.5
 40
0.5
 40
1.0
 40
1.0
 40
1.0
 40
1.0
 10
-201.5432590328735
 20
127.1374173382795
 30
0.0
 10
-198.6315117960541
 20
130.5756124148642
 30
0.0
 10
-195.4621063933316
 20
134.0134548291415
 30
0.0
 10
-188.854180788644
 20
140.621380433829
 30
0.0
 10
-185.4163383743668
 20
143.7907858365516
 30
0.0
 10
-181.978143297782
 20
146.7025330733709
 30
0.0
  0
LWPOLYLINE
  5
104
330
1F
100
AcDbEntity
  8
0
  6
Continuous
 62
     7
370
    25
100
AcDbPolyline
 90
        9
 70
   128
 43
0.0
 10
-40.4468570169
 20
-80.0
 10
-40.0764664676
 20
-80.096073598
 10
-39.7203098194
 20
-80.3806023374
 10
-39.3920739725
 20
-80.8426519385
 10
-39.1043728465
 20
-81.4644660941
 10
-38.8682626343
 20
-82.2221488349
 10
-38.6928169189
 20
-83.0865828382
 10
-38.5847779808
 20
-84.0245483899
 10
-38.5482976958
 20
-85.0
  0
LWPOLYLINE
  5
107
330
1F
100
AcDbEntity
  8
0
  6
Continuous
 62
     7
370
    25
100
AcDbPolyline
 90
        9
 70
   128
 43
0.0
 10
-77.5
 20
-80.0
 10
-75.9066009915
 20
-80.096073598
 10
-74.3744354134
 20
-80.3806023374
 10
-72.9623835295
 20
-80.8426519385
 10
-71.7247097018
 20
-81.4644660941
 10
-70.7089770414
 20
-82.2221488349
 10
-69.9542195849
 20
-83.0865828382
 10
-69.4894422381
 20
-84.0245483899
 10
-69.3325061336
 20
-85.0
  0
LWPOLYLINE
  5
114
330
1F
100
AcDbEntity
  8
0
  6
Continuous
 62
     7
370
    25
100
AcDbPolyline
 90
        9
 70
   128
 43
0.0
 10
-40.3808038295
 20
-95.0
 10
-40.3455927379
 20
-95.9754516101
 10
-40.2413126059
 20
-96.9134171618
 10
-40.0719708603
 20
-97.7778511651
 10
-39.8440752095
 20
-98.5355339059
 10
-39.5663835555
 20
-99.1573480615
 10
-39.2495674329
 20
-99.6193976626
 10
-38.9058019075
 20
-99.903926402
 10
-38.5482976958
 20
-100.0
  0
LWPOLYLINE
  5
117
330
1F
100
AcDbEntity
  8
0
  6
Continuous
 62
     7
370
    25
100
AcDbPolyline
 90
        9
 70
   128
 43
0.0
 10
-69.3325061336
 20
-95.0
 10
-69.2972950421
 20
-95.9754516101
 10
-69.1930149101
 20
-96.9134171618
 10
-69.0236731645
 20
-97.7778511651
 10
-68.7957775136
 20
-98.5355339059
 10
-68.5180858597
 20
-99.1573480615
 10
-68.201269737
 20
-99.6193976626
 10
-67.8575042117
 20
-99.903926402
 10
-67.5
 20
-100.0
  0
CIRCLE
  5
185
330
1F
100
AcDbEntity
  8
0
  6
Continuous
 62
     7
370
    25
100
AcDbCircle
 10
100.0
 20
-135.0
 30
0.0
 40
17.50000000000003
  0
CIRCLE
  5
186
330
1F
100
AcDbEntity
  8
0
  6
Continuous
 62
     7
370
    25
100
AcDbCircle
 10
-100.0
 20
-135.0
 30
0.0
 40
17.50000000000003
  0
CIRCLE
  5
187
330
1F
100
AcDbEntity
  8
0
  6
Continuous
 62
     7
370
    25
100
AcDbCircle
 10
0.0
 20
-135.0
 30
0.0
 40
17.99999999999997
  0
LINE
  5
188
330
1F
100
AcDbEntity
  8
0
  6
Continuous
 62
     7
370
    25
100
AcDbLine
 10
-22.5
 20
-18.1024909928
 30
0.0
 11
-22.5
 21
-100.0
 31
0.0
  0
LINE
  5
189
330
1F
100
AcDbEntity
  8
0
  6
Continuous
 62
     7
370
    25
100
AcDbLine
 10
-27.5
 20
-95.0
 30
0.0
 11
-27.5
 21
-13.232520311
 31
0.0
  0
LINE
  5
18A
330
1F
100
AcDbEntity
  8
0
  6
Continuous
 62
     7
370
    25
100
AcDbLine
 10
27.5
 20
-13.232520311
 30
0.0
 11
27.5
 21
-95.0
 31
0.0
  0
LINE
  5
18B
330
1F
100
AcDbEntity
  8
0
  6
Continuous
 62
     7
370
    25
100
AcDbLine
 10
22.5
 20
-100.0
 30
0.0
 11
22.5
 21
-18.1024909928
 31
0.0
  0
LINE
  5
18C
330
1F
100
AcDbEntity
  8
0
  6
Continuous
 62
     7
370
    25
100
AcDbLine
 10
-27.5
 20
-80.0
 30
0.0
 11
27.5
 21
-80.0
 31
0.0
  0
LINE
  5
18D
330
1F
100
AcDbEntity
  8
0
  6
Continuous
 62
     7
370
    25
100
AcDbLine
 10
22.5
 20
-100.0
 30
0.0
 11
-67.5
 21
-100.0
 31
0.0
  0
LINE
  5
18E
330
1F
100
AcDbEntity
  8
0
  6
Continuous
 62
     7
370
    25
100
AcDbLine
 10
-124.4325877973
 20
-60.0
 30
0.0
 11
-27.5
 21
-60.0
 31
0.0
  0
LINE
  5
18F
330
1F
100
AcDbEntity
  8
0
  6
Continuous
 62
     7
370
    25
100
AcDbLine
 10
32.5
 20
-14.9949994999
 30
0.0
 11
32.5
 21
-105.0
 31
0.0
  0
LINE
  5
190
330
1F
100
AcDbEntity
  8
0
  6
Continuous
 62
     7
370
    25
100
AcDbLine
 10
27.5
 20
-60.0
 30
0.0
 11
124.4325877973
 21
-60.0
 31
0.0
  0
LINE
  5
191
330
1F
100
AcDbEntity
  8
0
  6
Continuous
 62
     7
370
    25
100
AcDbLine
 10
124.4325877973
 20
-170.0
 30
0.0
 11
124.4325877973
 21
-60.0
 31
0.0
  0
LINE
  5
192
330
1F
100
AcDbEntity
  8
0
  6
Continuous
 62
     7
370
    25
100
AcDbLine
 10
131.4325877973
 20
-77.3493515729
 30
0.0
 11
129.4325877973
 21
-77.3493515729
 31
0.0
  0
LINE
  5
193
330
1F
100
AcDbEntity
  8
0
  6
Continuous
 62
     7
370
    25
100
AcDbLine
 10
-131.4325877973
 20
-77.3493515729
 30
0.0
 11
-129.4325877973
 21
-77.3493515729
 31
0.0
  0
LINE
  5
194
330
1F
100
AcDbEntity
  8
0
  6
Continuous
 62
     7
370
    25
100
AcDbLine
 10
186.717993889
 20
77.7810176985
 30
0.0
 11
-186.717993889
 21
77.7810176985
 31
0.0
  0
LINE
  5
195
330
1F
100
AcDbEntity
  8
0
  6
Continuous
 62
     7
370
    25
100
AcDbLine
 10
186.717993889
 20
77.7810176985
 30
0.0
 11
186.717993889
 21
-198.0
 31
0.0
  0
LINE
  5
196
330
1F
100
AcDbEntity
  8
0
  6
Continuous
 62
     7
370
    25
100
AcDbLine
 10
137.4776062384
 20
-200.0
 30
0.0
 11
137.4776062384
 21
126.077309013
 31
0.0
  0
LINE
  5
197
330
1F
100
AcDbEntity
  8
0
  6
Continuous
 62
     7
370
    25
100
AcDbLine
 10
134.6438356217
 20
-198.0
 30
0.0
 11
134.6438356217
 21
-200.0
 31
0.0
  0
LINE
  5
198
330
1F
100
AcDbEntity
  8
0
  6
Continuous
 62
     7
370
    25
100
AcDbLine
 10
-130.2028985234
 20
-195.0
 30
0.0
 11
-130.2028985234
 21
-176.3723295855
 31
0.0
  0
LINE
  5
199
330
1F
100
AcDbEntity
  8
0
  6
Continuous
 62
     7
370
    25
100
AcDbLine
 10
-137.4776062384
 20
126.077309013
 30
0.0
 11
-137.4776062384
 21
-200.0
 31
0.0
  0
LINE
  5
19A
330
1F
100
AcDbEntity
  8
0
  6
Continuous
 62
     7
370
    25
100
AcDbLine
 10
130.2028985234
 20
-176.3723295855
 30
0.0
 11
130.2028985234
 21
-195.0
 31
0.0
  0
LINE
  5
19B
330
1F
100
AcDbEntity
  8
0
  6
Continuous
 62
     7
370
    25
100
AcDbLine
 10
131.4325877973
 20
-77.3493515729
 30
0.0
 11
131.4325877973
 21
-167.6809201918
 31
0.0
  0
LINE
  5
19C
330
1F
100
AcDbEntity
  8
0
  6
Continuous
 62
     7
370
    25
100
AcDbLine
 10
-131.4325877973
 20
-167.6809201918
 30
0.0
 11
-131.4325877973
 21
-77.3493515729
 31
0.0
  0
LINE
  5
19D
330
1F
100
AcDbEntity
  8
0
  6
Continuous
 62
     7
370
    25
100
AcDbLine
 10
131.4325877973
 20
-167.6809201918
 30
0.0
 11
129.4325877973
 21
-167.6809201918
 31
0.0
  0
LINE
  5
19E
330
1F
100
AcDbEntity
  8
0
  6
Continuous
 62
     7
370
    25
100
AcDbLine
 10
129.4325877973
 20
-167.6809201918
 30
0.0
 11
129.4325877973
 21
-77.3493515729
 31
0.0
  0
LINE
  5
19F
330
1F
100
AcDbEntity
  8
0
  6
Continuous
 62
     7
370
    25
100
AcDbLine
 10
-137.4776062384
 20
126.077309013
 30
0.0
 11
137.4776062384
 21
126.077309013
 31
0.0
  0
LINE
  5
1A0
330
1F
100
AcDbEntity
  8
0
  6
Continuous
 62
     7
370
    25
100
AcDbLine
 10
124.4325877973
 20
-80.0
 30
0.0
 11
32.5
 21
-80.0
 31
0.0
  0
LINE
  5
1A1
330
1F
100
AcDbEntity
  8
0
  6
Continuous
 62
     7
370
    25
100
AcDbLine
 10
-186.717993889
 20
-198.0
 30
0.0
 11
-186.717993889
 21
77.7810176985
 31
0.0
  0
LINE
  5
1A2
330
1F
100
AcDbEntity
  8
0
  6
Continuous
 62
     7
370
    25
100
AcDbLine
 10
-130.2028985234
 20
-195.0
 30
0.0
 11
130.2028985234
 21
-195.0
 31
0.0
  0
LINE
  5
1A3
330
1F
100
AcDbEntity
  8
0
  6
Continuous
 62
     7
370
    25
100
AcDbLine
 10
-134.6438356217
 20
-198.0
 30
0.0
 11
-134.6438356217
 21
-200.0
 31
0.0
  0
LINE
  5
1A4
330
1F
100
AcDbEntity
  8
0
  6
Continuous
 62
     7
370
    25
100
AcDbLine
 10
-129.4325877973
 20
-77.3493515729
 30
0.0
 11
-129.4325877973
 21
-167.6809201918
 31
0.0
  0
LINE
  5
1A5
330
1F
100
AcDbEntity
  8
0
  6
Continuous
 62
     7
370
    25
100
AcDbLine
 10
-131.4325877973
 20
-167.6809201918
 30
0.0
 11
-129.4325877973
 21
-167.6809201918
 31
0.0
  0
LINE
  5
1A6
330
1F
100
AcDbEntity
  8
0
  6
Continuous
 62
     7
370
    25
100
AcDbLine
 10
-128.8642435901
 20
-176.5321740165
 30
0.0
 11
-128.8642435901
 21
-195.0
 31
0.0
  0
LINE
  5
1A7
330
1F
100
AcDbEntity
  8
0
  6
Continuous
 62
     7
370
    25
100
AcDbLine
 10
-32.5
 20
-80.0
 30
0.0
 11
-124.4325877973
 21
-80.0
 31
0.0
  0
LINE
  5
1A8
330
1F
100
AcDbEntity
  8
0
  6
Continuous
 62
     7
370
    25
100
AcDbLine
 10
128.8642435901
 20
-195.0
 30
0.0
 11
128.8642435901
 21
-176.5321740165
 31
0.0
  0
LINE
  5
1A9
330
1F
100
AcDbEntity
  8
0
  6
Continuous
 62
     7
370
    25
100
AcDbLine
 10
127.7502956171
 20
-175.0
 30
0.0
 11
-127.7502956171
 21
-175.0
 31
0.0
  0
LINE
  5
1AA
330
1F
100
AcDbEntity
  8
0
  6
Continuous
 62
     7
370
    25
100
AcDbLine
 10
-124.4325877973
 20
-170.0
 30
0.0
 11
124.4325877973
 21
-170.0
 31
0.0
  0
LINE
  5
1AB
330
1F
100
AcDbEntity
  8
0
  6
Continuous
 62
     7
370
    25
100
AcDbLine
 10
137.4776062384
 20
126.077309013
 30
0.0
 11
146.3678169992
 21
139.5870100486
 31
0.0
  0
LINE
  5
1AC
330
1F
100
AcDbEntity
  8
0
  6
Continuous
 62
     7
370
    25
100
AcDbLine
 10
195.6082046498
 20
91.2907187342
 30
0.0
 11
186.717993889
 21
77.7810176985
 31
0.0
  0
LINE
  5
1AD
330
1F
100
AcDbEntity
  8
0
  6
Continuous
 62
     7
370
    25
100
AcDbLine
 10
-186.717993889
 20
77.7810176985
 30
0.0
 11
-195.6082046498
 21
91.2907187342
 31
0.0
  0
LINE
  5
1AE
330
1F
100
AcDbEntity
  8
0
  6
Continuous
 62
     7
370
    25
100
AcDbLine
 10
-146.3678169992
 20
139.5870100486
 30
0.0
 11
-137.4776062384
 21
126.077309013
 31
0.0
  0
LINE
  5
1AF
330
1F
100
AcDbEntity
  8
0
  6
Continuous
 62
     7
370
    25
100
AcDbLine
 10
147.5007326025
 20
140.9562979575
 30
0.0
 11
-147.5007326025
 21
140.9562979575
 31
0.0
  0
LINE
  5
1B0
330
1F
100
AcDbEntity
  8
0
  6
Continuous
 62
     7
370
    25
100
AcDbLine
 10
195.6082046498
 20
-198.0
 30
0.0
 11
195.6082046498
 21
91.2907187342
 31
0.0
  0
LINE
  5
1B1
330
1F
100
AcDbEntity
  8
0
  6
Continuous
 62
     7
370
    25
100
AcDbLine
 10
-195.6082046498
 20
91.2907187342
 30
0.0
 11
-195.6082046498
 21
-198.0
 31
0.0
  0
LINE
  5
1B2
330
1F
100
AcDbEntity
  8
0
  6
Continuous
 62
     7
370
    25
100
AcDbLine
 10
-32.5
 20
-100.0
 30
0.0
 11
-32.5
 21
-14.9949994999
 31
0.0
  0
LINE
  5
1B3
330
1F
100
AcDbEntity
  8
0
  6
Continuous
 62
     7
370
    25
100
AcDbLine
 10
-38.5482976958
 20
-85.0
 30
0.0
 11
-38.5482976958
 21
-100.0
 31
0.0
  0
LINE
  5
1B4
330
1F
100
AcDbEntity
  8
0
  6
Continuous
 62
     7
370
    25
100
AcDbLine
 10
-72.5
 20
-95.0
 30
0.0
 11
-27.5
 21
-95.0
 31
0.0
  0
LINE
  5
1B5
330
1F
100
AcDbEntity
  8
0
  6
Continuous
 62
     7
370
    25
100
AcDbLine
 10
-40.3808038295
 20
-95.0
 30
0.0
 11
-40.3808038295
 21
-85.0
 31
0.0
  0
LINE
  5
1B6
330
1F
100
AcDbEntity
  8
0
  6
Continuous
 62
     7
370
    25
100
AcDbLine
 10
-69.3325061336
 20
-85.0
 30
0.0
 11
-69.3325061336
 21
-95.0
 31
0.0
  0
LINE
  5
1B7
330
1F
100
AcDbEntity
  8
0
  6
Continuous
 62
     7
370
    25
100
AcDbLine
 10
-201.5432590329
 20
127.1374173383
 30
0.0
 11
-205.4562821799
 21
150.6155562204
 31
0.0
  0
LINE
  5
1B8
330
1F
100
AcDbEntity
  8
0
  6
Continuous
 62
     7
370
    25
100
AcDbLine
 10
-205.4562821799
 20
-200.0
 30
0.0
 11
-205.4562821799
 21
150.6155562204
 31
0.0
  0
LINE
  5
1B9
330
1F
100
AcDbEntity
  8
0
  6
Continuous
 62
     7
370
    25
100
AcDbLine
 10
205.4562821799
 20
150.6155562204
 30
0.0
 11
201.5432590333
 21
127.1374173407
 31
0.0
  0
LINE
  5
1BA
330
1F
100
AcDbEntity
  8
0
  6
Continuous
 62
     7
370
    25
100
AcDbLine
 10
205.4562821799
 20
150.6155562204
 30
0.0
 11
205.4562821799
 21
-200.0
 31
0.0
  0
LINE
  5
1BB
330
1F
100
AcDbEntity
  8
0
  6
Continuous
 62
     7
370
    25
100
AcDbLine
 10
181.9781433002
 20
146.7025330738
 30
0.0
 11
205.4562821799
 21
150.6155562204
 31
0.0
  0
LINE
  5
1BC
330
1F
100
AcDbEntity
  8
0
  6
Continuous
 62
     7
370
    25
100
AcDbLine
 10
-205.4562821799
 20
150.6155562204
 30
0.0
 11
-181.9781432978
 21
146.7025330734
 31
0.0
  0
LINE
  5
1BD
330
1F
100
AcDbEntity
  8
0
  6
Continuous
 62
     7
370
    25
100
AcDbLine
 10
-205.4562821799
 20
150.6155562204
 30
0.0
 11
205.4562821799
 21
150.6155562204
 31
0.0
  0
LINE
  5
1BE
330
1F
100
AcDbEntity
  8
0
  6
Continuous
 62
     7
370
    25
100
AcDbLine
 10
-237.0
 20
155.0
 30
0.0
 11
-233.0
 21
155.0
 31
0.0
  0
LINE
  5
1BF
330
1F
100
AcDbEntity
  8
0
  6
Continuous
 62
     7
370
    25
100
AcDbLine
 10
-235.0
 20
155.0
 30
0.0
 11
-235.0
 21
-198.0
 31
0.0
  0
LINE
  5
1C0
330
1F
100
AcDbEntity
  8
0
  6
Continuous
 62
     7
370
    25
100
AcDbLine
 10
-250.0
 20
-198.0
 30
0.0
 11
-134.6438356217
 21
-198.0
 31
0.0
  0
LINE
  5
1C1
330
1F
100
AcDbEntity
  8
0
  6
Continuous
 62
     7
370
    25
100
AcDbLine
 10
-237.0
 20
-200.0
 30
0.0
 11
-237.0
 21
155.0
 31
0.0
  0
LINE
  5
1C2
330
1F
100
AcDbEntity
  8
0
  6
Continuous
 62
     7
370
    25
100
AcDbLine
 10
210.0
 20
197.0
 30
0.0
 11
-210.0
 21
197.0
 31
0.0
  0
LINE
  5
1C3
330
1F
100
AcDbEntity
  8
0
  6
Continuous
 62
     7
370
    25
100
AcDbLine
 10
247.0
 20
-200.0
 30
0.0
 11
247.0
 21
160.0
 31
0.0
  0
LINE
  5
1C4
330
1F
100
AcDbEntity
  8
0
  6
Continuous
 62
     7
370
    25
100
AcDbLine
 10
134.6438356217
 20
-198.0
 30
0.0
 11
250.0
 21
-198.0
 31
0.0
  0
LINE
  5
1C5
330
1F
100
AcDbEntity
  8
0
  6
Continuous
 62
     7
370
    25
100
AcDbLine
 10
237.0
 20
155.0
 30
0.0
 11
237.0
 21
-200.0
 31
0.0
  0
LINE
  5
1C6
330
1F
100
AcDbEntity
  8
0
  6
Continuous
 62
     7
370
    25
100
AcDbLine
 10
-205.0
 20
187.0
 30
0.0
 11
205.0
 21
187.0
 31
0.0
  0
LINE
  5
1C7
330
1F
100
AcDbEntity
  8
0
  6
Continuous
 62
     7
370
    25
100
AcDbLine
 10
-247.0
 20
160.0
 30
0.0
 11
-247.0
 21
-200.0
 31
0.0
  0
LINE
  5
1C8
330
1F
100
AcDbEntity
  8
0
  6
Continuous
 62
     7
370
    25
100
AcDbLine
 10
250.0
 20
160.0
 30
0.0
 11
247.0
 21
160.0
 31
0.0
  0
LINE
  5
1C9
330
1F
100
AcDbEntity
  8
0
  6
Continuous
 62
     7
370
    25
100
AcDbLine
 10
210.0
 20
200.0
 30
0.0
 11
210.0
 21
197.0
 31
0.0
  0
LINE
  5
1CA
330
1F
100
AcDbEntity
  8
0
  6
Continuous
 62
     7
370
    25
100
AcDbLine
 10
-205.0
 20
187.0
 30
0.0
 11
-205.0
 21
183.0
 31
0.0
  0
LINE
  5
1CB
330
1F
100
AcDbEntity
  8
0
  6
Continuous
 62
     7
370
    25
100
AcDbLine
 10
237.0
 20
155.0
 30
0.0
 11
233.0
 21
155.0
 31
0.0
  0
LINE
  5
1CC
330
1F
100
AcDbEntity
  8
0
  6
Continuous
 62
     7
370
    25
100
AcDbLine
 10
235.0
 20
-198.0
 30
0.0
 11
235.0
 21
155.0
 31
0.0
  0
LINE
  5
1CD
330
1F
100
AcDbEntity
  8
0
  6
Continuous
 62
     7
370
    25
100
AcDbLine
 10
205.0
 20
187.0
 30
0.0
 11
205.0
 21
183.0
 31
0.0
  0
LINE
  5
1CE
330
1F
100
AcDbEntity
  8
0
  6
Continuous
 62
     7
370
    25
100
AcDbLine
 10
-210.0
 20
200.0
 30
0.0
 11
210.0
 21
200.0
 31
0.0
  0
LINE
  5
1CF
330
1F
100
AcDbEntity
  8
0
  6
Continuous
 62
     7
370
    25
100
AcDbLine
 10
-210.0
 20
200.0
 30
0.0
 11
-210.0
 21
197.0
 31
0.0
  0
LINE
  5
1D0
330
1F
100
AcDbEntity
  8
0
  6
Continuous
 62
     7
370
    25
100
AcDbLine
 10
248.0
 20
-200.0
 30
0.0
 11
-248.0
 21
-200.0
 31
0.0
  0
LINE
  5
1D1
330
1F
100
AcDbEntity
  8
0
  6
Continuous
 62
     7
370
    25
100
AcDbLine
 10
250.0
 20
160.0
 30
0.0
 11
250.0
 21
-198.0
 31
0.0
  0
LINE
  5
1D2
330
1F
100
AcDbEntity
  8
0
  6
Continuous
 62
     7
370
    25
100
AcDbLine
 10
205.0
 20
185.0
 30
0.0
 11
-205.0
 21
185.0
 31
0.0
  0
LINE
  5
1D3
330
1F
100
AcDbEntity
  8
0
  6
Continuous
 62
     7
370
    25
100
AcDbLine
 10
-250.0
 20
160.0
 30
0.0
 11
-247.0
 21
160.0
 31
0.0
  0
LINE
  5
1D4
330
1F
100
AcDbEntity
  8
0
  6
Continuous
 62
     7
370
    25
100
AcDbLine
 10
-250.0
 20
-198.0
 30
0.0
 11
-250.0
 21
160.0
 31
0.0
  0
LINE
  5
1D5
330
1F
100
AcDbEntity
  8
0
  6
Continuous
 62
     7
370
    25
100
AcDbLine
 10
233.0
 20
-200.0
 30
0.0
 11
233.0
 21
155.0
 31
0.0
  0
LINE
  5
1D6
330
1F
100
AcDbEntity
  8
0
  6
Continuous
 62
     7
370
    25
100
AcDbLine
 10
205.0
 20
183.0
 30
0.0
 11
-205.0
 21
183.0
 31
0.0
  0
LINE
  5
1D7
330
1F
100
AcDbEntity
  8
0
  6
Continuous
 62
     7
370
    25
100
AcDbLine
 10
-233.0
 20
155.0
 30
0.0
 11
-233.0
 21
-200.0
 31
0.0
  0
LINE
  5
1D8
330
1F
100
AcDbEntity
  8
0
  6
Continuous
 62
     7
370
    25
100
AcDbLine
 10
-72.5
 20
-95.0
 30
0.0
 11
-72.5
 21
-85.0
 31
0.0
  0
LINE
  5
1D9
330
1F
100
AcDbEntity
  8
0
  6
Continuous
 62
     7
370
    25
100
AcDbLine
 10
-27.5
 20
-85.0
 30
0.0
 11
-129.4325877973
 21
-85.0
 31
0.0
  0
LINE
  5
1DA
330
1F
100
AcDbEntity
  8
0
  6
Continuous
 62
     7
370
    25
100
AcDbLine
 10
-124.4325877973
 20
-60.0
 30
0.0
 11
-124.4325877973
 21
-170.0
 31
0.0
  0
LINE
  5
1DB
330
1F
100
AcDbEntity
  8
0
  6
Continuous
 62
     7
370
    25
100
AcDbLine
 10
-77.5
 20
-105.0
 30
0.0
 11
-77.5
 21
-80.0
 31
0.0
  0
LINE
  5
1DC
330
1F
100
AcDbEntity
  8
0
  6
Continuous
 62
     7
370
    25
100
AcDbLine
 10
129.4325877973
 20
-85.0
 30
0.0
 11
27.5
 21
-85.0
 31
0.0
  0
LINE
  5
1DD
330
1F
100
AcDbEntity
  8
0
  6
Continuous
 62
     7
370
    25
100
AcDbLine
 10
-67.5
 20
-100.0
 30
0.0
 11
-77.5
 21
-105.0
 31
0.0
  0
LINE
  5
1DE
330
1F
100
AcDbEntity
  8
0
  6
Continuous
 62
     7
370
    25
100
AcDbLine
 10
-77.5
 20
-105.0
 30
0.0
 11
-72.5
 21
-95.0
 31
0.0
  0
LINE
  5
1DF
330
1F
100
AcDbEntity
  8
0
  6
Continuous
 62
     7
370
    25
100
AcDbLine
 10
27.5
 20
-95.0
 30
0.0
 11
32.5
 21
-105.0
 31
0.0
  0
LINE
  5
1E0
330
1F
100
AcDbEntity
  8
0
  6
Continuous
 62
     7
370
    25
100
AcDbLine
 10
-129.4325877973
 20
-165.0
 30
0.0
 11
129.4325877973
 21
-165.0
 31
0.0
  0
LINE
  5
1E1
330
1F
100
AcDbEntity
  8
0
  6
Continuous
 62
     7
370
    25
100
AcDbLine
 10
32.5
 20
-105.0
 30
0.0
 11
22.5
 21
-100.0
 31
0.0
  0
LINE
  5
1E2
330
1F
100
AcDbEntity
  8
0
  6
Continuous
 62
     7
370
    25
100
AcDbLine
 10
32.5
 20
-105.0
 30
0.0
 11
-77.5
 21
-105.0
 31
0.0
  0
ARC
  5
1E3
330
1F
100
AcDbEntity
  8
0
  6
Continuous
 62
     7
370
    25
100
AcDbCircle
 10
-22.5
 20
-95.0
 30
0.0
 40
5.000000000000028
100
AcDbArc
 50
180.0
 51
270.0
  0
ARC
  5
1E4
330
1F
100
AcDbEntity
  8
0
  6
Continuous
 62
     7
370
    25
100
AcDbCircle
 10
22.5
 20
-95.0
 30
0.0
 40
5.000000000000028
100
AcDbArc
 50
270.0
 51
0.0
  0
ARC
  5
1E5
330
1F
100
AcDbEntity
  8
0
  6
Continuous
 62
     7
370
    25
100
AcDbCircle
 10
0.0
 20
10.0
 30
0.0
 40
41.00000000000003
100
AcDbArc
 50
322.4369468189
 51
217.5630531811
  0
ARC
  5
1E6
330
1F
100
AcDbEntity
  8
0
  6
Continuous
 62
     7
370
    25
100
AcDbCircle
 10
32.05
 20
-80.5625
 30
0.0
 40
4.584638071865666
100
AcDbArc
 50
84.3671276226
 51
172.9524888855
  0
ARC
  5
1E7
330
1F
100
AcDbEntity
  8
0
  6
Continuous
 62
     7
370
    25
100
AcDbCircle
 10
-32.05
 20
-80.5625
 30
0.0
 40
4.58463807186564
100
AcDbArc
 50
7.0475111145
 51
95.6328723774
  0
ARC
  5
1E8
330
1F
100
AcDbEntity
  8
0
  6
Continuous
 62
     7
370
    25
100
AcDbCircle
 10
124.4325877973
 20
-165.0
 30
0.0
 40
5.000000000000028
100
AcDbArc
 50
270.0
 51
0.0
  0
ARC
  5
1E9
330
1F
100
AcDbEntity
  8
0
  6
Continuous
 62
     7
370
    25
100
AcDbCircle
 10
-124.4325877973
 20
-165.0
 30
0.0
 40
5.000000000000114
100
AcDbArc
 50
180.0
 51
270.0
  0
ARC
  5
1EA
330
1F
100
AcDbEntity
  8
0
  6
Continuous
 62
     7
370
    25
100
AcDbCircle
 10
124.4325877973
 20
-85.0
 30
0.0
 40
5.000000000000028
100
AcDbArc
 50
0.0
 51
90.0
  0
ARC
  5
1EB
330
1F
100
AcDbEntity
  8
0
  6
Continuous
 62
     7
370
    25
100
AcDbCircle
 10
-124.4325877973
 20
-85.0
 30
0.0
 40
5.000000000000028
100
AcDbArc
 50
90.0
 51
180.0
  0
ARC
  5
1EC
330
1F
100
AcDbEntity
  8
0
  6
Continuous
 62
     7
370
    25
100
AcDbCircle
 10
135.3288708547
 20
74.6369548783
 30
0.0
 40
51.48521241337483
100
AcDbArc
 50
3.5010768024
 51
87.6080658679
  0
ARC
  5
1ED
330
1F
100
AcDbEntity
  8
0
  6
Continuous
 62
     7
370
    25
100
AcDbCircle
 10
-184.7330689536
 20
-198.0150768448
 30
0.0
 40
1.984982194042311
100
AcDbArc
 50
179.5648082465
 51
269.5580945801
  0
ARC
  5
1EE
330
1F
100
AcDbEntity
  8
0
  6
Continuous
 62
     7
370
    25
100
AcDbCircle
 10
184.7330689536
 20
-198.0150768448
 30
0.0
 40
1.984982194042311
100
AcDbArc
 50
270.4419054199
 51
0.4351917535
  0
ARC
  5
1EF
330
1F
100
AcDbEntity
  8
0
  6
Continuous
 62
     7
370
    25
100
AcDbCircle
 10
-135.3288708547
 20
74.6369548783
 30
0.0
 40
51.48521241337482
100
AcDbArc
 50
92.3919341321
 51
176.4989231976
  0
ARC
  5
1F0
330
1F
100
AcDbEntity
  8
0
  6
Continuous
 62
     7
370
    25
100
AcDbCircle
 10
-32.5
 20
-85.0
 30
0.0
 40
5.0
100
AcDbArc
 50
0.0
 51
90.0
  0
ARC
  5
1F1
330
1F
100
AcDbEntity
  8
0
  6
Continuous
 62
     7
370
    25
100
AcDbCircle
 10
32.5
 20
-85.0
 30
0.0
 40
5.000000000000028
100
AcDbArc
 50
90.0
 51
180.0
  0
ARC
  5
1F2
330
1F
100
AcDbEntity
  8
0
  6
Continuous
 62
     7
370
    25
100
AcDbCircle
 10
144.2190816155
 20
88.1466559139
 30
0.0
 40
51.48521241337483
100
AcDbArc
 50
3.5010768024
 51
87.6080658679
  0
ARC
  5
1F3
330
1F
100
AcDbEntity
  8
0
  6
Continuous
 62
     7
370
    25
100
AcDbCircle
 10
-144.2190816155
 20
88.1466559139
 30
0.0
 40
51.48521241337491
100
AcDbArc
 50
92.3919341321
 51
176.4989231976
  0
ARC
  5
1F4
330
1F
100
AcDbEntity
  8
0
  6
Continuous
 62
     7
370
    25
100
AcDbCircle
 10
153.6598164338
 20
134.7071039857
 30
0.0
 40
8.774208735672342
100
AcDbArc
 50
134.5839196969
 51
146.2090190311
  0
ARC
  5
1F5
330
1F
100
AcDbEntity
  8
0
  6
Continuous
 62
     7
370
    25
100
AcDbCircle
 10
-153.6598164338
 20
134.7071039857
 30
0.0
 40
8.774208735676213
100
AcDbArc
 50
33.7909809689
 51
45.4160803031
  0
ARC
  5
1F6
330
1F
100
AcDbEntity
  8
0
  6
Continuous
 62
     7
370
    25
100
AcDbCircle
 10
193.6232797143
 20
-198.0150768448
 30
0.0
 40
1.984982194042282
100
AcDbArc
 50
270.4419054199
 51
0.4351917535
  0
ARC
  5
1F7
330
1F
100
AcDbEntity
  8
0
  6
Continuous
 62
     7
370
    25
100
AcDbCircle
 10
-193.6232797143
 20
-198.0150768448
 30
0.0
 40
1.984982194042364
100
AcDbArc
 50
179.5648082465
 51
269.5580945801
  0
ARC
  5
1F8
330
1F
100
AcDbEntity
  8
0
  6
Continuous
 62
     7
370
    25
100
AcDbCircle
 10
-131.1641898301
 20
-83.6988701001
 30
0.0
 40
90.79270957933615
100
AcDbArc
 50
359.1788789634
 51
2.3348605266
  0
ARC
  5
1F9
330
1F
100
AcDbEntity
  8
0
  6
Continuous
 62
     7
370
    25
100
AcDbCircle
 10
220.1946162054
 20
88.5980146335
 30
0.0
 40
24.73342452138407
100
AcDbArc
 50
170.5474425044
 51
173.7498753976
  0
ARC
  5
1FA
330
1F
100
AcDbEntity
  8
0
  6
Continuous
 62
     7
370
    25
100
AcDbCircle
 10
-220.1946162053
 20
88.5980146335
 30
0.0
 40
24.73342452129003
100
AcDbArc
 50
6.2501246024
 51
9.4525574956
  0
ARC
  5
1FB
330
1F
100
AcDbEntity
  8
0
  6
Continuous
 62
     7
370
    25
100
AcDbCircle
 10
-210.0
 20
160.0
 30
0.0
 40
36.99999999999997
100
AcDbArc
 50
90.0
 51
180.0
  0
ARC
  5
1FC
330
1F
100
AcDbEntity
  8
0
  6
Continuous
 62
     7
370
    25
100
AcDbCircle
 10
210.0
 20
160.0
 30
0.0
 40
36.99999999999994
100
AcDbArc
 50
0.0
 51
90.0
  0
ARC
  5
1FD
330
1F
100
AcDbEntity
  8
0
  6
Continuous
 62
     7
370
    25
100
AcDbCircle
 10
205.0
 20
155.0
 30
0.0
 40
32.00000000000006
100
AcDbArc
 50
0.0
 51
90.0
  0
ARC
  5
1FE
330
1F
100
AcDbEntity
  8
0
  6
Continuous
 62
     7
370
    25
100
AcDbCircle
 10
-205.0
 20
155.0
 30
0.0
 40
32.00000000000011
100
AcDbArc
 50
90.0
 51
180.0
  0
ARC
  5
1FF
330
1F
100
AcDbEntity
  8
0
  6
Continuous
 62
     7
370
    25
100
AcDbCircle
 10
210.0
 20
160.0
 30
0.0
 40
40.0
100
AcDbArc
 50
0.0
 51
90.0
  0
ARC
  5
200
330
1F
100
AcDbEntity
  8
0
  6
Continuous
 62
     7
370
    25
100
AcDbCircle
 10
237.0
 20
-198.0
 30
0.0
 40
2.000000000000085
100
AcDbArc
 50
180.0
 51
270.0
  0
ARC
  5
201
330
1F
100
AcDbEntity
  8
0
  6
Continuous
 62
     7
370
    25
100
AcDbCircle
 10
-205.0
 20
155.0
 30
0.0
 40
30.00000000000003
100
AcDbArc
 50
90.0
 51
180.0
  0
ARC
  5
202
330
1F
100
AcDbEntity
  8
0
  6
Continuous
 62
     7
370
    25
100
AcDbCircle
 10
-237.0
 20
-198.0
 30
0.0
 40
2.0
100
AcDbArc
 50
270.0
 51
0.0
  0
ARC
  5
203
330
1F
100
AcDbEntity
  8
0
  6
Continuous
 62
     7
370
    25
100
AcDbCircle
 10
205.0
 20
155.0
 30
0.0
 40
29.99999999999994
100
AcDbArc
 50
0.0
 51
90.0
  0
ARC
  5
204
330
1F
100
AcDbEntity
  8
0
  6
Continuous
 62
     7
370
    25
100
AcDbCircle
 10
248.0
 20
-198.0
 30
0.0
 40
2.000000000000085
100
AcDbArc
 50
270.0
 51
0.0
  0
ARC
  5
205
330
1F
100
AcDbEntity
  8
0
  6
Continuous
 62
     7
370
    25
100
AcDbCircle
 10
-210.0
 20
160.0
 30
0.0
 40
40.00000000000003
100
AcDbArc
 50
90.0
 51
180.0
  0
ARC
  5
206
330
1F
100
AcDbEntity
  8
0
  6
Continuous
 62
     7
370
    25
100
AcDbCircle
 10
-248.0
 20
-198.0
 30
0.0
 40
2.000000000000028
100
AcDbArc
 50
180.0
 51
270.0
  0
ARC
  5
207
330
1F
100
AcDbEntity
  8
0
  6
Continuous
 62
     7
370
    25
100
AcDbCircle
 10
-205.0
 20
155.0
 30
0.0
 40
28.00000000000006
100
AcDbArc
 50
90.0
 51
180.0
  0
ARC
  5
208
330
1F
100
AcDbEntity
  8
0
  6
Continuous
 62
     7
370
    25
100
AcDbCircle
 10
205.0
 20
155.0
 30
0.0
 40
27.99999999999997
100
AcDbArc
 50
0.0
 51
90.0
  0
ARC
  5
209
330
1F
100
AcDbEntity
  8
0
  6
Continuous
 62
     7
370
    25
100
AcDbCircle
 10
-77.5
 20
-85.0
 30
0.0
 40
5.000000000000028
100
AcDbArc
 50
0.0
 51
90.0
  0
ARC
  5
20A
330
1F
100
AcDbEntity
  8
0
  6
Continuous
 62
     7
370
    25
100
AcDbCircle
 10
-67.5
 20
-95.0
 30
0.0
 40
5.000000000000057
100
AcDbArc
 50
180.0
 51
270.0
  0
SPLINE
  5
215
330
1B
100
AcDbEntity
 67
     1
  8
0
  6
Continuous
 62
     7
370
    25
100
AcDbSpline
210
0.0
220
0.0
230
1.0
 70
    24
 71
     3
 72
    18
 73
    14
 74
     0
 42
0.000000001
 43
0.00000001
 40
0.0
 40
0.0
 40
0.0
 40
0.0
 40
0.2500000000000062
 40
0.2500000000000062
 40
0.5000000000000124
 40
0.5000000000000124
 40
0.6250000000000093
 40
0.6250000000000093
 40
0.7500000000000062
 40
0.7500000000000062
 40
0.8750000000000031
 40
0.8750000000000031
 40
1.0
 40
1.0
 40
1.0
 40
1.0
 10
-134.6438356217339
 20
145.0
 30
0.0
 10
-134.1504565084571
 20
145.0000000000001
 30
0.0
 10
-133.663813783766
 20
145.0
 30
0.0
 10
-132.7049832373661
 20
145.0000000000001
 30
0.0
 10
-132.2450041977118
 20
145.0
 30
0.0
 10
-131.6024293168631
 20
145.0000000000001
 30
0.0
 10
-131.395623646996
 20
145.0000000000001
 30
0.0
 10
-131.0180513376063
 20
145.0000000000001
 30
0.0
 10
-130.8439947251041
 20
145.0
 30
0.0
 10
-130.5438886119737
 20
145.0
 30
0.0
 10
-130.4208149808313
 20
145.0000000000001
 30
0.0
 10
-130.2485293253341
 20
145.0000000000001
 30
0.0
 10
-130.2028985234147
 20
145.0
 30
0.0
 10
-130.2028985234147
 20
145.0
 30
0.0
  0
SPLINE
  5
217
330
1B
100
AcDbEntity
 67
     1
  8
0
  6
Continuous
 62
     7
370
    25
100
AcDbSpline
210
0.0
220
0.0
230
1.0
 70
     8
 71
     3
 72
    22
 73
    18
 74
     0
 42
0.000000001
 43
0.00000001
 40
0.0
 40
0.0
 40
0.0
 40
0.0
 40
0.1249999999999882
 40
0.1249999999999882
 40
0.1874999999999834
 40
0.1874999999999834
 40
0.2499999999999787
 40
0.2499999999999787
 40
0.3124999999999739
 40
0.3124999999999739
 40
0.3749999999999692
 40
0.3749999999999692
 40
0.4999999999999731
 40
0.4999999999999731
 40
0.7499999999999866
 40
0.7499999999999866
 40
1.0
 40
1.0
 40
1.0
 40
1.0
 10
-128.8642435900764
 20
144.4859350488663
 30
0.0
 10
-128.8642435900764
 20
144.4859350488663
 30
0.0
 10
-128.9096628102903
 20
144.4741065811673
 30
0.0
 10
-129.0426454399669
 20
144.4395038907765
 30
0.0
 10
-129.0981265415935
 20
144.4250707137126
 30
0.0
 10
-129.2278032981515
 20
144.3913523971241
 30
0.0
 10
-129.3022164945597
 20
144.3720106338894
 30
0.0
 10
-129.4693549988668
 20
144.3285937200697
 30
0.0
 10
-129.5626834604376
 20
144.304362132721
 30
0.0
 10
-129.7637877059419
 20
144.2521851632777
 30
0.0
 10
-129.8715097518134
 20
144.2242535507254
 30
0.0
 10
-130.2145913681022
 20
144.1353652818822
 30
0.0
 10
-130.4713809332311
 20
144.0689237333303
 30
0.0
 10
-131.3052592893529
 20
143.8535942586371
 30
0.0
 10
-131.9211191740074
 20
143.6950860796224
 30
0.0
 10
-133.255630281412
 20
143.353238612775
 30
0.0
 10
-133.9424117067122
 20
143.1780651670887
 30
0.0
 10
-134.643835621734
 20
143.0000000000001
 30
0.0
  0
SPLINE
  5
219
330
1B
100
AcDbEntity
 67
     1
  8
0
  6
Continuous
 62
     7
370
    25
100
AcDbSpline
210
0.0
220
0.0
230
1.0
 70
     8
 71
     3
 72
    20
 73
    16
 74
     0
 42
0.000000001
 43
0.00000001
 40
0.0
 40
0.0
 40
0.0
 40
0.0
 40
0.2499999999999916
 40
0.2499999999999916
 40
0.374999999999993
 40
0.374999999999993
 40
0.4999999999999944
 40
0.4999999999999944
 40
0.6249999999999959
 40
0.6249999999999959
 40
0.7499999999999972
 40
0.7499999999999972
 40
0.8749999999999987
 40
0.8749999999999987
 40
1.0
 40
1.0
 40
1.0
 40
1.0
 10
134.6438356217343
 20
143.0
 30
0.0
 10
133.9435665922471
 20
143.177771985061
 30
0.0
 10
133.2463102087254
 20
143.355624138399
 30
0.0
 10
132.2555546286531
 20
143.6094182732164
 30
0.0
 10
131.9302718279978
 20
143.6929308149565
 30
0.0
 10
131.3123484158842
 20
143.8518885089927
 30
0.0
 10
131.0197832446331
 20
143.9273103868923
 30
0.0
 10
130.4701323822304
 20
144.0692475105066
 30
0.0
 10
130.2110746207276
 20
144.1362755486992
 30
0.0
 10
129.7538014974637
 20
144.2547512189203
 30
0.0
 10
129.5527289736362
 20
144.3069358619051
 30
0.0
 10
129.2174928315417
 20
144.3940190957928
 30
0.0
 10
129.0877827340219
 20
144.4277590193333
 30
0.0
 10
128.9100330168242
 20
144.4740101925546
 30
0.0
 10
128.8642435900766
 20
144.4859350488663
 30
0.0
 10
128.8642435900766
 20
144.4859350488663
 30
0.0
  0
SPLINE
  5
21C
330
1B
100
AcDbEntity
 67
     1
  8
0
  6
Continuous
 62
     7
370
    25
100
AcDbSpline
210
0.0
220
0.0
230
1.0
 70
    24
 71
     3
 72
    20
 73
    16
 74
     0
 42
0.000000001
 43
0.00000001
 40
0.0
 40
0.0
 40
0.0
 40
0.0
 40
0.0624999999999979
 40
0.0624999999999979
 40
0.1249999999999957
 40
0.1249999999999957
 40
0.2499999999999963
 40
0.2499999999999963
 40
0.3749999999999969
 40
0.3749999999999969
 40
0.4999999999999976
 40
0.4999999999999976
 40
0.7499999999999988
 40
0.7499999999999988
 40
1.0
 40
1.0
 40
1.0
 40
1.0
 10
130.2028985234149
 20
145.0
 30
0.0
 10
130.202898523415
 20
145.0000000000001
 30
0.0
 10
130.2144514077214
 20
145.0
 30
0.0
 10
130.2593940577141
 20
145.0
 30
0.0
 10
130.2932390483676
 20
145.0000000000001
 30
0.0
 10
130.4224785702409
 20
145.0000000000001
 30
0.0
 10
130.5465989348262
 20
145.0
 30
0.0
 10
130.8467853405077
 20
145.0
 30
0.0
 10
131.0196367758416
 20
145.0
 30
0.0
 10
131.400321114742
 20
145.0
 30
0.0
 10
131.6066088998086
 20
145.0
 30
0.0
 10
132.2478144268466
 20
145.0
 30
0.0
 10
132.7170859042989
 20
145.0
 30
0.0
 10
133.6660504144591
 20
145.0
 30
0.0
 10
134.1502553250004
 20
145.0
 30
0.0
 10
134.6438356217343
 20
145.0
 30
0.0
  0
LWPOLYLINE
  5
274
330
1B
100
AcDbEntity
 67
     1
  8
0
  6
Continuous
 62
     7
370
    25
100
AcDbPolyline
 90
        9
 70
   128
 43
0.0
 10
27.5
 20
162.6066017178
 10
27.403926402
 20
163.296350166
 10
27.1193976626
 20
163.9595919682
 10
26.6573480615
 20
164.5708391138
 10
26.0355339059
 20
165.1066017178
 10
25.2778511651
 20
165.5462907238
 10
24.4134171618
 20
165.87300913
 10
23.4754516101
 20
166.0742013311
 10
22.5
 20
166.1421356237
  0
LWPOLYLINE
  5
27B
330
1B
100
AcDbEntity
 67
     1
  8
0
  6
Continuous
 62
     7
370
    25
100
AcDbPolyline
 90
        9
 70
   128
 43
0.0
 10
-22.5
 20
166.1421356237
 10
-23.4754516101
 20
166.0742013311
 10
-24.4134171618
 20
165.87300913
 10
-25.2778511651
 20
165.5462907238
 10
-26.0355339059
 20
165.1066017178
 10
-26.6573480615
 20
164.5708391138
 10
-27.1193976626
 20
163.9595919682
 10
-27.403926402
 20
163.296350166
 10
-27.5
 20
162.6066017178
  0
LWPOLYLINE
  5
282
330
1B
100
AcDbEntity
 67
     1
  8
0
  6
Continuous
 62
     7
370
    25
100
AcDbPolyline
 90
        9
 70
   128
 43
0.0
 10
27.5
 20
140.0
 10
27.596073598
 20
139.414729034
 10
27.8806023374
 20
138.8519497029
 10
28.3426519385
 20
138.3332893009
 10
28.9644660941
 20
137.8786796564
 10
29.7221488349
 20
137.5055911631
 10
30.5865828382
 20
137.2283614025
 10
31.5245483899
 20
137.0576441588
 10
32.5
 20
137.0
  0
LWPOLYLINE
  5
286
330
1B
100
AcDbEntity
 67
     1
  8
0
  6
Continuous
 62
     7
370
    25
100
AcDbPolyline
 90
        9
 70
   128
 43
0.0
 10
-32.5
 20
137.0
 10
-31.5245483899
 20
137.0576441588
 10
-30.5865828382
 20
137.2283614025
 10
-29.7221488349
 20
137.5055911631
 10
-28.9644660941
 20
137.8786796564
 10
-28.3426519385
 20
138.3332893009
 10
-27.8806023374
 20
138.8519497029
 10
-27.596073598
 20
139.414729034
 10
-27.5
 20
140.0
  0
SPLINE
  5
28F
330
1B
100
AcDbEntity
 67
     1
  8
0
  6
Continuous
 62
     7
370
    25
100
AcDbSpline
210
0.0
220
0.0
230
1.0
 70
    24
 71
     3
 72
    11
 73
     7
 74
     0
 42
0.000000001
 43
0.00000001
 40
0.0
 40
0.0
 40
0.0
 40
0.0
 40
0.0024548575748124
 40
0.6034916995176376
 40
0.9075611759028113
 40
1.0
 40
1.0
 40
1.0
 40
1.0
 10
124.4325877972727
 20
145.0
 30
0.0
 10
124.4373207754089
 20
145.0
 30
0.0
 10
125.6008559020629
 20
144.9999999999995
 30
0.0
 10
127.3188070479678
 20
145.0000000000002
 30
0.0
 10
129.0369628391139
 20
145.0
 30
0.0
 10
129.5416390765992
 20
145.0
 30
0.0
 10
129.6592953220957
 20
145.0000000000001
 30
0.0
  0
SPLINE
  5
290
330
1B
100
AcDbEntity
 67
     1
  8
0
  6
Continuous
 62
     7
370
    25
100
AcDbSpline
210
0.0
220
0.0
230
1.0
 70
    24
 71
     3
 72
    11
 73
     7
 74
     0
 42
0.000000001
 43
0.00000001
 40
0.0
 40
0.0
 40
0.0
 40
0.0
 40
0.0873278993634144
 40
0.386820620615202
 40
0.9975440234273564
 40
1.0
 40
1.0
 40
1.0
 40
1.0
 10
-129.6592953220954
 20
145.0000000000001
 30
0.0
 10
-129.548313298863
 20
145.0
 30
0.0
 10
-129.056716278703
 20
145.0
 30
0.0
 10
-127.3454470556824
 20
145.0000000000005
 30
0.0
 10
-125.6189950552408
 20
144.9999999999978
 30
0.0
 10
-124.4373207750051
 20
145.0
 30
0.0
 10
-124.4325877972724
 20
145.0
 30
0.0
  0
SPLINE
  5
2A6
330
1B
100
AcDbEntity
 67
     1
  8
0
  6
Continuous
 62
     8
370
    25
100
AcDbSpline
210
0.0
220
0.0
230
1.0
 70
     8
 71
     3
 72
    10
 73
     6
 74
     0
 42
0.000000001
 43
0.00000001
 40
0.0
 40
0.0
 40
0.0
 40
0.0
 40
0.3563163293002997
 40
0.9975022237484462
 40
1.0
 40
1.0
 40
1.0
 40
1.0
 10
128.252942244365
 20
144.0693186315171
 30
0.0
 10
127.8775673404544
 20
144.2623779368471
 30
0.0
 10
126.8267109227161
 20
144.8028445687304
 30
0.0
 10
125.3432022860842
 20
144.99962970956
 30
0.0
 10
124.4361077238431
 20
144.9999985686642
 30
0.0
 10
124.4325877972727
 20
145.0
 30
0.0
  0
SPLINE
  5
2A7
330
1B
100
AcDbEntity
 67
     1
  8
0
  6
Continuous
 62
     8
370
    25
100
AcDbSpline
210
0.0
220
0.0
230
1.0
 70
     8
 71
     3
 72
    10
 73
     6
 74
     0
 42
0.000000001
 43
0.00000001
 40
0.0
 40
0.0
 40
0.0
 40
0.0
 40
0.0024466670113279
 40
0.6305126817709569
 40
1.0
 40
1.0
 40
1.0
 40
1.0
 10
-124.4325877972724
 20
145.0
 30
0.0
 10
-124.4361077347051
 20
144.9999985773796
 30
0.0
 10
-125.3432050961661
 20
144.9996319642771
 30
0.0
 10
-126.8542753972716
 20
144.7959857248119
 30
0.0
 10
-127.9254243160919
 20
144.2428254523431
 30
0.0
 10
-128.3221709644671
 20
144.0379384564639
 30
0.0
  0
LINE
  5
2B5
330
1B
100
AcDbEntity
 67
     1
  8
0
  6
Continuous
 62
     7
370
    25
100
AcDbLine
 10
36.0
 20
150.0
 30
0.0
 11
36.0
 21
173.0
 31
0.0
  0
LINE
  5
2B6
330
1B
100
AcDbEntity
 67
     1
  8
0
  6
Continuous
 62
     7
370
    25
100
AcDbLine
 10
-36.0
 20
173.0
 30
0.0
 11
-36.0
 21
150.0
 31
0.0
  0
LINE
  5
2B7
330
1B
100
AcDbEntity
 67
     1
  8
0
  6
Continuous
 62
     7
370
    25
100
AcDbLine
 10
-134.6438356217
 20
145.0
 30
0.0
 11
-134.6438356217
 21
143.0
 31
0.0
  0
LINE
  5
2B8
330
1B
100
AcDbEntity
 67
     1
  8
0
  6
Continuous
 62
     7
370
    25
100
AcDbLine
 10
134.6438356217
 20
145.0
 30
0.0
 11
134.6438356217
 21
143.0
 31
0.0
  0
LINE
  5
2B9
330
1B
100
AcDbEntity
 67
     1
  8
0
  6
Continuous
 62
     7
370
    25
100
AcDbLine
 10
205.4562821799
 20
45.0
 30
0.0
 11
205.4562821799
 21
43.0
 31
0.0
  0
LINE
  5
2BA
330
1B
100
AcDbEntity
 67
     1
  8
0
  6
Continuous
 62
     7
370
    25
100
AcDbLine
 10
195.6082046498
 20
53.2635182233
 30
0.0
 11
193.6385891437
 21
52.916221868
 31
0.0
  0
LINE
  5
2BB
330
1B
100
AcDbEntity
 67
     1
  8
0
  6
Continuous
 62
     7
370
    25
100
AcDbLine
 10
237.0
 20
50.0
 30
0.0
 11
237.0
 21
47.0
 31
0.0
  0
LINE
  5
2BC
330
1B
100
AcDbEntity
 67
     1
  8
0
  6
Continuous
 62
     7
370
    25
100
AcDbLine
 10
199.4562821799
 20
47.0
 30
0.0
 11
237.0
 21
47.0
 31
0.0
  0
LINE
  5
2BD
330
1B
100
AcDbEntity
 67
     1
  8
0
  6
Continuous
 62
     7
370
    25
100
AcDbLine
 10
235.0
 20
47.0
 30
0.0
 11
235.0
 21
48.0
 31
0.0
  0
LINE
  5
2BE
330
1B
100
AcDbEntity
 67
     1
  8
0
  6
Continuous
 62
     7
370
    25
100
AcDbLine
 10
247.0
 20
48.0
 30
0.0
 11
198.3148537513
 21
48.0
 31
0.0
  0
LINE
  5
2BF
330
1B
100
AcDbEntity
 67
     1
  8
0
  6
Continuous
 62
     7
370
    25
100
AcDbLine
 10
233.0
 20
45.0
 30
0.0
 11
233.0
 21
43.0
 31
0.0
  0
LINE
  5
2C0
330
1B
100
AcDbEntity
 67
     1
  8
0
  6
Continuous
 62
     7
370
    25
100
AcDbLine
 10
250.0
 20
47.0
 30
0.0
 11
248.0
 21
47.0
 31
0.0
  0
LINE
  5
2C1
330
1B
100
AcDbEntity
 67
     1
  8
0
  6
Continuous
 62
     7
370
    25
100
AcDbLine
 10
247.0
 20
50.0
 30
0.0
 11
247.0
 21
48.0
 31
0.0
  0
LINE
  5
2C2
330
1B
100
AcDbEntity
 67
     1
  8
0
  6
Continuous
 62
     7
370
    25
100
AcDbLine
 10
250.0
 20
47.0
 30
0.0
 11
250.0
 21
10.0
 31
0.0
  0
LINE
  5
2C3
330
1B
100
AcDbEntity
 67
     1
  8
0
  6
Continuous
 62
     7
370
    25
100
AcDbLine
 10
250.0
 20
10.0
 30
0.0
 11
248.0
 21
10.0
 31
0.0
  0
LINE
  5
2C4
330
1B
100
AcDbEntity
 67
     1
  8
0
  6
Continuous
 62
     7
370
    25
100
AcDbLine
 10
248.0
 20
10.0
 30
0.0
 11
248.0
 21
47.0
 31
0.0
  0
LINE
  5
2C5
330
1B
100
AcDbEntity
 67
     1
  8
0
  6
Continuous
 62
     7
370
    25
100
AcDbLine
 10
205.4562821799
 20
45.0
 30
0.0
 11
233.0
 21
45.0
 31
0.0
  0
LINE
  5
2C6
330
1B
100
AcDbEntity
 67
     1
  8
0
  6
Continuous
 62
     7
370
    25
100
AcDbLine
 10
233.0
 20
43.0
 30
0.0
 11
205.4562821799
 21
43.0
 31
0.0
  0
LINE
  5
2C7
330
1B
100
AcDbEntity
 67
     1
  8
0
  6
Continuous
 62
     7
370
    25
100
AcDbLine
 10
240.0
 20
0.0
 30
0.0
 11
-240.0
 21
0.0
 31
0.0
  0
LINE
  5
2C8
330
1B
100
AcDbEntity
 67
     1
  8
0
  6
Continuous
 62
     7
370
    25
100
AcDbLine
 10
-240.0
 20
0.0
 30
0.0
 11
-240.0
 21
2.0
 31
0.0
  0
LINE
  5
2C9
330
1B
100
AcDbEntity
 67
     1
  8
0
  6
Continuous
 62
     7
370
    25
100
AcDbLine
 10
-240.0
 20
2.0
 30
0.0
 11
240.0
 21
2.0
 31
0.0
  0
LINE
  5
2CA
330
1B
100
AcDbEntity
 67
     1
  8
0
  6
Continuous
 62
     7
370
    25
100
AcDbLine
 10
240.0
 20
0.0
 30
0.0
 11
240.0
 21
2.0
 31
0.0
  0
LINE
  5
2CB
330
1B
100
AcDbEntity
 67
     1
  8
0
  6
Continuous
 62
     7
370
    25
100
AcDbLine
 10
-250.0
 20
10.0
 30
0.0
 11
-248.0
 21
10.0
 31
0.0
  0
LINE
  5
2CC
330
1B
100
AcDbEntity
 67
     1
  8
0
  6
Continuous
 62
     7
370
    25
100
AcDbLine
 10
196.796028142
 20
50.0
 30
0.0
 11
247.0
 21
50.0
 31
0.0
  0
LINE
  5
2CD
330
1B
100
AcDbEntity
 67
     1
  8
0
  6
Continuous
 62
     7
370
    25
100
AcDbLine
 10
137.4776062384
 20
143.0
 30
0.0
 11
134.6438356217
 21
143.0
 31
0.0
  0
LINE
  5
2CE
330
1B
100
AcDbEntity
 67
     1
  8
0
  6
Continuous
 62
     7
370
    25
100
AcDbLine
 10
193.6385891437
 20
52.916221868
 30
0.0
 11
184.748378383
 21
103.335112528
 31
0.0
  0
LINE
  5
2CF
330
1B
100
AcDbEntity
 67
     1
  8
0
  6
Continuous
 62
     7
370
    25
100
AcDbLine
 10
-248.0
 20
47.0
 30
0.0
 11
-248.0
 21
10.0
 31
0.0
  0
LINE
  5
2D0
330
1B
100
AcDbEntity
 67
     1
  8
0
  6
Continuous
 62
     7
370
    25
100
AcDbLine
 10
-198.3148537513
 20
48.0
 30
0.0
 11
-247.0
 21
48.0
 31
0.0
  0
LINE
  5
2D1
330
1B
100
AcDbEntity
 67
     1
  8
0
  6
Continuous
 62
     7
370
    25
100
AcDbLine
 10
-237.0
 20
50.0
 30
0.0
 11
-237.0
 21
47.0
 31
0.0
  0
LINE
  5
2D2
330
1B
100
AcDbEntity
 67
     1
  8
0
  6
Continuous
 62
     7
370
    25
100
AcDbLine
 10
-205.4562821799
 20
43.0
 30
0.0
 11
-233.0
 21
43.0
 31
0.0
  0
LINE
  5
2D3
330
1B
100
AcDbEntity
 67
     1
  8
0
  6
Continuous
 62
     7
370
    25
100
AcDbLine
 10
-184.748378383
 20
103.335112528
 30
0.0
 11
-193.6385891437
 21
52.916221868
 31
0.0
  0
LINE
  5
2D4
330
1B
100
AcDbEntity
 67
     1
  8
0
  6
Continuous
 62
     7
370
    25
100
AcDbLine
 10
-134.6438356217
 20
143.0
 30
0.0
 11
-137.4776062384
 21
143.0
 31
0.0
  0
LINE
  5
2D5
330
1B
100
AcDbEntity
 67
     1
  8
0
  6
Continuous
 62
     7
370
    25
100
AcDbLine
 10
-106.0
 20
35.0
 30
0.0
 11
-94.0
 21
35.0
 31
0.0
  0
LINE
  5
2D6
330
1B
100
AcDbEntity
 67
     1
  8
0
  6
Continuous
 62
     7
370
    25
100
AcDbLine
 10
-94.0
 20
55.0
 30
0.0
 11
-106.0
 21
55.0
 31
0.0
  0
LINE
  5
2D7
330
1B
100
AcDbEntity
 67
     1
  8
0
  6
Continuous
 62
     7
370
    25
100
AcDbLine
 10
106.0
 20
55.0
 30
0.0
 11
94.0
 21
55.0
 31
0.0
  0
LINE
  5
2D8
330
1B
100
AcDbEntity
 67
     1
  8
0
  6
Continuous
 62
     7
370
    25
100
AcDbLine
 10
94.0
 20
35.0
 30
0.0
 11
106.0
 21
35.0
 31
0.0
  0
LINE
  5
2D9
330
1B
100
AcDbEntity
 67
     1
  8
0
  6
Continuous
 62
     7
370
    25
100
AcDbLine
 10
-235.0
 20
48.0
 30
0.0
 11
-235.0
 21
47.0
 31
0.0
  0
LINE
  5
2DA
330
1B
100
AcDbEntity
 67
     1
  8
0
  6
Continuous
 62
     7
370
    25
100
AcDbLine
 10
-237.0
 20
47.0
 30
0.0
 11
-199.4562821799
 21
47.0
 31
0.0
  0
LINE
  5
2DB
330
1B
100
AcDbEntity
 67
     1
  8
0
  6
Continuous
 62
     7
370
    25
100
AcDbLine
 10
-233.0
 20
45.0
 30
0.0
 11
-233.0
 21
43.0
 31
0.0
  0
LINE
  5
2DC
330
1B
100
AcDbEntity
 67
     1
  8
0
  6
Continuous
 62
     7
370
    25
100
AcDbLine
 10
-250.0
 20
10.0
 30
0.0
 11
-250.0
 21
47.0
 31
0.0
  0
LINE
  5
2DD
330
1B
100
AcDbEntity
 67
     1
  8
0
  6
Continuous
 62
     7
370
    25
100
AcDbLine
 10
-250.0
 20
47.0
 30
0.0
 11
-248.0
 21
47.0
 31
0.0
  0
LINE
  5
2DE
330
1B
100
AcDbEntity
 67
     1
  8
0
  6
Continuous
 62
     7
370
    25
100
AcDbLine
 10
-247.0
 20
50.0
 30
0.0
 11
-247.0
 21
48.0
 31
0.0
  0
LINE
  5
2DF
330
1B
100
AcDbEntity
 67
     1
  8
0
  6
Continuous
 62
     7
370
    25
100
AcDbLine
 10
186.717993889
 20
103.6824088833
 30
0.0
 11
184.748378383
 21
103.335112528
 31
0.0
  0
LINE
  5
2E0
330
1B
100
AcDbEntity
 67
     1
  8
0
  6
Continuous
 62
     7
370
    25
100
AcDbLine
 10
137.4776062384
 20
145.0
 30
0.0
 11
137.4776062384
 21
143.0
 31
0.0
  0
LINE
  5
2E1
330
1B
100
AcDbEntity
 67
     1
  8
0
  6
Continuous
 62
     7
370
    25
100
AcDbLine
 10
186.717993889
 20
103.6824088833
 30
0.0
 11
195.6082046498
 21
53.2635182233
 31
0.0
  0
LINE
  5
2E2
330
1B
100
AcDbEntity
 67
     1
  8
0
  6
Continuous
 62
     7
370
    25
100
AcDbLine
 10
-137.4776062384
 20
145.0
 30
0.0
 11
-134.6438356217
 21
145.0
 31
0.0
  0
LINE
  5
2E3
330
1B
100
AcDbEntity
 67
     1
  8
0
  6
Continuous
 62
     7
370
    25
100
AcDbLine
 10
-137.4776062384
 20
145.0
 30
0.0
 11
-137.4776062384
 21
143.0
 31
0.0
  0
LINE
  5
2E4
330
1B
100
AcDbEntity
 67
     1
  8
0
  6
Continuous
 62
     7
370
    25
100
AcDbLine
 10
-195.6082046498
 20
53.2635182233
 30
0.0
 11
-186.717993889
 21
103.6824088833
 31
0.0
  0
LINE
  5
2E5
330
1B
100
AcDbEntity
 67
     1
  8
0
  6
Continuous
 62
     7
370
    25
100
AcDbLine
 10
-186.717993889
 20
103.6824088833
 30
0.0
 11
-184.748378383
 21
103.335112528
 31
0.0
  0
LINE
  5
2E6
330
1B
100
AcDbEntity
 67
     1
  8
0
  6
Continuous
 62
     7
370
    25
100
AcDbLine
 10
-195.6082046498
 20
53.2635182233
 30
0.0
 11
-193.6385891437
 21
52.916221868
 31
0.0
  0
LINE
  5
2E7
330
1B
100
AcDbEntity
 67
     1
  8
0
  6
Continuous
 62
     7
370
    25
100
AcDbLine
 10
-233.0
 20
45.0
 30
0.0
 11
-205.4562821799
 21
45.0
 31
0.0
  0
LINE
  5
2E8
330
1B
100
AcDbEntity
 67
     1
  8
0
  6
Continuous
 62
     7
370
    25
100
AcDbLine
 10
-205.4562821799
 20
45.0
 30
0.0
 11
-205.4562821799
 21
43.0
 31
0.0
  0
LINE
  5
2E9
330
1B
100
AcDbEntity
 67
     1
  8
0
  6
Continuous
 62
     7
370
    25
100
AcDbLine
 10
-247.0
 20
50.0
 30
0.0
 11
-196.796028142
 21
50.0
 31
0.0
  0
LINE
  5
2EA
330
1B
100
AcDbEntity
 67
     1
  8
0
  6
Continuous
 62
     7
370
    25
100
AcDbLine
 10
134.6438356217
 20
145.0
 30
0.0
 11
137.4776062384
 21
145.0
 31
0.0
  0
LINE
  5
2EB
330
1B
100
AcDbEntity
 67
     1
  8
0
  6
Continuous
 62
     7
370
    25
100
AcDbLine
 10
-27.5
 20
96.9741215875
 30
0.0
 11
-27.5
 21
167.0
 31
0.0
  0
LINE
  5
2EC
330
1B
100
AcDbEntity
 67
     1
  8
0
  6
Continuous
 62
     7
370
    25
100
AcDbLine
 10
27.5
 20
167.0
 30
0.0
 11
27.5
 21
96.9741215875
 31
0.0
  0
LINE
  5
2ED
330
1B
100
AcDbEntity
 67
     1
  8
0
  6
Continuous
 62
     7
370
    25
100
AcDbLine
 10
27.5
 20
152.0
 30
0.0
 11
-27.5
 21
152.0
 31
0.0
  0
LINE
  5
2EE
330
1B
100
AcDbEntity
 67
     1
  8
0
  6
Continuous
 62
     7
370
    25
100
AcDbLine
 10
22.5
 20
96.3192641996
 30
0.0
 11
22.5
 21
172.0
 31
0.0
  0
LINE
  5
2EF
330
1B
100
AcDbEntity
 67
     1
  8
0
  6
Continuous
 62
     7
370
    25
100
AcDbLine
 10
-22.5
 20
172.0
 30
0.0
 11
-22.5
 21
96.3192641996
 31
0.0
  0
LINE
  5
2F0
330
1B
100
AcDbEntity
 67
     1
  8
0
  6
Continuous
 62
     7
370
    25
100
AcDbLine
 10
-22.5
 20
172.0
 30
0.0
 11
22.5
 21
172.0
 31
0.0
  0
LINE
  5
2F1
330
1B
100
AcDbEntity
 67
     1
  8
0
  6
Continuous
 62
     7
370
    25
100
AcDbLine
 10
103.2069613463
 20
125.0
 30
0.0
 11
27.5
 21
125.0
 31
0.0
  0
LINE
  5
2F2
330
1B
100
AcDbEntity
 67
     1
  8
0
  6
Continuous
 62
     7
370
    25
100
AcDbLine
 10
32.5
 20
145.0
 30
0.0
 11
32.5
 21
97.7629334156
 31
0.0
  0
LINE
  5
2F3
330
1B
100
AcDbEntity
 67
     1
  8
0
  6
Continuous
 62
     7
370
    25
100
AcDbLine
 10
-27.5
 20
125.0
 30
0.0
 11
-103.2069613463
 21
125.0
 31
0.0
  0
LINE
  5
2F4
330
1B
100
AcDbEntity
 67
     1
  8
0
  6
Continuous
 62
     7
370
    25
100
AcDbLine
 10
32.5
 20
145.0
 30
0.0
 11
124.4325877973
 21
145.0
 31
0.0
  0
LINE
  5
2F5
330
1B
100
AcDbEntity
 67
     1
  8
0
  6
Continuous
 62
     7
370
    25
100
AcDbLine
 10
-32.5
 20
97.7629334156
 30
0.0
 11
-32.5
 21
145.0
 31
0.0
  0
LINE
  5
2F6
330
1B
100
AcDbEntity
 67
     1
  8
0
  6
Continuous
 62
     7
370
    25
100
AcDbLine
 10
-124.4325877973
 20
145.0
 30
0.0
 11
-32.5
 21
145.0
 31
0.0
  0
LINE
  5
2F7
330
1B
100
AcDbEntity
 67
     1
  8
0
  6
Continuous
 62
     7
370
    25
100
AcDbLine
 10
-34.0
 20
175.0
 30
0.0
 11
34.0
 21
175.0
 31
0.0
  0
LINE
  5
2F8
330
1B
100
AcDbEntity
 67
     1
  8
0
  6
Continuous
 62
     7
370
    25
100
AcDbLine
 10
-205.0
 20
50.0
 30
0.0
 11
-205.0
 21
45.0104150951
 31
0.0
  0
LINE
  5
2F9
330
1B
100
AcDbEntity
 67
     1
  8
0
  6
Continuous
 62
     7
370
    25
100
AcDbLine
 10
205.0
 20
50.0
 30
0.0
 11
205.0
 21
45.0104150951
 31
0.0
  0
LINE
  5
2FA
330
1B
100
AcDbEntity
 67
     1
  8
0
  6
Continuous
 62
     8
370
    25
100
AcDbLine
 10
124.4325877973
 20
140.6145658986
 30
0.0
 11
124.4325877973
 21
145.0
 31
0.0
  0
LINE
  5
2FB
330
1B
100
AcDbEntity
 67
     1
  8
0
  6
Continuous
 62
     8
370
    25
100
AcDbLine
 10
-124.4325877973
 20
145.0
 30
0.0
 11
-124.4325877973
 21
140.6145658986
 31
0.0
  0
LINE
  5
2FC
330
1B
100
AcDbEntity
 67
     1
  8
0
  6
Continuous
 62
     8
370
    25
100
AcDbLine
 10
27.5
 20
150.0
 30
0.0
 11
36.0
 21
150.0
 31
0.0
  0
LINE
  5
2FD
330
1B
100
AcDbEntity
 67
     1
  8
0
  6
Continuous
 62
     8
370
    25
100
AcDbLine
 10
-36.0
 20
150.0
 30
0.0
 11
-27.5
 21
150.0
 31
0.0
  0
LINE
  5
2FE
330
1B
100
AcDbEntity
 67
     1
  8
0
  6
Continuous
 62
     8
370
    25
100
AcDbLine
 10
36.0
 20
173.0
 30
0.0
 11
-36.0
 21
173.0
 31
0.0
  0
ARC
  5
2FF
330
1B
100
AcDbEntity
 67
     1
  8
0
  6
Continuous
 62
     7
370
    25
100
AcDbCircle
 10
-130.0092814503
 20
143.0000003323
 30
0.0
 40
1.999999667718374
100
AcDbArc
 50
37.1475603962
 51
90.0003973989
  0
ARC
  5
300
330
1B
100
AcDbEntity
 67
     1
  8
0
  6
Continuous
 62
     7
370
    25
100
AcDbCircle
 10
130.0092814503
 20
143.0000003323
 30
0.0
 40
1.999999667743442
100
AcDbArc
 50
89.9996026013
 51
142.8570314492
  0
ARC
  5
301
330
1B
100
AcDbEntity
 67
     1
  8
0
  6
Continuous
 62
     7
370
    25
100
AcDbCircle
 10
-124.4325943587
 20
147.2308902911
 30
0.0
 40
4.999994874100874
100
AcDbArc
 50
217.2213977028
 51
228.4002355811
  0
ARC
  5
302
330
1B
100
AcDbEntity
 67
     1
  8
0
  6
Continuous
 62
     7
370
    25
100
AcDbCircle
 10
124.4325943811
 20
147.230890272
 30
0.0
 40
4.999994844815255
100
AcDbArc
 50
311.751726626
 51
322.7610871123
  0
ARC
  5
303
330
1B
100
AcDbEntity
 67
     1
  8
0
  6
Continuous
 62
     7
370
    25
100
AcDbCircle
 10
-34.0
 20
173.0
 30
0.0
 40
2.000000000000043
100
AcDbArc
 50
90.0
 51
180.0
  0
ARC
  5
304
330
1B
100
AcDbEntity
 67
     1
  8
0
  6
Continuous
 62
     7
370
    25
100
AcDbCircle
 10
34.0
 20
173.0
 30
0.0
 40
2.000000000000043
100
AcDbArc
 50
0.0
 51
90.0
  0
ARC
  5
305
330
1B
100
AcDbEntity
 67
     1
  8
0
  6
Continuous
 62
     7
370
    25
100
AcDbCircle
 10
41.0
 20
150.0
 30
0.0
 40
4.999999999999972
100
AcDbArc
 50
180.0
 51
270.0
  0
ARC
  5
306
330
1B
100
AcDbEntity
 67
     1
  8
0
  6
Continuous
 62
     7
370
    25
100
AcDbCircle
 10
-41.0
 20
150.0
 30
0.0
 40
5.000000000000028
100
AcDbArc
 50
270.0
 51
0.0
  0
ARC
  5
307
330
1B
100
AcDbEntity
 67
     1
  8
0
  6
Continuous
 62
     7
370
    25
100
AcDbCircle
 10
-130.2028985234
 20
143.0
 30
0.0
 40
2.000000000000292
100
AcDbArc
 50
47.9848204412
 51
90.0
  0
ARC
  5
308
330
1B
100
AcDbEntity
 67
     1
  8
0
  6
Continuous
 62
     7
370
    25
100
AcDbCircle
 10
0.0
 20
287.527947839
 30
0.0
 40
197.5279478389863
100
AcDbArc
 50
227.0277173224
 51
312.9722826776
  0
ARC
  5
309
330
1B
100
AcDbEntity
 67
     1
  8
0
  6
Continuous
 62
     7
370
    25
100
AcDbCircle
 10
0.0
 20
287.527947839
 30
0.0
 40
192.5279478389871
100
AcDbArc
 50
227.9848204412
 51
312.0151795588
  0
ARC
  5
30A
330
1B
100
AcDbEntity
 67
     1
  8
0
  6
Continuous
 62
     7
370
    25
100
AcDbCircle
 10
130.2028985234
 20
143.0
 30
0.0
 40
1.999999999999944
100
AcDbArc
 50
90.0
 51
132.0151795588
  0
ARC
  5
30B
330
1B
100
AcDbEntity
 67
     1
  8
0
  6
Continuous
 62
     7
370
    25
100
AcDbCircle
 10
205.4562821799
 20
55.0
 30
0.0
 40
10.00000000000007
100
AcDbArc
 50
190.0
 51
270.0
  0
ARC
  5
30C
330
1B
100
AcDbEntity
 67
     1
  8
0
  6
Continuous
 62
     7
370
    25
100
AcDbCircle
 10
205.4562821799
 20
55.0
 30
0.0
 40
12.00000000000007
100
AcDbArc
 50
190.0
 51
270.0
  0
ARC
  5
30D
330
1B
100
AcDbEntity
 67
     1
  8
0
  6
Continuous
 62
     7
370
    25
100
AcDbCircle
 10
233.0
 20
47.0
 30
0.0
 40
1.999999999999972
100
AcDbArc
 50
270.0
 51
0.0
  0
ARC
  5
30E
330
1B
100
AcDbEntity
 67
     1
  8
0
  6
Continuous
 62
     7
370
    25
100
AcDbCircle
 10
233.0
 20
47.0
 30
0.0
 40
4.000000000000036
100
AcDbArc
 50
270.0
 51
0.0
  0
ARC
  5
30F
330
1B
100
AcDbEntity
 67
     1
  8
0
  6
Continuous
 62
     7
370
    25
100
AcDbCircle
 10
247.0
 20
47.0
 30
0.0
 40
3.0
100
AcDbArc
 50
0.0
 51
90.0
  0
ARC
  5
310
330
1B
100
AcDbEntity
 67
     1
  8
0
  6
Continuous
 62
     7
370
    25
100
AcDbCircle
 10
247.0
 20
47.0
 30
0.0
 40
1.000000000000007
100
AcDbArc
 50
0.0
 51
90.0
  0
ARC
  5
311
330
1B
100
AcDbEntity
 67
     1
  8
0
  6
Continuous
 62
     7
370
    25
100
AcDbCircle
 10
-240.0
 20
10.0
 30
0.0
 40
10.00000000000001
100
AcDbArc
 50
180.0
 51
270.0
  0
ARC
  5
312
330
1B
100
AcDbEntity
 67
     1
  8
0
  6
Continuous
 62
     7
370
    25
100
AcDbCircle
 10
-240.0
 20
10.0
 30
0.0
 40
8.000000000000028
100
AcDbArc
 50
180.0
 51
270.0
  0
ARC
  5
313
330
1B
100
AcDbEntity
 67
     1
  8
0
  6
Continuous
 62
     7
370
    25
100
AcDbCircle
 10
237.0
 20
48.0
 30
0.0
 40
2.000000000000028
100
AcDbArc
 50
90.0
 51
180.0
  0
ARC
  5
314
330
1B
100
AcDbEntity
 67
     1
  8
0
  6
Continuous
 62
     7
370
    25
100
AcDbCircle
 10
137.4776062384
 20
95.0
 30
0.0
 40
48.00000000000003
100
AcDbArc
 50
10.0
 51
90.0
  0
ARC
  5
315
330
1B
100
AcDbEntity
 67
     1
  8
0
  6
Continuous
 62
     7
370
    25
100
AcDbCircle
 10
240.0
 20
10.0
 30
0.0
 40
8.000000000000028
100
AcDbArc
 50
270.0
 51
0.0
  0
ARC
  5
316
330
1B
100
AcDbEntity
 67
     1
  8
0
  6
Continuous
 62
     7
370
    25
100
AcDbCircle
 10
-247.0
 20
47.0
 30
0.0
 40
1.000000000000007
100
AcDbArc
 50
90.0
 51
180.0
  0
ARC
  5
317
330
1B
100
AcDbEntity
 67
     1
  8
0
  6
Continuous
 62
     7
370
    25
100
AcDbCircle
 10
-233.0
 20
47.0
 30
0.0
 40
4.000000000000036
100
AcDbArc
 50
180.0
 51
270.0
  0
ARC
  5
318
330
1B
100
AcDbEntity
 67
     1
  8
0
  6
Continuous
 62
     7
370
    25
100
AcDbCircle
 10
-205.4562821799
 20
55.0
 30
0.0
 40
12.00000000000004
100
AcDbArc
 50
270.0
 51
350.0
  0
ARC
  5
319
330
1B
100
AcDbEntity
 67
     1
  8
0
  6
Continuous
 62
     7
370
    25
100
AcDbCircle
 10
-137.4776062384
 20
95.0
 30
0.0
 40
48.0000000000001
100
AcDbArc
 50
90.0
 51
170.0
  0
ARC
  5
31A
330
1B
100
AcDbEntity
 67
     1
  8
0
  6
Continuous
 62
     7
370
    25
100
AcDbCircle
 10
-106.0
 20
45.0
 30
0.0
 40
10.00000000000054
100
AcDbArc
 50
90.0
 51
270.0
  0
ARC
  5
31B
330
1B
100
AcDbEntity
 67
     1
  8
0
  6
Continuous
 62
     7
370
    25
100
AcDbCircle
 10
-94.0
 20
45.0
 30
0.0
 40
10.00000000000004
100
AcDbArc
 50
270.0
 51
90.0
  0
ARC
  5
31C
330
1B
100
AcDbEntity
 67
     1
  8
0
  6
Continuous
 62
     7
370
    25
100
AcDbCircle
 10
106.0
 20
45.0
 30
0.0
 40
10.00000000000053
100
AcDbArc
 50
270.0
 51
90.0
  0
ARC
  5
31D
330
1B
100
AcDbEntity
 67
     1
  8
0
  6
Continuous
 62
     7
370
    25
100
AcDbCircle
 10
94.0
 20
45.0
 30
0.0
 40
10.00000000000104
100
AcDbArc
 50
90.0
 51
270.0
  0
ARC
  5
31E
330
1B
100
AcDbEntity
 67
     1
  8
0
  6
Continuous
 62
     7
370
    25
100
AcDbCircle
 10
-237.0
 20
48.0
 30
0.0
 40
1.999999999999972
100
AcDbArc
 50
0.0
 51
90.0
  0
ARC
  5
31F
330
1B
100
AcDbEntity
 67
     1
  8
0
  6
Continuous
 62
     7
370
    25
100
AcDbCircle
 10
-233.0
 20
47.0
 30
0.0
 40
2.000000000000028
100
AcDbArc
 50
180.0
 51
270.0
  0
ARC
  5
320
330
1B
100
AcDbEntity
 67
     1
  8
0
  6
Continuous
 62
     7
370
    25
100
AcDbCircle
 10
240.0
 20
10.0
 30
0.0
 40
9.999999999999973
100
AcDbArc
 50
270.0
 51
0.0
  0
ARC
  5
321
330
1B
100
AcDbEntity
 67
     1
  8
0
  6
Continuous
 62
     7
370
    25
100
AcDbCircle
 10
-247.0
 20
47.0
 30
0.0
 40
3.0
100
AcDbArc
 50
90.0
 51
180.0
  0
ARC
  5
322
330
1B
100
AcDbEntity
 67
     1
  8
0
  6
Continuous
 62
     7
370
    25
100
AcDbCircle
 10
137.4776062384
 20
95.0
 30
0.0
 40
50.00000000000003
100
AcDbArc
 50
10.0
 51
90.0
  0
ARC
  5
323
330
1B
100
AcDbEntity
 67
     1
  8
0
  6
Continuous
 62
     7
370
    25
100
AcDbCircle
 10
-205.4562821799
 20
55.0
 30
0.0
 40
10.00000000000004
100
AcDbArc
 50
270.0
 51
350.0
  0
ARC
  5
324
330
1B
100
AcDbEntity
 67
     1
  8
0
  6
Continuous
 62
     7
370
    25
100
AcDbCircle
 10
-137.4776062384
 20
95.0
 30
0.0
 40
49.99999999999997
100
AcDbArc
 50
90.0
 51
170.0
  0
ARC
  5
325
330
1B
100
AcDbEntity
 67
     1
  8
0
  6
Continuous
 62
     7
370
    25
100
AcDbCircle
 10
-22.5
 20
167.0
 30
0.0
 40
4.999999999999979
100
AcDbArc
 50
90.0
 51
180.0
  0
ARC
  5
326
330
1B
100
AcDbEntity
 67
     1
  8
0
  6
Continuous
 62
     7
370
    25
100
AcDbCircle
 10
22.5
 20
167.0
 30
0.0
 40
5.000000000000004
100
AcDbArc
 50
0.0
 51
90.0
  0
ARC
  5
327
330
1B
100
AcDbEntity
 67
     1
  8
0
  6
Continuous
 62
     7
370
    25
100
AcDbCircle
 10
32.1175881283
 20
146.2867412989
 30
0.0
 40
4.640346701198191
100
AcDbArc
 50
185.6769175607
 51
274.7271172904
  0
ARC
  5
328
330
1B
100
AcDbEntity
 67
     1
  8
0
  6
Continuous
 62
     7
370
    25
100
AcDbCircle
 10
-32.1175881283
 20
146.2867412989
 30
0.0
 40
4.640346701198163
100
AcDbArc
 50
265.2728827096
 51
354.3230824393
  0
ARC
  5
329
330
1B
100
AcDbEntity
 67
     1
  8
0
  6
Continuous
 62
     7
370
    25
100
AcDbCircle
 10
32.5
 20
150.0
 30
0.0
 40
5.000000000000028
100
AcDbArc
 50
180.0
 51
270.0
  0
ARC
  5
32A
330
1B
100
AcDbEntity
 67
     1
  8
0
  6
Continuous
 62
     7
370
    25
100
AcDbCircle
 10
-32.5
 20
150.0
 30
0.0
 40
4.999999999999975
100
AcDbArc
 50
270.0
 51
0.0
  0
VIEWPORT
  5
6EA
330
1B
100
AcDbEntity
 67
     1
  8
0
100
AcDbViewport
 10
0.0
 20
0.0
 30
0.0
 40
205.6
 41
156.0
 68
     1
 69
     1
 12
0.0
 22
0.0
 13
0.0
 23
0.0
 14
10.0
 24
10.0
 15
10.0
 25
10.0
 16
0.0
 26
0.0
 36
1.0
 17
0.0
 27
0.0
 37
0.0
 42
50.0
 43
0.0
 44
0.0
 45
408.0
 50
0.0
 51
0.0
 72
   100
 90
   557152
  1

281
     0
 71
     1
 74
     0
110
0.0
120
0.0
130
0.0
111
1.0
121
0.0
131
0.0
112
0.0
122
1.0
132
0.0
 79
     0
146
0.0
  0
ENDSEC
  0
SECTION
  2
OBJECTS
  0
DICTIONARY
  5
C
330
0
100
AcDbDictionary
281
     1
  3
ACAD_GROUP
350
D
  3
ACAD_LAYOUT
350
1A
  3
ACAD_MLINESTYLE
350
17
  3
ACAD_PLOTSETTINGS
350
19
  3
ACAD_PLOTSTYLENAME
350
E
  3
ACAD_SCALELIST
350
47
  0
DICTIONARY
  5
D
102
{ACAD_REACTORS
330
C
102
}
330
C
100
AcDbDictionary
281
     1
  0
DICTIONARY
  5
1A
102
{ACAD_REACTORS
330
C
102
}
330
C
100
AcDbDictionary
281
     1
  3
_Back
350
26
  3
_Bottom
350
40B
  3
_Front
350
1E
  3
_Isometric
350
4AD
  3
_Right
350
38A
  3
Model
350
22
  0
DICTIONARY
  5
17
102
{ACAD_REACTORS
330
C
102
}
330
C
100
AcDbDictionary
281
     1
  3
Standard
350
18
  0
DICTIONARY
  5
19
102
{ACAD_REACTORS
330
C
102
}
330
C
100
AcDbDictionary
281
     1
  0
ACDBDICTIONARYWDFLT
  5
E
102
{ACAD_REACTORS
330
C
102
}
330
C
100
AcDbDictionary
281
     1
  3
Normal
350
F
100
AcDbDictionaryWithDefault
340
F
  0
DICTIONARY
  5
47
102
{ACAD_REACTORS
330
C
102
}
330
C
100
AcDbDictionary
281
     1
  3
A0
350
48
  3
A1
350
49
  3
A2
350
4A
  3
A3
350
4B
  3
A4
350
4C
  3
A5
350
4D
  3
A6
350
4E
  3
A7
350
4F
  3
A8
350
50
  3
A9
350
51
  3
B0
350
52
  3
B1
350
53
  3
B2
350
54
  3
B3
350
55
  3
B4
350
56
  3
B5
350
57
  3
B6
350
58
  3
B7
350
59
  3
B8
350
5A
  3
B9
350
5B
  3
C0
350
5C
  3
C1
350
5D
  3
C2
350
5E
  3
C3
350
5F
  3
C4
350
60
  3
C5
350
61
  3
C6
350
62
  3
C7
350
63
  3
C8
350
64
  3
C9
350
65
  3
D0
350
66
  3
D1
350
67
  3
D2
350
68
  0
LAYOUT
  5
26
102
{ACAD_REACTORS
330
1A
102
}
330
1A
100
AcDbPlotSettings
  1

  2
none_device
  4
ISO_A4_(210.00_x_297.00_MM)
  6

 40
7.5
 41
20.0
 42
7.5
 43
20.0
 44
210.0
 45
297.0
 46
0.0
 47
0.0
 48
0.0
 49
0.0
140
0.0
141
0.0
142
1.0
143
1.9455252918
 70
   688
 72
     1
 73
     1
 74
     1
  7

 75
     0
147
0.514
148
250.0
149
0.0
100
AcDbLayout
  1
_Back
 70
     1
 71
     2
 10
0.0
 20
0.0
 11
0.0
 21
0.0
 12
0.0
 22
0.0
 32
0.0
 14
0.0
 24
0.0
 34
0.0
 15
0.0
 25
0.0
 35
0.0
146
0.0
 13
0.0
 23
0.0
 33
0.0
 16
1.0
 26
0.0
 36
0.0
 17
0.0
 27
1.0
 37
0.0
 76
     0
330
23
331
6EC
  0
LAYOUT
  5
40B
102
{ACAD_REACTORS
330
1A
102
}
330
1A
100
AcDbPlotSettings
  1

  2
none_device
  4
ISO_A4_(210.00_x_297.00_MM)
  6

 40
7.5
 41
20.0
 42
7.5
 43
20.0
 44
210.0
 45
297.0
 46
0.0
 47
0.0
 48
0.0
 49
0.0
140
0.0
141
0.0
142
1.0
143
1.9455252918
 70
   688
 72
     1
 73
     1
 74
     1
  7

 75
     0
147
0.514
148
250.0
149
0.0
100
AcDbLayout
  1
_Bottom
 70
     1
 71
     4
 10
0.0
 20
0.0
 11
0.0
 21
0.0
 12
0.0
 22
0.0
 32
0.0
 14
0.0
 24
0.0
 34
0.0
 15
0.0
 25
0.0
 35
0.0
146
0.0
 13
0.0
 23
0.0
 33
0.0
 16
1.0
 26
0.0
 36
0.0
 17
0.0
 27
1.0
 37
0.0
 76
     0
330
40A
331
6F0
  0
LAYOUT
  5
1E
102
{ACAD_REACTORS
330
1A
102
}
330
1A
100
AcDbPlotSettings
  1

  2
none_device
  4
ISO_A4_(210.00_x_297.00_MM)
  6

 40
7.5
 41
20.0
 42
7.5
 43
20.0
 44
210.0
 45
297.0
 46
0.0
 47
0.0
 48
0.0
 49
0.0
140
0.0
141
0.0
142
1.0
143
1.9455252918
 70
   688
 72
     1
 73
     1
 74
     1
  7

 75
     0
147
0.514
148
250.0
149
0.0
100
AcDbLayout
  1
_Front
 70
     1
 71
     1
 10
-288.9105058366
 20
-14.5914396887
 11
288.9105058366
 21
393.9688715953
 12
0.0
 22
0.0
 32
0.0
 14
-250.0
 24
0.0
 34
0.0
 15
250.0
 25
175.0
 35
0.0
146
0.0
 13
0.0
 23
0.0
 33
0.0
 16
1.0
 26
0.0
 36
0.0
 17
0.0
 27
1.0
 37
0.0
 76
     0
330
1B
331
6EA
  0
LAYOUT
  5
4AD
102
{ACAD_REACTORS
330
1A
102
}
330
1A
100
AcDbPlotSettings
  1

  2
none_device
  4
ISO_A4_(210.00_x_297.00_MM)
  6

 40
7.5
 41
20.0
 42
7.5
 43
20.0
 44
210.0
 45
297.0
 46
0.0
 47
0.0
 48
0.0
 49
0.0
140
0.0
141
0.0
142
1.0
143
1.9455252918
 70
   688
 72
     1
 73
     1
 74
     1
  7

 75
     0
147
0.514
148
250.0
149
0.0
100
AcDbLayout
  1
_Isometric
 70
     1
 71
     5
 10
0.0
 20
0.0
 11
0.0
 21
0.0
 12
0.0
 22
0.0
 32
0.0
 14
0.0
 24
0.0
 34
0.0
 15
0.0
 25
0.0
 35
0.0
146
0.0
 13
0.0
 23
0.0
 33
0.0
 16
1.0
 26
0.0
 36
0.0
 17
0.0
 27
1.0
 37
0.0
 76
     0
330
4AC
331
6F2
  0
LAYOUT
  5
38A
102
{ACAD_REACTORS
330
1A
102
}
330
1A
100
AcDbPlotSettings
  1

  2
none_device
  4
ISO_A4_(210.00_x_297.00_MM)
  6

 40
7.5
 41
20.0
 42
7.5
 43
20.0
 44
210.0
 45
297.0
 46
0.0
 47
0.0
 48
0.0
 49
0.0
140
0.0
141
0.0
142
1.0
143
1.9455252918
 70
   688
 72
     1
 73
     1
 74
     1
  7

 75
     0
147
0.514
148
250.0
149
0.0
100
AcDbLayout
  1
_Right
 70
     1
 71
     3
 10
0.0
 20
0.0
 11
0.0
 21
0.0
 12
0.0
 22
0.0
 32
0.0
 14
0.0
 24
0.0
 34
0.0
 15
0.0
 25
0.0
 35
0.0
146
0.0
 13
0.0
 23
0.0
 33
0.0
 16
1.0
 26
0.0
 36
0.0
 17
0.0
 27
1.0
 37
0.0
 76
     0
330
389
331
6EE
  0
LAYOUT
  5
22
102
{ACAD_REACTORS
330
1A
102
}
330
1A
100
AcDbPlotSettings
  1

  2
none_device
  4
ANSI_A_(11.00_x_8.50_Inches)
  6

 40
6.35
 41
19.05
 42
6.35000508
 43
19.05000254
 44
279.4
 45
215.9
 46
133.34999746
 47
88.89999873
 48
0.0
 49
0.0
140
0.0
141
0.0
142
0.0210375
143
1.0
 70
  1696
 72
     0
 73
     0
 74
     0
  7

 75
     0
147
0.0179189148
148
-1300.4909072572
149
0.0
100
AcDbLayout
  1
Model
 70
     1
 71
     0
 10
0.0
 20
0.0
 11
420.0
 21
297.0
 12
0.0
 22
0.0
 32
0.0
 14
-250.0
 24
-200.0
 34
0.0
 15
250.0
 25
200.0
 35
0.0
146
0.0
 13
0.0
 23
0.0
 33
0.0
 16
1.0
 26
0.0
 36
0.0
 17
0.0
 27
1.0
 37
0.0
 76
     0
330
1F
331
29
  0
MLINESTYLE
  5
18
102
{ACAD_REACTORS
330
17
102
}
330
17
100
AcDbMlineStyle
  2
Standard
 70
     0
  3

 62
   256
 51
90.0
 52
90.0
 71
     2
 49
0.5
 62
   256
  6
BYLAYER
 49
-0.5
 62
   256
  6
BYLAYER
  0
ACDBPLACEHOLDER
  5
F
102
{ACAD_REACTORS
330
E
102
}
330
E
  0
SCALE
  5
48
102
{ACAD_REACTORS
330
47
102
}
330
47
100
AcDbScale
 70
     0
300
1:1
140
1.0
141
1.0
290
     1
  0
SCALE
  5
49
102
{ACAD_REACTORS
330
47
102
}
330
47
100
AcDbScale
 70
     0
300
1:2
140
1.0
141
2.0
290
     0
  0
SCALE
  5
4A
102
{ACAD_REACTORS
330
47
102
}
330
47
100
AcDbScale
 70
     0
300
1:4
140
1.0
141
4.0
290
     0
  0
SCALE
  5
4B
102
{ACAD_REACTORS
330
47
102
}
330
47
100
AcDbScale
 70
     0
300
1:5
140
1.0
141
5.0
290
     0
  0
SCALE
  5
4C
102
{ACAD_REACTORS
330
47
102
}
330
47
100
AcDbScale
 70
     0
300
1:8
140
1.0
141
8.0
290
     0
  0
SCALE
  5
4D
102
{ACAD_REACTORS
330
47
102
}
330
47
100
AcDbScale
 70
     0
300
1:10
140
1.0
141
10.0
290
     0
  0
SCALE
  5
4E
102
{ACAD_REACTORS
330
47
102
}
330
47
100
AcDbScale
 70
     0
300
1:16
140
1.0
141
16.0
290
     0
  0
SCALE
  5
4F
102
{ACAD_REACTORS
330
47
102
}
330
47
100
AcDbScale
 70
     0
300
1:20
140
1.0
141
20.0
290
     0
  0
SCALE
  5
50
102
{ACAD_REACTORS
330
47
102
}
330
47
100
AcDbScale
 70
     0
300
1:30
140
1.0
141
30.0
290
     0
  0
SCALE
  5
51
102
{ACAD_REACTORS
330
47
102
}
330
47
100
AcDbScale
 70
     0
300
1:40
140
1.0
141
40.0
290
     0
  0
SCALE
  5
52
102
{ACAD_REACTORS
330
47
102
}
330
47
100
AcDbScale
 70
     0
300
1:50
140
1.0
141
50.0
290
     0
  0
SCALE
  5
53
102
{ACAD_REACTORS
330
47
102
}
330
47
100
AcDbScale
 70
     0
300
1:100
140
1.0
141
100.0
290
     0
  0
SCALE
  5
54
102
{ACAD_REACTORS
330
47
102
}
330
47
100
AcDbScale
 70
     0
300
2:1
140
2.0
141
1.0
290
     0
  0
SCALE
  5
55
102
{ACAD_REACTORS
330
47
102
}
330
47
100
AcDbScale
 70
     0
300
4:1
140
4.0
141
1.0
290
     0
  0
SCALE
  5
56
102
{ACAD_REACTORS
330
47
102
}
330
47
100
AcDbScale
 70
     0
300
8:1
140
8.0
141
1.0
290
     0
  0
SCALE
  5
57
102
{ACAD_REACTORS
330
47
102
}
330
47
100
AcDbScale
 70
     0
300
10:1
140
10.0
141
1.0
290
     0
  0
SCALE
  5
58
102
{ACAD_REACTORS
330
47
102
}
330
47
100
AcDbScale
 70
     0
300
100:1
140
100.0
141
1.0
290
     0
  0
SCALE
  5
59
102
{ACAD_REACTORS
330
47
102
}
330
47
100
AcDbScale
 70
     0
300
1/128" = 1'-0"
140
0.0078125
141
12.0
290
     0
  0
SCALE
  5
5A
102
{ACAD_REACTORS
330
47
102
}
330
47
100
AcDbScale
 70
     0
300
1/64" = 1'-0"
140
0.015625
141
12.0
290
     0
  0
SCALE
  5
5B
102
{ACAD_REACTORS
330
47
102
}
330
47
100
AcDbScale
 70
     0
300
1/32" = 1'-0"
140
0.03125
141
12.0
290
     0
  0
SCALE
  5
5C
102
{ACAD_REACTORS
330
47
102
}
330
47
100
AcDbScale
 70
     0
300
1/16" = 1'-0"
140
0.0625
141
12.0
290
     0
  0
SCALE
  5
5D
102
{ACAD_REACTORS
330
47
102
}
330
47
100
AcDbScale
 70
     0
300
3/32" = 1'-0"
140
0.09375
141
12.0
290
     0
  0
SCALE
  5
5E
102
{ACAD_REACTORS
330
47
102
}
330
47
100
AcDbScale
 70
     0
300
1/8" = 1'-0"
140
0.125
141
12.0
290
     0
  0
SCALE
  5
5F
102
{ACAD_REACTORS
330
47
102
}
330
47
100
AcDbScale
 70
     0
300
3/16" = 1'-0"
140
0.1875
141
12.0
290
     0
  0
SCALE
  5
60
102
{ACAD_REACTORS
330
47
102
}
330
47
100
AcDbScale
 70
     0
300
1/4" = 1'-0"
140
0.25
141
12.0
290
     0
  0
SCALE
  5
61
102
{ACAD_REACTORS
330
47
102
}
330
47
100
AcDbScale
 70
     0
300
3/8" = 1'-0"
140
0.375
141
12.0
290
     0
  0
SCALE
  5
62
102
{ACAD_REACTORS
330
47
102
}
330
47
100
AcDbScale
 70
     0
300
1/2" = 1'-0"
140
0.5
141
12.0
290
     0
  0
SCALE
  5
63
102
{ACAD_REACTORS
330
47
102
}
330
47
100
AcDbScale
 70
     0
300
3/4" = 1'-0"
140
0.75
141
12.0
290
     0
  0
SCALE
  5
64
102
{ACAD_REACTORS
330
47
102
}
330
47
100
AcDbScale
 70
     0
300
1" = 1'-0"
140
1.0
141
12.0
290
     0
  0
SCALE
  5
65
102
{ACAD_REACTORS
330
47
102
}
330
47
100
AcDbScale
 70
     0
300
1-1/2" = 1'-0"
140
1.5
141
12.0
290
     0
  0
SCALE
  5
66
102
{ACAD_REACTORS
330
47
102
}
330
47
100
AcDbScale
 70
     0
300
3" = 1'-0"
140
3.0
141
12.0
290
     0
  0
SCALE
  5
67
102
{ACAD_REACTORS
330
47
102
}
330
47
100
AcDbScale
 70
     0
300
6" = 1'-0"
140
6.0
141
12.0
290
     0
  0
SCALE
  5
68
102
{ACAD_REACTORS
330
47
102
}
330
47
100
AcDbScale
 70
     0
300
1'-0" = 1'-0"
140
12.0
141
12.0
290
     0
  0
ENDSEC
  0
EOF
