  0
SECTION
  2
HEADER
  9
$ACADVER
  1
AC1015
  9
$ACADMAINTVER
 70
     6
  9
$DWGCODEPAGE
  3
ANSI_1252
  9
$INSBASE
 10
0.0
 20
0.0
 30
0.0
  9
$EXTMIN
 10
-349.7848794989
 20
-187.2848794989
 30
0.0
  9
$EXTMAX
 10
349.7848794989
 20
187.5
 30
0.0
  9
$LIMMIN
 10
0.0
 20
0.0
  9
$LIMMAX
 10
420.0
 20
297.0
  9
$ORTHOMODE
 70
     0
  9
$REGENMODE
 70
     1
  9
$FILLMODE
 70
     1
  9
$QTEXTMODE
 70
     0
  9
$MIRRTEXT
 70
     1
  9
$LTSCALE
 40
1.0
  9
$ATTMODE
 70
     1
  9
$TEXTSIZE
 40
3.5
  9
$TRACEWID
 40
1.0
  9
$TEXTSTYLE
  7
Standard
  9
$CLAYER
  8
0
  9
$CELTYPE
  6
ByLayer
  9
$CECOLOR
 62
   256
  9
$CELTSCALE
 40
1.0
  9
$DISPSILH
 70
     0
  9
$DIMSCALE
 40
1.0
  9
$DIMASZ
 40
3.302
  9
$DIMEXO
 40
1.0
  9
$DIMDLI
 40
3.75
  9
$DIMRND
 40
0.0
  9
$DIMDLE
 40
0.0
  9
$DIMEXE
 40
1.0
  9
$DIMTP
 40
0.0
  9
$DIMTM
 40
0.0
  9
$DIMTXT
 40
3.5
  9
$DIMCEN
 40
2.5
  9
$DIMTSZ
 40
0.0
  9
$DIMTOL
 70
     0
  9
$DIMLIM
 70
     0
  9
$DIMTIH
 70
     1
  9
$DIMTOH
 70
     1
  9
$DIMSE1
 70
     0
  9
$DIMSE2
 70
     0
  9
$DIMTAD
 70
     1
  9
$DIMZIN
 70
     1
  9
$DIMBLK
  1

  9
$DIMASO
 70
     1
  9
$DIMSHO
 70
     1
  9
$DIMPOST
  1

  9
$DIMAPOST
  1

  9
$DIMALT
 70
     0
  9
$DIMALTD
 70
     3
  9
$DIMALTF
 40
0.0393700787
  9
$DIMLFAC
 40
1.0
  9
$DIMTOFL
 70
     1
  9
$DIMTVP
 40
0.0
  9
$DIMTIX
 70
     0
  9
$DIMSOXD
 70
     0
  9
$DIMSAH
 70
     0
  9
$DIMBLK1
  1

  9
$DIMBLK2
  1

  9
$DIMSTYLE
  2
ISO-25
  9
$DIMCLRD
 70
     0
  9
$DIMCLRE
 70
     0
  9
$DIMCLRT
 70
     0
  9
$DIMTFAC
 40
1.0
  9
$DIMGAP
 40
1.524
  9
$DIMJUST
 70
     0
  9
$DIMSD1
 70
     0
  9
$DIMSD2
 70
     0
  9
$DIMTOLJ
 70
     0
  9
$DIMTZIN
 70
     1
  9
$DIMALTZ
 70
     0
  9
$DIMALTTZ
 70
     0
  9
$DIMUPT
 70
     0
  9
$DIMDEC
 70
     2
  9
$DIMTDEC
 70
     2
  9
$DIMALTU
 70
     2
  9
$DIMALTTD
 70
     3
  9
$DIMTXSTY
  7
Standard
  9
$DIMAUNIT
 70
     0
  9
$DIMADEC
 70
     2
  9
$DIMALTRND
 40
0.0
  9
$DIMAZIN
 70
     0
  9
$DIMDSEP
 70
    44
  9
$DIMATFIT
 70
     3
  9
$DIMFRAC
 70
     0
  9
$DIMLDRBLK
  1

  9
$DIMLUNIT
 70
     2
  9
$DIMLWD
 70
    -2
  9
$DIMLWE
 70
    -2
  9
$DIMTMOVE
 70
     0
  9
$LUNITS
 70
     2
  9
$LUPREC
 70
     2
  9
$SKETCHINC
 40
1.0
  9
$FILLETRAD
 40
10.0
  9
$AUNITS
 70
     0
  9
$AUPREC
 70
     2
  9
$MENU
  1
.
  9
$ELEVATION
 40
0.0
  9
$PELEVATION
 40
0.0
  9
$THICKNESS
 40
0.0
  9
$LIMCHECK
 70
     0
  9
$CHAMFERA
 40
0.0
  9
$CHAMFERB
 40
0.0
  9
$CHAMFERC
 40
0.0
  9
$CHAMFERD
 40
0.0
  9
$SKPOLY
 70
     0
  9
$TDCREATE
 40
2458829.584894306
  9
$TDUCREATE
 40
2458829.584894306
  9
$TDUPDATE
 40
2458829.585004965
  9
$TDUUPDATE
 40
2458829.585004965
  9
$TDINDWG
 40
0.0000000116
  9
$TDUSRTIMER
 40
0.0000000116
  9
$USRTIMER
 70
     1
  9
$ANGBASE
 50
0.0
  9
$ANGDIR
 70
     0
  9
$PDMODE
 70
     0
  9
$PDSIZE
 40
-1.0
  9
$PLINEWID
 40
0.0
  9
$SPLFRAME
 70
     0
  9
$SPLINETYPE
 70
     6
  9
$SPLINESEGS
 70
     8
  9
$HANDSEED
  5
195
  9
$SURFTAB1
 70
     6
  9
$SURFTAB2
 70
     6
  9
$SURFTYPE
 70
     6
  9
$SURFU
 70
     6
  9
$SURFV
 70
     6
  9
$UCSBASE
  2

  9
$UCSNAME
  2

  9
$UCSORG
 10
0.0
 20
0.0
 30
0.0
  9
$UCSXDIR
 10
1.0
 20
0.0
 30
0.0
  9
$UCSYDIR
 10
0.0
 20
1.0
 30
0.0
  9
$UCSORTHOREF
  2

  9
$UCSORTHOVIEW
 70
     0
  9
$UCSORGTOP
 10
0.0
 20
0.0
 30
0.0
  9
$UCSORGBOTTOM
 10
0.0
 20
0.0
 30
0.0
  9
$UCSORGLEFT
 10
0.0
 20
0.0
 30
0.0
  9
$UCSORGRIGHT
 10
0.0
 20
0.0
 30
0.0
  9
$UCSORGFRONT
 10
0.0
 20
0.0
 30
0.0
  9
$UCSORGBACK
 10
0.0
 20
0.0
 30
0.0
  9
$PUCSBASE
  2

  9
$PUCSNAME
  2

  9
$PUCSORG
 10
0.0
 20
0.0
 30
0.0
  9
$PUCSXDIR
 10
1.0
 20
0.0
 30
0.0
  9
$PUCSYDIR
 10
0.0
 20
1.0
 30
0.0
  9
$PUCSORTHOREF
  2

  9
$PUCSORTHOVIEW
 70
     0
  9
$PUCSORGTOP
 10
0.0
 20
0.0
 30
0.0
  9
$PUCSORGBOTTOM
 10
0.0
 20
0.0
 30
0.0
  9
$PUCSORGLEFT
 10
0.0
 20
0.0
 30
0.0
  9
$PUCSORGRIGHT
 10
0.0
 20
0.0
 30
0.0
  9
$PUCSORGFRONT
 10
0.0
 20
0.0
 30
0.0
  9
$PUCSORGBACK
 10
0.0
 20
0.0
 30
0.0
  9
$USERI1
 70
     0
  9
$USERI2
 70
     0
  9
$USERI3
 70
     0
  9
$USERI4
 70
     0
  9
$USERI5
 70
     0
  9
$USERR1
 40
0.0
  9
$USERR2
 40
0.0
  9
$USERR3
 40
0.0
  9
$USERR4
 40
0.0
  9
$USERR5
 40
0.0
  9
$WORLDVIEW
 70
     1
  9
$SHADEDGE
 70
     3
  9
$SHADEDIF
 70
    70
  9
$TILEMODE
 70
     0
  9
$MAXACTVP
 70
    64
  9
$PINSBASE
 10
0.0
 20
0.0
 30
0.0
  9
$PLIMCHECK
 70
     0
  9
$PEXTMIN
 10
-349.7848794989
 20
-187.2848794989
 30
0.0
  9
$PEXTMAX
 10
349.7848794989
 20
187.5
 30
0.0
  9
$PLIMMIN
 10
0.0
 20
0.0
  9
$PLIMMAX
 10
0.0
 20
0.0
  9
$UNITMODE
 70
     0
  9
$VISRETAIN
 70
     1
  9
$PLINEGEN
 70
     0
  9
$PSLTSCALE
 70
     1
  9
$TREEDEPTH
 70
  3020
  9
$CMLSTYLE
  2
Standard
  9
$CMLJUST
 70
     0
  9
$CMLSCALE
 40
20.0
  9
$PROXYGRAPHICS
 70
     1
  9
$MEASUREMENT
 70
     1
  9
$CELWEIGHT
370
    -1
  9
$ENDCAPS
280
     0
  9
$JOINSTYLE
280
     0
  9
$LWDISPLAY
290
     1
  9
$INSUNITS
 70
     4
  9
$HYPERLINKBASE
  1

  9
$STYLESHEET
  1

  9
$XEDIT
290
     1
  9
$CEPSNTYPE
380
     0
  9
$PSTYLEMODE
290
     1
  9
$FINGERPRINTGUID
  2
{d56b1d63-6a0c-4c15-9e51-57ffb5cfdc7d}
  9
$VERSIONGUID
  2
{FAEB1C32-E019-11D5-929B-00C0DF256EC4}
  9
$EXTNAMES
290
     1
  9
$PSVPSCALE
 40
0.0
  9
$OLESTARTUP
290
     0
  0
ENDSEC
  0
SECTION
  2
CLASSES
  0
CLASS
  1
ACDBDICTIONARYWDFLT
  2
AcDbDictionaryWithDefault
  3
ObjectDBX Classes
 90
        0
280
     0
281
     0
  0
CLASS
  1
VISUALSTYLE
  2
AcDbVisualStyle
  3
ObjectDBX Classes
 90
     4095
280
     0
281
     0
  0
CLASS
  1
MATERIAL
  2
AcDbMaterial
  3
ObjectDBX Classes
 90
     1153
280
     0
281
     0
  0
CLASS
  1
SCALE
  2
AcDbScale
  3
ObjectDBX Classes
 90
     1153
280
     0
281
     0
  0
CLASS
  1
TABLESTYLE
  2
AcDbTableStyle
  3
ObjectDBX Classes
 90
     4095
280
     0
281
     0
  0
CLASS
  1
MLEADERSTYLE
  2
AcDbMLeaderStyle
  3
ACDB_MLEADERSTYLE_CLASS
 90
     4095
280
     0
281
     0
  0
CLASS
  1
SUN
  2
AcDbSun
  3
SCENEOE
 90
     1153
280
     0
281
     0
  0
CLASS
  1
ACDBPLACEHOLDER
  2
AcDbPlaceHolder
  3
ObjectDBX Classes
 90
        0
280
     0
281
     0
  0
CLASS
  1
LAYOUT
  2
AcDbLayout
  3
ObjectDBX Classes
 90
        0
280
     0
281
     0
  0
ENDSEC
  0
SECTION
  2
TABLES
  0
TABLE
  2
VPORT
  5
8
330
0
100
AcDbSymbolTable
 70
     1
  0
VPORT
  5
29
330
8
100
AcDbSymbolTableRecord
100
AcDbViewportTableRecord
  2
*Active
 70
     0
 10
0.0
 20
0.0
 11
1.0
 21
1.0
 12
0.0
 22
0.1075602506
 13
0.0
 23
0.0
 14
10.0
 24
10.0
 15
10.0
 25
10.0
 16
0.0
 26
0.0
 36
1.0
 17
0.0
 27
0.0
 37
0.0
 40
382.2805770889
 41
1.8665901355
 42
50.0
 43
0.0
 44
0.0
 50
0.0
 51
0.0
 71
     0
 72
   100
 73
     1
 74
     3
 75
     0
 76
     0
 77
     0
 78
     0
281
     0
 65
     1
110
0.0
120
0.0
130
0.0
111
1.0
121
0.0
131
0.0
112
0.0
122
1.0
132
0.0
 79
     0
146
0.0
  0
ENDTAB
  0
TABLE
  2
LTYPE
  5
5
330
0
100
AcDbSymbolTable
 70
     6
  0
LTYPE
  5
14
330
5
100
AcDbSymbolTableRecord
100
AcDbLinetypeTableRecord
  2
ByBlock
 70
     0
  3

 72
    65
 73
     0
 40
0.0
  0
LTYPE
  5
15
330
5
100
AcDbSymbolTableRecord
100
AcDbLinetypeTableRecord
  2
ByLayer
 70
     0
  3

 72
    65
 73
     0
 40
0.0
  0
LTYPE
  5
16
330
5
100
AcDbSymbolTableRecord
100
AcDbLinetypeTableRecord
  2
Continuous
 70
     0
  3
Solid line
 72
    65
 73
     0
 40
0.0
  0
LTYPE
  5
6E
330
5
100
AcDbSymbolTableRecord
100
AcDbLinetypeTableRecord
  2
HIDDEN
 70
     0
  3
Hidden __ __ __ __ __ __ __ __ __ __ __ __ __ __
 72
    65
 73
     2
 40
1.905
 49
1.27
 74
     0
 49
-0.635
 74
     0
  0
LTYPE
  5
6F
330
5
100
AcDbSymbolTableRecord
100
AcDbLinetypeTableRecord
  2
PHANTOM
 70
     0
  3
Phantom ______  __  __  ______  __  __  ______
 72
    65
 73
     6
 40
12.7
 49
6.35
 74
     0
 49
-1.27
 74
     0
 49
1.27
 74
     0
 49
-1.27
 74
     0
 49
1.27
 74
     0
 49
-1.27
 74
     0
  0
LTYPE
  5
70
330
5
100
AcDbSymbolTableRecord
100
AcDbLinetypeTableRecord
  2
CENTER
 70
     0
  3
Center ____ _ ____ _ ____ _ ____ _ ____ _ ____
 72
    65
 73
     4
 40
10.16
 49
6.35
 74
     0
 49
-1.27
 74
     0
 49
1.27
 74
     0
 49
-1.27
 74
     0
  0
LTYPE
  5
71
330
5
100
AcDbSymbolTableRecord
100
AcDbLinetypeTableRecord
  2
CENTERX2
 70
     0
  3
Center (2x) ________  __  ________  __  _____
 72
    65
 73
     4
 40
20.32
 49
12.7
 74
     0
 49
-2.54
 74
     0
 49
2.54
 74
     0
 49
-2.54
 74
     0
  0
LTYPE
  5
72
330
5
100
AcDbSymbolTableRecord
100
AcDbLinetypeTableRecord
  2
DOT2
 70
     0
  3
Dot (.5x) ........................................
 72
    65
 73
     2
 40
0.635
 49
0.0
 74
     0
 49
-0.635
 74
     0
  0
ENDTAB
  0
TABLE
  2
LAYER
  5
2
330
0
100
AcDbSymbolTable
 70
     1
  0
LAYER
  5
10
330
2
100
AcDbSymbolTableRecord
100
AcDbLayerTableRecord
  2
0
 70
     0
 62
     7
  6
Continuous
370
    -3
390
F
  0
ENDTAB
  0
TABLE
  2
STYLE
  5
3
330
0
100
AcDbSymbolTable
 70
     1
  0
STYLE
  5
11
330
3
100
AcDbSymbolTableRecord
100
AcDbTextStyleTableRecord
  2
Standard
 70
     0
 40
0.0
 41
1.0
 50
0.0
 71
     0
 42
3.5
  3
txt
  4

  0
ENDTAB
  0
TABLE
  2
VIEW
  5
6
330
0
100
AcDbSymbolTable
 70
     0
  0
ENDTAB
  0
TABLE
  2
UCS
  5
7
330
0
100
AcDbSymbolTable
 70
     0
  0
ENDTAB
  0
TABLE
  2
APPID
  5
9
330
0
100
AcDbSymbolTable
 70
     1
  0
APPID
  5
12
330
9
100
AcDbSymbolTableRecord
100
AcDbRegAppTableRecord
  2
ACAD
 70
     0
  0
ENDTAB
  0
TABLE
  2
DIMSTYLE
  5
A
330
0
100
AcDbSymbolTable
 70
     1
100
AcDbDimStyleTable
  0
DIMSTYLE
105
27
330
A
100
AcDbSymbolTableRecord
100
AcDbDimStyleTableRecord
  2
ISO-25
 70
     0
 41
2.5
 42
0.625
 43
3.75
 44
1.25
 73
     0
 74
     0
 77
     1
 78
     8
140
2.5
141
2.5
143
0.0393700787
147
0.625
171
     3
172
     1
178
     0
271
     2
272
     2
274
     3
278
    44
283
     0
284
     8
340
11
  0
ENDTAB
  0
TABLE
  2
BLOCK_RECORD
  5
1
330
0
100
AcDbSymbolTable
 70
     1
  0
BLOCK_RECORD
  5
1F
330
1
100
AcDbSymbolTableRecord
100
AcDbBlockTableRecord
  2
*Model_Space
340
22
  0
BLOCK_RECORD
  5
23
330
1
100
AcDbSymbolTableRecord
100
AcDbBlockTableRecord
  2
*Paper_Space
340
26
  0
BLOCK_RECORD
  5
1B
330
1
100
AcDbSymbolTableRecord
100
AcDbBlockTableRecord
  2
*Paper_Space0
340
1E
  0
ENDTAB
  0
ENDSEC
  0
SECTION
  2
BLOCKS
  0
BLOCK
  5
20
330
1F
100
AcDbEntity
  8
0
100
AcDbBlockBegin
  2
*Model_Space
 70
     0
 10
0.0
 20
0.0
 30
0.0
  3
*Model_Space
  1

  0
ENDBLK
  5
21
330
1F
100
AcDbEntity
  8
0
100
AcDbBlockEnd
  0
BLOCK
  5
24
330
23
100
AcDbEntity
 67
     1
  8
0
100
AcDbBlockBegin
  2
*Paper_Space
 70
     0
 10
0.0
 20
0.0
 30
0.0
  3
*Paper_Space
  1

  0
ENDBLK
  5
25
330
23
100
AcDbEntity
 67
     1
  8
0
100
AcDbBlockEnd
  0
BLOCK
  5
1C
330
1B
100
AcDbEntity
  8
0
100
AcDbBlockBegin
  2
*Paper_Space0
 70
     0
 10
0.0
 20
0.0
 30
0.0
  3
*Paper_Space0
  1

  0
SPLINE
  5
D7
330
1B
100
AcDbEntity
  8
0
  6
Continuous
 62
     7
370
    25
100
AcDbSpline
210
0.0
220
0.0
230
1.0
 70
     8
 71
     3
 72
    16
 73
    12
 74
     0
 42
0.000000001
 43
0.00000001
 40
0.0
 40
0.0
 40
0.0
 40
0.0
 40
0.0328211262337133
 40
0.1971662824548018
 40
0.3419046334400809
 40
0.4624875853607998
 40
0.5554828578094086
 40
0.6261648019959412
 40
0.7035830928564535
 40
0.8319338999630722
 40
1.0
 40
1.0
 40
1.0
 40
1.0
 10
-161.8885628200433
 20
-134.9747312567661
 30
0.0
 10
-161.835124038059
 20
-134.9777899690537
 30
0.0
 10
-161.5141013556644
 20
-134.9961645649331
 30
0.0
 10
-160.9592221799201
 20
-134.8997021496035
 30
0.0
 10
-160.2878217754898
 20
-134.7179139916239
 30
0.0
 10
-159.7622127594119
 20
-134.4909905831288
 30
0.0
 10
-159.4001340503096
 20
-134.2909412210663
 30
0.0
 10
-159.1839706112321
 20
-134.1533967327391
 30
0.0
 10
-159.0293151427016
 20
-134.0469931670893
 30
0.0
 10
-158.9100049941339
 20
-133.9594511040309
 30
0.0
 10
-158.8520224221406
 20
-133.9147800793337
 30
0.0
 10
-158.8191467510497
 20
-133.8894519528856
 30
0.0
  0
SPLINE
  5
D8
330
1B
100
AcDbEntity
  8
0
  6
Continuous
 62
     7
370
    25
100
AcDbSpline
210
0.0
220
0.0
230
1.0
 70
     8
 71
     3
 72
    15
 73
    11
 74
     0
 42
0.000000001
 43
0.00000001
 40
0.0
 40
0.0
 40
0.0
 40
0.0
 40
0.1614577109235131
 40
0.359573836837481
 40
0.470108487532546
 40
0.5403014309580745
 40
0.6305983674154755
 40
0.7467109640608992
 40
0.9142900759210693
 40
1.0
 40
1.0
 40
1.0
 40
1.0
 10
158.6971071628565
 20
-133.7937782257608
 30
0.0
 10
158.7337773814278
 20
-133.8228605536223
 30
0.0
 10
158.8154436649016
 20
-133.8876282513278
 30
0.0
 10
158.9295023998267
 20
-133.9743329509188
 30
0.0
 10
159.1186739366999
 20
-134.1110397260977
 30
0.0
 10
159.4093412858525
 20
-134.2980901170032
 30
0.0
 10
159.8569069838281
 20
-134.5413741847662
 30
0.0
 10
160.5399924874034
 20
-134.8031516608297
 30
0.0
 10
161.2617074240548
 20
-134.9825905025076
 30
0.0
 10
161.7659087481511
 20
-134.9622226406129
 30
0.0
 10
161.9365243338143
 20
-134.9553304042783
 30
0.0
  0
SPLINE
  5
DC
330
1B
100
AcDbEntity
  8
0
  6
Continuous
 62
     7
370
    25
100
AcDbSpline
210
0.0
220
0.0
230
1.0
 70
     8
 71
     3
 72
    15
 73
    11
 74
     0
 42
0.000000001
 43
0.00000001
 40
0.0
 40
0.0
 40
0.0
 40
0.0
 40
0.0854066259605627
 40
0.2406470975574371
 40
0.4045024344046026
 40
0.5512116673680626
 40
0.6848227935523455
 40
0.8074155799870885
 40
0.9192538286934656
 40
1.0
 40
1.0
 40
1.0
 40
1.0
 10
-39.82984529079341
 20
-155.0342245267964
 30
0.0
 10
-39.61332357951815
 20
-155.0345864946518
 30
0.0
 10
-39.00323834560879
 20
-155.0356063981174
 30
0.0
 10
-38.00438905268003
 20
-155.349567960136
 30
0.0
 10
-36.9661093311032
 20
-155.9337688370867
 30
0.0
 10
-36.1443186914429
 20
-156.7169366655846
 30
0.0
 10
-35.57252006889771
 20
-157.5596479109527
 30
0.0
 10
-35.22078559741787
 20
-158.3926981410395
 30
0.0
 10
-35.04790522110694
 20
-159.1252276872159
 30
0.0
 10
-35.02709062625112
 20
-159.5052777269823
 30
0.0
 10
-35.01836355039632
 20
-159.6646238756166
 30
0.0
  0
SPLINE
  5
101
330
1B
100
AcDbEntity
  8
0
  6
Continuous
 62
     7
370
    25
100
AcDbSpline
210
0.0
220
0.0
230
1.0
 70
     8
 71
     3
 72
    40
 73
    36
 74
     0
 42
0.000000001
 43
0.00000001
 40
0.0
 40
0.0
 40
0.0
 40
0.0
 40
0.0625000000000006
 40
0.0625000000000006
 40
0.1250000000000011
 40
0.1250000000000011
 40
0.1875000000000017
 40
0.1875000000000017
 40
0.2187500000000018
 40
0.2187500000000018
 40
0.2500000000000019
 40
0.2500000000000019
 40
0.3750000000000004
 40
0.3750000000000004
 40
0.4062500000000003
 40
0.4062500000000003
 40
0.4375000000000001
 40
0.4375000000000001
 40
0.5000000000000004
 40
0.5000000000000004
 40
0.562500000000001
 40
0.562500000000001
 40
0.5937500000000008
 40
0.5937500000000008
 40
0.6250000000000004
 40
0.6250000000000004
 40
0.7499999999999993
 40
0.7499999999999993
 40
0.7812499999999996
 40
0.7812499999999996
 40
0.8124999999999998
 40
0.8124999999999998
 40
0.8749999999999999
 40
0.8749999999999999
 40
1.0
 40
1.0
 40
1.0
 40
1.0
 10
126.8346708161641
 20
-121.310064784952
 30
0.0
 10
128.1091948624072
 20
-121.3100647849521
 30
0.0
 10
129.3835064531636
 20
-121.3568174695365
 30
0.0
 10
131.8920815304244
 20
-121.5394133438261
 30
0.0
 10
133.1309910732235
 20
-121.6751145109308
 30
0.0
 10
135.5782415094322
 20
-122.0312238888782
 30
0.0
 10
136.7865817250053
 20
-122.2516471457611
 30
0.0
 10
138.5754607644286
 20
-122.643351714814
 30
0.0
 10
139.1697412745015
 20
-122.7846185068003
 30
0.0
 10
140.3392669479414
 20
-123.0842664096503
 30
0.0
 10
140.9141511517331
 20
-123.242459434554
 30
0.0
 10
143.7402346325654
 20
-124.0716582242431
 30
0.0
 10
145.8476524653349
 20
-124.8573434660533
 30
0.0
 10
148.2933120325609
 20
-125.9371037005739
 30
0.0
 10
148.7740132649737
 20
-126.1584905652101
 30
0.0
 10
149.7045446079056
 20
-126.6037907352424
 30
0.0
 10
150.1557265647052
 20
-126.8282577560807
 30
0.0
 10
151.4686575892645
 20
-127.5044787453964
 30
0.0
 10
152.2898666758685
 20
-127.9590334073514
 30
0.0
 10
153.8307711442885
 20
-128.8623157198108
 30
0.0
 10
154.5504535697557
 20
-129.3110654160517
 30
0.0
 10
155.5571009339817
 20
-129.9701443593564
 30
0.0
 10
155.8814347085045
 20
-130.188158118837
 30
0.0
 10
156.5006017772187
 20
-130.6140305975603
 30
0.0
 10
156.795441915999
 20
-130.8218448963203
 30
0.0
 10
158.2001985446588
 20
-131.8326422094317
 30
0.0
 10
159.1040619361022
 20
-132.5505627798807
 30
0.0
 10
160.0025286654933
 20
-133.2960538988753
 30
0.0
 10
160.170516248352
 20
-133.4375653576239
 30
0.0
 10
160.4836329966981
 20
-133.7044472403936
 30
0.0
 10
160.6286368953758
 20
-133.8297181093754
 30
0.0
 10
161.0261543078765
 20
-134.1765127854484
 30
0.0
 10
161.2430671815552
 20
-134.3705219132093
 30
0.0
 10
161.7619881589156
 20
-134.8388708639387
 30
0.0
 10
161.9340903750426
 20
-134.9999999999999
 30
0.0
 10
161.9407086862825
 20
-135.0
 30
0.0
  0
SPLINE
  5
103
330
1B
100
AcDbEntity
  8
0
  6
Continuous
 62
     7
370
    25
100
AcDbSpline
210
0.0
220
0.0
230
1.0
 70
     8
 71
     3
 72
    36
 73
    32
 74
     0
 42
0.000000001
 43
0.00000001
 40
0.0
 40
0.0
 40
0.0
 40
0.0
 40
0.125000000000002
 40
0.125000000000002
 40
0.1875000000000029
 40
0.1875000000000029
 40
0.2500000000000038
 40
0.2500000000000038
 40
0.3750000000000043
 40
0.3750000000000043
 40
0.4062500000000039
 40
0.4062500000000039
 40
0.4375000000000036
 40
0.4375000000000036
 40
0.5000000000000026
 40
0.5000000000000026
 40
0.5625000000000017
 40
0.5625000000000017
 40
0.593750000000001
 40
0.593750000000001
 40
0.6250000000000002
 40
0.6250000000000002
 40
0.7499999999999979
 40
0.7499999999999979
 40
0.7812499999999983
 40
0.7812499999999983
 40
0.8124999999999988
 40
0.8124999999999988
 40
0.8749999999999992
 40
0.8749999999999992
 40
1.0
 40
1.0
 40
1.0
 40
1.0
 10
-161.9407086862825
 20
-135.0
 30
0.0
 10
-161.9340850042579
 20
-134.9999999999999
 30
0.0
 10
-161.7617074104059
 20
-134.8386186728667
 30
0.0
 10
-161.2433296651947
 20
-134.3707582180342
 30
0.0
 10
-161.0267575342065
 20
-134.1770545605174
 30
0.0
 10
-160.4980351797801
 20
-133.7157655669533
 30
0.0
 10
-160.1838822380837
 20
-133.4465352352991
 30
0.0
 10
-159.1017916851628
 20
-132.5486679546174
 30
0.0
 10
-158.1944163890301
 20
-131.8280841783092
 30
0.0
 10
-156.7848415607325
 20
-130.8143188730002
 30
0.0
 10
-156.4890168023125
 20
-130.6059283793415
 30
0.0
 10
-155.8678593238147
 20
-130.1789601973418
 30
0.0
 10
-155.5435288329796
 20
-129.9611068445741
 30
0.0
 10
-154.5360961579632
 20
-129.3019777889421
 30
0.0
 10
-153.8157003981064
 20
-128.8531102718395
 30
0.0
 10
-152.2727920982136
 20
-127.9494029910822
 30
0.0
 10
-151.4502933825802
 20
-127.4945410302326
 30
0.0
 10
-150.1348176087725
 20
-126.8177366271151
 30
0.0
 10
-149.6826852943074
 20
-126.5930550998237
 30
0.0
 10
-148.7500129022045
 20
-126.1472941926231
 30
0.0
 10
-148.2685605168006
 20
-125.9258759141958
 30
0.0
 10
-145.8221676792889
 20
-124.8473309872394
 30
0.0
 10
-143.7170952472396
 20
-124.0640522157959
 30
0.0
 10
-140.8991651230552
 20
-123.2382703481355
 30
0.0
 10
-140.3261750444666
 20
-123.0807782620958
 30
0.0
 10
-139.1610168722177
 20
-122.7825195586347
 30
0.0
 10
-138.5669411913003
 20
-122.6413458590176
 30
0.0
 10
-136.769369782439
 20
-122.2481630667532
 30
0.0
 10
-135.5577156249853
 20
-122.027724164644
 30
0.0
 10
-131.8846058004486
 20
-121.4947872358556
 30
0.0
 10
-129.385485957115
 20
-121.3100647849521
 30
0.0
 10
-126.8346708161647
 20
-121.3100647849521
 30
0.0
  0
SPLINE
  5
106
330
1B
100
AcDbEntity
  8
0
  6
Continuous
 62
     7
370
    25
100
AcDbSpline
210
0.0
220
0.0
230
1.0
 70
     8
 71
     3
 72
    18
 73
    14
 74
     0
 42
0.000000001
 43
0.00000001
 40
0.0
 40
0.0
 40
0.0
 40
0.0
 40
0.0973118603246677
 40
0.1946023819528083
 40
0.2920889305625314
 40
0.3895579943193337
 40
0.4841522435127406
 40
0.5787714652396014
 40
0.6737454937284586
 40
0.7687675365316045
 40
0.8735303354914083
 40
0.9783376561983941
 40
1.0
 40
1.0
 40
1.0
 40
1.0
 10
-126.8346708161641
 20
-122.4478468546349
 30
0.0
 10
-128.528580817927
 20
-122.4974185757554
 30
0.0
 10
-131.9160293782254
 20
-122.5965511478321
 30
0.0
 10
-136.8711475087391
 20
-123.351255264222
 30
0.0
 10
-141.5437077628363
 20
-124.5165308504683
 30
0.0
 10
-145.7661479964243
 20
-125.9954638958241
 30
0.0
 10
-149.3993776572831
 20
-127.6428527651924
 30
0.0
 10
-152.4209352531471
 20
-129.2976435060352
 30
0.0
 10
-154.8041562242251
 20
-130.8213922789738
 30
0.0
 10
-156.6587175090318
 20
-132.159986474929
 30
0.0
 10
-157.8986132445959
 20
-133.135633448861
 30
0.0
 10
-158.4681266913429
 20
-133.6187188019738
 30
0.0
 10
-158.5309767638954
 20
-133.6681336313039
 30
0.0
 10
-158.5417420322692
 20
-133.6765976453898
 30
0.0
  0
SPLINE
  5
107
330
1B
100
AcDbEntity
  8
0
  6
Continuous
 62
     7
370
    25
100
AcDbSpline
210
0.0
220
0.0
230
1.0
 70
     8
 71
     3
 72
    17
 73
    13
 74
     0
 42
0.000000001
 43
0.00000001
 40
0.0
 40
0.0
 40
0.0
 40
0.0
 40
0.0482309094223863
 40
0.1711247763585087
 40
0.2909784901337001
 40
0.4150870367041755
 40
0.5226017045234124
 40
0.6340936224281937
 40
0.7296395697173047
 40
0.8279751740754084
 40
0.9131007577587316
 40
1.0
 40
1.0
 40
1.0
 40
1.0
 10
158.4230917679917
 20
-133.5775873117414
 30
0.0
 10
158.3879006449577
 20
-133.5488495149504
 30
0.0
 10
158.2630414388776
 20
-133.4468869123833
 30
0.0
 10
157.2584943141664
 20
-132.6175064246242
 30
0.0
 10
155.3026458171137
 20
-131.1546613031008
 30
0.0
 10
152.4619366195853
 20
-129.302476000591
 30
0.0
 10
148.8136183464418
 20
-127.3348358965749
 30
0.0
 10
144.7387486363372
 20
-125.5873552902684
 30
0.0
 10
140.2387090514098
 20
-124.1413799740597
 30
0.0
 10
135.7755208603213
 20
-123.1593653630887
 30
0.0
 10
131.2532399014318
 20
-122.5572263132198
 30
0.0
 10
128.3176164072031
 20
-122.484556427967
 30
0.0
 10
126.8346708161641
 20
-122.4478468546349
 30
0.0
  0
SPLINE
  5
109
330
1B
100
AcDbEntity
  8
0
  6
Continuous
 62
     7
370
    25
100
AcDbSpline
210
0.0
220
0.0
230
1.0
 70
     8
 71
     3
 72
    30
 73
    26
 74
     0
 42
0.000000001
 43
0.00000001
 40
0.0
 40
0.0
 40
0.0
 40
0.0
 40
0.0156250000000016
 40
0.0156250000000016
 40
0.0312500000000032
 40
0.0312500000000032
 40
0.0625000000000017
 40
0.0625000000000017
 40
0.0937500000000002
 40
0.0937500000000002
 40
0.1249999999999988
 40
0.1249999999999988
 40
0.1874999999999987
 40
0.1874999999999987
 40
0.2499999999999987
 40
0.2499999999999987
 40
0.3749999999999987
 40
0.3749999999999987
 40
0.4999999999999986
 40
0.4999999999999986
 40
0.7499999999999997
 40
0.7499999999999997
 40
0.8749999999999999
 40
0.8749999999999999
 40
1.0
 40
1.0
 40
1.0
 40
1.0
 10
-33.76360035351071
 20
-150.0
 30
0.0
 10
-33.75209207100642
 20
-150.0870805908404
 30
0.0
 10
-33.74695806334704
 20
-150.1740363434537
 30
0.0
 10
-33.7494139642013
 20
-150.3476991398247
 30
0.0
 10
-33.75725657874822
 20
-150.4350527739654
 30
0.0
 10
-33.79656236073899
 20
-150.6833517819194
 30
0.0
 10
-33.84314002050066
 20
-150.8337528907768
 30
0.0
 10
-33.95307426866727
 20
-151.1042698723308
 30
0.0
 10
-34.0170020722483
 20
-151.2262577377809
 30
0.0
 10
-34.15207591675277
 20
-151.4512909496331
 30
0.0
 10
-34.22322603807626
 20
-151.5541253072118
 30
0.0
 10
-34.44096662552009
 20
-151.8426973545411
 30
0.0
 10
-34.59258916372542
 20
-152.0103156804583
 30
0.0
 10
-34.8998410546634
 20
-152.32076437651
 30
0.0
 10
-35.05596404222224
 20
-152.4631250644729
 30
0.0
 10
-35.5220102547291
 20
-152.8619361036724
 30
0.0
 10
-35.83078479999106
 20
-153.0921320250735
 30
0.0
 10
-36.43611572395656
 20
-153.5114258287533
 30
0.0
 10
-36.73287402123169
 20
-153.6996228288869
 30
0.0
 10
-37.599224373162
 20
-154.2125521830629
 30
0.0
 10
-38.14048716584043
 20
-154.4846538135894
 30
0.0
 10
-38.8786773641442
 20
-154.7795820311577
 30
0.0
 10
-39.11298368647781
 20
-154.8586270218509
 30
0.0
 10
-39.5526172202863
 20
-154.9688211923584
 30
0.0
 10
-39.75745005699222
 20
-155.0
 30
0.0
 10
-39.94559304482723
 20
-155.0
 30
0.0
  0
LWPOLYLINE
  5
10D
330
1B
100
AcDbEntity
  8
0
  6
Continuous
 62
     7
370
    25
100
AcDbPolyline
 90
        9
 70
   128
 43
0.0
 10
-88.6399365206
 20
-150.0
 10
-88.569996161
 20
-150.9754516101
 10
-88.362862851
 20
-151.9134171618
 10
-88.0264966076
 20
-152.7778511651
 10
-87.5738237968
 20
-153.5355339059
 10
-87.0222403809
 20
-154.1573480615
 10
-86.3929434013
 20
-154.6193976626
 10
-85.7101163879
 20
-154.903926402
 10
-85.0
 20
-155.0
  0
SPLINE
  5
117
330
1B
100
AcDbEntity
  8
0
  6
Continuous
 62
     8
370
    25
100
AcDbSpline
210
0.0
220
0.0
230
1.0
 70
     8
 71
     3
 72
    15
 73
    11
 74
     0
 42
0.000000001
 43
0.00000001
 40
0.0
 40
0.0
 40
0.0
 40
0.0
 40
0.0735127445001499
 40
0.161295450458205
 40
0.3086910041862429
 40
0.4611446990618948
 40
0.6175518188470784
 40
0.7836580292684401
 40
0.9539535708688887
 40
1.0
 40
1.0
 40
1.0
 40
1.0
 10
-32.77173237340855
 20
-149.8255025164875
 30
0.0
 10
-32.76044261930895
 20
-150.2681425542358
 30
0.0
 10
-32.73567159510842
 20
-151.2393459117611
 30
0.0
 10
-32.97213836984525
 20
-152.9553704533373
 30
0.0
 10
-33.43922922629467
 20
-154.714925334272
 30
0.0
 10
-34.0044285202924
 20
-156.3776349593193
 30
0.0
 10
-34.50777234567047
 20
-157.7937044117268
 30
0.0
 10
-34.86290031216818
 20
-158.8934947971028
 30
0.0
 10
-35.0288576575053
 20
-159.5506719704077
 30
0.0
 10
-34.99661790782142
 20
-159.6427772388139
 30
0.0
 10
-34.98975596908617
 20
-159.6623810110266
 30
0.0
  0
SPLINE
  5
118
330
1B
100
AcDbEntity
  8
0
  6
Continuous
 62
     8
370
    25
100
AcDbSpline
210
0.0
220
0.0
230
1.0
 70
     8
 71
     3
 72
     9
 73
     5
 74
     0
 42
0.000000001
 43
0.00000001
 40
0.0
 40
0.0
 40
0.0
 40
0.0
 40
0.5286096891066389
 40
0.9999999999999999
 40
0.9999999999999999
 40
0.9999999999999999
 40
0.9999999999999999
 10
-34.36055618515773
 20
-122.4508927195394
 30
0.0
 10
-34.09348868199289
 20
-127.2758754668531
 30
0.0
 10
-33.58826240886845
 20
-136.403560499392
 30
0.0
 10
-33.03332465413761
 20
-145.5255058579599
 30
0.0
 10
-32.77173237340855
 20
-149.8255025164875
 30
0.0
  0
SPLINE
  5
119
330
1B
100
AcDbEntity
  8
0
  6
Continuous
 62
     8
370
    25
100
AcDbSpline
210
0.0
220
0.0
230
1.0
 70
     8
 71
     3
 72
     9
 73
     5
 74
     0
 42
0.000000001
 43
0.00000001
 40
0.0
 40
0.0
 40
0.0
 40
0.0
 40
0.4684395167839451
 40
1.0
 40
1.0
 40
1.0
 40
1.0
 10
-33.76360035351071
 20
-150.0
 30
0.0
 10
-34.04235846014779
 20
-145.7001400228497
 30
0.0
 10
-34.63743657941253
 20
-136.5210254881262
 30
0.0
 10
-35.1739856402022
 20
-127.3342301099629
 30
0.0
 10
-35.45919391822468
 20
-122.4508927195394
 30
0.0
  0
LINE
  5
11B
330
1B
100
AcDbEntity
  8
0
  6
Continuous
 62
     7
370
    25
100
AcDbLine
 10
-126.8346708162
 20
-122.4508927195
 30
0.0
 11
126.8346708162
 21
-122.4508927195
 31
0.0
  0
LINE
  5
11C
330
1B
100
AcDbEntity
  8
0
  6
Continuous
 62
     7
370
    25
100
AcDbLine
 10
-35.0117630781
 20
-159.6631495162
 30
0.0
 11
-35.0
 21
-160.0
 31
0.0
  0
LINE
  5
11D
330
1B
100
AcDbEntity
  8
0
  6
Continuous
 62
     7
370
    25
100
AcDbLine
 10
35.0
 20
-160.0
 30
0.0
 11
36.31124372
 21
-122.4508927195
 31
0.0
  0
LINE
  5
11E
330
1B
100
AcDbEntity
  8
0
  6
Continuous
 62
     7
370
    25
100
AcDbLine
 10
349.7793976379
 20
-4.209343825
 30
0.0
 11
-349.7793976379
 21
-4.209343825
 31
0.0
  0
LINE
  5
11F
330
1B
100
AcDbEntity
  8
0
  6
Continuous
 62
     7
370
    25
100
AcDbLine
 10
-305.0
 20
-59.9722722984
 30
0.0
 11
-305.0
 21
0.0
 31
0.0
  0
LINE
  5
120
330
1B
100
AcDbEntity
  8
0
  6
Continuous
 62
     7
370
    25
100
AcDbLine
 10
305.0
 20
-59.9722722984
 30
0.0
 11
305.0
 21
0.0
 31
0.0
  0
LINE
  5
121
330
1B
100
AcDbEntity
  8
0
  6
Continuous
 62
     7
370
    25
100
AcDbLine
 10
-345.7848794989
 20
0.0
 30
0.0
 11
345.7848794989
 21
0.0
 31
0.0
  0
LINE
  5
122
330
1B
100
AcDbEntity
  8
0
  6
Continuous
 62
     7
370
    25
100
AcDbLine
 10
-347.0541931152
 20
-56.209343825
 30
0.0
 11
347.0541931152
 21
-56.209343825
 31
0.0
  0
LINE
  5
123
330
1B
100
AcDbEntity
  8
0
  6
Continuous
 62
     7
370
    25
100
AcDbLine
 10
-347.0541931152
 20
-56.209343825
 30
0.0
 11
-349.7793976379
 21
-4.209343825
 31
0.0
  0
LINE
  5
124
330
1B
100
AcDbEntity
  8
0
  6
Continuous
 62
     7
370
    25
100
AcDbLine
 10
347.0541931152
 20
-56.209343825
 30
0.0
 11
349.7793976379
 21
-4.209343825
 31
0.0
  0
LINE
  5
125
330
1B
100
AcDbEntity
  8
0
  6
Continuous
 62
     7
370
    25
100
AcDbLine
 10
343.5298374881
 20
-59.9722722984
 30
0.0
 11
-343.5298374881
 21
-59.9722722984
 31
0.0
  0
LINE
  5
126
330
1B
100
AcDbEntity
  8
0
  6
Continuous
 62
     7
370
    25
100
AcDbLine
 10
-238.8317966695
 20
-131.4018439966
 30
0.0
 11
-298.3564397514
 21
-59.9722722984
 31
0.0
  0
LINE
  5
127
330
1B
100
AcDbEntity
  8
0
  6
Continuous
 62
     7
370
    25
100
AcDbLine
 10
298.3564397514
 20
-59.9722722984
 30
0.0
 11
238.8317966695
 21
-131.4018439966
 31
0.0
  0
LINE
  5
128
330
1B
100
AcDbEntity
  8
0
  6
Continuous
 62
     7
370
    25
100
AcDbLine
 10
-270.1336556236
 20
-78.8629366799
 30
0.0
 11
270.1336556236
 21
-78.8629366799
 31
0.0
  0
LINE
  5
129
330
1B
100
AcDbEntity
  8
0
  6
Continuous
 62
     7
370
    25
100
AcDbLine
 10
231.1495838735
 20
-135.0
 30
0.0
 11
270.1336556236
 21
-78.8629366799
 31
0.0
  0
LINE
  5
12A
330
1B
100
AcDbEntity
  8
0
  6
Continuous
 62
     7
370
    25
100
AcDbLine
 10
-270.1336556236
 20
-78.8629366799
 30
0.0
 11
-231.1495838735
 21
-135.0
 31
0.0
  0
LINE
  5
12B
330
1B
100
AcDbEntity
  8
0
  6
Continuous
 62
     7
370
    25
100
AcDbLine
 10
-126.8346708162
 20
-121.310064785
 30
0.0
 11
126.8346708162
 21
-121.310064785
 31
0.0
  0
LINE
  5
12C
330
1B
100
AcDbEntity
  8
0
  6
Continuous
 62
     7
370
    25
100
AcDbLine
 10
-161.9407086863
 20
-135.0
 30
0.0
 11
-231.1495838735
 21
-135.0
 31
0.0
  0
LINE
  5
12D
330
1B
100
AcDbEntity
  8
0
  6
Continuous
 62
     7
370
    25
100
AcDbLine
 10
231.1495838735
 20
-135.0
 30
0.0
 11
161.9407086863
 21
-135.0
 31
0.0
  0
LINE
  5
12E
330
1B
100
AcDbEntity
  8
0
  6
Continuous
 62
     7
370
    25
100
AcDbLine
 10
35.0
 20
-160.0
 30
0.0
 11
-35.0
 21
-160.0
 31
0.0
  0
LINE
  5
12F
330
1B
100
AcDbEntity
  8
0
  6
Continuous
 62
     7
370
    25
100
AcDbLine
 10
-90.0
 20
-150.0
 30
0.0
 11
-33.7636003535
 21
-150.0
 31
0.0
  0
LINE
  5
130
330
1B
100
AcDbEntity
  8
0
  6
Continuous
 62
     7
370
    25
100
AcDbLine
 10
-39.9455930448
 20
-155.0
 30
0.0
 11
-85.0
 21
-155.0
 31
0.0
  0
LINE
  5
131
330
1B
100
AcDbEntity
  8
0
  6
Continuous
 62
     7
370
    25
100
AcDbLine
 10
-90.0
 20
-150.0
 30
0.0
 11
-90.0
 21
-122.4508927195
 31
0.0
  0
LINE
  5
132
330
1B
100
AcDbEntity
  8
0
  6
Continuous
 62
     8
370
    25
100
AcDbLine
 10
-285.8758759415
 20
-59.9722722984
 30
0.0
 11
-270.1336556236
 21
-78.8629366799
 31
0.0
  0
LINE
  5
133
330
1B
100
AcDbEntity
  8
0
  6
Continuous
 62
     8
370
    25
100
AcDbLine
 10
270.1336556236
 20
-78.8629366799
 30
0.0
 11
285.8758759415
 21
-59.9722722984
 31
0.0
  0
LINE
  5
134
330
1B
100
AcDbEntity
  8
0
  6
Continuous
 62
     8
370
    25
100
AcDbLine
 10
-126.8346708162
 20
-122.4508927195
 30
0.0
 11
-126.8346708162
 21
-121.310064785
 31
0.0
  0
LINE
  5
135
330
1B
100
AcDbEntity
  8
0
  6
Continuous
 62
     8
370
    25
100
AcDbLine
 10
126.8346708162
 20
-122.4508927195
 30
0.0
 11
126.8346708162
 21
-121.310064785
 31
0.0
  0
LINE
  5
136
330
1B
100
AcDbEntity
  8
0
  6
Continuous
 62
     8
370
    25
100
AcDbLine
 10
-88.6399365206
 20
-122.4508927195
 30
0.0
 11
-88.6399365206
 21
-150.0
 31
0.0
  0
ARC
  5
137
330
1B
100
AcDbEntity
  8
0
  6
Continuous
 62
     7
370
    25
100
AcDbCircle
 10
345.7848794989
 20
-4.0
 30
0.0
 40
4.000000000000098
100
AcDbArc
 50
357.0
 51
90.0
  0
ARC
  5
138
330
1B
100
AcDbEntity
  8
0
  6
Continuous
 62
     7
370
    25
100
AcDbCircle
 10
-345.7848794989
 20
-4.0
 30
0.0
 40
4.000000000000104
100
AcDbArc
 50
90.0
 51
183.0
  0
ARC
  5
139
330
1B
100
AcDbEntity
  8
0
  6
Continuous
 62
     7
370
    25
100
AcDbCircle
 10
343.0596749762
 20
-56.0
 30
0.0
 40
3.999999999999922
100
AcDbArc
 50
276.7501863873
 51
357.0
  0
ARC
  5
13A
330
1B
100
AcDbEntity
  8
0
  6
Continuous
 62
     7
370
    25
100
AcDbCircle
 10
-343.0596749762
 20
-56.0
 30
0.0
 40
3.999999999999929
100
AcDbArc
 50
183.0
 51
263.2498136127
  0
ARC
  5
13B
330
1B
100
AcDbEntity
  8
0
  6
Continuous
 62
     7
370
    25
100
AcDbCircle
 10
-302.7094465497
 20
-43.4048254083
 30
0.0
 40
48.15038742738997
100
AcDbArc
 50
301.1309923704
 51
312.5740610594
  0
ARC
  5
13C
330
1B
100
AcDbEntity
  8
0
  6
Continuous
 62
     7
370
    25
100
AcDbCircle
 10
302.7094465497
 20
-43.4048254083
 30
0.0
 40
48.15038742738908
100
AcDbArc
 50
227.4259389406
 51
238.8690076296
  0
ARC
  5
13D
330
1B
100
AcDbEntity
  8
0
  6
Continuous
 62
     7
370
    25
100
AcDbCircle
 10
231.1495838735
 20
-125.0
 30
0.0
 40
9.999999999999856
100
AcDbArc
 50
270.0
 51
320.1944289077
  0
ARC
  5
13E
330
1B
100
AcDbEntity
  8
0
  6
Continuous
 62
     7
370
    25
100
AcDbCircle
 10
-231.1495838735
 20
-125.0
 30
0.0
 40
9.999999999999831
100
AcDbArc
 50
219.8055710923
 51
270.0
  0
ARC
  5
13F
330
1B
100
AcDbEntity
  8
0
  6
Continuous
 62
     7
370
    25
100
AcDbCircle
 10
-35.2114777864
 20
-138.8638566213
 30
0.0
 40
11.22987259109941
100
AcDbArc
 50
277.4078167371
 51
282.5478540008
  0
ARC
  5
140
330
1B
100
AcDbEntity
  8
0
  6
Continuous
 62
     7
370
    25
100
AcDbCircle
 10
-85.0
 20
-150.0
 30
0.0
 40
4.999999999999986
100
AcDbArc
 50
180.0
 51
270.0
  0
ARC
  5
141
330
1B
100
AcDbEntity
  8
0
  6
Continuous
 62
     7
370
    25
100
AcDbCircle
 10
163.2493654454
 20
-130.0
 30
0.0
 40
5.000000000000497
100
AcDbArc
 50
203.9624889746
 51
254.7256082278
  0
ARC
  5
142
330
1B
100
AcDbEntity
  8
0
  6
Continuous
 62
     7
370
    25
100
AcDbCircle
 10
-163.2493654454
 20
-130.0
 30
0.0
 40
4.999999999999965
100
AcDbArc
 50
284.8948651869
 51
336.0375110254
  0
VIEWPORT
  5
191
330
1B
100
AcDbEntity
  8
0
100
AcDbViewport
 10
0.0
 20
0.0
 30
0.0
 40
205.6
 41
156.0
 68
     1
 69
     1
 12
0.0
 22
0.1075602506
 13
0.0
 23
0.0
 14
10.0
 24
10.0
 15
10.0
 25
10.0
 16
0.0
 26
0.0
 36
1.0
 17
0.0
 27
0.0
 37
0.0
 42
50.0
 43
0.0
 44
0.0
 45
541.4179963605
 50
0.0
 51
0.0
 72
   100
 90
   557152
  1

281
     0
 71
     1
 74
     0
110
0.0
120
0.0
130
0.0
111
1.0
121
0.0
131
0.0
112
0.0
122
1.0
132
0.0
 79
     0
146
0.0
  0
ENDBLK
  5
1D
330
1B
100
AcDbEntity
  8
0
100
AcDbBlockEnd
  0
ENDSEC
  0
SECTION
  2
ENTITIES
  0
SPLINE
  5
78
330
1F
100
AcDbEntity
  8
0
  6
Continuous
 62
     7
370
    25
100
AcDbSpline
210
0.0
220
0.0
230
1.0
 70
     8
 71
     3
 72
    11
 73
     7
 74
     0
 42
0.000000001
 43
0.00000001
 40
0.0
 40
0.0
 40
0.0
 40
0.0
 40
0.0007768695548202
 40
0.0007768695548202
 40
0.0007768695548202
 40
0.0007769295154951
 40
0.0007769295154951
 40
0.0007769295154951
 40
0.0007769295154951
 10
340.8709081928653
 20
-140.0000000000245
 30
0.0
 10
340.869578128788
 20
-139.7411155406249
 30
0.0
 10
340.865435855173
 20
-139.4822336418383
 30
0.0
 10
340.858473982575
 20
-139.2234468490695
 30
0.0
 10
340.8584734452409
 20
-139.2234268752777
 30
0.0
 10
340.8584729078801
 20
-139.2234069014868
 30
0.0
 10
340.8584723705221
 20
-139.2233869276954
 30
0.0
  0
LWPOLYLINE
  5
7B
330
1F
100
AcDbEntity
  8
0
  6
Continuous
 62
     7
370
    25
100
AcDbPolyline
 90
        6
 70
   128
 43
0.0
 10
343.5370208577
 20
36.0000000028
 10
343.5370208577
 20
28.0000000028
 10
343.5370208577
 20
-3.9999999972
 10
343.5370208577
 20
-72.0275926024
 10
343.709247041
 20
-106.0432217745
 10
343.5283836319
 20
-140.0551852077
  0
SPLINE
  5
7D
330
1F
100
AcDbEntity
  8
0
  6
Continuous
 62
     7
370
    25
100
AcDbSpline
210
0.0
220
0.0
230
1.0
 70
     8
 71
     3
 72
    40
 73
    36
 74
     0
 42
0.000000001
 43
0.00000001
 40
0.0
 40
0.0
 40
0.0
 40
0.0
 40
0.0312500000000006
 40
0.0312500000000006
 40
0.0625000000000012
 40
0.0625000000000012
 40
0.1250000000000025
 40
0.1250000000000025
 40
0.1875000000000037
 40
0.1875000000000037
 40
0.2187500000000043
 40
0.2187500000000043
 40
0.2500000000000049
 40
0.2500000000000049
 40
0.3750000000000078
 40
0.3750000000000078
 40
0.4375000000000092
 40
0.4375000000000092
 40
0.468750000000009
 40
0.468750000000009
 40
0.5000000000000089
 40
0.5000000000000089
 40
0.6250000000000059
 40
0.6250000000000059
 40
0.6562500000000064
 40
0.6562500000000064
 40
0.6875000000000069
 40
0.6875000000000069
 40
0.7500000000000057
 40
0.7500000000000057
 40
0.8750000000000029
 40
0.8750000000000029
 40
0.9375000000000014
 40
0.9375000000000014
 40
1.0
 40
1.0
 40
1.0
 40
1.0
 10
340.858472370522
 20
36.00000000284543
 30
0.0
 10
340.8584723705219
 20
36.59559361808859
 30
0.0
 10
340.8426898626057
 20
37.18826131870383
 30
0.0
 10
340.7823216713473
 20
38.36840584166785
 30
0.0
 10
340.7375972168965
 20
38.95583378078357
 30
0.0
 10
340.5605298728925
 20
40.7103159411739
 30
0.0
 10
340.3854346025095
 20
41.86959434846562
 30
0.0
 10
339.9211990284716
 20
44.16740142947668
 30
0.0
 10
339.6322622617683
 20
45.3059693242642
 30
0.0
 10
339.1127939764988
 20
46.99815975787789
 30
0.0
 10
338.9252448833192
 20
47.55960398918941
 30
0.0
 10
338.520659846186
 20
48.67712486543966
 30
0.0
 10
338.3040894220604
 20
49.23165735196513
 30
0.0
 10
337.159717389617
 20
51.95925763892249
 30
0.0
 10
336.0430817874853
 20
54.02228165051584
 30
0.0
 10
334.0762730430155
 20
56.94380895670455
 30
0.0
 10
333.3712182034084
 20
57.88833860086814
 30
0.0
 10
332.2392647825429
 20
59.26104462118135
 30
0.0
 10
331.8491651199313
 20
59.71145135005263
 30
0.0
 10
331.0526721045384
 20
60.5876024215477
 30
0.0
 10
330.6452621352256
 20
61.01463017587794
 30
0.0
 10
328.5631143957393
 20
63.09533931221286
 30
0.0
 10
326.753904001763
 20
64.58681304569863
 30
0.0
 10
324.3218856282515
 20
66.245032402709
 30
0.0
 10
323.826833886079
 20
66.5662152040426
 30
0.0
 10
322.8191865403674
 20
67.1873324841347
 30
0.0
 10
322.3057875848539
 20
67.4876570892099
 30
0.0
 10
320.7544141979616
 20
68.34916063162682
 30
0.0
 10
319.7009701526852
 20
68.87364614175796
 30
0.0
 10
316.4860887056545
 20
70.3048999486032
 30
0.0
 10
314.2700889559339
 20
71.06907919166989
 30
0.0
 10
310.8413216050557
 20
71.94321925215245
 30
0.0
 10
309.6802444756508
 20
72.1887068017173
 30
0.0
 10
307.3508352075992
 20
72.58241344346524
 30
0.0
 10
306.178987435634
 20
72.73184750391611
 30
0.0
 10
305.0000000027637
 20
72.83428496946996
 30
0.0
  0
SPLINE
  5
7F
330
1F
100
AcDbEntity
  8
0
  6
Continuous
 62
     7
370
    25
100
AcDbSpline
210
0.0
220
0.0
230
1.0
 70
     8
 71
     3
 72
    42
 73
    38
 74
     0
 42
0.000000001
 43
0.00000001
 40
0.0
 40
0.0
 40
0.0
 40
0.0
 40
0.0624999999999997
 40
0.0624999999999997
 40
0.0937500000000008
 40
0.0937500000000008
 40
0.1250000000000019
 40
0.1250000000000019
 40
0.2500000000000085
 40
0.2500000000000085
 40
0.3125000000000119
 40
0.3125000000000119
 40
0.3437500000000124
 40
0.3437500000000124
 40
0.3750000000000129
 40
0.3750000000000129
 40
0.5000000000000079
 40
0.5000000000000079
 40
0.5312500000000066
 40
0.5312500000000066
 40
0.5625000000000053
 40
0.5625000000000053
 40
0.6250000000000048
 40
0.6250000000000048
 40
0.7500000000000039
 40
0.7500000000000039
 40
0.7812500000000029
 40
0.7812500000000029
 40
0.812500000000002
 40
0.812500000000002
 40
0.8750000000000013
 40
0.8750000000000013
 40
0.9375000000000007
 40
0.9375000000000007
 40
0.9687500000000003
 40
0.9687500000000003
 40
1.0
 40
1.0
 40
1.0
 40
1.0
 10
305.3792886723142
 20
76.79950618279094
 30
0.0
 10
306.6613454542994
 20
76.67687251748772
 30
0.0
 10
307.9339823317493
 20
76.49868906966601
 30
0.0
 10
309.8288153344268
 20
76.14813370751015
 30
0.0
 10
310.4580672214588
 20
76.01737007405305
 30
0.0
 10
311.7118414551453
 20
75.7279524035389
 30
0.0
 10
312.3362290317369
 20
75.56926487446351
 30
0.0
 10
315.4250300220046
 20
74.7118267185327
 30
0.0
 10
317.8079242047959
 20
73.81850655117655
 30
0.0
 10
321.2503940230535
 20
72.16829160290669
 30
0.0
 10
322.3758872797997
 20
71.56647157366079
 30
0.0
 10
324.0298360175672
 20
70.58306976013805
 30
0.0
 10
324.5767426941696
 20
70.24088007751344
 30
0.0
 10
325.6500689738501
 20
69.53445064424898
 30
0.0
 10
326.1768435649969
 20
69.17013394254924
 30
0.0
 10
328.7621635514122
 20
67.2940394681775
 30
0.0
 10
330.6767602425914
 20
65.62064886304347
 30
0.0
 10
332.8727572218399
 20
63.30745706064135
 30
0.0
 10
333.302060578898
 20
62.8337083058761
 30
0.0
 10
334.1405806989633
 20
61.86365935081703
 30
0.0
 10
334.5508030016799
 20
61.36605194390135
 30
0.0
 10
335.7423826036036
 20
59.84907293601476
 30
0.0
 10
336.4834123465744
 20
58.80790360140226
 30
0.0
 10
338.5482980537947
 20
55.59588978324782
 30
0.0
 10
339.7173725465029
 20
53.33845392655938
 30
0.0
 10
340.9102192595702
 20
50.36645073790542
 30
0.0
 10
341.1355727922606
 20
49.76333640900353
 30
0.0
 10
341.5568794384368
 20
48.5466237545896
 30
0.0
 10
341.751997703823
 20
47.93562716364527
 30
0.0
 10
342.2917165403895
 20
46.09488132247064
 30
0.0
 10
342.5908576688541
 20
44.85740600385849
 30
0.0
 10
343.0687229945501
 20
42.36198988378896
 30
0.0
 10
343.2474178692104
 20
41.10404409880785
 30
0.0
 10
343.4248456023097
 20
39.20172500305025
 30
0.0
 10
343.4688510887188
 20
38.56504601051916
 30
0.0
 10
343.5260794897746
 20
37.28645636751684
 30
0.0
 10
343.5370208577106
 20
36.64415795633339
 30
0.0
 10
343.5370208577107
 20
36.00000000284545
 30
0.0
  0
CIRCLE
  5
80
330
1F
100
AcDbEntity
  8
0
  6
Continuous
 62
     7
370
    25
100
AcDbCircle
 10
0.0
 20
122.5
 30
0.0
 40
17.49999999999994
  0
CIRCLE
  5
81
330
1F
100
AcDbEntity
  8
0
  6
Continuous
 62
     7
370
    25
100
AcDbCircle
 10
0.0
 20
122.5
 30
0.0
 40
19.5
  0
SPLINE
  5
88
330
1F
100
AcDbEntity
  8
0
  6
Continuous
 62
     7
370
    25
100
AcDbSpline
210
0.0
220
0.0
230
1.0
 70
     8
 71
     3
 72
    36
 73
    32
 74
     0
 42
0.000000001
 43
0.00000001
 40
0.0
 40
0.0
 40
0.0
 40
0.0
 40
0.0312500000000003
 40
0.0312500000000003
 40
0.0625000000000006
 40
0.0625000000000006
 40
0.1250000000000009
 40
0.1250000000000009
 40
0.2500000000000017
 40
0.2500000000000017
 40
0.3125000000000014
 40
0.3125000000000014
 40
0.3750000000000012
 40
0.3750000000000012
 40
0.5000000000000006
 40
0.5000000000000006
 40
0.5312500000000003
 40
0.5312500000000003
 40
0.5625000000000001
 40
0.5625000000000001
 40
0.6249999999999996
 40
0.6249999999999996
 40
0.7500000000000009
 40
0.7500000000000009
 40
0.7812500000000018
 40
0.7812500000000018
 40
0.8125000000000027
 40
0.8125000000000027
 40
0.8750000000000018
 40
0.8750000000000018
 40
1.0
 40
1.0
 40
1.0
 40
1.0
 10
-343.5370208577108
 20
36.00000000002215
 30
0.0
 10
-343.5370208577108
 20
36.64507582396396
 30
0.0
 10
-343.5260607923331
 20
37.28967007040497
 30
0.0
 10
-343.468176926727
 20
38.57727834227996
 30
0.0
 10
-343.4235106403231
 20
39.22067639209433
 30
0.0
 10
-343.2425149116443
 20
41.14703671768849
 30
0.0
 10
-343.0604833283305
 20
42.41466033442448
 30
0.0
 10
-342.3358347779774
 20
46.16918402424247
 30
0.0
 10
-341.6174924329528
 20
48.60850279121739
 30
0.0
 10
-340.1849410432015
 20
52.17134704302938
 30
0.0
 10
-339.6441459391912
 20
53.34841117056715
 30
0.0
 10
-338.4639561505388
 20
55.62428461044136
 30
0.0
 10
-337.8236829832505
 20
56.72696730345036
 30
0.0
 10
-335.7557542353061
 20
59.93166002533744
 30
0.0
 10
-334.1820683399464
 20
61.93107272786344
 30
0.0
 10
-331.9696785062712
 20
64.25800914752872
 30
0.0
 10
-331.5135460614358
 20
64.7157425867527
 30
0.0
 10
-330.5850208136611
 20
65.60470422592512
 30
0.0
 10
-330.112073908984
 20
66.03669817667608
 30
0.0
 10
-328.6679533287431
 20
67.29633086183375
 30
0.0
 10
-327.6715872139158
 20
68.08774613774823
 30
0.0
 10
-324.58439251952
 20
70.3209421440687
 30
0.0
 10
-322.3953631567134
 20
71.62152289148237
 30
0.0
 10
-319.4939077044121
 20
73.00975759858026
 30
0.0
 10
-318.9058199932709
 20
73.27508185630204
 30
0.0
 10
-317.7250323760584
 20
73.77644268962183
 30
0.0
 10
-317.130868859349
 20
74.01317213822564
 30
0.0
 10
-315.3372772018478
 20
74.68227741073173
 30
0.0
 10
-314.1268087690348
 20
75.07379522730213
 30
0.0
 10
-310.4523316256617
 20
76.08894802414397
 30
0.0
 10
-307.94548277367
 20
76.5540398418524
 30
0.0
 10
-305.3792886540561
 20
76.79950618453742
 30
0.0
  0
SPLINE
  5
89
330
1F
100
AcDbEntity
  8
0
  6
Continuous
 62
     7
370
    25
100
AcDbSpline
210
0.0
220
0.0
230
1.0
 70
     8
 71
     3
 72
    16
 73
    12
 74
     0
 42
0.000000001
 43
0.00000001
 40
0.0
 40
0.0
 40
0.0
 40
0.0
 40
0.0078125000000002
 40
0.0078125000000002
 40
0.0156250000000004
 40
0.0312500000000007
 40
0.062500000000001
 40
0.1250000000000011
 40
0.2500000000000011
 40
0.5000000000000007
 40
1.0
 40
1.0
 40
1.0
 40
1.0
 10
-343.5283836318837
 20
-140.0551852107218
 30
0.0
 10
-343.5379043400683
 20
-139.596710029823
 30
0.0
 10
-343.5370208577108
 20
-139.1382328072156
 30
0.0
 10
-343.5370208577108
 20
-138.2212787087484
 30
0.0
 10
-343.5370208577109
 20
-136.8458475610477
 30
0.0
 10
-343.5370208577108
 20
-133.6365082164123
 30
0.0
 10
-343.5370208577107
 20
-127.2178295271419
 30
0.0
 10
-343.5370208577107
 20
-114.3804721486009
 30
0.0
 10
-343.5370208577104
 20
-88.70575781525918
 30
0.0
 10
-343.5370208577108
 20
-37.3563266061339
 30
0.0
 10
-343.537020857711
 20
6.657468849071318
 30
0.0
 10
-343.5370208577108
 20
36.00000000002213
 30
0.0
  0
SPLINE
  5
8A
330
1F
100
AcDbEntity
  8
0
  6
Continuous
 62
     7
370
    25
100
AcDbSpline
210
0.0
220
0.0
230
1.0
 70
     8
 71
     3
 72
    36
 73
    32
 74
     0
 42
0.000000001
 43
0.00000001
 40
0.0
 40
0.0
 40
0.0
 40
0.0
 40
0.0624999999999894
 40
0.0624999999999894
 40
0.0937499999999855
 40
0.0937499999999855
 40
0.1249999999999816
 40
0.1249999999999816
 40
0.2499999999999748
 40
0.2499999999999748
 40
0.3124999999999716
 40
0.3124999999999716
 40
0.3437499999999713
 40
0.3437499999999713
 40
0.3749999999999709
 40
0.3749999999999709
 40
0.4999999999999718
 40
0.4999999999999718
 40
0.5312499999999727
 40
0.5312499999999727
 40
0.5624999999999736
 40
0.5624999999999736
 40
0.6249999999999782
 40
0.6249999999999782
 40
0.7499999999999861
 40
0.7499999999999861
 40
0.8124999999999895
 40
0.8124999999999895
 40
0.8749999999999928
 40
0.8749999999999928
 40
1.0
 40
1.0
 40
1.0
 40
1.0
 10
-305.0954296014013
 20
-178.747455244656
 30
0.0
 10
-306.3594877698946
 20
-178.7060452798053
 30
0.0
 10
-307.6166254816557
 20
-178.6065631253039
 30
0.0
 10
-309.4919564491405
 20
-178.3702742787447
 30
0.0
 10
-310.1153337145321
 20
-178.27696858731
 30
0.0
 10
-311.3585791465813
 20
-178.0609110197366
 30
0.0
 10
-311.9796559531511
 20
-177.9378491019986
 30
0.0
 10
-315.059150663111
 20
-177.251963425068
 30
0.0
 10
-317.4367400798826
 20
-176.4820797471443
 30
0.0
 10
-320.8756794090131
 20
-174.9995154092316
 30
0.0
 10
-322.000720360049
 20
-174.4506235156485
 30
0.0
 10
-323.6555613633824
 20
-173.5431413770023
 30
0.0
 10
-324.2030641658542
 20
-173.225735306266
 30
0.0
 10
-325.2797775459275
 20
-172.5663319617729
 30
0.0
 10
-325.8081450811031
 20
-172.2249172786513
 30
0.0
 10
-328.4008923881149
 20
-170.4602818337803
 30
0.0
 10
-330.3206763429197
 20
-168.8675119559161
 30
0.0
 10
-332.5267011976355
 20
-166.6494162981934
 30
0.0
 10
-332.9581203767233
 20
-166.1943226136944
 30
0.0
 10
-333.8012293974062
 20
-165.2610011609989
 30
0.0
 10
-334.2138234021308
 20
-164.7816567956146
 30
0.0
 10
-335.4148585815328
 20
-163.3162990899473
 30
0.0
 10
-336.1625571235684
 20
-162.308621693022
 30
0.0
 10
-338.2500188472065
 20
-159.1952127461155
 30
0.0
 10
-339.4363106406324
 20
-157.0003602141235
 30
0.0
 10
-340.9045210867592
 20
-153.5273514576437
 30
0.0
 10
-341.341881060906
 20
-152.3349889161933
 30
0.0
 10
-342.0933495707859
 20
-149.9388170073019
 30
0.0
 10
-342.4102435606688
 20
-148.7295332517352
 30
0.0
 10
-343.1876928883313
 20
-145.0687143450906
 30
0.0
 10
-343.4758624546639
 20
-142.584372720709
 30
0.0
 10
-343.5283836318838
 20
-140.0551852107216
 30
0.0
  0
SPLINE
  5
8B
330
1F
100
AcDbEntity
  8
0
  6
Continuous
 62
     7
370
    25
100
AcDbSpline
210
0.0
220
0.0
230
1.0
 70
     8
 71
     3
 72
    29
 73
    25
 74
     0
 42
0.000000001
 43
0.00000001
 40
0.0
 40
0.0
 40
0.0
 40
0.0
 40
0.0019531250000002
 40
0.0019531250000002
 40
0.0039062500000003
 40
0.0039062500000003
 40
0.0078125000000004
 40
0.0156250000000005
 40
0.0312500000000004
 40
0.0625000000000005
 40
0.1250000000000004
 40
0.2500000000000002
 40
0.4999999999999998
 40
0.7499999999999994
 40
0.8749999999999993
 40
0.9374999999999993
 40
0.9687499999999993
 40
0.9843749999999996
 40
0.9921874999999997
 40
0.9960937499999998
 40
0.9960937499999998
 40
0.998046875
 40
0.998046875
 40
1.0
 40
1.0
 40
1.0
 40
1.0
 10
305.0954296014011
 20
-178.7474552446561
 30
0.0
 10
304.698171205569
 20
-178.7604692471902
 30
0.0
 10
304.3009122417516
 20
-178.7677100426078
 30
0.0
 10
303.5063931811937
 20
-178.7706761930327
 30
0.0
 10
303.1091333872756
 20
-178.7694795444795
 30
0.0
 10
301.9173543587108
 20
-178.7694795444795
 30
0.0
 10
299.5337963015808
 20
-178.7694795444795
 30
0.0
 10
293.972160834945
 20
-178.7694795444795
 30
0.0
 10
282.848889901673
 20
-178.7694795444795
 30
0.0
 10
260.6023480351287
 20
-178.7694795444795
 30
0.0
 10
216.1092643020406
 20
-178.7694795444794
 30
0.0
 10
127.1230968358645
 20
-178.7694795444794
 30
0.0
 10
0.000000455612284
 20
-178.7694795444796
 30
0.0
 10
-127.1230959246396
 20
-178.7694795444794
 30
0.0
 10
-216.109263390816
 20
-178.7694795444794
 30
0.0
 10
-260.6023471239038
 20
-178.7694795444794
 30
0.0
 10
-282.8488889904484
 20
-178.7694795444794
 30
0.0
 10
-293.9721599237202
 20
-178.7694795444794
 30
0.0
 10
-299.5337953903561
 20
-178.7694795444795
 30
0.0
 10
-301.9173534474858
 20
-178.7694795444795
 30
0.0
 10
-303.1091324760506
 20
-178.7694795444794
 30
0.0
 10
-303.5063922204589
 20
-178.7706761879265
 30
0.0
 10
-304.3009114037381
 20
-178.767710054429
 30
0.0
 10
-304.6981706671338
 20
-178.7604692648291
 30
0.0
 10
-305.0954296014015
 20
-178.747455244656
 30
0.0
  0
SPLINE
  5
8C
330
1F
100
AcDbEntity
  8
0
  6
Continuous
 62
     7
370
    25
100
AcDbSpline
210
0.0
220
0.0
230
1.0
 70
     8
 71
     3
 72
    38
 73
    34
 74
     0
 42
0.000000001
 43
0.00000001
 40
0.0
 40
0.0
 40
0.0
 40
0.0
 40
0.0625000000000011
 40
0.0625000000000011
 40
0.0937500000000024
 40
0.0937500000000024
 40
0.1250000000000036
 40
0.1250000000000036
 40
0.2500000000000097
 40
0.2500000000000097
 40
0.3125000000000121
 40
0.3125000000000121
 40
0.3437500000000133
 40
0.3437500000000133
 40
0.3750000000000145
 40
0.3750000000000145
 40
0.5000000000000144
 40
0.5000000000000144
 40
0.5312500000000142
 40
0.5312500000000142
 40
0.562500000000014
 40
0.562500000000014
 40
0.6250000000000125
 40
0.6250000000000125
 40
0.750000000000012
 40
0.750000000000012
 40
0.7812500000000117
 40
0.7812500000000117
 40
0.8125000000000112
 40
0.8125000000000112
 40
0.8750000000000075
 40
0.8750000000000075
 40
1.0
 40
1.0
 40
1.0
 40
1.0
 10
343.5283836319467
 20
-140.0551852076993
 30
0.0
 10
343.5021174977481
 20
-141.3200460182996
 30
0.0
 10
343.4162742697698
 20
-142.5787870454502
 30
0.0
 10
343.1986495225265
 20
-144.4577708603487
 30
0.0
 10
343.1112602158927
 20
-145.0825736343414
 30
0.0
 10
342.9064348141665
 20
-146.3290927639222
 30
0.0
 10
342.7887687323704
 20
-146.9515023793123
 30
0.0
 10
342.1297601448512
 20
-150.0317740021404
 30
0.0
 10
341.3775613564677
 20
-152.413410564954
 30
0.0
 10
339.9158412860089
 20
-155.863486681458
 30
0.0
 10
339.3727362358687
 20
-156.9930074283025
 30
0.0
 10
338.4724168205634
 20
-158.6558473403414
 30
0.0
 10
338.1572952788962
 20
-159.2058934259024
 30
0.0
 10
337.5046180404505
 20
-160.2840312280923
 30
0.0
 10
337.1664609134482
 20
-160.8133522908058
 30
0.0
 10
335.4171128195329
 20
-163.411655619447
 30
0.0
 10
333.8332849655518
 20
-165.3382479572023
 30
0.0
 10
331.6235626188827
 20
-167.5568372056419
 30
0.0
 10
331.1699156877864
 20
-167.990902931047
 30
0.0
 10
330.2390003903596
 20
-168.8395515556577
 30
0.0
 10
329.7604455412027
 20
-169.2551556576653
 30
0.0
 10
328.3027853015046
 20
-170.4609016996943
 30
0.0
 10
327.2997278944771
 20
-171.2124685671099
 30
0.0
 10
324.1990806002982
 20
-173.3143482200375
 30
0.0
 10
322.0104322097935
 20
-174.5125359899038
 30
0.0
 10
319.121845426945
 20
-175.7550381279215
 30
0.0
 10
318.5349993968808
 20
-175.9910984585835
 30
0.0
 10
317.3521739716961
 20
-176.4342388749609
 30
0.0
 10
316.7577382749336
 20
-176.6408653355695
 30
0.0
 10
314.9656048126047
 20
-177.2171126411351
 30
0.0
 10
313.7591099738173
 20
-177.5432462449216
 30
0.0
 10
310.1052570640373
 20
-178.3517511629917
 30
0.0
 10
307.6236128388367
 20
-178.6646331233265
 30
0.0
 10
305.095429601401
 20
-178.7474552446561
 30
0.0
  0
SPLINE
  5
8D
330
1F
100
AcDbEntity
  8
0
  6
Continuous
 62
     7
370
    25
100
AcDbSpline
210
0.0
220
0.0
230
1.0
 70
     8
 71
     3
 72
    31
 73
    27
 74
     0
 42
0.000000001
 43
0.00000001
 40
0.0
 40
0.0
 40
0.0
 40
0.0
 40
0.0039062499999998
 40
0.0039062499999998
 40
0.0058593749999998
 40
0.0058593749999998
 40
0.0078124999999997
 40
0.0078124999999997
 40
0.0156249999999997
 40
0.0312499999999999
 40
0.0625000000000001
 40
0.1250000000000001
 40
0.25
 40
0.4999999999999997
 40
0.7499999999999993
 40
0.8749999999999991
 40
0.9374999999999989
 40
0.9687499999999989
 40
0.984374999999999
 40
0.992187499999999
 40
0.992187499999999
 40
0.9941406249999991
 40
0.9941406249999991
 40
0.9960937499999992
 40
0.9960937499999992
 40
1.0
 40
1.0
 40
1.0
 40
1.0
 10
-305.3792886540561
 20
76.79950618453744
 30
0.0
 10
-304.5840689425726
 20
76.87557201007927
 30
0.0
 10
-303.7888377577101
 20
76.92988553142578
 30
0.0
 10
-302.5959739362178
 20
76.97904182787737
 30
0.0
 10
-302.1983498192047
 20
76.99003688884659
 30
0.0
 10
-301.4030958960619
 20
77.00124105213202
 30
0.0
 10
-301.0054653250399
 20
76.99999999999996
 30
0.0
 10
-299.0173157429309
 20
76.99999999999999
 30
0.0
 10
-294.2457567458696
 20
76.99999999999994
 30
0.0
 10
-283.1121190860596
 20
76.99999999999997
 30
0.0
 10
-260.8448437664389
 20
76.99999999999999
 30
0.0
 10
-216.3102931271989
 20
77.0
 30
0.0
 10
-127.2411918487175
 20
76.99999999999997
 30
0.0
 10
0.0003814062557334
 20
77.00000000000007
 30
0.0
 10
127.2419546612291
 20
76.99999999999999
 30
0.0
 10
216.3110559397101
 20
77.00000000000004
 30
0.0
 10
260.8456065789506
 20
76.99999999999999
 30
0.0
 10
283.1128818985712
 20
77.00000000000001
 30
0.0
 10
294.2465195583807
 20
77.00000000000004
 30
0.0
 10
299.0180785554428
 20
77.00000000000003
 30
0.0
 10
301.0062281375518
 20
76.99999999999999
 30
0.0
 10
301.4038634126164
 20
77.00123698102928
 30
0.0
 10
302.199074652787
 20
76.99001992188103
 30
0.0
 10
302.5966569141012
 20
76.97901928886945
 30
0.0
 10
303.7893336771428
 20
76.92985387095938
 30
0.0
 10
304.5843582392855
 20
76.87554433806862
 30
0.0
 10
305.3792886723142
 20
76.7995061827909
 30
0.0
  0
SPLINE
  5
8E
330
1F
100
AcDbEntity
  8
0
  6
Continuous
 62
     7
370
    25
100
AcDbSpline
210
0.0
220
0.0
230
1.0
 70
     8
 71
     3
 72
    38
 73
    34
 74
     0
 42
0.000000001
 43
0.00000001
 40
0.0
 40
0.0
 40
0.0
 40
0.0
 40
0.1250000000000081
 40
0.1250000000000081
 40
0.1875000000000121
 40
0.1875000000000121
 40
0.2187500000000139
 40
0.2187500000000139
 40
0.2500000000000157
 40
0.2500000000000157
 40
0.3750000000000158
 40
0.3750000000000158
 40
0.4375000000000146
 40
0.4375000000000146
 40
0.4687500000000134
 40
0.4687500000000134
 40
0.5000000000000121
 40
0.5000000000000121
 40
0.625000000000005
 40
0.625000000000005
 40
0.6562500000000048
 40
0.6562500000000048
 40
0.6875000000000046
 40
0.6875000000000046
 40
0.7500000000000039
 40
0.7500000000000039
 40
0.8750000000000017
 40
0.8750000000000017
 40
0.9062500000000012
 40
0.9062500000000012
 40
0.9375000000000009
 40
0.9375000000000009
 40
1.0
 40
1.0
 40
1.0
 40
1.0
 10
304.9999999997806
 20
-175.8344228893037
 30
0.0
 10
307.3709765718145
 20
-175.8407797268186
 30
0.0
 10
309.7030319504643
 20
-175.619553167151
 30
0.0
 10
313.1436113606955
 20
-174.9529404854315
 30
0.0
 10
314.2808574870904
 20
-174.6747462904666
 30
0.0
 10
315.9719800634658
 20
-174.1717645779002
 30
0.0
 10
316.5332228834621
 20
-173.989781137967
 30
0.0
 10
317.6506387990535
 20
-173.5963771871315
 30
0.0
 10
318.2048059554923
 20
-173.3855402654024
 30
0.0
 10
320.9320179511397
 20
-172.269433979848
 30
0.0
 10
322.9971737036786
 20
-171.1752957877222
 30
0.0
 10
325.9221180597618
 20
-169.2359836771168
 30
0.0
 10
326.8681140146824
 20
-168.5395356637949
 30
0.0
 10
328.2425819763915
 20
-167.4180504004521
 30
0.0
 10
328.6936691423128
 20
-167.030905107362
 30
0.0
 10
329.5702538998377
 20
-166.2398064480931
 30
0.0
 10
329.9970987139745
 20
-165.8348002035654
 30
0.0
 10
332.0745688888607
 20
-163.7628841444711
 30
0.0
 10
333.558473077275
 20
-161.9582447860598
 30
0.0
 10
335.1902251691564
 20
-159.5181179705082
 30
0.0
 10
335.5052218558706
 20
-159.0207132119345
 30
0.0
 10
336.1122952999583
 20
-158.0069693836282
 30
0.0
 10
336.4049617152069
 20
-157.4893926948844
 30
0.0
 10
337.2389523912515
 20
-155.9249944547749
 30
0.0
 10
337.7392742929754
 20
-154.8623962585981
 30
0.0
 10
339.0764561273105
 20
-151.6167533751276
 30
0.0
 10
339.7515301667407
 20
-149.3765594336121
 30
0.0
 10
340.3191905399704
 20
-146.4787966245527
 30
0.0
 10
340.4187673096698
 20
-145.8931129751733
 30
0.0
 10
340.5881057152458
 20
-144.7207584100139
 30
0.0
 10
340.6580642782491
 20
-144.1334111888738
 30
0.0
 10
340.8242635951955
 20
-142.36789988829
 30
0.0
 10
340.877002911289
 20
-141.1862796021056
 30
0.0
 10
340.8709081928653
 20
-140.0000000000245
 30
0.0
  0
SPLINE
  5
99
330
1F
100
AcDbEntity
  8
0
  6
Continuous
 62
     7
370
    25
100
AcDbSpline
210
0.0
220
0.0
230
1.0
 70
     8
 71
     3
 72
     8
 73
     4
 74
     0
 42
0.000000001
 43
0.00000001
 40
0.0
 40
0.0
 40
0.0
 40
0.0
 40
1.0
 40
1.0
 40
1.0
 40
1.0
 10
-304.9999999997809
 20
-175.8344228893037
 30
0.0
 10
-304.5832383540043
 20
-175.8333055075058
 30
0.0
 10
-304.1665781833357
 20
-175.8250690214231
 30
0.0
 10
-303.7502051996378
 20
-175.8097192508957
 30
0.0
  0
SPLINE
  5
9A
330
1F
100
AcDbEntity
  8
0
  6
Continuous
 62
     7
370
    25
100
AcDbSpline
210
0.0
220
0.0
230
1.0
 70
     8
 71
     3
 72
    36
 73
    32
 74
     0
 42
0.000000001
 43
0.00000001
 40
0.0
 40
0.0
 40
0.0
 40
0.0
 40
0.1249999999999979
 40
0.1249999999999979
 40
0.1874999999999979
 40
0.1874999999999979
 40
0.2499999999999978
 40
0.2499999999999978
 40
0.3749999999999991
 40
0.3749999999999991
 40
0.4375000000000013
 40
0.4375000000000013
 40
0.4687500000000014
 40
0.4687500000000014
 40
0.5000000000000016
 40
0.5000000000000016
 40
0.6249999999999989
 40
0.6249999999999989
 40
0.6562499999999999
 40
0.6562499999999999
 40
0.6875000000000008
 40
0.6875000000000008
 40
0.7500000000000027
 40
0.7500000000000027
 40
0.8750000000000044
 40
0.8750000000000044
 40
0.906250000000004
 40
0.906250000000004
 40
0.9375000000000036
 40
0.9375000000000036
 40
1.0
 40
1.0
 40
1.0
 40
1.0
 10
-340.8709081928796
 20
-140.0000000028481
 30
0.0
 10
-340.8830953010976
 20
-142.3721059976602
 30
0.0
 10
-340.6626212067117
 20
-144.7046022426796
 30
0.0
 10
-339.9946113325755
 20
-148.1458199954843
 30
0.0
 10
-339.715286083512
 20
-149.2832331484157
 30
0.0
 10
-339.0417196740433
 20
-151.5384509905328
 30
0.0
 10
-338.6447483711746
 20
-152.6618233173154
 30
0.0
 10
-337.3013364230417
 20
-155.9308257712794
 30
0.0
 10
-336.2032413973213
 20
-157.9940401981971
 30
0.0
 10
-334.2573496038111
 20
-160.917527725105
 30
0.0
 10
-333.5582498326643
 20
-161.8630797220979
 30
0.0
 10
-332.4322788731653
 20
-163.2370637738348
 30
0.0
 10
-332.0449252867056
 20
-163.6864061223212
 30
0.0
 10
-331.253137160308
 20
-164.5601511819132
 30
0.0
 10
-330.8477539347219
 20
-164.9857279566957
 30
0.0
 10
-328.7737509755792
 20
-167.0575595688382
 30
0.0
 10
-326.9658113206646
 20
-168.5379715092979
 30
0.0
 10
-324.51990098725
 20
-170.167076225334
 30
0.0
 10
-324.0212228441939
 20
-170.4815920925749
 30
0.0
 10
-323.004609785406
 20
-171.0876993206629
 30
0.0
 10
-322.4871835759752
 20
-171.3788927301548
 30
0.0
 10
-320.9241163537527
 20
-172.2083430087745
 30
0.0
 10
-319.8619720248319
 20
-172.7061843296797
 30
0.0
 10
-316.6165410115975
 20
-174.0378148346782
 30
0.0
 10
-314.3745567998226
 20
-174.7105654445147
 30
0.0
 10
-311.472369367223
 20
-175.2776557983621
 30
0.0
 10
-310.8869472094477
 20
-175.3770405434998
 30
0.0
 10
-309.7161615553975
 20
-175.5461521151403
 30
0.0
 10
-309.1295312027033
 20
-175.616201333599
 30
0.0
 10
-307.3659822302133
 20
-175.7833528926539
 30
0.0
 10
-306.1854169120782
 20
-175.8376011167007
 30
0.0
 10
-304.9999999997808
 20
-175.8344228893036
 30
0.0
  0
SPLINE
  5
9B
330
1F
100
AcDbEntity
  8
0
  6
Continuous
 62
     7
370
    25
100
AcDbSpline
210
0.0
220
0.0
230
1.0
 70
     8
 71
     3
 72
    11
 73
     7
 74
     0
 42
0.000000001
 43
0.00000001
 40
-0.00000006
 40
-0.00000006
 40
-0.00000006
 40
-0.00000006
 40
0.0
 40
0.0
 40
0.0
 40
0.0007768695183218
 40
0.0007768695183218
 40
0.0007768695183218
 40
0.0007768695183218
 10
-340.858472370522
 20
-139.2233869276953
 30
0.0
 10
-340.8584729082325
 20
-139.2234069145864
 30
0.0
 10
-340.8584734459458
 20
-139.223426901477
 30
0.0
 10
-340.8584739836323
 20
-139.2234468883686
 30
0.0
 10
-340.8654358556178
 20
-139.4822336689873
 30
0.0
 10
-340.8695781288853
 20
-139.7411155556111
 30
0.0
 10
-340.8709081928797
 20
-140.0000000028481
 30
0.0
  0
SPLINE
  5
9D
330
1F
100
AcDbEntity
  8
0
  6
Continuous
 62
     7
370
    25
100
AcDbSpline
210
0.0
220
0.0
230
1.0
 70
     8
 71
     3
 72
    38
 73
    34
 74
     0
 42
0.000000001
 43
0.00000001
 40
0.0
 40
0.0
 40
0.0
 40
0.0
 40
0.1249999999999983
 40
0.1249999999999983
 40
0.1874999999999973
 40
0.1874999999999973
 40
0.2187499999999953
 40
0.2187499999999953
 40
0.2499999999999933
 40
0.2499999999999933
 40
0.3749999999999925
 40
0.3749999999999925
 40
0.4374999999999923
 40
0.4374999999999923
 40
0.468749999999992
 40
0.468749999999992
 40
0.4999999999999916
 40
0.4999999999999916
 40
0.6249999999999889
 40
0.6249999999999889
 40
0.6874999999999883
 40
0.6874999999999883
 40
0.7187499999999888
 40
0.7187499999999888
 40
0.7499999999999893
 40
0.7499999999999893
 40
0.874999999999994
 40
0.874999999999994
 40
0.9374999999999967
 40
0.9374999999999967
 40
0.9687499999999983
 40
0.9687499999999983
 40
1.0
 40
1.0
 40
1.0
 40
1.0
 10
-304.9999999861388
 20
72.83428497091448
 30
0.0
 10
-307.3589635472762
 20
72.62932413694779
 30
0.0
 10
-309.672507538898
 20
72.23869293863697
 30
0.0
 10
-313.0760672619816
 20
71.37470515292796
 30
0.0
 10
-314.1993849934179
 20
71.04023754443777
 30
0.0
 10
-315.8668353572466
 20
70.4659021196064
 30
0.0
 10
-316.4197191383383
 20
70.26231086677
 30
0.0
 10
-317.5194588496279
 20
69.8298486742351
 30
0.0
 10
-318.0676400791733
 20
69.60042958546363
 30
0.0
 10
-320.7725126665578
 20
68.39804172796666
 30
0.0
 10
-322.8247358076036
 20
67.26162171754456
 30
0.0
 10
-325.730126573772
 20
65.2868835209501
 30
0.0
 10
-326.669824855499
 20
64.58371829557366
 30
0.0
 10
-328.0346492637091
 20
63.45932994833711
 30
0.0
 10
-328.4821177727912
 20
63.07289695345141
 30
0.0
 10
-329.3615878339492
 20
62.27597449963012
 30
0.0
 10
-329.7934436823996
 20
61.86532402913716
 30
0.0
 10
-331.8883764790194
 20
59.7744674915951
 30
0.0
 10
-333.3828918449393
 20
57.96622449631206
 30
0.0
 10
-335.3528595836007
 20
55.05116796202302
 30
0.0
 10
-335.9637112799065
 20
54.04530519171799
 30
0.0
 10
-336.8097804993217
 20
52.48417878681418
 30
0.0
 10
-337.0807254930357
 20
51.95366194754853
 30
0.0
 10
-337.5952090323531
 20
50.88146255586588
 30
0.0
 10
-337.8381614412116
 20
50.34125492404736
 30
0.0
 10
-338.9818893472371
 20
47.6197938144749
 30
0.0
 10
-339.6727694219089
 20
45.37818683406217
 30
0.0
 10
-340.3770118451504
 20
41.92038184776818
 30
0.0
 10
-340.5554930742582
 20
40.75161265453067
 30
0.0
 10
-340.7362374860311
 20
38.97347452859677
 30
0.0
 10
-340.7816232309939
 20
38.37974206956339
 30
0.0
 10
-340.8426656934377
 20
37.19102413817066
 30
0.0
 10
-340.8584723705221
 20
36.59592987314553
 30
0.0
 10
-340.858472370522
 20
36.00000000002214
 30
0.0
  0
SPLINE
  5
9E
330
1F
100
AcDbEntity
  8
0
  6
Continuous
 62
     7
370
    25
100
AcDbSpline
210
0.0
220
0.0
230
1.0
 70
     8
 71
     3
 72
     8
 73
     4
 74
     0
 42
0.000000001
 43
0.00000001
 40
0.0
 40
0.0
 40
0.0
 40
0.0
 40
1.0
 40
1.0
 40
1.0
 40
1.0
 10
-301.1818181681356
 20
72.99999999999999
 30
0.0
 10
-302.4557147032516
 20
72.99999999999999
 30
0.0
 10
-303.7296083724748
 20
72.94466417680411
 30
0.0
 10
-304.9999999861388
 20
72.83428497091444
 30
0.0
  0
SPLINE
  5
A0
330
1F
100
AcDbEntity
  8
0
  6
Continuous
 62
     7
370
    25
100
AcDbSpline
210
0.0
220
0.0
230
1.0
 70
     8
 71
     3
 72
     8
 73
     4
 74
     0
 42
0.000000001
 43
0.00000001
 40
0.0
 40
0.0
 40
0.0
 40
0.0
 40
1.0
 40
1.0
 40
1.0
 40
1.0
 10
305.0000000027637
 20
72.83428496946999
 30
0.0
 10
303.7296083835047
 20
72.9446641763296
 30
0.0
 10
302.4557147085631
 20
73.00000000000001
 30
0.0
 10
301.1818181681356
 20
73.00000000000001
 30
0.0
  0
SPLINE
  5
A1
330
1F
100
AcDbEntity
  8
0
  6
Continuous
 62
     7
370
    25
100
AcDbSpline
210
0.0
220
0.0
230
1.0
 70
     8
 71
     3
 72
     8
 73
     4
 74
     0
 42
0.000000001
 43
0.00000001
 40
0.0
 40
0.0
 40
0.0
 40
0.0
 40
1.0
 40
1.0
 40
1.0
 40
1.0
 10
303.7502051996375
 20
-175.8097192508957
 30
0.0
 10
304.1665781834191
 20
-175.825069020451
 30
0.0
 10
304.5832383540085
 20
-175.8333055075059
 30
0.0
 10
304.9999999997807
 20
-175.8344228893038
 30
0.0
  0
CIRCLE
  5
A9
330
1F
100
AcDbEntity
  8
0
  6
Continuous
 62
     7
370
    25
100
AcDbCircle
 10
0.0
 20
-2.5
 30
0.0
 40
33.32842712474616
  0
CIRCLE
  5
AA
330
1F
100
AcDbEntity
  8
0
  6
Continuous
 62
     7
370
    25
100
AcDbCircle
 10
0.0
 20
-2.5
 30
0.0
 40
31.91421356237307
  0
CIRCLE
  5
AD
330
1F
100
AcDbEntity
  8
0
  6
Continuous
 62
     7
370
    25
100
AcDbCircle
 10
0.0
 20
-2.5
 30
0.0
 40
23.08578643762693
  0
CIRCLE
  5
AE
330
1F
100
AcDbEntity
  8
0
  6
Continuous
 62
     7
370
    25
100
AcDbCircle
 10
0.0
 20
-2.5
 30
0.0
 40
22.50000000000002
  0
LINE
  5
B3
330
1F
100
AcDbEntity
  8
0
  6
Continuous
 62
     7
370
    25
100
AcDbLine
 10
-349.7848794989
 20
187.5
 30
0.0
 11
-349.7848794989
 21
-142.5
 31
0.0
  0
LINE
  5
B4
330
1F
100
AcDbEntity
  8
0
  6
Continuous
 62
     7
370
    25
100
AcDbLine
 10
349.7848794989
 20
-142.5
 30
0.0
 11
349.7848794989
 21
187.5
 31
0.0
  0
LINE
  5
B5
330
1F
100
AcDbEntity
  8
0
  6
Continuous
 62
     7
370
    25
100
AcDbLine
 10
-305.0
 20
-187.2848794989
 30
0.0
 11
305.0
 21
-187.2848794989
 31
0.0
  0
LINE
  5
B6
330
1F
100
AcDbEntity
  8
0
  6
Continuous
 62
     7
370
    25
100
AcDbLine
 10
340.8584723705
 20
-139.2233869277
 30
0.0
 11
340.8584723705
 21
36.0000000028
 31
0.0
  0
LINE
  5
B7
330
1F
100
AcDbEntity
  8
0
  6
Continuous
 62
     7
370
    25
100
AcDbLine
 10
340.8584723705
 20
36.0000000028
 30
0.0
 11
343.5370208577
 21
36.0000000028
 31
0.0
  0
LINE
  5
B8
330
1F
100
AcDbEntity
  8
0
  6
Continuous
 62
     7
370
    25
100
AcDbLine
 10
340.8709081929
 20
-140.0
 30
0.0
 11
343.5283836319
 21
-140.0551852077
 31
0.0
  0
LINE
  5
B9
330
1F
100
AcDbEntity
  8
0
  6
Continuous
 62
     7
370
    25
100
AcDbLine
 10
305.3792886723
 20
76.7995061828
 30
0.0
 11
305.0000000028
 21
72.8342849695
 31
0.0
  0
LINE
  5
BA
330
1F
100
AcDbEntity
  8
0
  6
Continuous
 62
     7
370
    25
100
AcDbLine
 10
345.7848794989
 20
-142.5
 30
0.0
 11
345.7848794989
 21
187.5
 31
0.0
  0
LINE
  5
BB
330
1F
100
AcDbEntity
  8
0
  6
Continuous
 62
     7
370
    25
100
AcDbLine
 10
-305.0
 20
-183.2848794989
 30
0.0
 11
305.0
 21
-183.2848794989
 31
0.0
  0
LINE
  5
BC
330
1F
100
AcDbEntity
  8
0
  6
Continuous
 62
     7
370
    25
100
AcDbLine
 10
-345.7848794989
 20
187.5
 30
0.0
 11
-345.7848794989
 21
-142.5
 31
0.0
  0
LINE
  5
BD
330
1F
100
AcDbEntity
  8
0
  6
Continuous
 62
     7
370
    25
100
AcDbLine
 10
349.7848794989
 20
187.5
 30
0.0
 11
-349.7848794989
 21
187.5
 31
0.0
  0
LINE
  5
BE
330
1F
100
AcDbEntity
  8
0
  6
Continuous
 62
     7
370
    25
100
AcDbLine
 10
304.9999999998
 20
-175.8344228893
 30
0.0
 11
305.0954296014
 21
-178.7474552447
 31
0.0
  0
LINE
  5
BF
330
1F
100
AcDbEntity
  8
0
  6
Continuous
 62
     7
370
    25
100
AcDbLine
 10
-220.0
 20
53.0
 30
0.0
 11
-220.0
 21
-57.0
 31
0.0
  0
LINE
  5
C0
330
1F
100
AcDbEntity
  8
0
  6
Continuous
 62
     7
370
    25
100
AcDbLine
 10
-200.0
 20
-77.0
 30
0.0
 11
200.0
 21
-77.0
 31
0.0
  0
LINE
  5
C1
330
1F
100
AcDbEntity
  8
0
  6
Continuous
 62
     7
370
    25
100
AcDbLine
 10
220.0
 20
-57.0
 30
0.0
 11
220.0
 21
53.0
 31
0.0
  0
LINE
  5
C2
330
1F
100
AcDbEntity
  8
0
  6
Continuous
 62
     7
370
    25
100
AcDbLine
 10
301.1818181681
 20
73.0
 30
0.0
 11
-301.1818181681
 21
73.0
 31
0.0
  0
LINE
  5
C3
330
1F
100
AcDbEntity
  8
0
  6
Continuous
 62
     7
370
    25
100
AcDbLine
 10
-340.8584723705
 20
36.0
 30
0.0
 11
-340.8584723705
 21
-139.2233869277
 31
0.0
  0
LINE
  5
C4
330
1F
100
AcDbEntity
  8
0
  6
Continuous
 62
     7
370
    25
100
AcDbLine
 10
-303.7502051996
 20
-175.8097192509
 30
0.0
 11
303.7502051996
 21
-175.8097192509
 31
0.0
  0
LINE
  5
C5
330
1F
100
AcDbEntity
  8
0
  6
Continuous
 62
     7
370
    25
100
AcDbLine
 10
-304.9999999998
 20
-175.8344228893
 30
0.0
 11
-305.0954296014
 21
-178.7474552447
 31
0.0
  0
LINE
  5
C6
330
1F
100
AcDbEntity
  8
0
  6
Continuous
 62
     7
370
    25
100
AcDbLine
 10
-343.5283836319
 20
-140.0551852107
 30
0.0
 11
-340.8709081929
 21
-140.0000000028
 31
0.0
  0
LINE
  5
C7
330
1F
100
AcDbEntity
  8
0
  6
Continuous
 62
     7
370
    25
100
AcDbLine
 10
-343.5370208577
 20
36.0
 30
0.0
 11
-340.8584723705
 21
36.0
 31
0.0
  0
LINE
  5
C8
330
1F
100
AcDbEntity
  8
0
  6
Continuous
 62
     7
370
    25
100
AcDbLine
 10
-305.3792886541
 20
76.7995061845
 30
0.0
 11
-304.9999999861
 21
72.8342849709
 31
0.0
  0
LINE
  5
C9
330
1F
100
AcDbEntity
  8
0
  6
Continuous
 62
     8
370
    25
100
AcDbLine
 10
-349.7848794989
 20
-142.5
 30
0.0
 11
-345.7848794989
 21
-142.5
 31
0.0
  0
LINE
  5
CA
330
1F
100
AcDbEntity
  8
0
  6
Continuous
 62
     8
370
    25
100
AcDbLine
 10
-305.0
 20
-187.2848794989
 30
0.0
 11
-305.0
 21
-183.2848794989
 31
0.0
  0
LINE
  5
CB
330
1F
100
AcDbEntity
  8
0
  6
Continuous
 62
     8
370
    25
100
AcDbLine
 10
349.7848794989
 20
-142.5
 30
0.0
 11
345.7848794989
 21
-142.5
 31
0.0
  0
LINE
  5
CC
330
1F
100
AcDbEntity
  8
0
  6
Continuous
 62
     8
370
    25
100
AcDbLine
 10
305.0
 20
-187.2848794989
 30
0.0
 11
305.0
 21
-183.2848794989
 31
0.0
  0
ARC
  5
CD
330
1F
100
AcDbEntity
  8
0
  6
Continuous
 62
     7
370
    25
100
AcDbCircle
 10
-305.0
 20
-142.5
 30
0.0
 40
44.78487949887619
100
AcDbArc
 50
180.0
 51
270.0
  0
ARC
  5
CE
330
1F
100
AcDbEntity
  8
0
  6
Continuous
 62
     7
370
    25
100
AcDbCircle
 10
305.0
 20
-142.5
 30
0.0
 40
44.78487949887625
100
AcDbArc
 50
270.0
 51
0.0
  0
ARC
  5
CF
330
1F
100
AcDbEntity
  8
0
  6
Continuous
 62
     7
370
    25
100
AcDbCircle
 10
305.0
 20
-142.5
 30
0.0
 40
40.7848794988758
100
AcDbArc
 50
270.0
 51
0.0
  0
ARC
  5
D0
330
1F
100
AcDbEntity
  8
0
  6
Continuous
 62
     7
370
    25
100
AcDbCircle
 10
-305.0
 20
-142.5
 30
0.0
 40
40.78487949887608
100
AcDbArc
 50
180.0
 51
270.0
  0
ARC
  5
D1
330
1F
100
AcDbEntity
  8
0
  6
Continuous
 62
     7
370
    25
100
AcDbCircle
 10
-200.0
 20
53.0
 30
0.0
 40
20.0
100
AcDbArc
 50
90.0
 51
180.0
  0
ARC
  5
D2
330
1F
100
AcDbEntity
  8
0
  6
Continuous
 62
     7
370
    25
100
AcDbCircle
 10
-200.0
 20
-57.0
 30
0.0
 40
20.00000000000006
100
AcDbArc
 50
180.0
 51
270.0
  0
ARC
  5
D3
330
1F
100
AcDbEntity
  8
0
  6
Continuous
 62
     7
370
    25
100
AcDbCircle
 10
200.0
 20
-57.0
 30
0.0
 40
20.0
100
AcDbArc
 50
270.0
 51
0.0
  0
ARC
  5
D4
330
1F
100
AcDbEntity
  8
0
  6
Continuous
 62
     7
370
    25
100
AcDbCircle
 10
200.0
 20
53.0
 30
0.0
 40
20.00000000000001
100
AcDbArc
 50
0.0
 51
90.0
  0
ARC
  5
D5
330
1F
100
AcDbEntity
  8
0
  6
Continuous
 62
     7
370
    25
100
AcDbCircle
 10
0.0
 20
-2.5
 30
0.0
 40
24.5
100
AcDbArc
 50
47.9142067208
 51
132.0857932792
  0
ARC
  5
D6
330
1F
100
AcDbEntity
  8
0
  6
Continuous
 62
     7
370
    25
100
AcDbCircle
 10
0.0
 20
-1.6411395005
 30
0.0
 40
23.86954572522327
100
AcDbArc
 50
46.5323110497
 51
133.4676889503
  0
SPLINE
  5
145
330
23
100
AcDbEntity
 67
     1
  8
0
  6
Continuous
 62
     7
370
    25
100
AcDbSpline
210
0.0
220
0.0
230
1.0
 70
     8
 71
     3
 72
    16
 73
    12
 74
     0
 42
0.000000001
 43
0.00000001
 40
0.0
 40
0.0
 40
0.0
 40
0.0
 40
0.0489778021312974
 40
0.1681012168886878
 40
0.2825148150403924
 40
0.3994993861350277
 40
0.5274265290851573
 40
0.6645701028509333
 40
0.8061025843460906
 40
0.9587298291984608
 40
1.0
 40
1.0
 40
1.0
 40
1.0
 10
32.55286633272105
 20
-158.4804695518491
 30
0.0
 10
32.55231649306739
 20
-158.4879904470322
 30
0.0
 10
32.55042933784911
 20
-158.5138036027345
 30
0.0
 10
32.57967564360249
 20
-158.2856742227084
 30
0.0
 10
32.71618847548032
 20
-157.8195266446323
 30
0.0
 10
33.03577874417712
 20
-157.1501775663635
 30
0.0
 10
33.59731772347223
 20
-156.4068095240637
 30
0.0
 10
34.41870533557282
 20
-155.7127965117351
 30
0.0
 10
35.46772741171046
 20
-155.2112302676325
 30
0.0
 10
36.37447977446691
 20
-154.9814429430951
 30
0.0
 10
36.88442818236773
 20
-155.0191379088928
 30
0.0
 10
36.99296834946107
 20
-155.0271611085398
 30
0.0
  0
LWPOLYLINE
  5
157
330
23
100
AcDbEntity
 67
     1
  8
0
  6
Continuous
 62
     7
370
    25
100
AcDbPolyline
 90
        9
 70
   128
 43
0.0
 10
-136.766907311
 20
-78.8629366799
 10
-136.5068328286
 20
-80.0637555779
 10
-135.8925458907
 20
-81.1973470811
 10
-134.9464339946
 20
-82.222397798
 10
-133.7029778955
 20
-83.1015500725
 10
-132.2074949659
 20
-83.8027634723
 10
-130.5144876183
 20
-84.300482492
 10
-128.6856569813
 20
-84.576567916
 10
-126.7876542213
 20
-84.6209578965
  0
SPLINE
  5
162
330
23
100
AcDbEntity
 67
     1
  8
0
  6
Continuous
 62
     7
370
    25
100
AcDbSpline
210
0.0
220
0.0
230
1.0
 70
     8
 71
     3
 72
    24
 73
    20
 74
     0
 42
0.000000001
 43
0.00000001
 40
0.0
 40
0.0
 40
0.0
 40
0.0
 40
0.2499999999999971
 40
0.2499999999999971
 40
0.3749999999999964
 40
0.3749999999999964
 40
0.4999999999999958
 40
0.4999999999999958
 40
0.6249999999999951
 40
0.6249999999999951
 40
0.7499999999999944
 40
0.7499999999999944
 40
0.8124999999999959
 40
0.8124999999999959
 40
0.8749999999999972
 40
0.8749999999999972
 40
0.9374999999999987
 40
0.9374999999999987
 40
1.0
 40
1.0
 40
1.0
 40
1.0
 10
36.983155693208
 20
-155.0
 30
0.0
 10
36.79972934930884
 20
-155.0
 30
0.0
 10
36.56656077458678
 20
-154.8906628318013
 30
0.0
 10
36.15945518974704
 20
-154.6056075239019
 30
0.0
 10
36.01395668484533
 20
-154.4894140226212
 30
0.0
 10
35.7104394035518
 20
-154.2183639797577
 30
0.0
 10
35.55195892933698
 20
-154.0633135440721
 30
0.0
 10
35.22519540295402
 20
-153.7092260024477
 30
0.0
 10
35.05612680010495
 20
-153.5095232766251
 30
0.0
 10
34.71700852776883
 20
-153.0552625917728
 30
0.0
 10
34.54722263144824
 20
-152.8025628429158
 30
0.0
 10
34.30289750183407
 20
-152.3576655891207
 30
0.0
 10
34.22273855331466
 20
-152.1968949837513
 30
0.0
 10
34.07390975989721
 20
-151.8499807594057
 30
0.0
 10
34.00487990520219
 20
-151.6638794974958
 30
0.0
 10
33.88655894620651
 20
-151.2513237647565
 30
0.0
 10
33.83685395359922
 20
-151.02044779352
 30
0.0
 10
33.78135208046065
 20
-150.5282293833519
 30
0.0
 10
33.77621902356505
 20
-150.2616279344344
 30
0.0
 10
33.79852215067753
 20
-150.0
 30
0.0
  0
LWPOLYLINE
  5
165
330
23
100
AcDbEntity
 67
     1
  8
0
  6
Continuous
 62
     7
370
    25
100
AcDbPolyline
 90
        9
 70
   128
 43
0.0
 10
64.4332820279
 20
-155.0
 10
65.1020424926
 20
-154.903926402
 10
65.7451028678
 20
-154.6193976626
 10
66.3377507037
 20
-154.1573480615
 10
66.8572108765
 20
-153.5355339059
 10
67.2835208229
 20
-152.7778511651
 10
67.6002976909
 20
-151.9134171618
 10
67.7953679231
 20
-150.9754516101
 10
67.8612350798
 20
-150.0
  0
SPLINE
  5
170
330
23
100
AcDbEntity
 67
     1
  8
0
  6
Continuous
 62
     8
370
    25
100
AcDbSpline
210
0.0
220
0.0
230
1.0
 70
     8
 71
     3
 72
    13
 73
     9
 74
     0
 42
0.000000001
 43
0.00000001
 40
0.0
 40
0.0
 40
0.0
 40
0.0
 40
0.0765159535496699
 40
0.284726512656484
 40
0.5754922040692392
 40
0.7925956332511728
 40
0.977216347102951
 40
1.0
 40
1.0
 40
1.0
 40
1.0
 10
32.54201186119253
 20
-158.3974225786304
 30
0.0
 10
32.54957308508437
 20
-158.2803747149659
 30
0.0
 10
32.57770945155784
 20
-157.8448233235369
 30
0.0
 10
32.50968409131345
 20
-156.5638140170807
 30
0.0
 10
32.37018626495869
 20
-154.6139546648828
 30
0.0
 10
32.2626420590182
 20
-152.2680240495435
 30
0.0
 10
32.27318731268651
 20
-150.6809490019849
 30
0.0
 10
32.30366544984089
 20
-149.9101732818365
 30
0.0
 10
32.30701351482504
 20
-149.8255025164875
 30
0.0
  0
SPLINE
  5
171
330
23
100
AcDbEntity
 67
     1
  8
0
  6
Continuous
 62
     8
370
    25
100
AcDbSpline
210
0.0
220
0.0
230
1.0
 70
     8
 71
     3
 72
     9
 73
     5
 74
     0
 42
0.000000001
 43
0.00000001
 40
0.0
 40
0.0
 40
0.0
 40
0.0
 40
0.9039735654289885
 40
1.0
 40
1.0
 40
1.0
 40
1.0
 10
32.30701351482504
 20
-149.8255025164875
 30
0.0
 10
32.49279980658734
 20
-145.3583445357757
 30
0.0
 10
32.69832162588315
 20
-140.4166535930856
 30
0.0
 10
32.89803120723874
 20
-135.4745706083758
 30
0.0
 10
32.91720860628597
 20
-135.0
 30
0.0
  0
SPLINE
  5
172
330
23
100
AcDbEntity
 67
     1
  8
0
  6
Continuous
 62
     8
370
    25
100
AcDbSpline
210
0.0
220
0.0
230
1.0
 70
     8
 71
     3
 72
     9
 73
     5
 74
     0
 42
0.000000001
 43
0.00000001
 40
0.0
 40
0.0
 40
0.0
 40
0.0
 40
0.1065401287832706
 40
0.9999999999999999
 40
0.9999999999999999
 40
0.9999999999999999
 40
0.9999999999999999
 10
34.42989437407581
 20
-135.0
 30
0.0
 10
34.40793768989003
 20
-135.5327372933674
 30
0.0
 10
34.20184929449823
 20
-140.5330812900517
 30
0.0
 10
33.98883863081752
 20
-145.5328802579934
 30
0.0
 10
33.79852215067754
 20
-150.0
 30
0.0
  0
LINE
  5
176
330
23
100
AcDbEntity
 67
     1
  8
0
  6
Continuous
 62
     7
370
    25
100
AcDbLine
 10
-38.3730192373
 20
-135.0
 30
0.0
 11
-37.5
 21
-160.0
 31
0.0
  0
LINE
  5
177
330
23
100
AcDbEntity
 67
     1
  8
0
  6
Continuous
 62
     7
370
    25
100
AcDbLine
 10
32.5
 20
-160.0
 30
0.0
 11
32.5559462443
 21
-158.397909178
 31
0.0
  0
LINE
  5
178
330
23
100
AcDbEntity
 67
     1
  8
0
  6
Continuous
 62
     7
370
    25
100
AcDbLine
 10
187.5
 20
-4.209343825
 30
0.0
 11
-187.2793976379
 21
-4.209343825
 31
0.0
  0
LINE
  5
179
330
23
100
AcDbEntity
 67
     1
  8
0
  6
Continuous
 62
     7
370
    25
100
AcDbLine
 10
-183.2848794989
 20
0.0
 30
0.0
 11
187.5
 21
0.0
 31
0.0
  0
LINE
  5
17A
330
23
100
AcDbEntity
 67
     1
  8
0
  6
Continuous
 62
     7
370
    25
100
AcDbLine
 10
-142.5
 20
-59.9722722984
 30
0.0
 11
-142.5
 21
0.0
 31
0.0
  0
LINE
  5
17B
330
23
100
AcDbEntity
 67
     1
  8
0
  6
Continuous
 62
     7
370
    25
100
AcDbLine
 10
187.5
 20
-135.0
 30
0.0
 11
187.5
 21
0.0
 31
0.0
  0
LINE
  5
17C
330
23
100
AcDbEntity
 67
     1
  8
0
  6
Continuous
 62
     7
370
    25
100
AcDbLine
 10
-184.5541931152
 20
-56.209343825
 30
0.0
 11
187.5
 21
-56.209343825
 31
0.0
  0
LINE
  5
17D
330
23
100
AcDbEntity
 67
     1
  8
0
  6
Continuous
 62
     7
370
    25
100
AcDbLine
 10
-184.5541931152
 20
-56.209343825
 30
0.0
 11
-187.2793976379
 21
-4.209343825
 31
0.0
  0
LINE
  5
17E
330
23
100
AcDbEntity
 67
     1
  8
0
  6
Continuous
 62
     7
370
    25
100
AcDbLine
 10
187.5
 20
-59.9722722984
 30
0.0
 11
-181.0298374881
 21
-59.9722722984
 31
0.0
  0
LINE
  5
17F
330
23
100
AcDbEntity
 67
     1
  8
0
  6
Continuous
 62
     7
370
    25
100
AcDbLine
 10
-136.766907311
 20
-78.8629366799
 30
0.0
 11
-137.9856598517
 21
-59.9722722984
 31
0.0
  0
LINE
  5
180
330
23
100
AcDbEntity
 67
     1
  8
0
  6
Continuous
 62
     7
370
    25
100
AcDbLine
 10
-76.8913887729
 20
-131.4018439966
 30
0.0
 11
187.5
 21
-131.4018439966
 31
0.0
  0
LINE
  5
181
330
23
100
AcDbEntity
 67
     1
  8
0
  6
Continuous
 62
     7
370
    25
100
AcDbLine
 10
-76.8913887729
 20
-135.0
 30
0.0
 11
-76.8913887729
 21
-131.4018439966
 31
0.0
  0
LINE
  5
182
330
23
100
AcDbEntity
 67
     1
  8
0
  6
Continuous
 62
     7
370
    25
100
AcDbLine
 10
187.5
 20
-135.0
 30
0.0
 11
-76.8913887729
 21
-135.0
 31
0.0
  0
LINE
  5
183
330
23
100
AcDbEntity
 67
     1
  8
0
  6
Continuous
 62
     7
370
    25
100
AcDbLine
 10
32.5
 20
-160.0
 30
0.0
 11
-37.5
 21
-160.0
 31
0.0
  0
LINE
  5
184
330
23
100
AcDbEntity
 67
     1
  8
0
  6
Continuous
 62
     7
370
    25
100
AcDbLine
 10
110.5
 20
-155.0
 30
0.0
 11
36.9831556932
 21
-155.0
 31
0.0
  0
LINE
  5
185
330
23
100
AcDbEntity
 67
     1
  8
0
  6
Continuous
 62
     7
370
    25
100
AcDbLine
 10
71.2891881317
 20
-135.0
 30
0.0
 11
71.2891881317
 21
-155.0
 31
0.0
  0
LINE
  5
186
330
23
100
AcDbEntity
 67
     1
  8
0
  6
Continuous
 62
     7
370
    25
100
AcDbLine
 10
110.5
 20
-155.0
 30
0.0
 11
110.5
 21
-135.0
 31
0.0
  0
LINE
  5
187
330
23
100
AcDbEntity
 67
     1
  8
0
  6
Continuous
 62
     7
370
    25
100
AcDbLine
 10
33.7985221507
 20
-150.0
 30
0.0
 11
115.5
 21
-150.0
 31
0.0
  0
LINE
  5
188
330
23
100
AcDbEntity
 67
     1
  8
0
  6
Continuous
 62
     7
370
    25
100
AcDbLine
 10
115.5
 20
-135.0
 30
0.0
 11
115.5
 21
-150.0
 31
0.0
  0
LINE
  5
189
330
23
100
AcDbEntity
 67
     1
  8
0
  6
Continuous
 62
     8
370
    25
100
AcDbLine
 10
-128.3778920018
 20
-59.9722722984
 30
0.0
 11
-126.7876542213
 21
-84.6209578965
 31
0.0
  0
LINE
  5
18A
330
23
100
AcDbEntity
 67
     1
  8
0
  6
Continuous
 62
     8
370
    25
100
AcDbLine
 10
67.8612350798
 20
-150.0
 30
0.0
 11
67.8612350798
 21
-135.0
 31
0.0
  0
ARC
  5
18B
330
23
100
AcDbEntity
 67
     1
  8
0
  6
Continuous
 62
     7
370
    25
100
AcDbCircle
 10
-183.2848794989
 20
-4.0
 30
0.0
 40
4.000000000000018
100
AcDbArc
 50
90.0
 51
183.0
  0
ARC
  5
18C
330
23
100
AcDbEntity
 67
     1
  8
0
  6
Continuous
 62
     7
370
    25
100
AcDbCircle
 10
-180.5596749762
 20
-56.0
 30
0.0
 40
3.999999999999988
100
AcDbArc
 50
183.0
 51
263.2498136127
  0
ARC
  5
18D
330
23
100
AcDbEntity
 67
     1
  8
0
  6
Continuous
 62
     7
370
    25
100
AcDbCircle
 10
-76.8913887729
 20
-81.4018439966
 30
0.0
 40
49.99999999999997
100
AcDbArc
 50
183.6913859865
 51
270.0
  0
ARC
  5
18E
330
23
100
AcDbEntity
 67
     1
  8
0
  6
Continuous
 62
     7
370
    25
100
AcDbCircle
 10
-76.8913887729
 20
-75.0
 30
0.0
 40
59.99999999999997
100
AcDbArc
 50
183.6913859865
 51
270.0
  0
ARC
  5
18F
330
23
100
AcDbEntity
 67
     1
  8
0
  6
Continuous
 62
     7
370
    25
100
AcDbCircle
 10
34.4712707155
 20
-137.7881678146
 30
0.0
 40
12.23034897112345
100
AcDbArc
 50
259.807382458
 51
266.8467687994
  0
ARC
  5
190
330
23
100
AcDbEntity
 67
     1
  8
0
  6
Continuous
 62
     7
370
    25
100
AcDbCircle
 10
110.5
 20
-150.0
 30
0.0
 40
4.999999999999972
100
AcDbArc
 50
270.0
 51
0.0
  0
VIEWPORT
  5
193
330
23
100
AcDbEntity
 67
     1
  8
0
100
AcDbViewport
 10
0.0
 20
0.0
 30
0.0
 40
205.6
 41
156.0
 68
     1
 69
     1
 12
0.0
 22
0.1075602506
 13
0.0
 23
0.0
 14
10.0
 24
10.0
 15
10.0
 25
10.0
 16
0.0
 26
0.0
 36
1.0
 17
0.0
 27
0.0
 37
0.0
 42
50.0
 43
0.0
 44
0.0
 45
541.4179963605
 50
0.0
 51
0.0
 72
   100
 90
   557152
  1

281
     0
 71
     1
 74
     0
110
0.0
120
0.0
130
0.0
111
1.0
121
0.0
131
0.0
112
0.0
122
1.0
132
0.0
 79
     0
146
0.0
  0
ENDSEC
  0
SECTION
  2
OBJECTS
  0
DICTIONARY
  5
C
330
0
100
AcDbDictionary
281
     1
  3
ACAD_GROUP
350
D
  3
ACAD_LAYOUT
350
1A
  3
ACAD_MLINESTYLE
350
17
  3
ACAD_PLOTSETTINGS
350
19
  3
ACAD_PLOTSTYLENAME
350
E
  3
ACAD_SCALELIST
350
47
  0
DICTIONARY
  5
D
102
{ACAD_REACTORS
330
C
102
}
330
C
100
AcDbDictionary
281
     1
  0
DICTIONARY
  5
1A
102
{ACAD_REACTORS
330
C
102
}
330
C
100
AcDbDictionary
281
     1
  3
_Front
350
1E
  3
_Right
350
26
  3
Model
350
22
  0
DICTIONARY
  5
17
102
{ACAD_REACTORS
330
C
102
}
330
C
100
AcDbDictionary
281
     1
  3
Standard
350
18
  0
DICTIONARY
  5
19
102
{ACAD_REACTORS
330
C
102
}
330
C
100
AcDbDictionary
281
     1
  0
ACDBDICTIONARYWDFLT
  5
E
102
{ACAD_REACTORS
330
C
102
}
330
C
100
AcDbDictionary
281
     1
  3
Normal
350
F
100
AcDbDictionaryWithDefault
340
F
  0
DICTIONARY
  5
47
102
{ACAD_REACTORS
330
C
102
}
330
C
100
AcDbDictionary
281
     1
  3
A0
350
48
  3
A1
350
49
  3
A2
350
4A
  3
A3
350
4B
  3
A4
350
4C
  3
A5
350
4D
  3
A6
350
4E
  3
A7
350
4F
  3
A8
350
50
  3
A9
350
51
  3
B0
350
52
  3
B1
350
53
  3
B2
350
54
  3
B3
350
55
  3
B4
350
56
  3
B5
350
57
  3
B6
350
58
  3
B7
350
59
  3
B8
350
5A
  3
B9
350
5B
  3
C0
350
5C
  3
C1
350
5D
  3
C2
350
5E
  3
C3
350
5F
  3
C4
350
60
  3
C5
350
61
  3
C6
350
62
  3
C7
350
63
  3
C8
350
64
  3
C9
350
65
  3
D0
350
66
  3
D1
350
67
  3
D2
350
68
  0
LAYOUT
  5
1E
102
{ACAD_REACTORS
330
1A
102
}
330
1A
100
AcDbPlotSettings
  1

  2
none_device
  4
ISO_A4_(210.00_x_297.00_MM)
  6

 40
7.5
 41
20.0
 42
7.5
 43
20.0
 44
210.0
 45
297.0
 46
0.0
 47
0.0
 48
0.0
 49
0.0
140
0.0
141
0.0
142
1.0
143
2.7220613191
 70
   688
 72
     1
 73
     1
 74
     1
  7

 75
     0
147
0.3673686529
148
349.7848794989
149
160.0
100
AcDbLayout
  1
_Front
 70
     1
 71
     1
 10
-404.22610588
 20
-180.4154598929
 11
404.22610588
 21
391.2174171091
 12
0.0
 22
0.0
 32
0.0
 14
1.0000000000E+20
 24
1.0000000000E+20
 34
1.0000000000E+20
 15
-1.0000000000E+20
 25
-1.0000000000E+20
 35
-1.0000000000E+20
146
0.0
 13
0.0
 23
0.0
 33
0.0
 16
1.0
 26
0.0
 36
0.0
 17
0.0
 27
1.0
 37
0.0
 76
     0
330
1B
331
191
  0
LAYOUT
  5
26
102
{ACAD_REACTORS
330
1A
102
}
330
1A
100
AcDbPlotSettings
  1

  2
none_device
  4
ANSI_A_(11.00_x_8.50_Inches)
  6

 40
6.35
 41
19.05
 42
6.35000508
 43
19.05000254
 44
279.4
 45
215.9
 46
133.34999746
 47
88.8574700039
 48
0.0
 49
0.0
140
0.0
141
0.0
142
0.0155667106
143
1.0
 70
  1696
 72
     0
 73
     0
 74
     1
  7

 75
     0
147
0.0150092248
148
8884.5359392715
149
4757.0359392715
100
AcDbLayout
  1
_Right
 70
     1
 71
     2
 10
0.0
 20
0.0
 11
0.0
 21
0.0
 12
0.0
 22
0.0
 32
0.0
 14
-349.7848794989
 24
-187.2848794989
 34
0.0
 15
349.7848794989
 25
187.5
 35
0.0
146
0.0
 13
0.0
 23
0.0
 33
0.0
 16
1.0
 26
0.0
 36
0.0
 17
0.0
 27
1.0
 37
0.0
 76
     0
330
23
331
193
  0
LAYOUT
  5
22
102
{ACAD_REACTORS
330
1A
102
}
330
1A
100
AcDbPlotSettings
  1

  2
none_device
  4
Letter_(8.50_x_11.00_Inches)
  6

 40
6.35
 41
6.35
 42
6.35000508
 43
6.35000508
 44
215.9
 45
279.4
 46
0.0
 47
0.0
 48
0.0
 49
0.0
140
0.0
141
0.0
142
1.0
143
1.0
 70
  1712
 72
     1
 73
     0
 74
     0
  7

 75
     0
147
1.0
148
0.0
149
0.0
100
AcDbLayout
  1
Model
 70
     1
 71
     0
 10
0.0
 20
0.0
 11
420.0
 21
297.0
 12
0.0
 22
0.0
 32
0.0
 14
-349.7848794989
 24
-187.2848794989
 34
0.0
 15
349.7848794989
 25
187.5
 35
0.0
146
0.0
 13
0.0
 23
0.0
 33
0.0
 16
1.0
 26
0.0
 36
0.0
 17
0.0
 27
1.0
 37
0.0
 76
     0
330
1F
331
29
  0
MLINESTYLE
  5
18
102
{ACAD_REACTORS
330
17
102
}
330
17
100
AcDbMlineStyle
  2
Standard
 70
     0
  3

 62
   256
 51
90.0
 52
90.0
 71
     2
 49
0.5
 62
   256
  6
BYLAYER
 49
-0.5
 62
   256
  6
BYLAYER
  0
ACDBPLACEHOLDER
  5
F
102
{ACAD_REACTORS
330
E
102
}
330
E
  0
SCALE
  5
48
102
{ACAD_REACTORS
330
47
102
}
330
47
100
AcDbScale
 70
     0
300
1:1
140
1.0
141
1.0
290
     1
  0
SCALE
  5
49
102
{ACAD_REACTORS
330
47
102
}
330
47
100
AcDbScale
 70
     0
300
1:2
140
1.0
141
2.0
290
     0
  0
SCALE
  5
4A
102
{ACAD_REACTORS
330
47
102
}
330
47
100
AcDbScale
 70
     0
300
1:4
140
1.0
141
4.0
290
     0
  0
SCALE
  5
4B
102
{ACAD_REACTORS
330
47
102
}
330
47
100
AcDbScale
 70
     0
300
1:5
140
1.0
141
5.0
290
     0
  0
SCALE
  5
4C
102
{ACAD_REACTORS
330
47
102
}
330
47
100
AcDbScale
 70
     0
300
1:8
140
1.0
141
8.0
290
     0
  0
SCALE
  5
4D
102
{ACAD_REACTORS
330
47
102
}
330
47
100
AcDbScale
 70
     0
300
1:10
140
1.0
141
10.0
290
     0
  0
SCALE
  5
4E
102
{ACAD_REACTORS
330
47
102
}
330
47
100
AcDbScale
 70
     0
300
1:16
140
1.0
141
16.0
290
     0
  0
SCALE
  5
4F
102
{ACAD_REACTORS
330
47
102
}
330
47
100
AcDbScale
 70
     0
300
1:20
140
1.0
141
20.0
290
     0
  0
SCALE
  5
50
102
{ACAD_REACTORS
330
47
102
}
330
47
100
AcDbScale
 70
     0
300
1:30
140
1.0
141
30.0
290
     0
  0
SCALE
  5
51
102
{ACAD_REACTORS
330
47
102
}
330
47
100
AcDbScale
 70
     0
300
1:40
140
1.0
141
40.0
290
     0
  0
SCALE
  5
52
102
{ACAD_REACTORS
330
47
102
}
330
47
100
AcDbScale
 70
     0
300
1:50
140
1.0
141
50.0
290
     0
  0
SCALE
  5
53
102
{ACAD_REACTORS
330
47
102
}
330
47
100
AcDbScale
 70
     0
300
1:100
140
1.0
141
100.0
290
     0
  0
SCALE
  5
54
102
{ACAD_REACTORS
330
47
102
}
330
47
100
AcDbScale
 70
     0
300
2:1
140
2.0
141
1.0
290
     0
  0
SCALE
  5
55
102
{ACAD_REACTORS
330
47
102
}
330
47
100
AcDbScale
 70
     0
300
4:1
140
4.0
141
1.0
290
     0
  0
SCALE
  5
56
102
{ACAD_REACTORS
330
47
102
}
330
47
100
AcDbScale
 70
     0
300
8:1
140
8.0
141
1.0
290
     0
  0
SCALE
  5
57
102
{ACAD_REACTORS
330
47
102
}
330
47
100
AcDbScale
 70
     0
300
10:1
140
10.0
141
1.0
290
     0
  0
SCALE
  5
58
102
{ACAD_REACTORS
330
47
102
}
330
47
100
AcDbScale
 70
     0
300
100:1
140
100.0
141
1.0
290
     0
  0
SCALE
  5
59
102
{ACAD_REACTORS
330
47
102
}
330
47
100
AcDbScale
 70
     0
300
1/128" = 1'-0"
140
0.0078125
141
12.0
290
     0
  0
SCALE
  5
5A
102
{ACAD_REACTORS
330
47
102
}
330
47
100
AcDbScale
 70
     0
300
1/64" = 1'-0"
140
0.015625
141
12.0
290
     0
  0
SCALE
  5
5B
102
{ACAD_REACTORS
330
47
102
}
330
47
100
AcDbScale
 70
     0
300
1/32" = 1'-0"
140
0.03125
141
12.0
290
     0
  0
SCALE
  5
5C
102
{ACAD_REACTORS
330
47
102
}
330
47
100
AcDbScale
 70
     0
300
1/16" = 1'-0"
140
0.0625
141
12.0
290
     0
  0
SCALE
  5
5D
102
{ACAD_REACTORS
330
47
102
}
330
47
100
AcDbScale
 70
     0
300
3/32" = 1'-0"
140
0.09375
141
12.0
290
     0
  0
SCALE
  5
5E
102
{ACAD_REACTORS
330
47
102
}
330
47
100
AcDbScale
 70
     0
300
1/8" = 1'-0"
140
0.125
141
12.0
290
     0
  0
SCALE
  5
5F
102
{ACAD_REACTORS
330
47
102
}
330
47
100
AcDbScale
 70
     0
300
3/16" = 1'-0"
140
0.1875
141
12.0
290
     0
  0
SCALE
  5
60
102
{ACAD_REACTORS
330
47
102
}
330
47
100
AcDbScale
 70
     0
300
1/4" = 1'-0"
140
0.25
141
12.0
290
     0
  0
SCALE
  5
61
102
{ACAD_REACTORS
330
47
102
}
330
47
100
AcDbScale
 70
     0
300
3/8" = 1'-0"
140
0.375
141
12.0
290
     0
  0
SCALE
  5
62
102
{ACAD_REACTORS
330
47
102
}
330
47
100
AcDbScale
 70
     0
300
1/2" = 1'-0"
140
0.5
141
12.0
290
     0
  0
SCALE
  5
63
102
{ACAD_REACTORS
330
47
102
}
330
47
100
AcDbScale
 70
     0
300
3/4" = 1'-0"
140
0.75
141
12.0
290
     0
  0
SCALE
  5
64
102
{ACAD_REACTORS
330
47
102
}
330
47
100
AcDbScale
 70
     0
300
1" = 1'-0"
140
1.0
141
12.0
290
     0
  0
SCALE
  5
65
102
{ACAD_REACTORS
330
47
102
}
330
47
100
AcDbScale
 70
     0
300
1-1/2" = 1'-0"
140
1.5
141
12.0
290
     0
  0
SCALE
  5
66
102
{ACAD_REACTORS
330
47
102
}
330
47
100
AcDbScale
 70
     0
300
3" = 1'-0"
140
3.0
141
12.0
290
     0
  0
SCALE
  5
67
102
{ACAD_REACTORS
330
47
102
}
330
47
100
AcDbScale
 70
     0
300
6" = 1'-0"
140
6.0
141
12.0
290
     0
  0
SCALE
  5
68
102
{ACAD_REACTORS
330
47
102
}
330
47
100
AcDbScale
 70
     0
300
1'-0" = 1'-0"
140
12.0
141
12.0
290
     0
  0
ENDSEC
  0
EOF
