  0
SECTION
  2
HEADER
  9
$ACADVER
  1
AC1015
  9
$ACADMAINTVER
 70
     6
  9
$DWGCODEPAGE
  3
ANSI_1252
  9
$INSBASE
 10
0.0
 20
0.0
 30
0.0
  9
$EXTMIN
 10
-302.5
 20
-230.0
 30
0.0
  9
$EXTMAX
 10
302.5
 20
230.0
 30
0.0
  9
$LIMMIN
 10
0.0
 20
0.0
  9
$LIMMAX
 10
420.0
 20
297.0
  9
$ORTHOMODE
 70
     0
  9
$REGENMODE
 70
     1
  9
$FILLMODE
 70
     1
  9
$QTEXTMODE
 70
     0
  9
$MIRRTEXT
 70
     1
  9
$LTSCALE
 40
1.0
  9
$ATTMODE
 70
     1
  9
$TEXTSIZE
 40
3.5
  9
$TRACEWID
 40
1.0
  9
$TEXTSTYLE
  7
Standard
  9
$CLAYER
  8
0
  9
$CELTYPE
  6
ByLayer
  9
$CECOLOR
 62
   256
  9
$CELTSCALE
 40
1.0
  9
$DISPSILH
 70
     0
  9
$DIMSCALE
 40
1.0
  9
$DIMASZ
 40
3.302
  9
$DIMEXO
 40
1.0
  9
$DIMDLI
 40
3.75
  9
$DIMRND
 40
0.0
  9
$DIMDLE
 40
0.0
  9
$DIMEXE
 40
1.0
  9
$DIMTP
 40
0.0
  9
$DIMTM
 40
0.0
  9
$DIMTXT
 40
3.5
  9
$DIMCEN
 40
2.5
  9
$DIMTSZ
 40
0.0
  9
$DIMTOL
 70
     0
  9
$DIMLIM
 70
     0
  9
$DIMTIH
 70
     1
  9
$DIMTOH
 70
     1
  9
$DIMSE1
 70
     0
  9
$DIMSE2
 70
     0
  9
$DIMTAD
 70
     1
  9
$DIMZIN
 70
     1
  9
$DIMBLK
  1

  9
$DIMASO
 70
     1
  9
$DIMSHO
 70
     1
  9
$DIMPOST
  1

  9
$DIMAPOST
  1

  9
$DIMALT
 70
     0
  9
$DIMALTD
 70
     3
  9
$DIMALTF
 40
0.0393700787
  9
$DIMLFAC
 40
1.0
  9
$DIMTOFL
 70
     1
  9
$DIMTVP
 40
0.0
  9
$DIMTIX
 70
     0
  9
$DIMSOXD
 70
     0
  9
$DIMSAH
 70
     0
  9
$DIMBLK1
  1

  9
$DIMBLK2
  1

  9
$DIMSTYLE
  2
ISO-25
  9
$DIMCLRD
 70
     0
  9
$DIMCLRE
 70
     0
  9
$DIMCLRT
 70
     0
  9
$DIMTFAC
 40
1.0
  9
$DIMGAP
 40
1.524
  9
$DIMJUST
 70
     0
  9
$DIMSD1
 70
     0
  9
$DIMSD2
 70
     0
  9
$DIMTOLJ
 70
     0
  9
$DIMTZIN
 70
     1
  9
$DIMALTZ
 70
     0
  9
$DIMALTTZ
 70
     0
  9
$DIMUPT
 70
     0
  9
$DIMDEC
 70
     2
  9
$DIMTDEC
 70
     2
  9
$DIMALTU
 70
     2
  9
$DIMALTTD
 70
     3
  9
$DIMTXSTY
  7
Standard
  9
$DIMAUNIT
 70
     0
  9
$DIMADEC
 70
     2
  9
$DIMALTRND
 40
0.0
  9
$DIMAZIN
 70
     0
  9
$DIMDSEP
 70
    44
  9
$DIMATFIT
 70
     3
  9
$DIMFRAC
 70
     0
  9
$DIMLDRBLK
  1

  9
$DIMLUNIT
 70
     2
  9
$DIMLWD
 70
    -2
  9
$DIMLWE
 70
    -2
  9
$DIMTMOVE
 70
     0
  9
$LUNITS
 70
     2
  9
$LUPREC
 70
     2
  9
$SKETCHINC
 40
1.0
  9
$FILLETRAD
 40
10.0
  9
$AUNITS
 70
     0
  9
$AUPREC
 70
     2
  9
$MENU
  1
.
  9
$ELEVATION
 40
0.0
  9
$PELEVATION
 40
0.0
  9
$THICKNESS
 40
0.0
  9
$LIMCHECK
 70
     0
  9
$CHAMFERA
 40
0.0
  9
$CHAMFERB
 40
0.0
  9
$CHAMFERC
 40
0.0
  9
$CHAMFERD
 40
0.0
  9
$SKPOLY
 70
     0
  9
$TDCREATE
 40
2460409.635756921
  9
$TDUCREATE
 40
2460409.594090255
  9
$TDUPDATE
 40
2460409.635793831
  9
$TDUUPDATE
 40
2460409.594127164
  9
$TDINDWG
 40
0.0000000116
  9
$TDUSRTIMER
 40
0.0000000116
  9
$USRTIMER
 70
     1
  9
$ANGBASE
 50
0.0
  9
$ANGDIR
 70
     0
  9
$PDMODE
 70
     0
  9
$PDSIZE
 40
-1.0
  9
$PLINEWID
 40
0.0
  9
$SPLFRAME
 70
     0
  9
$SPLINETYPE
 70
     6
  9
$SPLINESEGS
 70
     8
  9
$HANDSEED
  5
3BE
  9
$SURFTAB1
 70
     6
  9
$SURFTAB2
 70
     6
  9
$SURFTYPE
 70
     6
  9
$SURFU
 70
     6
  9
$SURFV
 70
     6
  9
$UCSBASE
  2

  9
$UCSNAME
  2

  9
$UCSORG
 10
0.0
 20
0.0
 30
0.0
  9
$UCSXDIR
 10
1.0
 20
0.0
 30
0.0
  9
$UCSYDIR
 10
0.0
 20
1.0
 30
0.0
  9
$UCSORTHOREF
  2

  9
$UCSORTHOVIEW
 70
     0
  9
$UCSORGTOP
 10
0.0
 20
0.0
 30
0.0
  9
$UCSORGBOTTOM
 10
0.0
 20
0.0
 30
0.0
  9
$UCSORGLEFT
 10
0.0
 20
0.0
 30
0.0
  9
$UCSORGRIGHT
 10
0.0
 20
0.0
 30
0.0
  9
$UCSORGFRONT
 10
0.0
 20
0.0
 30
0.0
  9
$UCSORGBACK
 10
0.0
 20
0.0
 30
0.0
  9
$PUCSBASE
  2

  9
$PUCSNAME
  2

  9
$PUCSORG
 10
0.0
 20
0.0
 30
0.0
  9
$PUCSXDIR
 10
1.0
 20
0.0
 30
0.0
  9
$PUCSYDIR
 10
0.0
 20
1.0
 30
0.0
  9
$PUCSORTHOREF
  2

  9
$PUCSORTHOVIEW
 70
     0
  9
$PUCSORGTOP
 10
0.0
 20
0.0
 30
0.0
  9
$PUCSORGBOTTOM
 10
0.0
 20
0.0
 30
0.0
  9
$PUCSORGLEFT
 10
0.0
 20
0.0
 30
0.0
  9
$PUCSORGRIGHT
 10
0.0
 20
0.0
 30
0.0
  9
$PUCSORGFRONT
 10
0.0
 20
0.0
 30
0.0
  9
$PUCSORGBACK
 10
0.0
 20
0.0
 30
0.0
  9
$USERI1
 70
     0
  9
$USERI2
 70
     0
  9
$USERI3
 70
     0
  9
$USERI4
 70
     0
  9
$USERI5
 70
     0
  9
$USERR1
 40
0.0
  9
$USERR2
 40
0.0
  9
$USERR3
 40
0.0
  9
$USERR4
 40
0.0
  9
$USERR5
 40
0.0
  9
$WORLDVIEW
 70
     1
  9
$SHADEDGE
 70
     3
  9
$SHADEDIF
 70
    70
  9
$TILEMODE
 70
     1
  9
$MAXACTVP
 70
    64
  9
$PINSBASE
 10
0.0
 20
0.0
 30
0.0
  9
$PLIMCHECK
 70
     0
  9
$PEXTMIN
 10
-302.5
 20
-160.0
 30
0.0
  9
$PEXTMAX
 10
302.5
 20
0.0
 30
0.0
  9
$PLIMMIN
 10
-349.5817120623
 20
-177.6556420233
  9
$PLIMMAX
 10
349.5817120623
 20
316.7023346304
  9
$UNITMODE
 70
     0
  9
$VISRETAIN
 70
     1
  9
$PLINEGEN
 70
     0
  9
$PSLTSCALE
 70
     1
  9
$TREEDEPTH
 70
  3020
  9
$CMLSTYLE
  2
Standard
  9
$CMLJUST
 70
     0
  9
$CMLSCALE
 40
20.0
  9
$PROXYGRAPHICS
 70
     1
  9
$MEASUREMENT
 70
     1
  9
$CELWEIGHT
370
    -1
  9
$ENDCAPS
280
     0
  9
$JOINSTYLE
280
     0
  9
$LWDISPLAY
290
     1
  9
$INSUNITS
 70
     4
  9
$HYPERLINKBASE
  1

  9
$STYLESHEET
  1

  9
$XEDIT
290
     1
  9
$CEPSNTYPE
380
     0
  9
$PSTYLEMODE
290
     1
  9
$FINGERPRINTGUID
  2
{1d96fe5d-3b26-4064-a656-acb54286cf97}
  9
$VERSIONGUID
  2
{FAEB1C32-E019-11D5-929B-00C0DF256EC4}
  9
$EXTNAMES
290
     1
  9
$PSVPSCALE
 40
0.0
  9
$OLESTARTUP
290
     0
  0
ENDSEC
  0
SECTION
  2
CLASSES
  0
CLASS
  1
ACDBDICTIONARYWDFLT
  2
AcDbDictionaryWithDefault
  3
ObjectDBX Classes
 90
        0
280
     0
281
     0
  0
CLASS
  1
VISUALSTYLE
  2
AcDbVisualStyle
  3
ObjectDBX Classes
 90
     4095
280
     0
281
     0
  0
CLASS
  1
MATERIAL
  2
AcDbMaterial
  3
ObjectDBX Classes
 90
     1153
280
     0
281
     0
  0
CLASS
  1
SCALE
  2
AcDbScale
  3
ObjectDBX Classes
 90
     1153
280
     0
281
     0
  0
CLASS
  1
TABLESTYLE
  2
AcDbTableStyle
  3
ObjectDBX Classes
 90
     4095
280
     0
281
     0
  0
CLASS
  1
MLEADERSTYLE
  2
AcDbMLeaderStyle
  3
ACDB_MLEADERSTYLE_CLASS
 90
     4095
280
     0
281
     0
  0
CLASS
  1
SUN
  2
AcDbSun
  3
SCENEOE
 90
     1153
280
     0
281
     0
  0
CLASS
  1
ACDBPLACEHOLDER
  2
AcDbPlaceHolder
  3
ObjectDBX Classes
 90
        0
280
     0
281
     0
  0
CLASS
  1
LAYOUT
  2
AcDbLayout
  3
ObjectDBX Classes
 90
        0
280
     0
281
     0
  0
ENDSEC
  0
SECTION
  2
TABLES
  0
TABLE
  2
VPORT
  5
8
330
0
100
AcDbSymbolTable
 70
     1
  0
VPORT
  5
29
330
8
100
AcDbSymbolTableRecord
100
AcDbViewportTableRecord
  2
*Active
 70
     0
 10
0.0
 20
0.0
 11
1.0
 21
1.0
 12
0.0
 22
0.0
 13
0.0
 23
0.0
 14
10.0
 24
10.0
 15
10.0
 25
10.0
 16
0.0
 26
0.0
 36
1.0
 17
0.0
 27
0.0
 37
0.0
 40
469.2
 41
1.3152173913
 42
50.0
 43
0.0
 44
0.0
 50
0.0
 51
0.0
 71
     0
 72
   100
 73
     1
 74
     3
 75
     0
 76
     0
 77
     0
 78
     0
281
     0
 65
     1
110
0.0
120
0.0
130
0.0
111
1.0
121
0.0
131
0.0
112
0.0
122
1.0
132
0.0
 79
     0
146
0.0
  0
ENDTAB
  0
TABLE
  2
LTYPE
  5
5
330
0
100
AcDbSymbolTable
 70
     6
  0
LTYPE
  5
14
330
5
100
AcDbSymbolTableRecord
100
AcDbLinetypeTableRecord
  2
ByBlock
 70
     0
  3

 72
    65
 73
     0
 40
0.0
  0
LTYPE
  5
15
330
5
100
AcDbSymbolTableRecord
100
AcDbLinetypeTableRecord
  2
ByLayer
 70
     0
  3

 72
    65
 73
     0
 40
0.0
  0
LTYPE
  5
16
330
5
100
AcDbSymbolTableRecord
100
AcDbLinetypeTableRecord
  2
Continuous
 70
     0
  3
Solid line
 72
    65
 73
     0
 40
0.0
  0
LTYPE
  5
6E
330
5
100
AcDbSymbolTableRecord
100
AcDbLinetypeTableRecord
  2
HIDDEN
 70
     0
  3
Hidden __ __ __ __ __ __ __ __ __ __ __ __ __ __
 72
    65
 73
     2
 40
1.905
 49
1.27
 74
     0
 49
-0.635
 74
     0
  0
LTYPE
  5
6F
330
5
100
AcDbSymbolTableRecord
100
AcDbLinetypeTableRecord
  2
PHANTOM
 70
     0
  3
Phantom ______  __  __  ______  __  __  ______
 72
    65
 73
     6
 40
12.7
 49
6.35
 74
     0
 49
-1.27
 74
     0
 49
1.27
 74
     0
 49
-1.27
 74
     0
 49
1.27
 74
     0
 49
-1.27
 74
     0
  0
LTYPE
  5
70
330
5
100
AcDbSymbolTableRecord
100
AcDbLinetypeTableRecord
  2
CENTER
 70
     0
  3
Center ____ _ ____ _ ____ _ ____ _ ____ _ ____
 72
    65
 73
     4
 40
10.16
 49
6.35
 74
     0
 49
-1.27
 74
     0
 49
1.27
 74
     0
 49
-1.27
 74
     0
  0
LTYPE
  5
71
330
5
100
AcDbSymbolTableRecord
100
AcDbLinetypeTableRecord
  2
CENTERX2
 70
     0
  3
Center (2x) ________  __  ________  __  _____
 72
    65
 73
     4
 40
20.32
 49
12.7
 74
     0
 49
-2.54
 74
     0
 49
2.54
 74
     0
 49
-2.54
 74
     0
  0
LTYPE
  5
72
330
5
100
AcDbSymbolTableRecord
100
AcDbLinetypeTableRecord
  2
DOT2
 70
     0
  3
Dot (.5x) ........................................
 72
    65
 73
     2
 40
0.635
 49
0.0
 74
     0
 49
-0.635
 74
     0
  0
ENDTAB
  0
TABLE
  2
LAYER
  5
2
330
0
100
AcDbSymbolTable
 70
     1
  0
LAYER
  5
10
330
2
100
AcDbSymbolTableRecord
100
AcDbLayerTableRecord
  2
0
 70
     0
 62
     7
  6
Continuous
370
    -3
390
F
  0
ENDTAB
  0
TABLE
  2
STYLE
  5
3
330
0
100
AcDbSymbolTable
 70
     1
  0
STYLE
  5
11
330
3
100
AcDbSymbolTableRecord
100
AcDbTextStyleTableRecord
  2
Standard
 70
     0
 40
0.0
 41
1.0
 50
0.0
 71
     0
 42
3.5
  3
txt
  4

  0
ENDTAB
  0
TABLE
  2
VIEW
  5
6
330
0
100
AcDbSymbolTable
 70
     0
  0
ENDTAB
  0
TABLE
  2
UCS
  5
7
330
0
100
AcDbSymbolTable
 70
     0
  0
ENDTAB
  0
TABLE
  2
APPID
  5
9
330
0
100
AcDbSymbolTable
 70
     1
  0
APPID
  5
12
330
9
100
AcDbSymbolTableRecord
100
AcDbRegAppTableRecord
  2
ACAD
 70
     0
  0
ENDTAB
  0
TABLE
  2
DIMSTYLE
  5
A
330
0
100
AcDbSymbolTable
 70
     1
100
AcDbDimStyleTable
  0
DIMSTYLE
105
27
330
A
100
AcDbSymbolTableRecord
100
AcDbDimStyleTableRecord
  2
ISO-25
 70
     0
 41
2.5
 42
0.625
 43
3.75
 44
1.25
 73
     0
 74
     0
 77
     1
 78
     8
140
2.5
141
2.5
143
0.0393700787
147
0.625
171
     3
172
     1
178
     0
271
     2
272
     2
274
     3
278
    44
283
     0
284
     8
340
11
  0
ENDTAB
  0
TABLE
  2
BLOCK_RECORD
  5
1
330
0
100
AcDbSymbolTable
 70
     3
  0
BLOCK_RECORD
  5
1F
330
1
100
AcDbSymbolTableRecord
100
AcDbBlockTableRecord
  2
*Model_Space
340
22
  0
BLOCK_RECORD
  5
1B
330
1
100
AcDbSymbolTableRecord
100
AcDbBlockTableRecord
  2
*Paper_Space
340
1E
  0
BLOCK_RECORD
  5
23
330
1
100
AcDbSymbolTableRecord
100
AcDbBlockTableRecord
  2
*Paper_Space0
340
26
  0
BLOCK_RECORD
  5
245
330
1
100
AcDbSymbolTableRecord
100
AcDbBlockTableRecord
  2
*Paper_Space1
340
246
  0
BLOCK_RECORD
  5
2BA
330
1
100
AcDbSymbolTableRecord
100
AcDbBlockTableRecord
  2
*Paper_Space2
340
2BB
  0
ENDTAB
  0
ENDSEC
  0
SECTION
  2
BLOCKS
  0
BLOCK
  5
20
330
1F
100
AcDbEntity
  8
0
100
AcDbBlockBegin
  2
*Model_Space
 70
     0
 10
0.0
 20
0.0
 30
0.0
  3
*Model_Space
  1

  0
ENDBLK
  5
21
330
1F
100
AcDbEntity
  8
0
100
AcDbBlockEnd
  0
BLOCK
  5
1C
330
1B
100
AcDbEntity
 67
     1
  8
0
100
AcDbBlockBegin
  2
*Paper_Space
 70
     0
 10
0.0
 20
0.0
 30
0.0
  3
*Paper_Space
  1

  0
ENDBLK
  5
1D
330
1B
100
AcDbEntity
 67
     1
  8
0
100
AcDbBlockEnd
  0
BLOCK
  5
24
330
23
100
AcDbEntity
  8
0
100
AcDbBlockBegin
  2
*Paper_Space0
 70
     0
 10
0.0
 20
0.0
 30
0.0
  3
*Paper_Space0
  1

  0
SPLINE
  5
193
330
23
100
AcDbEntity
  8
0
  6
Continuous
 62
     7
370
    25
100
AcDbSpline
210
0.0
220
0.0
230
1.0
 70
     8
 71
     3
 72
    13
 73
     9
 74
     0
 42
0.000000001
 43
0.00000001
 40
0.0
 40
0.0
 40
0.0
 40
0.0
 40
0.0146515417862571
 40
0.2389716411092339
 40
0.4490011768919862
 40
0.6596493895837439
 40
0.8886052358172003
 40
0.9999999999999999
 40
0.9999999999999999
 40
0.9999999999999999
 40
0.9999999999999999
 10
39.22928307239926
 20
-128.7241572633677
 30
0.0
 10
39.22780572336075
 20
-128.7048906524146
 30
0.0
 10
39.20370965692806
 20
-128.3906456599603
 30
0.0
 10
39.43960954150771
 20
-127.8332433300266
 30
0.0
 10
39.77070467640036
 20
-127.3069994038518
 30
0.0
 10
40.05497779176096
 20
-127.0444394682365
 30
0.0
 10
40.19264406429364
 20
-126.9563388390385
 30
0.0
 10
40.17577981730802
 20
-126.9654320347444
 30
0.0
 10
40.17026024790344
 20
-126.9684081845156
 30
0.0
  0
SPLINE
  5
194
330
23
100
AcDbEntity
  8
0
  6
Continuous
 62
     7
370
    25
100
AcDbSpline
210
0.0
220
0.0
230
1.0
 70
     8
 71
     3
 72
    12
 73
     8
 74
     0
 42
0.000000001
 43
0.00000001
 40
0.0
 40
0.0
 40
0.0
 40
0.0
 40
0.1276486016397029
 40
0.3675966560427301
 40
0.5820506580113203
 40
0.7911349382168866
 40
1.0
 40
1.0
 40
1.0
 40
1.0
 10
-40.19629076940902
 20
-126.9627132444317
 30
0.0
 10
-40.20254620661417
 20
-126.9593697950003
 30
0.0
 10
-40.22056033108679
 20
-126.9497414809033
 30
0.0
 10
-40.05774421381126
 20
-127.0528207815677
 30
0.0
 10
-39.75702643714644
 20
-127.3546788781762
 30
0.0
 10
-39.38777820283904
 20
-127.9134486048421
 30
0.0
 10
-39.28729489853199
 20
-128.4595425456888
 30
0.0
 10
-39.23707959860496
 20
-128.7324463003679
 30
0.0
  0
LWPOLYLINE
  5
1B4
330
23
100
AcDbEntity
  8
0
  6
Continuous
 62
     7
370
    25
100
AcDbPolyline
 90
       15
 70
   128
 43
0.0
 10
-240.7747093356
 20
-75.7252906644
 10
-240.448134644
 20
-75.8028100587
 10
-239.795448037
 20
-75.7112548271
 10
-238.8243124336
 20
-75.4516998812
 10
-237.5461295283
 20
-75.0271925463
 10
-235.9759059289
 20
-74.4427167845
 10
-234.13207697
 20
-73.7051346798
 10
-232.0362902719
 20
-72.8231058734
 10
-229.7131515844
 20
-71.8069858944
 10
-227.1899359015
 20
-70.6687045802
 10
-224.4962672371
 20
-69.4216260126
 10
-221.6637708218
 20
-68.0803916166
 10
-218.7257018043
 20
-66.660748261
 10
-215.7165548171
 20
-65.179363381
 10
-212.6716589889
 20
-63.6536292935
  0
LWPOLYLINE
  5
1B6
330
23
100
AcDbEntity
  8
0
  6
Continuous
 62
     7
370
    25
100
AcDbPolyline
 90
       15
 70
   128
 43
0.0
 10
212.6716589889
 20
-63.6536292935
 10
215.7165548171
 20
-65.179363381
 10
218.7257018043
 20
-66.6607482609
 10
221.6637708218
 20
-68.0803916166
 10
224.4962672371
 20
-69.4216260126
 10
227.1899359015
 20
-70.6687045802
 10
229.7131515844
 20
-71.8069858944
 10
232.0362902719
 20
-72.8231058734
 10
234.13207697
 20
-73.7051346798
 10
235.9759059289
 20
-74.4427167845
 10
237.5461295283
 20
-75.0271925463
 10
238.8243124336
 20
-75.4516998812
 10
239.795448037
 20
-75.7112548271
 10
240.448134644
 20
-75.8028100587
 10
240.7747093356
 20
-75.7252906644
  0
LWPOLYLINE
  5
1BB
330
23
100
AcDbEntity
  8
0
  6
Continuous
 62
     7
370
    25
100
AcDbPolyline
 90
       15
 70
   128
 43
0.0
 10
210.0060077148
 20
-80.7505650512
 10
213.3523801477
 20
-80.9161815934
 10
216.6543864911
 20
-81.0704454454
 10
219.8711105609
 20
-81.211445076
 10
222.9626929316
 20
-81.337433315
 10
225.8908248477
 20
-81.4468490032
 10
228.6192229186
 20
-81.5383363368
 10
231.114078718
 20
-81.6107616679
 10
233.3444777141
 20
-81.6632275517
 10
235.2827823414
 20
-81.6950838673
 10
236.9049744664
 20
-81.7059358731
 10
238.1909530034
 20
-81.6956490986
 10
239.1247829938
 20
-81.6643510104
 10
239.6948930604
 20
-81.6124294328
 10
239.8942187929
 20
-81.5405277422
  0
LWPOLYLINE
  5
1BC
330
23
100
AcDbEntity
  8
0
  6
Continuous
 62
     7
370
    25
100
AcDbPolyline
 90
       15
 70
   128
 43
0.0
 10
-239.8942187929
 20
-81.5405277422
 10
-239.6948930604
 20
-81.6124294328
 10
-239.1247829938
 20
-81.6643510104
 10
-238.1909530034
 20
-81.6956490986
 10
-236.9049744664
 20
-81.7059358731
 10
-235.2827823414
 20
-81.6950838673
 10
-233.3444777141
 20
-81.6632275517
 10
-231.114078718
 20
-81.6107616679
 10
-228.6192229186
 20
-81.5383363368
 10
-225.8908248477
 20
-81.4468490032
 10
-222.9626929316
 20
-81.337433315
 10
-219.8711105609
 20
-81.211445076
 10
-216.6543864911
 20
-81.0704454454
 10
-213.3523801477
 20
-80.9161815934
 10
-210.0060077148
 20
-80.7505650512
  0
LWPOLYLINE
  5
1C5
330
23
100
AcDbEntity
  8
0
  6
Continuous
 62
     7
370
    25
100
AcDbPolyline
 90
        9
 70
   128
 43
0.0
 10
238.4487170957
 20
-90.8116765583
 10
238.0737897236
 20
-92.1498763958
 10
237.3865082732
 20
-93.3934822097
 10
236.4094565824
 20
-94.5016295296
 10
235.1747402426
 20
-95.4379050061
 10
233.7229316189
 20
-96.1715429406
 10
232.1017366561
 20
-96.6784362366
 10
230.3644272775
 20
-96.9419285501
 10
228.5680908871
 20
-96.9533616121
  0
LWPOLYLINE
  5
1CA
330
23
100
AcDbEntity
  8
0
  6
Continuous
 62
     7
370
    25
100
AcDbPolyline
 90
        9
 70
   128
 43
0.0
 10
-238.4487170957
 20
-90.8116765583
 10
-238.0737897236
 20
-92.1498763958
 10
-237.3865082732
 20
-93.3934822097
 10
-236.4094565824
 20
-94.5016295296
 10
-235.1747402426
 20
-95.4379050061
 10
-233.7229316189
 20
-96.1715429406
 10
-232.1017366561
 20
-96.6784362366
 10
-230.3644272775
 20
-96.9419285501
 10
-228.5680908871
 20
-96.9533616121
  0
LWPOLYLINE
  5
1CF
330
23
100
AcDbEntity
  8
0
  6
Continuous
 62
     7
370
    25
100
AcDbPolyline
 90
        9
 70
   128
 43
0.0
 10
-236.5679684572
 20
-102.8744092056
 10
-236.1930410851
 20
-104.212609043
 10
-235.5057596346
 20
-105.4562148569
 10
-234.5287079439
 20
-106.5643621769
 10
-233.2939916041
 20
-107.5006376533
 10
-231.8421829804
 20
-108.2342755879
 10
-230.2209880176
 20
-108.7411688838
 10
-228.483678639
 20
-109.0046611974
 10
-226.6873422485
 20
-109.0160942593
  0
LWPOLYLINE
  5
1D1
330
23
100
AcDbEntity
  8
0
  6
Continuous
 62
     7
370
    25
100
AcDbPolyline
 90
        9
 70
   128
 43
0.0
 10
236.5679684572
 20
-102.8744092056
 10
236.1930410851
 20
-104.212609043
 10
235.5057596346
 20
-105.4562148569
 10
234.5287079439
 20
-106.5643621769
 10
233.2939916041
 20
-107.5006376533
 10
231.8421829804
 20
-108.2342755879
 10
230.2209880176
 20
-108.7411688838
 10
228.483678639
 20
-109.0046611974
 10
226.6873422485
 20
-109.0160942593
  0
SPLINE
  5
1DE
330
23
100
AcDbEntity
  8
0
  6
Continuous
 62
     7
370
    25
100
AcDbSpline
210
0.0
220
0.0
230
1.0
 70
     8
 71
     3
 72
    18
 73
    14
 74
     0
 42
0.000000001
 43
0.00000001
 40
0.0
 40
0.0
 40
0.0
 40
0.0
 40
0.097704357796341
 40
0.1953089729200106
 40
0.292913408845313
 40
0.3904735777346075
 40
0.4880336319127825
 40
0.548885937991481
 40
0.6097381447421649
 40
0.7073042741964206
 40
0.8048702397529386
 40
0.9024350117715154
 40
1.0
 40
1.0
 40
1.0
 40
1.0
 10
-31.56415088698141
 20
-123.4416045718495
 30
0.0
 10
-29.90068478209885
 20
-123.2874846578945
 30
0.0
 10
-26.57545074178026
 20
-122.9794021651584
 30
0.0
 10
-20.5821224870294
 20
-122.6232792992321
 30
0.0
 10
-14.08172220923009
 20
-122.355637882116
 30
0.0
 10
-7.15772224745531
 20
-122.1943728709198
 30
0.0
 10
-0.930944874872011
 20
-122.1452183735985
 30
0.0
 10
4.399403180013114
 20
-122.1705094388502
 30
0.0
 10
9.671351510265557
 20
-122.2457005564121
 30
0.0
 10
15.65581539668499
 20
-122.4101839547981
 30
0.0
 10
22.04199102257738
 20
-122.6989503288832
 30
0.0
 10
27.85797513784535
 20
-123.0776706915508
 30
0.0
 10
31.05002675439018
 20
-123.3964386453059
 30
0.0
 10
32.64605433110937
 20
-123.5558227987859
 30
0.0
  0
SPLINE
  5
1E0
330
23
100
AcDbEntity
  8
0
  6
Continuous
 62
     7
370
    25
100
AcDbSpline
210
0.0
220
0.0
230
1.0
 70
     8
 71
     3
 72
    18
 73
    14
 74
     0
 42
0.000000001
 43
0.00000001
 40
0.0
 40
0.0
 40
0.0
 40
0.0
 40
0.2500000000000013
 40
0.2500000000000013
 40
0.5000000000000026
 40
0.5000000000000026
 40
0.7500000000000038
 40
0.7500000000000038
 40
0.8750000000000044
 40
0.8750000000000044
 40
0.9375000000000022
 40
0.9375000000000022
 40
1.0
 40
1.0
 40
1.0
 40
1.0
 10
-177.3417583481099
 20
-142.7010231731681
 30
0.0
 10
-178.11249933043
 20
-142.6648518561618
 30
0.0
 10
-178.8586773704218
 20
-142.6246019811404
 30
0.0
 10
-180.3096241516223
 20
-142.5372264169062
 30
0.0
 10
-181.0163315509054
 20
-142.4899359381419
 30
0.0
 10
-182.3820847718004
 20
-142.3907936878124
 30
0.0
 10
-183.0422298893835
 20
-142.3389027457888
 30
0.0
 10
-184.008448873915
 20
-142.2586171944471
 30
0.0
 10
-184.3265246926496
 20
-142.2314474202184
 30
0.0
 10
-184.7989587696449
 20
-142.1902151864786
 30
0.0
 10
-184.9556573834462
 20
-142.1763915672527
 30
0.0
 10
-185.267722026279
 20
-142.1486083345381
 30
0.0
 10
-185.4243227727812
 20
-142.1345336740441
 30
0.0
 10
-185.5777762751745
 20
-142.1206444102969
 30
0.0
  0
SPLINE
  5
1E1
330
23
100
AcDbEntity
  8
0
  6
Continuous
 62
     7
370
    25
100
AcDbSpline
210
0.0
220
0.0
230
1.0
 70
     8
 71
     3
 72
    18
 73
    14
 74
     0
 42
0.000000001
 43
0.00000001
 40
0.0
 40
0.0
 40
0.0
 40
0.0
 40
0.1250000000000038
 40
0.1250000000000038
 40
0.2500000000000077
 40
0.2500000000000077
 40
0.3750000000000115
 40
0.3750000000000115
 40
0.5000000000000153
 40
0.5000000000000153
 40
0.7500000000000077
 40
0.7500000000000077
 40
1.0
 40
1.0
 40
1.0
 40
1.0
 10
-174.9114292516877
 20
-143.0468309831877
 30
0.0
 10
-174.8869731349869
 20
-143.028589795482
 30
0.0
 10
-174.8831268470924
 20
-143.0104645718042
 30
0.0
 10
-174.9146559726879
 20
-142.9744348107293
 30
0.0
 10
-174.9504966169363
 20
-142.9563877985953
 30
0.0
 10
-175.0592386873143
 20
-142.9211774375554
 30
0.0
 10
-175.1310195126801
 20
-142.9042470466855
 30
0.0
 10
-175.305231559118
 20
-142.8715742499577
 30
0.0
 10
-175.4087293796909
 20
-142.8557121312306
 30
0.0
 10
-175.7533984621948
 20
-142.8109259252073
 30
0.0
 10
-176.0271661334609
 20
-142.7846227924642
 30
0.0
 10
-176.6458613869598
 20
-142.7377663847684
 30
0.0
 10
-176.9832960037807
 20
-142.7178460168847
 30
0.0
 10
-177.3417583481099
 20
-142.7010231731681
 30
0.0
  0
SPLINE
  5
1E7
330
23
100
AcDbEntity
  8
0
  6
Continuous
 62
     7
370
    25
100
AcDbSpline
210
0.0
220
0.0
230
1.0
 70
     8
 71
     3
 72
    16
 73
    12
 74
     0
 42
0.000000001
 43
0.00000001
 40
0.0
 40
0.0
 40
0.0
 40
0.0
 40
0.2499999999999988
 40
0.2499999999999988
 40
0.4999999999999977
 40
0.4999999999999977
 40
0.7499999999999964
 40
0.7499999999999964
 40
0.8749999999999982
 40
0.8749999999999982
 40
1.0
 40
1.0
 40
1.0
 40
1.0
 10
177.3417583481098
 20
-142.7010231731681
 30
0.0
 10
176.9834908638466
 20
-142.7178368719899
 30
0.0
 10
176.6490457971643
 20
-142.7375950714035
 30
0.0
 10
176.0353540950724
 20
-142.7839341116776
 30
0.0
 10
175.7547557493278
 20
-142.8108137682941
 30
0.0
 10
175.2971511325111
 20
-142.870147021775
 30
0.0
 10
175.1145808734466
 20
-142.9034694083421
 30
0.0
 10
174.9520592006926
 20
-142.9557780283276
 30
0.0
 10
174.9154746046203
 20
-142.9738191852397
 30
0.0
 10
174.8829672607371
 20
-143.0103335503167
 30
0.0
 10
174.8869668506878
 20
-143.028585108185
 30
0.0
 10
174.911429251688
 20
-143.0468309831878
 30
0.0
  0
SPLINE
  5
1E8
330
23
100
AcDbEntity
  8
0
  6
Continuous
 62
     7
370
    25
100
AcDbSpline
210
0.0
220
0.0
230
1.0
 70
     8
 71
     3
 72
    18
 73
    14
 74
     0
 42
0.000000001
 43
0.00000001
 40
0.0
 40
0.0
 40
0.0
 40
0.0
 40
0.2499999999999984
 40
0.2499999999999984
 40
0.4999999999999968
 40
0.4999999999999968
 40
0.7499999999999951
 40
0.7499999999999951
 40
0.8749999999999972
 40
0.8749999999999972
 40
0.9374999999999987
 40
0.9374999999999987
 40
1.0
 40
1.0
 40
1.0
 40
1.0
 10
177.3417583481098
 20
-142.7010231731681
 30
0.0
 10
178.1124993304299
 20
-142.6648518561617
 30
0.0
 10
178.8586773704218
 20
-142.6246019811404
 30
0.0
 10
180.3096241516222
 20
-142.5372264169062
 30
0.0
 10
181.0163315509053
 20
-142.4899359381419
 30
0.0
 10
182.3820847718004
 20
-142.3907936878125
 30
0.0
 10
183.0422298893835
 20
-142.3389027457887
 30
0.0
 10
184.0084488739149
 20
-142.2586171944471
 30
0.0
 10
184.3265246926496
 20
-142.2314474202184
 30
0.0
 10
184.7989587696449
 20
-142.1902151864787
 30
0.0
 10
184.9556573834461
 20
-142.1763915672528
 30
0.0
 10
185.2677220262788
 20
-142.148608334538
 30
0.0
 10
185.424322772804
 20
-142.1345336740462
 30
0.0
 10
185.5777762751745
 20
-142.1206444102969
 30
0.0
  0
SPLINE
  5
1EB
330
23
100
AcDbEntity
  8
0
  6
Continuous
 62
     7
370
    25
100
AcDbSpline
210
0.0
220
0.0
230
1.0
 70
    24
 71
     3
 72
    17
 73
    13
 74
     0
 42
0.000000001
 43
0.00000001
 40
0.0
 40
0.0
 40
0.0
 40
0.0
 40
0.0704299947827067
 40
0.1408601151377582
 40
0.2534762512952983
 40
0.3660910246220391
 40
0.4780612009475342
 40
0.5900302829294101
 40
0.7018344880858979
 40
0.8136379759334494
 40
0.9255215091595113
 40
0.9999999999999999
 40
0.9999999999999999
 40
0.9999999999999999
 40
0.9999999999999999
 10
-2.535280976928727
 20
-160.0
 30
0.0
 10
-3.713321471827718
 20
-160.0
 30
0.0
 10
-6.069404561999381
 20
-160.0
 30
0.0
 10
-10.22050814664858
 20
-159.9999999999999
 30
0.0
 10
-14.87653450320934
 20
-160.0000000000001
 30
0.0
 10
-19.77402674194657
 20
-159.9999999999999
 30
0.0
 10
-24.09772822154608
 20
-160.0000000000001
 30
0.0
 10
-27.74842208613256
 20
-159.9999999999999
 30
0.0
 10
-30.61422680469477
 20
-160.0000000000001
 30
0.0
 10
-32.60052110819976
 20
-160.0
 30
0.0
 10
-33.65791956637708
 20
-160.0
 30
0.0
 10
-33.64778097458004
 20
-160.0
 30
0.0
 10
-33.64372914578028
 20
-160.0
 30
0.0
  0
SPLINE
  5
1EC
330
23
100
AcDbEntity
  8
0
  6
Continuous
 62
     7
370
    25
100
AcDbSpline
210
0.0
220
0.0
230
1.0
 70
    24
 71
     3
 72
    17
 73
    13
 74
     0
 42
0.000000001
 43
0.00000001
 40
0.0
 40
0.0
 40
0.0
 40
0.0
 40
0.0984759188277379
 40
0.2009420797760385
 40
0.303410634991893
 40
0.4063280615344388
 40
0.5092476984296467
 40
0.6125171330314333
 40
0.7157885914067075
 40
0.8190272282396566
 40
0.9222681159192224
 40
1.0
 40
1.0
 40
1.0
 40
1.0
 10
33.7312100175691
 20
-160.0
 30
0.0
 10
33.64982603279098
 20
-160.0
 30
0.0
 10
33.48376038591556
 20
-159.9999999999999
 30
0.0
 10
32.02599709697921
 20
-160.0
 30
0.0
 10
29.72933534418476
 20
-160.0
 30
0.0
 10
26.545957892563
 20
-160.0
 30
0.0
 10
22.61816272396114
 20
-160.0
 30
0.0
 10
18.0260729096773
 20
-160.0
 30
0.0
 10
12.92605256406824
 20
-159.9999999999999
 30
0.0
 10
7.452719793318551
 20
-160.0
 30
0.0
 10
2.235665693372264
 20
-160.0
 30
0.0
 10
-1.101774987924948
 20
-160.0
 30
0.0
 10
-2.535280976928727
 20
-160.0
 30
0.0
  0
SPLINE
  5
1ED
330
23
100
AcDbEntity
  8
0
  6
Continuous
 62
     7
370
    25
100
AcDbSpline
210
0.0
220
0.0
230
1.0
 70
     8
 71
     3
 72
    14
 73
    10
 74
     0
 42
0.000000001
 43
0.00000001
 40
0.0
 40
0.0
 40
0.0
 40
0.0
 40
0.25
 40
0.25
 40
0.5
 40
0.5
 40
0.75
 40
0.75
 40
1.0
 40
1.0
 40
1.0
 40
1.0
 10
174.9114292516877
 20
-143.0468309831878
 30
0.0
 10
174.1048834086444
 20
-142.4452492073004
 30
0.0
 10
173.3119267982611
 20
-141.8602229296046
 30
0.0
 10
171.7329956236524
 20
-140.707291865961
 30
0.0
 10
170.946760482213
 20
-140.1392120862523
 30
0.0
 10
169.365312938038
 20
-139.00846651128
 30
0.0
 10
168.5701799991326
 20
-138.4458721800296
 30
0.0
 10
166.9611908550272
 20
-137.3195989660035
 30
0.0
 10
166.1474347754917
 20
-136.7559974987227
 30
0.0
 10
165.3209391694516
 20
-136.1898896599992
 30
0.0
  0
SPLINE
  5
1EE
330
23
100
AcDbEntity
  8
0
  6
Continuous
 62
     7
370
    25
100
AcDbSpline
210
0.0
220
0.0
230
1.0
 70
     8
 71
     3
 72
    14
 73
    10
 74
     0
 42
0.000000001
 43
0.00000001
 40
0.0
 40
0.0
 40
0.0
 40
0.0
 40
0.25
 40
0.25
 40
0.5
 40
0.5
 40
0.75
 40
0.75
 40
1.0
 40
1.0
 40
1.0
 40
1.0
 10
-165.3209391694517
 20
-136.1898896599992
 30
0.0
 10
-166.1474347754917
 20
-136.7559974987227
 30
0.0
 10
-166.9611908550273
 20
-137.3195989660035
 30
0.0
 10
-168.5701799991326
 20
-138.4458721800296
 30
0.0
 10
-169.3653129380381
 20
-139.00846651128
 30
0.0
 10
-170.9467604822131
 20
-140.1392120862523
 30
0.0
 10
-171.7329956236526
 20
-140.707291865961
 30
0.0
 10
-173.3119267982611
 20
-141.8602229296046
 30
0.0
 10
-174.1048834086443
 20
-142.4452492073004
 30
0.0
 10
-174.9114292516877
 20
-143.0468309831878
 30
0.0
  0
SPLINE
  5
1F4
330
23
100
AcDbEntity
  8
0
  6
Continuous
 62
     8
370
    25
100
AcDbSpline
210
0.0
220
0.0
230
1.0
 70
     8
 71
     3
 72
    14
 73
    10
 74
     0
 42
0.000000001
 43
0.00000001
 40
0.0
 40
0.0
 40
0.0
 40
0.0
 40
0.016965020749206
 40
0.1807836466412411
 40
0.3445878442884333
 40
0.5083927504470699
 40
0.6722543709840656
 40
0.8361174410613839
 40
1.0
 40
1.0
 40
1.0
 40
1.0
 10
-40.2369009742691
 20
-127.1238397934749
 30
0.0
 10
-40.32737200114971
 20
-127.1031419938852
 30
0.0
 10
-41.29145465077581
 20
-126.8825808909787
 30
0.0
 10
-42.0654717536747
 20
-126.4299406780063
 30
0.0
 10
-42.38026265620638
 20
-125.7857152610927
 30
0.0
 10
-41.40517127716742
 20
-125.1427179838744
 30
0.0
 10
-39.24314204154066
 20
-124.5263303638694
 30
0.0
 10
-36.0435856279791
 20
-123.9449560981379
 30
0.0
 10
-33.0573549910982
 20
-123.6093950651428
 30
0.0
 10
-31.56415088698141
 20
-123.4416045718495
 30
0.0
  0
SPLINE
  5
1F5
330
23
100
AcDbEntity
  8
0
  6
Continuous
 62
     8
370
    25
100
AcDbSpline
210
0.0
220
0.0
230
1.0
 70
     8
 71
     3
 72
    14
 73
    10
 74
     0
 42
0.000000001
 43
0.00000001
 40
0.0
 40
0.0
 40
0.0
 40
0.0
 40
0.1652919943952898
 40
0.3305840190404804
 40
0.495969786204465
 40
0.6613549376016806
 40
0.8268109806878465
 40
0.992265959726129
 40
1.0
 40
1.0
 40
1.0
 40
1.0
 10
32.64605433110937
 20
-123.5558227987859
 30
0.0
 10
34.05965108279416
 20
-123.7288299402015
 30
0.0
 10
36.8868448448645
 20
-124.0748442546945
 30
0.0
 10
39.85172054489298
 20
-124.6658183212154
 30
0.0
 10
41.72127054867525
 20
-125.2895980932119
 30
0.0
 10
42.44802567020203
 20
-125.9354573068886
 30
0.0
 10
41.81718380369283
 20
-126.5775849485359
 30
0.0
 10
40.92765424240407
 20
-127.0167490001917
 30
0.0
 10
39.92253136091812
 20
-127.2225507675204
 30
0.0
 10
39.87764594684005
 20
-127.2317411836523
 30
0.0
  0
SPLINE
  5
1F7
330
23
100
AcDbEntity
  8
0
  6
Continuous
 62
     8
370
    25
100
AcDbSpline
210
0.0
220
0.0
230
1.0
 70
     8
 71
     3
 72
    28
 73
    24
 74
     0
 42
0.000000001
 43
0.00000001
 40
0.0
 40
0.0
 40
0.0
 40
0.0
 40
0.0051338928671557
 40
0.0578902998613301
 40
0.112174039441214
 40
0.1649120113438168
 40
0.2191766783341731
 40
0.2719056599044963
 40
0.3261639451618569
 40
0.3788999684108342
 40
0.4331689865471022
 40
0.4663531436043906
 40
0.4999076241065778
 40
0.5526420320247974
 40
0.6069105423539425
 40
0.6596638458498052
 40
0.7139511800309962
 40
0.7667490923910139
 40
0.8210813378545332
 40
0.8738655199398164
 40
0.9281794491423317
 40
0.9809331801650787
 40
0.9999999999999999
 40
0.9999999999999999
 40
0.9999999999999999
 40
0.9999999999999999
 10
39.18698867920936
 20
-128.7226135186291
 30
0.0
 10
39.20401249387002
 20
-128.7020590901076
 30
0.0
 10
39.39597476518945
 20
-128.4702852566103
 30
0.0
 10
38.71416020403174
 20
-128.0188346004977
 30
0.0
 10
37.08654458536986
 20
-127.3970253818561
 30
0.0
 10
34.26651964871874
 20
-126.8065731814492
 30
0.0
 10
30.53622777023795
 20
-126.2752571935407
 30
0.0
 10
25.89166225146578
 20
-125.808525946604
 30
0.0
 10
20.55876879339818
 20
-125.4277978052762
 30
0.0
 10
14.5893915303721
 20
-125.1370985469263
 30
0.0
 10
9.032901391923183
 20
-124.9727129039815
 30
0.0
 10
4.099160271212853
 20
-124.8967135911335
 30
0.0
 10
-0.8264403844256186
 20
-124.8716800984132
 30
0.0
 10
-6.62686813851819
 20
-124.9192615392695
 30
0.0
 10
-13.03208245924827
 20
-125.0803790113046
 30
0.0
 10
-19.12452357539357
 20
-125.3464335966771
 30
0.0
 10
-24.62153500458592
 20
-125.7051924158898
 30
0.0
 10
-29.46703029979374
 20
-126.1531063190685
 30
0.0
 10
-33.42916274452712
 20
-126.66930518598
 30
0.0
 10
-36.49166615191925
 20
-127.2483641373733
 30
0.0
 10
-38.41673102510047
 20
-127.863290613986
 30
0.0
 10
-39.29990843629113
 20
-128.3675461563059
 30
0.0
 10
-39.14569929829985
 20
-128.6558699991286
 30
0.0
 10
-39.10476007107494
 20
-128.7324138114436
 30
0.0
  0
SPLINE
  5
1F8
330
23
100
AcDbEntity
  8
0
  6
Continuous
 62
     8
370
    25
100
AcDbSpline
210
0.0
220
0.0
230
1.0
 70
     8
 71
     3
 72
    17
 73
    13
 74
     0
 42
0.000000001
 43
0.00000001
 40
0.0
 40
0.0
 40
0.0
 40
0.0
 40
0.0775835146694312
 40
0.1791571968233671
 40
0.2836744604846931
 40
0.385295833882743
 40
0.4898839016639909
 40
0.5911921051639017
 40
0.6954641245233171
 40
0.7963604664890623
 40
0.900203823001554
 40
1.0
 40
1.0
 40
1.0
 40
1.0
 10
-2.758683293793013
 20
-157.261467098113
 30
0.0
 10
-1.198776927772393
 20
-157.2614666096445
 30
0.0
 10
2.403385890371931
 20
-157.2614654816645
 30
0.0
 10
8.082326963291607
 20
-157.261467438668
 30
0.0
 10
14.01051732470429
 20
-157.2614670809005
 30
0.0
 10
19.59556326956312
 20
-157.2614676049746
 30
0.0
 10
24.56968092003035
 20
-157.2614663252026
 30
0.0
 10
28.87988051294083
 20
-157.2614681725127
 30
0.0
 10
32.32740871055341
 20
-157.2614637223271
 30
0.0
 10
34.85881107708079
 20
-157.2614677775375
 30
0.0
 10
36.44789176145875
 20
-157.2614665953342
 30
0.0
 10
36.64116950438773
 20
-157.261467018488
 30
0.0
 10
36.73588775241478
 20
-157.26146722586
 30
0.0
  0
SPLINE
  5
1F9
330
23
100
AcDbEntity
  8
0
  6
Continuous
 62
     8
370
    25
100
AcDbSpline
210
0.0
220
0.0
230
1.0
 70
     8
 71
     3
 72
    17
 73
    13
 74
     0
 42
0.000000001
 43
0.00000001
 40
0.0
 40
0.0
 40
0.0
 40
0.0
 40
0.0709227686330501
 40
0.1847089265841617
 40
0.2951952577961678
 40
0.4088703726931245
 40
0.5195521929644106
 40
0.6334149310628997
 40
0.7445670660606776
 40
0.8589179463105027
 40
0.9290707046632457
 40
1.0
 40
1.0
 40
1.0
 40
1.0
 10
-36.62366342260473
 20
-157.2614673435707
 30
0.0
 10
-36.62913407162426
 20
-157.2614672787809
 30
0.0
 10
-36.64338165004782
 20
-157.2614671100442
 30
0.0
 10
-35.49854728786444
 20
-157.2614678656108
 30
0.0
 10
-33.34239041014683
 20
-157.2614653502698
 30
0.0
 10
-30.23210681818808
 20
-157.2614672498049
 30
0.0
 10
-26.25100506768982
 20
-157.2614670885485
 30
0.0
 10
-21.56147456849816
 20
-157.2614674679351
 30
0.0
 10
-16.21617887302684
 20
-157.2614673402413
 30
0.0
 10
-11.15546941308284
 20
-157.2614670875832
 30
0.0
 10
-6.611807596716391
 20
-157.2614673606093
 30
0.0
 10
-4.047762359166243
 20
-157.2614671859323
 30
0.0
 10
-2.758683293793013
 20
-157.261467098113
 30
0.0
  0
SPLINE
  5
200
330
23
100
AcDbEntity
  8
0
  6
Continuous
 62
     8
370
    25
100
AcDbSpline
210
0.0
220
0.0
230
1.0
 70
     8
 71
     3
 72
    10
 73
     6
 74
     0
 42
0.000000001
 43
0.00000001
 40
0.0
 40
0.0
 40
0.0
 40
0.0
 40
0.2780166360899499
 40
0.6363137134339519
 40
1.0
 40
1.0
 40
1.0
 40
1.0
 10
169.4157723006003
 20
-134.8165669232365
 30
0.0
 10
170.0964577039919
 20
-135.5925591047563
 30
0.0
 10
171.654384102944
 20
-137.3686199677431
 30
0.0
 10
174.1783234633084
 20
-140.1221582567992
 30
0.0
 10
176.282045676265
 20
-141.8371344160509
 30
0.0
 10
177.3417583481098
 20
-142.7010231731681
 30
0.0
  0
SPLINE
  5
201
330
23
100
AcDbEntity
  8
0
  6
Continuous
 62
     8
370
    25
100
AcDbSpline
210
0.0
220
0.0
230
1.0
 70
     8
 71
     3
 72
    11
 73
     7
 74
     0
 42
0.000000001
 43
0.00000001
 40
0.0
 40
0.0
 40
0.0
 40
0.0
 40
0.0255271079121096
 40
0.3704217377006299
 40
0.7220051352018034
 40
1.0
 40
1.0
 40
1.0
 40
1.0
 10
-177.3417583481099
 20
-142.7010231731681
 30
0.0
 10
-177.2654167130163
 20
-142.6433876464718
 30
0.0
 10
-176.1576296018545
 20
-141.8070433169208
 30
0.0
 10
-174.1106666415535
 20
-140.0127932173797
 30
0.0
 10
-171.6353876775732
 20
-137.3539814511838
 30
0.0
 10
-170.0956488754365
 20
-135.5937915760747
 30
0.0
 10
-169.4157659986656
 20
-134.8165669232365
 30
0.0
  0
LINE
  5
204
330
23
100
AcDbEntity
  8
0
  6
Continuous
 62
     7
370
    25
100
AcDbLine
 10
-39.2340569137
 20
-128.7495864777
 30
0.0
 11
-36.7387099653
 21
-157.2715326118
 31
0.0
  0
LINE
  5
205
330
23
100
AcDbEntity
  8
0
  6
Continuous
 62
     7
370
    25
100
AcDbLine
 10
36.7395624455
 20
-157.2617887198
 30
0.0
 11
39.2346135516
 21
-128.7432240794
 31
0.0
  0
LINE
  5
206
330
23
100
AcDbEntity
  8
0
  6
Continuous
 62
     7
370
    25
100
AcDbLine
 10
-183.2648658771
 20
-134.8165669232
 30
0.0
 11
-38.7032649029
 21
-134.8165669232
 31
0.0
  0
LINE
  5
207
330
23
100
AcDbEntity
  8
0
  6
Continuous
 62
     7
370
    25
100
AcDbLine
 10
38.7032649031
 20
-134.8165669232
 30
0.0
 11
183.2648658771
 21
-134.8165669232
 31
0.0
  0
LINE
  5
208
330
23
100
AcDbEntity
  8
0
  6
Continuous
 62
     7
370
    25
100
AcDbLine
 10
298.5
 20
-60.0
 30
0.0
 11
-298.5
 21
-60.0
 31
0.0
  0
LINE
  5
209
330
23
100
AcDbEntity
  8
0
  6
Continuous
 62
     7
370
    25
100
AcDbLine
 10
-302.5
 20
-56.0
 30
0.0
 11
302.5
 21
-56.0
 31
0.0
  0
LINE
  5
20A
330
23
100
AcDbEntity
  8
0
  6
Continuous
 62
     7
370
    25
100
AcDbLine
 10
-257.5
 20
-60.0
 30
0.0
 11
-257.5
 21
0.0
 31
0.0
  0
LINE
  5
20B
330
23
100
AcDbEntity
  8
0
  6
Continuous
 62
     7
370
    25
100
AcDbLine
 10
257.5
 20
-60.0
 30
0.0
 11
257.5
 21
0.0
 31
0.0
  0
LINE
  5
20C
330
23
100
AcDbEntity
  8
0
  6
Continuous
 62
     7
370
    25
100
AcDbLine
 10
-302.5
 20
-56.0
 30
0.0
 11
-302.5
 21
-4.0
 31
0.0
  0
LINE
  5
20D
330
23
100
AcDbEntity
  8
0
  6
Continuous
 62
     7
370
    25
100
AcDbLine
 10
302.5
 20
-4.0
 30
0.0
 11
-302.5
 21
-4.0
 31
0.0
  0
LINE
  5
20E
330
23
100
AcDbEntity
  8
0
  6
Continuous
 62
     7
370
    25
100
AcDbLine
 10
-298.5
 20
0.0
 30
0.0
 11
298.5
 21
0.0
 31
0.0
  0
LINE
  5
20F
330
23
100
AcDbEntity
  8
0
  6
Continuous
 62
     7
370
    25
100
AcDbLine
 10
302.5
 20
-56.0
 30
0.0
 11
302.5
 21
-4.0
 31
0.0
  0
LINE
  5
210
330
23
100
AcDbEntity
  8
0
  6
Continuous
 62
     7
370
    25
100
AcDbLine
 10
-240.7747093356
 20
-75.7252906644
 30
0.0
 11
-256.5
 21
-60.0
 31
0.0
  0
LINE
  5
211
330
23
100
AcDbEntity
  8
0
  6
Continuous
 62
     7
370
    25
100
AcDbLine
 10
256.5
 20
-60.0
 30
0.0
 11
240.7747093356
 21
-75.7252906644
 31
0.0
  0
LINE
  5
212
330
23
100
AcDbEntity
  8
0
  6
Continuous
 62
     7
370
    25
100
AcDbLine
 10
210.0060077148
 20
-80.7505650512
 30
0.0
 11
212.6716589889
 21
-63.6536292935
 31
0.0
  0
LINE
  5
213
330
23
100
AcDbEntity
  8
0
  6
Continuous
 62
     7
370
    25
100
AcDbLine
 10
-210.0060077148
 20
-80.7505650512
 30
0.0
 11
210.0060077148
 21
-80.7505650512
 31
0.0
  0
LINE
  5
214
330
23
100
AcDbEntity
  8
0
  6
Continuous
 62
     7
370
    25
100
AcDbLine
 10
-212.6716589889
 20
-63.6536292935
 30
0.0
 11
-210.0060077148
 21
-80.7505650512
 31
0.0
  0
LINE
  5
215
330
23
100
AcDbEntity
  8
0
  6
Continuous
 62
     7
370
    25
100
AcDbLine
 10
240.8057324841
 20
-75.6942675159
 30
0.0
 11
231.3253794454
 21
-136.4992904539
 31
0.0
  0
LINE
  5
216
330
23
100
AcDbEntity
  8
0
  6
Continuous
 62
     7
370
    25
100
AcDbLine
 10
-231.3253794454
 20
-136.4992904539
 30
0.0
 11
-240.8057324841
 21
-75.6942675159
 31
0.0
  0
LINE
  5
217
330
23
100
AcDbEntity
  8
0
  6
Continuous
 62
     7
370
    25
100
AcDbLine
 10
230.0135925842
 20
-90.0
 30
0.0
 11
-230.0135925842
 21
-90.0
 31
0.0
  0
LINE
  5
218
330
23
100
AcDbEntity
  8
0
  6
Continuous
 62
     7
370
    25
100
AcDbLine
 10
210.0060077148
 20
-80.7505650512
 30
0.0
 11
210.0060077148
 21
-90.0
 31
0.0
  0
LINE
  5
219
330
23
100
AcDbEntity
  8
0
  6
Continuous
 62
     7
370
    25
100
AcDbLine
 10
-210.0060077148
 20
-80.7505650512
 30
0.0
 11
-210.0060077148
 21
-90.0
 31
0.0
  0
LINE
  5
21A
330
23
100
AcDbEntity
  8
0
  6
Continuous
 62
     7
370
    25
100
AcDbLine
 10
228.5680908871
 20
-96.9533616121
 30
0.0
 11
230.0135925842
 21
-90.0
 31
0.0
  0
LINE
  5
21B
330
23
100
AcDbEntity
  8
0
  6
Continuous
 62
     7
370
    25
100
AcDbLine
 10
-230.0135925842
 20
-90.0
 30
0.0
 11
-228.5680908871
 21
-96.9533616121
 31
0.0
  0
LINE
  5
21C
330
23
100
AcDbEntity
  8
0
  6
Continuous
 62
     7
370
    25
100
AcDbLine
 10
228.5680908871
 20
-96.9533616121
 30
0.0
 11
-228.5680908871
 21
-96.9533616121
 31
0.0
  0
LINE
  5
21D
330
23
100
AcDbEntity
  8
0
  6
Continuous
 62
     7
370
    25
100
AcDbLine
 10
-228.5680908871
 20
-96.9533616121
 30
0.0
 11
-226.6873422485
 21
-109.0160942593
 31
0.0
  0
LINE
  5
21E
330
23
100
AcDbEntity
  8
0
  6
Continuous
 62
     7
370
    25
100
AcDbLine
 10
226.6873422485
 20
-109.0160942593
 30
0.0
 11
228.5680908871
 21
-96.9533616121
 31
0.0
  0
LINE
  5
21F
330
23
100
AcDbEntity
  8
0
  6
Continuous
 62
     7
370
    25
100
AcDbLine
 10
-226.6873422485
 20
-109.0160942593
 30
0.0
 11
226.6873422485
 21
-109.0160942593
 31
0.0
  0
LINE
  5
220
330
23
100
AcDbEntity
  8
0
  6
Continuous
 62
     7
370
    25
100
AcDbLine
 10
225.9773975303
 20
-115.8462520654
 30
0.0
 11
226.6873422485
 21
-109.0160942593
 31
0.0
  0
LINE
  5
221
330
23
100
AcDbEntity
  8
0
  6
Continuous
 62
     7
370
    25
100
AcDbLine
 10
-226.6873422485
 20
-109.0160942593
 30
0.0
 11
-225.9773975303
 21
-115.8462520654
 31
0.0
  0
LINE
  5
222
330
23
100
AcDbEntity
  8
0
  6
Continuous
 62
     7
370
    25
100
AcDbLine
 10
225.9773975303
 20
-115.8462520654
 30
0.0
 11
-225.9773975303
 21
-115.8462520654
 31
0.0
  0
LINE
  5
223
330
23
100
AcDbEntity
  8
0
  6
Continuous
 62
     7
370
    25
100
AcDbLine
 10
-225.9773975303
 20
-115.8462520654
 30
0.0
 11
-221.4319207018
 21
-145.0
 31
0.0
  0
LINE
  5
224
330
23
100
AcDbEntity
  8
0
  6
Continuous
 62
     7
370
    25
100
AcDbLine
 10
185.0641536725
 20
-134.7754989879
 30
0.0
 11
185.5777762752
 21
-142.1206444103
 31
0.0
  0
LINE
  5
225
330
23
100
AcDbEntity
  8
0
  6
Continuous
 62
     7
370
    25
100
AcDbLine
 10
-185.5777762752
 20
-142.1206444103
 30
0.0
 11
-185.0641536725
 21
-134.7754989879
 31
0.0
  0
LINE
  5
226
330
23
100
AcDbEntity
  8
0
  6
Continuous
 62
     7
370
    25
100
AcDbLine
 10
-177.5
 20
-145.0
 30
0.0
 11
-174.9114292517
 21
-143.0468309832
 31
0.0
  0
LINE
  5
227
330
23
100
AcDbEntity
  8
0
  6
Continuous
 62
     7
370
    25
100
AcDbLine
 10
-177.5
 20
-145.0
 30
0.0
 11
-221.4319207018
 21
-145.0
 31
0.0
  0
LINE
  5
228
330
23
100
AcDbEntity
  8
0
  6
Continuous
 62
     7
370
    25
100
AcDbLine
 10
221.4319207018
 20
-145.0
 30
0.0
 11
225.9773975303
 21
-115.8462520654
 31
0.0
  0
LINE
  5
229
330
23
100
AcDbEntity
  8
0
  6
Continuous
 62
     7
370
    25
100
AcDbLine
 10
221.4319207018
 20
-145.0
 30
0.0
 11
177.5
 21
-145.0
 31
0.0
  0
LINE
  5
22A
330
23
100
AcDbEntity
  8
0
  6
Continuous
 62
     7
370
    25
100
AcDbLine
 10
174.9114292517
 20
-143.0468309832
 30
0.0
 11
177.5
 21
-145.0
 31
0.0
  0
LINE
  5
22B
330
23
100
AcDbEntity
  8
0
  6
Continuous
 62
     7
370
    25
100
AcDbLine
 10
165.3209391695
 20
-136.18988966
 30
0.0
 11
163.2923842904
 21
-134.8165669232
 31
0.0
  0
LINE
  5
22C
330
23
100
AcDbEntity
  8
0
  6
Continuous
 62
     7
370
    25
100
AcDbLine
 10
-163.2923842904
 20
-134.8165669232
 30
0.0
 11
-165.3209391695
 21
-136.18988966
 31
0.0
  0
LINE
  5
22D
330
23
100
AcDbEntity
  8
0
  6
Continuous
 62
     8
370
    25
100
AcDbLine
 10
-216.3252882824
 20
-60.0
 30
0.0
 11
-212.6716589889
 21
-63.6536292935
 31
0.0
  0
LINE
  5
22E
330
23
100
AcDbEntity
  8
0
  6
Continuous
 62
     8
370
    25
100
AcDbLine
 10
212.6716589889
 20
-63.6536292935
 30
0.0
 11
216.3252882824
 21
-60.0
 31
0.0
  0
LINE
  5
22F
330
23
100
AcDbEntity
  8
0
  6
Continuous
 62
     8
370
    25
100
AcDbLine
 10
38.7068578818
 20
-134.7754989879
 30
0.0
 11
185.0641536725
 21
-134.7754989879
 31
0.0
  0
LINE
  5
230
330
23
100
AcDbEntity
  8
0
  6
Continuous
 62
     8
370
    25
100
AcDbLine
 10
-185.0641536725
 20
-134.7754989879
 30
0.0
 11
-38.7068578817
 21
-134.7754989879
 31
0.0
  0
LINE
  5
231
330
23
100
AcDbEntity
  8
0
  6
Continuous
 62
     8
370
    25
100
AcDbLine
 10
-185.0641536725
 20
-134.7754989879
 30
0.0
 11
-183.2648658771
 21
-134.8165669232
 31
0.0
  0
LINE
  5
232
330
23
100
AcDbEntity
  8
0
  6
Continuous
 62
     8
370
    25
100
AcDbLine
 10
183.2648658771
 20
-134.8165669232
 30
0.0
 11
185.0641536725
 21
-134.7754989879
 31
0.0
  0
ARC
  5
233
330
23
100
AcDbEntity
  8
0
  6
Continuous
 62
     7
370
    25
100
AcDbCircle
 10
-33.750822916
 20
-157.0000097506
 30
0.0
 40
2.999990248628243
100
AcDbArc
 50
185.3605968724
 51
270.0066172523
  0
ARC
  5
234
330
23
100
AcDbEntity
  8
0
  6
Continuous
 62
     7
370
    25
100
AcDbCircle
 10
33.7509163795
 20
-157.000004716
 30
0.0
 40
2.999995283852022
100
AcDbArc
 50
269.9967539536
 51
354.9914812725
  0
ARC
  5
235
330
23
100
AcDbEntity
  8
0
  6
Continuous
 62
     7
370
    25
100
AcDbCircle
 10
-298.5
 20
-56.0
 30
0.0
 40
4.000000000000057
100
AcDbArc
 50
180.0
 51
270.0
  0
ARC
  5
236
330
23
100
AcDbEntity
  8
0
  6
Continuous
 62
     7
370
    25
100
AcDbCircle
 10
298.5
 20
-4.0
 30
0.0
 40
4.000000000000114
100
AcDbArc
 50
0.0
 51
90.0
  0
ARC
  5
237
330
23
100
AcDbEntity
  8
0
  6
Continuous
 62
     7
370
    25
100
AcDbCircle
 10
298.5
 20
-56.0
 30
0.0
 40
4.000000000000064
100
AcDbArc
 50
270.0
 51
0.0
  0
ARC
  5
238
330
23
100
AcDbEntity
  8
0
  6
Continuous
 62
     7
370
    25
100
AcDbCircle
 10
-298.5
 20
-4.0
 30
0.0
 40
4.000000000000114
100
AcDbArc
 50
90.0
 51
180.0
  0
ARC
  5
239
330
23
100
AcDbEntity
  8
0
  6
Continuous
 62
     7
370
    25
100
AcDbCircle
 10
230.0135925842
 20
-80.0
 30
0.0
 40
9.999999999999996
100
AcDbArc
 50
270.0
 51
351.1381355936
  0
ARC
  5
23A
330
23
100
AcDbEntity
  8
0
  6
Continuous
 62
     7
370
    25
100
AcDbCircle
 10
-230.0135925842
 20
-80.0
 30
0.0
 40
10.00000000000009
100
AcDbArc
 50
188.8618644064
 51
270.0
  0
ARC
  5
23B
330
23
100
AcDbEntity
  8
0
  6
Continuous
 62
     7
370
    25
100
AcDbCircle
 10
226.0085325705
 20
-105.8751796511
 30
0.0
 40
9.971121024342617
100
AcDbArc
 50
269.8210924037
 51
351.0416465984
  0
ARC
  5
23C
330
23
100
AcDbEntity
  8
0
  6
Continuous
 62
     7
370
    25
100
AcDbCircle
 10
-226.0085325705
 20
-105.8751796511
 30
0.0
 40
9.971121024342596
100
AcDbArc
 50
188.9583534016
 51
270.1789075963
  0
ARC
  5
23D
330
23
100
AcDbEntity
  8
0
  6
Continuous
 62
     7
370
    25
100
AcDbCircle
 10
-221.4133765255
 20
-134.9708653814
 30
0.0
 40
10.02915176296701
100
AcDbArc
 50
188.7659337169
 51
269.8940584742
  0
ARC
  5
23E
330
23
100
AcDbEntity
  8
0
  6
Continuous
 62
     7
370
    25
100
AcDbCircle
 10
221.4133765255
 20
-134.9708653814
 30
0.0
 40
10.02915176296705
100
AcDbArc
 50
270.1059415258
 51
351.2340662831
  0
ARC
  5
23F
330
23
100
AcDbEntity
  8
0
  6
Continuous
 62
     8
370
    25
100
AcDbCircle
 10
-183.3282743385
 20
-125.6085278262
 30
0.0
 40
9.329878742077877
100
AcDbArc
 50
259.2772979379
 51
279.2697431917
  0
ARC
  5
240
330
23
100
AcDbEntity
  8
0
  6
Continuous
 62
     8
370
    25
100
AcDbCircle
 10
-185.6847771109
 20
-132.0308282595
 30
0.0
 40
10.09038349793056
100
AcDbArc
 50
270.6075895131
 51
343.9736997
  0
ARC
  5
241
330
23
100
AcDbEntity
  8
0
  6
Continuous
 62
     8
370
    25
100
AcDbCircle
 10
183.3282743385
 20
-125.6085278262
 30
0.0
 40
9.329878742078026
100
AcDbArc
 50
260.7302568083
 51
280.7227020621
  0
ARC
  5
242
330
23
100
AcDbEntity
  8
0
  6
Continuous
 62
     8
370
    25
100
AcDbCircle
 10
185.6581363817
 20
-132.065253878
 30
0.0
 40
10.05571163583181
100
AcDbArc
 50
195.6528062303
 51
269.5421165482
  0
ARC
  5
243
330
23
100
AcDbEntity
  8
0
  6
Continuous
 62
     8
370
    25
100
AcDbCircle
 10
168.0478109319
 20
-136.4613337344
 30
0.0
 40
2.740348790642036
100
AcDbArc
 50
143.1155295972
 51
174.3152689063
  0
ARC
  5
244
330
23
100
AcDbEntity
  8
0
  6
Continuous
 62
     8
370
    25
100
AcDbCircle
 10
-168.0478109319
 20
-136.4613337344
 30
0.0
 40
2.740348790641799
100
AcDbArc
 50
5.6847310937
 51
36.8844704028
  0
VIEWPORT
  5
3B8
330
23
100
AcDbEntity
  8
0
100
AcDbViewport
 10
0.0
 20
0.0
 30
0.0
 40
205.6
 41
156.0
 68
     1
 69
     1
 12
0.0
 22
0.0
 13
0.0
 23
0.0
 14
10.0
 24
10.0
 15
10.0
 25
10.0
 16
0.0
 26
0.0
 36
1.0
 17
0.0
 27
0.0
 37
0.0
 42
50.0
 43
0.0
 44
0.0
 45
469.2
 50
0.0
 51
0.0
 72
   100
 90
   557152
  1

281
     0
 71
     1
 74
     0
110
0.0
120
0.0
130
0.0
111
1.0
121
0.0
131
0.0
112
0.0
122
1.0
132
0.0
 79
     0
146
0.0
  0
ENDBLK
  5
25
330
23
100
AcDbEntity
  8
0
100
AcDbBlockEnd
  0
BLOCK
  5
247
330
245
100
AcDbEntity
  8
0
100
AcDbBlockBegin
  2
*Paper_Space1
 70
     0
 10
0.0
 20
0.0
 30
0.0
  3
*Paper_Space1
  1

  0
LWPOLYLINE
  5
260
330
245
100
AcDbEntity
  8
0
  6
Continuous
 62
     7
370
    25
100
AcDbPolyline
 90
       15
 70
   128
 43
0.0
 10
-186.1228451069
 20
-63.6536292935
 10
-185.8313980591
 20
-65.179363381
 10
-185.192148895
 20
-66.6607482609
 10
-184.2126027701
 20
-68.0803916166
 10
-182.9042601234
 20
-69.4216260126
 10
-181.2824816556
 20
-70.6687045802
 10
-179.3663079852
 20
-71.8069858944
 10
-177.1782361013
 20
-72.8231058734
 10
-174.7439552354
 20
-73.7051346798
 10
-172.092045255
 20
-74.4427167845
 10
-169.2536411195
 20
-75.0271925463
 10
-166.2620673379
 20
-75.4516998812
 10
-163.1524467193
 20
-75.7112548271
 10
-159.9612880113
 20
-75.8028100587
 10
-156.7260572658
 20
-75.7252906644
  0
LWPOLYLINE
  5
262
330
245
100
AcDbEntity
  8
0
  6
Continuous
 62
     7
370
    25
100
AcDbPolyline
 90
        3
 70
   128
 43
0.0
 10
-156.7260572658
 20
-75.7252906644
 10
-156.1036023991
 20
-75.7020241394
 10
-155.4795607129
 20
-75.6942675159
  0
LWPOLYLINE
  5
265
330
245
100
AcDbEntity
  8
0
  6
Continuous
 62
     7
370
    25
100
AcDbPolyline
 90
       15
 70
   128
 43
0.0
 10
-184.8359789746
 20
-80.7505650512
 10
-184.6371177939
 20
-80.9161815934
 10
-184.068629961
 20
-81.0704454454
 10
-183.137559785
 20
-81.211445076
 10
-181.8554444451
 20
-81.337433315
 10
-180.23817103
 20
-81.4468490032
 10
-178.3057796761
 20
-81.5383363368
 10
-176.0822152436
 20
-81.6107616679
 10
-173.595030609
 20
-81.6632275517
 10
-170.8750452482
 20
-81.6950838673
 10
-167.955963343
 20
-81.7059358731
 10
-164.8739561425
 20
-81.6956490986
 10
-161.6672137533
 20
-81.6643510104
 10
-158.3754719148
 20
-81.6124294328
 10
-155.0395196206
 20
-81.5405277422
  0
LWPOLYLINE
  5
272
330
245
100
AcDbEntity
  8
0
  6
Continuous
 62
     7
370
    25
100
AcDbPolyline
 90
        9
 70
   128
 43
0.0
 10
-115.2541220689
 20
-90.8116765583
 10
-116.4180022819
 20
-92.1498763958
 10
-117.5436377812
 20
-93.3934822097
 10
-118.5940405615
 20
-94.5016295296
 10
-119.5346947392
 20
-95.4379050061
 10
-120.3346907335
 20
-96.1715429406
 10
-120.9677409439
 20
-96.6784362366
 10
-121.4130435527
 20
-96.9419285501
 10
-121.6559660655
 20
-96.9533616121
  0
LWPOLYLINE
  5
274
330
245
100
AcDbEntity
  8
0
  6
Continuous
 62
     7
370
    25
100
AcDbPolyline
 90
        9
 70
   128
 43
0.0
 10
-100.7788428922
 20
-102.8744092056
 10
-101.9427231052
 20
-104.212609043
 10
-103.0683586045
 20
-105.4562148569
 10
-104.1187613848
 20
-106.5643621769
 10
-105.0594155625
 20
-107.5006376533
 10
-105.8594115568
 20
-108.2342755879
 10
-106.4924617672
 20
-108.7411688838
 10
-106.937764376
 20
-109.0046611974
 10
-107.1806868888
 20
-109.0160942593
  0
SPLINE
  5
27A
330
245
100
AcDbEntity
  8
0
  6
Continuous
 62
     7
370
    25
100
AcDbSpline
210
0.0
220
0.0
230
1.0
 70
     8
 71
     3
 72
    22
 73
    18
 74
     0
 42
0.000000001
 43
0.00000001
 40
0.0
 40
0.0
 40
0.0
 40
0.0
 40
0.1250000000000003
 40
0.1250000000000003
 40
0.2500000000000006
 40
0.2500000000000006
 40
0.3750000000000009
 40
0.3750000000000009
 40
0.5000000000000012
 40
0.5000000000000012
 40
0.7500000000000018
 40
0.7500000000000018
 40
0.8750000000000001
 40
0.8750000000000001
 40
0.9375000000000001
 40
0.9375000000000001
 40
1.0
 40
1.0
 40
1.0
 40
1.0
 10
45.71908053573318
 20
-131.172218314472
 30
0.0
 10
45.73934990941536
 20
-130.9726974102126
 30
0.0
 10
45.76642633468366
 20
-130.7781336570238
 30
0.0
 10
45.83346069436519
 20
-130.3984123706131
 30
0.0
 10
45.87400861003864
 20
-130.2112744761784
 30
0.0
 10
45.96505138755726
 20
-129.8601511627611
 30
0.0
 10
46.01549046955556
 20
-129.6954009664702
 30
0.0
 10
46.12582843649719
 20
-129.3869675554922
 30
0.0
 10
46.18549856809982
 20
-129.2444823842219
 30
0.0
 10
46.3709297619515
 20
-128.865174773759
 30
0.0
 10
46.50704898528106
 20
-128.6689066503563
 30
0.0
 10
46.71131925770302
 20
-128.4792227762152
 30
0.0
 10
46.78054569116467
 20
-128.432231489263
 30
0.0
 10
46.88283147397209
 20
-128.3884585862335
 30
0.0
 10
46.91664714627684
 20
-128.3782683103845
 30
0.0
 10
46.98372015920229
 20
-128.3666262197954
 30
0.0
 10
47.01736027124707
 20
-128.3652145701134
 30
0.0
 10
47.04988843328567
 20
-128.3681716757532
 30
0.0
  0
SPLINE
  5
27B
330
245
100
AcDbEntity
  8
0
  6
Continuous
 62
     7
370
    25
100
AcDbSpline
210
0.0
220
0.0
230
1.0
 70
     8
 71
     3
 72
     8
 73
     4
 74
     0
 42
0.000000001
 43
0.00000001
 40
0.0
 40
0.0
 40
0.0
 40
0.0
 40
1.0
 40
1.0
 40
1.0
 40
1.0
 10
46.15816849935312
 20
-153.4999999999999
 30
0.0
 10
45.76980256133427
 20
-153.4999999999999
 30
0.0
 10
45.38333555385672
 20
-153.4351311603486
 30
0.0
 10
45.00000000000097
 20
-153.3022425532407
 30
0.0
  0
SPLINE
  5
27C
330
245
100
AcDbEntity
  8
0
  6
Continuous
 62
     7
370
    25
100
AcDbSpline
210
0.0
220
0.0
230
1.0
 70
     8
 71
     3
 72
     8
 73
     4
 74
     0
 42
0.000000001
 43
0.00000001
 40
0.0
 40
0.0
 40
0.0
 40
0.0
 40
0.0000870261291664
 40
0.0000870261291664
 40
0.0000870261291664
 40
0.0000870261291664
 10
45.70879482786255
 20
-131.2586252617658
 30
0.0
 10
45.71271925587693
 20
-131.229883234967
 30
0.0
 10
45.71614985754845
 20
-131.2010663475034
 30
0.0
 10
45.71908053573318
 20
-131.172218314472
 30
0.0
  0
SPLINE
  5
27D
330
245
100
AcDbEntity
  8
0
  6
Continuous
 62
     7
370
    25
100
AcDbSpline
210
0.0
220
0.0
230
1.0
 70
     8
 71
     3
 72
     8
 73
     4
 74
     0
 42
0.000000001
 43
0.00000001
 40
0.0
 40
0.0
 40
0.0
 40
0.0
 40
1.0
 40
1.0
 40
1.0
 40
1.0
 10
45.00000000000002
 20
-136.4058615396973
 30
0.0
 10
45.23828295919093
 20
-134.6903900449294
 30
0.0
 10
45.47449109473032
 20
-132.9746369078002
 30
0.0
 10
45.7087948278613
 20
-131.2586252617657
 30
0.0
  0
SPLINE
  5
27E
330
245
100
AcDbEntity
  8
0
  6
Continuous
 62
     7
370
    25
100
AcDbSpline
210
0.0
220
0.0
230
1.0
 70
    24
 71
     3
 72
    27
 73
    23
 74
     0
 42
0.000000001
 43
0.00000001
 40
0.0
 40
0.0
 40
0.0
 40
0.0
 40
0.0541930331333965
 40
0.0878289972206809
 40
0.121464893601661
 40
0.1752272003186868
 40
0.2289884287967022
 40
0.2825628550422724
 40
0.336136005947985
 40
0.3896482403640212
 40
0.4431591662239378
 40
0.4967368960573598
 40
0.5503146618804212
 40
0.6040900006915157
 40
0.6578665960398682
 40
0.7118787638684622
 40
0.7658920917138087
 40
0.820088997142355
 40
0.8742869646689047
 40
0.9284677070984807
 40
0.9826496307964708
 40
0.9999999999999999
 40
0.9999999999999999
 40
0.9999999999999999
 40
0.9999999999999999
 10
54.4578842781433
 20
-160.0
 30
0.0
 10
54.34805300799462
 20
-160.0
 30
0.0
 10
54.1700528156657
 20
-160.0
 30
0.0
 10
53.1536284553536
 20
-159.9999999999999
 30
0.0
 10
51.75637378018585
 20
-160.0000000000001
 30
0.0
 10
49.47656552223633
 20
-160.0
 30
0.0
 10
46.08592288433424
 20
-160.0
 30
0.0
 10
41.97071528857374
 20
-159.9999999999999
 30
0.0
 10
37.27752778629096
 20
-160.0
 30
0.0
 10
32.11199994485948
 20
-160.0
 30
0.0
 10
26.63373245577963
 20
-160.0000000000001
 30
0.0
 10
20.98553841006363
 20
-160.0
 30
0.0
 10
15.32463815869514
 20
-160.0
 30
0.0
 10
9.818158657675896
 20
-160.0
 30
0.0
 10
4.607084649577338
 20
-160.0
 30
0.0
 10
-0.1353581843792592
 20
-160.0
 30
0.0
 10
-4.299142357835373
 20
-160.0
 30
0.0
 10
-7.725543043946297
 20
-160.0
 30
0.0
 10
-10.36263241134936
 20
-160.0
 30
0.0
 10
-12.03826143207327
 20
-160.0000000000001
 30
0.0
 10
-12.75510957034882
 20
-160.0
 30
0.0
 10
-12.68810770082783
 20
-160.0
 30
0.0
 10
-12.6718561992142
 20
-160.0
 30
0.0
  0
SPLINE
  5
28A
330
245
100
AcDbEntity
  8
0
  6
Continuous
 62
     8
370
    25
100
AcDbSpline
210
0.0
220
0.0
230
1.0
 70
     8
 71
     3
 72
    23
 73
    19
 74
     0
 42
0.000000001
 43
0.00000001
 40
0.0
 40
0.0
 40
0.0
 40
0.0
 40
0.0163638282742465
 40
0.0895025011413012
 40
0.1647612860932142
 40
0.2379216571049127
 40
0.3132014512691081
 40
0.3863472806207538
 40
0.4616107297088959
 40
0.5347309991306866
 40
0.6099680044092829
 40
0.6830758088936714
 40
0.75830396601184
 40
0.8314215336596911
 40
0.9066645717254782
 40
0.9526738211718754
 40
0.9991965175538926
 40
1.0
 40
1.0
 40
1.0
 40
1.0
 10
45.71908053573318
 20
-131.172218314472
 30
0.0
 10
45.34515875454945
 20
-131.1356079488201
 30
0.0
 10
43.29998117835695
 20
-130.9353663403998
 30
0.0
 10
39.1893650907982
 20
-130.5327484560673
 30
0.0
 10
33.15620026068648
 20
-129.9420141917636
 30
0.0
 10
26.70128065386032
 20
-129.3099648450082
 30
0.0
 10
20.13195743254111
 20
-128.6668799927455
 30
0.0
 10
13.51420326208938
 20
-128.0191791499188
 30
0.0
 10
7.1551493969036
 20
-127.3969340649449
 30
0.0
 10
1.119931593092433
 20
-126.8066014952028
 30
0.0
 10
-4.313204870792744
 20
-126.2752369488864
 30
0.0
 10
-9.08681215037339
 20
-125.808578031499
 30
0.0
 10
-12.98454236354667
 20
-125.4276056296898
 30
0.0
 10
-15.9504324623784
 20
-125.1377997211286
 30
0.0
 10
-17.66331257163952
 20
-124.9704544170676
 30
0.0
 10
-18.36790177602431
 20
-124.9016151495542
 30
0.0
 10
-18.67532393898662
 20
-124.8715846371368
 30
0.0
 10
-18.55604039538035
 20
-124.8832378782785
 30
0.0
 10
-18.55401525336022
 20
-124.8834357217329
 30
0.0
  0
SPLINE
  5
28B
330
245
100
AcDbEntity
  8
0
  6
Continuous
 62
     8
370
    25
100
AcDbSpline
210
0.0
220
0.0
230
1.0
 70
     8
 71
     3
 72
    28
 73
    24
 74
     0
 42
0.000000001
 43
0.00000001
 40
0.0
 40
0.0
 40
0.0
 40
0.0
 40
0.0166653222760469
 40
0.0698867083585572
 40
0.1246504377385441
 40
0.1778968125195235
 40
0.2326976410114328
 40
0.2857799247040039
 40
0.3404151538524373
 40
0.3932816351712288
 40
0.4476922585911745
 40
0.5003721274522356
 40
0.5545840112923017
 40
0.6071965578648986
 40
0.6613325057774616
 40
0.7139948043721891
 40
0.768173795139376
 40
0.8210035313760748
 40
0.875352375121408
 40
0.9086876935450159
 40
0.9423911717912753
 40
0.9956219435356533
 40
1.0
 40
1.0
 40
1.0
 40
1.0
 10
-15.65536820320699
 20
-157.2614664950335
 30
0.0
 10
-15.6720984766989
 20
-157.2614663210476
 30
0.0
 10
-15.74225756062902
 20
-157.2614655914304
 30
0.0
 10
-14.97774244278379
 20
-157.2614675189634
 30
0.0
 10
-13.16054426930874
 20
-157.2614670597915
 30
0.0
 10
-10.29359916885048
 20
-157.2614676108375
 30
0.0
 10
-6.577727402934507
 20
-157.2614663233381
 30
0.0
 10
-2.036302668170522
 20
-157.2614681742207
 30
0.0
 10
3.1068804532891
 20
-157.2614637172892
 30
0.0
 10
8.801049885303918
 20
-157.2614677955076
 30
0.0
 10
14.77282277161327
 20
-157.261466524162
 30
0.0
 10
20.96631964564345
 20
-157.2614674874469
 30
0.0
 10
27.09074047568933
 20
-157.2614669042456
 30
0.0
 10
33.09025504477855
 20
-157.2614672523629
 30
0.0
 10
38.68932569526415
 20
-157.2614648118718
 30
0.0
 10
43.83391309704396
 20
-157.2614651822436
 30
0.0
 10
48.2915648514903
 20
-157.2614670818945
 30
0.0
 10
52.01654736996303
 20
-157.2614673047251
 30
0.0
 10
54.48491330425752
 20
-157.2614672331873
 30
0.0
 10
56.04066280647274
 20
-157.2614671943369
 30
0.0
 10
57.05329533134277
 20
-157.2614671781541
 30
0.0
 10
57.59715121184077
 20
-157.2614672720791
 30
0.0
 10
57.4255447515602
 20
-157.2614671912018
 30
0.0
 10
57.41250329947523
 20
-157.2614671850554
 30
0.0
  0
LINE
  5
28E
330
245
100
AcDbEntity
  8
0
  6
Continuous
 62
     7
370
    25
100
AcDbLine
 10
-18.5599976497
 20
-124.8831959234
 30
0.0
 11
-15.7267198854
 21
-157.2677089583
 31
0.0
  0
LINE
  5
28F
330
245
100
AcDbEntity
  8
0
  6
Continuous
 62
     7
370
    25
100
AcDbLine
 10
57.4518183262
 20
-157.2649068042
 30
0.0
 11
57.7808560374
 21
-153.5039885549
 31
0.0
  0
LINE
  5
290
330
245
100
AcDbEntity
  8
0
  6
Continuous
 62
     7
370
    25
100
AcDbLine
 10
-226.0
 20
0.0
 30
0.0
 11
226.0
 21
0.0
 31
0.0
  0
LINE
  5
291
330
245
100
AcDbEntity
  8
0
  6
Continuous
 62
     7
370
    25
100
AcDbLine
 10
230.0
 20
-4.0
 30
0.0
 11
-230.0
 21
-4.0
 31
0.0
  0
LINE
  5
292
330
245
100
AcDbEntity
  8
0
  6
Continuous
 62
     7
370
    25
100
AcDbLine
 10
230.0
 20
-60.0
 30
0.0
 11
-226.0
 21
-60.0
 31
0.0
  0
LINE
  5
293
330
245
100
AcDbEntity
  8
0
  6
Continuous
 62
     7
370
    25
100
AcDbLine
 10
-185.0
 20
-60.0
 30
0.0
 11
-185.0
 21
0.0
 31
0.0
  0
LINE
  5
294
330
245
100
AcDbEntity
  8
0
  6
Continuous
 62
     7
370
    25
100
AcDbLine
 10
-230.0
 20
-56.0
 30
0.0
 11
230.0
 21
-56.0
 31
0.0
  0
LINE
  5
295
330
245
100
AcDbEntity
  8
0
  6
Continuous
 62
     7
370
    25
100
AcDbLine
 10
230.0
 20
-145.0
 30
0.0
 11
230.0
 21
-4.0
 31
0.0
  0
LINE
  5
296
330
245
100
AcDbEntity
  8
0
  6
Continuous
 62
     7
370
    25
100
AcDbLine
 10
-230.0
 20
-56.0
 30
0.0
 11
-230.0
 21
-4.0
 31
0.0
  0
LINE
  5
297
330
245
100
AcDbEntity
  8
0
  6
Continuous
 62
     7
370
    25
100
AcDbLine
 10
-184.8359789746
 20
-80.7505650512
 30
0.0
 11
-186.3978494624
 21
-60.0
 31
0.0
  0
LINE
  5
298
330
245
100
AcDbEntity
  8
0
  6
Continuous
 62
     7
370
    25
100
AcDbLine
 10
230.0
 20
-75.6942675159
 30
0.0
 11
-155.4795607129
 21
-75.6942675159
 31
0.0
  0
LINE
  5
299
330
245
100
AcDbEntity
  8
0
  6
Continuous
 62
     7
370
    25
100
AcDbLine
 10
-155.4795607129
 20
-75.6942675159
 30
0.0
 11
-155.0395196206
 21
-81.5405277422
 31
0.0
  0
LINE
  5
29A
330
245
100
AcDbEntity
  8
0
  6
Continuous
 62
     7
370
    25
100
AcDbLine
 10
-89.7858698197
 20
-107.427847743
 30
0.0
 11
230.0
 21
-136.4992904539
 31
0.0
  0
LINE
  5
29B
330
245
100
AcDbEntity
  8
0
  6
Continuous
 62
     7
370
    25
100
AcDbLine
 10
-115.2541220689
 20
-90.8116765583
 30
0.0
 11
-100.7788428922
 21
-102.8744092056
 31
0.0
  0
LINE
  5
29C
330
245
100
AcDbEntity
  8
0
  6
Continuous
 62
     7
370
    25
100
AcDbLine
 10
-155.0395196206
 20
-81.5405277422
 30
0.0
 11
-140.8614980554
 21
-81.5405277422
 31
0.0
  0
LINE
  5
29D
330
245
100
AcDbEntity
  8
0
  6
Continuous
 62
     7
370
    25
100
AcDbLine
 10
-140.8614980554
 20
-81.5405277422
 30
0.0
 11
-140.8614980554
 21
-90.0
 31
0.0
  0
LINE
  5
29E
330
245
100
AcDbEntity
  8
0
  6
Continuous
 62
     7
370
    25
100
AcDbLine
 10
-140.8614980554
 20
-90.0
 30
0.0
 11
-174.8641861517
 21
-90.0
 31
0.0
  0
LINE
  5
29F
330
245
100
AcDbEntity
  8
0
  6
Continuous
 62
     7
370
    25
100
AcDbLine
 10
-155.0395196206
 20
-81.5405277422
 30
0.0
 11
-155.0395196206
 21
-90.0
 31
0.0
  0
LINE
  5
2A0
330
245
100
AcDbEntity
  8
0
  6
Continuous
 62
     7
370
    25
100
AcDbLine
 10
-107.1806868888
 20
-109.0160942593
 30
0.0
 11
-121.6559660655
 21
-96.9533616121
 31
0.0
  0
LINE
  5
2A1
330
245
100
AcDbEntity
  8
0
  6
Continuous
 62
     7
370
    25
100
AcDbLine
 10
230.0
 20
-145.0
 30
0.0
 11
-90.6912272801
 21
-115.8462520654
 31
0.0
  0
LINE
  5
2A2
330
245
100
AcDbEntity
  8
0
  6
Continuous
 62
     7
370
    25
100
AcDbLine
 10
117.530488867
 20
-134.7754989879
 30
0.0
 11
117.2588816289
 21
-137.7631786073
 31
0.0
  0
LINE
  5
2A3
330
245
100
AcDbEntity
  8
0
  6
Continuous
 62
     7
370
    25
100
AcDbLine
 10
117.2588816289
 20
-137.7631786073
 30
0.0
 11
45.7087948279
 21
-131.2586252618
 31
0.0
  0
LINE
  5
2A4
330
245
100
AcDbEntity
  8
0
  6
Continuous
 62
     7
370
    25
100
AcDbLine
 10
45.0
 20
-150.5
 30
0.0
 11
109.2675903871
 21
-150.5
 31
0.0
  0
LINE
  5
2A5
330
245
100
AcDbEntity
  8
0
  6
Continuous
 62
     7
370
    25
100
AcDbLine
 10
45.0
 20
-136.4058615397
 30
0.0
 11
45.0
 21
-153.3022425533
 31
0.0
  0
LINE
  5
2A6
330
245
100
AcDbEntity
  8
0
  6
Continuous
 62
     7
370
    25
100
AcDbLine
 10
141.8114518071
 20
-136.9828592552
 30
0.0
 11
110.6500135314
 21
-153.1625
 31
0.0
  0
LINE
  5
2A7
330
245
100
AcDbEntity
  8
0
  6
Continuous
 62
     7
370
    25
100
AcDbLine
 10
109.2675903871
 20
-150.5
 30
0.0
 11
110.6500135314
 21
-153.1625
 31
0.0
  0
LINE
  5
2A8
330
245
100
AcDbEntity
  8
0
  6
Continuous
 62
     7
370
    25
100
AcDbLine
 10
109.2675903871
 20
-150.5
 30
0.0
 11
109.2675903871
 21
-153.5
 31
0.0
  0
LINE
  5
2A9
330
245
100
AcDbEntity
  8
0
  6
Continuous
 62
     7
370
    25
100
AcDbLine
 10
109.2675903871
 20
-153.5
 30
0.0
 11
46.1581684994
 21
-153.5
 31
0.0
  0
LINE
  5
2AA
330
245
100
AcDbEntity
  8
0
  6
Continuous
 62
     8
370
    25
100
AcDbLine
 10
-157.9096812943
 20
-60.0
 30
0.0
 11
-156.7260572658
 21
-75.7252906644
 31
0.0
  0
LINE
  5
2AB
330
245
100
AcDbEntity
  8
0
  6
Continuous
 62
     8
370
    25
100
AcDbLine
 10
109.2675903871
 20
-150.5
 30
0.0
 11
136.2711785102
 21
-136.4791980464
 31
0.0
  0
ARC
  5
2AC
330
245
100
AcDbEntity
  8
0
  6
Continuous
 62
     7
370
    25
100
AcDbCircle
 10
-21.5484430106
 20
-125.1443219955
 30
0.0
 40
2.999991125936022
100
AcDbArc
 50
4.9530838276
 51
84.7255385942
  0
ARC
  5
2AD
330
245
100
AcDbEntity
  8
0
  6
Continuous
 62
     7
370
    25
100
AcDbCircle
 10
54.4635046139
 20
-157.0000015878
 30
0.0
 40
2.999998412197598
100
AcDbArc
 50
269.9988988762
 51
354.87036206
  0
ARC
  5
2AE
330
245
100
AcDbEntity
  8
0
  6
Continuous
 62
     7
370
    25
100
AcDbCircle
 10
-12.7386148609
 20
-157.0000035136
 30
0.0
 40
2.999996486307286
100
AcDbArc
 50
185.2842905942
 51
270.0024167452
  0
ARC
  5
2AF
330
245
100
AcDbEntity
  8
0
  6
Continuous
 62
     7
370
    25
100
AcDbCircle
 10
226.0
 20
-4.0
 30
0.0
 40
4.0
100
AcDbArc
 50
0.0
 51
90.0
  0
ARC
  5
2B0
330
245
100
AcDbEntity
  8
0
  6
Continuous
 62
     7
370
    25
100
AcDbCircle
 10
-226.0
 20
-4.0
 30
0.0
 40
4.000000000000004
100
AcDbArc
 50
90.0
 51
180.0
  0
ARC
  5
2B1
330
245
100
AcDbEntity
  8
0
  6
Continuous
 62
     7
370
    25
100
AcDbCircle
 10
-226.0
 20
-56.0
 30
0.0
 40
4.000000000000007
100
AcDbArc
 50
180.0
 51
270.0
  0
ARC
  5
2B2
330
245
100
AcDbEntity
  8
0
  6
Continuous
 62
     7
370
    25
100
AcDbCircle
 10
-87.9751548989
 20
-87.5099836136
 30
0.0
 40
20.00000000000007
100
AcDbArc
 50
230.1944289077
 51
264.8055710923
  0
ARC
  5
2B3
330
245
100
AcDbEntity
  8
0
  6
Continuous
 62
     7
370
    25
100
AcDbCircle
 10
-140.8614980554
 20
-121.5405277422
 30
0.0
 40
39.9999999999998
100
AcDbArc
 50
50.1944289077
 51
90.0
  0
ARC
  5
2B4
330
245
100
AcDbEntity
  8
0
  6
Continuous
 62
     7
370
    25
100
AcDbCircle
 10
-174.8641861517
 20
-80.0
 30
0.0
 40
9.999999999999964
100
AcDbArc
 50
184.3044689605
 51
270.0
  0
ARC
  5
2B5
330
245
100
AcDbEntity
  8
0
  6
Continuous
 62
     7
370
    25
100
AcDbCircle
 10
-140.8614980554
 20
-120.0
 30
0.0
 40
29.99999999999985
100
AcDbArc
 50
50.1944289077
 51
90.0
  0
ARC
  5
2B6
330
245
100
AcDbEntity
  8
0
  6
Continuous
 62
     7
370
    25
100
AcDbCircle
 10
-230.6206550112
 20
-96.5396534706
 30
0.0
 40
141.2550512174997
100
AcDbArc
 50
352.1442806802
 51
355.5791526992
  0
ARC
  5
2B7
330
245
100
AcDbEntity
  8
0
  6
Continuous
 62
     7
370
    25
100
AcDbCircle
 10
-87.9751548989
 20
-85.9694558714
 30
0.0
 40
29.99999999999959
100
AcDbArc
 50
230.1944289077
 51
264.8055710923
  0
ARC
  5
2B8
330
245
100
AcDbEntity
  8
0
  6
Continuous
 62
     7
370
    25
100
AcDbCircle
 10
109.2675903871
 20
-150.5
 30
0.0
 40
3.000000000000388
100
AcDbArc
 50
270.0
 51
297.4392401507
  0
ARC
  5
2B9
330
245
100
AcDbEntity
  8
0
  6
Continuous
 62
     8
370
    25
100
AcDbCircle
 10
118.4358463275
 20
-124.8165669232
 30
0.0
 40
13.00000000000069
100
AcDbArc
 50
264.8055710923
 51
304.5207083241
  0
VIEWPORT
  5
3BA
330
245
100
AcDbEntity
  8
0
100
AcDbViewport
 10
0.0
 20
0.0
 30
0.0
 40
205.6
 41
156.0
 68
     1
 69
     1
 12
0.0
 22
0.0
 13
0.0
 23
0.0
 14
10.0
 24
10.0
 15
10.0
 25
10.0
 16
0.0
 26
0.0
 36
1.0
 17
0.0
 27
0.0
 37
0.0
 42
50.0
 43
0.0
 44
0.0
 45
469.2
 50
0.0
 51
0.0
 72
   100
 90
   557152
  1

281
     0
 71
     1
 74
     0
110
0.0
120
0.0
130
0.0
111
1.0
121
0.0
131
0.0
112
0.0
122
1.0
132
0.0
 79
     0
146
0.0
  0
ENDBLK
  5
248
330
245
100
AcDbEntity
  8
0
100
AcDbBlockEnd
  0
BLOCK
  5
2BC
330
2BA
100
AcDbEntity
  8
0
100
AcDbBlockBegin
  2
*Paper_Space2
 70
     0
 10
0.0
 20
0.0
 30
0.0
  3
*Paper_Space2
  1

  0
SPLINE
  5
2BE
330
2BA
100
AcDbEntity
  8
0
  6
Continuous
 62
     7
370
    25
100
AcDbSpline
210
0.0
220
0.0
230
1.0
 70
     8
 71
     3
 72
    26
 73
    22
 74
     0
 42
0.000000001
 43
0.00000001
 40
0.0
 40
0.0
 40
0.0
 40
0.0
 40
0.0296201066144969
 40
0.0852397746786762
 40
0.1407945404968599
 40
0.1962737044155567
 40
0.2516663575124198
 40
0.3069762586391269
 40
0.3622157093892433
 40
0.4174017355914169
 40
0.4725538678263215
 40
0.5276929375979844
 40
0.5828404520853292
 40
0.6380110895667546
 40
0.6932269682783069
 40
0.7485101259175196
 40
0.8038819116913968
 40
0.859361773848874
 40
0.9149649851341963
 40
0.9706986535304363
 40
1.0
 40
1.0
 40
1.0
 40
1.0
 10
20.27402614210358
 20
-246.5571419482647
 30
0.0
 10
20.77183405146452
 20
-246.8366275782215
 30
0.0
 10
22.20440938211565
 20
-247.6409221890919
 30
0.0
 10
24.73040728497547
 20
-248.8498618949244
 30
0.0
 10
27.8938680244685
 20
-250.1256345628217
 30
0.0
 10
31.21925175554783
 20
-251.2288434001182
 30
0.0
 10
34.67927859659453
 20
-252.1567274397662
 30
0.0
 10
38.25086368215644
 20
-252.9041282386119
 30
0.0
 10
41.90935509846894
 20
-253.4676928931578
 30
0.0
 10
45.63016086638047
 20
-253.844721978042
 30
0.0
 10
49.38835437714731
 20
-254.0334626670149
 30
0.0
 10
53.15888495910245
 20
-254.033039111736
 30
0.0
 10
56.91650586390559
 20
-253.8434846312214
 30
0.0
 10
60.63610535420999
 20
-253.4657597421729
 30
0.0
 10
64.29283632355678
 20
-252.9017006498678
 30
0.0
 10
67.86252787662653
 20
-252.1539994742502
 30
0.0
 10
71.32119066958673
 20
-251.2258492860333
 30
0.0
 10
74.64670799234266
 20
-250.121967291862
 30
0.0
 10
77.81271811988417
 20
-248.8444155092873
 30
0.0
 10
80.33511138046315
 20
-247.636147547508
 30
0.0
 10
81.7640676850134
 20
-246.8336621780216
 30
0.0
 10
82.25645712994469
 20
-246.5571419482647
 30
0.0
  0
SPLINE
  5
2C3
330
2BA
100
AcDbEntity
  8
0
  6
Continuous
 62
     7
370
    25
100
AcDbSpline
210
0.0
220
0.0
230
1.0
 70
     8
 71
     3
 72
    17
 73
    13
 74
     0
 42
0.000000001
 43
0.00000001
 40
0.0
 40
0.0
 40
0.0
 40
0.0
 40
0.0582207028002386
 40
0.1679233858911145
 40
0.277689399249145
 40
0.387135213031372
 40
0.4958687544793008
 40
0.6034387870472271
 40
0.7094478982246002
 40
0.8136947302997621
 40
0.9162727201274509
 40
1.0
 40
1.0
 40
1.0
 40
1.0
 10
-343.8859661689677
 20
46.52919254791876
 30
0.0
 10
-344.372331635952
 20
46.24049841770464
 30
0.0
 10
-345.7751339393996
 20
45.40783076683855
 30
0.0
 10
-347.9224456212679
 20
43.91395010721048
 30
0.0
 10
-350.231612600111
 20
42.00815331180306
 30
0.0
 10
-352.2693213465338
 20
39.9685517723045
 30
0.0
 10
-354.0174510844924
 20
37.81455712693968
 30
0.0
 10
-355.4556539996402
 20
35.56574880572913
 30
0.0
 10
-356.5740333842389
 20
33.24621504829843
 30
0.0
 10
-357.3532822017385
 20
30.88115733546888
 30
0.0
 10
-357.8097367861002
 20
28.63179436752021
 30
0.0
 10
-357.8518638197743
 20
27.17301385547431
 30
0.0
 10
-357.8707960912251
 20
26.51742464749752
 30
0.0
  0
SPLINE
  5
2C4
330
2BA
100
AcDbEntity
  8
0
  6
Continuous
 62
     7
370
    25
100
AcDbSpline
210
0.0
220
0.0
230
1.0
 70
     8
 71
     3
 72
    32
 73
    28
 74
     0
 42
0.000000001
 43
0.00000001
 40
0.0
 40
0.0
 40
0.0
 40
0.0
 40
0.0234698222702331
 40
0.0661263456492266
 40
0.1065769664460084
 40
0.1495924494424005
 40
0.1912344605758929
 40
0.2323124844444256
 40
0.2732750920535789
 40
0.3142665125676081
 40
0.3553810907260632
 40
0.3966344445545681
 40
0.4380062999530861
 40
0.4794611961766255
 40
0.5209578312150563
 40
0.5624515706993138
 40
0.6038848785584519
 40
0.6452135112147613
 40
0.6863951516842794
 40
0.7273947793180877
 40
0.7681972417024238
 40
0.8088334389582438
 40
0.8494178324958475
 40
0.8901501990103358
 40
0.9315334789579298
 40
0.9744461268516026
 40
1.0
 40
1.0
 40
1.0
 40
1.0
 10
208.382060965841
 20
26.87027386401725
 30
0.0
 10
208.3857657434088
 20
26.67491509948378
 30
0.0
 10
208.3962039733701
 20
26.12449076987437
 30
0.0
 10
208.125301699406
 20
25.22360669312004
 30
0.0
 10
207.5827149311764
 20
24.129017666757
 30
0.0
 10
206.7397906281429
 20
23.03352220725221
 30
0.0
 10
205.5966980538483
 20
21.9605049002988
 30
0.0
 10
204.1987655561784
 20
20.96802845347834
 30
0.0
 10
202.5651152609328
 20
20.07341607792512
 30
0.0
 10
200.7194998043438
 20
19.29559548037518
 30
0.0
 10
198.6927672263036
 20
18.65267480053038
 30
0.0
 10
196.5200725955285
 20
18.15999957755569
 30
0.0
 10
194.2409440056
 20
17.82967169558036
 30
0.0
 10
191.8978148040048
 20
17.66994558712692
 30
0.0
 10
189.5348396823653
 20
17.68496945477119
 30
0.0
 10
187.1970724319835
 20
17.87464784912055
 30
0.0
 10
184.9292347576849
 20
18.23451818020397
 30
0.0
 10
182.7746967990725
 20
18.75571367434513
 30
0.0
 10
180.7742832499002
 20
19.4250211689949
 30
0.0
 10
178.9653345318148
 20
20.22485520976125
 30
0.0
 10
177.3803998387701
 20
21.13342490971451
 30
0.0
 10
176.045127895732
 20
22.12526355379993
 30
0.0
 10
174.9786060935032
 20
23.17208560177991
 30
0.0
 10
174.183944093298
 20
24.24646080696302
 30
0.0
 10
173.6717047346729
 20
25.32967181065698
 30
0.0
 10
173.4193798882896
 20
26.25492808012932
 30
0.0
 10
173.4455445648239
 20
26.82499896040737
 30
0.0
 10
173.4553100504211
 20
27.03776746008431
 30
0.0
  0
SPLINE
  5
2C6
330
2BA
100
AcDbEntity
  8
0
  6
Continuous
 62
     7
370
    25
100
AcDbSpline
210
0.0
220
0.0
230
1.0
 70
     8
 71
     3
 72
    18
 73
    14
 74
     0
 42
0.000000001
 43
0.00000001
 40
0.0
 40
0.0
 40
0.0
 40
0.0
 40
0.0145778318149448
 40
0.1138857869204322
 40
0.2130938729082608
 40
0.3128002101896377
 40
0.4135867140267066
 40
0.5158284390846195
 40
0.6196413606746158
 40
0.7248914090718742
 40
0.8312685368463596
 40
0.9383960981894635
 40
1.0
 40
1.0
 40
1.0
 40
1.0
 10
-357.8743896534922
 20
-16.00839273949979
 30
0.0
 10
-357.8815941758261
 20
-16.12385590542183
 30
0.0
 10
-357.9378777648943
 20
-17.02588397641913
 30
0.0
 10
-357.7389388480498
 20
-18.71701240235364
 30
0.0
 10
-357.2619846626553
 20
-21.04869755196241
 30
0.0
 10
-356.4484686933653
 20
-23.33466047502877
 30
0.0
 10
-355.3415628387495
 20
-25.56372062152605
 30
0.0
 10
-353.933988862285
 20
-27.72575990507724
 30
0.0
 10
-352.2327250252179
 20
-29.80775093288891
 30
0.0
 10
-350.2459090234684
 20
-31.79533165703965
 30
0.0
 10
-347.9829525627111
 20
-33.66942227765747
 30
0.0
 10
-345.8342095133297
 20
-35.17348422803408
 30
0.0
 10
-344.4070298437002
 20
-36.02219033123681
 30
0.0
 10
-343.8859661689679
 20
-36.33205315391673
 30
0.0
  0
SPLINE
  5
2C7
330
2BA
100
AcDbEntity
  8
0
  6
Continuous
 62
     7
370
    25
100
AcDbSpline
210
0.0
220
0.0
230
1.0
 70
     8
 71
     3
 72
    34
 73
    30
 74
     0
 42
0.000000001
 43
0.00000001
 40
0.0
 40
0.0
 40
0.0
 40
0.0
 40
0.0336913507718575
 40
0.0746432706679952
 40
0.1141964365584939
 40
0.1523110013406743
 40
0.1895670971957116
 40
0.2264358622391177
 40
0.2631881510943507
 40
0.2999373269343783
 40
0.3367469812160968
 40
0.3736421578492984
 40
0.4106210447380003
 40
0.4476688146811127
 40
0.4847647673206686
 40
0.5218857641301273
 40
0.5590077035584826
 40
0.5960979524690089
 40
0.6331318637685374
 40
0.6700853350642935
 40
0.7069365157737434
 40
0.7436697185979594
 40
0.7802833627493319
 40
0.8168048736507396
 40
0.8533034245830549
 40
0.889900869756782
 40
0.9268692708572582
 40
0.9646508580820852
 40
1.0
 40
1.0
 40
1.0
 40
1.0
 10
36.62061476179608
 20
-86.90861371150079
 30
0.0
 10
36.60940725259593
 20
-87.28918352156116
 30
0.0
 10
36.5845769883419
 20
-88.13233687367115
 30
0.0
 10
36.17257680615054
 20
-89.43584997593425
 30
0.0
 10
35.45329581899482
 20
-90.80293551858927
 30
0.0
 10
34.43431738037611
 20
-92.11710398499271
 30
0.0
 10
33.14611415282545
 20
-93.360862993126
 30
0.0
 10
31.60008617673547
 20
-94.52183611105994
 30
0.0
 10
29.81281777932559
 20
-95.5849734505267
 30
0.0
 10
27.80493427576886
 20
-96.53363793749227
 30
0.0
 10
25.60227107384734
 20
-97.35163411879564
 30
0.0
 10
23.23434669636293
 20
-98.02458236272389
 30
0.0
 10
20.73411112548363
 20
-98.54039309143687
 30
0.0
 10
18.13722666343982
 20
-98.88968107548766
 30
0.0
 10
15.48122148763977
 20
-99.0660280630035
 30
0.0
 10
12.80474084820398
 20
-99.06610472421103
 30
0.0
 10
10.14707315642792
 20
-98.88973917617903
 30
0.0
 10
7.547319076417126
 20
-98.53999119877878
 30
0.0
 10
5.043744093508838
 20
-98.0231691411623
 30
0.0
 10
2.672960977292183
 20
-97.34877261164436
 30
0.0
 10
0.4694324390624924
 20
-96.52950207230356
 30
0.0
 10
-1.535354224623951
 20
-95.58119671863142
 30
0.0
 10
-3.31379055626621
 20
-94.52261969254252
 30
0.0
 10
-4.843356292653806
 20
-93.3750339739446
 30
0.0
 10
-6.106612587179655
 20
-92.16149431833698
 30
0.0
 10
-7.096335091370108
 20
-90.904421445834
 30
0.0
 10
-7.802927074615106
 20
-89.62144400181299
 30
0.0
 10
-8.244961924315112
 20
-88.36189292320798
 30
0.0
 10
-8.309949710314433
 20
-87.53513977047595
 30
0.0
 10
-8.341362804333189
 20
-87.13551276183551
 30
0.0
  0
SPLINE
  5
2C8
330
2BA
100
AcDbEntity
  8
0
  6
Continuous
 62
     7
370
    25
100
AcDbSpline
210
0.0
220
0.0
230
1.0
 70
     8
 71
     3
 72
    22
 73
    18
 74
     0
 42
0.000000001
 43
0.00000001
 40
0.0
 40
0.0
 40
0.0
 40
0.0
 40
0.0033002638615176
 40
0.0894992053593509
 40
0.1652434491032462
 40
0.2359766824409708
 40
0.3121646852333754
 40
0.3860312543815351
 40
0.461237755873133
 40
0.5359155846716509
 40
0.6121310208324907
 40
0.6880437055310827
 40
0.764561363136592
 40
0.8409438894058456
 40
0.916807449205551
 40
0.9877126128851671
 40
1.0
 40
1.0
 40
1.0
 40
1.0
 10
77.71319250462844
 20
38.03130450031583
 30
0.0
 10
77.72008798715375
 20
38.03690977843327
 30
0.0
 10
77.90708521903527
 20
38.18891821120697
 30
0.0
 10
78.32398883768536
 20
38.30001447509565
 30
0.0
 10
79.0922007637922
 20
38.37149672691285
 30
0.0
 10
79.99950221281432
 20
38.22591150040743
 30
0.0
 10
81.04939038332303
 20
37.84351711965911
 30
0.0
 10
82.19911542067287
 20
37.20355785152057
 30
0.0
 10
83.37302800850009
 20
36.32248535527759
 30
0.0
 10
84.53783754620756
 20
35.22138047510906
 30
0.0
 10
85.64194715367124
 20
33.9274168044485
 30
0.0
 10
86.65510531484429
 20
32.47938151426199
 30
0.0
 10
87.53115951226832
 20
30.92453306428869
 30
0.0
 10
88.24911745492734
 20
29.31562296045875
 30
0.0
 10
88.76590952028454
 20
27.74297755526223
 30
0.0
 10
89.00801837029461
 20
26.65117098331213
 30
0.0
 10
89.09002529078093
 20
26.10420590671367
 30
0.0
 10
89.10213756247458
 20
26.02342016844408
 30
0.0
  0
SPLINE
  5
2C9
330
2BA
100
AcDbEntity
  8
0
  6
Continuous
 62
     7
370
    25
100
AcDbSpline
210
0.0
220
0.0
230
1.0
 70
     8
 71
     3
 72
    14
 73
    10
 74
     0
 42
0.000000001
 43
0.00000001
 40
0.0
 40
0.0
 40
0.0
 40
0.0
 40
0.0880918587200795
 40
0.2599441045833708
 40
0.4281519175268516
 40
0.5950877068448798
 40
0.7669337197225649
 40
0.9442458159448035
 40
1.0
 40
1.0
 40
1.0
 40
1.0
 10
89.10213756247458
 20
26.02342016844408
 30
0.0
 10
89.13299024005171
 20
25.77356147957217
 30
0.0
 10
89.2240312484186
 20
25.03627095017641
 30
0.0
 10
89.22788917531209
 20
23.91311417970621
 30
0.0
 10
89.06439312198417
 20
22.77909007569287
 30
0.0
 10
88.75143244901763
 20
21.86351337845221
 30
0.0
 10
88.34120320065196
 20
21.22531499984122
 30
0.0
 10
87.99782603572254
 20
20.85980860397564
 30
0.0
 10
87.74944557738685
 20
20.75806053474335
 30
0.0
 10
87.69002793115644
 20
20.73372033172263
 30
0.0
  0
SPLINE
  5
2CB
330
2BA
100
AcDbEntity
  8
0
  6
Continuous
 62
     7
370
    25
100
AcDbSpline
210
0.0
220
0.0
230
1.0
 70
     8
 71
     3
 72
    23
 73
    19
 74
     0
 42
0.000000001
 43
0.00000001
 40
0.0
 40
0.0
 40
0.0
 40
0.0
 40
0.0538576646320932
 40
0.1209124905920259
 40
0.1879396318107363
 40
0.2548401409522529
 40
0.3215337094720496
 40
0.3879427056039626
 40
0.4539979202558024
 40
0.5196507810082029
 40
0.5848968248619508
 40
0.6498181185398272
 40
0.714646117618861
 40
0.7797137825641733
 40
0.845845098676095
 40
0.9145392292351597
 40
0.9882969078928557
 40
1.0
 40
1.0
 40
1.0
 40
1.0
 10
11.4999771260374
 20
-77.39499826881092
 30
0.0
 10
12.21391911704964
 20
-77.35492314782148
 30
0.0
 10
13.81674584303581
 20
-77.26495298809189
 30
0.0
 10
16.32573943233359
 20
-77.32933231940213
 30
0.0
 10
18.97480140856697
 20
-77.54967938707458
 30
0.0
 10
21.55292676325715
 20
-77.94095850477345
 30
0.0
 10
24.0196450986954
 20
-78.48834080392113
 30
0.0
 10
26.33813678634098
 20
-79.18139117380758
 30
0.0
 10
28.47380028177294
 20
-80.00363764971944
 30
0.0
 10
30.39582634947901
 20
-80.9353296853043
 30
0.0
 10
32.07842206980104
 20
-81.95289724011293
 30
0.0
 10
33.50216286078684
 20
-83.0297545209902
 30
0.0
 10
34.65562749374537
 20
-84.13671896918378
 30
0.0
 10
35.53556536344755
 20
-85.24562547570268
 30
0.0
 10
36.15975675972918
 20
-86.33504577791045
 30
0.0
 10
36.51947238910048
 20
-87.4059666798601
 30
0.0
 10
36.67420552093989
 20
-88.14709971208804
 30
0.0
 10
36.63026273152932
 20
-88.56125032807627
 30
0.0
 10
36.62424515753233
 20
-88.6179645697308
 30
0.0
  0
SPLINE
  5
2CC
330
2BA
100
AcDbEntity
  8
0
  6
Continuous
 62
     7
370
    25
100
AcDbSpline
210
0.0
220
0.0
230
1.0
 70
     8
 71
     3
 72
    32
 73
    28
 74
     0
 42
0.000000001
 43
0.00000001
 40
0.0
 40
0.0
 40
0.0
 40
0.0
 40
0.0234698222702331
 40
0.0661263456492254
 40
0.1065769664460064
 40
0.1495924494423968
 40
0.1912344605758905
 40
0.2323124844444232
 40
0.2732750920535771
 40
0.3142665125676057
 40
0.3553810907260608
 40
0.3966344445545657
 40
0.4380062999530818
 40
0.479461196176623
 40
0.5209578312150553
 40
0.5624515706993186
 40
0.6038848785584588
 40
0.6452135112147617
 40
0.6863951516842813
 40
0.7273947793180913
 40
0.7681972417024252
 40
0.8088334389582466
 40
0.8494178324958481
 40
0.890150199010334
 40
0.9315334789579333
 40
0.9744461268516027
 40
0.9999999999999999
 40
0.9999999999999999
 40
0.9999999999999999
 40
0.9999999999999999
 10
137.6713828471863
 20
67.69067945515278
 30
0.0
 10
137.6750876247542
 20
67.49532069061931
 30
0.0
 10
137.6855258547155
 20
66.94489636100987
 30
0.0
 10
137.4146235807513
 20
66.0440122842556
 30
0.0
 10
136.8720368125218
 20
64.94942325789258
 30
0.0
 10
136.0291125094883
 20
63.85392779838783
 30
0.0
 10
134.8860199351938
 20
62.78091049143442
 30
0.0
 10
133.4880874375237
 20
61.78843404461387
 30
0.0
 10
131.8544371422782
 20
60.89382166906069
 30
0.0
 10
130.0088216856892
 20
60.11600107151072
 30
0.0
 10
127.982089107649
 20
59.47308039166593
 30
0.0
 10
125.809394476874
 20
58.98040516869127
 30
0.0
 10
123.5302658869455
 20
58.6500772867159
 30
0.0
 10
121.1871366853503
 20
58.49035117826243
 30
0.0
 10
118.8241615637106
 20
58.5053750459067
 30
0.0
 10
116.4863943133286
 20
58.6950534402561
 30
0.0
 10
114.21855663903
 20
59.05492377133953
 30
0.0
 10
112.0640186804177
 20
59.57611926548073
 30
0.0
 10
110.0636051312455
 20
60.24542676013051
 30
0.0
 10
108.25465641316
 20
61.04526080089678
 30
0.0
 10
106.6697217201155
 20
61.95383050085012
 30
0.0
 10
105.3344497770772
 20
62.94566914493544
 30
0.0
 10
104.2679279748486
 20
63.99249119291544
 30
0.0
 10
103.4732659746433
 20
65.06686639809861
 30
0.0
 10
102.9610266160182
 20
66.15007740179249
 30
0.0
 10
102.7087017696349
 20
67.07533367126489
 30
0.0
 10
102.7348664461692
 20
67.64540455154288
 30
0.0
 10
102.7446319317665
 20
67.85817305121982
 30
0.0
  0
SPLINE
  5
2CD
330
2BA
100
AcDbEntity
  8
0
  6
Continuous
 62
     7
370
    25
100
AcDbSpline
210
0.0
220
0.0
230
1.0
 70
     8
 71
     3
 72
    27
 73
    23
 74
     0
 42
0.000000001
 43
0.00000001
 40
0.0
 40
0.0
 40
0.0
 40
0.0
 40
0.0306685666403511
 40
0.0867147078411241
 40
0.1419576930909611
 40
0.1970257141227085
 40
0.2521260346674125
 40
0.3073887051626996
 40
0.3628383668959474
 40
0.4184493672695537
 40
0.4741746805064944
 40
0.5299590172607469
 40
0.5857434550399134
 40
0.6414496832318526
 40
0.6970181848929398
 40
0.7523918217618487
 40
0.8075227177733592
 40
0.8394953247820875
 40
0.868111549608756
 40
0.9227331072937229
 40
0.977292613235438
 40
1.0
 40
1.0
 40
1.0
 40
1.0
 10
103.94597393691
 20
64.49248383784939
 30
0.0
 10
104.0880727811054
 20
64.69165649810226
 30
0.0
 10
104.48985418496
 20
65.25481288054125
 30
0.0
 10
105.4752337549274
 20
66.15709512933016
 30
0.0
 10
106.848917287837
 20
67.15431233782321
 30
0.0
 10
108.4742110018304
 20
68.05426869388171
 30
0.0
 10
110.3088981734736
 20
68.83848621752212
 30
0.0
 10
112.3274579710627
 20
69.48864895093578
 30
0.0
 10
114.4935990779795
 20
69.98928129132543
 30
0.0
 10
116.7683403857986
 20
70.32808994330541
 30
0.0
 10
119.109268150296
 20
70.49661887553924
 30
0.0
 10
121.4723264714077
 20
70.49050768766818
 30
0.0
 10
123.8124683570585
 20
70.30962973145316
 30
0.0
 10
126.0849145123155
 20
69.95823119898095
 30
0.0
 10
128.2462571660054
 20
69.44493395269546
 30
0.0
 10
130.2552813448856
 20
68.78281923412615
 30
0.0
 10
131.8233933938225
 20
68.09882028155681
 30
0.0
 10
132.9761799109429
 20
67.48066691899831
 30
0.0
 10
134.0364905137929
 20
66.82716524647775
 30
0.0
 10
135.1346704347301
 20
65.99044672485194
 30
0.0
 10
136.0215853913253
 20
65.14741907687733
 30
0.0
 10
136.3691493431504
 20
64.64583156676107
 30
0.0
 10
136.4712923024838
 20
64.49842378071513
 30
0.0
  0
SPLINE
  5
2CF
330
2BA
100
AcDbEntity
  8
0
  6
Continuous
 62
     7
370
    25
100
AcDbSpline
210
0.0
220
0.0
230
1.0
 70
     8
 71
     3
 72
    32
 73
    28
 74
     0
 42
0.000000001
 43
0.00000001
 40
0.0
 40
0.0
 40
0.0
 40
0.0
 40
0.0234698222702331
 40
0.0661263456492266
 40
0.1065769664460084
 40
0.1495924494424005
 40
0.1912344605758929
 40
0.2323124844444256
 40
0.2732750920535789
 40
0.3142665125676081
 40
0.3553810907260632
 40
0.3966344445545681
 40
0.4380062999530861
 40
0.4794611961766255
 40
0.5209578312150563
 40
0.5624515706993138
 40
0.6038848785584519
 40
0.6452135112147613
 40
0.6863951516842794
 40
0.7273947793180877
 40
0.7681972417024238
 40
0.8088334389582438
 40
0.8494178324958475
 40
0.8901501990103358
 40
0.9315334789579298
 40
0.9744461268516026
 40
1.0
 40
1.0
 40
1.0
 40
1.0
 10
66.96070472853172
 20
108.5110850462883
 30
0.0
 10
66.96440950609959
 20
108.3157262817548
 30
0.0
 10
66.97484773606084
 20
107.7653019521454
 30
0.0
 10
66.70394546209671
 20
106.8644178753911
 30
0.0
 10
66.1613586938671
 20
105.7698288490281
 30
0.0
 10
65.31843439083364
 20
104.6743333895233
 30
0.0
 10
64.17534181653903
 20
103.6013160825698
 30
0.0
 10
62.77740931886905
 20
102.6088396357494
 30
0.0
 10
61.14375902362352
 20
101.7142272601961
 30
0.0
 10
59.29814356703451
 20
100.9364066626462
 30
0.0
 10
57.27141098899433
 20
100.2934859828014
 30
0.0
 10
55.09871635821919
 20
99.80081075982672
 30
0.0
 10
52.81958776829074
 20
99.4704828778514
 30
0.0
 10
50.47645856669551
 20
99.31075676939797
 30
0.0
 10
48.11348344505601
 20
99.32578063704223
 30
0.0
 10
45.77571619467425
 20
99.51545903139159
 30
0.0
 10
43.50787852037562
 20
99.87532936247501
 30
0.0
 10
41.35334056176317
 20
100.3965248566162
 30
0.0
 10
39.35292701259094
 20
101.065832351266
 30
0.0
 10
37.54397829450548
 20
101.8656663920323
 30
0.0
 10
35.95904360146085
 20
102.7742360919855
 30
0.0
 10
34.62377165842273
 20
103.766074736071
 30
0.0
 10
33.55724985619395
 20
104.8128967840509
 30
0.0
 10
32.76258785598868
 20
105.8872719892341
 30
0.0
 10
32.25034849736365
 20
106.970482992928
 30
0.0
 10
31.99802365098026
 20
107.8957392624004
 30
0.0
 10
32.02418832751461
 20
108.4658101426784
 30
0.0
 10
32.03395381311181
 20
108.6785786423554
 30
0.0
  0
LWPOLYLINE
  5
2D1
330
2BA
100
AcDbEntity
  8
0
  6
Continuous
 62
     7
370
    25
100
AcDbPolyline
 90
       17
 70
   128
 43
0.0
 10
22.2738636074
 20
-197.3666610331
 10
25.2551169853
 20
-198.9265216184
 10
28.4868620822
 20
-200.3101795371
 10
31.9379754262
 20
-201.5043094071
 10
35.5752209091
 20
-202.497411105
 10
39.3635698686
 20
-203.2799205185
 10
43.2665384334
 20
-203.8443016542
 10
47.2465388825
 20
-204.1851192133
 10
51.265241636
 20
-204.2990909363
 10
55.2839443895
 20
-204.1851192133
 10
59.2639448387
 20
-203.8443016542
 10
63.1669134035
 20
-203.2799205185
 10
66.955262363
 20
-202.497411105
 10
70.5925078459
 20
-201.5043094071
 10
74.0436211898
 20
-200.3101795371
 10
77.2753662867
 20
-198.9265216184
 10
80.2566196647
 20
-197.3666610331
  0
LWPOLYLINE
  5
2D3
330
2BA
100
AcDbEntity
  8
0
  6
Continuous
 62
     7
370
    25
100
AcDbPolyline
 90
       17
 70
   128
 43
0.0
 10
-341.8861287037
 20
46.3311603459
 10
-344.5881792629
 20
44.6101194042
 10
-346.9850047795
 20
42.7444726712
 10
-349.0535225133
 20
40.7521873447
 10
-350.773811508
 20
38.6524502216
 10
-352.1293044401
 20
36.4654829182
 10
-353.1069471716
 20
34.2123471251
 10
-353.6973244686
 20
31.9147417717
 10
-353.894750675
 20
29.5947940536
 10
-353.6973244686
 20
27.2748463354
 10
-353.1069471716
 20
24.9772409821
 10
-352.1293044401
 20
22.724105189
 10
-350.773811508
 20
20.5371378855
 10
-349.0535225133
 20
18.4374007624
 10
-346.9850047795
 20
16.4451154359
 10
-344.5881792629
 20
14.5794687029
 10
-341.8861287037
 20
12.8584277612
  0
SPLINE
  5
2D6
330
2BA
100
AcDbEntity
  8
0
  6
Continuous
 62
     7
370
    25
100
AcDbSpline
210
0.0
220
0.0
230
1.0
 70
     8
 71
     3
 72
    42
 73
    38
 74
     0
 42
0.000000001
 43
0.00000001
 40
0.0
 40
0.0
 40
0.0
 40
0.0
 40
0.0624999999999973
 40
0.0624999999999973
 40
0.0937499999999972
 40
0.0937499999999972
 40
0.1249999999999972
 40
0.1249999999999972
 40
0.2499999999999991
 40
0.2499999999999991
 40
0.3124999999999987
 40
0.3124999999999987
 40
0.3437499999999984
 40
0.3437499999999984
 40
0.3749999999999981
 40
0.3749999999999981
 40
0.499999999999999
 40
0.499999999999999
 40
0.5312500000000006
 40
0.5312500000000006
 40
0.562500000000002
 40
0.562500000000002
 40
0.6250000000000033
 40
0.6250000000000033
 40
0.7500000000000041
 40
0.7500000000000041
 40
0.7812500000000039
 40
0.7812500000000039
 40
0.8125000000000036
 40
0.8125000000000036
 40
0.8750000000000023
 40
0.8750000000000023
 40
0.9375000000000012
 40
0.9375000000000012
 40
0.9687500000000006
 40
0.9687500000000006
 40
1.0
 40
1.0
 40
1.0
 40
1.0
 10
266.3529573486164
 20
-56.76642796595724
 30
0.0
 10
267.1752996011534
 20
-57.33936703503256
 30
0.0
 10
267.9515643467989
 20
-57.93127655158645
 30
0.0
 10
269.046843669899
 20
-58.84759712961856
 30
0.0
 10
269.4003738841474
 20
-59.1577978503218
 30
0.0
 10
270.0842524330449
 20
-59.78774344155464
 30
0.0
 10
270.4143992357047
 20
-60.10736178081363
 30
0.0
 10
271.9962525789699
 20
-61.71820359575862
 30
0.0
 10
273.0523731679151
 20
-63.05591173913423
 30
0.0
 10
274.32263441442
 20
-65.13599706836409
 30
0.0
 10
274.6937262030825
 20
-65.84161473179987
 30
0.0
 10
275.1689968984928
 20
-66.91909818808034
 30
0.0
 10
275.3141045279165
 20
-67.28232733034385
 30
0.0
 10
275.5741305821988
 20
-68.00915416720088
 30
0.0
 10
275.6892470969902
 20
-68.3730782161163
 30
0.0
 10
276.1916795596481
 20
-70.1952059386923
 30
0.0
 10
276.3624600107507
 20
-71.66083213002614
 30
0.0
 10
276.2797418717167
 20
-73.50301795276354
 30
0.0
 10
276.2482903976831
 20
-73.87196613630644
 30
0.0
 10
276.1551436962154
 20
-74.61089921468248
 30
0.0
 10
276.0932250691051
 20
-74.98185462937121
 30
0.0
 10
275.862818674865
 20
-76.08803300454804
 30
0.0
 10
275.6503820866347
 20
-76.81592779696761
 30
0.0
 10
274.8387377360989
 20
-78.97129108682954
 30
0.0
 10
274.0681171059721
 20
-80.37091313724001
 30
0.0
 10
272.8088846400734
 20
-82.07236180122295
 30
0.0
 10
272.5414647204975
 20
-82.41087071104138
 30
0.0
 10
271.978591560092
 20
-83.07989363842405
 30
0.0
 10
271.6842841023457
 20
-83.40913662801574
 30
0.0
 10
270.763554025098
 20
-84.38138965828834
 30
0.0
 10
270.0994617671884
 20
-85.00898027526478
 30
0.0
 10
268.6717166847261
 20
-86.22340809011834
 30
0.0
 10
267.9079909088109
 20
-86.81021542659998
 30
0.0
 10
266.687324466219
 20
-87.6596946236974
 30
0.0
 10
266.2678956553651
 20
-87.93772132240868
 30
0.0
 10
265.4035425066879
 20
-88.48333856091038
 30
0.0
 10
264.9566875098277
 20
-88.75013881836801
 30
0.0
 10
264.5008763263124
 20
-89.01327301364269
 30
0.0
  0
SPLINE
  5
2D7
330
2BA
100
AcDbEntity
  8
0
  6
Continuous
 62
     7
370
    25
100
AcDbSpline
210
0.0
220
0.0
230
1.0
 70
     8
 71
     3
 72
    25
 73
    21
 74
     0
 42
0.000000001
 43
0.00000001
 40
0.0
 40
0.0
 40
0.0
 40
0.0
 40
0.0078125000000001
 40
0.0078125000000001
 40
0.0156250000000002
 40
0.0156250000000002
 40
0.0312500000000002
 40
0.0625000000000003
 40
0.1250000000000002
 40
0.2500000000000002
 40
0.5000000000000001
 40
0.75
 40
0.8749999999999999
 40
0.9374999999999999
 40
0.96875
 40
0.984375
 40
0.984375
 40
0.9921875
 40
0.9921875
 40
1.0
 40
1.0
 40
1.0
 40
1.0
 10
-98.33299197285885
 20
153.7622893488538
 30
0.0
 10
-97.29432614973096
 20
153.2654629822763
 30
0.0
 10
-96.29951217060125
 20
152.7432868355273
 30
0.0
 10
-94.39706017829748
 20
151.6485400461148
 30
0.0
 10
-93.44883714990856
 20
151.0994307022279
 30
0.0
 10
-90.59972313063228
 20
149.454672188569
 30
0.0
 10
-84.90149509207974
 20
146.1651551612513
 30
0.0
 10
-71.6056296687907
 20
138.4896154308435
 30
0.0
 10
-45.01389882221238
 20
123.1385359700277
 30
0.0
 10
8.16956287094414
 20
92.43637704839608
 30
0.0
 10
84.14593671831106
 20
48.57615001749399
 30
0.0
 10
160.1223105656769
 20
4.715922986591792
 30
0.0
 10
213.3057722588339
 20
-25.9862359350399
 30
0.0
 10
239.8975031054122
 20
-41.33731539585563
 30
0.0
 10
253.1933685287011
 20
-49.01285512626341
 30
0.0
 10
258.8915965672537
 20
-52.30237215358113
 30
0.0
 10
261.74071058653
 20
-53.94713066724
 30
0.0
 10
262.6919173736462
 20
-54.49452338222257
 30
0.0
 10
264.5882412720001
 20
-55.59279581092095
 30
0.0
 10
265.4926086214969
 20
-56.16700917496694
 30
0.0
 10
266.3529573486164
 20
-56.76642796595726
 30
0.0
  0
SPLINE
  5
2D8
330
2BA
100
AcDbEntity
  8
0
  6
Continuous
 62
     7
370
    25
100
AcDbSpline
210
0.0
220
0.0
230
1.0
 70
     8
 71
     3
 72
    40
 73
    36
 74
     0
 42
0.000000001
 43
0.00000001
 40
0.0
 40
0.0
 40
0.0
 40
0.0
 40
0.0312500000000001
 40
0.0312500000000001
 40
0.0625000000000001
 40
0.0625000000000001
 40
0.1250000000000002
 40
0.1250000000000002
 40
0.2500000000000004
 40
0.2500000000000004
 40
0.2812500000000002
 40
0.2812500000000002
 40
0.3125
 40
0.3125
 40
0.3749999999999996
 40
0.3749999999999996
 40
0.4999999999999987
 40
0.4999999999999987
 40
0.5312499999999976
 40
0.5312499999999976
 40
0.5624999999999966
 40
0.5624999999999966
 40
0.6249999999999969
 40
0.6249999999999969
 40
0.749999999999995
 40
0.749999999999995
 40
0.7812499999999947
 40
0.7812499999999947
 40
0.8124999999999944
 40
0.8124999999999944
 40
0.8749999999999963
 40
0.8749999999999963
 40
0.9374999999999982
 40
0.9374999999999982
 40
1.0
 40
1.0
 40
1.0
 40
1.0
 10
-154.192218455835
 20
152.6931057389172
 30
0.0
 10
-153.7361288907451
 20
152.9564006404541
 30
0.0
 10
-153.2727371676548
 20
153.2150771991476
 30
0.0
 10
-152.3216362115278
 20
153.7170503976091
 30
0.0
 10
-151.8355020381912
 20
153.961343203948
 30
0.0
 10
-150.3452995897963
 20
154.6741093531843
 30
0.0
 10
-149.3196597980709
 20
155.1176573250437
 30
0.0
 10
-146.152235121876
 20
156.3550840999339
 30
0.0
 10
-143.9200970858592
 20
157.0578494832014
 30
0.0
 10
-140.9784147219248
 20
157.7827042795125
 30
0.0
 10
-140.3824132759992
 20
157.9199044243339
 30
0.0
 10
-139.1749122205023
 20
158.1785925449073
 30
0.0
 10
-138.5649731711002
 20
158.2996945418146
 30
0.0
 10
-136.7316656769956
 20
158.635780063191
 30
0.0
 10
-135.4990741862644
 20
158.8248896787162
 30
0.0
 10
-131.770863012196
 20
159.2898082713052
 30
0.0
 10
-129.2451723974493
 20
159.4644377008627
 30
0.0
 10
-126.0373476625607
 20
159.5120958112498
 30
0.0
 10
-125.3914358372331
 20
159.5129195249264
 30
0.0
 10
-124.1056423263903
 20
159.4971433368707
 30
0.0
 10
-123.4654677287858
 20
159.4806243074482
 30
0.0
 10
-121.5528790598859
 20
159.405907935091
 30
0.0
 10
-120.2883734891657
 20
159.3226357206296
 30
0.0
 10
-116.5257205455855
 20
158.9749617116609
 30
0.0
 10
-114.0584162419647
 20
158.6127681813713
 30
0.0
 10
-111.0260921476943
 20
157.9957680839477
 30
0.0
 10
-110.4223466197005
 20
157.8640383867822
 30
0.0
 10
-109.2317981678729
 20
157.586511614978
 30
0.0
 10
-108.6435198922359
 20
157.4404080077791
 30
0.0
 10
-106.8992477697249
 20
156.9805225901979
 30
0.0
 10
-105.7637251928169
 20
156.645262117757
 30
0.0
 10
-103.5462584059202
 20
155.9185262121703
 30
0.0
 10
-102.4643171255604
 20
155.527047705229
 30
0.0
 10
-100.3549996822961
 20
154.6868404220683
 30
0.0
 10
-99.32554265639537
 20
154.2370574010657
 30
0.0
 10
-98.33299197285885
 20
153.7622893488538
 30
0.0
  0
SPLINE
  5
2D9
330
2BA
100
AcDbEntity
  8
0
  6
Continuous
 62
     7
370
    25
100
AcDbSpline
210
0.0
220
0.0
230
1.0
 70
     8
 71
     3
 72
    16
 73
    12
 74
     0
 42
0.000000001
 43
0.00000001
 40
0.0
 40
0.0
 40
0.0
 40
0.0
 40
0.0078124999999999
 40
0.0078124999999999
 40
0.0156249999999999
 40
0.0312500000000001
 40
0.0625000000000002
 40
0.1250000000000003
 40
0.2500000000000003
 40
0.5000000000000002
 40
1.0
 40
1.0
 40
1.0
 40
1.0
 10
-340.2027668209855
 20
45.29864362673827
 30
0.0
 10
-339.7318286781169
 20
45.58608663237511
 30
0.0
 10
-339.2450426727178
 20
45.86438423178527
 30
0.0
 10
-338.2761797187027
 20
46.42369690983307
 30
0.0
 10
-336.8228852876801
 20
47.26266592690479
 30
0.0
 10
-333.4318649486274
 20
49.22026030007208
 30
0.0
 10
-326.6498242705218
 20
53.13544904640693
 30
0.0
 10
-313.0857429143103
 20
60.96582653907623
 30
0.0
 10
-285.9575802018878
 20
76.62658152441493
 30
0.0
 10
-231.7012547770424
 20
107.9480914950924
 30
0.0
 10
-185.1958329843183
 20
134.7951000413874
 30
0.0
 10
-154.192218455835
 20
152.6931057389172
 30
0.0
  0
SPLINE
  5
2DA
330
2BA
100
AcDbEntity
  8
0
  6
Continuous
 62
     7
370
    25
100
AcDbSpline
210
0.0
220
0.0
230
1.0
 70
     8
 71
     3
 72
    38
 73
    34
 74
     0
 42
0.000000001
 43
0.00000001
 40
0.0
 40
0.0
 40
0.0
 40
0.0
 40
0.0624999999999979
 40
0.0624999999999979
 40
0.0937499999999984
 40
0.0937499999999984
 40
0.1249999999999988
 40
0.1249999999999988
 40
0.2500000000000002
 40
0.2500000000000002
 40
0.3125000000000006
 40
0.3125000000000006
 40
0.3437500000000008
 40
0.3437500000000008
 40
0.375000000000001
 40
0.375000000000001
 40
0.5000000000000027
 40
0.5000000000000027
 40
0.5312500000000029
 40
0.5312500000000029
 40
0.562500000000003
 40
0.562500000000003
 40
0.6250000000000027
 40
0.6250000000000027
 40
0.7500000000000019
 40
0.7500000000000019
 40
0.781250000000002
 40
0.781250000000002
 40
0.812500000000002
 40
0.812500000000002
 40
0.8750000000000013
 40
0.8750000000000013
 40
1.0
 40
1.0
 40
1.0
 40
1.0
 10
-340.1482194644401
 20
13.91273606347794
 30
0.0
 10
-341.0183623453958
 20
14.43991127572382
 30
0.0
 10
-341.8423331735219
 20
14.9885109387989
 30
0.0
 10
-343.0093112248344
 20
15.84341723770513
 30
0.0
 10
-343.3867795214875
 20
16.13373347395969
 30
0.0
 10
-344.1183860617049
 20
16.72519140352785
 30
0.0
 10
-344.4731223742388
 20
17.02692972345364
 30
0.0
 10
-346.1759779974688
 20
18.55244978565626
 30
0.0
 10
-347.3208601560772
 20
19.82973819829634
 30
0.0
 10
-348.7165178421104
 20
21.82981839356104
 30
0.0
 10
-349.1278555350486
 20
22.51060717960981
 30
0.0
 10
-349.6622533081916
 20
23.55340077802071
 30
0.0
 10
-349.8269445189586
 20
23.9055635461527
 30
0.0
 10
-350.1253780925284
 20
24.61095542907925
 30
0.0
 10
-350.2593414572074
 20
24.96443254978814
 30
0.0
 10
-350.8536796258662
 20
26.73568367007567
 30
0.0
 10
-351.091520514213
 20
28.16485438280461
 30
0.0
 10
-351.092614602516
 20
29.96648753538872
 30
0.0
 10
-351.0777792148815
 20
30.32758514258545
 30
0.0
 10
-351.0177425941644
 20
31.05133549444711
 30
0.0
 10
-350.9723559167663
 20
31.41498369005934
 30
0.0
 10
-350.7913604927323
 20
32.49973048073691
 30
0.0
 10
-350.6116143343319
 20
33.21411175355237
 30
0.0
 10
-349.8996386244066
 20
35.33157632734968
 30
0.0
 10
-349.1958228753177
 20
36.70915149771566
 30
0.0
 10
-348.0277254492469
 20
38.38825744634486
 30
0.0
 10
-347.7789596196841
 20
38.72253725705411
 30
0.0
 10
-347.2538774318003
 20
39.38374263334622
 30
0.0
 10
-346.9786475954403
 20
39.70943166971973
 30
0.0
 10
-346.1158935415173
 20
40.67214572000672
 30
0.0
 10
-345.4914290965849
 20
41.2948658164031
 30
0.0
 10
-343.4735081961205
 20
43.10705853167528
 30
0.0
 10
-341.9359951552566
 20
44.24074596140386
 30
0.0
 10
-340.2027668209857
 20
45.2986436267383
 30
0.0
  0
SPLINE
  5
2DB
330
2BA
100
AcDbEntity
  8
0
  6
Continuous
 62
     7
370
    25
100
AcDbSpline
210
0.0
220
0.0
230
1.0
 70
     8
 71
     3
 72
    25
 73
    21
 74
     0
 42
0.000000001
 43
0.00000001
 40
0.0
 40
0.0
 40
0.0
 40
0.0
 40
0.00390625
 40
0.00390625
 40
0.0078125000000001
 40
0.0156250000000001
 40
0.0312500000000002
 40
0.0625000000000002
 40
0.1250000000000003
 40
0.2500000000000003
 40
0.5000000000000002
 40
0.7500000000000001
 40
0.8750000000000001
 40
0.9375000000000001
 40
0.9687500000000001
 40
0.984375
 40
0.9921875
 40
0.99609375
 40
0.99609375
 40
1.0
 40
1.0
 40
1.0
 40
1.0
 10
24.1001770386127
 20
-196.3633873845978
 30
0.0
 10
23.6144485738885
 20
-196.0962013396157
 30
0.0
 10
23.14331660069715
 20
-195.8205851506553
 30
0.0
 10
22.19475306275701
 20
-195.2729910760701
 30
0.0
 10
20.77190775584675
 20
-194.4515999641922
 30
0.0
 10
17.45193537305623
 20
-192.5350207031439
 30
0.0
 10
10.81199060747529
 20
-188.7018621810473
 30
0.0
 10
-2.467898923686623
 20
-181.035545136854
 30
0.0
 10
-29.02767798601039
 20
-165.7029110484676
 30
0.0
 10
-82.14723611065786
 20
-135.0376428716946
 30
0.0
 10
-158.032319145869
 20
-91.23011690487618
 30
0.0
 10
-233.9174021810798
 20
-47.42259093805765
 30
0.0
 10
-287.0369603057275
 20
-16.75732276128475
 30
0.0
 10
-313.5967393680511
 20
-1.4246886728983
 30
0.0
 10
-326.8766288992132
 20
6.241628371295035
 30
0.0
 10
-333.5165736647941
 20
10.07478689339164
 30
0.0
 10
-336.8365460475845
 20
11.99136615443991
 30
0.0
 10
-338.2593913544949
 20
12.8127572663178
 30
0.0
 10
-339.2079548924349
 20
13.36035134090297
 30
0.0
 10
-339.6853872962793
 20
13.63232964767588
 30
0.0
 10
-340.1482194644402
 20
13.91273606347793
 30
0.0
  0
SPLINE
  5
2DC
330
2BA
100
AcDbEntity
  8
0
  6
Continuous
 62
     7
370
    25
100
AcDbSpline
210
0.0
220
0.0
230
1.0
 70
     8
 71
     3
 72
    36
 73
    32
 74
     0
 42
0.000000001
 43
0.00000001
 40
0.0
 40
0.0
 40
0.0
 40
0.0
 40
0.0624999999999979
 40
0.0624999999999979
 40
0.093749999999997
 40
0.093749999999997
 40
0.1249999999999962
 40
0.1249999999999962
 40
0.2499999999999953
 40
0.2499999999999953
 40
0.3124999999999956
 40
0.3124999999999956
 40
0.3437499999999951
 40
0.3437499999999951
 40
0.3749999999999945
 40
0.3749999999999945
 40
0.4999999999999973
 40
0.4999999999999973
 40
0.5312499999999983
 40
0.5312499999999983
 40
0.5624999999999992
 40
0.5624999999999992
 40
0.6249999999999989
 40
0.6249999999999989
 40
0.7499999999999977
 40
0.7499999999999977
 40
0.8124999999999982
 40
0.8124999999999982
 40
0.8749999999999988
 40
0.8749999999999988
 40
1.0
 40
1.0
 40
1.0
 40
1.0
 10
78.46805445282159
 20
-196.3948769031302
 30
0.0
 10
77.55173515108666
 20
-196.8951919714631
 30
0.0
 10
76.59883153814617
 20
-197.3689562846844
 30
0.0
 10
75.11470103456743
 20
-198.0398501994439
 30
0.0
 10
74.61084099294565
 20
-198.2568410606991
 30
0.0
 10
73.58459689986235
 20
-198.677379139398
 30
0.0
 10
73.06111964554407
 20
-198.8812986171423
 30
0.0
 10
70.41288075776953
 20
-199.8609922674772
 30
0.0
 10
68.19739079270717
 20
-200.5193025933897
 30
0.0
 10
64.73075414074981
 20
-201.3211212171554
 30
0.0
 10
63.55124290565245
 20
-201.5573682806699
 30
0.0
 10
61.74514981270409
 20
-201.8640638772657
 30
0.0
 10
61.13530600793045
 20
-201.9585474372595
 30
0.0
 10
59.91221691777329
 20
-202.1298670824099
 30
0.0
 10
59.29939448846461
 20
-202.2066906101137
 30
0.0
 10
56.22898880429963
 20
-202.5472897882632
 30
0.0
 10
53.75286456776898
 20
-202.6828585343259
 30
0.0
 10
50.6329230915539
 20
-202.6809283541849
 30
0.0
 10
50.00768118285045
 20
-202.6718738504395
 30
0.0
 10
48.75466898866235
 20
-202.6362816607813
 30
0.0
 10
48.12531085811978
 20
-202.6096467739831
 30
0.0
 10
46.24554836166767
 20
-202.5037209478232
 30
0.0
 10
45.00786031500986
 20
-202.3989708925264
 30
0.0
 10
41.34019983272183
 20
-201.9846522439356
 30
0.0
 10
38.95506957488751
 20
-201.5762526550405
 30
0.0
 10
35.46818678640218
 20
-200.7635046629344
 30
0.0
 10
34.31817832534104
 20
-200.4573906843604
 30
0.0
 10
32.09675402365259
 20
-199.7904538055648
 30
0.0
 10
31.01939338060456
 20
-199.4285027945332
 30
0.0
 10
27.88536773820605
 20
-198.2589085636355
 30
0.0
 10
25.92632001119996
 20
-197.3678990693197
 30
0.0
 10
24.10017703861272
 20
-196.3633873845978
 30
0.0
  0
LWPOLYLINE
  5
2DD
330
2BA
100
AcDbEntity
  8
0
  6
Continuous
 62
     7
370
    25
100
AcDbPolyline
 90
        8
 70
   128
 43
0.0
 10
264.5008763263
 20
-89.0132730136
 10
258.8440220768
 20
-92.2789054609
 10
236.2166050789
 20
-105.3414352501
 10
145.706937087
 20
-157.5915544068
 10
138.9341681265
 20
-161.5013907045
 10
118.902549672
 20
-173.2059976212
 10
98.8684566113
 20
-184.909175715
 10
78.4680544528
 20
-196.3948769031
  0
LWPOLYLINE
  5
2DE
330
2BA
100
AcDbEntity
  8
0
  6
Continuous
 62
     7
370
    25
100
AcDbPolyline
 90
       47
 70
   128
 43
0.0
 10
133.9967350349
 20
77.3546685952
 10
135.7458524743
 20
76.1966452408
 10
137.2055319674
 20
74.9119143208
 10
138.3485824468
 20
73.5244079416
 10
139.153711045
 20
72.0599727215
 10
139.6059197394
 20
70.5458883181
 10
139.6967847379
 20
69.0103592589
 10
139.4246133972
 20
67.481989545
 10
138.7944757546
 20
65.9892498124
 10
137.818110082
 20
64.5599469779
 10
136.5137042247
 20
63.2207062491
 10
134.9055567956
 20
61.9964751466
 10
133.0236245387
 20
60.9100587797
 10
130.9029642911
 20
59.9816950297
 10
128.5830799408
 20
59.2286775566
 10
126.1071865439
 20
58.6650336514
 10
123.5214053098
 20
58.3012629334
 10
120.8739044503
 20
58.1441417628
 10
118.2140018973
 20
58.1965970099
 10
115.5912466026
 20
58.4576515325
 10
113.0544955349
 20
58.9224423789
 10
110.6510035667
 20
59.5823113749
 10
108.4255432061
 20
60.4249664099
 10
106.4195705686
 20
61.4347104147
 10
104.6704531291
 20
62.5927337691
 10
103.2107736361
 20
63.877464689
 10
102.0677231566
 20
65.2649710683
 10
101.2625945585
 20
66.7294062883
 10
100.810385864
 20
68.2434906918
 10
100.7195208656
 20
69.779019751
 10
100.9916922062
 20
71.3073894649
 10
101.6218298488
 20
72.8001291975
 10
102.5981955214
 20
74.2294320319
 10
103.9026013787
 20
75.5686727608
 10
105.5107488078
 20
76.7929038633
 10
107.3926810648
 20
77.8793202302
 10
109.5133413124
 20
78.8076839802
 10
111.8332256626
 20
79.5607014532
 10
114.3091190595
 20
80.1243453585
 10
116.8949002937
 20
80.4881160765
 10
119.5424011531
 20
80.645237247
 10
122.2023037061
 20
80.592782
 10
124.8250590008
 20
80.3317274774
 10
127.3618100686
 20
79.866936631
 10
129.7653020367
 20
79.2070676349
 10
131.9907623974
 20
78.3644126
 10
133.9967350349
 20
77.3546685952
  0
LWPOLYLINE
  5
2DF
330
2BA
100
AcDbEntity
  8
0
  6
Continuous
 62
     7
370
    25
100
AcDbPolyline
 90
       47
 70
   128
 43
0.0
 10
204.7074131535
 20
36.5342630041
 10
206.456530593
 20
35.3762396497
 10
207.916210086
 20
34.0915087297
 10
209.0592605655
 20
32.7040023504
 10
209.8643891636
 20
31.2395671304
 10
210.3165978581
 20
29.7254827269
 10
210.4074628565
 20
28.1899536677
 10
210.1352915159
 20
26.6615839539
 10
209.5051538732
 20
25.1688442213
 10
208.5287882007
 20
23.7395413868
 10
207.2243823433
 20
22.4003006579
 10
205.6162349143
 20
21.1760695555
 10
203.7343026573
 20
20.0896531886
 10
201.6136424097
 20
19.1612894385
 10
199.2937580595
 20
18.4082719655
 10
196.8178646625
 20
17.8446280602
 10
194.2320834284
 20
17.4808573422
 10
191.584582569
 20
17.3237361717
 10
188.924680016
 20
17.3761914187
 10
186.3019247213
 20
17.6372459414
 10
183.7651736535
 20
18.1020367877
 10
181.3616816854
 20
18.7619057838
 10
179.1362213247
 20
19.6045608187
 10
177.1302486872
 20
20.6143048235
 10
175.3811312478
 20
21.7723281779
 10
173.9214517547
 20
23.0570590979
 10
172.7784012753
 20
24.4445654772
 10
171.9732726771
 20
25.9090006972
 10
171.5210639826
 20
27.4230851007
 10
171.4301989842
 20
28.9586141598
 10
171.7023703249
 20
30.4869838737
 10
172.3325079675
 20
31.9797236063
 10
173.30887364
 20
33.4090264408
 10
174.6132794974
 20
34.7482671697
 10
176.2214269265
 20
35.9724982721
 10
178.1033591834
 20
37.058914639
 10
180.224019431
 20
37.9872783891
 10
182.5439037813
 20
38.7402958621
 10
185.0197971782
 20
39.3039397673
 10
187.6055784123
 20
39.6677104853
 10
190.2530792717
 20
39.8248316559
 10
192.9129818247
 20
39.7723764088
 10
195.5357371195
 20
39.5113218862
 10
198.0724881872
 20
39.0465310399
 10
200.4759801553
 20
38.3866620438
 10
202.701440516
 20
37.5440070089
 10
204.7074131535
 20
36.5342630041
  0
LWPOLYLINE
  5
2E0
330
2BA
100
AcDbEntity
  8
0
  6
Continuous
 62
     7
370
    25
100
AcDbPolyline
 90
       47
 70
   128
 43
0.0
 10
63.2860569162
 20
118.1750741863
 10
65.0351743557
 20
117.0170508319
 10
66.4948538487
 20
115.732319912
 10
67.6379043281
 20
114.3448135327
 10
68.4430329263
 20
112.8803783127
 10
68.8952416208
 20
111.3662939092
 10
68.9861066192
 20
109.83076485
 10
68.7139352785
 20
108.3023951361
 10
68.0837976359
 20
106.8096554035
 10
67.1074319634
 20
105.3803525691
 10
65.803026106
 20
104.0411118402
 10
64.1948786769
 20
102.8168807377
 10
62.31294642
 20
101.7304643708
 10
60.1922861724
 20
100.8021006208
 10
57.8724018221
 20
100.0490831478
 10
55.3965084252
 20
99.4854392425
 10
52.8107271911
 20
99.1216685245
 10
50.1632263317
 20
98.964547354
 10
47.5033237787
 20
99.017002601
 10
44.880568484
 20
99.2780571236
 10
42.3438174162
 20
99.74284797
 10
39.9403254481
 20
100.4027169661
 10
37.7148650874
 20
101.245372001
 10
35.7088924499
 20
102.2551160058
 10
33.9597750104
 20
103.4131393602
 10
32.5000955174
 20
104.6978702801
 10
31.357045038
 20
106.0853766594
 10
30.5519164398
 20
107.5498118795
 10
30.0997077453
 20
109.0638962829
 10
30.0088427469
 20
110.5994253421
 10
30.2810140876
 20
112.127795056
 10
30.9111517302
 20
113.6205347886
 10
31.8875174027
 20
115.0498376231
 10
33.1919232601
 20
116.3890783519
 10
34.8000706892
 20
117.6133094544
 10
36.6820029461
 20
118.6997258213
 10
38.8026631937
 20
119.6280895713
 10
41.122547544
 20
120.3811070444
 10
43.5984409409
 20
120.9447509496
 10
46.184222175
 20
121.3085216676
 10
48.8317230344
 20
121.4656428382
 10
51.4916255874
 20
121.4131875911
 10
54.1143808822
 20
121.1521330685
 10
56.6511319499
 20
120.6873422221
 10
59.054623918
 20
120.027473226
 10
61.2800842787
 20
119.1848181911
 10
63.2860569162
 20
118.1750741863
  0
LWPOLYLINE
  5
2E2
330
2BA
100
AcDbEntity
  8
0
  6
Continuous
 62
     7
370
    25
100
AcDbPolyline
 90
       18
 70
   128
 43
0.0
 10
83.0850467894
 20
-202.2656405043
 10
80.0133478904
 20
-203.8821751455
 10
76.696380285
 20
-205.3281986947
 10
73.1624431715
 20
-206.5913741888
 10
69.4416868553
 20
-207.6609246599
 10
65.5658555172
 20
-208.5277250805
 10
61.5680163838
 20
-209.184380215
 10
57.4822776089
 20
-209.6252877133
 10
53.3434972751
 20
-209.8466859081
 10
49.186985997
 20
-209.8466859081
 10
45.0482056632
 20
-209.6252877133
 10
40.9624668883
 20
-209.184380215
 10
36.9646277548
 20
-208.5277250805
 10
33.0887964168
 20
-207.6609246599
 10
29.3680401005
 20
-206.5913741888
 10
25.834102987
 20
-205.3281986947
 10
22.5171353817
 20
-203.8821751455
 10
19.4454364826
 20
-202.2656405043
  0
LWPOLYLINE
  5
2E4
330
2BA
100
AcDbEntity
  8
0
  6
Continuous
 62
     7
370
    25
100
AcDbPolyline
 90
       18
 70
   128
 43
0.0
 10
19.4454364826
 20
-244.7257627224
 10
22.5171353817
 20
-246.3422973636
 10
25.834102987
 20
-247.7883209128
 10
29.3680401005
 20
-249.0514964069
 10
33.0887964168
 20
-250.121046878
 10
36.9646277548
 20
-250.9878472986
 10
40.9624668883
 20
-251.644502433
 10
45.0482056632
 20
-252.0854099313
 10
49.186985997
 20
-252.3068081261
 10
53.3434972751
 20
-252.3068081261
 10
57.4822776089
 20
-252.0854099313
 10
61.5680163838
 20
-251.644502433
 10
65.5658555172
 20
-250.9878472986
 10
69.4416868553
 20
-250.121046878
 10
73.1624431715
 20
-249.0514964069
 10
76.696380285
 20
-247.7883209128
 10
80.0133478904
 20
-246.3422973636
 10
83.0850467894
 20
-244.7257627224
  0
SPLINE
  5
2E7
330
2BA
100
AcDbEntity
  8
0
  6
Continuous
 62
     7
370
    25
100
AcDbSpline
210
0.0
220
0.0
230
1.0
 70
     8
 71
     3
 72
    36
 73
    32
 74
     0
 42
0.000000001
 43
0.00000001
 40
0.0
 40
0.0
 40
0.0
 40
0.0
 40
0.1250000000000029
 40
0.1250000000000029
 40
0.1875000000000043
 40
0.1875000000000043
 40
0.2500000000000058
 40
0.2500000000000058
 40
0.3750000000000059
 40
0.3750000000000059
 40
0.437500000000006
 40
0.437500000000006
 40
0.4687500000000061
 40
0.4687500000000061
 40
0.5000000000000061
 40
0.5000000000000061
 40
0.6250000000000042
 40
0.6250000000000042
 40
0.6562500000000051
 40
0.6562500000000051
 40
0.6875000000000061
 40
0.6875000000000061
 40
0.7500000000000053
 40
0.7500000000000053
 40
0.8750000000000027
 40
0.8750000000000027
 40
0.9062500000000023
 40
0.9062500000000023
 40
0.9375000000000021
 40
0.9375000000000021
 40
1.0
 40
1.0
 40
1.0
 40
1.0
 10
25.88702282691033
 20
-196.0581331880786
 30
0.0
 10
27.55536839052714
 20
-196.9834016864752
 30
0.0
 10
29.36059311856973
 20
-197.8096620843939
 30
0.0
 10
32.26708831478653
 20
-198.8985464220962
 30
0.0
 10
33.26929353219615
 20
-199.2364054688304
 30
0.0
 10
35.34139481288121
 20
-199.8601886133717
 30
0.0
 10
36.41725581845539
 20
-200.1472424655921
 30
0.0
 10
39.68166669618722
 20
-200.9094582883098
 30
0.0
 10
41.91920743067828
 20
-201.293240774963
 30
0.0
 10
45.36578907746907
 20
-201.6831735247676
 30
0.0
 10
46.52989229217241
 20
-201.7818963650252
 30
0.0
 10
48.29942341535889
 20
-201.8818647635057
 30
0.0
 10
48.89208030286821
 20
-201.9070279900819
 30
0.0
 10
50.07156948977936
 20
-201.9406930998831
 30
0.0
 10
50.66001571064582
 20
-201.9492941053512
 30
0.0
 10
53.59580989166407
 20
-201.9515189677254
 30
0.0
 10
55.92412263324179
 20
-201.8243420633551
 30
0.0
 10
58.80906298722058
 20
-201.5048762583834
 30
0.0
 10
59.38475308318067
 20
-201.432814036658
 30
0.0
 10
60.53350278613065
 20
-201.2721011556682
 30
0.0
 10
61.10635260627253
 20
-201.1834301672289
 30
0.0
 10
62.80098288627165
 20
-200.8958731962824
 30
0.0
 10
63.90573342118794
 20
-200.6746321570138
 30
0.0
 10
67.1464724507089
 20
-199.9251231631489
 30
0.0
 10
69.20952978222044
 20
-199.311254427852
 30
0.0
 10
71.6635688684936
 20
-198.4018298118472
 30
0.0
 10
72.14808954320698
 20
-198.2126764612808
 30
0.0
 10
73.0958605584199
 20
-197.8233192136877
 30
0.0
 10
73.56023166285972
 20
-197.6227335057866
 30
0.0
 10
74.9250949615134
 20
-197.0036859326021
 30
0.0
 10
75.79743795957025
 20
-196.5679715674303
 30
0.0
 10
76.63183724211639
 20
-196.1098975285989
 30
0.0
  0
SPLINE
  5
2EA
330
2BA
100
AcDbEntity
  8
0
  6
Continuous
 62
     7
370
    25
100
AcDbSpline
210
0.0
220
0.0
230
1.0
 70
     8
 71
     3
 72
    38
 73
    34
 74
     0
 42
0.000000001
 43
0.00000001
 40
0.0
 40
0.0
 40
0.0
 40
0.0
 40
0.124999999999991
 40
0.124999999999991
 40
0.1874999999999864
 40
0.1874999999999864
 40
0.2187499999999843
 40
0.2187499999999843
 40
0.2499999999999821
 40
0.2499999999999821
 40
0.3749999999999816
 40
0.3749999999999816
 40
0.4374999999999816
 40
0.4374999999999816
 40
0.468749999999983
 40
0.468749999999983
 40
0.4999999999999843
 40
0.4999999999999843
 40
0.6249999999999903
 40
0.6249999999999903
 40
0.6874999999999932
 40
0.6874999999999932
 40
0.718749999999994
 40
0.718749999999994
 40
0.7499999999999948
 40
0.7499999999999948
 40
0.8749999999999972
 40
0.8749999999999972
 40
0.937499999999998
 40
0.937499999999998
 40
0.968749999999999
 40
0.968749999999999
 40
1.0
 40
1.0
 40
1.0
 40
1.0
 10
-100.8753404625457
 20
149.0099960982845
 30
0.0
 10
-102.6866620010946
 20
150.0708853482176
 30
0.0
 10
-104.5980029834798
 20
151.0327943542831
 30
0.0
 10
-107.615646478125
 20
152.3158802356838
 30
0.0
 10
-108.6466457826903
 20
152.7172618047153
 30
0.0
 10
-110.2322549162768
 20
153.2786163636723
 30
0.0
 10
-110.7673001206224
 20
153.4590418515122
 30
0.0
 10
-111.8510620884795
 20
153.8051708227378
 30
0.0
 10
-112.4011063705738
 20
153.971281195786
 30
0.0
 10
-115.1639537337945
 20
154.7585503199422
 30
0.0
 10
-117.4190277316907
 20
155.2552436184565
 30
0.0
 10
-120.8706602124186
 20
155.7969376838923
 30
0.0
 10
-122.0327398140447
 20
155.9433924823351
 30
0.0
 10
-123.7936112401222
 20
156.1116970693731
 30
0.0
 10
-124.3835344821201
 20
156.1592127422272
 30
0.0
 10
-125.5694888543403
 20
156.2367320916003
 30
0.0
 10
-126.1648432450785
 20
156.2666743837636
 30
0.0
 10
-129.1232590351855
 20
156.3691856981024
 30
0.0
 10
-131.4581398634367
 20
156.3064392643964
 30
0.0
 10
-134.9126956446393
 20
156.005493050331
 30
0.0
 10
-136.0561420500755
 20
155.8696652264916
 30
0.0
 10
-137.7588881465933
 20
155.6124897209749
 30
0.0
 10
-138.3260253930441
 20
155.5175200876033
 30
0.0
 10
-139.4471651732284
 20
155.311032371533
 30
0.0
 10
-140.000590904119
 20
155.1996946389933
 30
0.0
 10
-142.7324127616985
 20
154.6032690535334
 30
0.0
 10
-144.8057641584269
 20
153.9989103274511
 30
0.0
 10
-147.7494542300614
 20
152.9084204308031
 30
0.0
 10
-148.7030780042564
 20
152.5133289601785
 30
0.0
 10
-150.088134720544
 20
151.8732736327206
 30
0.0
 10
-150.5398510746621
 20
151.6531179144738
 30
0.0
 10
-151.4233949119138
 20
151.199279417991
 30
0.0
 10
-151.8552748785878
 20
150.9674297917685
 30
0.0
 10
-152.2766475811726
 20
150.724176508358
 30
0.0
  0
SPLINE
  5
2EB
330
2BA
100
AcDbEntity
  8
0
  6
Continuous
 62
     7
370
    25
100
AcDbSpline
210
0.0
220
0.0
230
1.0
 70
     8
 71
     3
 72
     8
 73
     4
 74
     0
 42
0.000000001
 43
0.00000001
 40
0.0
 40
0.0
 40
0.0
 40
0.0
 40
1.0
 40
1.0
 40
1.0
 40
1.0
 10
-98.12713648835457
 20
147.2683597289369
 30
0.0
 10
-99.00644195681026
 20
147.8713090395356
 30
0.0
 10
-99.92337976930072
 20
148.4524336532249
 30
0.0
 10
-100.8753404625458
 20
149.0099960982845
 30
0.0
  0
SPLINE
  5
2ED
330
2BA
100
AcDbEntity
  8
0
  6
Continuous
 62
     7
370
    25
100
AcDbSpline
210
0.0
220
0.0
230
1.0
 70
     8
 71
     3
 72
     8
 73
     4
 74
     0
 42
0.000000001
 43
0.00000001
 40
0.0
 40
0.0
 40
0.0
 40
0.0
 40
1.0
 40
1.0
 40
1.0
 40
1.0
 10
263.2846518381256
 20
-61.21509268996186
 30
0.0
 10
262.4826862784347
 20
-60.76013506097364
 30
0.0
 10
261.6410016334318
 20
-60.32602854221196
 30
0.0
 10
260.7616961612608
 20
-59.91375336441145
 30
0.0
  0
SPLINE
  5
2EE
330
2BA
100
AcDbEntity
  8
0
  6
Continuous
 62
     7
370
    25
100
AcDbSpline
210
0.0
220
0.0
230
1.0
 70
     8
 71
     3
 72
    40
 73
    36
 74
     0
 42
0.000000001
 43
0.00000001
 40
0.0
 40
0.0
 40
0.0
 40
0.0
 40
0.0312500000000007
 40
0.0312500000000007
 40
0.0625000000000013
 40
0.0625000000000013
 40
0.1250000000000022
 40
0.1250000000000022
 40
0.1875000000000031
 40
0.1875000000000031
 40
0.2187500000000036
 40
0.2187500000000036
 40
0.2500000000000041
 40
0.2500000000000041
 40
0.3750000000000045
 40
0.3750000000000045
 40
0.4375000000000048
 40
0.4375000000000048
 40
0.4687500000000049
 40
0.4687500000000049
 40
0.500000000000005
 40
0.500000000000005
 40
0.6250000000000008
 40
0.6250000000000008
 40
0.6562499999999997
 40
0.6562499999999997
 40
0.6874999999999986
 40
0.6874999999999986
 40
0.749999999999999
 40
0.749999999999999
 40
0.8749999999999997
 40
0.8749999999999997
 40
0.9374999999999999
 40
0.9374999999999999
 40
1.0
 40
1.0
 40
1.0
 40
1.0
 10
262.58530545165
 20
-88.77053118905873
 30
0.0
 10
263.006470306384
 20
-88.52739789365847
 30
0.0
 10
263.4144704098003
 20
-88.28367039233478
 30
0.0
 10
264.2063565074773
 20
-87.78371587079398
 30
0.0
 10
264.5901453178381
 20
-87.52925316087085
 30
0.0
 10
265.7056493725947
 20
-86.75269807115278
 30
0.0
 10
266.4016120696348
 20
-86.21747501601003
 30
0.0
 10
267.6983135153729
 20
-85.11255896831132
 30
0.0
 10
268.2992698574398
 20
-84.54278663248058
 30
0.0
 10
269.128710660158
 20
-83.66232559060708
 30
0.0
 10
269.3931560364199
 20
-83.36452728137154
 30
0.0
 10
269.8973953839851
 20
-82.76020983129598
 30
0.0
 10
270.1365132006041
 20
-82.45438156073735
 30
0.0
 10
271.256610472957
 20
-80.92131436578417
 30
0.0
 10
271.9267682099796
 20
-79.6686094794692
 30
0.0
 10
272.6026514694784
 20
-77.75844735815193
 30
0.0
 10
272.7725517946993
 20
-77.11623192099826
 30
0.0
 10
272.9436443932618
 20
-76.1451834289724
 30
0.0
 10
272.9865986878556
 20
-75.81989226206709
 30
0.0
 10
273.0434915782003
 20
-75.1741081118927
 30
0.0
 10
273.0576205498351
 20
-74.85274841582437
 30
0.0
 10
273.0577529179199
 20
-73.25409781052095
 30
0.0
 10
272.8348224103724
 20
-71.99926350571239
 30
0.0
 10
272.2892594813844
 20
-70.46561038988395
 30
0.0
 10
272.1665850362161
 20
-70.16073249348327
 30
0.0
 10
271.8938098001221
 20
-69.55481975277566
 30
0.0
 10
271.7435290879791
 20
-69.25303275051873
 30
0.0
 10
271.2566288621123
 20
-68.3612585826833
 30
0.0
 10
270.8831946239609
 20
-67.78241934685751
 30
0.0
 10
269.6232430233161
 20
-66.0929565877958
 30
0.0
 10
268.5969055697968
 20
-65.03022577287848
 30
0.0
 10
266.7899449911201
 20
-63.52151774879886
 30
0.0
 10
266.1419377521514
 20
-63.03334719966816
 30
0.0
 10
264.7714056114542
 20
-62.09772250397729
 30
0.0
 10
264.0473063710546
 20
-61.64774904763913
 30
0.0
 10
263.2846518381256
 20
-61.21509268996188
 30
0.0
  0
SPLINE
  5
2F0
330
2BA
100
AcDbEntity
  8
0
  6
Continuous
 62
     7
370
    25
100
AcDbSpline
210
0.0
220
0.0
230
1.0
 70
     8
 71
     3
 72
     8
 73
     4
 74
     0
 42
0.000000001
 43
0.00000001
 40
0.0
 40
0.0
 40
0.0
 40
0.0
 40
1.0
 40
1.0
 40
1.0
 40
1.0
 10
76.63183724211639
 20
-196.1098975285988
 30
0.0
 10
76.87951076275264
 20
-195.9739280805388
 30
0.0
 10
77.12347444110243
 20
-195.8361790003367
 30
0.0
 10
77.3636425898043
 20
-195.696721171253
 30
0.0
  0
SPLINE
  5
2F1
330
2BA
100
AcDbEntity
  8
0
  6
Continuous
 62
     7
370
    25
100
AcDbSpline
210
0.0
220
0.0
230
1.0
 70
     8
 71
     3
 72
     8
 73
     4
 74
     0
 42
0.000000001
 43
0.00000001
 40
0.0
 40
0.0
 40
0.0
 40
0.0
 40
1.0
 40
1.0
 40
1.0
 40
1.0
 10
25.25607505536712
 20
-195.6995503325706
 30
0.0
 10
25.46358671663251
 20
-195.8204055988726
 30
0.0
 10
25.67392245321096
 20
-195.9399472036636
 30
0.0
 10
25.88702282691024
 20
-196.0581331880786
 30
0.0
  0
SPLINE
  5
2F3
330
2BA
100
AcDbEntity
  8
0
  6
Continuous
 62
     7
370
    25
100
AcDbSpline
210
0.0
220
0.0
230
1.0
 70
     8
 71
     3
 72
     8
 73
     4
 74
     0
 42
0.000000001
 43
0.00000001
 40
0.0
 40
0.0
 40
0.0
 40
0.0
 40
1.0
 40
1.0
 40
1.0
 40
1.0
 10
-338.2729694838573
 20
14.16695560609399
 30
0.0
 10
-338.0570328312945
 20
14.03746378721814
 30
0.0
 10
-337.8384110428201
 20
13.90937348375811
 30
0.0
 10
-337.6171503651329
 20
13.78270374753206
 30
0.0
  0
SPLINE
  5
2F4
330
2BA
100
AcDbEntity
  8
0
  6
Continuous
 62
     7
370
    25
100
AcDbSpline
210
0.0
220
0.0
230
1.0
 70
     8
 71
     3
 72
    36
 73
    32
 74
     0
 42
0.000000001
 43
0.00000001
 40
0.0
 40
0.0
 40
0.0
 40
0.0
 40
0.1250000000000018
 40
0.1250000000000018
 40
0.1875000000000024
 40
0.1875000000000024
 40
0.250000000000003
 40
0.250000000000003
 40
0.3750000000000042
 40
0.3750000000000042
 40
0.4375000000000034
 40
0.4375000000000034
 40
0.4687500000000024
 40
0.4687500000000024
 40
0.5000000000000013
 40
0.5000000000000013
 40
0.6249999999999922
 40
0.6249999999999922
 40
0.6562499999999916
 40
0.6562499999999916
 40
0.6874999999999909
 40
0.6874999999999909
 40
0.7499999999999889
 40
0.7499999999999889
 40
0.8749999999999882
 40
0.8749999999999882
 40
0.9062499999999905
 40
0.9062499999999905
 40
0.9374999999999927
 40
0.9374999999999927
 40
1.0
 40
1.0
 40
1.0
 40
1.0
 10
-338.2613462865278
 20
43.40283915030124
 30
0.0
 10
-339.9510397136807
 20
42.49876547849864
 30
0.0
 10
-341.4493845959727
 20
41.50242891260948
 30
0.0
 10
-343.4176555577984
 20
39.88084386952809
 30
0.0
 10
-344.0269531642167
 20
39.31887857610777
 30
0.0
 10
-345.1503052026631
 20
38.15248611142685
 30
0.0
 10
-345.6665145222306
 20
37.54460628172349
 30
0.0
 10
-347.0358150305916
 20
35.69380437737465
 30
0.0
 10
-347.7229625624142
 20
34.41813695971914
 30
0.0
 10
-348.4199776568355
 20
32.44575017942057
 30
0.0
 10
-348.5962504703496
 20
31.7782933282761
 30
0.0
 10
-348.7744708097844
 20
30.76200477412046
 30
0.0
 10
-348.8193182490265
 20
30.42091111205114
 30
0.0
 10
-348.8790407233222
 20
29.74169429892104
 30
0.0
 10
-348.8941108551176
 20
29.4025732851005
 30
0.0
 10
-348.8961463056849
 20
27.70937328234112
 30
0.0
 10
-348.6674164512464
 20
26.36251063548665
 30
0.0
 10
-348.0920988951355
 20
24.68810346082069
 30
0.0
 10
-347.9623139890309
 20
24.35368769086675
 30
0.0
 10
-347.6729915417233
 20
23.68579577090285
 30
0.0
 10
-347.5131932577518
 20
23.35201271645161
 30
0.0
 10
-346.9947385968165
 20
22.3635782107677
 30
0.0
 10
-346.5956896826612
 20
21.71795318625723
 30
0.0
 10
-345.2412260327383
 20
19.81949327521976
 30
0.0
 10
-344.1304519086267
 20
18.60518468976832
 30
0.0
 10
-342.4756604580421
 20
17.14946231104775
 30
0.0
 10
-342.1306751944015
 20
16.86115516491002
 30
0.0
 10
-341.4194870400589
 20
16.29580975681424
 30
0.0
 10
-341.0526431158505
 20
16.01815330145212
 30
0.0
 10
-339.9187036770169
 20
15.19987066738138
 30
0.0
 10
-339.1183290418508
 20
14.67389662545986
 30
0.0
 10
-338.2729694838572
 20
14.16695560609388
 30
0.0
  0
SPLINE
  5
2F5
330
2BA
100
AcDbEntity
  8
0
  6
Continuous
 62
     7
370
    25
100
AcDbSpline
210
0.0
220
0.0
230
1.0
 70
     8
 71
     3
 72
     8
 73
     4
 74
     0
 42
0.000000001
 43
0.00000001
 40
0.0
 40
0.0
 40
0.0
 40
0.0
 40
1.0
 40
1.0
 40
1.0
 40
1.0
 10
-337.4983104428087
 20
43.79798652628479
 30
0.0
 10
-337.7561988455176
 20
43.66875838145504
 30
0.0
 10
-338.0105700611822
 20
43.53701744513629
 30
0.0
 10
-338.261346286528
 20
43.40283915030137
 30
0.0
  0
SPLINE
  5
2F7
330
2BA
100
AcDbEntity
  8
0
  6
Continuous
 62
     7
370
    25
100
AcDbSpline
210
0.0
220
0.0
230
1.0
 70
    11
 71
     3
 72
    95
 73
    91
 74
     0
 42
0.000000001
 43
0.00000001
 40
0.0
 40
0.0
 40
0.0
 40
0.0
 40
0.0156249999999999
 40
0.0156249999999999
 40
0.0312499999999998
 40
0.0312499999999998
 40
0.0624999999999997
 40
0.0624999999999997
 40
0.0937499999999996
 40
0.0937499999999996
 40
0.1249999999999996
 40
0.1249999999999996
 40
0.1406249999999995
 40
0.1406249999999995
 40
0.1562499999999995
 40
0.1562499999999995
 40
0.1874999999999995
 40
0.1874999999999995
 40
0.2187499999999996
 40
0.2187499999999996
 40
0.2343749999999996
 40
0.2343749999999996
 40
0.2499999999999996
 40
0.2499999999999996
 40
0.2812499999999996
 40
0.2812499999999996
 40
0.2968749999999996
 40
0.2968749999999996
 40
0.3124999999999996
 40
0.3124999999999996
 40
0.3437499999999996
 40
0.3437499999999996
 40
0.3593749999999996
 40
0.3593749999999996
 40
0.3749999999999997
 40
0.3906249999999999
 40
0.3906249999999999
 40
0.40625
 40
0.40625
 40
0.4375000000000001
 40
0.4375000000000001
 40
0.4687500000000002
 40
0.4687500000000002
 40
0.5000000000000003
 40
0.5000000000000003
 40
0.5312500000000004
 40
0.5312500000000004
 40
0.5468750000000004
 40
0.5468750000000004
 40
0.5625000000000004
 40
0.5625000000000004
 40
0.5937500000000003
 40
0.5937500000000003
 40
0.6093750000000003
 40
0.6093750000000003
 40
0.6250000000000003
 40
0.6406250000000003
 40
0.6406250000000003
 40
0.6562500000000003
 40
0.6562500000000003
 40
0.6875000000000003
 40
0.6875000000000003
 40
0.7187500000000003
 40
0.7187500000000003
 40
0.7500000000000003
 40
0.7500000000000003
 40
0.7656250000000004
 40
0.7656250000000004
 40
0.7812500000000004
 40
0.7968750000000004
 40
0.7968750000000004
 40
0.8125000000000004
 40
0.8125000000000004
 40
0.8437500000000004
 40
0.8437500000000004
 40
0.8593750000000004
 40
0.8593750000000004
 40
0.8750000000000004
 40
0.8750000000000004
 40
0.9062500000000004
 40
0.9062500000000004
 40
0.9218750000000003
 40
0.9218750000000003
 40
0.9375000000000002
 40
0.9375000000000002
 40
0.96875
 40
0.96875
 40
0.984375
 40
0.984375
 40
1.0
 40
1.0
 40
1.0
 40
1.0
 10
89.80256121069186
 20
23.67284949144006
 30
0.0
 10
89.80256121069183
 20
23.34926880112062
 30
0.0
 10
89.78871476024415
 20
23.03495401305816
 30
0.0
 10
89.73357446191764
 20
22.42469195305365
 30
0.0
 10
89.69201046018891
 20
22.12765078881496
 30
0.0
 10
89.52786821551092
 20
21.27611837260297
 30
0.0
 10
89.36654214829659
 20
20.75875164027682
 30
0.0
 10
88.9420309958821
 20
19.8227833042297
 30
0.0
 10
88.67526372520034
 20
19.4017040446916
 30
0.0
 10
88.05857827721798
 20
18.69467718396461
 30
0.0
 10
87.7078251759585
 20
18.40404078336724
 30
0.0
 10
87.11720474453772
 20
18.06369930655591
 30
0.0
 10
86.90857245463724
 20
17.96613909499271
 30
0.0
 10
86.4781610862764
 20
17.80759013172621
 30
0.0
 10
86.25555829331543
 20
17.74595545143417
 30
0.0
 10
85.56600283885994
 20
17.61291141481536
 30
0.0
 10
85.07621316452556
 20
17.59298393474451
 30
0.0
 10
84.04172951883251
 20
17.69634474470988
 30
0.0
 10
83.51175955115912
 20
17.81781743548439
 30
0.0
 10
82.6984079656476
 20
18.10090080606867
 30
0.0
 10
82.4242021244606
 20
18.21219791425341
 30
0.0
 10
81.8694576917178
 20
18.46951652522978
 30
0.0
 10
81.58866992621816
 20
18.61589949414015
 30
0.0
 10
80.75533140612343
 20
19.09770020035978
 30
0.0
 10
80.20553273429168
 20
19.47797464062352
 30
0.0
 10
79.38943653799053
 20
20.13660036626323
 30
0.0
 10
79.11757428121783
 20
20.3721522708095
 30
0.0
 10
78.58307686580352
 20
20.8682581454135
 30
0.0
 10
78.32179778812421
 20
21.12737302319648
 30
0.0
 10
77.5553501235947
 20
21.93694115631646
 30
0.0
 10
77.06740514346161
 20
22.51931037821858
 30
0.0
 10
76.37100012950953
 20
23.45867007768589
 30
0.0
 10
76.1458046256083
 20
23.78174770076634
 30
0.0
 10
75.71702561471292
 20
24.43598708335334
 30
0.0
 10
75.30744180055348
 20
25.10150983493628
 30
0.0
 10
74.93574981596895
 20
25.78930625742329
 30
0.0
 10
74.58330382861031
 20
26.4884159105785
 30
0.0
 10
74.41586569001805
 20
26.84565665248548
 30
0.0
 10
73.9512963341055
 20
27.91710238517131
 30
0.0
 10
73.69100658307134
 20
28.63061252847544
 30
0.0
 10
73.26705786424415
 20
30.05609407131493
 30
0.0
 10
73.10302959354752
 20
30.773414881107
 30
0.0
 10
72.88568462653576
 20
32.16338878303498
 30
0.0
 10
72.83139245237884
 20
32.84282377419953
 30
0.0
 10
72.8326148527493
 20
34.11833940593464
 30
0.0
 10
72.88668815330509
 20
34.72032093398325
 30
0.0
 10
73.04890285953068
 20
35.56901875774529
 30
0.0
 10
73.11710875180115
 20
35.8443149599366
 30
0.0
 10
73.27918990570178
 20
36.3670489015008
 30
0.0
 10
73.37280026419518
 20
36.61445345090719
 30
0.0
 10
73.69036353283477
 20
37.31586524770285
 30
0.0
 10
73.95069343080345
 20
37.72946520315843
 30
0.0
 10
74.41666669564422
 20
38.26602426196322
 30
0.0
 10
74.58333386508444
 20
38.42906011612121
 30
0.0
 10
74.93511341695113
 20
38.72074961259764
 30
0.0
 10
75.30641239991753
 20
38.97930713257406
 30
0.0
 10
75.71636011686924
 20
39.17226289706849
 30
0.0
 10
76.14599963507817
 20
39.33179410665826
 30
0.0
 10
76.37190675033295
 20
39.39497119541443
 30
0.0
 10
77.06645761243263
 20
39.52987108074267
 30
0.0
 10
77.55394702141331
 20
39.54915205919229
 30
0.0
 10
78.57703998522139
 20
39.44871158710963
 30
0.0
 10
79.11763176259339
 20
39.32624688157529
 30
0.0
 10
80.20402466491922
 20
38.94879181755537
 30
0.0
 10
80.75398170956791
 20
38.69447978200435
 30
0.0
 10
81.58922246701368
 20
38.21304109703287
 30
0.0
 10
81.87021562392921
 20
38.03502837096392
 30
0.0
 10
82.42360522328221
 20
37.6527823583919
 30
0.0
 10
82.97123550394933
 20
37.24288190854099
 30
0.0
 10
83.50756345947549
 20
36.77871124744125
 30
0.0
 10
84.03818475719922
 20
36.28713901006539
 30
0.0
 10
84.30150529545139
 20
36.02673700247214
 30
0.0
 10
85.07681745834265
 20
35.2089163671116
 30
0.0
 10
85.56476653842977
 20
34.62577841716077
 30
0.0
 10
86.25478063000175
 20
33.69612432357017
 30
0.0
 10
86.47774933652663
 20
33.37701480788765
 30
0.0
 10
86.90924301967492
 20
32.71985874500899
 30
0.0
 10
87.11752058942477
 20
32.38189108145931
 30
0.0
 10
87.70685558961081
 20
31.36188412762986
 30
0.0
 10
88.05770078742337
 20
30.66651976413455
 30
0.0
 10
88.52103278721802
 20
29.6004816326679
 30
0.0
 10
88.66558260029065
 20
29.2393832906635
 30
0.0
 10
88.92915919799393
 20
28.51890374260033
 30
0.0
 10
89.0478913498464
 20
28.16074515990527
 30
0.0
 10
89.36600844989744
 20
27.09233938214039
 30
0.0
 10
89.52767926182692
 20
26.3881039402834
 30
0.0
 10
89.6922352040435
 20
25.34417629924109
 30
0.0
 10
89.73365512305769
 20
24.99982898950508
 30
0.0
 10
89.78871484350213
 20
24.32657309588667
 30
0.0
 10
89.80256121069186
 20
23.9964301817595
 30
0.0
 10
89.80256121069185
 20
23.67284949144006
 30
0.0
  0
SPLINE
  5
2FA
330
2BA
100
AcDbEntity
  8
0
  6
Continuous
 62
     7
370
    25
100
AcDbSpline
210
0.0
220
0.0
230
1.0
 70
     8
 71
     3
 72
    38
 73
    34
 74
     0
 42
0.000000001
 43
0.00000001
 40
0.0
 40
0.0
 40
0.0
 40
0.0
 40
0.015625
 40
0.015625
 40
0.0312500000000001
 40
0.0312500000000001
 40
0.0625
 40
0.0625
 40
0.1249999999999998
 40
0.1249999999999998
 40
0.2499999999999972
 40
0.2499999999999972
 40
0.3749999999999946
 40
0.3749999999999946
 40
0.4374999999999943
 40
0.4374999999999943
 40
0.4999999999999941
 40
0.4999999999999941
 40
0.6249999999999947
 40
0.6249999999999947
 40
0.7499999999999952
 40
0.7499999999999952
 40
0.8124999999999961
 40
0.8124999999999961
 40
0.874999999999997
 40
0.874999999999997
 40
0.9374999999999979
 40
0.9374999999999979
 40
0.9687499999999982
 40
0.9687499999999982
 40
0.9843749999999992
 40
0.9843749999999992
 40
1.0
 40
1.0
 40
1.0
 40
1.0
 10
-180.3780732999424
 20
-63.55589537747986
 30
0.0
 10
-180.4703083749941
 20
-63.49980220289459
 30
0.0
 10
-180.5626749955136
 20
-63.44178859732367
 30
0.0
 10
-180.7436272226993
 20
-63.32447398343982
 30
0.0
 10
-180.8328845272724
 20
-63.26476445008475
 30
0.0
 10
-181.0969782968841
 20
-63.08261690796511
 30
0.0
 10
-181.2681371287053
 20
-62.95716407843147
 30
0.0
 10
-181.7667104111636
 20
-62.56968061105925
 30
0.0
 10
-182.0792304726078
 20
-62.29657429803729
 30
0.0
 10
-182.9553544004561
 20
-61.43830437292269
 30
0.0
 10
-183.4594294640299
 20
-60.81056663444603
 30
0.0
 10
-184.2716463728462
 20
-59.49989359846607
 30
0.0
 10
-184.5825875053442
 20
-58.81489261540264
 30
0.0
 10
-184.9026955181811
 20
-57.74758285301654
 30
0.0
 10
-184.9850931333546
 20
-57.38371843136628
 30
0.0
 10
-185.098232514673
 20
-56.65094852777153
 30
0.0
 10
-185.1292405079598
 20
-56.28200461984277
 30
0.0
 10
-185.1469027404183
 20
-55.16771239189534
 30
0.0
 10
-185.0585823907847
 20
-54.41513915728608
 30
0.0
 10
-184.6779486202185
 20
-52.88632038878799
 30
0.0
 10
-184.3892890915243
 20
-52.12565461869162
 30
0.0
 10
-183.8168962636759
 20
-50.98501503288539
 30
0.0
 10
-183.6030032117853
 20
-50.60450743584675
 30
0.0
 10
-183.1292368975906
 20
-49.84045247978553
 30
0.0
 10
-182.8685492816826
 20
-49.45594284804249
 30
0.0
 10
-182.3074919359163
 20
-48.68897492139956
 30
0.0
 10
-182.0071757023838
 20
-48.30540261221652
 30
0.0
 10
-181.5285103756974
 20
-47.72590055600103
 30
0.0
 10
-181.3642508487023
 20
-47.53203401888935
 30
0.0
 10
-181.1109726066024
 20
-47.23954764305878
 30
0.0
 10
-181.025398326551
 20
-47.14176991299027
 30
0.0
 10
-180.8519807016063
 20
-46.94552796415307
 30
0.0
 10
-180.7634858653244
 20
-46.84633977858488
 30
0.0
 10
-180.6751731075696
 20
-46.74818970929149
 30
0.0
  0
SPLINE
  5
2FE
330
2BA
100
AcDbEntity
  8
0
  6
Continuous
 62
     7
370
    25
100
AcDbSpline
210
0.0
220
0.0
230
1.0
 70
     8
 71
     3
 72
    38
 73
    34
 74
     0
 42
0.000000001
 43
0.00000001
 40
0.0
 40
0.0
 40
0.0
 40
0.0
 40
0.0312500000000007
 40
0.0312500000000007
 40
0.0625000000000013
 40
0.0625000000000013
 40
0.1250000000000021
 40
0.1250000000000021
 40
0.1875000000000028
 40
0.1875000000000028
 40
0.2500000000000036
 40
0.2500000000000036
 40
0.3750000000000026
 40
0.3750000000000026
 40
0.4375000000000021
 40
0.4375000000000021
 40
0.5000000000000016
 40
0.5000000000000016
 40
0.5625000000000011
 40
0.5625000000000011
 40
0.6250000000000007
 40
0.6250000000000007
 40
0.7499999999999997
 40
0.7499999999999997
 40
0.8124999999999991
 40
0.8124999999999991
 40
0.8749999999999986
 40
0.8749999999999986
 40
0.937499999999998
 40
0.937499999999998
 40
0.968749999999999
 40
0.968749999999999
 40
1.0
 40
1.0
 40
1.0
 40
1.0
 10
70.87205302337898
 20
-191.9633123638918
 30
0.0
 10
70.6099932260172
 20
-192.1106936810424
 30
0.0
 10
70.34172247787338
 20
-192.2538254214393
 30
0.0
 10
69.80237819962964
 20
-192.5271716001792
 30
0.0
 10
69.5297128511985
 20
-192.6582795342523
 30
0.0
 10
68.70278572788192
 20
-193.0360340384152
 30
0.0
 10
68.13961299206082
 20
-193.2671723107964
 30
0.0
 10
66.98935965668065
 20
-193.6922340255814
 30
0.0
 10
66.40027117206613
 20
-193.8866832039283
 30
0.0
 10
65.20667800147504
 20
-194.2376101238306
 30
0.0
 10
64.6033779445924
 20
-194.3938873128305
 30
0.0
 10
62.77423810251725
 20
-194.8091307145309
 30
0.0
 10
61.52902137090899
 20
-195.0149240112359
 30
0.0
 10
59.62143717973206
 20
-195.2206460016374
 30
0.0
 10
58.97795644409251
 20
-195.2718526220287
 30
0.0
 10
57.69649357649721
 20
-195.3385136011407
 30
0.0
 10
57.05623641132978
 20
-195.3542769720692
 30
0.0
 10
55.77666096838692
 20
-195.3513343842368
 30
0.0
 10
55.13734281149284
 20
-195.3326264997079
 30
0.0
 10
53.85965344693765
 20
-195.2603895756152
 30
0.0
 10
53.21962727846133
 20
-195.2066684703996
 30
0.0
 10
51.31239661823592
 20
-194.9927581278878
 30
0.0
 10
50.07084994846375
 20
-194.7821142241864
 30
0.0
 10
48.25186638859107
 20
-194.3628080421086
 30
0.0
 10
47.652729604567
 20
-194.2057222237083
 30
0.0
 10
46.46896721065229
 20
-193.8547656314923
 30
0.0
 10
45.88406844595188
 20
-193.6606345144062
 30
0.0
 10
44.74325929973909
 20
-193.2379265568299
 30
0.0
 10
44.18549262205815
 20
-193.0088593621124
 30
0.0
 10
43.36758577737698
 20
-192.6365368891625
 30
0.0
 10
43.09807681991004
 20
-192.5076305027961
 30
0.0
 10
42.56531335428912
 20
-192.239693528888
 30
0.0
 10
42.30052636078545
 20
-192.0998130456559
 30
0.0
 10
42.041946031843
 20
-191.9562394595488
 30
0.0
  0
SPLINE
  5
301
330
2BA
100
AcDbEntity
  8
0
  6
Continuous
 62
     7
370
    25
100
AcDbSpline
210
0.0
220
0.0
230
1.0
 70
     8
 71
     3
 72
    11
 73
     7
 74
     0
 42
0.000000001
 43
0.00000001
 40
0.0
 40
0.0
 40
0.0
 40
0.0
 40
0.0006126141640398
 40
0.0006126141640398
 40
0.0006126141640398
 40
0.0006126741640398
 40
0.0006126741640398
 40
0.0006126741640398
 40
0.0006126741640398
 10
193.0986353665644
 20
-121.3969804328099
 30
0.0
 10
192.9542474148575
 20
-121.4849614104035
 30
0.0
 10
192.8080179262836
 20
-121.5715154707386
 30
0.0
 10
192.6600246214811
 20
-121.6566129796349
 30
0.0
 10
192.6600101268794
 20
-121.656621314164
 30
0.0
 10
192.6599956322532
 20
-121.6566296486827
 30
0.0
 10
192.6599811376249
 20
-121.6566379831803
 30
0.0
  0
SPLINE
  5
302
330
2BA
100
AcDbEntity
  8
0
  6
Continuous
 62
     7
370
    25
100
AcDbSpline
210
0.0
220
0.0
230
1.0
 70
     8
 71
     3
 72
    35
 73
    31
 74
     0
 42
0.000000001
 43
0.00000001
 40
0.0
 40
0.0
 40
0.0
 40
0.0
 40
0.0156249999999986
 40
0.0156249999999986
 40
0.0312499999999973
 40
0.0624999999999962
 40
0.0624999999999962
 40
0.1249999999999961
 40
0.1249999999999961
 40
0.1874999999999961
 40
0.1874999999999961
 40
0.2499999999999961
 40
0.2499999999999961
 40
0.3124999999999961
 40
0.3124999999999961
 40
0.3749999999999961
 40
0.3749999999999961
 40
0.4374999999999961
 40
0.4374999999999961
 40
0.499999999999996
 40
0.499999999999996
 40
0.6249999999999963
 40
0.6249999999999963
 40
0.7499999999999964
 40
0.7499999999999964
 40
0.8124999999999977
 40
0.8124999999999977
 40
0.8749999999999989
 40
0.8749999999999989
 40
1.0
 40
1.0
 40
1.0
 40
1.0
 10
197.5077804659516
 20
-101.7859630332465
 30
0.0
 10
197.5903891484029
 20
-101.9020084166439
 30
0.0
 10
197.6730157069755
 20
-102.0225021353495
 30
0.0
 10
197.8310586373579
 20
-102.2618852363364
 30
0.0
 10
198.0610010078559
 20
-102.6237431847477
 30
0.0
 10
198.2702225217019
 20
-102.993397894958
 30
0.0
 10
198.6626714967382
 20
-103.7416483327184
 30
0.0
 10
198.8896136907571
 20
-104.2524496065121
 30
0.0
 10
199.2822132979616
 20
-105.2903540103813
 30
0.0
 10
199.4480675725314
 20
-105.8191646609632
 30
0.0
 10
199.7156119539101
 20
-106.8554859007173
 30
0.0
 10
199.8186636238339
 20
-107.364237208052
 30
0.0
 10
199.9697806188476
 20
-108.3657497048607
 30
0.0
 10
200.0178206831547
 20
-108.8584357059678
 30
0.0
 10
200.0627757426974
 20
-109.8292355697813
 30
0.0
 10
200.0592906968653
 20
-110.3076745857792
 30
0.0
 10
200.0049507644504
 20
-111.2331193038258
 30
0.0
 10
199.9541683378858
 20
-111.6829467332939
 30
0.0
 10
199.8076667405823
 20
-112.5615865041204
 30
0.0
 10
199.711623062144
 20
-112.9915421921312
 30
0.0
 10
199.3585468333052
 20
-114.2474177723681
 30
0.0
 10
199.0403212135289
 20
-115.0304606573918
 30
0.0
 10
198.2494072243198
 20
-116.5171717150985
 30
0.0
 10
197.7767803681794
 20
-117.2203935847745
 30
0.0
 10
196.9491916450104
 20
-118.2258428517797
 30
0.0
 10
196.6538298866261
 20
-118.5518400665754
 30
0.0
 10
196.0318583867832
 20
-119.1789100063979
 30
0.0
 10
195.7043103733629
 20
-119.4811646020993
 30
0.0
 10
194.6726161537549
 20
-120.3559904383559
 30
0.0
 10
193.9191615453219
 20
-120.8970031528854
 30
0.0
 10
193.0986353665643
 20
-121.3969804328099
 30
0.0
  0
SPLINE
  5
306
330
2BA
100
AcDbEntity
  8
0
  6
Continuous
 62
     7
370
    25
100
AcDbSpline
210
0.0
220
0.0
230
1.0
 70
     8
 71
     3
 72
    35
 73
    31
 74
     0
 42
0.000000001
 43
0.00000001
 40
0.0
 40
0.0
 40
0.0
 40
0.0
 40
0.1249999999999971
 40
0.1249999999999971
 40
0.2499999999999941
 40
0.2499999999999941
 40
0.3124999999999927
 40
0.3124999999999927
 40
0.3749999999999912
 40
0.3749999999999912
 40
0.4999999999999883
 40
0.4999999999999883
 40
0.5624999999999882
 40
0.5624999999999882
 40
0.624999999999988
 40
0.624999999999988
 40
0.7499999999999897
 40
0.7499999999999897
 40
0.8124999999999916
 40
0.8124999999999916
 40
0.8749999999999933
 40
0.8749999999999933
 40
0.9374999999999952
 40
0.9374999999999952
 40
0.9687499999999977
 40
0.9687499999999977
 40
0.9843749999999992
 40
0.9921874999999997
 40
0.9921874999999997
 40
1.0
 40
1.0
 40
1.0
 40
1.0
 10
-58.45980801249981
 20
23.82461780231363
 30
0.0
 10
-57.63904483123868
 20
24.3254205163059
 30
0.0
 10
-56.77002879709838
 20
24.79839216702378
 30
0.0
 10
-54.93922462954519
 20
25.69482018148686
 30
0.0
 10
-53.97783448333729
 20
26.11890124577063
 30
0.0
 10
-52.46547750821181
 20
26.72464498674959
 30
0.0
 10
-51.94728688889249
 20
26.92233110139014
 30
0.0
 10
-50.90204409704111
 20
27.3046250204867
 30
0.0
 10
-50.37460259541098
 20
27.48933578632062
 30
0.0
 10
-48.7788372824018
 20
28.02793769924314
 30
0.0
 10
-47.69708075323148
 20
28.36600318543414
 30
0.0
 10
-46.05091766804516
 20
28.85926262084906
 30
0.0
 10
-45.49828746137909
 20
29.02148076302441
 30
0.0
 10
-44.38591482704201
 20
29.34628559931504
 30
0.0
 10
-43.82744310498092
 20
29.50845752411217
 30
0.0
 10
-42.18015539792684
 20
29.99170047007643
 30
0.0
 10
-41.10799754138438
 20
30.31428627668681
 30
0.0
 10
-39.55229062195771
 20
30.80869611115106
 30
0.0
 10
-39.05022130769002
 20
30.97257679346325
 30
0.0
 10
-38.09173905505139
 20
31.29661427651414
 30
0.0
 10
-37.63360633769035
 20
31.45688653563619
 30
0.0
 10
-36.75983998754869
 20
31.76508687922325
 30
0.0
 10
-36.34277187638002
 20
31.91315848691342
 30
0.0
 10
-35.76245667325699
 20
32.10605272341177
 30
0.0
 10
-35.57583887051285
 20
32.16577908006216
 30
0.0
 10
-35.30540479287002
 20
32.24701694848539
 30
0.0
 10
-35.17256171426669
 20
32.28554791355384
 30
0.0
 10
-35.04315113865979
 20
32.32067158257285
 30
0.0
 10
-34.957626836473
 20
32.34330032759075
 30
0.0
 10
-34.91435617640992
 20
32.35444206350005
 30
0.0
 10
-34.87322079304543
 20
32.36473351570793
 30
0.0
  0
SPLINE
  5
307
330
2BA
100
AcDbEntity
  8
0
  6
Continuous
 62
     7
370
    25
100
AcDbSpline
210
0.0
220
0.0
230
1.0
 70
     8
 71
     3
 72
    11
 73
     7
 74
     0
 42
0.000000001
 43
0.00000001
 40
-0.0000000599638775
 40
-0.0000000599638775
 40
-0.0000000599638775
 40
-0.0000000599638775
 40
0.0
 40
0.0
 40
0.0
 40
0.000612614201378
 40
0.000612614201378
 40
0.000612614201378
 40
0.000612614201378
 10
-58.88724499332339
 20
23.55848467141994
 30
0.0
 10
-58.88723122900117
 20
23.55849341745892
 30
0.0
 10
-58.88721746467759
 20
23.55850216351699
 30
0.0
 10
-58.88720370032809
 20
23.55851090955624
 30
0.0
 10
-58.74658177343786
 20
23.6478638346862
 30
0.0
 10
-58.60409508126818
 20
23.73657857579511
 30
0.0
 10
-58.45980801249986
 20
23.82461780231367
 30
0.0
  0
LWPOLYLINE
  5
309
330
2BA
100
AcDbEntity
  8
0
  6
Continuous
 62
     7
370
    25
100
AcDbPolyline
 90
       10
 70
   128
 43
0.0
 10
370.8775067323
 20
-29.5947940536
 10
371.8598091641
 20
-29.6444144123
 10
372.8122648335
 20
-29.7917677991
 10
373.7059338571
 20
-30.0323769558
 10
374.5136625537
 20
-30.358931095
 10
375.2109084957
 20
-30.7615080344
 10
375.7764862179
 20
-31.2278756773
 10
376.1932109275
 20
-31.7438636791
 10
376.4484206549
 20
-32.2937940052
 10
376.5343609818
 20
-32.8609573011
  0
SPLINE
  5
317
330
2BA
100
AcDbEntity
  8
0
  6
Continuous
 62
     7
370
    25
100
AcDbSpline
210
0.0
220
0.0
230
1.0
 70
     8
 71
     3
 72
    38
 73
    34
 74
     0
 42
0.000000001
 43
0.00000001
 40
0.0
 40
0.0
 40
0.0
 40
0.0
 40
0.0625000000000031
 40
0.0625000000000031
 40
0.0937500000000046
 40
0.0937500000000046
 40
0.1250000000000061
 40
0.1250000000000061
 40
0.1875000000000059
 40
0.1875000000000059
 40
0.2500000000000056
 40
0.2500000000000056
 40
0.3750000000000046
 40
0.3750000000000046
 40
0.4375000000000036
 40
0.4375000000000036
 40
0.5000000000000027
 40
0.5625000000000017
 40
0.5625000000000017
 40
0.6250000000000008
 40
0.6250000000000008
 40
0.7499999999999989
 40
0.7499999999999989
 40
0.7812499999999988
 40
0.7812499999999988
 40
0.8124999999999986
 40
0.8124999999999986
 40
0.8749999999999984
 40
0.8749999999999984
 40
0.9062499999999984
 40
0.9062499999999984
 40
0.9374999999999983
 40
1.0
 40
1.0
 40
1.0
 40
1.0
 10
45.06294323266098
 20
-190.3484632403994
 30
0.0
 10
45.44939845030306
 20
-190.5715590888156
 30
0.0
 10
45.83585366794506
 20
-190.7946549372316
 30
0.0
 10
46.41553649440813
 20
-191.1292987098557
 30
0.0
 10
46.60690545155575
 20
-191.2421106458312
 30
0.0
 10
46.99898218082847
 20
-191.4613834772971
 30
0.0
 10
47.20120206140189
 20
-191.5668160343961
 30
0.0
 10
47.82548591090599
 20
-191.8711280247019
 30
0.0
 10
48.26508306820017
 20
-192.0580836764229
 30
0.0
 10
49.18897696566606
 20
-192.4015961700368
 30
0.0
 10
49.67535307749797
 20
-192.5584212448065
 30
0.0
 10
51.15833107458351
 20
-192.972067866226
 30
0.0
 10
52.19039959593499
 20
-193.1784819641108
 30
0.0
 10
53.80147791091616
 20
-193.3875106911822
 30
0.0
 10
54.34991358288256
 20
-193.4399636272485
 30
0.0
 10
55.44101006286694
 20
-193.5083817228384
 30
0.0
 10
56.53306910836331
 20
-193.5413622619841
 30
0.0
 10
57.62702181891556
 20
-193.5046261308804
 30
0.0
 10
58.72195462991082
 20
-193.4318068819786
 30
0.0
 10
59.26902919981092
 20
-193.3771182149853
 30
0.0
 10
60.86990797728834
 20
-193.162168068663
 30
0.0
 10
61.89814061599642
 20
-192.9514258063033
 30
0.0
 10
63.13067048962778
 20
-192.5968057189621
 30
0.0
 10
63.37537662612564
 20
-192.5209054056506
 30
0.0
 10
63.85329098303325
 20
-192.3611763093328
 30
0.0
 10
64.08669198390082
 20
-192.2773441716756
 30
0.0
 10
64.77004079875115
 20
-192.01381241655
 30
0.0
 10
65.20326696001804
 20
-191.8221720983613
 30
0.0
 10
65.81587683747058
 20
-191.5081266473064
 30
0.0
 10
66.0118783873798
 20
-191.3975880794551
 30
0.0
 10
66.39983816787078
 20
-191.1736236653942
 30
0.0
 10
66.98177783860744
 20
-190.8376770443027
 30
0.0
 10
67.56371750934377
 20
-190.5017304232116
 30
0.0
 10
67.95167728983476
 20
-190.2777660091508
 30
0.0
  0
SPLINE
  5
31A
330
2BA
100
AcDbEntity
  8
0
  6
Continuous
 62
     7
370
    25
100
AcDbSpline
210
0.0
220
0.0
230
1.0
 70
     8
 71
     3
 72
    32
 73
    28
 74
     0
 42
0.000000001
 43
0.00000001
 40
0.0
 40
0.0
 40
0.0
 40
0.0
 40
0.1250000000000043
 40
0.1250000000000043
 40
0.187500000000006
 40
0.187500000000006
 40
0.2500000000000077
 40
0.2500000000000077
 40
0.3750000000000144
 40
0.3750000000000144
 40
0.4375000000000178
 40
0.4375000000000178
 40
0.4687500000000194
 40
0.4687500000000194
 40
0.5000000000000211
 40
0.5000000000000211
 40
0.5312500000000229
 40
0.5312500000000229
 40
0.5625000000000245
 40
0.5625000000000245
 40
0.5781250000000235
 40
0.5781250000000235
 40
0.5937500000000225
 40
0.5937500000000225
 40
0.6250000000000204
 40
0.7500000000000124
 40
1.0
 40
1.0
 40
1.0
 40
1.0
 10
188.155496045646
 20
-120.880574513449
 30
0.0
 10
188.7984081544992
 20
-120.4864219383829
 30
0.0
 10
189.3603840977612
 20
-120.060602001085
 30
0.0
 10
190.081530341254
 20
-119.3742092944824
 30
0.0
 10
190.3014045958245
 20
-119.1373877629198
 30
0.0
 10
190.6972443531668
 20
-118.6465648107045
 30
0.0
 10
190.8697910447746
 20
-118.3968078970573
 30
0.0
 10
191.3086714632588
 20
-117.6372973273634
 30
0.0
 10
191.4995934558519
 20
-117.1163967265355
 30
0.0
 10
191.5967872159871
 20
-116.3079505785613
 30
0.0
 10
191.5964707725076
 20
-116.0352769638541
 30
0.0
 10
191.5375855374205
 20
-115.6316762688435
 30
0.0
 10
191.508220280838
 20
-115.497580310559
 30
0.0
 10
191.4267581392999
 20
-115.2304100302032
 30
0.0
 10
191.3745400935852
 20
-115.0973390670323
 30
0.0
 10
191.244500631174
 20
-114.8374729598857
 30
0.0
 10
191.1667262714962
 20
-114.7100697332168
 30
0.0
 10
190.9767865609745
 20
-114.4620845883061
 30
0.0
 10
190.8636669107452
 20
-114.3408868018486
 30
0.0
 10
190.6611894114014
 20
-114.1772915707806
 30
0.0
 10
190.5878487055691
 20
-114.1255524453842
 30
0.0
 10
190.4297733163739
 20
-114.0275150134986
 30
0.0
 10
190.3457281271054
 20
-113.9808874618016
 30
0.0
 10
190.098969961842
 20
-113.8384370051383
 30
0.0
 10
189.2764427442972
 20
-113.3636021495939
 30
0.0
 10
187.1378719786807
 20
-112.1290315251781
 30
0.0
 10
185.1638066565736
 20
-110.9894278718713
 30
0.0
 10
183.8477631085019
 20
-110.2296921030001
 30
0.0
  0
LWPOLYLINE
  5
31B
330
2BA
100
AcDbEntity
  8
0
  6
Continuous
 62
     7
370
    25
100
AcDbPolyline
 90
        6
 70
   128
 43
0.0
 10
67.9516772898
 20
-190.2777660092
 10
82.0938129136
 20
-182.1136848909
 10
138.6623554085
 20
-149.457360418
 10
163.4110927497
 20
-135.1702184613
 10
175.877652774
 20
-128.0782554273
 10
188.1554960456
 20
-120.8805745134
  0
SPLINE
  5
31D
330
2BA
100
AcDbEntity
  8
0
  6
Continuous
 62
     7
370
    25
100
AcDbSpline
210
0.0
220
0.0
230
1.0
 70
     8
 71
     3
 72
    39
 73
    35
 74
     0
 42
0.000000001
 43
0.00000001
 40
0.0
 40
0.0
 40
0.0
 40
0.0
 40
0.0624999999999995
 40
0.0937499999999992
 40
0.0937499999999992
 40
0.1249999999999989
 40
0.1249999999999989
 40
0.1874999999999984
 40
0.1874999999999984
 40
0.2499999999999978
 40
0.2499999999999978
 40
0.3749999999999968
 40
0.3749999999999968
 40
0.4374999999999969
 40
0.4374999999999969
 40
0.499999999999997
 40
0.499999999999997
 40
0.5624999999999971
 40
0.5624999999999971
 40
0.6249999999999972
 40
0.6249999999999972
 40
0.7499999999999974
 40
0.7499999999999974
 40
0.7812499999999974
 40
0.7812499999999974
 40
0.8124999999999974
 40
0.8124999999999974
 40
0.8749999999999973
 40
0.8749999999999973
 40
0.9062499999999988
 40
0.9062499999999988
 40
0.9375000000000003
 40
0.9375000000000003
 40
1.0
 40
1.0
 40
1.0
 40
1.0
 10
-174.0176944672365
 20
-50.59182099208216
 30
0.0
 10
-174.4039505820721
 20
-50.81480190089469
 30
0.0
 10
-174.9833347543255
 20
-51.14927326411343
 30
0.0
 10
-175.562718926579
 20
-51.48374462733215
 30
0.0
 10
-175.9489750414147
 20
-51.70672553614471
 30
0.0
 10
-176.1400115734257
 20
-51.81926377272729
 30
0.0
 10
-176.6835035869323
 20
-52.17171587098944
 30
0.0
 10
-177.0161378109814
 20
-52.42155949980518
 30
0.0
 10
-177.6272176844706
 20
-52.94839336651498
 30
0.0
 10
-177.9064235842889
 20
-53.22689931924349
 30
0.0
 10
-178.6427219594471
 20
-54.07768529129856
 30
0.0
 10
-179.0099345465738
 20
-54.67149926142675
 30
0.0
 10
-179.3852131311463
 20
-55.60001522347704
 30
0.0
 10
-179.4801076827571
 20
-55.91610062874754
 30
0.0
 10
-179.6063855953272
 20
-56.54535980748658
 30
0.0
 10
-179.6386969049208
 20
-56.86049918190215
 30
0.0
 10
-179.6428775781364
 20
-57.49177743616332
 30
0.0
 10
-179.6147564474931
 20
-57.80791615881594
 30
0.0
 10
-179.4961779083487
 20
-58.44122443539463
 30
0.0
 10
-179.4056443902149
 20
-58.75668231676232
 30
0.0
 10
-179.0465608465743
 20
-59.68190974700622
 30
0.0
 10
-178.6910945862952
 20
-60.27781142071562
 30
0.0
 10
-178.0921785268328
 20
-60.99483328517495
 30
0.0
 10
-177.9641545422066
 20
-61.13711439578174
 30
0.0
 10
-177.6953623629032
 20
-61.41479393129528
 30
0.0
 10
-177.5542580150363
 20
-61.55064509723677
 30
0.0
 10
-177.1106447585144
 20
-61.94915462996004
 30
0.0
 10
-176.787957779686
 20
-62.20282344756006
 30
0.0
 10
-176.2608535235088
 20
-62.56413683411133
 30
0.0
 10
-176.0779446713329
 20
-62.68136363983037
 30
0.0
 10
-175.6968163669206
 20
-62.90899621283075
 30
0.0
 10
-175.5001557500429
 20
-63.02009645817683
 30
0.0
 10
-174.9172999718938
 20
-63.35657193682032
 30
0.0
 10
-174.5287294531278
 20
-63.58088892258261
 30
0.0
 10
-174.1401589343618
 20
-63.80520590834493
 30
0.0
  0
SPLINE
  5
31E
330
2BA
100
AcDbEntity
  8
0
  6
Continuous
 62
     7
370
    25
100
AcDbSpline
210
0.0
220
0.0
230
1.0
 70
     8
 71
     3
 72
    17
 73
    13
 74
     0
 42
0.000000001
 43
0.00000001
 40
0.0
 40
0.0
 40
0.0
 40
0.0
 40
0.0039062500000002
 40
0.0039062500000002
 40
0.0078125000000004
 40
0.0156250000000005
 40
0.0312500000000005
 40
0.0625000000000004
 40
0.1250000000000002
 40
0.2500000000000002
 40
0.5000000000000001
 40
1.0
 40
1.0
 40
1.0
 40
1.0
 10
-53.80520762075852
 20
18.80036652140005
 30
0.0
 10
-53.96643061321755
 20
18.7127272331557
 30
0.0
 10
-54.12258054687281
 20
18.62215501323981
 30
0.0
 10
-54.43562261977198
 20
18.44143967118933
 30
0.0
 10
-54.90518572912062
 20
18.17036665811376
 30
0.0
 10
-56.00083298426753
 20
17.53786296093718
 30
0.0
 10
-58.19212749456142
 20
16.27285556658384
 30
0.0
 10
-62.57471651514901
 20
13.74284077787766
 30
0.0
 10
-71.33989455632437
 20
8.682811200464977
 30
0.0
 10
-88.87025063867526
 20
-1.437247954360066
 30
0.0
 10
-123.9309628033771
 20
-21.67736626401014
 30
0.0
 10
-153.9830018016925
 20
-39.02603910085353
 30
0.0
 10
-174.0176944672365
 20
-50.59182099208221
 30
0.0
  0
SPLINE
  5
31F
330
2BA
100
AcDbEntity
  8
0
  6
Continuous
 62
     7
370
    25
100
AcDbSpline
210
0.0
220
0.0
230
1.0
 70
     8
 71
     3
 72
    30
 73
    26
 74
     0
 42
0.000000001
 43
0.00000001
 40
0.0
 40
0.0
 40
0.0
 40
0.0
 40
0.2500000000000118
 40
0.3750000000000178
 40
0.4062500000000164
 40
0.4062500000000164
 40
0.4218750000000158
 40
0.4218750000000158
 40
0.4375000000000152
 40
0.4375000000000152
 40
0.4687500000000142
 40
0.4687500000000142
 40
0.5000000000000133
 40
0.5000000000000133
 40
0.5625000000000105
 40
0.5625000000000105
 40
0.6250000000000077
 40
0.6250000000000077
 40
0.7500000000000046
 40
0.7500000000000046
 40
0.8125000000000039
 40
0.8125000000000039
 40
0.8750000000000032
 40
0.8750000000000032
 40
1.0
 40
1.0
 40
1.0
 40
1.0
 10
-35.35533905632163
 20
16.31356522778472
 30
0.0
 10
-36.68260333272488
 20
17.07977858524243
 30
0.0
 10
-38.67349974732976
 20
18.229098621429
 30
0.0
 10
-40.830304196485
 20
19.47419532729774
 30
0.0
 10
-41.65984436923699
 20
19.95307867570885
 30
0.0
 10
-41.90870642106262
 20
20.09674368023216
 30
0.0
 10
-41.99042428939448
 20
20.14534896648432
 30
0.0
 10
-42.16712355264151
 20
20.23486685426013
 30
0.0
 10
-42.26158539708083
 20
20.27654751038722
 30
0.0
 10
-42.55287391891598
 20
20.38906162540148
 30
0.0
 10
-42.75890997126714
 20
20.44950657569063
 30
0.0
 10
-43.18487330757301
 20
20.55331412810479
 30
0.0
 10
-43.40562804491249
 20
20.59644410932265
 30
0.0
 10
-44.08144882606102
 20
20.70416183910637
 30
0.0
 10
-44.53778277645679
 20
20.74587286774923
 30
0.0
 10
-45.45852591612562
 20
20.78729025317469
 30
0.0
 10
-45.926435422933
 20
20.78626543899122
 30
0.0
 10
-47.3130679486327
 20
20.72767384859159
 30
0.0
 10
-48.21201575453828
 20
20.61710527284752
 30
0.0
 10
-49.52852626617094
 20
20.3616747470094
 30
0.0
 10
-49.96143748402009
 20
20.26115939384302
 30
0.0
 10
-50.79746467238938
 20
20.03548109528347
 30
0.0
 10
-51.20315895676413
 20
19.90980887456448
 30
0.0
 10
-52.3846535739919
 20
19.49571981300209
 30
0.0
 10
-53.12809758427499
 20
19.16843710956736
 30
0.0
 10
-53.80520762075855
 20
18.80036652140008
 30
0.0
  0
LWPOLYLINE
  5
321
330
2BA
100
AcDbEntity
  8
0
  6
Continuous
 62
     7
370
    25
100
AcDbPolyline
 90
       67
 70
   128
 43
0.0
 10
-13.5218450102
 20
-97.6254842765
 10
-16.026208905
 20
-96.0351182914
 10
-18.2573636001
 20
-94.3145274248
 10
-20.1951034131
 20
-92.479293614
 10
-21.8218798721
 20
-90.5460370208
 10
-23.1229606376
 20
-88.5322655161
 10
-24.0865629207
 20
-86.4562161266
 10
-24.7039601899
 20
-84.3366898769
 10
-24.9695612
 20
-82.1928815251
 10
-24.880960627
 20
-80.0442057315
 10
-24.4389608516
 20
-77.9101212369
 10
-23.647564692
 20
-75.8099546409
 10
-22.5139391544
 20
-73.7627253774
 10
-21.0483505274
 20
-71.7869734717
 10
-19.2640714084
 20
-69.9005916389
 10
-17.1772605054
 20
-68.1206632451
 10
-14.8068163011
 20
-66.4633075974
 10
-12.1742059054
 20
-64.9435339652
 10
-9.3032706456
 20
-63.5751056539
 10
-6.220010156
 20
-62.3704153622
 10
-2.952346921
 20
-61.3403729518
 10
0.470126595
 20
-60.4943066465
 10
4.0164159419
 20
-59.8398785536
 10
7.6544053743
 20
-59.3830152752
 10
11.3511486965
 20
-59.1278542361
 10
15.0731676285
 20
-59.0767062141
 10
18.7867549904
 20
-59.2300344135
 10
22.4582799602
 20
-59.5864502705
 10
26.054492639
 20
-60.1427260279
 10
29.5428251681
 20
-60.8938239662
 10
32.8916866678
 20
-61.8329420263
 10
36.0707493297
 20
-62.9515754095
 10
39.0512230703
 20
-64.2395935988
 10
41.8061162576
 20
-65.6853321019
 10
44.3104801525
 20
-67.275698087
 10
46.5416348476
 20
-68.9962889537
 10
48.4793746606
 20
-70.8315227644
 10
50.1061511196
 20
-72.7647793576
 10
51.407231885
 20
-74.7785508623
 10
52.3708341682
 20
-76.8546002518
 10
52.9882314374
 20
-78.9741265015
 10
53.2538324475
 20
-81.1179348533
 10
53.1652318745
 20
-83.2666106469
 10
52.723232099
 20
-85.4006951415
 10
51.9318359394
 20
-87.5008617375
 10
50.7982104019
 20
-89.548091001
 10
49.3326217749
 20
-91.5238429068
 10
47.5483426558
 20
-93.4102247395
 10
45.4615317528
 20
-95.1901531333
 10
43.0910875486
 20
-96.847508781
 10
40.4584771528
 20
-98.3672824132
 10
37.587541893
 20
-99.7357107245
 10
34.5042814034
 20
-100.9404010162
 10
31.2366181685
 20
-101.9704434266
 10
27.8141446525
 20
-102.8165097319
 10
24.2678553055
 20
-103.4709378249
 10
20.6298658732
 20
-103.9278011032
 10
16.933122551
 20
-104.1829621423
 10
13.211103619
 20
-104.2341101644
 10
9.497516257
 20
-104.0807819649
 10
5.8259912873
 20
-103.7243661079
 10
2.2297786084
 20
-103.1680903505
 10
-1.2585539206
 20
-102.4169924122
 10
-4.6074154203
 20
-101.4778743521
 10
-7.7864780823
 20
-100.3592409689
 10
-10.7669518228
 20
-99.0712227796
 10
-13.5218450102
 20
-97.6254842765
  0
LWPOLYLINE
  5
32A
330
2BA
100
AcDbEntity
  8
0
  6
Continuous
 62
     7
370
    25
100
AcDbPolyline
 90
       15
 70
   128
 43
0.0
 10
175.0543289259
 20
23.0402109772
 10
175.5594486029
 20
23.6174238148
 10
176.9093592042
 20
24.8300177487
 10
178.5444622496
 20
25.9193651496
 10
180.4314717564
 20
26.8632900457
 10
182.5319736528
 20
27.6425768482
 10
184.8032077774
 20
28.2413615251
 10
187.1989383532
 20
28.6474545472
 10
189.6703952144
 20
28.8525890314
 10
192.1672666264
 20
28.8525890314
 10
194.6387234875
 20
28.6474545472
 10
197.0344540634
 20
28.2413615251
 10
199.305688188
 20
27.6425768482
 10
201.4061900843
 20
26.8632900457
 10
203.2931995911
 20
25.9193651496
  0
LWPOLYLINE
  5
32C
330
2BA
100
AcDbEntity
  8
0
  6
Continuous
 62
     7
370
    25
100
AcDbPolyline
 90
       64
 70
   128
 43
0.0
 10
39.5700482801
 20
-67.3952084834
 10
36.9118887635
 20
-66.0065743561
 10
34.0274332105
 20
-64.777629797
 10
30.9453486361
 20
-63.7205886093
 10
27.6962661817
 20
-62.8459561432
 10
24.3124766884
 20
-62.1624248891
 10
20.8276097763
 20
-61.6767880876
 10
17.2762996186
 20
-61.3938722156
 10
13.6938407309
 20
-61.316489018
 10
10.1158371993
 20
-61.4454075638
 10
6.5778488304
 20
-61.7793466026
 10
3.115037742
 20
-62.3149872982
 10
-0.2381810935
 20
-63.0470062127
 10
-3.4484818809
 20
-63.9681282133
 10
-6.4839592085
 20
-65.0691987757
 10
-9.3144451391
 20
-66.339274966
 10
-11.9118090317
 20
-67.7657341964
 10
-14.2502371171
 20
-69.3343996741
 10
-16.3064890464
 20
-71.029681297
 10
-18.060128864
 20
-72.8347305946
 10
-19.4937281098
 20
-74.731608176
 10
-20.5930390301
 20
-76.7014620196
 10
-21.3471361793
 20
-78.724714833
 10
-21.7485250011
 20
-80.7812586207
 10
-21.7932163131
 20
-82.8506545266
 10
-21.4807659528
 20
-84.9123359644
 10
-20.8142791924
 20
-86.9458130179
 10
-19.8003798767
 20
-88.9308760783
 10
-18.4491445927
 20
-90.8477966973
 10
-16.7740025236
 20
-92.6775236565
 10
-14.7916019839
 20
-94.4018723073
 10
-12.5216449609
 20
-96.0037052982
 10
-9.9866913071
 20
-97.4671028932
 10
-7.211934531
 20
-98.7775211895
 10
-4.224951412
 20
-99.9219366615
 10
-1.0554279303
 20
-100.888975594
 10
2.2651357659
 20
-101.6690271196
 10
5.7037384226
 20
-102.2543387359
 10
9.2262056618
 20
-102.6390933529
 10
12.7975296215
 20
-102.8194671065
 10
16.3822168798
 20
-102.7936673613
 10
19.9446412042
 20
-102.5619505267
 10
23.4493976212
 20
-102.1266195087
 10
26.861654287
 20
-101.4920008227
 10
30.1474986619
 20
-100.6644015941
 10
33.2742745481
 20
-99.6520468759
 10
36.2109066423
 20
-98.4649979042
 10
38.9282093752
 20
-97.1150521049
 10
41.3991769716
 20
-95.6156258459
 10
43.5992518453
 20
-93.9816210989
 10
45.5065686639
 20
-92.2292773373
 10
47.1021716558
 20
-90.3760101407
 10
48.3702030017
 20
-88.440238111
 10
49.2980604364
 20
-86.4411998204
 10
49.8765224958
 20
-84.3987626095
 10
50.0998401641
 20
-82.3332251369
 10
49.96579401
 20
-80.2651156421
 10
49.4757162444
 20
-78.2149879262
 10
48.6344774803
 20
-76.2032170796
 10
47.4504383265
 20
-74.2497969848
 10
45.935366296
 20
-72.3741416083
 10
44.1043188554
 20
-70.5948920559
 10
41.9754937768
 20
-68.9297313091
 10
39.5700482801
 20
-67.3952084834
  0
LWPOLYLINE
  5
32D
330
2BA
100
AcDbEntity
  8
0
  6
Continuous
 62
     7
370
    25
100
AcDbPolyline
 90
       52
 70
   128
 43
0.0
 10
-2.7347669198
 20
-95.1087220817
 10
-4.6808223055
 20
-93.8375968724
 10
-6.3415408361
 20
-92.4380492774
 10
-7.6917477114
 20
-90.9312950118
 10
-8.7109751716
 20
-89.3401749341
 10
-9.3837727674
 20
-87.688808803
 10
-9.6999415729
 20
-86.0022296456
 10
-9.6546887914
 20
-84.3060042828
 10
-9.2487004089
 20
-82.6258457621
 10
-8.4881307954
 20
-80.9872235738
 10
-7.3845094111
 20
-79.4149775602
 10
-5.9545660311
 20
-77.9329413682
 10
-4.2199771394
 20
-76.5635811556
 10
-2.2070373356
 20
-75.3276550274
 10
0.0537392649
 20
-74.243898364
 10
2.5280815932
 20
-73.3287398116
 10
5.178481142
 20
-72.596052241
 10
7.9647605556
 20
-72.056942449
 10
10.8446826784
 20
-71.7195827904
 10
13.7745908266
 20
-71.5890872937
 10
16.7100705793
 20
-71.6674341378
 10
19.6066230556
 20
-71.9534356642
 10
22.4203394727
 20
-72.4427563814
 10
25.1085667578
 20
-73.1279786861
 10
27.6305541254
 20
-73.9987153067
 10
29.9480708179
 20
-75.0417667634
 10
32.0259856446
 20
-76.2413214596
 10
33.8327995347
 20
-77.5791953687
 10
35.3411230314
 20
-79.0351076861
 10
36.5280914882
 20
-80.5869882651
 10
37.375711673
 20
-82.211312178
 10
37.8711345279
 20
-83.88345633
 10
38.0068499474
 20
-85.5780727203
 10
37.7808006242
 20
-87.2694726918
 10
37.1964132354
 20
-88.932016345
 10
36.2625464983
 20
-90.540501213
 10
34.9933568807
 20
-92.0705443046
 10
33.4080840034
 20
-93.4989517262
 10
31.5307589872
 20
-94.8040702774
 10
29.3898401658
 20
-95.9661156913
 10
27.0177816863
 20
-96.967472544
 10
24.4505415371
 20
-97.7929612863
 10
21.7270364621
 20
-98.4300683502
 10
18.8885520221
 20
-98.8691358423
 10
15.9781167476
 20
-99.1035079467
 10
13.0398498708
 20
-99.1296318214
 10
10.1182925224
 20
-98.9471114551
 10
7.2577325338
 20
-98.5587136703
 10
4.5015330784
 20
-97.9703261817
 10
1.8914753305
 20
-97.1908683438
 10
-0.5328748949
 20
-96.2321559429
 10
-2.7347669198
 20
-95.1087220817
  0
SPLINE
  5
32F
330
2BA
100
AcDbEntity
  8
0
  6
Continuous
 62
     7
370
    25
100
AcDbSpline
210
0.0
220
0.0
230
1.0
 70
     8
 71
     3
 72
    18
 73
    14
 74
     0
 42
0.000000001
 43
0.00000001
 40
0.0
 40
0.0
 40
0.0
 40
0.0
 40
0.2499999999999979
 40
0.2499999999999979
 40
0.3749999999999979
 40
0.3749999999999979
 40
0.499999999999998
 40
0.499999999999998
 40
0.749999999999998
 40
0.749999999999998
 40
0.874999999999999
 40
0.874999999999999
 40
1.0
 40
1.0
 40
1.0
 40
1.0
 10
13.75227253947522
 20
-77.3921508930312
 30
0.0
 10
13.17757611522783
 20
-77.72391607692873
 30
0.0
 10
12.61348514961147
 20
-77.97831661127908
 30
0.0
 10
11.78062074232832
 20
-78.26310058975155
 30
0.0
 10
11.50524669759012
 20
-78.34163408199366
 30
0.0
 10
10.95893992976141
 20
-78.46630253429224
 30
0.0
 10
10.68753815333922
 20
-78.51233092795206
 30
0.0
 10
9.896128623783591
 20
-78.59867310269576
 30
0.0
 10
9.39273502858689
 20
-78.59083744132153
 30
0.0
 10
8.6812805245762
 20
-78.46122620293899
 30
0.0
 10
8.450639870369134
 20
-78.39771253505906
 30
0.0
 10
8.013100656531932
 20
-78.21868841359904
 30
0.0
 10
7.808349720513604
 20
-78.10462873391283
 30
0.0
 10
7.623975340988604
 20
-77.95488835753311
 30
0.0
  0
SPLINE
  5
333
330
2BA
100
AcDbEntity
  8
0
  6
Continuous
 62
     7
370
    25
100
AcDbSpline
210
0.0
220
0.0
230
1.0
 70
     8
 71
     3
 72
    18
 73
    14
 74
     0
 42
0.000000001
 43
0.00000001
 40
0.0
 40
0.0
 40
0.0
 40
0.0
 40
0.2499999999999988
 40
0.2499999999999988
 40
0.4999999999999976
 40
0.4999999999999976
 40
0.6249999999999981
 40
0.6249999999999981
 40
0.7499999999999988
 40
0.7499999999999988
 40
0.8749999999999993
 40
0.8749999999999993
 40
1.0
 40
1.0
 40
1.0
 40
1.0
 10
1.921202453658651
 20
-84.08999313172068
 30
0.0
 10
2.315098179801802
 20
-83.97694555220465
 30
0.0
 10
2.71577176520472
 20
-83.8653634510064
 30
0.0
 10
3.530343993671131
 20
-83.63261787962013
 30
0.0
 10
3.944247475262638
 20
-83.51176628473351
 30
0.0
 10
4.57479265124852
 20
-83.30783042495592
 30
0.0
 10
4.786589418585728
 20
-83.23600375419952
 30
0.0
 10
5.213352758048911
 20
-83.07968199097536
 30
0.0
 10
5.429676440276118
 20
-82.99471393656745
 30
0.0
 10
5.858531647637843
 20
-82.80607343109348
 30
0.0
 10
6.070042732490493
 20
-82.70322542325064
 30
0.0
 10
6.481318149578989
 20
-82.46624929004754
 30
0.0
 10
6.681730669189771
 20
-82.33228679877614
 30
0.0
 10
6.857302500665754
 20
-82.17334912850977
 30
0.0
  0
SPLINE
  5
336
330
2BA
100
AcDbEntity
  8
0
  6
Continuous
 62
     7
370
    25
100
AcDbSpline
210
0.0
220
0.0
230
1.0
 70
     8
 71
     3
 72
    14
 73
    10
 74
     0
 42
0.000000001
 43
0.00000001
 40
0.0
 40
0.0
 40
0.0
 40
0.0
 40
0.499999999999999
 40
0.499999999999999
 40
0.7499999999999984
 40
0.7499999999999984
 40
0.8749999999999992
 40
0.8749999999999992
 40
1.0
 40
1.0
 40
1.0
 40
1.0
 10
6.857302500665758
 20
-78.23086526706923
 30
0.0
 10
6.857302500665767
 20
-77.86936510281977
 30
0.0
 10
6.912735937761197
 20
-77.50451722085467
 30
0.0
 10
7.129649042066339
 20
-76.95134934146843
 30
0.0
 10
7.222523991703893
 20
-76.77237337060127
 30
0.0
 10
7.403215567895272
 20
-76.51623979208281
 30
0.0
 10
7.470496000577182
 20
-76.43313658579967
 30
0.0
 10
7.618033365818933
 20
-76.2770183149948
 30
0.0
 10
7.701046832908295
 20
-76.20214719537108
 30
0.0
 10
7.786485332582521
 20
-76.13600559888582
 30
0.0
  0
LWPOLYLINE
  5
33C
330
2BA
100
AcDbEntity
  8
0
  6
Continuous
 62
     7
370
    25
100
AcDbPolyline
 90
       12
 70
   128
 43
0.0
 10
81.0617253907
 20
37.8294285799
 10
80.9717355673
 20
36.915179447
 10
81.0356997205
 20
35.3276692297
 10
81.3526293863
 20
33.6361249608
 10
81.9110699008
 20
31.9016834576
 10
82.6908377687
 20
30.1870319549
 10
83.6637501476
 20
28.5541424256
 10
84.7946434494
 20
27.0620317517
 10
86.0426442435
 20
25.7646287006
 10
87.3626465296
 20
24.708824799
 10
88.7069419859
 20
23.9327795507
 10
89.1877741812
 20
23.727506574
  0
SPLINE
  5
33F
330
2BA
100
AcDbEntity
  8
0
  6
Continuous
 62
     7
370
    25
100
AcDbSpline
210
0.0
220
0.0
230
1.0
 70
     8
 71
     3
 72
    12
 73
     8
 74
     0
 42
0.000000001
 43
0.00000001
 40
0.0
 40
0.0
 40
0.0
 40
0.0
 40
0.5000000000000002
 40
0.5000000000000002
 40
0.7500000000000001
 40
0.7500000000000001
 40
1.0
 40
1.0
 40
1.0
 40
1.0
 10
7.623975340988601
 20
-77.95488835753311
 30
0.0
 10
7.539824951985129
 20
-77.6888622493565
 30
0.0
 10
7.502160745618343
 20
-77.40253365354587
 30
0.0
 10
7.541323320285487
 20
-76.94126616870244
 30
0.0
 10
7.570362217960798
 20
-76.7845450475368
 30
0.0
 10
7.65865812918983
 20
-76.46396051685066
 30
0.0
 10
7.71770341048932
 20
-76.30002159026367
 30
0.0
 10
7.786485332582517
 20
-76.13600559888579
 30
0.0
  0
SPLINE
  5
342
330
2BA
100
AcDbEntity
  8
0
  6
Continuous
 62
     7
370
    25
100
AcDbSpline
210
0.0
220
0.0
230
1.0
 70
     8
 71
     3
 72
    12
 73
     8
 74
     0
 42
0.000000001
 43
0.00000001
 40
0.0
 40
0.0
 40
0.0
 40
0.0
 40
0.5
 40
0.5
 40
0.75
 40
0.75
 40
1.0
 40
1.0
 40
1.0
 40
1.0
 10
7.05610777062655
 20
-82.18873681119325
 30
0.0
 10
7.34275763360843
 20
-82.00267888215646
 30
0.0
 10
7.605977856063839
 20
-81.79172507086248
 30
0.0
 10
7.972900525425819
 20
-81.44618783271913
 30
0.0
 10
8.09046517779148
 20
-81.32605785427945
 30
0.0
 10
8.31646746107576
 20
-81.07636043090051
 30
0.0
 10
8.42596021068577
 20
-80.94532664557548
 30
0.0
 10
8.527255226474457
 20
-80.81443155390545
 30
0.0
  0
SPLINE
  5
344
330
2BA
100
AcDbEntity
  8
0
  6
Continuous
 62
     7
370
    25
100
AcDbSpline
210
0.0
220
0.0
230
1.0
 70
     8
 71
     3
 72
    24
 73
    20
 74
     0
 42
0.000000001
 43
0.00000001
 40
0.0
 40
0.0
 40
0.0
 40
0.0
 40
0.1249999999999983
 40
0.1249999999999983
 40
0.2499999999999965
 40
0.2499999999999965
 40
0.4999999999999957
 40
0.4999999999999957
 40
0.624999999999996
 40
0.624999999999996
 40
0.7499999999999963
 40
0.7499999999999963
 40
0.8124999999999973
 40
0.8124999999999973
 40
0.8749999999999982
 40
0.8749999999999982
 40
0.9374999999999991
 40
0.9374999999999991
 40
1.0
 40
1.0
 40
1.0
 40
1.0
 10
18.32354487721408
 20
-98.43236428829258
 30
0.0
 10
17.83530988205003
 20
-98.4895915015432
 30
0.0
 10
17.35464972090714
 20
-98.53405643851495
 30
0.0
 10
16.40534120725016
 20
-98.60676436397166
 30
0.0
 10
15.93671938235214
 20
-98.63488742204648
 30
0.0
 10
14.54618392085559
 20
-98.70035316547089
 30
0.0
 10
13.65353602654012
 20
-98.71969118024221
 30
0.0
 10
12.35973743534235
 20
-98.7083175824477
 30
0.0
 10
11.93532323015895
 20
-98.69748375711049
 30
0.0
 10
11.10482563123689
 20
-98.65374455642743
 30
0.0
 10
10.7002582182715
 20
-98.62153003288772
 30
0.0
 10
10.1148008008797
 20
-98.5408574252561
 30
0.0
 10
9.922748657184698
 20
-98.50836058893884
 30
0.0
 10
9.55109953535474
 20
-98.42539813080248
 30
0.0
 10
9.371863380702214
 20
-98.37543209714835
 30
0.0
 10
9.035484694847323
 20
-98.2425438107294
 30
0.0
 10
8.875332645667443
 20
-98.1595057489303
 30
0.0
 10
8.620478160544016
 20
-97.92278561695572
 30
0.0
 10
8.52725522647446
 20
-97.76177219446369
 30
0.0
 10
8.527255226474455
 20
-97.55584623286148
 30
0.0
  0
LWPOLYLINE
  5
347
330
2BA
100
AcDbEntity
  8
0
  6
Continuous
 62
     7
370
    25
100
AcDbPolyline
 90
       15
 70
   128
 43
0.0
 10
61.8718433538
 20
107.5601763319
 10
59.984833847
 20
108.504101228
 10
57.8843319507
 20
109.2833880305
 10
55.613097826
 20
109.8821727074
 10
53.2173672502
 20
110.2882657294
 10
50.745910389
 20
110.4934002137
 10
48.2490389771
 20
110.4934002137
 10
45.7775821159
 20
110.2882657294
 10
43.3818515401
 20
109.8821727074
 10
41.1106174155
 20
109.2833880305
 10
39.0101155191
 20
108.504101228
 10
37.1231060123
 20
107.5601763319
 10
35.4880029669
 20
106.470828931
 10
34.1380923656
 20
105.258234997
 10
33.6485771386
 20
104.7003153892
  0
LWPOLYLINE
  5
34D
330
2BA
100
AcDbEntity
  8
0
  6
Continuous
 62
     8
370
    25
100
AcDbPolyline
 90
       10
 70
   128
 43
0.0
 10
-344.7145558284
 20
7.95944829
 10
-347.5147793693
 20
9.7327023197
 10
-350.019637032
 20
11.6475469596
 10
-352.2077582541
 20
13.6876454305
 10
-354.060474757
 20
15.8355923316
 10
-355.5619798166
 20
18.0730621371
 10
-356.6994631213
 20
20.3809655438
 10
-357.4632200644
 20
22.7396123333
 10
-357.8467345412
 20
25.128879363
 10
-357.894750675
 20
26.328630806
  0
LWPOLYLINE
  5
34F
330
2BA
100
AcDbEntity
  8
0
  6
Continuous
 62
     8
370
    25
100
AcDbPolyline
 90
       18
 70
   128
 43
0.0
 10
203.2931995911
 20
34.0847732685
 10
201.4061900843
 20
35.0286981646
 10
199.305688188
 20
35.8079849671
 10
197.0344540634
 20
36.406769644
 10
194.6387234875
 20
36.812862666
 10
192.1672666264
 20
37.0179971503
 10
189.6703952144
 20
37.0179971503
 10
187.1989383532
 20
36.812862666
 10
184.8032077774
 20
36.406769644
 10
182.5319736528
 20
35.8079849671
 10
180.4314717564
 20
35.0286981646
 10
178.5444622496
 20
34.0847732685
 10
176.9093592042
 20
32.9954258676
 10
175.5594486029
 20
31.7828319336
 10
174.5222107329
 20
30.4716763822
 10
173.8187607659
 20
29.0886505593
 10
173.4634189147
 20
27.6619088824
 10
173.4201820517
 20
27.0667378429
  0
LWPOLYLINE
  5
350
330
2BA
100
AcDbEntity
  8
0
  6
Continuous
 62
     8
370
    25
100
AcDbPolyline
 90
        7
 70
   128
 43
0.0
 10
208.4181061472
 20
26.8492583955
 10
208.374242926
 20
27.6619088824
 10
208.0189010749
 20
29.0886505593
 10
207.3154511079
 20
30.4716763822
 10
206.2782132378
 20
31.7828319336
 10
204.9283026365
 20
32.9954258676
 10
203.2931995911
 20
34.0847732685
  0
LWPOLYLINE
  5
351
330
2BA
100
AcDbEntity
  8
0
  6
Continuous
 62
     8
370
    25
100
AcDbPolyline
 90
       10
 70
   128
 43
0.0
 10
-357.894750675
 20
-16.131491412
 10
-357.8467345412
 20
-17.331242855
 10
-357.4632200644
 20
-19.7205098847
 10
-356.6994631213
 20
-22.0791566743
 10
-355.5619798166
 20
-24.3870600809
 10
-354.060474757
 20
-26.6245298865
 10
-352.2077582541
 20
-28.7724767875
 10
-350.019637032
 20
-30.8125752584
 10
-347.5147793693
 20
-32.7274198984
 10
-344.7145558284
 20
-34.500673928
  0
LWPOLYLINE
  5
354
330
2BA
100
AcDbEntity
  8
0
  6
Continuous
 62
     8
370
    25
100
AcDbPolyline
 90
       20
 70
   128
 43
0.0
 10
30.0520382004
 20
-77.7305796281
 10
27.9325443309
 20
-76.6518683521
 10
25.5955674781
 20
-75.7350154881
 10
23.077963163
 20
-74.9944803534
 10
20.4194355096
 20
-74.4419416295
 10
17.6619110871
 20
-74.0861131822
 10
14.848877703
 20
-73.9326066385
 10
12.0246985741
 20
-73.9838428884
 10
9.2339126923
 20
-74.2390139056
 10
6.5205324182
 20
-74.6940954908
 10
3.9273493796
 20
-75.3419107355
 10
1.4952596221
 20
-76.1722432063
 10
-0.7373813461
 20
-77.1719980641
 10
-2.735363443
 20
-78.3254085776
 10
-4.4671772974
 20
-79.614284774
 10
-5.9055111705
 20
-81.0183003057
 10
-7.0276816777
 20
-82.5153130091
 10
-7.8159915199
 20
-84.0817140996
 10
-8.2580085798
 20
-85.6928004962
 10
-8.3578643763
 20
-86.9151708861
  0
LWPOLYLINE
  5
355
330
2BA
100
AcDbEntity
  8
0
  6
Continuous
 62
     8
370
    25
100
AcDbPolyline
 90
        8
 70
   128
 43
0.0
 10
36.6421295003
 20
-86.9055879732
 10
36.631033232
 20
-86.5071773681
 10
36.3651232871
 20
-84.8832477617
 10
35.7487435515
 20
-83.2913627969
 10
34.7916147016
 20
-81.7566274503
 10
33.5088312313
 20
-80.3032454153
 10
31.9206234022
 20
-78.9541373948
 10
30.0520382004
 20
-77.7305796281
  0
LWPOLYLINE
  5
356
330
2BA
100
AcDbEntity
  8
0
  6
Continuous
 62
     8
370
    25
100
AcDbPolyline
 90
       16
 70
   128
 43
0.0
 10
7.7864853326
 20
-76.1360055989
 10
10.5512357819
 20
-75.7735179168
 10
13.3730017229
 20
-75.6146227718
 10
16.2069797971
 20
-75.661843065
 10
19.0081727448
 20
-75.9144290432
 10
21.732103861
 20
-76.3683702038
 10
24.3355231865
 20
-77.016458972
 10
26.777094221
 20
-77.8484051418
 10
29.0180502545
 20
-78.8509992609
 10
31.0228098963
 20
-80.0083223679
 10
32.7595420286
 20
-81.3019987493
 10
34.2006712132
 20
-82.7114877057
 10
35.3233155285
 20
-84.2144096917
 10
36.1096498831
 20
-85.7869016537
 10
36.547189039
 20
-87.4039959216
 10
36.6421356237
 20
-88.5960050902
  0
SPLINE
  5
357
330
2BA
100
AcDbEntity
  8
0
  6
Continuous
 62
     8
370
    25
100
AcDbSpline
210
0.0
220
0.0
230
1.0
 70
     8
 71
     3
 72
    19
 73
    15
 74
     0
 42
0.000000001
 43
0.00000001
 40
0.0
 40
0.0
 40
0.0
 40
0.0
 40
0.0565618718743404
 40
0.1644104209411675
 40
0.2236433396479279
 40
0.2828762583546884
 40
0.3401444440443075
 40
0.4479929931111346
 40
0.5558415421779586
 40
0.6636900912447884
 40
0.7715386403116143
 40
0.879387189378441
 40
0.9872357384452674
 40
1.0
 40
1.0
 40
1.0
 40
1.0
 10
77.76835728187717
 20
37.9054699521556
 30
0.0
 10
77.46287000555114
 20
37.75311040674622
 30
0.0
 10
76.57489918654224
 20
37.31024145342005
 30
0.0
 10
75.93584149719284
 20
35.85089635179896
 30
0.0
 10
75.64248032527632
 20
34.13387387558975
 30
0.0
 10
75.65946041137353
 20
32.62331045362263
 30
0.0
 10
75.97852420685926
 20
30.56621092119752
 30
0.0
 10
76.87107374952512
 20
27.92680232806327
 30
0.0
 10
78.59055197249032
 20
24.96760581484875
 30
0.0
 10
80.77266939280938
 20
22.51180798499383
 30
0.0
 10
83.19168977630957
 20
20.80636433128623
 30
0.0
 10
85.49880538278549
 20
20.16274078745953
 30
0.0
 10
87.0657841903779
 20
20.19375131338303
 30
0.0
 10
87.60157672927545
 20
20.70014712225055
 30
0.0
 10
87.65827879989563
 20
20.75373818377457
 30
0.0
  0
SPLINE
  5
358
330
2BA
100
AcDbEntity
  8
0
  6
Continuous
 62
     8
370
    25
100
AcDbSpline
210
0.0
220
0.0
230
1.0
 70
     8
 71
     3
 72
    13
 73
     9
 74
     0
 42
0.000000001
 43
0.00000001
 40
0.0
 40
0.0
 40
0.0
 40
0.0
 40
0.0797874040633399
 40
0.1127085505981256
 40
0.2881172237992768
 40
0.3119299983608096
 40
0.5297942069575723
 40
1.0
 40
1.0
 40
1.0
 40
1.0
 10
7.786485332582504
 20
-76.13600559888582
 30
0.0
 10
7.799783891549695
 20
-76.25648944787886
 30
0.0
 10
7.818569579890255
 20
-76.42668623708273
 30
0.0
 10
8.004908324125937
 20
-76.76768515482996
 30
0.0
 10
8.256630699636775
 20
-76.94872716894409
 30
0.0
 10
8.756694048385699
 20
-77.1801348125485
 30
0.0
 10
9.708986566302073
 20
-77.43493597826436
 30
0.0
 10
10.77044607341387
 20
-77.3594441803159
 30
0.0
 10
11.49581472505529
 20
-77.30785541661741
 30
0.0
  0
LWPOLYLINE
  5
359
330
2BA
100
AcDbEntity
  8
0
  6
Continuous
 62
     8
370
    25
100
AcDbPolyline
 90
       18
 70
   128
 43
0.0
 10
132.5825214725
 20
74.9051788596
 10
130.6955119657
 20
75.8491037557
 10
128.5950100693
 20
76.6283905582
 10
126.3237759447
 20
77.2271752351
 10
123.9280453689
 20
77.6332682571
 10
121.4565885077
 20
77.8384027414
 10
118.9597170957
 20
77.8384027414
 10
116.4882602345
 20
77.6332682571
 10
114.0925296587
 20
77.2271752351
 10
111.8212955341
 20
76.6283905582
 10
109.7207936378
 20
75.8491037557
 10
107.8337841309
 20
74.9051788596
 10
106.1986810855
 20
73.8158314587
 10
104.8487704843
 20
72.6032375248
 10
103.8115326142
 20
71.2920819733
 10
103.1080826472
 20
69.9090561505
 10
102.752740796
 20
68.4823144736
 10
102.7095039331
 20
67.887143434
  0
LWPOLYLINE
  5
35A
330
2BA
100
AcDbEntity
  8
0
  6
Continuous
 62
     8
370
    25
100
AcDbPolyline
 90
        7
 70
   128
 43
0.0
 10
137.7074280285
 20
67.6696639866
 10
137.6635648074
 20
68.4823144736
 10
137.3082229562
 20
69.9090561505
 10
136.6047729892
 20
71.2920819733
 10
135.5675351191
 20
72.6032375248
 10
134.2176245179
 20
73.8158314587
 10
132.5825214725
 20
74.9051788596
  0
LWPOLYLINE
  5
35C
330
2BA
100
AcDbEntity
  8
0
  6
Continuous
 62
     8
370
    25
100
AcDbPolyline
 90
       16
 70
   128
 43
0.0
 10
103.7599664929
 20
64.6788914935
 10
103.8115326142
 20
64.7597554783
 10
104.8487704843
 20
66.0709110297
 10
106.1986810855
 20
67.2835049636
 10
107.8337841309
 20
68.3728523645
 10
109.7207936378
 20
69.3167772606
 10
111.8212955341
 20
70.0960640631
 10
114.0925296587
 20
70.69484874
 10
116.4882602345
 20
71.1009417621
 10
118.9597170957
 20
71.3060762463
 10
121.4565885077
 20
71.3060762463
 10
123.9280453689
 20
71.1009417621
 10
126.3237759447
 20
70.69484874
 10
128.5950100693
 20
70.0960640631
 10
130.6955119657
 20
69.3167772606
 10
132.5825214725
 20
68.3728523645
  0
LWPOLYLINE
  5
361
330
2BA
100
AcDbEntity
  8
0
  6
Continuous
 62
     8
370
    25
100
AcDbPolyline
 90
       18
 70
   128
 43
0.0
 10
61.8718433538
 20
115.7255844507
 10
59.984833847
 20
116.6695093469
 10
57.8843319507
 20
117.4487961494
 10
55.613097826
 20
118.0475808263
 10
53.2173672502
 20
118.4536738483
 10
50.745910389
 20
118.6588083326
 10
48.2490389771
 20
118.6588083326
 10
45.7775821159
 20
118.4536738483
 10
43.3818515401
 20
118.0475808263
 10
41.1106174155
 20
117.4487961494
 10
39.0101155191
 20
116.6695093469
 10
37.1231060123
 20
115.7255844507
 10
35.4880029669
 20
114.6362370499
 10
34.1380923656
 20
113.4236431159
 10
33.1008544956
 20
112.1124875645
 10
32.3974045286
 20
110.7294617416
 10
32.0420626774
 20
109.3027200647
 10
31.9988258144
 20
108.7075490252
  0
LWPOLYLINE
  5
362
330
2BA
100
AcDbEntity
  8
0
  6
Continuous
 62
     8
370
    25
100
AcDbPolyline
 90
        7
 70
   128
 43
0.0
 10
66.9967499099
 20
108.4900695778
 10
66.9528866887
 20
109.3027200647
 10
66.5975448376
 20
110.7294617416
 10
65.8940948706
 20
112.1124875645
 10
64.8568570005
 20
113.4236431159
 10
63.5069463992
 20
114.6362370499
 10
61.8718433538
 20
115.7255844507
  0
LINE
  5
363
330
2BA
100
AcDbEntity
  8
0
  6
Continuous
 62
     7
370
    25
100
AcDbLine
 10
82.2564571299
 20
-246.5571419483
 30
0.0
 11
375.7057713224
 21
-77.1524587451
 31
0.0
  0
LINE
  5
364
330
2BA
100
AcDbEntity
  8
0
  6
Continuous
 62
     7
370
    25
100
AcDbLine
 10
-343.885966169
 20
-36.3320531539
 30
0.0
 11
20.2740261421
 21
-246.5571419483
 31
0.0
  0
LINE
  5
365
330
2BA
100
AcDbEntity
  8
0
  6
Continuous
 62
     7
370
    25
100
AcDbLine
 10
229.4362844471
 20
-161.5920361712
 30
0.0
 11
323.9992221102
 21
-115.5020478007
 31
0.0
  0
LINE
  5
366
330
2BA
100
AcDbEntity
  8
0
  6
Continuous
 62
     7
370
    25
100
AcDbLine
 10
374.8771816629
 20
-30.5512434465
 30
0.0
 11
-51.265241636
 21
215.4555411224
 31
0.0
  0
LINE
  5
367
330
2BA
100
AcDbEntity
  8
0
  6
Continuous
 62
     7
370
    25
100
AcDbLine
 10
-357.894750675
 20
26.328630806
 30
0.0
 11
-357.894750675
 21
-16.131491412
 31
0.0
  0
LINE
  5
368
330
2BA
100
AcDbEntity
  8
0
  6
Continuous
 62
     7
370
    25
100
AcDbLine
 10
-51.265241636
 20
215.4555411224
 30
0.0
 11
-343.885966169
 21
46.5291925479
 31
0.0
  0
LINE
  5
369
330
2BA
100
AcDbEntity
  8
0
  6
Continuous
 62
     7
370
    25
100
AcDbLine
 10
5.8072279908
 20
-82.8266266721
 30
0.0
 11
6.3727255776
 21
-82.5595369314
 31
0.0
  0
LINE
  5
36A
330
2BA
100
AcDbEntity
  8
0
  6
Continuous
 62
     7
370
    25
100
AcDbLine
 10
80.2566196647
 20
-197.3666610331
 30
0.0
 11
370.8775067323
 21
-29.5947940536
 31
0.0
  0
LINE
  5
36B
330
2BA
100
AcDbEntity
  8
0
  6
Continuous
 62
     7
370
    25
100
AcDbLine
 10
-341.8861287037
 20
12.8584277612
 30
0.0
 11
22.2738636074
 21
-197.3666610331
 31
0.0
  0
LINE
  5
36C
330
2BA
100
AcDbEntity
  8
0
  6
Continuous
 62
     7
370
    25
100
AcDbLine
 10
-51.265241636
 20
214.1030273255
 30
0.0
 11
-341.8861287037
 21
46.3311603459
 31
0.0
  0
LINE
  5
36D
330
2BA
100
AcDbEntity
  8
0
  6
Continuous
 62
     7
370
    25
100
AcDbLine
 10
370.8775067323
 20
-29.5947940536
 30
0.0
 11
-51.265241636
 21
214.1030273255
 31
0.0
  0
LINE
  5
36E
330
2BA
100
AcDbEntity
  8
0
  6
Continuous
 62
     7
370
    25
100
AcDbLine
 10
19.4454364826
 20
-244.7257627224
 30
0.0
 11
19.4454364826
 21
-202.2656405043
 31
0.0
  0
LINE
  5
36F
330
2BA
100
AcDbEntity
  8
0
  6
Continuous
 62
     7
370
    25
100
AcDbLine
 10
83.0850467894
 20
-244.7257627224
 30
0.0
 11
83.0850467894
 21
-202.2656405043
 31
0.0
  0
LINE
  5
370
330
2BA
100
AcDbEntity
  8
0
  6
Continuous
 62
     7
370
    25
100
AcDbLine
 10
260.7616961613
 20
-59.9137533644
 30
0.0
 11
-98.1271364884
 21
147.2683597289
 31
0.0
  0
LINE
  5
371
330
2BA
100
AcDbEntity
  8
0
  6
Continuous
 62
     7
370
    25
100
AcDbLine
 10
77.3636425898
 20
-195.6967211713
 30
0.0
 11
262.5853054516
 21
-88.7705311891
 31
0.0
  0
LINE
  5
372
330
2BA
100
AcDbEntity
  8
0
  6
Continuous
 62
     7
370
    25
100
AcDbLine
 10
-337.6171503651
 20
13.7827037475
 30
0.0
 11
25.2560750554
 21
-195.6995503326
 31
0.0
  0
LINE
  5
373
330
2BA
100
AcDbEntity
  8
0
  6
Continuous
 62
     7
370
    25
100
AcDbLine
 10
-152.2766475812
 20
150.7241765084
 30
0.0
 11
-337.4983104428
 21
43.7979865263
 31
0.0
  0
LINE
  5
374
330
2BA
100
AcDbEntity
  8
0
  6
Continuous
 62
     7
370
    25
100
AcDbLine
 10
-180.6751731076
 20
-46.7481897093
 30
0.0
 11
-58.8872449933
 21
23.5584846714
 31
0.0
  0
LINE
  5
375
330
2BA
100
AcDbEntity
  8
0
  6
Continuous
 62
     7
370
    25
100
AcDbLine
 10
42.0419460318
 20
-191.9562394595
 30
0.0
 11
-180.3780732999
 21
-63.5558953775
 31
0.0
  0
LINE
  5
376
330
2BA
100
AcDbEntity
  8
0
  6
Continuous
 62
     7
370
    25
100
AcDbLine
 10
192.6599811376
 20
-121.6566379832
 30
0.0
 11
70.8720530234
 21
-191.9633123639
 31
0.0
  0
LINE
  5
377
330
2BA
100
AcDbEntity
  8
0
  6
Continuous
 62
     7
370
    25
100
AcDbLine
 10
-34.873220793
 20
32.3647335157
 30
0.0
 11
197.507780466
 21
-101.7859630332
 31
0.0
  0
LINE
  5
378
330
2BA
100
AcDbEntity
  8
0
  6
Continuous
 62
     7
370
    25
100
AcDbLine
 10
376.5343609818
 20
-32.8609573011
 30
0.0
 11
83.0850467894
 21
-202.2656405043
 31
0.0
  0
LINE
  5
379
330
2BA
100
AcDbEntity
  8
0
  6
Continuous
 62
     7
370
    25
100
AcDbLine
 10
19.4454364826
 20
-202.2656405043
 30
0.0
 11
-344.7145558284
 21
7.95944829
 31
0.0
  0
LINE
  5
37A
330
2BA
100
AcDbEntity
  8
0
  6
Continuous
 62
     7
370
    25
100
AcDbLine
 10
83.0850467894
 20
-244.7257627224
 30
0.0
 11
376.5343609818
 21
-75.3210795192
 31
0.0
  0
LINE
  5
37B
330
2BA
100
AcDbEntity
  8
0
  6
Continuous
 62
     7
370
    25
100
AcDbLine
 10
376.5343609818
 20
-75.3210795192
 30
0.0
 11
376.5343609818
 21
-32.8609573011
 31
0.0
  0
LINE
  5
37C
330
2BA
100
AcDbEntity
  8
0
  6
Continuous
 62
     7
370
    25
100
AcDbLine
 10
-344.7145558284
 20
-34.500673928
 30
0.0
 11
19.4454364826
 21
-244.7257627224
 31
0.0
  0
LINE
  5
37D
330
2BA
100
AcDbEntity
  8
0
  6
Continuous
 62
     7
370
    25
100
AcDbLine
 10
-344.7145558284
 20
-34.500673928
 30
0.0
 11
-344.7145558284
 21
7.95944829
 31
0.0
  0
LINE
  5
37E
330
2BA
100
AcDbEntity
  8
0
  6
Continuous
 62
     7
370
    25
100
AcDbLine
 10
326.2063041393
 20
-111.9982667142
 30
0.0
 11
327.2092692983
 21
-105.1488934427
 31
0.0
  0
LINE
  5
37F
330
2BA
100
AcDbEntity
  8
0
  6
Continuous
 62
     7
370
    25
100
AcDbLine
 10
-174.1401589344
 20
-63.8052059083
 30
0.0
 11
45.0629432327
 21
-190.3484632404
 31
0.0
  0
LINE
  5
380
330
2BA
100
AcDbEntity
  8
0
  6
Continuous
 62
     7
370
    25
100
AcDbLine
 10
183.8477631085
 20
-110.229692103
 30
0.0
 11
-35.3553390563
 21
16.3135652278
 31
0.0
  0
LINE
  5
381
330
2BA
100
AcDbEntity
  8
0
  6
Continuous
 62
     7
370
    25
100
AcDbLine
 10
-51.265241636
 20
214.1030273255
 30
0.0
 11
-51.265241636
 21
215.4555411224
 31
0.0
  0
LINE
  5
382
330
2BA
100
AcDbEntity
  8
0
  6
Continuous
 62
     7
370
    25
100
AcDbLine
 10
-357.894750675
 20
26.328630806
 30
0.0
 11
-357.8938914193
 21
26.4891669104
 31
0.0
  0
LINE
  5
383
330
2BA
100
AcDbEntity
  8
0
  6
Continuous
 62
     7
370
    25
100
AcDbLine
 10
173.4201820517
 20
27.0667378429
 30
0.0
 11
173.4188309204
 21
26.94120229
 31
0.0
  0
LINE
  5
384
330
2BA
100
AcDbEntity
  8
0
  6
Continuous
 62
     7
370
    25
100
AcDbLine
 10
7.623975341
 20
-77.9548883575
 30
0.0
 11
7.623975341
 21
-81.2410589985
 31
0.0
  0
LINE
  5
385
330
2BA
100
AcDbEntity
  8
0
  6
Continuous
 62
     7
370
    25
100
AcDbLine
 10
8.5272552265
 20
-80.8144315539
 30
0.0
 11
8.5272552265
 21
-97.5558462329
 31
0.0
  0
LINE
  5
386
330
2BA
100
AcDbEntity
  8
0
  6
Continuous
 62
     7
370
    25
100
AcDbLine
 10
7.623975341
 20
-81.2410589985
 30
0.0
 11
8.5272552265
 21
-80.8144315539
 31
0.0
  0
LINE
  5
387
330
2BA
100
AcDbEntity
  8
0
  6
Continuous
 62
     7
370
    25
100
AcDbLine
 10
-8.3578643763
 20
-86.9151708861
 30
0.0
 11
-8.3530881593
 21
-87.182790257
 31
0.0
  0
LINE
  5
388
330
2BA
100
AcDbEntity
  8
0
  6
Continuous
 62
     7
370
    25
100
AcDbLine
 10
6.8573025007
 20
-82.1733491285
 30
0.0
 11
6.8573025007
 21
-78.2308652671
 31
0.0
  0
LINE
  5
389
330
2BA
100
AcDbEntity
  8
0
  6
Continuous
 62
     7
370
    25
100
AcDbLine
 10
7.0561077706
 20
-82.1887368112
 30
0.0
 11
6.3593568803
 21
-82.5326554327
 31
0.0
  0
LINE
  5
38A
330
2BA
100
AcDbEntity
  8
0
  6
Continuous
 62
     7
370
    25
100
AcDbLine
 10
7.0561077706
 20
-98.0951813249
 30
0.0
 11
7.0561077706
 21
-82.1887368112
 31
0.0
  0
LINE
  5
38B
330
2BA
100
AcDbEntity
  8
0
  6
Continuous
 62
     7
370
    25
100
AcDbLine
 10
102.7095039331
 20
67.887143434
 30
0.0
 11
102.7081528017
 21
67.7616078812
 31
0.0
  0
LINE
  5
38C
330
2BA
100
AcDbEntity
  8
0
  6
Continuous
 62
     7
370
    25
100
AcDbLine
 10
31.9988258144
 20
108.7075490252
 30
0.0
 11
31.9974746831
 21
108.5820134723
 31
0.0
  0
LINE
  5
38D
330
2BA
100
AcDbEntity
  8
0
  6
Continuous
 62
     8
370
    25
100
AcDbLine
 10
256.448348077
 20
-145.9983037596
 30
0.0
 11
326.2063041393
 21
-111.9982667142
 31
0.0
  0
LINE
  5
38E
330
2BA
100
AcDbEntity
  8
0
  6
Continuous
 62
     8
370
    25
100
AcDbLine
 10
84.4992603518
 20
27.4188061099
 30
0.0
 11
84.4992603518
 21
35.2171194381
 31
0.0
  0
LINE
  5
38F
330
2BA
100
AcDbEntity
  8
0
  6
Continuous
 62
     8
370
    25
100
AcDbLine
 10
8.5272552265
 20
-97.5558462329
 30
0.0
 11
33.5416043233
 21
-83.1153698735
 31
0.0
  0
LINE
  5
390
330
2BA
100
AcDbEntity
  8
0
  6
Continuous
 62
     8
370
    25
100
AcDbLine
 10
87.3276874765
 20
31.2290750424
 30
0.0
 11
87.3276874765
 21
24.7329622523
 31
0.0
  0
LINE
  5
391
330
2BA
100
AcDbEntity
  8
0
  6
Continuous
 62
     8
370
    25
100
AcDbLine
 10
18.3235448772
 20
-98.4323642883
 30
0.0
 11
19.969411682
 21
-98.613213619
 31
0.0
  0
LINE
  5
392
330
2BA
100
AcDbEntity
  8
0
  6
Continuous
 62
     8
370
    25
100
AcDbLine
 10
18.3235448772
 20
-98.4323642883
 30
0.0
 11
18.2442824556
 21
-98.793429291
 31
0.0
  0
LINE
  5
393
330
2BA
100
AcDbEntity
  8
0
  6
Continuous
 62
     8
370
    25
100
AcDbLine
 10
36.5626063167
 20
-87.9031782393
 30
0.0
 11
18.3235448772
 21
-98.4323642883
 31
0.0
  0
ARC
  5
394
330
2BA
100
AcDbEntity
  8
0
  6
Continuous
 62
     7
370
    25
100
AcDbCircle
 10
76.9441823839
 20
-202.5450839134
 30
0.0
 40
6.14721923028836
100
AcDbArc
 50
2.6054784857
 51
57.39452166
  0
ARC
  5
395
330
2BA
100
AcDbEntity
  8
0
  6
Continuous
 62
     7
370
    25
100
AcDbCircle
 10
25.5863008881
 20
-202.5450839134
 30
0.0
 40
6.147219230288152
100
AcDbArc
 50
122.60547834
 51
177.3945215143
  0
ARC
  5
396
330
2BA
100
AcDbEntity
  8
0
  6
Continuous
 62
     7
370
    25
100
AcDbCircle
 10
77.2795837612
 20
-197.9944203603
 30
0.0
 40
1.992737277277957
100
AcDbArc
 50
53.3874225301
 51
108.9688251945
  0
ARC
  5
397
330
2BA
100
AcDbEntity
  8
0
  6
Continuous
 62
     7
370
    25
100
AcDbCircle
 10
25.3026136524
 20
-198.0196129402
 30
0.0
 40
2.046689253682064
100
AcDbArc
 50
73.4089426179
 51
125.9800315913
  0
ARC
  5
398
330
2BA
100
AcDbEntity
  8
0
  6
Continuous
 62
     7
370
    25
100
AcDbCircle
 10
-338.9419758742
 20
12.0583812344
 30
0.0
 40
2.212160805883099
100
AcDbArc
 50
72.396859696
 51
123.0436932074
  0
ARC
  5
399
330
2BA
100
AcDbEntity
  8
0
  6
Continuous
 62
     7
370
    25
100
AcDbCircle
 10
-338.573691423
 20
7.680004881
 30
0.0
 40
6.147219230288286
100
AcDbArc
 50
122.60547834
 51
177.3945215143
  0
ARC
  5
39A
330
2BA
100
AcDbEntity
  8
0
  6
Continuous
 62
     7
370
    25
100
AcDbCircle
 10
263.3129844903
 20
-90.7077618784
 30
0.0
 40
2.069391100533686
100
AcDbArc
 50
54.9682941648
 51
110.5876089512
  0
ARC
  5
39B
330
2BA
100
AcDbEntity
  8
0
  6
Continuous
 62
     7
370
    25
100
AcDbCircle
 10
374.6316187581
 20
-75.5633356335
 30
0.0
 40
1.918102185779275
100
AcDbArc
 50
304.0563508338
 51
7.2558295596
  0
ARC
  5
39C
330
2BA
100
AcDbEntity
  8
0
  6
Continuous
 62
     7
370
    25
100
AcDbCircle
 10
269.0240913984
 20
-61.8912047259
 30
0.0
 40
5.779125708244996
100
AcDbArc
 50
117.5294084555
 51
173.2814604654
  0
ARC
  5
39D
330
2BA
100
AcDbEntity
  8
0
  6
Continuous
 62
     7
370
    25
100
AcDbCircle
 10
321.8564417999
 20
-111.7052528299
 30
0.0
 40
4.359720118083675
100
AcDbArc
 50
299.4388860658
 51
356.1462838461
  0
ARC
  5
39E
330
2BA
100
AcDbEntity
  8
0
  6
Continuous
 62
     7
370
    25
100
AcDbCircle
 10
42.0600845539
 20
-185.9979780569
 30
0.0
 40
5.286197269933655
100
AcDbArc
 50
252.0789340087
 51
304.6148099478
  0
ARC
  5
39F
330
2BA
100
AcDbEntity
  8
0
  6
Continuous
 62
     7
370
    25
100
AcDbCircle
 10
70.92140688
 20
-186.0415438472
 30
0.0
 40
5.173477751334277
100
AcDbArc
 50
234.9682941648
 51
290.5876089512
  0
ARC
  5
3A0
330
2BA
100
AcDbEntity
  8
0
  6
Continuous
 62
     7
370
    25
100
AcDbCircle
 10
-94.12629254
 20
148.4556283094
 30
0.0
 40
6.771777573608044
100
AcDbArc
 50
128.4045866653
 51
175.3042580402
  0
ARC
  5
3A1
330
2BA
100
AcDbEntity
  8
0
  6
Continuous
 62
     7
370
    25
100
AcDbCircle
 10
191.1280069523
 20
-116.3436690545
 30
0.0
 40
5.423959092153631
100
AcDbArc
 50
236.7677976022
 51
291.3041792252
  0
ARC
  5
3A2
330
2BA
100
AcDbEntity
  8
0
  6
Continuous
 62
     7
370
    25
100
AcDbCircle
 10
-177.1430176132
 20
-59.4547207248
 30
0.0
 40
5.286197269933394
100
AcDbArc
 50
252.0789340087
 51
304.6148099478
  0
ARC
  5
3A3
330
2BA
100
AcDbEntity
  8
0
  6
Continuous
 62
     7
370
    25
100
AcDbCircle
 10
175.5666699067
 20
-97.2836349024
 30
0.0
 40
15.36804807572044
100
AcDbArc
 50
302.60547834
 51
357.3945215143
  0
ARC
  5
3A4
330
2BA
100
AcDbEntity
  8
0
  6
Continuous
 62
     7
370
    25
100
AcDbCircle
 10
-343.0380807262
 20
40.453138247
 30
0.0
 40
5.614082946137786
100
AcDbArc
 50
31.6959153146
 51
59.6662589066
  0
ARC
  5
3A5
330
2BA
100
AcDbEntity
  8
0
  6
Continuous
 62
     7
370
    25
100
AcDbCircle
 10
197.4335468518
 20
15.2611913441
 30
0.0
 40
12.16273814133985
100
AcDbArc
 50
39.7675003487
 51
61.1988767272
  0
ARC
  5
3A6
330
2BA
100
AcDbEntity
  8
0
  6
Continuous
 62
     7
370
    25
100
AcDbCircle
 10
-43.6364322581
 20
29.2596224284
 30
0.0
 40
15.36804807572057
100
AcDbArc
 50
302.60547834
 51
357.3945215143
  0
ARC
  5
3A7
330
2BA
100
AcDbEntity
  8
0
  6
Continuous
 62
     7
370
    25
100
AcDbCircle
 10
8.6858623679
 20
-107.9674296863
 30
0.0
 40
24.8171835664727
100
AcDbArc
 50
105.8178305814
 51
114.1291948194
  0
ARC
  5
3A8
330
2BA
100
AcDbEntity
  8
0
  6
Continuous
 62
     7
370
    25
100
AcDbCircle
 10
2.8228543007
 20
-96.6956597779
 30
0.0
 40
12.15622239360054
100
AcDbArc
 50
110.6255837944
 51
147.9015172818
  0
ARC
  5
3A9
330
2BA
100
AcDbEntity
  8
0
  6
Continuous
 62
     7
370
    25
100
AcDbCircle
 10
2.8267741091
 20
-95.651445816
 30
0.0
 40
11.18649139648093
100
AcDbArc
 50
112.5287242886
 51
154.0046757869
  0
ARC
  5
3AA
330
2BA
100
AcDbEntity
  8
0
  6
Continuous
 62
     7
370
    25
100
AcDbCircle
 10
-157.194298913
 20
147.8560883466
 30
0.0
 40
5.6929100049796
100
AcDbArc
 50
30.2517272243
 51
58.1743166672
  0
ARC
  5
3AB
330
2BA
100
AcDbEntity
  8
0
  6
Continuous
 62
     7
370
    25
100
AcDbCircle
 10
-166.5124933244
 20
-38.4992775113
 30
0.0
 40
14.23227501244738
100
AcDbArc
 50
210.2517272243
 51
238.1743166672
  0
ARC
  5
3AC
330
2BA
100
AcDbEntity
  8
0
  6
Continuous
 62
     7
370
    25
100
AcDbCircle
 10
6.3988445269
 20
-75.7543445777
 30
0.0
 40
2.518598506865511
100
AcDbArc
 50
280.487965818
 51
299.1064375011
  0
ARC
  5
3AD
330
2BA
100
AcDbEntity
  8
0
  6
Continuous
 62
     7
370
    25
100
AcDbCircle
 10
3.9692579527
 20
-79.0169697062
 30
0.0
 40
4.278262774567853
100
AcDbArc
 50
312.4580923241
 51
328.677270546
  0
ARC
  5
3AE
330
2BA
100
AcDbEntity
  8
0
  6
Continuous
 62
     7
370
    25
100
AcDbCircle
 10
6.0937688974
 20
-93.1941077375
 30
0.0
 40
4.99465898894544
100
AcDbArc
 50
281.1088530768
 51
299.157873375
  0
ARC
  5
3AF
330
2BA
100
AcDbEntity
  8
0
  6
Continuous
 62
     7
370
    25
100
AcDbCircle
 10
-45.8604226712
 20
30.8288258141
 30
0.0
 40
14.41538902871688
100
AcDbArc
 50
209.0704110626
 51
236.5552792304
  0
ARC
  5
3B0
330
2BA
100
AcDbEntity
  8
0
  6
Continuous
 62
     7
370
    25
100
AcDbCircle
 10
55.9892613354
 20
96.8699541717
 30
0.0
 40
12.20186957145165
100
AcDbArc
 50
40.1256347017
 51
61.1770283065
  0
ARC
  5
3B1
330
2BA
100
AcDbEntity
  8
0
  6
Continuous
 62
     8
370
    25
100
AcDbCircle
 10
21.4481744358
 20
-244.9228242919
 30
0.0
 40
2.012409642961133
100
AcDbArc
 50
174.3804090431
 51
234.292918073
  0
ARC
  5
3B2
330
2BA
100
AcDbEntity
  8
0
  6
Continuous
 62
     8
370
    25
100
AcDbCircle
 10
81.082308807
 20
-244.9228242867
 30
0.0
 40
2.012409671564253
100
AcDbArc
 50
305.707084582
 51
5.6195907255
  0
ARC
  5
3B3
330
2BA
100
AcDbEntity
  8
0
  6
Continuous
 62
     8
370
    25
100
AcDbCircle
 10
-342.7545482187
 20
-34.7170208773
 30
0.0
 40
1.971911720320594
100
AcDbArc
 50
173.7011524869
 51
234.9866671197
  0
ARC
  5
3B4
330
2BA
100
AcDbEntity
  8
0
  6
Continuous
 62
     8
370
    25
100
AcDbCircle
 10
-343.057868435
 20
44.6954693274
 30
0.0
 40
2.012078305162267
100
AcDbArc
 50
54.3837928374
 51
114.2913892792
  0
ARC
  5
3B5
330
2BA
100
AcDbEntity
  8
0
  6
Continuous
 62
     8
370
    25
100
AcDbCircle
 10
127.3991924502
 20
58.5683605068
 30
0.0
 40
11.09030929869786
100
AcDbArc
 50
33.0408362231
 51
62.1359884697
  0
VIEWPORT
  5
3BC
330
2BA
100
AcDbEntity
  8
0
100
AcDbViewport
 10
0.0
 20
0.0
 30
0.0
 40
205.6
 41
156.0
 68
     1
 69
     1
 12
0.0
 22
0.0
 13
0.0
 23
0.0
 14
10.0
 24
10.0
 15
10.0
 25
10.0
 16
0.0
 26
0.0
 36
1.0
 17
0.0
 27
0.0
 37
0.0
 42
50.0
 43
0.0
 44
0.0
 45
469.2
 50
0.0
 51
0.0
 72
   100
 90
   557152
  1

281
     0
 71
     1
 74
     0
110
0.0
120
0.0
130
0.0
111
1.0
121
0.0
131
0.0
112
0.0
122
1.0
132
0.0
 79
     0
146
0.0
  0
ENDBLK
  5
2BD
330
2BA
100
AcDbEntity
  8
0
100
AcDbBlockEnd
  0
ENDSEC
  0
SECTION
  2
ENTITIES
  0
SPLINE
  5
73
330
1F
100
AcDbEntity
  8
0
  6
Continuous
 62
     7
370
    25
100
AcDbSpline
210
0.0
220
0.0
230
1.0
 70
     8
 71
     3
 72
     8
 73
     4
 74
     0
 42
0.000000001
 43
0.00000001
 40
0.0
 40
0.0
 40
0.0
 40
0.0
 40
1.0
 40
1.0
 40
1.0
 40
1.0
 10
-257.4999999997852
 20
-220.8902212285059
 30
0.0
 10
-257.1966250091344
 20
-220.8882156764889
 30
0.0
 10
-256.893306234177
 20
-220.8823565531556
 30
0.0
 10
-256.5901184058708
 20
-220.8726345302568
 30
0.0
  0
SPLINE
  5
75
330
1F
100
AcDbEntity
  8
0
  6
Continuous
 62
     7
370
    25
100
AcDbSpline
210
0.0
220
0.0
230
1.0
 70
     8
 71
     3
 72
     8
 73
     4
 74
     0
 42
0.000000001
 43
0.00000001
 40
0.0
 40
0.0
 40
0.0
 40
0.0
 40
1.0
 40
1.0
 40
1.0
 40
1.0
 10
256.5901184058707
 20
-220.8726345302568
 30
0.0
 10
256.8933062341945
 20
-220.8823565528686
 30
0.0
 10
257.1966250091359
 20
-220.888215676489
 30
0.0
 10
257.4999999997852
 20
-220.890221228506
 30
0.0
  0
SPLINE
  5
77
330
1F
100
AcDbEntity
  8
0
  6
Continuous
 62
     7
370
    25
100
AcDbSpline
210
0.0
220
0.0
230
1.0
 70
     8
 71
     3
 72
    25
 73
    21
 74
     0
 42
0.000000001
 43
0.00000001
 40
0.0
 40
0.0
 40
0.0
 40
0.0
 40
0.00390625
 40
0.00390625
 40
0.0078125000000001
 40
0.0156250000000001
 40
0.0312500000000002
 40
0.0625000000000002
 40
0.1250000000000003
 40
0.2500000000000003
 40
0.5000000000000002
 40
0.7500000000000001
 40
0.8750000000000001
 40
0.9375000000000001
 40
0.9687500000000001
 40
0.984375
 40
0.9921875
 40
0.99609375
 40
0.99609375
 40
1.0
 40
1.0
 40
1.0
 40
1.0
 10
257.5625112036355
 20
-223.4797139800359
 30
0.0
 10
256.8917791137068
 20
-223.4959056725509
 30
0.0
 10
256.2210424074879
 20
-223.4914501924868
 30
0.0
 10
254.8795709873604
 20
-223.4914501924868
 30
0.0
 10
252.867363857169
 20
-223.4914501924868
 30
0.0
 10
248.1722138867225
 20
-223.4914501924868
 30
0.0
 10
238.7819139458298
 20
-223.4914501924869
 30
0.0
 10
220.0013140640439
 20
-223.4914501924867
 30
0.0
 10
182.4401143004727
 20
-223.4914501924868
 30
0.0
 10
107.31771477333
 20
-223.4914501924866
 30
0.0
 10
0.000001163125996
 20
-223.4914501924868
 30
0.0
 10
-107.3177124470779
 20
-223.4914501924867
 30
0.0
 10
-182.4401119742206
 20
-223.4914501924868
 30
0.0
 10
-220.0013117377918
 20
-223.4914501924866
 30
0.0
 10
-238.7819116195778
 20
-223.4914501924867
 30
0.0
 10
-248.1722115604707
 20
-223.4914501924867
 30
0.0
 10
-252.8673615309169
 20
-223.4914501924867
 30
0.0
 10
-254.8795686611084
 20
-223.4914501924867
 30
0.0
 10
-256.2210400812358
 20
-223.4914501924867
 30
0.0
 10
-256.8917759043295
 20
-223.4959057500262
 30
0.0
 10
-257.5625112036354
 20
-223.4797139800359
 30
0.0
  0
SPLINE
  5
79
330
1F
100
AcDbEntity
  8
0
  6
Continuous
 62
     7
370
    25
100
AcDbSpline
210
0.0
220
0.0
230
1.0
 70
     8
 71
     3
 72
    36
 73
    32
 74
     0
 42
0.000000001
 43
0.00000001
 40
0.0
 40
0.0
 40
0.0
 40
0.0
 40
0.1250000000000029
 40
0.1250000000000029
 40
0.1875000000000043
 40
0.1875000000000043
 40
0.2500000000000058
 40
0.2500000000000058
 40
0.3750000000000059
 40
0.3750000000000059
 40
0.437500000000006
 40
0.437500000000006
 40
0.4687500000000061
 40
0.4687500000000061
 40
0.5000000000000061
 40
0.5000000000000061
 40
0.6250000000000042
 40
0.6250000000000042
 40
0.6562500000000051
 40
0.6562500000000051
 40
0.6875000000000061
 40
0.6875000000000061
 40
0.7500000000000053
 40
0.7500000000000053
 40
0.8750000000000027
 40
0.8750000000000027
 40
0.9062500000000023
 40
0.9062500000000023
 40
0.9375000000000021
 40
0.9375000000000021
 40
1.0
 40
1.0
 40
1.0
 40
1.0
 10
257.4999999997853
 20
-220.890221228506
 30
0.0
 10
259.8750982268598
 20
-220.9059225327887
 30
0.0
 10
262.2108756047035
 20
-220.6887266171032
 30
0.0
 10
265.6572967980694
 20
-220.0247428850071
 30
0.0
 10
266.7964917582348
 20
-219.7466056344307
 30
0.0
 10
269.0553591126719
 20
-219.0750792551123
 30
0.0
 10
270.1807199379074
 20
-218.6789428550364
 30
0.0
 10
273.4558142371027
 20
-217.3374630177852
 30
0.0
 10
275.5227248852471
 20
-216.24001321285
 30
0.0
 10
278.4514137685564
 20
-214.2944995874416
 30
0.0
 10
279.3986568458726
 20
-213.5954521105222
 30
0.0
 10
280.7750639508854
 20
-212.4693643020834
 30
0.0
 10
281.2255115946112
 20
-212.0816685376597
 30
0.0
 10
282.1011827098504
 20
-211.2892900480967
 30
0.0
 10
282.5276715877885
 20
-210.8835902997583
 30
0.0
 10
284.6038635579496
 20
-208.8079423227874
 30
0.0
 10
286.0872114392406
 20
-206.9985587474931
 30
0.0
 10
287.719004821801
 20
-204.5504303548192
 30
0.0
 10
288.0340220420269
 20
-204.0512988336145
 30
0.0
 10
288.6410708123819
 20
-203.0337701942855
 30
0.0
 10
288.9329180066257
 20
-202.5154854036817
 30
0.0
 10
289.7639819304535
 20
-200.9499802023267
 30
0.0
 10
290.262571418925
 20
-199.8862165012807
 30
0.0
 10
291.5953274389437
 20
-196.6358754336389
 30
0.0
 10
292.2677576242016
 20
-194.39070196072
 30
0.0
 10
292.8316869958284
 20
-191.4840959739456
 30
0.0
 10
292.930323604813
 20
-190.8975168735003
 30
0.0
 10
293.0976572501297
 20
-189.7244998950788
 30
0.0
 10
293.1666561735496
 20
-189.1367789046258
 30
0.0
 10
293.3301094152475
 20
-187.3700239585823
 30
0.0
 10
293.3811748231926
 20
-186.1874100676343
 30
0.0
 10
293.3737835410279
 20
-185.0000000036584
 30
0.0
  0
SPLINE
  5
7B
330
1F
100
AcDbEntity
  8
0
  6
Continuous
 62
     7
370
    25
100
AcDbSpline
210
0.0
220
0.0
230
1.0
 70
     8
 71
     3
 72
    36
 73
    32
 74
     0
 42
0.000000001
 43
0.00000001
 40
0.0
 40
0.0
 40
0.0
 40
0.0
 40
0.0624999999999979
 40
0.0624999999999979
 40
0.093749999999997
 40
0.093749999999997
 40
0.1249999999999962
 40
0.1249999999999962
 40
0.2499999999999953
 40
0.2499999999999953
 40
0.3124999999999956
 40
0.3124999999999956
 40
0.3437499999999951
 40
0.3437499999999951
 40
0.3749999999999945
 40
0.3749999999999945
 40
0.4999999999999973
 40
0.4999999999999973
 40
0.5312499999999983
 40
0.5312499999999983
 40
0.5624999999999992
 40
0.5624999999999992
 40
0.6249999999999989
 40
0.6249999999999989
 40
0.7499999999999977
 40
0.7499999999999977
 40
0.8124999999999982
 40
0.8124999999999982
 40
0.8749999999999988
 40
0.8749999999999988
 40
1.0
 40
1.0
 40
1.0
 40
1.0
 10
296.0449768074937
 20
-185.0743899872821
 30
0.0
 10
296.0098659303596
 20
-186.3351502941258
 30
0.0
 10
295.9163646137683
 20
-187.5892581905892
 30
0.0
 10
295.6886887915954
 20
-189.460459854909
 30
0.0
 10
295.5981931824584
 20
-190.0825299501713
 30
0.0
 10
295.3876366931864
 20
-191.3233017756431
 30
0.0
 10
295.2672587751983
 20
-191.9432324903056
 30
0.0
 10
294.5946758962524
 20
-195.0158249628543
 30
0.0
 10
293.8344374834064
 20
-197.3887625059011
 30
0.0
 10
292.3652848619353
 20
-200.8221744534476
 30
0.0
 10
291.8206182027795
 20
-201.9455885799381
 30
0.0
 10
290.9191820923484
 20
-203.5983538164629
 30
0.0
 10
290.6036881977343
 20
-204.1453093014888
 30
0.0
 10
289.9486792020625
 20
-205.2200094851079
 30
0.0
 10
289.6094477240605
 20
-205.7474397979607
 30
0.0
 10
287.8555353440871
 20
-208.3357367785208
 30
0.0
 10
286.2707062242552
 20
-210.2526761361112
 30
0.0
 10
284.0622102151201
 20
-212.4564436764499
 30
0.0
 10
283.6090067628726
 20
-212.8874658112549
 30
0.0
 10
282.6793972679818
 20
-213.7298831552037
 30
0.0
 10
282.2017493901441
 20
-214.1422820811691
 30
0.0
 10
280.7428104112776
 20
-215.3417287188254
 30
0.0
 10
279.7393268052679
 20
-216.0886003343863
 30
0.0
 10
276.6384095796104
 20
-218.1745383049604
 30
0.0
 10
274.4516282963128
 20
-219.3608405803185
 30
0.0
 10
270.9905130299877
 20
-220.8309222438747
 30
0.0
 10
269.8023820965831
 20
-221.2691488729466
 30
0.0
 10
267.4146818725658
 20
-222.0230170241623
 30
0.0
 10
266.2095271741992
 20
-222.3414803587612
 30
0.0
 10
262.5608266278942
 20
-223.1249613807612
 30
0.0
 10
260.0841931339039
 20
-223.4188397516391
 30
0.0
 10
257.5625112036356
 20
-223.4797139800359
 30
0.0
  0
SPLINE
  5
7C
330
1F
100
AcDbEntity
  8
0
  6
Continuous
 62
     7
370
    25
100
AcDbSpline
210
0.0
220
0.0
230
1.0
 70
     8
 71
     3
 72
    36
 73
    32
 74
     0
 42
0.000000001
 43
0.00000001
 40
0.0
 40
0.0
 40
0.0
 40
0.0
 40
0.1250000000000018
 40
0.1250000000000018
 40
0.1875000000000024
 40
0.1875000000000024
 40
0.250000000000003
 40
0.250000000000003
 40
0.3750000000000042
 40
0.3750000000000042
 40
0.4375000000000034
 40
0.4375000000000034
 40
0.4687500000000024
 40
0.4687500000000024
 40
0.5000000000000013
 40
0.5000000000000013
 40
0.6249999999999922
 40
0.6249999999999922
 40
0.6562499999999916
 40
0.6562499999999916
 40
0.6874999999999909
 40
0.6874999999999909
 40
0.7499999999999889
 40
0.7499999999999889
 40
0.8749999999999882
 40
0.8749999999999882
 40
0.9062499999999905
 40
0.9062499999999905
 40
0.9374999999999927
 40
0.9374999999999927
 40
1.0
 40
1.0
 40
1.0
 40
1.0
 10
-293.3737835410296
 20
-185.0000000039602
 30
0.0
 10
-293.3885660104967
 20
-187.3748048954252
 30
0.0
 10
-293.1718362571312
 20
-189.7105143024405
 30
0.0
 10
-292.5090478709668
 20
-193.1568581772439
 30
0.0
 10
-292.2315286680875
 20
-194.2960543186415
 30
0.0
 10
-291.5613316366631
 20
-196.5549110381562
 30
0.0
 10
-291.165826919662
 20
-197.6804459759131
 30
0.0
 10
-289.8259012363566
 20
-200.9568550091069
 30
0.0
 10
-288.7299880996381
 20
-203.0245415046803
 30
0.0
 10
-286.7865688950172
 20
-205.9536889090105
 30
0.0
 10
-286.0884348702401
 20
-206.9011103373368
 30
0.0
 10
-284.9638675935724
 20
-208.2777192351239
 30
0.0
 10
-284.5762158889787
 20
-208.7287947965314
 30
0.0
 10
-283.7840758140914
 20
-209.6053952045463
 30
0.0
 10
-283.3784960698082
 20
-210.0322873336012
 30
0.0
 10
-281.3034605093827
 20
-212.1102014558246
 30
0.0
 10
-279.495326771581
 20
-213.5948623313597
 30
0.0
 10
-277.0490915146882
 20
-215.2274756977291
 30
0.0
 10
-276.5503795984745
 20
-215.5426440395384
 30
0.0
 10
-275.533826828478
 20
-216.1500330806534
 30
0.0
 10
-275.0154364936666
 20
-216.4424345150285
 30
0.0
 10
-273.4495760311764
 20
-217.2750893645485
 30
0.0
 10
-272.3857247271097
 20
-217.7746002821665
 30
0.0
 10
-269.1354373854734
 20
-219.1093867603403
 30
0.0
 10
-266.89099248638
 20
-219.7829598283821
 30
0.0
 10
-263.9860362961572
 20
-220.3476875062891
 30
0.0
 10
-263.3993177737784
 20
-220.4465231900087
 30
0.0
 10
-262.2258451955202
 20
-220.6142238349963
 30
0.0
 10
-261.6379157466909
 20
-220.683357630936
 30
0.0
 10
-259.8705893817832
 20
-220.8470514625355
 30
0.0
 10
-258.6876675168974
 20
-220.8980726633898
 30
0.0
 10
-257.4999999997851
 20
-220.890221228506
 30
0.0
  0
SPLINE
  5
7D
330
1F
100
AcDbEntity
  8
0
  6
Continuous
 62
     7
370
    25
100
AcDbSpline
210
0.0
220
0.0
230
1.0
 70
     8
 71
     3
 72
    38
 73
    34
 74
     0
 42
0.000000001
 43
0.00000001
 40
0.0
 40
0.0
 40
0.0
 40
0.0
 40
0.0624999999999979
 40
0.0624999999999979
 40
0.0937499999999984
 40
0.0937499999999984
 40
0.1249999999999988
 40
0.1249999999999988
 40
0.2500000000000002
 40
0.2500000000000002
 40
0.3125000000000006
 40
0.3125000000000006
 40
0.3437500000000008
 40
0.3437500000000008
 40
0.375000000000001
 40
0.375000000000001
 40
0.5000000000000027
 40
0.5000000000000027
 40
0.5312500000000029
 40
0.5312500000000029
 40
0.562500000000003
 40
0.562500000000003
 40
0.6250000000000027
 40
0.6250000000000027
 40
0.7500000000000019
 40
0.7500000000000019
 40
0.781250000000002
 40
0.781250000000002
 40
0.812500000000002
 40
0.812500000000002
 40
0.8750000000000013
 40
0.8750000000000013
 40
1.0
 40
1.0
 40
1.0
 40
1.0
 10
-257.5625112036354
 20
-223.4797139800358
 30
0.0
 10
-258.823520238543
 20
-223.4492728085781
 30
0.0
 10
-260.0781230314801
 20
-223.3599407357767
 30
0.0
 10
-261.9504566916514
 20
-223.1379632627635
 30
0.0
 10
-262.5729689355333
 20
-223.0492718033741
 30
0.0
 10
-263.8147564442998
 20
-222.8421321861039
 30
0.0
 10
-264.4351854023748
 20
-222.7233761322806
 30
0.0
 10
-267.5078614973593
 20
-222.0589015544313
 30
0.0
 10
-269.8819373872515
 20
-221.3039335405621
 30
0.0
 10
-273.318669809502
 20
-219.8409591463301
 30
0.0
 10
-274.4434124087022
 20
-219.2979358911983
 30
0.0
 10
-276.0985832070365
 20
-218.3985176713447
 30
0.0
 10
-276.646393761488
 20
-218.0836156607636
 30
0.0
 10
-277.7214368742551
 20
-217.4306213552064
 30
0.0
 10
-278.2491294813825
 20
-217.0923815552691
 30
0.0
 10
-280.838955833251
 20
-215.3430763021539
 30
0.0
 10
-282.757693915735
 20
-213.7606960296568
 30
0.0
 10
-284.9652476259666
 20
-211.5546895939418
 30
0.0
 10
-285.3970577894206
 20
-211.1018990240921
 30
0.0
 10
-286.241111074129
 20
-210.1729411361265
 30
0.0
 10
-286.6544423720071
 20
-209.6954233835209
 30
0.0
 10
-287.8551413144154
 20
-208.2387582577163
 30
0.0
 10
-288.6030711982978
 20
-207.2366289188395
 30
0.0
 10
-290.6932632486245
 20
-204.1395511634562
 30
0.0
 10
-291.8829513136735
 20
-201.9545173206339
 30
0.0
 10
-293.1136809493659
 20
-199.0718484628192
 30
0.0
 10
-293.347228793091
 20
-198.4864926090714
 30
0.0
 10
-293.7858352647885
 20
-197.3053077859081
 30
0.0
 10
-293.9901475828902
 20
-196.7117617004562
 30
0.0
 10
-294.5592952060905
 20
-194.9224955932057
 30
0.0
 10
-294.8804880530321
 20
-193.7181766590209
 30
0.0
 10
-295.6733167450797
 20
-190.0715768617404
 30
0.0
 10
-295.9747591738145
 20
-187.5957626382905
 30
0.0
 10
-296.0449768074847
 20
-185.0743899876051
 30
0.0
  0
SPLINE
  5
8C
330
1F
100
AcDbEntity
  8
0
  6
Continuous
 62
     7
370
    25
100
AcDbSpline
210
0.0
220
0.0
230
1.0
 70
     8
 71
     3
 72
     8
 73
     4
 74
     0
 42
0.000000001
 43
0.00000001
 40
0.0
 40
0.0
 40
0.0
 40
0.0
 40
1.0
 40
1.0
 40
1.0
 40
1.0
 10
-253.7727272586675
 20
115.0
 30
0.0
 10
-255.0162529776263
 20
115.0
 30
0.0
 10
-256.2597868406907
 20
114.9467879727876
 30
0.0
 10
-257.4999999857307
 20
114.8407253945944
 30
0.0
  0
SPLINE
  5
8E
330
1F
100
AcDbEntity
  8
0
  6
Continuous
 62
     7
370
    25
100
AcDbSpline
210
0.0
220
0.0
230
1.0
 70
     8
 71
     3
 72
    25
 73
    21
 74
     0
 42
0.000000001
 43
0.00000001
 40
0.0
 40
0.0
 40
0.0
 40
0.0
 40
0.0078125000000001
 40
0.0078125000000001
 40
0.0156250000000002
 40
0.0156250000000002
 40
0.0312500000000002
 40
0.0625000000000003
 40
0.1250000000000002
 40
0.2500000000000002
 40
0.5000000000000001
 40
0.75
 40
0.8749999999999999
 40
0.9374999999999999
 40
0.96875
 40
0.984375
 40
0.984375
 40
0.9921875
 40
0.9921875
 40
1.0
 40
1.0
 40
1.0
 40
1.0
 10
-257.8719077611394
 20
118.8080568843971
 30
0.0
 10
-256.5289086319606
 20
118.9339530490592
 30
0.0
 10
-255.1858670614113
 20
118.9977908998335
 30
0.0
 10
-252.4996995483203
 20
119.0020967960222
 30
0.0
 10
-251.156612885396
 20
119.0
 30
0.0
 10
-247.1273571985882
 20
119.0
 30
0.0
 10
-239.0688458249725
 20
119.0
 30
0.0
 10
-220.2656526198696
 20
119.0
 30
0.0
 10
-182.6592662096635
 20
119.0
 30
0.0
 10
-107.4464933892514
 20
118.9999999999999
 30
0.0
 10
0.0003249256231667
 20
119.0000000000003
 30
0.0
 10
107.4471432404971
 20
118.9999999999999
 30
0.0
 10
182.6599160609096
 20
119.0
 30
0.0
 10
220.2663024711156
 20
119.0000000000001
 30
0.0
 10
239.0694956762183
 20
119.0
 30
0.0
 10
247.1280070498341
 20
119.0000000000001
 30
0.0
 10
251.157262736642
 20
119.0000000000001
 30
0.0
 10
252.5003565753215
 20
119.0021157002816
 30
0.0
 10
255.1865093481745
 20
118.9977699031329
 30
0.0
 10
256.5293347148582
 20
118.933913107475
 30
0.0
 10
257.8719077777566
 20
118.8080568828395
 30
0.0
  0
SPLINE
  5
90
330
1F
100
AcDbEntity
  8
0
  6
Continuous
 62
     7
370
    25
100
AcDbSpline
210
0.0
220
0.0
230
1.0
 70
     8
 71
     3
 72
     8
 73
     4
 74
     0
 42
0.000000001
 43
0.00000001
 40
0.0
 40
0.0
 40
0.0
 40
0.0
 40
1.0
 40
1.0
 40
1.0
 40
1.0
 10
257.5000000008548
 20
114.840725393301
 30
0.0
 10
256.2597868507222
 20
114.9467879723627
 30
0.0
 10
255.0162529828804
 20
115.0000000000001
 30
0.0
 10
253.7727272586674
 20
115.0000000000001
 30
0.0
  0
SPLINE
  5
92
330
1F
100
AcDbEntity
  8
0
  6
Continuous
 62
     7
370
    25
100
AcDbSpline
210
0.0
220
0.0
230
1.0
 70
     8
 71
     3
 72
    42
 73
    38
 74
     0
 42
0.000000001
 43
0.00000001
 40
0.0
 40
0.0
 40
0.0
 40
0.0
 40
0.0624999999999973
 40
0.0624999999999973
 40
0.0937499999999972
 40
0.0937499999999972
 40
0.1249999999999972
 40
0.1249999999999972
 40
0.2499999999999991
 40
0.2499999999999991
 40
0.3124999999999987
 40
0.3124999999999987
 40
0.3437499999999984
 40
0.3437499999999984
 40
0.3749999999999981
 40
0.3749999999999981
 40
0.499999999999999
 40
0.499999999999999
 40
0.5312500000000006
 40
0.5312500000000006
 40
0.562500000000002
 40
0.562500000000002
 40
0.6250000000000033
 40
0.6250000000000033
 40
0.7500000000000041
 40
0.7500000000000041
 40
0.7812500000000039
 40
0.7812500000000039
 40
0.8125000000000036
 40
0.8125000000000036
 40
0.8750000000000023
 40
0.8750000000000023
 40
0.9375000000000012
 40
0.9375000000000012
 40
0.9687500000000006
 40
0.9687500000000006
 40
1.0
 40
1.0
 40
1.0
 40
1.0
 10
257.8719077777565
 20
118.8080568828395
 30
0.0
 10
259.1551717868006
 20
118.6877604402457
 30
0.0
 10
260.4290905542394
 20
118.5116458040909
 30
0.0
 10
262.3259505316615
 20
118.1637446999839
 30
0.0
 10
262.9558920545251
 20
118.033770400819
 30
0.0
 10
264.2110734512195
 20
117.7457393229915
 30
0.0
 10
264.8360158350962
 20
117.5876950250103
 30
0.0
 10
267.9276391002035
 20
116.7331502116339
 30
0.0
 10
270.3129578564154
 20
115.8414115158098
 30
0.0
 10
273.759018101572
 20
114.1917719532174
 30
0.0
 10
274.885714884426
 20
113.5898782107751
 30
0.0
 10
276.5415673546287
 20
112.6061600038201
 30
0.0
 10
277.0890851795823
 20
112.2638553564014
 30
0.0
 10
278.1632252697125
 20
111.5574476388076
 30
0.0
 10
278.6903873497191
 20
111.1930848952721
 30
0.0
 10
281.2775441636141
 20
109.3164748842444
 30
0.0
 10
283.1935168549284
 20
107.6420222230677
 30
0.0
 10
285.3914784277259
 20
105.3270795361941
 30
0.0
 10
285.821155238841
 20
104.8529236239441
 30
0.0
 10
286.6603931423788
 20
103.8819563919002
 30
0.0
 10
287.0709850353969
 20
103.3837983366591
 30
0.0
 10
288.2629962132665
 20
101.8659433111977
 30
0.0
 10
289.0043628798539
 20
100.8241459403908
 30
0.0
 10
291.070499846509
 20
97.61017052538448
 30
0.0
 10
292.239954456443
 20
95.35089376888068
 30
0.0
 10
293.4336089787931
 20
92.37641561507613
 30
0.0
 10
293.6591465176953
 20
91.77268919906092
 30
0.0
 10
294.0806062795902
 20
90.55520657982488
 30
0.0
 10
294.2757818398916
 20
89.94381742127112
 30
0.0
 10
294.815618306663
 20
88.10187199197105
 30
0.0
 10
295.1147558498322
 20
86.86356617099918
 30
0.0
 10
295.5927130346113
 20
84.36647252699055
 30
0.0
 10
295.7714445152639
 20
83.1076696961047
 30
0.0
 10
295.9488110273514
 20
81.20402014577002
 30
0.0
 10
295.992778743486
 20
80.56689051687576
 30
0.0
 10
296.0499030985635
 20
79.28738621625904
 30
0.0
 10
296.0607265562904
 20
78.64461436155827
 30
0.0
 10
296.0607265562905
 20
78.00000000394947
 30
0.0
  0
SPLINE
  5
94
330
1F
100
AcDbEntity
  8
0
  6
Continuous
 62
     7
370
    25
100
AcDbSpline
210
0.0
220
0.0
230
1.0
 70
     8
 71
     3
 72
    40
 73
    36
 74
     0
 42
0.000000001
 43
0.00000001
 40
0.0
 40
0.0
 40
0.0
 40
0.0
 40
0.0312500000000007
 40
0.0312500000000007
 40
0.0625000000000013
 40
0.0625000000000013
 40
0.1250000000000022
 40
0.1250000000000022
 40
0.1875000000000031
 40
0.1875000000000031
 40
0.2187500000000036
 40
0.2187500000000036
 40
0.2500000000000041
 40
0.2500000000000041
 40
0.3750000000000045
 40
0.3750000000000045
 40
0.4375000000000048
 40
0.4375000000000048
 40
0.4687500000000049
 40
0.4687500000000049
 40
0.500000000000005
 40
0.500000000000005
 40
0.6250000000000008
 40
0.6250000000000008
 40
0.6562499999999997
 40
0.6562499999999997
 40
0.6874999999999986
 40
0.6874999999999986
 40
0.749999999999999
 40
0.749999999999999
 40
0.8749999999999997
 40
0.8749999999999997
 40
0.9374999999999999
 40
0.9374999999999999
 40
1.0
 40
1.0
 40
1.0
 40
1.0
 10
293.3517002456561
 20
78.0000000039495
 30
0.0
 10
293.351700245656
 20
78.5956170535092
 30
0.0
 10
293.3360006709516
 20
79.18831590791459
 30
0.0
 10
293.2757116626794
 20
80.36850097537622
 30
0.0
 10
293.2310268961758
 20
80.95594508257935
 30
0.0
 10
293.0540707911695
 20
82.71046215070452
 30
0.0
 10
292.879028987518
 20
83.86974383941572
 30
0.0
 10
292.4150356316933
 20
86.16754996615211
 30
0.0
 10
292.126342533022
 20
87.30612367416859
 30
0.0
 10
291.6071848486257
 20
88.99828779095462
 30
0.0
 10
291.4197363139398
 20
89.55971856325701
 30
0.0
 10
291.0153528496324
 20
90.67720415157319
 30
0.0
 10
290.79880586265
 20
91.23191479782332
 30
0.0
 10
289.6546972591148
 20
93.96008015509716
 30
0.0
 10
288.5388442498156
 20
96.02367932502281
 30
0.0
 10
286.5728412099959
 20
98.94552563700667
 30
0.0
 10
285.868351478086
 20
99.89029071309554
 30
0.0
 10
284.7373058169761
 20
101.2632978475143
 30
0.0
 10
284.3473601469262
 20
101.7139900635407
 30
0.0
 10
283.5510881285718
 20
102.5907207790232
 30
0.0
 10
283.1437814606243
 20
103.0180088302792
 30
0.0
 10
281.0621082095749
 20
105.0998692780692
 30
0.0
 10
279.2539187588818
 20
106.5927873815219
 30
0.0
 10
276.8229887080592
 20
108.2521749390417
 30
0.0
 10
276.3281326487913
 20
108.5735431341961
 30
0.0
 10
275.3208909514195
 20
109.1950223932042
 30
0.0
 10
274.8076574665959
 20
109.4957268567521
 30
0.0
 10
273.2564137185391
 20
110.3583897018656
 30
0.0
 10
272.2030818758756
 20
110.8836057802808
 30
0.0
 10
268.988420255007
 20
112.3164267595838
 30
0.0
 10
266.772410568865
 20
113.0809760993874
 30
0.0
 10
263.3433773133327
 20
113.9545811978814
 30
0.0
 10
262.1819266428627
 20
114.199611242486
 30
0.0
 10
259.8516954566059
 20
114.5916172877007
 30
0.0
 10
258.6794199513965
 20
114.7398618266328
 30
0.0
 10
257.5000000008548
 20
114.840725393301
 30
0.0
  0
SPLINE
  5
97
330
1F
100
AcDbEntity
  8
0
  6
Continuous
 62
     7
370
    25
100
AcDbSpline
210
0.0
220
0.0
230
1.0
 70
     8
 71
     3
 72
    40
 73
    36
 74
     0
 42
0.000000001
 43
0.00000001
 40
0.0
 40
0.0
 40
0.0
 40
0.0
 40
0.0312500000000001
 40
0.0312500000000001
 40
0.0625000000000001
 40
0.0625000000000001
 40
0.1250000000000002
 40
0.1250000000000002
 40
0.2500000000000004
 40
0.2500000000000004
 40
0.2812500000000002
 40
0.2812500000000002
 40
0.3125
 40
0.3125
 40
0.3749999999999996
 40
0.3749999999999996
 40
0.4999999999999987
 40
0.4999999999999987
 40
0.5312499999999976
 40
0.5312499999999976
 40
0.5624999999999966
 40
0.5624999999999966
 40
0.6249999999999969
 40
0.6249999999999969
 40
0.749999999999995
 40
0.749999999999995
 40
0.7812499999999947
 40
0.7812499999999947
 40
0.8124999999999944
 40
0.8124999999999944
 40
0.8749999999999963
 40
0.8749999999999963
 40
0.9374999999999982
 40
0.9374999999999982
 40
1.0
 40
1.0
 40
1.0
 40
1.0
 10
-296.0607265562905
 20
78.00000000365297
 30
0.0
 10
-296.0607265562907
 20
78.64500805226008
 30
0.0
 10
-296.0499062462022
 20
79.28952260165737
 30
0.0
 10
-295.9922320318214
 20
80.57690825861745
 30
0.0
 10
-295.9477120450319
 20
81.21988581289355
 30
0.0
 10
-295.7670310711346
 20
83.1466693521978
 30
0.0
 10
-295.5850861899182
 20
84.41519817454905
 30
0.0
 10
-294.8610750476061
 20
88.17060196710699
 30
0.0
 10
-294.1435166743852
 20
90.60976347750986
 30
0.0
 10
-292.9512915223423
 20
93.57770542073672
 30
0.0
 10
-292.6979082409894
 20
94.16719546740588
 30
0.0
 10
-292.1609373378996
 20
95.33788893357959
 30
0.0
 10
-291.8779804220039
 20
95.91751609356922
 30
0.0
 10
-290.993299884188
 20
97.62552387791631
 30
0.0
 10
-290.3533622126616
 20
98.72873380944765
 30
0.0
 10
-288.2865871747538
 20
101.9344455772983
 30
0.0
 10
-286.7145538886068
 20
103.9342782128846
 30
0.0
 10
-284.5046546170769
 20
106.26092818715
 30
0.0
 10
-284.0489349337617
 20
106.7186657673102
 30
0.0
 10
-283.120417723843
 20
107.6085351788368
 30
0.0
 10
-282.6475121357948
 20
108.0409731890076
 30
0.0
 10
-281.2035893083313
 20
109.3018591963435
 30
0.0
 10
-280.207450575111
 20
110.094001390932
 30
0.0
 10
-277.1209950614412
 20
112.3287407005763
 30
0.0
 10
-274.932704718812
 20
113.6297455666292
 30
0.0
 10
-272.0327781969881
 20
115.0181729044331
 30
0.0
 10
-271.4445128861123
 20
115.2837327074683
 30
0.0
 10
-270.2627316792442
 20
115.7856412678371
 30
0.0
 10
-269.667797087124
 20
116.0226577915722
 30
0.0
 10
-267.8711070993612
 20
116.6927410959338
 30
0.0
 10
-266.657518345725
 20
117.0850237709416
 30
0.0
 10
-264.1993700194676
 20
117.7628470488254
 30
0.0
 10
-262.9548087533835
 20
118.0483818151176
 30
0.0
 10
-260.4341450139574
 20
118.5107434113059
 30
0.0
 10
-259.1552798274709
 20
118.6877503127285
 30
0.0
 10
-257.8719077611394
 20
118.8080568843971
 30
0.0
  0
SPLINE
  5
98
330
1F
100
AcDbEntity
  8
0
  6
Continuous
 62
     7
370
    25
100
AcDbSpline
210
0.0
220
0.0
230
1.0
 70
     8
 71
     3
 72
    16
 73
    12
 74
     0
 42
0.000000001
 43
0.00000001
 40
0.0
 40
0.0
 40
0.0
 40
0.0
 40
0.0078124999999999
 40
0.0078124999999999
 40
0.0156249999999999
 40
0.0312500000000001
 40
0.0625000000000002
 40
0.1250000000000003
 40
0.2500000000000003
 40
0.5000000000000002
 40
1.0
 40
1.0
 40
1.0
 40
1.0
 10
-296.0449768074845
 20
-185.0743899876049
 30
0.0
 10
-296.0640557489855
 20
-184.3893039374204
 30
0.0
 10
-296.0607265562906
 20
-183.7042137593065
 30
0.0
 10
-296.0607265562906
 20
-182.3340346296575
 30
0.0
 10
-296.0607265562906
 20
-180.278765935184
 30
0.0
 10
-296.0607265562906
 20
-175.4831389814126
 30
0.0
 10
-296.0607265562908
 20
-165.8918850738694
 30
0.0
 10
-296.0607265562907
 20
-146.7093772587833
 30
0.0
 10
-296.0607265562907
 20
-108.3443616286114
 30
0.0
 10
-296.0607265562906
 20
-31.61433036826711
 30
0.0
 10
-296.0607265562909
 20
34.15426785488495
 30
0.0
 10
-296.0607265562905
 20
78.00000000365299
 30
0.0
  0
LWPOLYLINE
  5
99
330
1F
100
AcDbEntity
  8
0
  6
Continuous
 62
     7
370
    25
100
AcDbPolyline
 90
        8
 70
   128
 43
0.0
 10
296.0607265563
 20
78.0000000039
 10
296.0607265563
 20
70.0000000039
 10
296.0607265563
 20
38.0000000039
 10
296.0607265563
 20
-89.9999999961
 10
296.0607265563
 20
-99.5781417148
 10
296.2329440145
 20
-128.0793456675
 10
296.4016615285
 20
-156.5805492979
 10
296.0449768075
 20
-185.0743899873
  0
CIRCLE
  5
9A
330
1F
100
AcDbEntity
  8
0
  6
Continuous
 62
     7
370
    25
100
AcDbCircle
 10
0.0
 20
170.0
 30
0.0
 40
19.50000000000009
  0
CIRCLE
  5
9B
330
1F
100
AcDbEntity
  8
0
  6
Continuous
 62
     7
370
    25
100
AcDbCircle
 10
100.0
 20
170.0
 30
0.0
 40
19.50000000000009
  0
CIRCLE
  5
9C
330
1F
100
AcDbEntity
  8
0
  6
Continuous
 62
     7
370
    25
100
AcDbCircle
 10
-100.0
 20
170.0
 30
0.0
 40
19.50000000000006
  0
SPLINE
  5
9D
330
1F
100
AcDbEntity
  8
0
  6
Continuous
 62
     7
370
    25
100
AcDbSpline
210
0.0
220
0.0
230
1.0
 70
     8
 71
     3
 72
     8
 73
     4
 74
     0
 42
0.000000001
 43
0.00000001
 40
0.0
 40
0.0
 40
0.0
 40
0.0
 40
1.0
 40
1.0
 40
1.0
 40
1.0
 10
293.3737835410278
 20
-185.0000000036584
 30
0.0
 10
293.3715895975357
 20
-184.6475428082417
 30
0.0
 10
293.3642303576992
 20
-184.2951668257565
 30
0.0
 10
293.3517002456561
 20
-183.9429876605692
 30
0.0
  0
SPLINE
  5
9F
330
1F
100
AcDbEntity
  8
0
  6
Continuous
 62
     7
370
    25
100
AcDbSpline
210
0.0
220
0.0
230
1.0
 70
     8
 71
     3
 72
    38
 73
    34
 74
     0
 42
0.000000001
 43
0.00000001
 40
0.0
 40
0.0
 40
0.0
 40
0.0
 40
0.124999999999991
 40
0.124999999999991
 40
0.1874999999999864
 40
0.1874999999999864
 40
0.2187499999999843
 40
0.2187499999999843
 40
0.2499999999999821
 40
0.2499999999999821
 40
0.3749999999999816
 40
0.3749999999999816
 40
0.4374999999999816
 40
0.4374999999999816
 40
0.468749999999983
 40
0.468749999999983
 40
0.4999999999999843
 40
0.4999999999999843
 40
0.6249999999999903
 40
0.6249999999999903
 40
0.6874999999999932
 40
0.6874999999999932
 40
0.718749999999994
 40
0.718749999999994
 40
0.7499999999999948
 40
0.7499999999999948
 40
0.8749999999999972
 40
0.8749999999999972
 40
0.937499999999998
 40
0.937499999999998
 40
0.968749999999999
 40
0.968749999999999
 40
1.0
 40
1.0
 40
1.0
 40
1.0
 10
-257.4999999857306
 20
114.8407253945944
 30
0.0
 10
-259.8597873151262
 20
114.6389172383556
 30
0.0
 10
-262.1738963182546
 20
114.2499819018754
 30
0.0
 10
-265.5780126776958
 20
113.3865059047823
 30
0.0
 10
-266.7014842114028
 20
113.0519242391759
 30
0.0
 10
-268.3691583553765
 20
112.4772084418089
 30
0.0
 10
-268.9221181818517
 20
112.273500083816
 30
0.0
 10
-270.0219884662806
 20
111.8406994949171
 30
0.0
 10
-270.5702044051525
 20
111.6110353501455
 30
0.0
 10
-273.2740988448173
 20
110.4076735779769
 30
0.0
 10
-275.3256205946529
 20
109.2700390958327
 30
0.0
 10
-278.2304217006135
 20
107.2934947352205
 30
0.0
 10
-279.1699003087593
 20
106.5895446101894
 30
0.0
 10
-280.5344757016496
 20
105.4638717507256
 30
0.0
 10
-280.9818754953209
 20
105.0769940948045
 30
0.0
 10
-281.8612646618932
 20
104.2791905038273
 30
0.0
 10
-282.2926855124804
 20
103.8686531006142
 30
0.0
 10
-284.385802820965
 20
101.7779386755907
 30
0.0
 10
-285.8789747317865
 20
99.96909045257448
 30
0.0
 10
-287.848577324743
 20
97.05321340777982
 30
0.0
 10
-288.4593603238047
 20
96.04691899242692
 30
0.0
 10
-289.3053308828889
 20
94.48484292853789
 30
0.0
 10
-289.5763223578393
 20
93.95378121783054
 30
0.0
 10
-290.0901609746275
 20
92.88208875216608
 30
0.0
 10
-290.3328258176568
 20
92.34209142080378
 30
0.0
 10
-291.475710746694
 20
89.62159682886474
 30
0.0
 10
-292.1663321690851
 20
87.38005658643728
 30
0.0
 10
-292.8704980391971
 20
83.92121603382085
 30
0.0
 10
-293.0491116844572
 20
82.751202004213
 30
0.0
 10
-293.2297146504571
 20
80.97303897738284
 30
0.0
 10
-293.2750330834779
 20
80.3795340160642
 30
0.0
 10
-293.3359792226901
 20
79.19096047768386
 30
0.0
 10
-293.351700245656
 20
78.59591099446219
 30
0.0
 10
-293.351700245656
 20
78.00000000365297
 30
0.0
  0
CIRCLE
  5
A4
330
1F
100
AcDbEntity
  8
0
  6
Continuous
 62
     7
370
    25
100
AcDbCircle
 10
0.0
 20
170.0
 30
0.0
 40
17.50000000000006
  0
CIRCLE
  5
A5
330
1F
100
AcDbEntity
  8
0
  6
Continuous
 62
     7
370
    25
100
AcDbCircle
 10
100.0
 20
170.0
 30
0.0
 40
17.5
  0
SPLINE
  5
A7
330
1F
100
AcDbEntity
  8
0
  6
Continuous
 62
     7
370
    25
100
AcDbSpline
210
0.0
220
0.0
230
1.0
 70
     8
 71
     3
 72
     8
 73
     4
 74
     0
 42
0.000000001
 43
0.00000001
 40
0.0
 40
0.0
 40
0.0
 40
0.0
 40
1.0
 40
1.0
 40
1.0
 40
1.0
 10
-293.3517002456561
 20
-183.9429876605693
 30
0.0
 10
-293.3642303570099
 20
-184.2951668259052
 30
0.0
 10
-293.3715895975399
 20
-184.6475428084454
 30
0.0
 10
-293.3737835410297
 20
-185.0000000039602
 30
0.0
  0
CIRCLE
  5
A8
330
1F
100
AcDbEntity
  8
0
  6
Continuous
 62
     7
370
    25
100
AcDbCircle
 10
-100.0
 20
170.0
 30
0.0
 40
17.50000000000006
  0
SPLINE
  5
AB
330
1F
100
AcDbEntity
  8
0
  6
Continuous
 62
     7
370
    25
100
AcDbSpline
210
0.0
220
0.0
230
1.0
 70
     8
 71
     3
 72
    38
 73
    34
 74
     0
 42
0.000000001
 43
0.00000001
 40
0.0
 40
0.0
 40
0.0
 40
0.0
 40
0.015625
 40
0.015625
 40
0.0312500000000001
 40
0.0312500000000001
 40
0.0625
 40
0.0625
 40
0.1249999999999998
 40
0.1249999999999998
 40
0.2499999999999972
 40
0.2499999999999972
 40
0.3749999999999946
 40
0.3749999999999946
 40
0.4374999999999943
 40
0.4374999999999943
 40
0.4999999999999941
 40
0.4999999999999941
 40
0.6249999999999947
 40
0.6249999999999947
 40
0.7499999999999952
 40
0.7499999999999952
 40
0.8124999999999961
 40
0.8124999999999961
 40
0.874999999999997
 40
0.874999999999997
 40
0.9374999999999979
 40
0.9374999999999979
 40
0.9687499999999982
 40
0.9687499999999982
 40
0.9843749999999992
 40
0.9843749999999992
 40
1.0
 40
1.0
 40
1.0
 40
1.0
 10
-157.2747039411487
 20
-97.81841367435815
 30
0.0
 10
-157.4312230888704
 20
-97.79233462070115
 30
0.0
 10
-157.5897054159721
 20
-97.76447842104862
 30
0.0
 10
-157.9037433583095
 20
-97.70634557253891
 30
0.0
 10
-158.0604387556226
 20
-97.67587906589387
 30
0.0
 10
-158.5295347128337
 20
-97.58026809940604
 30
0.0
 10
-158.8409448503206
 20
-97.51091310320051
 30
0.0
 10
-159.7710657252328
 20
-97.28588132617774
 30
0.0
 10
-160.3856656054994
 20
-97.11325155531911
 30
0.0
 10
-162.2119172306008
 20
-96.52602627130045
 30
0.0
 10
-163.4123594736451
 20
-96.03845381961622
 30
0.0
 10
-165.7037868350424
 20
-94.89567462625583
 30
0.0
 10
-166.8002473795749
 20
-94.23895124840166
 30
0.0
 10
-168.3690524761575
 20
-93.1228472449973
 30
0.0
 10
-168.8811054609675
 20
-92.72732208507271
 30
0.0
 10
-169.8678410010978
 20
-91.90058979244141
 30
0.0
 10
-170.3427946232389
 20
-91.46948809494846
 30
0.0
 10
-171.7133668992434
 20
-90.1238939876286
 30
0.0
 10
-172.5549771351218
 20
-89.15737991546483
 30
0.0
 10
-174.0912239893951
 20
-87.08283562055966
 30
0.0
 10
-174.77008556673
 20
-85.99574782283716
 30
0.0
 10
-175.6587185009869
 20
-84.29762918843211
 30
0.0
 10
-175.9335949760274
 20
-83.72026225851046
 30
0.0
 10
-176.4407526031709
 20
-82.54309788443726
 30
0.0
 10
-176.6734682787025
 20
-81.94171424694593
 30
0.0
 10
-177.0915305571066
 20
-80.73019706089
 30
0.0
 10
-177.2779141182756
 20
-80.11910220925849
 30
0.0
 10
-177.524672716085
 20
-79.1954086146115
 30
0.0
 10
-177.6014481724705
 20
-78.8863351074006
 30
0.0
 10
-177.7084995581743
 20
-78.42109419666511
 30
0.0
 10
-177.7428311789315
 20
-78.26574226846881
 30
0.0
 10
-177.8088046107849
 20
-77.95451927946412
 30
0.0
 10
-177.8406683097058
 20
-77.79750498287343
 30
0.0
 10
-177.8707493858599
 20
-77.64253080697192
 30
0.0
  0
SPLINE
  5
AF
330
1F
100
AcDbEntity
  8
0
  6
Continuous
 62
     7
370
    25
100
AcDbSpline
210
0.0
220
0.0
230
1.0
 70
     8
 71
     3
 72
    38
 73
    34
 74
     0
 42
0.000000001
 43
0.00000001
 40
0.0
 40
0.0
 40
0.0
 40
0.0
 40
0.0312500000000007
 40
0.0312500000000007
 40
0.0625000000000013
 40
0.0625000000000013
 40
0.1250000000000021
 40
0.1250000000000021
 40
0.1875000000000028
 40
0.1875000000000028
 40
0.2500000000000036
 40
0.2500000000000036
 40
0.3750000000000026
 40
0.3750000000000026
 40
0.4375000000000021
 40
0.4375000000000021
 40
0.5000000000000016
 40
0.5000000000000016
 40
0.5625000000000011
 40
0.5625000000000011
 40
0.6250000000000007
 40
0.6250000000000007
 40
0.7499999999999997
 40
0.7499999999999997
 40
0.8124999999999991
 40
0.8124999999999991
 40
0.8749999999999986
 40
0.8749999999999986
 40
0.937499999999998
 40
0.937499999999998
 40
0.968749999999999
 40
0.968749999999999
 40
1.0
 40
1.0
 40
1.0
 40
1.0
 10
177.8707493858599
 20
-77.64253080697178
 30
0.0
 10
177.810506280254
 20
-77.95289622094771
 30
0.0
 10
177.7441907908372
 20
-78.26597286194387
 30
0.0
 10
177.6015165558074
 20
-78.88604661999463
 30
0.0
 10
177.5247916719889
 20
-79.19492876991664
 30
0.0
 10
177.2782658618612
 20
-80.11785451267747
 30
0.0
 10
177.0921437174856
 20
-80.72817888925883
 30
0.0
 10
176.6749426487734
 20
-81.93768168760614
 30
0.0
 10
176.4426446171796
 20
-82.538480580392
 30
0.0
 10
175.9345164083951
 20
-83.71834802141328
 30
0.0
 10
175.6593394951202
 20
-84.29636623076232
 30
0.0
 10
174.7707703843118
 20
-85.99459149209355
 30
0.0
 10
174.0937444728424
 20
-87.07856797055844
 30
0.0
 10
172.9465172181523
 20
-88.62907215039922
 30
0.0
 10
172.5413190941587
 20
-89.13389320987298
 30
0.0
 10
171.6983428990703
 20
-90.10317918181529
 30
0.0
 10
171.2592633900559
 20
-90.56956003918725
 30
0.0
 10
170.3463088267822
 20
-91.46619842140296
 30
0.0
 10
169.8724295323958
 20
-91.89645153516749
 30
0.0
 10
168.8895712923195
 20
-92.72051892294508
 30
0.0
 10
168.3792169752996
 20
-93.11529829365797
 30
0.0
 10
166.8037643426941
 20
-94.23707712731711
 30
0.0
 10
165.7054898520183
 20
-94.89461477535224
 30
0.0
 10
163.9892806999457
 20
-95.75083684338523
 30
0.0
 10
163.4058172795039
 20
-96.01468078862689
 30
0.0
 10
162.2161405543965
 20
-96.49909689562098
 30
0.0
 10
161.6094791169311
 20
-96.71960722381013
 30
0.0
 10
160.3888740625696
 20
-97.112349936102
 30
0.0
 10
159.7730844556176
 20
-97.28536152936617
 30
0.0
 10
158.841759604997
 20
-97.51073163125143
 30
0.0
 10
158.5300449971922
 20
-97.58016024627747
 30
0.0
 10
157.9041758000546
 20
-97.70773236775787
 30
0.0
 10
157.5881634556102
 20
-97.76618538066636
 30
0.0
 10
157.2747039411487
 20
-97.81841367435811
 30
0.0
  0
SPLINE
  5
B2
330
1F
100
AcDbEntity
  8
0
  6
Continuous
 62
     7
370
    25
100
AcDbSpline
210
0.0
220
0.0
230
1.0
 70
     8
 71
     3
 72
    11
 73
     7
 74
     0
 42
0.000000001
 43
0.00000001
 40
0.0
 40
0.0
 40
0.0
 40
0.0
 40
0.0006126141640398
 40
0.0006126141640398
 40
0.0006126141640398
 40
0.0006126741640398
 40
0.0006126741640398
 40
0.0006126741640398
 40
0.0006126741640398
 10
177.8786811786777
 20
95.20402783245481
 30
0.0
 10
177.8786098374442
 20
94.99990377414119
 30
0.0
 10
177.8759632746574
 20
94.7957506109679
 30
0.0
 10
177.8707509174429
 20
94.59166882939017
 30
0.0
 10
177.8707504069398
 20
94.59164884143101
 30
0.0
 10
177.870749896401
 20
94.59162885347288
 30
0.0
 10
177.8707493858597
 20
94.59160886551423
 30
0.0
  0
SPLINE
  5
B3
330
1F
100
AcDbEntity
  8
0
  6
Continuous
 62
     7
370
    25
100
AcDbSpline
210
0.0
220
0.0
230
1.0
 70
     8
 71
     3
 72
    35
 73
    31
 74
     0
 42
0.000000001
 43
0.00000001
 40
0.0
 40
0.0
 40
0.0
 40
0.0
 40
0.0156249999999986
 40
0.0156249999999986
 40
0.0312499999999973
 40
0.0624999999999962
 40
0.0624999999999962
 40
0.1249999999999961
 40
0.1249999999999961
 40
0.1874999999999961
 40
0.1874999999999961
 40
0.2499999999999961
 40
0.2499999999999961
 40
0.3124999999999961
 40
0.3124999999999961
 40
0.3749999999999961
 40
0.3749999999999961
 40
0.4374999999999961
 40
0.4374999999999961
 40
0.499999999999996
 40
0.499999999999996
 40
0.6249999999999963
 40
0.6249999999999963
 40
0.7499999999999964
 40
0.7499999999999964
 40
0.8124999999999977
 40
0.8124999999999977
 40
0.8749999999999989
 40
0.8749999999999989
 40
1.0
 40
1.0
 40
1.0
 40
1.0
 10
164.3181818091567
 20
115.0
 30
0.0
 10
164.4350081282491
 20
115.0
 30
0.0
 10
164.5545638965476
 20
114.997295831447
 30
0.0
 10
164.7888475018932
 20
114.9865186816854
 30
0.0
 10
165.1382554061915
 20
114.9622983963097
 30
0.0
 10
165.482363778759
 20
114.9140739261633
 30
0.0
 10
166.1655235703303
 20
114.7859207976279
 30
0.0
 10
166.6141476244043
 20
114.6582414722101
 30
0.0
 10
167.5085250141821
 20
114.3190837715233
 30
0.0
 10
167.9560059722671
 20
114.1061561779123
 30
0.0
 10
168.8262952079509
 20
113.6142318349111
 30
0.0
 10
169.2506717855305
 20
113.3355923265629
 30
0.0
 10
170.0795955845847
 20
112.7203802313621
 30
0.0
 10
170.4841779746855
 20
112.3837367517417
 30
0.0
 10
171.2747132547113
 20
111.6567775266185
 30
0.0
 10
171.6607755931717
 20
111.2657865890769
 30
0.0
 10
172.3993653445501
 20
110.4503485682989
 30
0.0
 10
172.7539269793785
 20
110.0239697370926
 30
0.0
 10
173.4339018227614
 20
109.1368103478938
 30
0.0
 10
173.7602151297317
 20
108.6746707682959
 30
0.0
 10
174.687792132724
 20
107.2477685739282
 30
0.0
 10
175.2309988010044
 20
106.2545229182655
 30
0.0
 10
176.1739952972691
 20
104.1930051317908
 30
0.0
 10
176.5739136693689
 20
103.1246914497954
 30
0.0
 10
177.0618957301248
 20
101.4663221926668
 30
0.0
 10
177.2051466616116
 20
100.9053666566666
 30
0.0
 10
177.4496476609797
 20
99.7812651268111
 30
0.0
 10
177.5515127958942
 20
99.21617714898939
 30
0.0
 10
177.7966419850879
 20
97.51201200220402
 30
0.0
 10
177.8790865958123
 20
96.36402166560114
 30
0.0
 10
177.8786811786777
 20
95.2040278324547
 30
0.0
  0
SPLINE
  5
B8
330
1F
100
AcDbEntity
  8
0
  6
Continuous
 62
     7
370
    25
100
AcDbSpline
210
0.0
220
0.0
230
1.0
 70
     8
 71
     3
 72
    35
 73
    31
 74
     0
 42
0.000000001
 43
0.00000001
 40
0.0
 40
0.0
 40
0.0
 40
0.0
 40
0.1249999999999971
 40
0.1249999999999971
 40
0.2499999999999941
 40
0.2499999999999941
 40
0.3124999999999927
 40
0.3124999999999927
 40
0.3749999999999912
 40
0.3749999999999912
 40
0.4999999999999883
 40
0.4999999999999883
 40
0.5624999999999882
 40
0.5624999999999882
 40
0.624999999999988
 40
0.624999999999988
 40
0.7499999999999897
 40
0.7499999999999897
 40
0.8124999999999916
 40
0.8124999999999916
 40
0.8749999999999933
 40
0.8749999999999933
 40
0.9374999999999952
 40
0.9374999999999952
 40
0.9687499999999977
 40
0.9687499999999977
 40
0.9843749999999992
 40
0.9921874999999997
 40
0.9921874999999997
 40
1.0
 40
1.0
 40
1.0
 40
1.0
 10
-177.8786811786781
 20
95.20402783367302
 30
0.0
 10
-177.8790869964232
 20
96.36516807385412
 30
0.0
 10
-177.7964857020635
 20
97.51154104089538
 30
0.0
 10
-177.4712840366011
 20
99.77548745923583
 30
0.0
 10
-177.2293279715553
 20
100.8931423776891
 30
0.0
 10
-176.7444723576307
 20
102.5470825091365
 30
0.0
 10
-176.5615360802516
 20
103.0969784334933
 30
0.0
 10
-176.1600361219213
 20
104.173675007372
 30
0.0
 10
-175.9414382652741
 20
104.7009920756885
 30
0.0
 10
-175.2335215784414
 20
106.2498283368779
 30
0.0
 10
-174.692407771739
 20
107.2385492849139
 30
0.0
 10
-173.7764919208221
 20
108.6506595949454
 30
0.0
 10
-173.4537714168665
 20
109.109476224234
 30
0.0
 10
-172.7723844167445
 20
110.0012216900042
 30
0.0
 10
-172.4142607626001
 20
110.4328963194004
 30
0.0
 10
-171.3084595065526
 20
111.6567116797992
 30
0.0
 10
-170.5239155545254
 20
112.3884279094993
 30
0.0
 10
-169.2629348374958
 20
113.3275490170005
 30
0.0
 10
-168.8343743100907
 20
113.6090217230842
 30
0.0
 10
-167.9691873381646
 20
114.0993333521336
 30
0.0
 10
-167.5310301336203
 20
114.3090736498481
 30
0.0
 10
-166.6371758072851
 20
114.6509115462284
 30
0.0
 10
-166.1792138934177
 20
114.7827730116091
 30
0.0
 10
-165.4888836116718
 20
114.9131323605711
 30
0.0
 10
-165.2575351870441
 20
114.9457013635644
 30
0.0
 10
-164.9076589224654
 20
114.9782766393161
 30
0.0
 10
-164.7320075136025
 20
114.9904937138814
 30
0.0
 10
-164.5551041326
 20
114.9966045240167
 30
0.0
 10
-164.4368706997887
 20
114.9993207192704
 30
0.0
 10
-164.3763560262042
 20
115.0
 30
0.0
 10
-164.3181818091568
 20
115.0
 30
0.0
  0
SPLINE
  5
B9
330
1F
100
AcDbEntity
  8
0
  6
Continuous
 62
     7
370
    25
100
AcDbSpline
210
0.0
220
0.0
230
1.0
 70
     8
 71
     3
 72
    11
 73
     7
 74
     0
 42
0.000000001
 43
0.00000001
 40
-0.0000000599638775
 40
-0.0000000599638775
 40
-0.0000000599638775
 40
-0.0000000599638775
 40
0.0
 40
0.0
 40
0.0
 40
0.000612614201378
 40
0.000612614201378
 40
0.000612614201378
 40
0.000612614201378
 10
-177.8707493858597
 20
94.59160886551417
 30
0.0
 10
-177.8707498960936
 20
94.59162884143923
 30
0.0
 10
-177.8707504063251
 20
94.59164881736376
 30
0.0
 10
-177.8707509165209
 20
94.59166879328933
 30
0.0
 10
-177.8759632743556
 20
94.7957505872992
 30
0.0
 10
-177.8786098374506
 20
94.9999037629183
 30
0.0
 10
-177.8786811786781
 20
95.20402783367302
 30
0.0
  0
SPLINE
  5
BB
330
1F
100
AcDbEntity
  8
0
  6
Continuous
 62
     7
370
    25
100
AcDbSpline
210
0.0
220
0.0
230
1.0
 70
     8
 71
     3
 72
    30
 73
    26
 74
     0
 42
0.000000001
 43
0.00000001
 40
0.0
 40
0.0
 40
0.0
 40
0.0
 40
0.2500000000000118
 40
0.3750000000000178
 40
0.4062500000000164
 40
0.4062500000000164
 40
0.4218750000000158
 40
0.4218750000000158
 40
0.4375000000000152
 40
0.4375000000000152
 40
0.4687500000000142
 40
0.4687500000000142
 40
0.5000000000000133
 40
0.5000000000000133
 40
0.5625000000000105
 40
0.5625000000000105
 40
0.6250000000000077
 40
0.6250000000000077
 40
0.7500000000000046
 40
0.7500000000000046
 40
0.8125000000000039
 40
0.8125000000000039
 40
0.8750000000000032
 40
0.8750000000000032
 40
1.0
 40
1.0
 40
1.0
 40
1.0
 10
-154.9999999957497
 20
105.0
 30
0.0
 10
-156.8770351362925
 20
105.0
 30
0.0
 10
-159.6925878471067
 20
105.0
 30
0.0
 10
-162.7427699504886
 20
105.0
 30
0.0
 10
-163.9159169133279
 20
105.0000000000001
 30
0.0
 10
-164.2678610021797
 20
105.0
 30
0.0
 10
-164.3851797868791
 20
105.0017522670163
 30
0.0
 10
-164.6197734887413
 20
104.9864554743333
 30
0.0
 10
-164.7376218011109
 20
104.97071456517
 30
0.0
 10
-165.0814099081579
 20
104.9025584940741
 30
0.0
 10
-165.3011370629474
 20
104.8309066692908
 30
0.0
 10
-165.7294901711518
 20
104.6568566502177
 30
0.0
 10
-165.9384162903305
 20
104.5535884258928
 30
0.0
 10
-166.5482347807437
 20
104.2076520018722
 30
0.0
 10
-166.9220025157705
 20
103.936066075278
 30
0.0
 10
-167.6237974607817
 20
103.3357335847076
 30
0.0
 10
-167.9534041741001
 20
103.0036163275356
 30
0.0
 10
-168.8621339100266
 20
101.95135153959
 30
0.0
 10
-169.3623530289912
 20
101.1802664795774
 30
0.0
 10
-169.9803954125148
 20
99.93648184254326
 30
0.0
 10
-170.1633908668205
 20
99.50724838126332
 30
0.0
 10
-170.4781230706466
 20
98.63965959678494
 30
0.0
 10
-170.611059163444
 20
98.19885733044232
 30
0.0
 10
-170.9392936076856
 20
96.85620606312953
 30
0.0
 10
-171.0641066599442
 20
95.92963051318075
 30
0.0
 10
-171.092054343577
 20
94.99999999999959
 30
0.0
  0
SPLINE
  5
BE
330
1F
100
AcDbEntity
  8
0
  6
Continuous
 62
     7
370
    25
100
AcDbSpline
210
0.0
220
0.0
230
1.0
 70
     8
 71
     3
 72
    32
 73
    28
 74
     0
 42
0.000000001
 43
0.00000001
 40
0.0
 40
0.0
 40
0.0
 40
0.0
 40
0.1250000000000043
 40
0.1250000000000043
 40
0.187500000000006
 40
0.187500000000006
 40
0.2500000000000077
 40
0.2500000000000077
 40
0.3750000000000144
 40
0.3750000000000144
 40
0.4375000000000178
 40
0.4375000000000178
 40
0.4687500000000194
 40
0.4687500000000194
 40
0.5000000000000211
 40
0.5000000000000211
 40
0.5312500000000229
 40
0.5312500000000229
 40
0.5625000000000245
 40
0.5625000000000245
 40
0.5781250000000235
 40
0.5781250000000235
 40
0.5937500000000225
 40
0.5937500000000225
 40
0.6250000000000204
 40
0.7500000000000124
 40
1.0
 40
1.0
 40
1.0
 40
1.0
 10
171.0920543436013
 20
94.99999999918873
 30
0.0
 10
171.0638731994638
 20
95.9373961670802
 30
0.0
 10
170.9396729014797
 20
96.85635046575285
 30
0.0
 10
170.6088532566153
 20
98.20702490861919
 30
0.0
 10
170.4742504463254
 20
98.65257687173937
 30
0.0
 10
170.1529533884593
 20
99.53367588296543
 30
0.0
 10
169.9690406778341
 20
99.96160646500499
 30
0.0
 10
169.3490685221215
 20
101.202249260798
 30
0.0
 10
168.8460312854874
 20
101.9752909687125
 30
0.0
 10
167.9245100834539
 20
103.0342649045072
 30
0.0
 10
167.5902945242403
 20
103.3680329450602
 30
0.0
 10
167.0542949288018
 20
103.8207562424151
 30
0.0
 10
166.8692794226057
 20
103.9642430044897
 30
0.0
 10
166.4844261009449
 20
104.2338914607674
 30
0.0
 10
166.2845067261282
 20
104.3599633671338
 30
0.0
 10
165.8742507695393
 20
104.586315752337
 30
0.0
 10
165.6632026352404
 20
104.6873743323746
 30
0.0
 10
165.2251435314015
 20
104.8568181215606
 30
0.0
 10
164.996703407119
 20
104.9252829023178
 30
0.0
 10
164.6531460620226
 20
104.982493821767
 30
0.0
 10
164.5379122563961
 20
104.9940082065313
 30
0.0
 10
164.3060522235155
 20
105.0023158801346
 30
0.0
 10
164.1895102571345
 20
105.0
 30
0.0
 10
163.8405415131926
 20
105.0
 30
0.0
 10
162.6773123667198
 20
105.0
 30
0.0
 10
159.6529165858904
 20
105.0
 30
0.0
 10
156.8611666343559
 20
105.0
 30
0.0
 10
154.9999999999994
 20
105.0
 30
0.0
  0
SPLINE
  5
C2
330
1F
100
AcDbEntity
  8
0
  6
Continuous
 62
     7
370
    25
100
AcDbSpline
210
0.0
220
0.0
230
1.0
 70
     8
 71
     3
 72
    38
 73
    34
 74
     0
 42
0.000000001
 43
0.00000001
 40
0.0
 40
0.0
 40
0.0
 40
0.0
 40
0.0625000000000031
 40
0.0625000000000031
 40
0.0937500000000046
 40
0.0937500000000046
 40
0.1250000000000061
 40
0.1250000000000061
 40
0.1875000000000059
 40
0.1875000000000059
 40
0.2500000000000056
 40
0.2500000000000056
 40
0.3750000000000046
 40
0.3750000000000046
 40
0.4375000000000036
 40
0.4375000000000036
 40
0.5000000000000027
 40
0.5625000000000017
 40
0.5625000000000017
 40
0.6250000000000008
 40
0.6250000000000008
 40
0.7499999999999989
 40
0.7499999999999989
 40
0.7812499999999988
 40
0.7812499999999988
 40
0.8124999999999986
 40
0.8124999999999986
 40
0.8749999999999984
 40
0.8749999999999984
 40
0.9062499999999984
 40
0.9062499999999984
 40
0.9374999999999983
 40
1.0
 40
1.0
 40
1.0
 40
1.0
 10
154.9999999988617
 20
-91.27137451878328
 30
0.0
 10
155.546530208901
 20
-91.27137451878328
 30
0.0
 10
156.0930604189402
 20
-91.27137451878328
 30
0.0
 10
156.912855733999
 20
-91.27137451878328
 30
0.0
 10
157.1863548335032
 20
-91.27423704367214
 30
0.0
 10
157.7321773247508
 20
-91.26557930689128
 30
0.0
 10
158.0043103499818
 20
-91.25173023443388
 30
0.0
 10
158.8184906304716
 20
-91.18303982818452
 30
0.0
 10
159.3583305493947
 20
-91.10119548528162
 30
0.0
 10
160.4323829445065
 20
-90.86866460040332
 30
0.0
 10
160.9683943109359
 20
-90.71683627306577
 30
0.0
 10
162.5236845855454
 20
-90.17487895149605
 30
0.0
 10
163.5062992382836
 20
-89.69792830404057
 30
0.0
 10
164.9015382431661
 20
-88.81475850583152
 30
0.0
 10
165.3535892517455
 20
-88.49120434902689
 30
0.0
 10
166.2089147636707
 20
-87.80348642110059
 30
0.0
 10
167.0215142434843
 20
-87.07168118786097
 30
0.0
 10
167.7500583597019
 20
-86.25314254422076
 30
0.0
 10
168.4350981092414
 20
-85.38971346256346
 30
0.0
 10
168.7549513248365
 20
-84.93588640177647
 30
0.0
 10
169.6236559471737
 20
-83.54060654528983
 30
0.0
 10
170.0925927443314
 20
-82.55540279951187
 30
0.0
 10
170.5297567782454
 20
-81.24950637010645
 30
0.0
 10
170.609821553955
 20
-80.9835044087849
 30
0.0
 10
170.7521094460914
 20
-80.44991933572966
 30
0.0
 10
170.8144647698504
 20
-80.18219579859034
 30
0.0
 10
170.9748712097905
 20
-79.37620107673754
 30
0.0
 10
171.0464724352292
 20
-78.83512798933774
 30
0.0
 10
171.0949857987384
 20
-78.01728015570983
 30
0.0
 10
171.0981836092735
 20
-77.7432899161172
 30
0.0
 10
171.0981836092735
 20
-77.19463193289157
 30
0.0
 10
171.0981836092737
 20
-76.37164495805298
 30
0.0
 10
171.0981836092736
 20
-75.54865798321464
 30
0.0
 10
171.0981836092736
 20
-74.999999999989
 30
0.0
  0
SPLINE
  5
C5
330
1F
100
AcDbEntity
  8
0
  6
Continuous
 62
     7
370
    25
100
AcDbSpline
210
0.0
220
0.0
230
1.0
 70
     8
 71
     3
 72
    39
 73
    35
 74
     0
 42
0.000000001
 43
0.00000001
 40
0.0
 40
0.0
 40
0.0
 40
0.0
 40
0.0624999999999995
 40
0.0937499999999992
 40
0.0937499999999992
 40
0.1249999999999989
 40
0.1249999999999989
 40
0.1874999999999984
 40
0.1874999999999984
 40
0.2499999999999978
 40
0.2499999999999978
 40
0.3749999999999968
 40
0.3749999999999968
 40
0.4374999999999969
 40
0.4374999999999969
 40
0.499999999999997
 40
0.499999999999997
 40
0.5624999999999971
 40
0.5624999999999971
 40
0.6249999999999972
 40
0.6249999999999972
 40
0.7499999999999974
 40
0.7499999999999974
 40
0.7812499999999974
 40
0.7812499999999974
 40
0.8124999999999974
 40
0.8124999999999974
 40
0.8749999999999973
 40
0.8749999999999973
 40
0.9062499999999988
 40
0.9062499999999988
 40
0.9375000000000003
 40
0.9375000000000003
 40
1.0
 40
1.0
 40
1.0
 40
1.0
 10
-171.0981836092735
 20
-74.99999999919
 30
0.0
 10
-171.0981836092735
 20
-75.54624863534008
 30
0.0
 10
-171.0981836092734
 20
-76.36562158956521
 30
0.0
 10
-171.0981836092735
 20
-77.18499454379034
 30
0.0
 10
-171.0981836092735
 20
-77.73124317994048
 30
0.0
 10
-171.0954212725694
 20
-78.00417197112331
 30
0.0
 10
-171.048017484332
 20
-78.82018953590324
 30
0.0
 10
-170.9771975380133
 20
-79.36142531318158
 30
0.0
 10
-170.7639892637189
 20
-80.43883103225768
 30
0.0
 10
-170.620281948808
 20
-80.97739511738621
 30
0.0
 10
-170.0988148522878
 20
-82.54014536200833
 30
0.0
 10
-169.6311239384819
 20
-83.52715329680291
 30
0.0
 10
-168.7591675771243
 20
-84.92983372213108
 30
0.0
 10
-168.4391022288046
 20
-85.38410023233415
 30
0.0
 10
-167.7576287311168
 20
-86.24415766660671
 30
0.0
 10
-167.394469119971
 20
-86.65301236999792
 30
0.0
 10
-166.624186716013
 20
-87.42920713871726
 30
0.0
 10
-166.2170708373123
 20
-87.7965537330729
 30
0.0
 10
-165.3574980329987
 20
-88.48843115912207
 30
0.0
 10
-164.9070838791056
 20
-88.81081158382095
 30
0.0
 10
-163.5198831259538
 20
-89.69019151953134
 30
0.0
 10
-162.5386239171972
 20
-90.16874552203517
 30
0.0
 10
-161.2368622972827
 20
-90.62351192793493
 30
0.0
 10
-160.9720587258177
 20
-90.70726224403245
 30
0.0
 10
-160.4418705130086
 20
-90.85732091141074
 30
0.0
 10
-160.1756936231174
 20
-90.92394611883884
 30
0.0
 10
-159.3738862853997
 20
-91.09838957273469
 30
0.0
 10
-158.8349988846546
 20
-91.18092867161965
 30
0.0
 10
-158.0197152207718
 20
-91.25077434763197
 30
0.0
 10
-157.7467906438532
 20
-91.26502674512528
 30
0.0
 10
-157.1984701980089
 20
-91.27435037386557
 30
0.0
 10
-156.923325941518
 20
-91.27137451878323
 30
0.0
 10
-156.0990433951521
 20
-91.27137451878322
 30
0.0
 10
-155.5495216975748
 20
-91.27137451878328
 30
0.0
 10
-154.9999999999976
 20
-91.27137451878326
 30
0.0
  0
SPLINE
  5
C7
330
1F
100
AcDbEntity
  8
0
  6
Continuous
 62
     7
370
    25
100
AcDbSpline
210
0.0
220
0.0
230
1.0
 70
     8
 71
     3
 72
    17
 73
    13
 74
     0
 42
0.000000001
 43
0.00000001
 40
0.0
 40
0.0
 40
0.0
 40
0.0
 40
0.0039062500000002
 40
0.0039062500000002
 40
0.0078125000000004
 40
0.0156250000000005
 40
0.0312500000000005
 40
0.0625000000000004
 40
0.1250000000000002
 40
0.2500000000000002
 40
0.5000000000000001
 40
1.0
 40
1.0
 40
1.0
 40
1.0
 10
-171.0920543435769
 20
94.99999999999957
 30
0.0
 10
-171.0987088147039
 20
94.77865072862463
 30
0.0
 10
-171.0981836092735
 20
94.55729616925524
 30
0.0
 10
-171.0981836092735
 20
94.11458782416788
 30
0.0
 10
-171.0981836092736
 20
93.45052530653706
 30
0.0
 10
-171.0981836092735
 20
91.90104609873137
 30
0.0
 10
-171.0981836092734
 20
88.8020876831199
 30
0.0
 10
-171.0981836092735
 20
82.60417085189758
 30
0.0
 10
-171.0981836092733
 20
70.20833718945242
 30
0.0
 10
-171.0981836092734
 20
45.41666986456223
 30
0.0
 10
-171.0981836092737
 20
-4.166664785218014
 30
0.0
 10
-171.0981836092732
 20
-46.6666659136012
 30
0.0
 10
-171.0981836092735
 20
-74.99999999919001
 30
0.0
  0
LWPOLYLINE
  5
C8
330
1F
100
AcDbEntity
  8
0
  6
Continuous
 62
     7
370
    25
100
AcDbPolyline
 90
        6
 70
   128
 43
0.0
 10
171.0981836093
 20
-75.0
 10
171.0981836093
 20
-55.0
 10
171.0981836093
 20
25.0
 10
171.0981836093
 20
59.9999999996
 10
171.2265861552
 20
77.5019757162
 10
171.0920543436
 20
94.9999999992
  0
CIRCLE
  5
CA
330
1F
100
AcDbEntity
  8
0
  6
Continuous
 62
     7
370
    25
100
AcDbCircle
 10
0.0
 20
20.0
 30
0.0
 40
39.12277660168388
  0
CIRCLE
  5
CB
330
1F
100
AcDbEntity
  8
0
  6
Continuous
 62
     7
370
    25
100
AcDbCircle
 10
0.0
 20
20.0
 30
0.0
 40
35.96049894151547
  0
CIRCLE
  5
CC
330
1F
100
AcDbEntity
  8
0
  6
Continuous
 62
     7
370
    25
100
AcDbCircle
 10
0.0
 20
20.0
 30
0.0
 40
23.86754446796635
  0
CIRCLE
  5
CD
330
1F
100
AcDbEntity
  8
0
  6
Continuous
 62
     7
370
    25
100
AcDbCircle
 10
0.0
 20
20.0
 30
0.0
 40
22.50000000000002
  0
LINE
  5
CF
330
1F
100
AcDbEntity
  8
0
  6
Continuous
 62
     7
370
    25
100
AcDbLine
 10
-256.5901184059
 20
-220.8726345303
 30
0.0
 11
256.5901184059
 21
-220.8726345303
 31
0.0
  0
LINE
  5
D0
330
1F
100
AcDbEntity
  8
0
  6
Continuous
 62
     7
370
    25
100
AcDbLine
 10
257.4999999998
 20
-220.8902212285
 30
0.0
 11
257.5625112036
 21
-223.47971398
 31
0.0
  0
LINE
  5
D1
330
1F
100
AcDbEntity
  8
0
  6
Continuous
 62
     7
370
    25
100
AcDbLine
 10
-257.4999999998
 20
-220.8902212285
 30
0.0
 11
-257.5625112036
 21
-223.47971398
 31
0.0
  0
LINE
  5
D2
330
1F
100
AcDbEntity
  8
0
  6
Continuous
 62
     7
370
    25
100
AcDbLine
 10
296.0449768075
 20
-185.0743899873
 30
0.0
 11
293.373783541
 21
-185.0000000037
 31
0.0
  0
LINE
  5
D3
330
1F
100
AcDbEntity
  8
0
  6
Continuous
 62
     7
370
    25
100
AcDbLine
 10
-293.373783541
 20
-185.000000004
 30
0.0
 11
-296.0449768075
 21
-185.0743899876
 31
0.0
  0
LINE
  5
D4
330
1F
100
AcDbEntity
  8
0
  6
Continuous
 62
     7
370
    25
100
AcDbLine
 10
298.5
 20
-185.0
 30
0.0
 11
302.5
 21
-185.0
 31
0.0
  0
LINE
  5
D5
330
1F
100
AcDbEntity
  8
0
  6
Continuous
 62
     7
370
    25
100
AcDbLine
 10
257.5
 20
-230.0
 30
0.0
 11
257.5
 21
-226.0
 31
0.0
  0
LINE
  5
D6
330
1F
100
AcDbEntity
  8
0
  6
Continuous
 62
     7
370
    25
100
AcDbLine
 10
-298.5
 20
226.0
 30
0.0
 11
-298.5
 21
-185.0
 31
0.0
  0
LINE
  5
D7
330
1F
100
AcDbEntity
  8
0
  6
Continuous
 62
     7
370
    25
100
AcDbLine
 10
-302.5
 20
-185.0
 30
0.0
 11
-298.5
 21
-185.0
 31
0.0
  0
LINE
  5
D8
330
1F
100
AcDbEntity
  8
0
  6
Continuous
 62
     7
370
    25
100
AcDbLine
 10
-302.5
 20
-185.0
 30
0.0
 11
-302.5
 21
230.0
 31
0.0
  0
LINE
  5
D9
330
1F
100
AcDbEntity
  8
0
  6
Continuous
 62
     7
370
    25
100
AcDbLine
 10
-298.5
 20
226.0
 30
0.0
 11
-302.5
 21
230.0
 31
0.0
  0
LINE
  5
DA
330
1F
100
AcDbEntity
  8
0
  6
Continuous
 62
     7
370
    25
100
AcDbLine
 10
257.5
 20
-230.0
 30
0.0
 11
-257.5
 21
-230.0
 31
0.0
  0
LINE
  5
DB
330
1F
100
AcDbEntity
  8
0
  6
Continuous
 62
     7
370
    25
100
AcDbLine
 10
-257.5
 20
-230.0
 30
0.0
 11
-257.5
 21
-226.0
 31
0.0
  0
LINE
  5
DC
330
1F
100
AcDbEntity
  8
0
  6
Continuous
 62
     7
370
    25
100
AcDbLine
 10
-257.5
 20
-226.0
 30
0.0
 11
257.5
 21
-226.0
 31
0.0
  0
LINE
  5
DD
330
1F
100
AcDbEntity
  8
0
  6
Continuous
 62
     7
370
    25
100
AcDbLine
 10
-257.8719077611
 20
118.8080568844
 30
0.0
 11
-257.4999999857
 21
114.8407253946
 31
0.0
  0
LINE
  5
DE
330
1F
100
AcDbEntity
  8
0
  6
Continuous
 62
     7
370
    25
100
AcDbLine
 10
257.8719077778
 20
118.8080568828
 30
0.0
 11
257.5000000009
 21
114.8407253933
 31
0.0
  0
LINE
  5
DF
330
1F
100
AcDbEntity
  8
0
  6
Continuous
 62
     7
370
    25
100
AcDbLine
 10
253.7727272587
 20
115.0
 30
0.0
 11
-253.7727272587
 21
115.0
 31
0.0
  0
LINE
  5
E0
330
1F
100
AcDbEntity
  8
0
  6
Continuous
 62
     7
370
    25
100
AcDbLine
 10
296.0607265563
 20
78.0000000039
 30
0.0
 11
293.3517002457
 21
78.0000000039
 31
0.0
  0
LINE
  5
E1
330
1F
100
AcDbEntity
  8
0
  6
Continuous
 62
     7
370
    25
100
AcDbLine
 10
298.5
 20
-185.0
 30
0.0
 11
298.5
 21
226.0
 31
0.0
  0
LINE
  5
E2
330
1F
100
AcDbEntity
  8
0
  6
Continuous
 62
     7
370
    25
100
AcDbLine
 10
298.5
 20
226.0
 30
0.0
 11
-298.5
 21
226.0
 31
0.0
  0
LINE
  5
E3
330
1F
100
AcDbEntity
  8
0
  6
Continuous
 62
     7
370
    25
100
AcDbLine
 10
293.3517002457
 20
-183.9429876606
 30
0.0
 11
293.3517002457
 21
78.0000000039
 31
0.0
  0
LINE
  5
E4
330
1F
100
AcDbEntity
  8
0
  6
Continuous
 62
     7
370
    25
100
AcDbLine
 10
-293.3517002457
 20
78.0000000037
 30
0.0
 11
-296.0607265563
 21
78.0000000037
 31
0.0
  0
LINE
  5
E5
330
1F
100
AcDbEntity
  8
0
  6
Continuous
 62
     7
370
    25
100
AcDbLine
 10
-302.5
 20
230.0
 30
0.0
 11
302.5
 21
230.0
 31
0.0
  0
LINE
  5
E6
330
1F
100
AcDbEntity
  8
0
  6
Continuous
 62
     7
370
    25
100
AcDbLine
 10
298.5
 20
226.0
 30
0.0
 11
302.5
 21
230.0
 31
0.0
  0
LINE
  5
E7
330
1F
100
AcDbEntity
  8
0
  6
Continuous
 62
     7
370
    25
100
AcDbLine
 10
302.5
 20
230.0
 30
0.0
 11
302.5
 21
-185.0
 31
0.0
  0
LINE
  5
E8
330
1F
100
AcDbEntity
  8
0
  6
Continuous
 62
     7
370
    25
100
AcDbLine
 10
-293.3517002457
 20
78.0000000037
 30
0.0
 11
-293.3517002457
 21
-183.9429876606
 31
0.0
  0
LINE
  5
E9
330
1F
100
AcDbEntity
  8
0
  6
Continuous
 62
     7
370
    25
100
AcDbLine
 10
-177.8707493859
 20
-77.642530807
 30
0.0
 11
-177.8707493859
 21
94.5916088655
 31
0.0
  0
LINE
  5
EA
330
1F
100
AcDbEntity
  8
0
  6
Continuous
 62
     7
370
    25
100
AcDbLine
 10
157.2747039411
 20
-97.8184136744
 30
0.0
 11
-157.2747039411
 21
-97.8184136744
 31
0.0
  0
LINE
  5
EB
330
1F
100
AcDbEntity
  8
0
  6
Continuous
 62
     7
370
    25
100
AcDbLine
 10
177.8707493859
 20
94.5916088655
 30
0.0
 11
177.8707493859
 21
-77.642530807
 31
0.0
  0
LINE
  5
EC
330
1F
100
AcDbEntity
  8
0
  6
Continuous
 62
     7
370
    25
100
AcDbLine
 10
-154.9999999957
 20
105.0
 30
0.0
 11
-154.9999999957
 21
115.0
 31
0.0
  0
LINE
  5
ED
330
1F
100
AcDbEntity
  8
0
  6
Continuous
 62
     7
370
    25
100
AcDbLine
 10
-177.8786811787
 20
95.2040278337
 30
0.0
 11
-171.0920543436
 21
95.0
 31
0.0
  0
LINE
  5
EE
330
1F
100
AcDbEntity
  8
0
  6
Continuous
 62
     7
370
    25
100
AcDbLine
 10
171.0920543436
 20
94.9999999992
 30
0.0
 11
177.8786811787
 21
95.2040278325
 31
0.0
  0
LINE
  5
EF
330
1F
100
AcDbEntity
  8
0
  6
Continuous
 62
     7
370
    25
100
AcDbLine
 10
155.0
 20
105.0
 30
0.0
 11
155.0
 21
115.0
 31
0.0
  0
LINE
  5
F0
330
1F
100
AcDbEntity
  8
0
  6
Continuous
 62
     7
370
    25
100
AcDbLine
 10
155.0
 20
105.0
 30
0.0
 11
-154.9999999957
 21
105.0
 31
0.0
  0
LINE
  5
F1
330
1F
100
AcDbEntity
  8
0
  6
Continuous
 62
     7
370
    25
100
AcDbLine
 10
154.9999999989
 20
-97.8184136744
 30
0.0
 11
154.9999999989
 21
-91.2713745188
 31
0.0
  0
LINE
  5
F2
330
1F
100
AcDbEntity
  8
0
  6
Continuous
 62
     7
370
    25
100
AcDbLine
 10
171.0981836093
 20
-75.0
 30
0.0
 11
177.8707493859
 21
-75.0
 31
0.0
  0
LINE
  5
F3
330
1F
100
AcDbEntity
  8
0
  6
Continuous
 62
     7
370
    25
100
AcDbLine
 10
-177.8707493859
 20
-74.9999999992
 30
0.0
 11
-171.0981836093
 21
-74.9999999992
 31
0.0
  0
LINE
  5
F4
330
1F
100
AcDbEntity
  8
0
  6
Continuous
 62
     7
370
    25
100
AcDbLine
 10
-155.0
 20
-97.8184136744
 30
0.0
 11
-155.0
 21
-91.2713745188
 31
0.0
  0
LINE
  5
F5
330
1F
100
AcDbEntity
  8
0
  6
Continuous
 62
     7
370
    25
100
AcDbLine
 10
-155.0
 20
-91.2713745188
 30
0.0
 11
154.9999999989
 21
-91.2713745188
 31
0.0
  0
ARC
  5
F6
330
1F
100
AcDbEntity
  8
0
  6
Continuous
 62
     7
370
    25
100
AcDbCircle
 10
257.5
 20
-185.0
 30
0.0
 40
41.00000000000006
100
AcDbArc
 50
270.0
 51
0.0
  0
ARC
  5
F7
330
1F
100
AcDbEntity
  8
0
  6
Continuous
 62
     7
370
    25
100
AcDbCircle
 10
257.5
 20
-185.0
 30
0.0
 40
45.00000000000011
100
AcDbArc
 50
270.0
 51
0.0
  0
ARC
  5
F8
330
1F
100
AcDbEntity
  8
0
  6
Continuous
 62
     7
370
    25
100
AcDbCircle
 10
-257.5
 20
-185.0
 30
0.0
 40
45.00000000000006
100
AcDbArc
 50
180.0
 51
270.0
  0
ARC
  5
F9
330
1F
100
AcDbEntity
  8
0
  6
Continuous
 62
     7
370
    25
100
AcDbCircle
 10
-257.5
 20
-185.0
 30
0.0
 40
40.99999999999989
100
AcDbArc
 50
180.0
 51
270.0
  0
ARC
  5
FA
330
1F
100
AcDbEntity
  8
0
  6
Continuous
 62
     7
370
    25
100
AcDbCircle
 10
0.0
 20
20.939135378
 30
0.0
 40
22.50156379781526
100
AcDbArc
 50
181.2911730221
 51
358.7088269779
  0
SPLINE
  5
13E
330
1B
100
AcDbEntity
 67
     1
  8
0
  6
Continuous
 62
     7
370
    25
100
AcDbSpline
210
0.0
220
0.0
230
1.0
 70
    24
 71
     3
 72
    27
 73
    23
 74
     0
 42
0.000000001
 43
0.00000001
 40
0.0
 40
0.0
 40
0.0
 40
0.0
 40
0.0178838707636351
 40
0.071554506070513
 40
0.1252254994851899
 40
0.1791251453696897
 40
0.2330257130780464
 40
0.2871144261279332
 40
0.3412042603916575
 40
0.3953565383048316
 40
0.4495093082388738
 40
0.5036592911642706
 40
0.5578091010392393
 40
0.5914182377672831
 40
0.6250273068430238
 40
0.6787467338402307
 40
0.7324650834584087
 40
0.7859967798337937
 40
0.8395272018865063
 40
0.8929967560352928
 40
0.9464650026716374
 40
1.0
 40
1.0
 40
1.0
 40
1.0
 10
33.64372914578028
 20
-160.0
 30
0.0
 10
33.67142834852161
 20
-160.0
 30
0.0
 10
33.78225462304007
 20
-160.0
 30
0.0
 10
32.98510208724023
 20
-159.9999999999999
 30
0.0
 10
31.29062868369904
 20
-160.0
 30
0.0
 10
28.61858042671942
 20
-160.0
 30
0.0
 10
25.15918052915882
 20
-160.0
 30
0.0
 10
20.95879462493817
 20
-160.0000000000001
 30
0.0
 10
16.16818520533312
 20
-160.0
 30
0.0
 10
10.90585865705689
 20
-160.0
 30
0.0
 10
5.337998621508299
 20
-160.0
 30
0.0
 10
-0.3838897010669875
 20
-160.0000000000001
 30
0.0
 10
-5.374286444101444
 20
-160.0
 30
0.0
 10
-9.531837676989658
 20
-159.9999999999999
 30
0.0
 10
-13.55123885509913
 20
-160.0000000000001
 30
0.0
 10
-17.98230151266569
 20
-160.0
 30
0.0
 10
-22.54378704271302
 20
-160.0
 30
0.0
 10
-26.45450999698722
 20
-160.0
 30
0.0
 10
-29.63780918717868
 20
-160.0000000000001
 30
0.0
 10
-31.95340254401129
 20
-159.9999999999999
 30
0.0
 10
-33.45632151745047
 20
-160.0
 30
0.0
 10
-33.65021020033503
 20
-160.0
 30
0.0
 10
-33.7472150175315
 20
-160.0
 30
0.0
  0
SPLINE
  5
14B
330
1B
100
AcDbEntity
 67
     1
  8
0
  6
Continuous
 62
     8
370
    25
100
AcDbSpline
210
0.0
220
0.0
230
1.0
 70
     8
 71
     3
 72
    28
 73
    24
 74
     0
 42
0.000000001
 43
0.00000001
 40
0.0
 40
0.0
 40
0.0
 40
0.0
 40
0.0003898426207151
 40
0.0546022199240674
 40
0.1072152454019943
 40
0.1613516860866372
 40
0.2140144640395622
 40
0.2681939479706262
 40
0.3210241650896225
 40
0.3753735035449184
 40
0.4087091254030247
 40
0.4424129104349543
 40
0.4956441667120526
 40
0.5504182172456088
 40
0.6036569837366687
 40
0.6584431354489544
 40
0.7116316384959165
 40
0.7663730544917416
 40
0.8193926068315986
 40
0.8739626698004596
 40
0.9267718827248603
 40
0.9811227753937813
 40
1.0
 40
1.0
 40
1.0
 40
1.0
 10
-36.73588775241478
 20
-157.26146722586
 30
0.0
 10
-36.73712093093342
 20
-157.2614672266877
 30
0.0
 10
-36.90984264247114
 20
-157.2614673426065
 30
0.0
 10
-36.30275487638163
 20
-157.2614668835265
 30
0.0
 10
-34.83193972217111
 20
-157.2614672580261
 30
0.0
 10
-32.27631622584087
 20
-157.2614648103836
 30
0.0
 10
-28.82000386243525
 20
-157.2614651826516
 30
0.0
 10
-24.57614527823627
 20
-157.2614670817832
 30
0.0
 10
-19.59935000876626
 20
-157.2614673047693
 30
0.0
 10
-14.78022379530352
 20
-157.2614672331362
 30
0.0
 10
-10.3797490109511
 20
-157.2614671944389
 30
0.0
 10
-5.883740313946252
 20
-157.2614671776707
 30
0.0
 10
-0.4482006886954992
 20
-157.2614673269549
 30
0.0
 10
5.749759069735963
 20
-157.2614667430403
 30
0.0
 10
11.84136768246524
 20
-157.2614675873484
 30
0.0
 10
17.54148546500033
 20
-157.2614671318405
 30
0.0
 10
22.79042552314888
 20
-157.261467289947
 30
0.0
 10
27.34033601234936
 20
-157.261467655271
 30
0.0
 10
31.13976973605833
 20
-157.2614665998781
 30
0.0
 10
34.03288039101184
 20
-157.2614673298786
 30
0.0
 10
35.90856996497812
 20
-157.2614673711936
 30
0.0
 10
36.7739376697493
 20
-157.2614674481252
 30
0.0
 10
36.65446251262421
 20
-157.2614673649995
 30
0.0
 10
36.62366342260473
 20
-157.2614673435707
 30
0.0
  0
LINE
  5
150
330
1B
100
AcDbEntity
 67
     1
  8
0
  6
Continuous
 62
     7
370
    25
100
AcDbLine
 10
33.0
 20
-134.8165669232
 30
0.0
 11
163.2978583319
 21
-134.8165669232
 31
0.0
  0
LINE
  5
151
330
1B
100
AcDbEntity
 67
     1
  8
0
  6
Continuous
 62
     7
370
    25
100
AcDbLine
 10
-163.2978583319
 20
-134.8165669232
 30
0.0
 11
-33.0
 21
-134.8165669232
 31
0.0
  0
LINE
  5
152
330
1B
100
AcDbEntity
 67
     1
  8
0
  6
Continuous
 62
     7
370
    25
100
AcDbLine
 10
-38.7032649031
 20
-134.8165669232
 30
0.0
 11
-36.7395624455
 21
-157.2617887198
 31
0.0
  0
LINE
  5
153
330
1B
100
AcDbEntity
 67
     1
  8
0
  6
Continuous
 62
     7
370
    25
100
AcDbLine
 10
36.7387099653
 20
-157.2715326118
 30
0.0
 11
38.7032649029
 21
-134.8165669232
 31
0.0
  0
LINE
  5
154
330
1B
100
AcDbEntity
 67
     1
  8
0
  6
Continuous
 62
     7
370
    25
100
AcDbLine
 10
-263.0355339059
 20
-53.4644660941
 30
0.0
 11
-240.8057324841
 21
-75.6942675159
 31
0.0
  0
LINE
  5
155
330
1B
100
AcDbEntity
 67
     1
  8
0
  6
Continuous
 62
     7
370
    25
100
AcDbLine
 10
-292.5
 20
-52.0
 30
0.0
 11
-266.5710678119
 21
-52.0
 31
0.0
  0
LINE
  5
156
330
1B
100
AcDbEntity
 67
     1
  8
0
  6
Continuous
 62
     7
370
    25
100
AcDbLine
 10
-292.5
 20
-56.0
 30
0.0
 11
-292.5
 21
-52.0
 31
0.0
  0
LINE
  5
157
330
1B
100
AcDbEntity
 67
     1
  8
0
  6
Continuous
 62
     7
370
    25
100
AcDbLine
 10
-256.5
 20
-60.0
 30
0.0
 11
-298.5
 21
-60.0
 31
0.0
  0
LINE
  5
158
330
1B
100
AcDbEntity
 67
     1
  8
0
  6
Continuous
 62
     7
370
    25
100
AcDbLine
 10
-302.5
 20
-56.0
 30
0.0
 11
-302.5
 21
-4.0
 31
0.0
  0
LINE
  5
159
330
1B
100
AcDbEntity
 67
     1
  8
0
  6
Continuous
 62
     7
370
    25
100
AcDbLine
 10
302.5
 20
-4.0
 30
0.0
 11
-302.5
 21
-4.0
 31
0.0
  0
LINE
  5
15A
330
1B
100
AcDbEntity
 67
     1
  8
0
  6
Continuous
 62
     7
370
    25
100
AcDbLine
 10
302.5
 20
-56.0
 30
0.0
 11
302.5
 21
-4.0
 31
0.0
  0
LINE
  5
15B
330
1B
100
AcDbEntity
 67
     1
  8
0
  6
Continuous
 62
     7
370
    25
100
AcDbLine
 10
298.5
 20
-60.0
 30
0.0
 11
256.5
 21
-60.0
 31
0.0
  0
LINE
  5
15C
330
1B
100
AcDbEntity
 67
     1
  8
0
  6
Continuous
 62
     7
370
    25
100
AcDbLine
 10
292.5
 20
-56.0
 30
0.0
 11
292.5
 21
-52.0
 31
0.0
  0
LINE
  5
15D
330
1B
100
AcDbEntity
 67
     1
  8
0
  6
Continuous
 62
     7
370
    25
100
AcDbLine
 10
266.5710678119
 20
-52.0
 30
0.0
 11
292.5
 21
-52.0
 31
0.0
  0
LINE
  5
15E
330
1B
100
AcDbEntity
 67
     1
  8
0
  6
Continuous
 62
     7
370
    25
100
AcDbLine
 10
240.8057324841
 20
-75.6942675159
 30
0.0
 11
263.0355339059
 21
-53.4644660941
 31
0.0
  0
LINE
  5
15F
330
1B
100
AcDbEntity
 67
     1
  8
0
  6
Continuous
 62
     7
370
    25
100
AcDbLine
 10
231.3253794454
 20
-136.4992904539
 30
0.0
 11
240.8057324841
 21
-75.6942675159
 31
0.0
  0
LINE
  5
160
330
1B
100
AcDbEntity
 67
     1
  8
0
  6
Continuous
 62
     7
370
    25
100
AcDbLine
 10
177.5
 20
-145.0
 30
0.0
 11
221.4319207018
 21
-145.0
 31
0.0
  0
LINE
  5
161
330
1B
100
AcDbEntity
 67
     1
  8
0
  6
Continuous
 62
     7
370
    25
100
AcDbLine
 10
-221.4319207018
 20
-145.0
 30
0.0
 11
-177.5
 21
-145.0
 31
0.0
  0
LINE
  5
162
330
1B
100
AcDbEntity
 67
     1
  8
0
  6
Continuous
 62
     7
370
    25
100
AcDbLine
 10
-231.3253794454
 20
-136.4992904539
 30
0.0
 11
-240.8057324841
 21
-75.6942675159
 31
0.0
  0
LINE
  5
163
330
1B
100
AcDbEntity
 67
     1
  8
0
  6
Continuous
 62
     7
370
    25
100
AcDbLine
 10
134.5
 20
-65.5
 30
0.0
 11
145.5
 21
-65.5
 31
0.0
  0
LINE
  5
164
330
1B
100
AcDbEntity
 67
     1
  8
0
  6
Continuous
 62
     7
370
    25
100
AcDbLine
 10
145.5
 20
-44.5
 30
0.0
 11
134.5
 21
-44.5
 31
0.0
  0
LINE
  5
165
330
1B
100
AcDbEntity
 67
     1
  8
0
  6
Continuous
 62
     7
370
    25
100
AcDbLine
 10
-134.5
 20
-44.5
 30
0.0
 11
-145.5
 21
-44.5
 31
0.0
  0
LINE
  5
166
330
1B
100
AcDbEntity
 67
     1
  8
0
  6
Continuous
 62
     7
370
    25
100
AcDbLine
 10
-145.5
 20
-65.5
 30
0.0
 11
-134.5
 21
-65.5
 31
0.0
  0
LINE
  5
167
330
1B
100
AcDbEntity
 67
     1
  8
0
  6
Continuous
 62
     7
370
    25
100
AcDbLine
 10
-298.5
 20
0.0
 30
0.0
 11
298.5
 21
0.0
 31
0.0
  0
LINE
  5
168
330
1B
100
AcDbEntity
 67
     1
  8
0
  6
Continuous
 62
     7
370
    25
100
AcDbLine
 10
-30.0
 20
-150.5
 30
0.0
 11
-30.0
 21
-86.5422528075
 31
0.0
  0
LINE
  5
169
330
1B
100
AcDbEntity
 67
     1
  8
0
  6
Continuous
 62
     7
370
    25
100
AcDbLine
 10
-27.0
 20
-86.2485964632
 30
0.0
 11
-27.0
 21
-153.5
 31
0.0
  0
LINE
  5
16A
330
1B
100
AcDbEntity
 67
     1
  8
0
  6
Continuous
 62
     7
370
    25
100
AcDbLine
 10
30.0
 20
-86.5422528075
 30
0.0
 11
30.0
 21
-150.5
 31
0.0
  0
LINE
  5
16B
330
1B
100
AcDbEntity
 67
     1
  8
0
  6
Continuous
 62
     7
370
    25
100
AcDbLine
 10
-30.0
 20
-133.2450695996
 30
0.0
 11
30.0
 21
-133.2450695996
 31
0.0
  0
LINE
  5
16C
330
1B
100
AcDbEntity
 67
     1
  8
0
  6
Continuous
 62
     7
370
    25
100
AcDbLine
 10
27.0
 20
-153.5
 30
0.0
 11
27.0
 21
-86.2485964632
 31
0.0
  0
LINE
  5
16D
330
1B
100
AcDbEntity
 67
     1
  8
0
  6
Continuous
 62
     7
370
    25
100
AcDbLine
 10
27.0
 20
-135.9075695996
 30
0.0
 11
-27.0
 21
-135.9075695996
 31
0.0
  0
LINE
  5
16E
330
1B
100
AcDbEntity
 67
     1
  8
0
  6
Continuous
 62
     7
370
    25
100
AcDbLine
 10
-27.0
 20
-153.1625
 30
0.0
 11
27.0
 21
-153.1625
 31
0.0
  0
LINE
  5
16F
330
1B
100
AcDbEntity
 67
     1
  8
0
  6
Continuous
 62
     7
370
    25
100
AcDbLine
 10
27.0
 20
-153.5
 30
0.0
 11
-27.0
 21
-153.5
 31
0.0
  0
LINE
  5
170
330
1B
100
AcDbEntity
 67
     1
  8
0
  6
Continuous
 62
     8
370
    25
100
AcDbLine
 10
33.0
 20
-86.8671654881
 30
0.0
 11
33.0
 21
-134.8165669232
 31
0.0
  0
LINE
  5
171
330
1B
100
AcDbEntity
 67
     1
  8
0
  6
Continuous
 62
     8
370
    25
100
AcDbLine
 10
-33.0
 20
-134.8165669232
 30
0.0
 11
-33.0
 21
-86.8671654881
 31
0.0
  0
LINE
  5
172
330
1B
100
AcDbEntity
 67
     1
  8
0
  6
Continuous
 62
     8
370
    25
100
AcDbLine
 10
-148.53818492
 20
-125.5141316607
 30
0.0
 11
-33.0
 21
-125.5141316607
 31
0.0
  0
LINE
  5
173
330
1B
100
AcDbEntity
 67
     1
  8
0
  6
Continuous
 62
     8
370
    25
100
AcDbLine
 10
33.0
 20
-125.5141316607
 30
0.0
 11
148.53818492
 21
-125.5141316607
 31
0.0
  0
LINE
  5
174
330
1B
100
AcDbEntity
 67
     1
  8
0
  6
Continuous
 62
     8
370
    25
100
AcDbLine
 10
260.5
 20
-56.0
 30
0.0
 11
292.5
 21
-56.0
 31
0.0
  0
LINE
  5
175
330
1B
100
AcDbEntity
 67
     1
  8
0
  6
Continuous
 62
     8
370
    25
100
AcDbLine
 10
257.5
 20
-59.0
 30
0.0
 11
257.5
 21
-60.0
 31
0.0
  0
LINE
  5
176
330
1B
100
AcDbEntity
 67
     1
  8
0
  6
Continuous
 62
     8
370
    25
100
AcDbLine
 10
-292.5
 20
-56.0
 30
0.0
 11
-260.5
 21
-56.0
 31
0.0
  0
LINE
  5
177
330
1B
100
AcDbEntity
 67
     1
  8
0
  6
Continuous
 62
     8
370
    25
100
AcDbLine
 10
-257.5
 20
-59.0
 30
0.0
 11
-257.5
 21
-60.0
 31
0.0
  0
ARC
  5
178
330
1B
100
AcDbEntity
 67
     1
  8
0
  6
Continuous
 62
     7
370
    25
100
AcDbCircle
 10
33.0
 20
-137.8165669232
 30
0.0
 40
3.000000000000028
100
AcDbArc
 50
90.0
 51
180.0
  0
ARC
  5
179
330
1B
100
AcDbEntity
 67
     1
  8
0
  6
Continuous
 62
     7
370
    25
100
AcDbCircle
 10
-33.0
 20
-137.8165669232
 30
0.0
 40
3.0
100
AcDbArc
 50
0.0
 51
90.0
  0
ARC
  5
17A
330
1B
100
AcDbEntity
 67
     1
  8
0
  6
Continuous
 62
     7
370
    25
100
AcDbCircle
 10
33.7508229315
 20
-157.00000978
 30
0.0
 40
2.999990219223186
100
AcDbArc
 50
269.9933824503
 51
354.5532364382
  0
ARC
  5
17B
330
1B
100
AcDbEntity
 67
     1
  8
0
  6
Continuous
 62
     7
370
    25
100
AcDbCircle
 10
-33.7509163802
 20
-157.0000047174
 30
0.0
 40
2.999995282434357
100
AcDbArc
 50
185.0170173072
 51
270.0032460609
  0
ARC
  5
17C
330
1B
100
AcDbEntity
 67
     1
  8
0
  6
Continuous
 62
     7
370
    25
100
AcDbCircle
 10
-266.5710678119
 20
-57.0
 30
0.0
 40
5.000000000000045
100
AcDbArc
 50
45.0
 51
90.0
  0
ARC
  5
17D
330
1B
100
AcDbEntity
 67
     1
  8
0
  6
Continuous
 62
     7
370
    25
100
AcDbCircle
 10
-296.5
 20
-56.0
 30
0.0
 40
3.99999999999995
100
AcDbArc
 50
270.0
 51
0.0
  0
ARC
  5
17E
330
1B
100
AcDbEntity
 67
     1
  8
0
  6
Continuous
 62
     7
370
    25
100
AcDbCircle
 10
-298.5
 20
-56.0
 30
0.0
 40
4.000000000000057
100
AcDbArc
 50
180.0
 51
270.0
  0
ARC
  5
17F
330
1B
100
AcDbEntity
 67
     1
  8
0
  6
Continuous
 62
     7
370
    25
100
AcDbCircle
 10
298.5
 20
-56.0
 30
0.0
 40
3.99999999999995
100
AcDbArc
 50
270.0
 51
0.0
  0
ARC
  5
180
330
1B
100
AcDbEntity
 67
     1
  8
0
  6
Continuous
 62
     7
370
    25
100
AcDbCircle
 10
296.5
 20
-56.0
 30
0.0
 40
3.999999999999886
100
AcDbArc
 50
180.0
 51
270.0
  0
ARC
  5
181
330
1B
100
AcDbEntity
 67
     1
  8
0
  6
Continuous
 62
     7
370
    25
100
AcDbCircle
 10
266.5710678119
 20
-57.0
 30
0.0
 40
4.999999999999879
100
AcDbArc
 50
90.0
 51
135.0
  0
ARC
  5
182
330
1B
100
AcDbEntity
 67
     1
  8
0
  6
Continuous
 62
     7
370
    25
100
AcDbCircle
 10
221.4133765255
 20
-134.9708653814
 30
0.0
 40
10.02915176296701
100
AcDbArc
 50
270.1059415258
 51
351.2340662831
  0
ARC
  5
183
330
1B
100
AcDbEntity
 67
     1
  8
0
  6
Continuous
 62
     7
370
    25
100
AcDbCircle
 10
0.0
 20
-377.5520833333
 30
0.0
 40
292.5520833333322
100
AcDbArc
 50
52.6465965356
 51
127.3534034644
  0
ARC
  5
184
330
1B
100
AcDbEntity
 67
     1
  8
0
  6
Continuous
 62
     7
370
    25
100
AcDbCircle
 10
-221.4133765255
 20
-134.9708653814
 30
0.0
 40
10.02915176296703
100
AcDbArc
 50
188.7659337169
 51
269.8940584742
  0
ARC
  5
185
330
1B
100
AcDbEntity
 67
     1
  8
0
  6
Continuous
 62
     7
370
    25
100
AcDbCircle
 10
145.5
 20
-55.0
 30
0.0
 40
10.50000000000006
100
AcDbArc
 50
270.0
 51
90.0
  0
ARC
  5
186
330
1B
100
AcDbEntity
 67
     1
  8
0
  6
Continuous
 62
     7
370
    25
100
AcDbCircle
 10
134.5
 20
-55.0
 30
0.0
 40
10.50000000000011
100
AcDbArc
 50
90.0
 51
270.0
  0
ARC
  5
187
330
1B
100
AcDbEntity
 67
     1
  8
0
  6
Continuous
 62
     7
370
    25
100
AcDbCircle
 10
-145.5
 20
-55.0
 30
0.0
 40
10.50000000000006
100
AcDbArc
 50
90.0
 51
270.0
  0
ARC
  5
188
330
1B
100
AcDbEntity
 67
     1
  8
0
  6
Continuous
 62
     7
370
    25
100
AcDbCircle
 10
-134.5
 20
-55.0
 30
0.0
 40
10.50000000000011
100
AcDbArc
 50
270.0
 51
90.0
  0
ARC
  5
189
330
1B
100
AcDbEntity
 67
     1
  8
0
  6
Continuous
 62
     7
370
    25
100
AcDbCircle
 10
-298.5
 20
-4.0
 30
0.0
 40
4.000000000000075
100
AcDbArc
 50
90.0
 51
180.0
  0
ARC
  5
18A
330
1B
100
AcDbEntity
 67
     1
  8
0
  6
Continuous
 62
     7
370
    25
100
AcDbCircle
 10
298.5
 20
-4.0
 30
0.0
 40
4.000000000000114
100
AcDbArc
 50
0.0
 51
90.0
  0
ARC
  5
18B
330
1B
100
AcDbEntity
 67
     1
  8
0
  6
Continuous
 62
     7
370
    25
100
AcDbCircle
 10
-27.1592578125
 20
-133.0656241771
 30
0.0
 40
2.8464041939808
100
AcDbArc
 50
183.6144859675
 51
273.2074039432
  0
ARC
  5
18C
330
1B
100
AcDbEntity
 67
     1
  8
0
  6
Continuous
 62
     7
370
    25
100
AcDbCircle
 10
27.1592578125
 20
-133.0656241771
 30
0.0
 40
2.846404193980741
100
AcDbArc
 50
266.7925960568
 51
356.3855140325
  0
ARC
  5
18D
330
1B
100
AcDbEntity
 67
     1
  8
0
  6
Continuous
 62
     7
370
    25
100
AcDbCircle
 10
27.1592578125
 20
-150.3205545775
 30
0.0
 40
2.846404193980757
100
AcDbArc
 50
266.7925960568
 51
356.3855140325
  0
ARC
  5
18E
330
1B
100
AcDbEntity
 67
     1
  8
0
  6
Continuous
 62
     7
370
    25
100
AcDbCircle
 10
-27.1592578125
 20
-150.3205545775
 30
0.0
 40
2.8464041939808
100
AcDbArc
 50
183.6144859675
 51
273.2074039432
  0
ARC
  5
18F
330
1B
100
AcDbEntity
 67
     1
  8
0
  6
Continuous
 62
     7
370
    25
100
AcDbCircle
 10
32.2536494742
 20
-136.4227739963
 30
0.0
 40
10.93414453502972
100
AcDbArc
 50
86.0860210056
 51
101.8945544248
  0
ARC
  5
190
330
1B
100
AcDbEntity
 67
     1
  8
0
  6
Continuous
 62
     7
370
    25
100
AcDbCircle
 10
-32.2536494742
 20
-136.4227739963
 30
0.0
 40
10.93414453502972
100
AcDbArc
 50
78.1054455752
 51
93.9139789944
  0
ARC
  5
191
330
1B
100
AcDbEntity
 67
     1
  8
0
  6
Continuous
 62
     7
370
    25
100
AcDbCircle
 10
-27.0
 20
-150.5
 30
0.0
 40
3.00000000000006
100
AcDbArc
 50
180.0
 51
270.0
  0
ARC
  5
192
330
1B
100
AcDbEntity
 67
     1
  8
0
  6
Continuous
 62
     7
370
    25
100
AcDbCircle
 10
27.0
 20
-150.5
 30
0.0
 40
3.0
100
AcDbArc
 50
270.0
 51
0.0
  0
VIEWPORT
  5
3B6
330
1B
100
AcDbEntity
 67
     1
  8
0
100
AcDbViewport
 10
0.0
 20
0.0
 30
0.0
 40
205.6
 41
156.0
 68
     1
 69
     1
 12
0.0
 22
0.0
 13
0.0
 23
0.0
 14
10.0
 24
10.0
 15
10.0
 25
10.0
 16
0.0
 26
0.0
 36
1.0
 17
0.0
 27
0.0
 37
0.0
 42
50.0
 43
0.0
 44
0.0
 45
469.2
 50
0.0
 51
0.0
 72
   100
 90
   557152
  1

281
     0
 71
     1
 74
     0
110
0.0
120
0.0
130
0.0
111
1.0
121
0.0
131
0.0
112
0.0
122
1.0
132
0.0
 79
     0
146
0.0
  0
ENDSEC
  0
SECTION
  2
OBJECTS
  0
DICTIONARY
  5
C
330
0
100
AcDbDictionary
281
     1
  3
ACAD_GROUP
350
D
  3
ACAD_LAYOUT
350
1A
  3
ACAD_MLINESTYLE
350
17
  3
ACAD_PLOTSETTINGS
350
19
  3
ACAD_PLOTSTYLENAME
350
E
  3
ACAD_SCALELIST
350
47
  0
DICTIONARY
  5
D
102
{ACAD_REACTORS
330
C
102
}
330
C
100
AcDbDictionary
281
     1
  0
DICTIONARY
  5
1A
102
{ACAD_REACTORS
330
C
102
}
330
C
100
AcDbDictionary
281
     1
  3
_Back
350
1E
  3
_Front
350
26
  3
_Isometric
350
2BB
  3
_Right
350
246
  3
Model
350
22
  0
DICTIONARY
  5
17
102
{ACAD_REACTORS
330
C
102
}
330
C
100
AcDbDictionary
281
     1
  3
Standard
350
18
  0
DICTIONARY
  5
19
102
{ACAD_REACTORS
330
C
102
}
330
C
100
AcDbDictionary
281
     1
  0
ACDBDICTIONARYWDFLT
  5
E
102
{ACAD_REACTORS
330
C
102
}
330
C
100
AcDbDictionary
281
     1
  3
Normal
350
F
100
AcDbDictionaryWithDefault
340
F
  0
DICTIONARY
  5
47
102
{ACAD_REACTORS
330
C
102
}
330
C
100
AcDbDictionary
281
     1
  3
A0
350
48
  3
A1
350
49
  3
A2
350
4A
  3
A3
350
4B
  3
A4
350
4C
  3
A5
350
4D
  3
A6
350
4E
  3
A7
350
4F
  3
A8
350
50
  3
A9
350
51
  3
B0
350
52
  3
B1
350
53
  3
B2
350
54
  3
B3
350
55
  3
B4
350
56
  3
B5
350
57
  3
B6
350
58
  3
B7
350
59
  3
B8
350
5A
  3
B9
350
5B
  3
C0
350
5C
  3
C1
350
5D
  3
C2
350
5E
  3
C3
350
5F
  3
C4
350
60
  3
C5
350
61
  3
C6
350
62
  3
C7
350
63
  3
C8
350
64
  3
C9
350
65
  3
D0
350
66
  3
D1
350
67
  3
D2
350
68
  0
LAYOUT
  5
1E
102
{ACAD_REACTORS
330
1A
102
}
330
1A
100
AcDbPlotSettings
  1

  2
none_device
  4
ISO_A4_(210.00_x_297.00_MM)
  6

 40
7.5
 41
20.0
 42
7.5
 43
20.0
 44
210.0
 45
297.0
 46
0.0
 47
0.0
 48
0.0
 49
0.0
140
0.0
141
0.0
142
1.0
143
2.3540856031
 70
   688
 72
     1
 73
     1
 74
     1
  7

 75
     0
147
0.4247933884
148
302.5
149
160.0
100
AcDbLayout
  1
_Back
 70
     1
 71
     1
 10
-349.5817120623
 20
-177.6556420233
 11
349.5817120623
 21
316.7023346304
 12
0.0
 22
0.0
 32
0.0
 14
-302.5
 24
-160.0
 34
0.0
 15
302.5
 25
0.0
 35
0.0
146
0.0
 13
0.0
 23
0.0
 33
0.0
 16
1.0
 26
0.0
 36
0.0
 17
0.0
 27
1.0
 37
0.0
 76
     0
330
1B
331
3B6
  0
LAYOUT
  5
26
102
{ACAD_REACTORS
330
1A
102
}
330
1A
100
AcDbPlotSettings
  1

  2
none_device
  4
ISO_A4_(210.00_x_297.00_MM)
  6

 40
7.5
 41
20.0
 42
7.5
 43
20.0
 44
210.0
 45
297.0
 46
0.0
 47
0.0
 48
0.0
 49
0.0
140
0.0
141
0.0
142
1.0
143
2.3540856031
 70
   688
 72
     1
 73
     1
 74
     1
  7

 75
     0
147
0.4247933884
148
302.5
149
160.0
100
AcDbLayout
  1
_Front
 70
     1
 71
     2
 10
0.0
 20
0.0
 11
0.0
 21
0.0
 12
0.0
 22
0.0
 32
0.0
 14
0.0
 24
0.0
 34
0.0
 15
0.0
 25
0.0
 35
0.0
146
0.0
 13
0.0
 23
0.0
 33
0.0
 16
1.0
 26
0.0
 36
0.0
 17
0.0
 27
1.0
 37
0.0
 76
     0
330
23
331
3B8
  0
LAYOUT
  5
2BB
102
{ACAD_REACTORS
330
1A
102
}
330
1A
100
AcDbPlotSettings
  1

  2
none_device
  4
ISO_A4_(210.00_x_297.00_MM)
  6

 40
7.5
 41
20.0
 42
7.5
 43
20.0
 44
210.0
 45
297.0
 46
0.0
 47
0.0
 48
0.0
 49
0.0
140
0.0
141
0.0
142
1.0
143
2.3540856031
 70
   688
 72
     1
 73
     1
 74
     1
  7

 75
     0
147
0.4247933884
148
302.5
149
160.0
100
AcDbLayout
  1
_Isometric
 70
     1
 71
     4
 10
0.0
 20
0.0
 11
0.0
 21
0.0
 12
0.0
 22
0.0
 32
0.0
 14
0.0
 24
0.0
 34
0.0
 15
0.0
 25
0.0
 35
0.0
146
0.0
 13
0.0
 23
0.0
 33
0.0
 16
1.0
 26
0.0
 36
0.0
 17
0.0
 27
1.0
 37
0.0
 76
     0
330
2BA
331
3BC
  0
LAYOUT
  5
246
102
{ACAD_REACTORS
330
1A
102
}
330
1A
100
AcDbPlotSettings
  1

  2
none_device
  4
ISO_A4_(210.00_x_297.00_MM)
  6

 40
7.5
 41
20.0
 42
7.5
 43
20.0
 44
210.0
 45
297.0
 46
0.0
 47
0.0
 48
0.0
 49
0.0
140
0.0
141
0.0
142
1.0
143
2.3540856031
 70
   688
 72
     1
 73
     1
 74
     1
  7

 75
     0
147
0.4247933884
148
302.5
149
160.0
100
AcDbLayout
  1
_Right
 70
     1
 71
     3
 10
0.0
 20
0.0
 11
0.0
 21
0.0
 12
0.0
 22
0.0
 32
0.0
 14
0.0
 24
0.0
 34
0.0
 15
0.0
 25
0.0
 35
0.0
146
0.0
 13
0.0
 23
0.0
 33
0.0
 16
1.0
 26
0.0
 36
0.0
 17
0.0
 27
1.0
 37
0.0
 76
     0
330
245
331
3BA
  0
LAYOUT
  5
22
102
{ACAD_REACTORS
330
1A
102
}
330
1A
100
AcDbPlotSettings
  1

  2
none_device
  4
ANSI_A_(11.00_x_8.50_Inches)
  6

 40
6.35
 41
19.05
 42
6.35000508
 43
19.05000254
 44
279.4
 45
215.9
 46
133.34999746
 47
88.89999873
 48
0.0
 49
0.0
140
0.0
141
0.0
142
0.018
143
1.0
 70
  1696
 72
     0
 73
     0
 74
     0
  7

 75
     0
147
0.0179189148
148
-1300.4909072572
149
0.0
100
AcDbLayout
  1
Model
 70
     1
 71
     0
 10
0.0
 20
0.0
 11
420.0
 21
297.0
 12
0.0
 22
0.0
 32
0.0
 14
-302.5
 24
-230.0
 34
0.0
 15
302.5
 25
230.0
 35
0.0
146
0.0
 13
0.0
 23
0.0
 33
0.0
 16
1.0
 26
0.0
 36
0.0
 17
0.0
 27
1.0
 37
0.0
 76
     0
330
1F
331
29
  0
MLINESTYLE
  5
18
102
{ACAD_REACTORS
330
17
102
}
330
17
100
AcDbMlineStyle
  2
Standard
 70
     0
  3

 62
   256
 51
90.0
 52
90.0
 71
     2
 49
0.5
 62
   256
  6
BYLAYER
 49
-0.5
 62
   256
  6
BYLAYER
  0
ACDBPLACEHOLDER
  5
F
102
{ACAD_REACTORS
330
E
102
}
330
E
  0
SCALE
  5
48
102
{ACAD_REACTORS
330
47
102
}
330
47
100
AcDbScale
 70
     0
300
1:1
140
1.0
141
1.0
290
     1
  0
SCALE
  5
49
102
{ACAD_REACTORS
330
47
102
}
330
47
100
AcDbScale
 70
     0
300
1:2
140
1.0
141
2.0
290
     0
  0
SCALE
  5
4A
102
{ACAD_REACTORS
330
47
102
}
330
47
100
AcDbScale
 70
     0
300
1:4
140
1.0
141
4.0
290
     0
  0
SCALE
  5
4B
102
{ACAD_REACTORS
330
47
102
}
330
47
100
AcDbScale
 70
     0
300
1:5
140
1.0
141
5.0
290
     0
  0
SCALE
  5
4C
102
{ACAD_REACTORS
330
47
102
}
330
47
100
AcDbScale
 70
     0
300
1:8
140
1.0
141
8.0
290
     0
  0
SCALE
  5
4D
102
{ACAD_REACTORS
330
47
102
}
330
47
100
AcDbScale
 70
     0
300
1:10
140
1.0
141
10.0
290
     0
  0
SCALE
  5
4E
102
{ACAD_REACTORS
330
47
102
}
330
47
100
AcDbScale
 70
     0
300
1:16
140
1.0
141
16.0
290
     0
  0
SCALE
  5
4F
102
{ACAD_REACTORS
330
47
102
}
330
47
100
AcDbScale
 70
     0
300
1:20
140
1.0
141
20.0
290
     0
  0
SCALE
  5
50
102
{ACAD_REACTORS
330
47
102
}
330
47
100
AcDbScale
 70
     0
300
1:30
140
1.0
141
30.0
290
     0
  0
SCALE
  5
51
102
{ACAD_REACTORS
330
47
102
}
330
47
100
AcDbScale
 70
     0
300
1:40
140
1.0
141
40.0
290
     0
  0
SCALE
  5
52
102
{ACAD_REACTORS
330
47
102
}
330
47
100
AcDbScale
 70
     0
300
1:50
140
1.0
141
50.0
290
     0
  0
SCALE
  5
53
102
{ACAD_REACTORS
330
47
102
}
330
47
100
AcDbScale
 70
     0
300
1:100
140
1.0
141
100.0
290
     0
  0
SCALE
  5
54
102
{ACAD_REACTORS
330
47
102
}
330
47
100
AcDbScale
 70
     0
300
2:1
140
2.0
141
1.0
290
     0
  0
SCALE
  5
55
102
{ACAD_REACTORS
330
47
102
}
330
47
100
AcDbScale
 70
     0
300
4:1
140
4.0
141
1.0
290
     0
  0
SCALE
  5
56
102
{ACAD_REACTORS
330
47
102
}
330
47
100
AcDbScale
 70
     0
300
8:1
140
8.0
141
1.0
290
     0
  0
SCALE
  5
57
102
{ACAD_REACTORS
330
47
102
}
330
47
100
AcDbScale
 70
     0
300
10:1
140
10.0
141
1.0
290
     0
  0
SCALE
  5
58
102
{ACAD_REACTORS
330
47
102
}
330
47
100
AcDbScale
 70
     0
300
100:1
140
100.0
141
1.0
290
     0
  0
SCALE
  5
59
102
{ACAD_REACTORS
330
47
102
}
330
47
100
AcDbScale
 70
     0
300
1/128" = 1'-0"
140
0.0078125
141
12.0
290
     0
  0
SCALE
  5
5A
102
{ACAD_REACTORS
330
47
102
}
330
47
100
AcDbScale
 70
     0
300
1/64" = 1'-0"
140
0.015625
141
12.0
290
     0
  0
SCALE
  5
5B
102
{ACAD_REACTORS
330
47
102
}
330
47
100
AcDbScale
 70
     0
300
1/32" = 1'-0"
140
0.03125
141
12.0
290
     0
  0
SCALE
  5
5C
102
{ACAD_REACTORS
330
47
102
}
330
47
100
AcDbScale
 70
     0
300
1/16" = 1'-0"
140
0.0625
141
12.0
290
     0
  0
SCALE
  5
5D
102
{ACAD_REACTORS
330
47
102
}
330
47
100
AcDbScale
 70
     0
300
3/32" = 1'-0"
140
0.09375
141
12.0
290
     0
  0
SCALE
  5
5E
102
{ACAD_REACTORS
330
47
102
}
330
47
100
AcDbScale
 70
     0
300
1/8" = 1'-0"
140
0.125
141
12.0
290
     0
  0
SCALE
  5
5F
102
{ACAD_REACTORS
330
47
102
}
330
47
100
AcDbScale
 70
     0
300
3/16" = 1'-0"
140
0.1875
141
12.0
290
     0
  0
SCALE
  5
60
102
{ACAD_REACTORS
330
47
102
}
330
47
100
AcDbScale
 70
     0
300
1/4" = 1'-0"
140
0.25
141
12.0
290
     0
  0
SCALE
  5
61
102
{ACAD_REACTORS
330
47
102
}
330
47
100
AcDbScale
 70
     0
300
3/8" = 1'-0"
140
0.375
141
12.0
290
     0
  0
SCALE
  5
62
102
{ACAD_REACTORS
330
47
102
}
330
47
100
AcDbScale
 70
     0
300
1/2" = 1'-0"
140
0.5
141
12.0
290
     0
  0
SCALE
  5
63
102
{ACAD_REACTORS
330
47
102
}
330
47
100
AcDbScale
 70
     0
300
3/4" = 1'-0"
140
0.75
141
12.0
290
     0
  0
SCALE
  5
64
102
{ACAD_REACTORS
330
47
102
}
330
47
100
AcDbScale
 70
     0
300
1" = 1'-0"
140
1.0
141
12.0
290
     0
  0
SCALE
  5
65
102
{ACAD_REACTORS
330
47
102
}
330
47
100
AcDbScale
 70
     0
300
1-1/2" = 1'-0"
140
1.5
141
12.0
290
     0
  0
SCALE
  5
66
102
{ACAD_REACTORS
330
47
102
}
330
47
100
AcDbScale
 70
     0
300
3" = 1'-0"
140
3.0
141
12.0
290
     0
  0
SCALE
  5
67
102
{ACAD_REACTORS
330
47
102
}
330
47
100
AcDbScale
 70
     0
300
6" = 1'-0"
140
6.0
141
12.0
290
     0
  0
SCALE
  5
68
102
{ACAD_REACTORS
330
47
102
}
330
47
100
AcDbScale
 70
     0
300
1'-0" = 1'-0"
140
12.0
141
12.0
290
     0
  0
ENDSEC
  0
EOF
