  0
SECTION
  2
HEADER
  9
$ACADVER
  1
AC1015
  9
$ACADMAINTVER
 70
     6
  9
$DWGCODEPAGE
  3
ANSI_1252
  9
$INSBASE
 10
0.0
 20
0.0
 30
0.0
  9
$EXTMIN
 10
-10.8183023425
 20
0.0
 30
0.0
  9
$EXTMAX
 10
10.8183023425
 20
17.8346456693
 30
0.0
  9
$LIMMIN
 10
0.0
 20
0.0
  9
$LIMMAX
 10
12.0
 20
9.0
  9
$ORTHOMODE
 70
     0
  9
$REGENMODE
 70
     1
  9
$FILLMODE
 70
     1
  9
$QTEXTMODE
 70
     0
  9
$MIRRTEXT
 70
     1
  9
$LTSCALE
 40
1.0
  9
$ATTMODE
 70
     1
  9
$TEXTSIZE
 40
0.1377952756
  9
$TRACEWID
 40
0.05
  9
$TEXTSTYLE
  7
Standard
  9
$CLAYER
  8
0
  9
$CELTYPE
  6
ByLayer
  9
$CECOLOR
 62
   256
  9
$CELTSCALE
 40
1.0
  9
$DISPSILH
 70
     0
  9
$DIMSCALE
 40
1.0
  9
$DIMASZ
 40
0.13
  9
$DIMEXO
 40
0.0393700787
  9
$DIMDLI
 40
0.38
  9
$DIMRND
 40
0.0
  9
$DIMDLE
 40
0.0
  9
$DIMEXE
 40
0.0393700787
  9
$DIMTP
 40
0.0
  9
$DIMTM
 40
0.0
  9
$DIMTXT
 40
0.1377952756
  9
$DIMCEN
 40
0.09
  9
$DIMTSZ
 40
0.0
  9
$DIMTOL
 70
     0
  9
$DIMLIM
 70
     0
  9
$DIMTIH
 70
     1
  9
$DIMTOH
 70
     1
  9
$DIMSE1
 70
     0
  9
$DIMSE2
 70
     0
  9
$DIMTAD
 70
     1
  9
$DIMZIN
 70
     1
  9
$DIMBLK
  1

  9
$DIMASO
 70
     1
  9
$DIMSHO
 70
     1
  9
$DIMPOST
  1

  9
$DIMAPOST
  1

  9
$DIMALT
 70
     0
  9
$DIMALTD
 70
     2
  9
$DIMALTF
 40
25.4
  9
$DIMLFAC
 40
1.0
  9
$DIMTOFL
 70
     0
  9
$DIMTVP
 40
0.0
  9
$DIMTIX
 70
     0
  9
$DIMSOXD
 70
     0
  9
$DIMSAH
 70
     0
  9
$DIMBLK1
  1

  9
$DIMBLK2
  1

  9
$DIMSTYLE
  2
Standard
  9
$DIMCLRD
 70
     0
  9
$DIMCLRE
 70
     0
  9
$DIMCLRT
 70
     0
  9
$DIMTFAC
 40
1.0
  9
$DIMGAP
 40
0.06
  9
$DIMJUST
 70
     0
  9
$DIMSD1
 70
     0
  9
$DIMSD2
 70
     0
  9
$DIMTOLJ
 70
     1
  9
$DIMTZIN
 70
     1
  9
$DIMALTZ
 70
     0
  9
$DIMALTTZ
 70
     0
  9
$DIMUPT
 70
     0
  9
$DIMDEC
 70
     2
  9
$DIMTDEC
 70
     2
  9
$DIMALTU
 70
     2
  9
$DIMALTTD
 70
     2
  9
$DIMTXSTY
  7
Standard
  9
$DIMAUNIT
 70
     0
  9
$DIMADEC
 70
     2
  9
$DIMALTRND
 40
0.0
  9
$DIMAZIN
 70
     0
  9
$DIMDSEP
 70
    46
  9
$DIMATFIT
 70
     3
  9
$DIMFRAC
 70
     0
  9
$DIMLDRBLK
  1

  9
$DIMLUNIT
 70
     2
  9
$DIMLWD
 70
    -2
  9
$DIMLWE
 70
    -2
  9
$DIMTMOVE
 70
     0
  9
$LUNITS
 70
     2
  9
$LUPREC
 70
     2
  9
$SKETCHINC
 40
0.1
  9
$FILLETRAD
 40
0.5
  9
$AUNITS
 70
     0
  9
$AUPREC
 70
     2
  9
$MENU
  1
.
  9
$ELEVATION
 40
0.0
  9
$PELEVATION
 40
0.0
  9
$THICKNESS
 40
0.0
  9
$LIMCHECK
 70
     0
  9
$CHAMFERA
 40
0.0
  9
$CHAMFERB
 40
0.0
  9
$CHAMFERC
 40
0.0
  9
$CHAMFERD
 40
0.0
  9
$SKPOLY
 70
     0
  9
$TDCREATE
 40
2459737.422256273
  9
$TDUCREATE
 40
2459737.380589607
  9
$TDUPDATE
 40
2459737.422288553
  9
$TDUUPDATE
 40
2459737.380621886
  9
$TDINDWG
 40
0.0000000116
  9
$TDUSRTIMER
 40
0.0000000116
  9
$USRTIMER
 70
     1
  9
$ANGBASE
 50
0.0
  9
$ANGDIR
 70
     0
  9
$PDMODE
 70
     0
  9
$PDSIZE
 40
-1.0
  9
$PLINEWID
 40
0.0
  9
$SPLFRAME
 70
     0
  9
$SPLINETYPE
 70
     6
  9
$SPLINESEGS
 70
     8
  9
$HANDSEED
  5
42D
  9
$SURFTAB1
 70
     6
  9
$SURFTAB2
 70
     6
  9
$SURFTYPE
 70
     6
  9
$SURFU
 70
     6
  9
$SURFV
 70
     6
  9
$UCSBASE
  2

  9
$UCSNAME
  2

  9
$UCSORG
 10
0.0
 20
0.0
 30
0.0
  9
$UCSXDIR
 10
1.0
 20
0.0
 30
0.0
  9
$UCSYDIR
 10
0.0
 20
1.0
 30
0.0
  9
$UCSORTHOREF
  2

  9
$UCSORTHOVIEW
 70
     0
  9
$UCSORGTOP
 10
0.0
 20
0.0
 30
0.0
  9
$UCSORGBOTTOM
 10
0.0
 20
0.0
 30
0.0
  9
$UCSORGLEFT
 10
0.0
 20
0.0
 30
0.0
  9
$UCSORGRIGHT
 10
0.0
 20
0.0
 30
0.0
  9
$UCSORGFRONT
 10
0.0
 20
0.0
 30
0.0
  9
$UCSORGBACK
 10
0.0
 20
0.0
 30
0.0
  9
$PUCSBASE
  2

  9
$PUCSNAME
  2

  9
$PUCSORG
 10
0.0
 20
0.0
 30
0.0
  9
$PUCSXDIR
 10
1.0
 20
0.0
 30
0.0
  9
$PUCSYDIR
 10
0.0
 20
1.0
 30
0.0
  9
$PUCSORTHOREF
  2

  9
$PUCSORTHOVIEW
 70
     0
  9
$PUCSORGTOP
 10
0.0
 20
0.0
 30
0.0
  9
$PUCSORGBOTTOM
 10
0.0
 20
0.0
 30
0.0
  9
$PUCSORGLEFT
 10
0.0
 20
0.0
 30
0.0
  9
$PUCSORGRIGHT
 10
0.0
 20
0.0
 30
0.0
  9
$PUCSORGFRONT
 10
0.0
 20
0.0
 30
0.0
  9
$PUCSORGBACK
 10
0.0
 20
0.0
 30
0.0
  9
$USERI1
 70
     0
  9
$USERI2
 70
     0
  9
$USERI3
 70
     0
  9
$USERI4
 70
     0
  9
$USERI5
 70
     0
  9
$USERR1
 40
0.0
  9
$USERR2
 40
0.0
  9
$USERR3
 40
0.0
  9
$USERR4
 40
0.0
  9
$USERR5
 40
0.0
  9
$WORLDVIEW
 70
     1
  9
$SHADEDGE
 70
     3
  9
$SHADEDIF
 70
    70
  9
$TILEMODE
 70
     1
  9
$MAXACTVP
 70
    64
  9
$PINSBASE
 10
0.0
 20
0.0
 30
0.0
  9
$PLIMCHECK
 70
     0
  9
$PEXTMIN
 10
-10.8183023425
 20
0.0
 30
0.0
  9
$PEXTMAX
 10
10.8183023425
 20
17.8346456693
 30
0.0
  9
$PLIMMIN
 10
-11.3756359248
 20
-0.5573327046
  9
$PLIMMAX
 10
13.1470030773
 20
18.3919792516
  9
$UNITMODE
 70
     0
  9
$VISRETAIN
 70
     1
  9
$PLINEGEN
 70
     0
  9
$PSLTSCALE
 70
     1
  9
$TREEDEPTH
 70
  3020
  9
$CMLSTYLE
  2
Standard
  9
$CMLJUST
 70
     0
  9
$CMLSCALE
 40
1.0
  9
$PROXYGRAPHICS
 70
     1
  9
$MEASUREMENT
 70
     0
  9
$CELWEIGHT
370
    -1
  9
$ENDCAPS
280
     0
  9
$JOINSTYLE
280
     0
  9
$LWDISPLAY
290
     1
  9
$INSUNITS
 70
     1
  9
$HYPERLINKBASE
  1

  9
$STYLESHEET
  1

  9
$XEDIT
290
     1
  9
$CEPSNTYPE
380
     0
  9
$PSTYLEMODE
290
     1
  9
$FINGERPRINTGUID
  2
{3fee6987-a80a-48d0-99a5-fc8e732c2bdd}
  9
$VERSIONGUID
  2
{FAEB1C32-E019-11D5-929B-00C0DF256EC4}
  9
$EXTNAMES
290
     1
  9
$PSVPSCALE
 40
0.0
  9
$OLESTARTUP
290
     0
  0
ENDSEC
  0
SECTION
  2
CLASSES
  0
CLASS
  1
ACDBDICTIONARYWDFLT
  2
AcDbDictionaryWithDefault
  3
ObjectDBX Classes
 90
        0
280
     0
281
     0
  0
CLASS
  1
VISUALSTYLE
  2
AcDbVisualStyle
  3
ObjectDBX Classes
 90
     4095
280
     0
281
     0
  0
CLASS
  1
MATERIAL
  2
AcDbMaterial
  3
ObjectDBX Classes
 90
     1153
280
     0
281
     0
  0
CLASS
  1
SCALE
  2
AcDbScale
  3
ObjectDBX Classes
 90
     1153
280
     0
281
     0
  0
CLASS
  1
TABLESTYLE
  2
AcDbTableStyle
  3
ObjectDBX Classes
 90
     4095
280
     0
281
     0
  0
CLASS
  1
MLEADERSTYLE
  2
AcDbMLeaderStyle
  3
ACDB_MLEADERSTYLE_CLASS
 90
     4095
280
     0
281
     0
  0
CLASS
  1
SUN
  2
AcDbSun
  3
SCENEOE
 90
     1153
280
     0
281
     0
  0
CLASS
  1
ACDBPLACEHOLDER
  2
AcDbPlaceHolder
  3
ObjectDBX Classes
 90
        0
280
     0
281
     0
  0
CLASS
  1
LAYOUT
  2
AcDbLayout
  3
ObjectDBX Classes
 90
        0
280
     0
281
     0
  0
ENDSEC
  0
SECTION
  2
TABLES
  0
TABLE
  2
VPORT
  5
8
330
0
100
AcDbSymbolTable
 70
     1
  0
VPORT
  5
29
330
8
100
AcDbSymbolTableRecord
100
AcDbViewportTableRecord
  2
*Active
 70
     0
 10
0.0
 20
0.0
 11
1.0
 21
1.0
 12
0.0
 22
8.9173228346
 13
0.0
 23
0.0
 14
0.5
 24
0.5
 15
0.5
 25
0.5
 16
0.0
 26
0.0
 36
1.0
 17
0.0
 27
0.0
 37
0.0
 40
18.1913385827
 41
1.2131782759
 42
50.0
 43
0.0
 44
0.0
 50
0.0
 51
0.0
 71
     0
 72
   100
 73
     1
 74
     3
 75
     0
 76
     0
 77
     0
 78
     0
281
     0
 65
     1
110
0.0
120
0.0
130
0.0
111
1.0
121
0.0
131
0.0
112
0.0
122
1.0
132
0.0
 79
     0
146
0.0
  0
ENDTAB
  0
TABLE
  2
LTYPE
  5
5
330
0
100
AcDbSymbolTable
 70
     6
  0
LTYPE
  5
14
330
5
100
AcDbSymbolTableRecord
100
AcDbLinetypeTableRecord
  2
ByBlock
 70
     0
  3

 72
    65
 73
     0
 40
0.0
  0
LTYPE
  5
15
330
5
100
AcDbSymbolTableRecord
100
AcDbLinetypeTableRecord
  2
ByLayer
 70
     0
  3

 72
    65
 73
     0
 40
0.0
  0
LTYPE
  5
16
330
5
100
AcDbSymbolTableRecord
100
AcDbLinetypeTableRecord
  2
Continuous
 70
     0
  3
Solid line
 72
    65
 73
     0
 40
0.0
  0
LTYPE
  5
6E
330
5
100
AcDbSymbolTableRecord
100
AcDbLinetypeTableRecord
  2
HIDDEN
 70
     0
  3
Hidden __ __ __ __ __ __ __ __ __ __ __ __ __ __
 72
    65
 73
     2
 40
0.075
 49
0.05
 74
     0
 49
-0.025
 74
     0
  0
LTYPE
  5
6F
330
5
100
AcDbSymbolTableRecord
100
AcDbLinetypeTableRecord
  2
PHANTOM
 70
     0
  3
Phantom ______  __  __  ______  __  __  ______
 72
    65
 73
     6
 40
0.5
 49
0.25
 74
     0
 49
-0.05
 74
     0
 49
0.05
 74
     0
 49
-0.05
 74
     0
 49
0.05
 74
     0
 49
-0.05
 74
     0
  0
LTYPE
  5
70
330
5
100
AcDbSymbolTableRecord
100
AcDbLinetypeTableRecord
  2
CENTER
 70
     0
  3
Center ____ _ ____ _ ____ _ ____ _ ____ _ ____
 72
    65
 73
     4
 40
0.4
 49
0.25
 74
     0
 49
-0.05
 74
     0
 49
0.05
 74
     0
 49
-0.05
 74
     0
  0
LTYPE
  5
71
330
5
100
AcDbSymbolTableRecord
100
AcDbLinetypeTableRecord
  2
CENTERX2
 70
     0
  3
Center (2x) ________  __  ________  __  _____
 72
    65
 73
     4
 40
0.8
 49
0.5
 74
     0
 49
-0.1
 74
     0
 49
0.1
 74
     0
 49
-0.1
 74
     0
  0
LTYPE
  5
72
330
5
100
AcDbSymbolTableRecord
100
AcDbLinetypeTableRecord
  2
DOT2
 70
     0
  3
Dot (.5x) ........................................
 72
    65
 73
     2
 40
0.025
 49
0.0
 74
     0
 49
-0.025
 74
     0
  0
ENDTAB
  0
TABLE
  2
LAYER
  5
2
330
0
100
AcDbSymbolTable
 70
     1
  0
LAYER
  5
10
330
2
100
AcDbSymbolTableRecord
100
AcDbLayerTableRecord
  2
0
 70
     0
 62
     7
  6
Continuous
370
    -3
390
F
  0
ENDTAB
  0
TABLE
  2
STYLE
  5
3
330
0
100
AcDbSymbolTable
 70
     1
  0
STYLE
  5
11
330
3
100
AcDbSymbolTableRecord
100
AcDbTextStyleTableRecord
  2
Standard
 70
     0
 40
0.0
 41
1.0
 50
0.0
 71
     0
 42
0.1377952756
  3
txt
  4

  0
ENDTAB
  0
TABLE
  2
VIEW
  5
6
330
0
100
AcDbSymbolTable
 70
     0
  0
ENDTAB
  0
TABLE
  2
UCS
  5
7
330
0
100
AcDbSymbolTable
 70
     0
  0
ENDTAB
  0
TABLE
  2
APPID
  5
9
330
0
100
AcDbSymbolTable
 70
     1
  0
APPID
  5
12
330
9
100
AcDbSymbolTableRecord
100
AcDbRegAppTableRecord
  2
ACAD
 70
     0
  0
ENDTAB
  0
TABLE
  2
DIMSTYLE
  5
A
330
0
100
AcDbSymbolTable
 70
     1
100
AcDbDimStyleTable
  0
DIMSTYLE
105
27
330
A
100
AcDbSymbolTableRecord
100
AcDbDimStyleTableRecord
  2
Standard
 70
     0
178
     0
340
11
  0
ENDTAB
  0
TABLE
  2
BLOCK_RECORD
  5
1
330
0
100
AcDbSymbolTable
 70
     3
  0
BLOCK_RECORD
  5
1F
330
1
100
AcDbSymbolTableRecord
100
AcDbBlockTableRecord
  2
*Model_Space
340
22
  0
BLOCK_RECORD
  5
1B
330
1
100
AcDbSymbolTableRecord
100
AcDbBlockTableRecord
  2
*Paper_Space
340
1E
  0
BLOCK_RECORD
  5
23
330
1
100
AcDbSymbolTableRecord
100
AcDbBlockTableRecord
  2
*Paper_Space0
340
26
  0
BLOCK_RECORD
  5
28A
330
1
100
AcDbSymbolTableRecord
100
AcDbBlockTableRecord
  2
*Paper_Space1
340
28B
  0
BLOCK_RECORD
  5
2F2
330
1
100
AcDbSymbolTableRecord
100
AcDbBlockTableRecord
  2
*Paper_Space2
340
2F3
  0
ENDTAB
  0
ENDSEC
  0
SECTION
  2
BLOCKS
  0
BLOCK
  5
20
330
1F
100
AcDbEntity
  8
0
100
AcDbBlockBegin
  2
*Model_Space
 70
     0
 10
0.0
 20
0.0
 30
0.0
  3
*Model_Space
  1

  0
ENDBLK
  5
21
330
1F
100
AcDbEntity
  8
0
100
AcDbBlockEnd
  0
BLOCK
  5
1C
330
1B
100
AcDbEntity
 67
     1
  8
0
100
AcDbBlockBegin
  2
*Paper_Space
 70
     0
 10
0.0
 20
0.0
 30
0.0
  3
*Paper_Space
  1

  0
ENDBLK
  5
1D
330
1B
100
AcDbEntity
 67
     1
  8
0
100
AcDbBlockEnd
  0
BLOCK
  5
24
330
23
100
AcDbEntity
  8
0
100
AcDbBlockBegin
  2
*Paper_Space0
 70
     0
 10
0.0
 20
0.0
 30
0.0
  3
*Paper_Space0
  1

  0
SPLINE
  5
25E
330
23
100
AcDbEntity
  8
0
  6
Continuous
 62
     7
370
    25
100
AcDbSpline
210
0.0
220
0.0
230
1.0
 70
     8
 71
     3
 72
     8
 73
     4
 74
     0
 42
0.000000001
 43
0.00000001
 40
0.0
 40
0.0
 40
0.0
 40
0.0
 40
1.0
 40
1.0
 40
1.0
 40
1.0
 10
-7.380538604851531
 20
11.51574803149606
 30
0.0
 10
-7.227500493016638
 20
11.51574803149606
 30
0.0
 10
-7.074462381181743
 20
11.51574803149606
 30
0.0
 10
-6.934711471802997
 20
11.76169357840813
 30
0.0
  0
SPLINE
  5
25F
330
23
100
AcDbEntity
  8
0
  6
Continuous
 62
     7
370
    25
100
AcDbSpline
210
0.0
220
0.0
230
1.0
 70
     8
 71
     3
 72
     8
 73
     4
 74
     0
 42
0.000000001
 43
0.00000001
 40
0.0
 40
0.0
 40
0.0
 40
0.0
 40
1.0
 40
1.0
 40
1.0
 40
1.0
 10
-7.380538604851531
 20
11.16141732283465
 30
0.0
 10
-7.227500493016638
 20
11.16141732283465
 30
0.0
 10
-7.074462381181743
 20
11.16141732283465
 30
0.0
 10
-6.934711471802997
 20
10.91547177592258
 30
0.0
  0
LINE
  5
26E
330
23
100
AcDbEntity
  8
0
  6
Continuous
 62
     7
370
    25
100
AcDbLine
 10
-6.9175964579
 20
10.905511811
 30
0.0
 11
-6.8503937008
 21
10.905511811
 31
0.0
  0
LINE
  5
26F
330
23
100
AcDbEntity
  8
0
  6
Continuous
 62
     7
370
    25
100
AcDbLine
 10
-6.8503937008
 20
11.7716535433
 30
0.0
 11
-6.9175964579
 21
11.7716535433
 31
0.0
  0
LINE
  5
270
330
23
100
AcDbEntity
  8
0
  6
Continuous
 62
     7
370
    25
100
AcDbLine
 10
-7.7360980773
 20
11.1614173228
 30
0.0
 11
-7.3805386049
 21
11.1614173228
 31
0.0
  0
LINE
  5
271
330
23
100
AcDbEntity
  8
0
  6
Continuous
 62
     7
370
    25
100
AcDbLine
 10
-7.3805386049
 20
11.5157480315
 30
0.0
 11
-7.7360980773
 21
11.5157480315
 31
0.0
  0
LINE
  5
272
330
23
100
AcDbEntity
  8
0
  6
Continuous
 62
     7
370
    25
100
AcDbLine
 10
6.8503937008
 20
17.6689234715
 30
0.0
 11
-7.9047006944
 21
17.6689234715
 31
0.0
  0
LINE
  5
273
330
23
100
AcDbEntity
  8
0
  6
Continuous
 62
     7
370
    25
100
AcDbLine
 10
-6.1417322835
 20
17.8346456693
 30
0.0
 11
-6.1417322835
 21
0.0
 31
0.0
  0
LINE
  5
274
330
23
100
AcDbEntity
  8
0
  6
Continuous
 62
     7
370
    25
100
AcDbLine
 10
-7.7474362007
 20
17.8346456693
 30
0.0
 11
6.8503937008
 21
17.8346456693
 31
0.0
  0
LINE
  5
275
330
23
100
AcDbEntity
  8
0
  6
Continuous
 62
     7
370
    25
100
AcDbLine
 10
6.8503937008
 20
17.8346456693
 30
0.0
 11
6.8503937008
 21
0.0
 31
0.0
  0
LINE
  5
276
330
23
100
AcDbEntity
  8
0
  6
Continuous
 62
     7
370
    25
100
AcDbLine
 10
-7.7974091778
 20
15.621679377
 30
0.0
 11
6.8503937008
 21
15.621679377
 31
0.0
  0
LINE
  5
277
330
23
100
AcDbEntity
  8
0
  6
Continuous
 62
     7
370
    25
100
AcDbLine
 10
-7.7974091778
 20
15.621679377
 30
0.0
 11
-7.9047006944
 21
17.6689234715
 31
0.0
  0
LINE
  5
278
330
23
100
AcDbEntity
  8
0
  6
Continuous
 62
     7
370
    25
100
AcDbLine
 10
6.8503937008
 20
15.4735325867
 30
0.0
 11
-7.6586550192
 21
15.4735325867
 31
0.0
  0
LINE
  5
279
330
23
100
AcDbEntity
  8
0
  6
Continuous
 62
     7
370
    25
100
AcDbLine
 10
-6.8503937008
 20
15.4735325867
 30
0.0
 11
-6.8503937008
 21
0.0
 31
0.0
  0
LINE
  5
27A
330
23
100
AcDbEntity
  8
0
  6
Continuous
 62
     7
370
    25
100
AcDbLine
 10
-6.8503937008
 20
0.0
 30
0.0
 11
6.8503937008
 21
0.0
 31
0.0
  0
LINE
  5
27B
330
23
100
AcDbEntity
  8
0
  6
Continuous
 62
     7
370
    25
100
AcDbLine
 10
-6.9347114718
 20
10.9154717759
 30
0.0
 11
-6.9347114718
 21
11.7616935784
 31
0.0
  0
LINE
  5
27C
330
23
100
AcDbEntity
  8
0
  6
Continuous
 62
     7
370
    25
100
AcDbLine
 10
-6.8503937008
 20
11.3385826772
 30
0.0
 11
-6.9347114718
 21
11.3385826772
 31
0.0
  0
LINE
  5
27D
330
23
100
AcDbEntity
  8
0
  6
Continuous
 62
     7
370
    25
100
AcDbLine
 10
-7.3805386049
 20
11.1614173228
 30
0.0
 11
-7.3805386049
 21
11.5157480315
 31
0.0
  0
LINE
  5
27E
330
23
100
AcDbEntity
  8
0
  6
Continuous
 62
     7
370
    25
100
AcDbLine
 10
-7.8149606299
 20
11.1811023622
 30
0.0
 11
-7.8149606299
 21
11.4960629921
 31
0.0
  0
LINE
  5
27F
330
23
100
AcDbEntity
  8
0
  6
Continuous
 62
     7
370
    25
100
AcDbLine
 10
-7.3805386049
 20
11.3385826772
 30
0.0
 11
-7.8149606299
 21
11.3385826772
 31
0.0
  0
LINE
  5
280
330
23
100
AcDbEntity
  8
0
  6
Continuous
 62
     7
370
    25
100
AcDbLine
 10
-7.7952755906
 20
11.5157480315
 30
0.0
 11
-7.7952755906
 21
11.1614173228
 31
0.0
  0
LINE
  5
281
330
23
100
AcDbEntity
  8
0
  6
Continuous
 62
     7
370
    25
100
AcDbLine
 10
-7.7952755906
 20
11.1614173228
 30
0.0
 11
-7.7362204724
 21
11.1614173228
 31
0.0
  0
LINE
  5
282
330
23
100
AcDbEntity
  8
0
  6
Continuous
 62
     7
370
    25
100
AcDbLine
 10
-7.7952755906
 20
11.5157480315
 30
0.0
 11
-7.7362204724
 21
11.5157480315
 31
0.0
  0
LINE
  5
283
330
23
100
AcDbEntity
  8
0
  6
Continuous
 62
     8
370
    25
100
AcDbLine
 10
-6.9175964579
 20
11.7716535433
 30
0.0
 11
-6.9175964579
 21
10.905511811
 31
0.0
  0
ARC
  5
284
330
23
100
AcDbEntity
  8
0
  6
Continuous
 62
     7
370
    25
100
AcDbCircle
 10
-6.9175964579
 20
10.9251968504
 30
0.0
 40
0.0196850393700778
100
AcDbArc
 50
209.6060570663
 51
270.0
  0
ARC
  5
285
330
23
100
AcDbEntity
  8
0
  6
Continuous
 62
     7
370
    25
100
AcDbCircle
 10
-6.9175964579
 20
11.7519685039
 30
0.0
 40
0.0196850393700796
100
AcDbArc
 50
90.0
 51
150.3939429337
  0
ARC
  5
286
330
23
100
AcDbEntity
  8
0
  6
Continuous
 62
     7
370
    25
100
AcDbCircle
 10
-7.7474362007
 20
17.6771653543
 30
0.0
 40
0.15748031496063
100
AcDbArc
 50
90.0
 51
183.0
  0
ARC
  5
287
330
23
100
AcDbEntity
  8
0
  6
Continuous
 62
     7
370
    25
100
AcDbCircle
 10
-7.6401446841
 20
15.6299212598
 30
0.0
 40
0.1574803149606368
100
AcDbArc
 50
183.0
 51
263.2498136127
  0
ARC
  5
288
330
23
100
AcDbEntity
  8
0
  6
Continuous
 62
     7
370
    25
100
AcDbCircle
 10
-7.7952755906
 20
11.1811023622
 30
0.0
 40
0.0196850393700814
100
AcDbArc
 50
180.0
 51
270.0
  0
ARC
  5
289
330
23
100
AcDbEntity
  8
0
  6
Continuous
 62
     7
370
    25
100
AcDbCircle
 10
-7.7952755906
 20
11.4960629921
 30
0.0
 40
0.0196850393700778
100
AcDbArc
 50
90.0
 51
180.0
  0
VIEWPORT
  5
427
330
23
100
AcDbEntity
  8
0
100
AcDbViewport
 10
0.0
 20
0.0
 30
0.0
 40
8.4
 41
6.4
 68
     1
 69
     1
 12
0.0
 22
8.9173228346
 13
0.0
 23
0.0
 14
0.5
 24
0.5
 15
0.5
 25
0.5
 16
0.0
 26
0.0
 36
1.0
 17
0.0
 27
0.0
 37
0.0
 42
50.0
 43
0.0
 44
0.0
 45
18.1913385827
 50
0.0
 51
0.0
 72
   100
 90
   557152
  1

281
     0
 71
     1
 74
     0
110
0.0
120
0.0
130
0.0
111
1.0
121
0.0
131
0.0
112
0.0
122
1.0
132
0.0
 79
     0
146
0.0
  0
ENDBLK
  5
25
330
23
100
AcDbEntity
  8
0
100
AcDbBlockEnd
  0
BLOCK
  5
28C
330
28A
100
AcDbEntity
  8
0
100
AcDbBlockBegin
  2
*Paper_Space1
 70
     0
 10
0.0
 20
0.0
 30
0.0
  3
*Paper_Space1
  1

  0
SPLINE
  5
293
330
28A
100
AcDbEntity
  8
0
  6
Continuous
 62
     7
370
    25
100
AcDbSpline
210
0.0
220
0.0
230
1.0
 70
     8
 71
     3
 72
     8
 73
     4
 74
     0
 42
0.000000001
 43
0.00000001
 40
0.0
 40
0.0
 40
0.0
 40
0.0
 40
1.0
 40
1.0
 40
1.0
 40
1.0
 10
-9.055118110227607
 20
-7.453714723881445
 30
0.0
 10
-9.042618876779642
 20
-7.453687252308852
 30
0.0
 10
-9.030121392597495
 20
-7.453495266881438
 30
0.0
 10
-9.017628952245753
 20
-7.45313855318487
 30
0.0
  0
SPLINE
  5
295
330
28A
100
AcDbEntity
  8
0
  6
Continuous
 62
     7
370
    25
100
AcDbSpline
210
0.0
220
0.0
230
1.0
 70
     8
 71
     3
 72
     8
 73
     4
 74
     0
 42
0.000000001
 43
0.00000001
 40
0.0
 40
0.0
 40
0.0
 40
0.0
 40
1.0
 40
1.0
 40
1.0
 40
1.0
 10
9.017628952245753
 20
-7.45313855318487
 30
0.0
 10
9.030121392598126
 20
-7.453495266872411
 30
0.0
 10
9.0426188767797
 20
-7.453687252308854
 30
0.0
 10
9.055118110227603
 20
-7.453714723881449
 30
0.0
  0
SPLINE
  5
297
330
28A
100
AcDbEntity
  8
0
  6
Continuous
 62
     7
370
    25
100
AcDbSpline
210
0.0
220
0.0
230
1.0
 70
     8
 71
     3
 72
    25
 73
    21
 74
     0
 42
0.000000001
 43
0.00000001
 40
0.0
 40
0.0
 40
0.0
 40
0.0
 40
0.00390625
 40
0.00390625
 40
0.0078125
 40
0.015625
 40
0.0312500000000001
 40
0.0625000000000002
 40
0.1250000000000003
 40
0.2500000000000003
 40
0.5000000000000002
 40
0.7500000000000001
 40
0.875
 40
0.9374999999999999
 40
0.9687499999999998
 40
0.9843749999999998
 40
0.9921874999999999
 40
0.99609375
 40
0.99609375
 40
1.0
 40
1.0
 40
1.0
 40
1.0
 10
9.05804549704015
 20
-7.569152124266741
 30
0.0
 10
9.034456929580223
 20
-7.569750308746628
 30
0.0
 10
9.01086825599846
 20
-7.569664548995251
 30
0.0
 10
8.963690935448163
 20
-7.56966454899525
 30
0.0
 10
8.892924954622718
 20
-7.569664548995254
 30
0.0
 10
8.727804332696671
 20
-7.569664548995256
 30
0.0
 10
8.397563088844581
 20
-7.569664548995254
 30
0.0
 10
7.737080601140412
 20
-7.569664548995259
 30
0.0
 10
6.416115625732064
 20
-7.569664548995252
 30
0.0
 10
3.774185674915365
 20
-7.569664548995257
 30
0.0
 10
0.000000030891514
 20
-7.569664548995248
 30
0.0
 10
-3.774185613132342
 20
-7.569664548995262
 30
0.0
 10
-6.416115563949028
 20
-7.56966454899525
 30
0.0
 10
-7.737080539357376
 20
-7.569664548995247
 30
0.0
 10
-8.397563027061553
 20
-7.569664548995243
 30
0.0
 10
-8.727804270913643
 20
-7.569664548995261
 30
0.0
 10
-8.892924892839687
 20
-7.56966454899525
 30
0.0
 10
-8.96369087366513
 20
-7.569664548995253
 30
0.0
 10
-9.010868194215426
 20
-7.569664548995252
 30
0.0
 10
-9.034456857457213
 20
-7.569750310575602
 30
0.0
 10
-9.058045497040151
 20
-7.56915212426674
 30
0.0
  0
SPLINE
  5
299
330
28A
100
AcDbEntity
  8
0
  6
Continuous
 62
     7
370
    25
100
AcDbSpline
210
0.0
220
0.0
230
1.0
 70
     8
 71
     3
 72
    38
 73
    34
 74
     0
 42
0.000000001
 43
0.00000001
 40
0.0
 40
0.0
 40
0.0
 40
0.0
 40
0.124999999999995
 40
0.124999999999995
 40
0.1874999999999925
 40
0.1874999999999925
 40
0.2187499999999912
 40
0.2187499999999912
 40
0.24999999999999
 40
0.24999999999999
 40
0.3749999999999895
 40
0.3749999999999895
 40
0.4374999999999901
 40
0.4374999999999901
 40
0.4687499999999901
 40
0.4687499999999901
 40
0.49999999999999
 40
0.49999999999999
 40
0.6249999999999919
 40
0.6249999999999919
 40
0.656249999999992
 40
0.656249999999992
 40
0.6874999999999922
 40
0.6874999999999922
 40
0.7499999999999944
 40
0.7499999999999944
 40
0.8749999999999984
 40
0.8749999999999984
 40
0.9062499999999989
 40
0.9062499999999989
 40
0.9374999999999993
 40
0.9374999999999993
 40
1.0
 40
1.0
 40
1.0
 40
1.0
 10
-10.46542334958005
 20
-6.043307086853663
 30
0.0
 10
-10.46557762925896
 20
-6.136549132377262
 30
0.0
 10
-10.45673142840876
 20
-6.228228649467005
 30
0.0
 10
-10.43031022053825
 20
-6.363458021420453
 30
0.0
 10
-10.41929756732027
 20
-6.40815065908146
 30
0.0
 10
-10.39941715034113
 20
-6.474603741616128
 30
0.0
 10
-10.39222839354477
 20
-6.496656829397999
 30
0.0
 10
-10.37669691768442
 20
-6.540561777104307
 30
0.0
 10
-10.36837520373517
 20
-6.562344799192818
 30
0.0
 10
-10.3243355829904
 20
-6.669524789808968
 30
0.0
 10
-10.28119017979844
 20
-6.750664767750927
 30
0.0
 10
-10.20481336555925
 20
-6.865590523348309
 30
0.0
 10
-10.17738628634977
 20
-6.902753919612561
 30
0.0
 10
-10.13323445023491
 20
-6.956746767892327
 30
0.0
 10
-10.1179955263758
 20
-6.974465750363019
 30
0.0
 10
-10.08685950464087
 20
-7.008901767630135
 30
0.0
 10
-10.07092127017276
 20
-7.025671548607798
 30
0.0
 10
-9.989395624942253
 20
-7.107299465872281
 30
0.0
 10
-9.918381104151619
 20
-7.165587046182936
 30
0.0
 10
-9.822403045873179
 20
-7.22971744781854
 30
0.0
 10
-9.802839600768761
 20
-7.242098187260142
 30
0.0
 10
-9.76296769784058
 20
-7.265957676279557
 30
0.0
 10
-9.742615691379372
 20
-7.277457376301833
 30
0.0
 10
-9.68111279094988
 20
-7.310224856539454
 30
0.0
 10
-9.639336505862735
 20
-7.329887643439587
 30
0.0
 10
-9.511739768697728
 20
-7.382483105646739
 30
0.0
 10
-9.423665809976146
 20
-7.409064286041111
 30
0.0
 10
-9.309751865108938
 20
-7.431513243608986
 30
0.0
 10
-9.286732200237298
 20
-7.435459104171983
 30
0.0
 10
-9.240660398722195
 20
-7.442184552398015
 30
0.0
 10
-9.21757756398647
 20
-7.444973434914449
 30
0.0
 10
-9.148190056167865
 20
-7.451637827793556
 30
0.0
 10
-9.10174685646549
 20
-7.453817207365138
 30
0.0
 10
-9.055118110227603
 20
-7.453714723881446
 30
0.0
  0
SPLINE
  5
29A
330
28A
100
AcDbEntity
  8
0
  6
Continuous
 62
     7
370
    25
100
AcDbSpline
210
0.0
220
0.0
230
1.0
 70
     8
 71
     3
 72
    38
 73
    34
 74
     0
 42
0.000000001
 43
0.00000001
 40
0.0
 40
0.0
 40
0.0
 40
0.0
 40
0.0624999999999988
 40
0.0624999999999988
 40
0.0937499999999983
 40
0.0937499999999983
 40
0.1249999999999978
 40
0.1249999999999978
 40
0.2499999999999956
 40
0.2499999999999956
 40
0.3124999999999949
 40
0.3124999999999949
 40
0.3437499999999954
 40
0.3437499999999954
 40
0.3749999999999972
 40
0.3749999999999972
 40
0.5000000000000042
 40
0.5000000000000042
 40
0.5312500000000046
 40
0.5312500000000046
 40
0.5625000000000048
 40
0.5625000000000048
 40
0.6250000000000043
 40
0.6250000000000043
 40
0.7500000000000049
 40
0.7500000000000049
 40
0.7812500000000051
 40
0.7812500000000051
 40
0.8125000000000053
 40
0.8125000000000053
 40
0.8750000000000036
 40
0.8750000000000036
 40
1.0
 40
1.0
 40
1.0
 40
1.0
 10
-9.058045497040148
 20
-7.569152124266739
 30
0.0
 10
-9.10800863738121
 20
-7.567885104759549
 30
0.0
 10
-9.157720362460061
 20
-7.564281347899488
 30
0.0
 10
-9.23191226952394
 20
-7.55538401215943
 30
0.0
 10
-9.256580143991753
 20
-7.551834909853859
 30
0.0
 10
-9.3057889143801
 20
-7.543556524247171
 30
0.0
 10
-9.330362226562498
 20
-7.538817132457283
 30
0.0
 10
-9.451986336598047
 20
-7.512349555544366
 30
0.0
 10
-9.545997381735663
 20
-7.482340268278187
 30
0.0
 10
-9.68213676598326
 20
-7.424221765045118
 30
0.0
 10
-9.726701674126454
 20
-7.40265940043443
 30
0.0
 10
-9.792294706176877
 20
-7.366945576286066
 30
0.0
 10
-9.813996153385967
 20
-7.354446602502666
 30
0.0
 10
-9.85654263430313
 20
-7.328556321354885
 30
0.0
 10
-9.877428449009066
 20
-7.315144691283197
 30
0.0
 10
-9.979948184372537
 20
-7.245787555387063
 30
0.0
 10
-10.05596012670908
 20
-7.183072768414813
 30
0.0
 10
-10.14342851410812
 20
-7.095592687141227
 30
0.0
 10
-10.16054039550909
 20
-7.077636959935828
 30
0.0
 10
-10.19399381702969
 20
-7.040797957175377
 30
0.0
 10
-10.21037637056282
 20
-7.021862480225317
 30
0.0
 10
-10.25790985156313
 20
-6.964177595058052
 30
0.0
 10
-10.28752990381792
 20
-6.924489722072101
 30
0.0
 10
-10.3703128021305
 20
-6.801809351514788
 30
0.0
 10
-10.41746893635437
 20
-6.715242086668798
 30
0.0
 10
-10.46626176169097
 20
-6.600991054119347
 30
0.0
 10
-10.47552413373609
 20
-6.577778029979755
 30
0.0
 10
-10.4928980127584
 20
-6.530998267067819
 30
0.0
 10
-10.50099196537
 20
-6.507490810784202
 30
0.0
 10
-10.52354078651328
 20
-6.436624823060023
 30
0.0
 10
-10.53626879041032
 20
-6.388923896514362
 30
0.0
 10
-10.5676757044467
 20
-6.244477383838245
 30
0.0
 10
-10.57960241239508
 20
-6.146393000831402
 30
0.0
 10
-10.58231598791262
 20
-6.046481878551746
 30
0.0
  0
SPLINE
  5
29C
330
28A
100
AcDbEntity
  8
0
  6
Continuous
 62
     7
370
    25
100
AcDbSpline
210
0.0
220
0.0
230
1.0
 70
     8
 71
     3
 72
    40
 73
    36
 74
     0
 42
0.000000001
 43
0.00000001
 40
0.0
 40
0.0
 40
0.0
 40
0.0
 40
0.015625
 40
0.015625
 40
0.03125
 40
0.03125
 40
0.0624999999999999
 40
0.0624999999999999
 40
0.0937499999999998
 40
0.0937499999999998
 40
0.1249999999999996
 40
0.1249999999999996
 40
0.2500000000000001
 40
0.2500000000000001
 40
0.2812500000000004
 40
0.2812500000000004
 40
0.3125000000000008
 40
0.3125000000000008
 40
0.3749999999999999
 40
0.3749999999999999
 40
0.5
 40
0.5
 40
0.5625000000000009
 40
0.5625000000000009
 40
0.6250000000000017
 40
0.6250000000000017
 40
0.7500000000000011
 40
0.7500000000000011
 40
0.7812500000000009
 40
0.7812500000000009
 40
0.8125000000000007
 40
0.8125000000000007
 40
0.8750000000000001
 40
0.8750000000000001
 40
1.0
 40
1.0
 40
1.0
 40
1.0
 10
-10.58290546817521
 20
0.8858267716449503
 30
0.0
 10
-10.58290546817521
 20
0.8986146229087162
 30
0.0
 10
-10.58286147236489
 20
0.911399849385717
 30
0.0
 10
-10.58236968313519
 20
0.936946211804363
 30
0.0
 10
-10.58196767270307
 20
0.9497100791556242
 30
0.0
 10
-10.58029550546411
 20
0.9879738715737516
 30
0.0
 10
-10.57855963259083
 20
1.013446012054702
 30
0.0
 10
-10.57384697043384
 20
1.064316260035812
 30
0.0
 10
-10.57086234183551
 20
1.089763087649072
 30
0.0
 10
-10.56368678437526
 20
1.140279298083114
 30
0.0
 10
-10.55949837841745
 20
1.165354120734308
 30
0.0
 10
-10.53559904560145
 20
1.289825807224142
 30
0.0
 10
-10.5071489814283
 20
1.386555906326856
 30
0.0
 10
-10.46006185658535
 20
1.503951793014836
 30
0.0
 10
-10.45005943849287
 20
1.527252458563765
 30
0.0
 10
-10.42887753034431
 20
1.573494603864313
 30
0.0
 10
-10.41766957194021
 20
1.596490436646961
 30
0.0
 10
-10.38245975180255
 20
1.664529314398729
 30
0.0
 10
-10.35700532440316
 20
1.708410527697612
 30
0.0
 10
-10.27487564612078
 20
1.835752282116546
 30
0.0
 10
-10.21247929401371
 20
1.914944728934201
 30
0.0
 10
-10.10747345873944
 20
2.025220259300533
 30
0.0
 10
-10.07033923428449
 20
2.060687355848123
 30
0.0
 10
-9.993618493732551
 20
2.127369883276877
 30
0.0
 10
-9.9539421582471
 20
2.158723705106953
 30
0.0
 10
-9.831077718249142
 20
2.246992691274715
 30
0.0
 10
-9.74405331013286
 20
2.298114062274931
 30
0.0
 10
-9.628817521333414
 20
2.352266664818065
 30
0.0
 10
-9.60538806750195
 20
2.362626645418406
 30
0.0
 10
-9.558307300415917
 20
2.382159223406894
 30
0.0
 10
-9.534623168729627
 20
2.391348952867535
 30
0.0
 10
-9.463148913230551
 20
2.417226100899538
 30
0.0
 10
-9.41493885471803
 20
2.43222920307484
 30
0.0
 10
-9.268665297949159
 20
2.470647070611208
 30
0.0
 10
-9.168964907039028
 20
2.487496422023166
 30
0.0
 10
-9.066988498594911
 20
2.49521689303384
 30
0.0
  0
SPLINE
  5
29E
330
28A
100
AcDbEntity
  8
0
  6
Continuous
 62
     7
370
    25
100
AcDbSpline
210
0.0
220
0.0
230
1.0
 70
     8
 71
     3
 72
    40
 73
    36
 74
     0
 42
0.000000001
 43
0.00000001
 40
0.0
 40
0.0
 40
0.0
 40
0.0
 40
0.1249999999999941
 40
0.1249999999999941
 40
0.1874999999999912
 40
0.1874999999999912
 40
0.2187499999999902
 40
0.2187499999999902
 40
0.2499999999999893
 40
0.2499999999999893
 40
0.3749999999999865
 40
0.3749999999999865
 40
0.4374999999999868
 40
0.4374999999999868
 40
0.4687499999999868
 40
0.4687499999999868
 40
0.4999999999999869
 40
0.4999999999999869
 40
0.6249999999999883
 40
0.6249999999999883
 40
0.6874999999999882
 40
0.6874999999999882
 40
0.7187499999999889
 40
0.7187499999999889
 40
0.7499999999999896
 40
0.7499999999999896
 40
0.8749999999999953
 40
0.8749999999999953
 40
0.9062499999999966
 40
0.9062499999999966
 40
0.9374999999999977
 40
0.9374999999999977
 40
0.9687499999999989
 40
0.9687499999999989
 40
1.0
 40
1.0
 40
1.0
 40
1.0
 10
-9.05511810969554
 20
2.338425989328721
 30
0.0
 10
-9.148348514750195
 20
2.331761794549318
 30
0.0
 10
-9.23970990843237
 20
2.317149558813089
 30
0.0
 10
-9.374051676269241
 20
2.283624277606514
 30
0.0
 10
-9.418380263556493
 20
2.270510058842846
 30
0.0
 10
-9.484174780681986
 20
2.247846020233723
 30
0.0
 10
-9.505989448677074
 20
2.23979189134962
 30
0.0
 10
-9.549379458703417
 20
2.222649704902456
 30
0.0
 10
-9.570968445986145
 20
2.21355395195806
 30
0.0
 10
-9.677252138283038
 20
2.165940747101081
 30
0.0
 10
-9.757869660222005
 20
2.120786805621498
 30
0.0
 10
-9.87207039407539
 20
2.04227607578476
 30
0.0
 10
-9.909016781164743
 20
2.01430958827952
 30
0.0
 10
-9.96269576039632
 20
1.96957514227531
 30
0.0
 10
-9.980337417487256
 20
1.954161515771006
 30
0.0
 10
-10.01482684114805
 20
1.922548787512929
 30
0.0
 10
-10.03162700922191
 20
1.906393404730876
 30
0.0
 10
-10.11342730037428
 20
1.82388700415558
 30
0.0
 10
-10.17196633655275
 20
1.752461909414824
 30
0.0
 10
-10.24928624722275
 20
1.637099701988261
 30
0.0
 10
-10.27329298441622
 20
1.597259461131539
 30
0.0
 10
-10.30656990414498
 20
1.535356552428285
 30
0.0
 10
-10.31715307551327
 20
1.514456417419799
 30
0.0
 10
-10.33718569781501
 20
1.472381310271791
 30
0.0
 10
-10.34665673603727
 20
1.45116811766446
 30
0.0
 10
-10.39128807375381
 20
1.344224588189409
 30
0.0
 10
-10.41840045335563
 20
1.255900961977645
 30
0.0
 10
-10.44143911375559
 20
1.142003309836587
 30
0.0
 10
-10.44549421166568
 20
1.11904583062754
 30
0.0
 10
-10.45248203832181
 20
1.072769539413634
 30
0.0
 10
-10.45541116627253
 20
1.049453953404117
 30
0.0
 10
-10.46009224184261
 20
1.0028386074532
 30
0.0
 10
-10.46185207278358
 20
0.9794917220190419
 30
0.0
 10
-10.46420970843485
 20
0.9327195065970224
 30
0.0
 10
-10.46478943582953
 20
0.9092938926795564
 30
0.0
 10
-10.46478943582953
 20
0.8858267716449514
 30
0.0
  0
SPLINE
  5
2A0
330
28A
100
AcDbEntity
  8
0
  6
Continuous
 62
     7
370
    25
100
AcDbSpline
210
0.0
220
0.0
230
1.0
 70
     8
 71
     3
 72
    38
 73
    34
 74
     0
 42
0.000000001
 43
0.00000001
 40
0.0
 40
0.0
 40
0.0
 40
0.0
 40
0.1250000000000014
 40
0.1250000000000014
 40
0.1875000000000029
 40
0.1875000000000029
 40
0.2187500000000031
 40
0.2187500000000031
 40
0.2500000000000034
 40
0.2500000000000034
 40
0.375
 40
0.375
 40
0.4374999999999987
 40
0.4374999999999987
 40
0.4687499999999981
 40
0.4687499999999981
 40
0.4999999999999974
 40
0.4999999999999974
 40
0.624999999999998
 40
0.624999999999998
 40
0.6562499999999982
 40
0.6562499999999982
 40
0.6874999999999983
 40
0.6874999999999983
 40
0.7499999999999987
 40
0.7499999999999987
 40
0.8749999999999997
 40
0.8749999999999997
 40
0.9062499999999996
 40
0.9062499999999996
 40
0.9374999999999993
 40
0.9374999999999993
 40
1.0
 40
1.0
 40
1.0
 40
1.0
 10
9.055118110227603
 20
-7.453714723881449
 30
0.0
 10
9.14836732193173
 20
-7.453919672648849
 30
0.0
 10
9.2400505146009
 20
-7.445089577988989
 30
0.0
 10
9.375287128338378
 20
-7.418675030666632
 30
0.0
 10
9.419982850901357
 20
-7.407664279932741
 30
0.0
 10
9.486440483615826
 20
-7.387778904721319
 30
0.0
 10
9.508495084231784
 20
-7.380587244555813
 30
0.0
 10
9.552403022650612
 20
-7.365047107909568
 30
0.0
 10
9.574179248447198
 20
-7.356721771700423
 30
0.0
 10
9.681342457564927
 20
-7.312664499767362
 30
0.0
 10
9.762481749711023
 20
-7.269512548876611
 30
0.0
 10
9.87739688864583
 20
-7.193087403307024
 30
0.0
 10
9.914561567904945
 20
-7.165648862541689
 30
0.0
 10
9.968557020431746
 20
-7.121475337125362
 30
0.0
 10
9.986268906576402
 20
-7.106235182441154
 30
0.0
 10
10.02068829809631
 20
-7.075096919993674
 30
0.0
 10
10.03744947972846
 20
-7.05915636645105
 30
0.0
 10
10.11903214105189
 20
-6.977612494368215
 30
0.0
 10
10.17731781551653
 20
-6.906596727112183
 30
0.0
 10
10.2414264561332
 20
-6.810582435514063
 30
0.0
 10
10.25380276356143
 20
-6.791010724918192
 30
0.0
 10
10.27765696478853
 20
-6.751123324766256
 30
0.0
 10
10.28915089778709
 20
-6.730770770068808
 30
0.0
 10
10.32189779129345
 20
-6.669279627094087
 30
0.0
 10
10.3415526985662
 20
-6.627509373120019
 30
0.0
 10
10.39411793658212
 20
-6.499917168054015
 30
0.0
 10
10.42069762068052
 20
-6.411837759218674
 30
0.0
 10
10.44315602896884
 20
-6.297902528529
 30
0.0
 10
10.4471022336517
 20
-6.274882283511666
 30
0.0
 10
10.45383075609074
 20
-6.228820537976169
 30
0.0
 10
10.45662285529476
 20
-6.20574227376876
 30
0.0
 10
10.4633027587628
 20
-6.136367239523907
 30
0.0
 10
10.4655004937535
 20
-6.089930724057782
 30
0.0
 10
10.46542334957963
 20
-6.04330708660569
 30
0.0
  0
SPLINE
  5
2A2
330
28A
100
AcDbEntity
  8
0
  6
Continuous
 62
     7
370
    25
100
AcDbSpline
210
0.0
220
0.0
230
1.0
 70
     8
 71
     3
 72
    38
 73
    34
 74
     0
 42
0.000000001
 43
0.00000001
 40
0.0
 40
0.0
 40
0.0
 40
0.0
 40
0.0625000000000027
 40
0.0625000000000027
 40
0.0937500000000046
 40
0.0937500000000046
 40
0.1250000000000064
 40
0.1250000000000064
 40
0.2500000000000113
 40
0.2500000000000113
 40
0.3125000000000139
 40
0.3125000000000139
 40
0.3437500000000139
 40
0.3437500000000139
 40
0.3750000000000139
 40
0.3750000000000139
 40
0.5000000000000163
 40
0.5000000000000163
 40
0.5312500000000158
 40
0.5312500000000158
 40
0.5625000000000151
 40
0.5625000000000151
 40
0.6250000000000139
 40
0.6250000000000139
 40
0.7500000000000127
 40
0.7500000000000127
 40
0.7812500000000114
 40
0.7812500000000114
 40
0.8125000000000101
 40
0.8125000000000101
 40
0.8750000000000062
 40
0.8750000000000062
 40
1.0
 40
1.0
 40
1.0
 40
1.0
 10
10.58231598791989
 20
-6.046481878284418
 30
0.0
 10
10.58095912294101
 20
-6.09644028289901
 30
0.0
 10
10.57727366524696
 20
-6.146142390306491
 30
0.0
 10
10.56826646485787
 20
-6.220312632787551
 30
0.0
 10
10.56468280250354
 20
-6.244972070158923
 30
0.0
 10
10.55633871465459
 20
-6.29416142413819
 30
0.0
 10
10.55156705010102
 20
-6.31872949196113
 30
0.0
 10
10.52493537121624
 20
-6.44034682767586
 30
0.0
 10
10.49481910607685
 20
-6.534332322867912
 30
0.0
 10
10.43657283207614
 20
-6.670402265776454
 30
0.0
 10
10.41496984506635
 20
-6.714937515493589
 30
0.0
 10
10.37920774520819
 20
-6.780479652723576
 30
0.0
 10
10.36669210039927
 20
-6.802168047718339
 30
0.0
 10
10.34076146075093
 20
-6.844704839945718
 30
0.0
 10
10.32733195517309
 20
-6.865585728520205
 30
0.0
 10
10.25788599936369
 20
-6.968071417660331
 30
0.0
 10
10.19509900320535
 20
-7.044024089589231
 30
0.0
 10
10.10757769304728
 20
-7.131420267626708
 30
0.0
 10
10.0896139576484
 20
-7.148515929648711
 30
0.0
 10
10.05275965652624
 20
-7.181933525211332
 30
0.0
 10
10.03381556332252
 20
-7.198298029995928
 30
0.0
 10
9.976078504815654
 20
-7.245797300571065
 30
0.0
 10
9.936358606436446
 20
-7.275389183628012
 30
0.0
 10
9.813601250908068
 20
-7.358090384981388
 30
0.0
 10
9.726988943934527
 20
-7.405163769822554
 30
0.0
 10
9.612703040648185
 20
-7.453840191204397
 30
0.0
 10
9.589487337772471
 20
-7.463078511865515
 30
0.0
 10
9.542684183041937
 20
-7.480407432679753
 30
0.0
 10
9.519165773228956
 20
-7.488477116166505
 30
0.0
 10
9.448269080795889
 20
-7.510947828416495
 30
0.0
 10
9.400550509801173
 20
-7.523616498785591
 30
0.0
 10
9.256061279037997
 20
-7.554833765726573
 30
0.0
 10
9.157961956506563
 20
-7.566618334309394
 30
0.0
 10
9.05804549704015
 20
-7.56915212426674
 30
0.0
  0
SPLINE
  5
2A3
330
28A
100
AcDbEntity
  8
0
  6
Continuous
 62
     7
370
    25
100
AcDbSpline
210
0.0
220
0.0
230
1.0
 70
     8
 71
     3
 72
    16
 73
    12
 74
     0
 42
0.000000001
 43
0.00000001
 40
0.0
 40
0.0
 40
0.0
 40
0.0
 40
0.0078125000000001
 40
0.0078125000000001
 40
0.0156250000000003
 40
0.0312500000000005
 40
0.0625000000000006
 40
0.1250000000000006
 40
0.2500000000000006
 40
0.5000000000000004
 40
1.0
 40
1.0
 40
1.0
 40
1.0
 10
-10.58231598791262
 20
-6.046481878551746
 30
0.0
 10
-10.58280629591849
 20
-6.028429230740099
 30
0.0
 10
-10.58290546817521
 20
-6.010376391432367
 30
0.0
 10
-10.58290546817521
 20
-5.974270615709448
 30
0.0
 10
-10.58290546817521
 20
-5.920111952125066
 30
0.0
 10
-10.58290546817522
 20
-5.793741737094856
 30
0.0
 10
-10.58290546817521
 20
-5.541001307034428
 30
0.0
 10
-10.5829054681752
 20
-5.035520446913581
 30
0.0
 10
-10.5829054681752
 20
-4.02455872667188
 30
0.0
 10
-10.58290546817523
 20
-2.00263528618848
 30
0.0
 10
-10.58290546817522
 20
-0.2695580514884205
 30
0.0
 10
-10.5829054681752
 20
0.8858267716449503
 30
0.0
  0
SPLINE
  5
2A5
330
28A
100
AcDbEntity
  8
0
  6
Continuous
 62
     7
370
    25
100
AcDbSpline
210
0.0
220
0.0
230
1.0
 70
     8
 71
     3
 72
     8
 73
     4
 74
     0
 42
0.000000001
 43
0.00000001
 40
0.0
 40
0.0
 40
0.0
 40
0.0
 40
1.0
 40
1.0
 40
1.0
 40
1.0
 10
-10.46478943582953
 20
-6.00307211923278
 30
0.0
 10
-10.46518996104961
 20
-6.01647902175467
 30
0.0
 10
-10.46540115283039
 20
-6.029892032082968
 30
0.0
 10
-10.46542334958005
 20
-6.043307086853662
 30
0.0
  0
SPLINE
  5
2A6
330
28A
100
AcDbEntity
  8
0
  6
Continuous
 62
     7
370
    25
100
AcDbSpline
210
0.0
220
0.0
230
1.0
 70
     8
 71
     3
 72
    42
 73
    38
 74
     0
 42
0.000000001
 43
0.00000001
 40
0.0
 40
0.0
 40
0.0
 40
0.0
 40
0.0312500000000007
 40
0.0312500000000007
 40
0.0625000000000014
 40
0.0625000000000014
 40
0.1250000000000027
 40
0.1250000000000027
 40
0.1875000000000039
 40
0.1875000000000039
 40
0.2187500000000042
 40
0.2187500000000042
 40
0.2500000000000044
 40
0.2500000000000044
 40
0.3750000000000053
 40
0.3750000000000053
 40
0.4375000000000059
 40
0.4375000000000059
 40
0.4687500000000062
 40
0.4687500000000062
 40
0.5000000000000064
 40
0.5000000000000064
 40
0.6250000000000084
 40
0.6250000000000084
 40
0.6562500000000083
 40
0.6562500000000083
 40
0.6875000000000082
 40
0.6875000000000082
 40
0.750000000000007
 40
0.750000000000007
 40
0.8750000000000042
 40
0.8750000000000042
 40
0.9062500000000031
 40
0.9062500000000031
 40
0.937500000000002
 40
0.937500000000002
 40
1.0
 40
1.0
 40
1.0
 40
1.0
 10
10.46478943582954
 20
0.8858267718926961
 30
0.0
 10
10.46478943582954
 20
0.9092890659342234
 30
0.0
 10
10.46421001332161
 20
0.9326432068252117
 30
0.0
 10
10.46187322292154
 20
0.9791417428152952
 30
0.0
 10
10.46013383842319
 20
1.002287966942506
 30
0.0
 10
10.45323176604338
 20
1.071422702540334
 30
0.0
 10
10.44639063840729
 20
1.117108269774006
 30
0.0
 10
10.42823580511831
 20
1.207671790406649
 30
0.0
 10
10.4169287017547
 20
1.252551056817335
 30
0.0
 10
10.39659510519687
 20
1.319260821101025
 30
0.0
 10
10.38925317408365
 20
1.341395537778648
 30
0.0
 10
10.3734148422824
 20
1.385456401200369
 30
0.0
 10
10.36493635095485
 20
1.407322671699297
 30
0.0
 10
10.32013150194983
 20
1.514900604992558
 30
0.0
 10
10.27639609226689
 20
1.596327841426259
 30
0.0
 10
10.19936037416373
 20
1.71174441674961
 30
0.0
 10
10.17174544835198
 20
1.749077840515498
 30
0.0
 10
10.12740561787866
 20
1.803362423950811
 30
0.0
 10
10.11212395655937
 20
1.821179699453378
 30
0.0
 10
10.08091607603009
 20
1.855854065184542
 30
0.0
 10
10.06495074275377
 20
1.872761049444947
 30
0.0
 10
9.983343910848005
 20
1.955175135812993
 30
0.0
 10
9.912398457860101
 20
2.014367308515713
 30
0.0
 10
9.816908116559597
 20
2.080242074864273
 30
0.0
 10
9.797464747958076
 20
2.093005209325297
 30
0.0
 10
9.757874541287906
 20
2.11769175632787
 30
0.0
 10
9.737700230009356
 20
2.129630594170309
 30
0.0
 10
9.676725270450941
 20
2.163866885261461
 30
0.0
 10
9.635296289341925
 20
2.184704014486001
 30
0.0
 10
9.508766838324869
 20
2.241482566936009
 30
0.0
 10
9.421424628616652
 20
2.271686939088042
 30
0.0
 10
9.308539933561645
 20
2.300000246700231
 30
0.0
 10
9.285737791133178
 20
2.305193512032139
 30
0.0
 10
9.240006759835019
 20
2.314559056821714
 30
0.0
 10
9.217068759982439
 20
2.318734616220505
 30
0.0
 10
9.148035805556502
 20
2.329752945320179
 30
0.0
 10
9.101723096670765
 20
2.335094622135655
 30
0.0
 10
9.055118110395155
 20
2.338425989278714
 30
0.0
  0
SPLINE
  5
2A8
330
28A
100
AcDbEntity
  8
0
  6
Continuous
 62
     7
370
    25
100
AcDbSpline
210
0.0
220
0.0
230
1.0
 70
     8
 71
     3
 72
    44
 73
    40
 74
     0
 42
0.000000001
 43
0.00000001
 40
0.0
 40
0.0
 40
0.0
 40
0.0
 40
0.0624999999999985
 40
0.0624999999999985
 40
0.0937499999999977
 40
0.0937499999999977
 40
0.124999999999997
 40
0.124999999999997
 40
0.2499999999999935
 40
0.2499999999999935
 40
0.3124999999999918
 40
0.3124999999999918
 40
0.3437499999999915
 40
0.3437499999999915
 40
0.3749999999999923
 40
0.3749999999999923
 40
0.4999999999999909
 40
0.4999999999999909
 40
0.5312499999999911
 40
0.5312499999999911
 40
0.5624999999999913
 40
0.5624999999999913
 40
0.6249999999999918
 40
0.6249999999999918
 40
0.7499999999999927
 40
0.7499999999999927
 40
0.7812499999999936
 40
0.7812499999999936
 40
0.8124999999999943
 40
0.8124999999999943
 40
0.8749999999999963
 40
0.8749999999999963
 40
0.9374999999999983
 40
0.9374999999999983
 40
0.9687499999999992
 40
0.9687499999999992
 40
0.9843749999999996
 40
0.9843749999999996
 40
1.0
 40
1.0
 40
1.0
 40
1.0
 10
9.066988499366598
 20
2.495216892975418
 30
0.0
 10
9.117954136293566
 20
2.491358365980313
 30
0.0
 10
9.168563183822656
 20
2.485192390334015
 30
0.0
 10
9.243944755923042
 20
2.472500921764432
 30
0.0
 10
9.26898294870154
 20
2.467694537008617
 30
0.0
 10
9.318880780248454
 20
2.456926365199152
 30
0.0
 10
9.343758007338977
 20
2.450958276181184
 30
0.0
 10
9.466795791602657
 20
2.418466019232426
 30
0.0
 10
9.561650753732847
 20
2.383912206183523
 30
0.0
 10
9.698641743835521
 20
2.319412530729025
 30
0.0
 10
9.743422923378661
 20
2.295799769640036
 30
0.0
 10
9.809226603139598
 20
2.257105106917189
 30
0.0
 10
9.830987049717757
 20
2.243622497448193
 30
0.0
 10
9.873684446747593
 20
2.215761857378021
 30
0.0
 10
9.894633770160032
 20
2.201381236186017
 30
0.0
 10
9.99742600684846
 20
2.127274538319733
 30
0.0
 10
10.07347892548133
 20
2.061020159630155
 30
0.0
 10
10.16067257848477
 20
1.96932583490351
 30
0.0
 10
10.17771598846008
 20
1.950541240282361
 30
0.0
 10
10.21100134039029
 20
1.912068384350289
 30
0.0
 10
10.22728425772502
 20
1.892326722763772
 30
0.0
 10
10.27455840471065
 20
1.832154722120016
 30
0.0
 10
10.30394484804762
 20
1.79084861306742
 30
0.0
 10
10.38580466061383
 20
1.663406001172267
 30
0.0
 10
10.4321131464158
 20
1.573820535014516
 30
0.0
 10
10.47932831346638
 20
1.455869091172589
 30
0.0
 10
10.48824672301277
 20
1.431930791629814
 30
0.0
 10
10.5049122978394
 20
1.383646977631124
 30
0.0
 10
10.51262792277994
 20
1.359400783468441
 30
0.0
 10
10.53396211121601
 20
1.286355896029095
 30
0.0
 10
10.54577493810441
 20
1.237252072163968
 30
0.0
 10
10.56461948905725
 20
1.138236521048269
 30
0.0
 10
10.57165083886283
 20
1.088324730556017
 30
0.0
 10
10.57860053937594
 20
1.012849174520134
 30
0.0
 10
10.58031617078518
 20
0.9875891106990988
 30
0.0
 10
10.58197297244972
 20
0.9495441216324735
 30
0.0
 10
10.58237236111023
 20
0.9368366254266713
 30
0.0
 10
10.58286148881551
 20
0.9113693089003154
 30
0.0
 10
10.58290546817521
 20
0.8986017561787146
 30
0.0
 10
10.58290546817521
 20
0.8858267718926964
 30
0.0
  0
SPLINE
  5
2AA
330
28A
100
AcDbEntity
  8
0
  6
Continuous
 62
     7
370
    25
100
AcDbSpline
210
0.0
220
0.0
230
1.0
 70
     8
 71
     3
 72
     8
 73
     4
 74
     0
 42
0.000000001
 43
0.00000001
 40
0.0
 40
0.0
 40
0.0
 40
0.0
 40
1.0
 40
1.0
 40
1.0
 40
1.0
 10
10.46542334957964
 20
-6.043307086605689
 30
0.0
 10
10.46540115282778
 20
-6.029892031917597
 30
0.0
 10
10.4651899610502
 20
-6.016479021671771
 30
0.0
 10
10.46478943582953
 20
-6.003072119232777
 30
0.0
  0
LWPOLYLINE
  5
2AC
330
28A
100
AcDbEntity
  8
0
  6
Continuous
 62
     7
370
    25
100
AcDbPolyline
 90
        7
 70
   128
 43
0.0
 10
10.5829054682
 20
0.8858267719
 10
10.5829054682
 20
0.570866142
 10
10.5829054682
 20
-0.6889763777
 10
10.5829054682
 20
-3.367729128
 10
10.5829054682
 20
-4.7071055031
 10
10.5871562173
 20
-5.3768554068
 10
10.5823159879
 20
-6.0464818783
  0
SPLINE
  5
2AD
330
28A
100
AcDbEntity
  8
0
  6
Continuous
 62
     7
370
    25
100
AcDbSpline
210
0.0
220
0.0
230
1.0
 70
     8
 71
     3
 72
     8
 73
     4
 74
     0
 42
0.000000001
 43
0.00000001
 40
0.0
 40
0.0
 40
0.0
 40
0.0
 40
1.0
 40
1.0
 40
1.0
 40
1.0
 10
-8.940586971549438
 20
2.342519685039369
 30
0.0
 10
-8.978788697254334
 20
2.342519685039369
 30
0.0
 10
-9.016989885802332
 20
2.341151429709121
 30
0.0
 10
-9.05511810969554
 20
2.338425989328721
 30
0.0
  0
SPLINE
  5
2AE
330
28A
100
AcDbEntity
  8
0
  6
Continuous
 62
     7
370
    25
100
AcDbSpline
210
0.0
220
0.0
230
1.0
 70
     8
 71
     3
 72
    31
 73
    27
 74
     0
 42
0.000000001
 43
0.00000001
 40
0.0
 40
0.0
 40
0.0
 40
0.0
 40
0.0039062499999999
 40
0.0039062499999999
 40
0.0058593749999998
 40
0.0058593749999998
 40
0.0078124999999997
 40
0.0078124999999997
 40
0.0156249999999996
 40
0.0312499999999995
 40
0.0624999999999994
 40
0.1249999999999994
 40
0.2499999999999996
 40
0.4999999999999997
 40
0.7499999999999998
 40
0.875
 40
0.9375000000000001
 40
0.9687500000000003
 40
0.9843750000000003
 40
0.9921875000000003
 40
0.9921875000000003
 40
0.9941406250000002
 40
0.9941406250000002
 40
0.9960937500000001
 40
0.9960937500000001
 40
1.0
 40
1.0
 40
1.0
 40
1.0
 10
-9.066988498594911
 20
2.49521689303384
 30
0.0
 10
-9.043379074217002
 20
2.497004324845465
 30
0.0
 10
-9.019768926321577
 20
2.498289712475046
 30
0.0
 10
-8.98435262389715
 20
2.499467985476056
 30
0.0
 10
-8.972547009565675
 20
2.499735710449383
 30
0.0
 10
-8.94893542016291
 20
2.500020845351248
 30
0.0
 10
-8.937129389960278
 20
2.499999999999999
 30
0.0
 10
-8.878099389152855
 20
2.5
 30
0.0
 10
-8.736427387215056
 20
2.499999999999999
 30
0.0
 10
-8.405859382693476
 20
2.499999999999999
 30
0.0
 10
-7.744723373650347
 20
2.499999999999999
 30
0.0
 10
-6.422451355564073
 20
2.499999999999999
 30
0.0
 10
-3.777907319391554
 20
2.5
 30
0.0
 10
0.0000127322835086
 20
2.499999999999998
 30
0.0
 10
3.777932783958567
 20
2.5
 30
0.0
 10
6.422476820131105
 20
2.500000000000002
 30
0.0
 10
7.74474883821736
 20
2.5
 30
0.0
 10
8.4058848472605
 20
2.500000000000001
 30
0.0
 10
8.736452851782063
 20
2.500000000000001
 30
0.0
 10
8.878124853719877
 20
2.500000000000002
 30
0.0
 10
8.9371548545273
 20
2.500000000000002
 30
0.0
 10
8.948960994800242
 20
2.500020711727929
 30
0.0
 10
8.972571063983276
 20
2.499735244380707
 30
0.0
 10
8.98437525206938
 20
2.49946737754001
 30
0.0
 10
9.019785280198768
 20
2.498288878244242
 30
0.0
 10
9.043388585856643
 20
2.497003604745366
 30
0.0
 10
9.066988499366602
 20
2.495216892975418
 30
0.0
  0
SPLINE
  5
2AF
330
28A
100
AcDbEntity
  8
0
  6
Continuous
 62
     7
370
    25
100
AcDbSpline
210
0.0
220
0.0
230
1.0
 70
     8
 71
     3
 72
     8
 73
     4
 74
     0
 42
0.000000001
 43
0.00000001
 40
0.0
 40
0.0
 40
0.0
 40
0.0
 40
1.0
 40
1.0
 40
1.0
 40
1.0
 10
9.055118110395153
 20
2.338425989278714
 30
0.0
 10
9.016989886268213
 20
2.341151429692504
 30
0.0
 10
8.978788697491508
 20
2.342519685039371
 30
0.0
 10
8.940586971549436
 20
2.342519685039371
 30
0.0
  0
SPLINE
  5
2B1
330
28A
100
AcDbEntity
  8
0
  6
Continuous
 62
     7
370
    25
100
AcDbSpline
210
0.0
220
0.0
230
1.0
 70
     8
 71
     3
 72
    31
 73
    27
 74
     0
 42
0.000000001
 43
0.00000001
 40
0.0
 40
0.0
 40
0.0
 40
0.0
 40
0.0139261760439732
 40
0.0278296396457727
 40
0.0417169939756741
 40
0.0555948651986237
 40
0.0694698930658445
 40
0.0833487214094181
 40
0.0972379886076354
 40
0.1111443180894006
 40
0.1250743089453275
 40
0.1875779184968463
 40
0.2501008879614519
 40
0.3126044975157665
 40
0.3751274669775306
 40
0.5000027177825174
 40
0.6248779685875043
 40
0.6873815781392691
 40
0.7499045476035792
 40
0.8124081571545925
 40
0.8749311266196728
 40
0.8999805165365233
 40
0.9249733977138883
 40
0.9499484478748851
 40
0.9749444275156557
 40
1.0
 40
1.0
 40
1.0
 40
1.0
 10
-6.69291338582677
 20
1.555118110236219
 30
0.0
 10
-6.69287750757357
 20
1.560856250597187
 30
0.0
 10
-6.692805809581638
 20
1.572323172886432
 30
0.0
 10
-6.692224509535503
 20
1.589504129319832
 30
0.0
 10
-6.691296162712838
 20
1.606648896292006
 30
0.0
 10
-6.689986918988622
 20
1.623757465332693
 30
0.0
 10
-6.688305838897247
 20
1.640829817405193
 30
0.0
 10
-6.686250482504842
 20
1.657865966532678
 30
0.0
 10
-6.683821563433062
 20
1.674865805280804
 30
0.0
 10
-6.681018679840824
 20
1.691829680601296
 30
0.0
 10
-6.674154149302002
 20
1.7284151107187
 30
0.0
 10
-6.660237064835511
 20
1.784061633794104
 30
0.0
 10
-6.634141578850421
 20
1.856915600049891
 30
0.0
 10
-6.601067949149033
 20
1.926900987637097
 30
0.0
 10
-6.548044401371871
 20
2.015328086610126
 30
0.0
 10
-6.465890966559086
 20
2.115497271362974
 30
0.0
 10
-6.365728005839175
 20
2.197645598854175
 30
0.0
 10
-6.277301738622318
 20
2.250670483506968
 30
0.0
 10
-6.207324233654706
 20
2.28374165567922
 30
0.0
 10
-6.134462280325289
 20
2.309841477543993
 30
0.0
 10
-6.074365913150127
 20
2.324871438801021
 30
0.0
 10
-6.028700836049671
 20
2.333031968687387
 30
0.0
 10
-5.998074916986137
 20
2.337277523017358
 30
0.0
 10
-5.96732833249661
 20
2.340287501094798
 30
0.0
 10
-5.936460328513425
 20
2.342171632057793
 30
0.0
 10
-5.91583616876306
 20
2.342403575326028
 30
0.0
 10
-5.905511811023621
 20
2.342519685039369
 30
0.0
  0
SPLINE
  5
2B3
330
28A
100
AcDbEntity
  8
0
  6
Continuous
 62
     7
370
    25
100
AcDbSpline
210
0.0
220
0.0
230
1.0
 70
     8
 71
     3
 72
    31
 73
    27
 74
     0
 42
0.000000001
 43
0.00000001
 40
0.0
 40
0.0
 40
0.0
 40
0.0
 40
0.0139263528273981
 40
0.0278299489534615
 40
0.0417173915481361
 40
0.0555953068391397
 40
0.0694703347039171
 40
0.0833491191641136
 40
0.0972382988503683
 40
0.1111444975057053
 40
0.1250743145951912
 40
0.1875788135184347
 40
0.2501008935936785
 40
0.3126053925160091
 40
0.3751274725921674
 40
0.5000027233751615
 40
0.6248779741581554
 40
0.6873824730842383
 40
0.7499045531566337
 40
0.8124090520835163
 40
0.8749311321551478
 40
0.8999808038482563
 40
0.9249738267912871
 40
0.9499488769478862
 40
0.974944713709511
 40
1.0
 40
1.0
 40
1.0
 40
1.0
 10
-5.905511811023621
 20
-3.562992125984251
 30
0.0
 10
-5.911250024226418
 20
-3.562956247853405
 30
0.0
 10
-5.92271707396278
 20
-3.56288455021926
 30
0.0
 10
-5.93989819431957
 20
-3.562303250930235
 30
0.0
 10
-5.957043070630389
 20
-3.561374904630848
 30
0.0
 10
-5.974151694431813
 20
-3.560065661537102
 30
0.0
 10
-5.991224046668264
 20
-3.558384581967746
 30
0.0
 10
-6.008260141427975
 20
-3.556329226330875
 30
0.0
 10
-6.025259871028314
 20
-3.553900307104463
 30
0.0
 10
-6.042223583338395
 20
-3.551097426647895
 30
0.0
 10
-6.07880923001959
 20
-3.544232746036085
 30
0.0
 10
-6.134455693167378
 20
-3.530315720928811
 30
0.0
 10
-6.207309976261134
 20
-3.504220032453776
 30
0.0
 10
-6.277295015112534
 20
-3.471146516593111
 30
0.0
 10
-6.365722071438389
 20
-3.418122907081728
 30
0.0
 10
-6.465890972511149
 20
-3.335969706493747
 30
0.0
 10
-6.548039533787054
 20
-3.235806461843216
 30
0.0
 10
-6.601064357533923
 20
-3.147380152253906
 30
0.0
 10
-6.634135641540261
 20
-3.077402298036294
 30
0.0
 10
-6.660235267858366
 20
-3.00454066312461
 30
0.0
 10
-6.675265282495319
 20
-2.94444418898282
 30
0.0
 10
-6.683425650081681
 20
-2.898779277145651
 30
0.0
 10
-6.687671215151342
 20
-2.868153184323525
 30
0.0
 10
-6.69068119424616
 20
-2.837406600420457
 30
0.0
 10
-6.692565330140467
 20
-2.806538773953607
 30
0.0
 10
-6.692797275431642
 20
-2.785914790996773
 30
0.0
 10
-6.69291338582677
 20
-2.775590551181103
 30
0.0
  0
SPLINE
  5
2B5
330
28A
100
AcDbEntity
  8
0
  6
Continuous
 62
     7
370
    25
100
AcDbSpline
210
0.0
220
0.0
230
1.0
 70
     8
 71
     3
 72
    31
 73
    27
 74
     0
 42
0.000000001
 43
0.00000001
 40
0.0
 40
0.0
 40
0.0
 40
0.0
 40
0.0139263528269292
 40
0.0278299489526419
 40
0.0417173915470832
 40
0.0555953068379701
 40
0.069470334702747
 40
0.0833491191630615
 40
0.0972382988495481
 40
0.111144497505233
 40
0.1250743145951809
 40
0.1875788135141549
 40
0.2501008935936535
 40
0.3126053925095367
 40
0.3751274725921453
 40
0.500002723375144
 40
0.6248779741581437
 40
0.6873824730816142
 40
0.7499045531565786
 40
0.812409052076572
 40
0.8749311321551037
 40
0.8999808038462069
 40
0.9249738267882267
 40
0.9499488769448268
 40
0.9749447137074713
 40
1.0
 40
1.0
 40
1.0
 40
1.0
 10
6.692913385826771
 20
-2.775590551181101
 30
0.0
 10
6.692877507695925
 20
-2.781328764383705
 30
0.0
 10
6.692805810061778
 20
-2.79279581411973
 30
0.0
 10
6.692224510772752
 20
-2.809976934476084
 30
0.0
 10
6.691296164473362
 20
-2.827121810786612
 30
0.0
 10
6.689986921379613
 20
-2.844230434587893
 30
0.0
 10
6.688305841810263
 20
-2.861302786824343
 30
0.0
 10
6.686250486173389
 20
-2.878338881584196
 30
0.0
 10
6.683821566946972
 20
-2.895338611184825
 30
0.0
 10
6.681018686490398
 20
-2.912302323495339
 30
0.0
 10
6.674154005879148
 20
-2.948887970175187
 30
0.0
 10
6.660236980771381
 20
-3.004534433323025
 30
0.0
 10
6.63414129229808
 20
-3.077388716414573
 30
0.0
 10
6.601067776436813
 20
-3.147373755267607
 30
0.0
 10
6.548044166926003
 20
-3.235800811593854
 30
0.0
 10
6.465890966336151
 20
-3.335969712668448
 30
0.0
 10
6.365727721686854
 20
-3.418118273944338
 30
0.0
 10
6.277301412096909
 20
-3.471143097690031
 30
0.0
 10
6.20732355788248
 20
-3.504214381696345
 30
0.0
 10
6.134461922969901
 20
-3.530314008015193
 30
0.0
 10
6.074365448828874
 20
-3.545344022651735
 30
0.0
 10
6.028700536990302
 20
-3.553504390239302
 30
0.0
 10
5.998074444169416
 20
-3.557749955308887
 30
0.0
 10
5.967327860266341
 20
-3.560759934403694
 30
0.0
 10
5.936460033798228
 20
-3.56264407029797
 30
0.0
 10
5.915836050840135
 20
-3.562876015589131
 30
0.0
 10
5.905511811023623
 20
-3.562992125984251
 30
0.0
  0
SPLINE
  5
2B7
330
28A
100
AcDbEntity
  8
0
  6
Continuous
 62
     7
370
    25
100
AcDbSpline
210
0.0
220
0.0
230
1.0
 70
     8
 71
     3
 72
    31
 73
    27
 74
     0
 42
0.000000001
 43
0.00000001
 40
0.0
 40
0.0
 40
0.0
 40
0.0
 40
0.0139263528273967
 40
0.0278299489534588
 40
0.0417173915481356
 40
0.0555953068391379
 40
0.0694703347039139
 40
0.08334911916411
 40
0.0972382988503653
 40
0.1111444975057
 40
0.1250743145951872
 40
0.1875788135199797
 40
0.2501008935936843
 40
0.3126053925175487
 40
0.3751274725921561
 40
0.5000027233751454
 40
0.6248779741581357
 40
0.6873824730850087
 40
0.7499045531566817
 40
0.8124090520878529
 40
0.874931132155154
 40
0.8999808038483881
 40
0.9249738267914815
 40
0.9499488769480795
 40
0.9749447137096396
 40
1.0
 40
1.0
 40
1.0
 40
1.0
 10
5.905511811023621
 20
2.34251968503937
 30
0.0
 10
5.911250024226417
 20
2.342483806908523
 30
0.0
 10
5.922717073962778
 20
2.342412109274378
 30
0.0
 10
5.93989819431957
 20
2.341830809985353
 30
0.0
 10
5.957043070630383
 20
2.340902463685966
 30
0.0
 10
5.974151694431815
 20
2.33959322059222
 30
0.0
 10
5.991224046668264
 20
2.337912141022866
 30
0.0
 10
6.008260141427973
 20
2.335856785385994
 30
0.0
 10
6.025259871028311
 20
2.333427866159581
 30
0.0
 10
6.042223583338396
 20
2.330624985703015
 30
0.0
 10
6.078809230020211
 20
2.32376030509107
 30
0.0
 10
6.134455693168079
 20
2.309843279984049
 30
0.0
 10
6.20730997626231
 20
2.283747591508399
 30
0.0
 10
6.277295015112963
 20
2.25067407564767
 30
0.0
 10
6.365722071438944
 20
2.19765046613657
 30
0.0
 10
6.465890972511375
 20
2.11549726554896
 30
0.0
 10
6.548039533786529
 20
2.015334020897658
 30
0.0
 10
6.601064357535371
 20
1.92690771130945
 30
0.0
 10
6.634135641540963
 20
1.85692985708942
 30
0.0
 10
6.660235267858167
 20
1.784068222177815
 30
0.0
 10
6.675265282495732
 20
1.723971748036151
 30
0.0
 10
6.683425650081665
 20
1.678306836200633
 30
0.0
 10
6.687671215151345
 20
1.647680743378432
 30
0.0
 10
6.690681194246152
 20
1.616934159475362
 30
0.0
 10
6.692565330140467
 20
1.586066333008592
 30
0.0
 10
6.692797275431644
 20
1.565442350051838
 30
0.0
 10
6.692913385826772
 20
1.555118110236221
 30
0.0
  0
CIRCLE
  5
2C0
330
28A
100
AcDbEntity
  8
0
  6
Continuous
 62
     7
370
    25
100
AcDbCircle
 10
0.0
 20
4.2913385827
 30
0.0
 40
0.7677165354330713
  0
CIRCLE
  5
2C3
330
28A
100
AcDbEntity
  8
0
  6
Continuous
 62
     7
370
    25
100
AcDbCircle
 10
0.0
 20
4.2913385827
 30
0.0
 40
0.6889763779527565
  0
CIRCLE
  5
2C4
330
28A
100
AcDbEntity
  8
0
  6
Continuous
 62
     7
370
    25
100
AcDbCircle
 10
0.0
 20
-0.6299212598
 30
0.0
 40
1.312142800186863
  0
CIRCLE
  5
2C5
330
28A
100
AcDbEntity
  8
0
  6
Continuous
 62
     7
370
    25
100
AcDbCircle
 10
0.0
 20
-0.6299212598
 30
0.0
 40
1.256465100880835
  0
CIRCLE
  5
2C8
330
28A
100
AcDbEntity
  8
0
  6
Continuous
 62
     7
370
    25
100
AcDbCircle
 10
0.0
 20
-0.6299212598
 30
0.0
 40
0.9088892298278313
  0
CIRCLE
  5
2C9
330
28A
100
AcDbEntity
  8
0
  6
Continuous
 62
     7
370
    25
100
AcDbCircle
 10
0.0
 20
-0.6299212598
 30
0.0
 40
0.8858267716535441
  0
LINE
  5
2D0
330
28A
100
AcDbEntity
  8
0
  6
Continuous
 62
     7
370
    25
100
AcDbLine
 10
10.8183023425
 20
-6.1417322835
 30
0.0
 11
10.8183023425
 21
6.8503937008
 31
0.0
  0
LINE
  5
2D1
330
28A
100
AcDbEntity
  8
0
  6
Continuous
 62
     7
370
    25
100
AcDbLine
 10
-9.0551181102
 20
-7.9049165157
 30
0.0
 11
9.0551181102
 21
-7.9049165157
 31
0.0
  0
LINE
  5
2D2
330
28A
100
AcDbEntity
  8
0
  6
Continuous
 62
     7
370
    25
100
AcDbLine
 10
-10.8183023425
 20
6.8503937008
 30
0.0
 11
-10.8183023425
 21
-6.1417322835
 31
0.0
  0
LINE
  5
2D3
330
28A
100
AcDbEntity
  8
0
  6
Continuous
 62
     7
370
    25
100
AcDbLine
 10
-9.0176289522
 20
-7.4531385532
 30
0.0
 11
9.0176289522
 21
-7.4531385532
 31
0.0
  0
LINE
  5
2D4
330
28A
100
AcDbEntity
  8
0
  6
Continuous
 62
     7
370
    25
100
AcDbLine
 10
9.0551181102
 20
-7.4537147239
 30
0.0
 11
9.058045497
 21
-7.5691521243
 31
0.0
  0
LINE
  5
2D5
330
28A
100
AcDbEntity
  8
0
  6
Continuous
 62
     7
370
    25
100
AcDbLine
 10
-9.0551181102
 20
-7.4537147239
 30
0.0
 11
-9.058045497
 21
-7.5691521243
 31
0.0
  0
LINE
  5
2D6
330
28A
100
AcDbEntity
  8
0
  6
Continuous
 62
     7
370
    25
100
AcDbLine
 10
-10.5823159879
 20
-6.0464818786
 30
0.0
 11
-10.4654233496
 21
-6.0433070869
 31
0.0
  0
LINE
  5
2D7
330
28A
100
AcDbEntity
  8
0
  6
Continuous
 62
     7
370
    25
100
AcDbLine
 10
-9.0669884986
 20
2.495216893
 30
0.0
 11
-9.0551181097
 21
2.3384259893
 31
0.0
  0
LINE
  5
2D8
330
28A
100
AcDbEntity
  8
0
  6
Continuous
 62
     7
370
    25
100
AcDbLine
 10
-10.5829054682
 20
0.8858267716
 30
0.0
 11
-10.4647894358
 21
0.8858267716
 31
0.0
  0
LINE
  5
2D9
330
28A
100
AcDbEntity
  8
0
  6
Continuous
 62
     7
370
    25
100
AcDbLine
 10
10.4654233496
 20
-6.0433070866
 30
0.0
 11
10.5823159879
 21
-6.0464818783
 31
0.0
  0
LINE
  5
2DA
330
28A
100
AcDbEntity
  8
0
  6
Continuous
 62
     7
370
    25
100
AcDbLine
 10
-10.4647894358
 20
0.8858267716
 30
0.0
 11
-10.4647894358
 21
-6.0030721192
 31
0.0
  0
LINE
  5
2DB
330
28A
100
AcDbEntity
  8
0
  6
Continuous
 62
     7
370
    25
100
AcDbLine
 10
9.0669884994
 20
2.495216893
 30
0.0
 11
9.0551181104
 21
2.3384259893
 31
0.0
  0
LINE
  5
2DC
330
28A
100
AcDbEntity
  8
0
  6
Continuous
 62
     7
370
    25
100
AcDbLine
 10
10.4647894358
 20
0.8858267719
 30
0.0
 11
10.5829054682
 21
0.8858267719
 31
0.0
  0
LINE
  5
2DD
330
28A
100
AcDbEntity
  8
0
  6
Continuous
 62
     7
370
    25
100
AcDbLine
 10
10.4647894358
 20
-6.0030721192
 30
0.0
 11
10.4647894358
 21
0.8858267719
 31
0.0
  0
LINE
  5
2DE
330
28A
100
AcDbEntity
  8
0
  6
Continuous
 62
     7
370
    25
100
AcDbLine
 10
8.9405869715
 20
2.342519685
 30
0.0
 11
-8.9405869715
 21
2.342519685
 31
0.0
  0
LINE
  5
2DF
330
28A
100
AcDbEntity
  8
0
  6
Continuous
 62
     7
370
    25
100
AcDbLine
 10
-6.6929133858
 20
1.5551181102
 30
0.0
 11
-6.6929133858
 21
-2.7755905512
 31
0.0
  0
LINE
  5
2E0
330
28A
100
AcDbEntity
  8
0
  6
Continuous
 62
     7
370
    25
100
AcDbLine
 10
-5.905511811
 20
-3.562992126
 30
0.0
 11
5.905511811
 21
-3.562992126
 31
0.0
  0
LINE
  5
2E1
330
28A
100
AcDbEntity
  8
0
  6
Continuous
 62
     7
370
    25
100
AcDbLine
 10
6.6929133858
 20
-2.7755905512
 30
0.0
 11
6.6929133858
 21
1.5551181102
 31
0.0
  0
LINE
  5
2E2
330
28A
100
AcDbEntity
  8
0
  6
Continuous
 62
     7
370
    25
100
AcDbLine
 10
10.6608220275
 20
-6.1417322835
 30
0.0
 11
10.6608220275
 21
6.8503937008
 31
0.0
  0
LINE
  5
2E3
330
28A
100
AcDbEntity
  8
0
  6
Continuous
 62
     7
370
    25
100
AcDbLine
 10
10.8183023425
 20
6.8503937008
 30
0.0
 11
-10.8183023425
 21
6.8503937008
 31
0.0
  0
LINE
  5
2E4
330
28A
100
AcDbEntity
  8
0
  6
Continuous
 62
     7
370
    25
100
AcDbLine
 10
-9.0551181102
 20
-7.7474362007
 30
0.0
 11
9.0551181102
 21
-7.7474362007
 31
0.0
  0
LINE
  5
2E5
330
28A
100
AcDbEntity
  8
0
  6
Continuous
 62
     7
370
    25
100
AcDbLine
 10
-10.6608220275
 20
6.8503937008
 30
0.0
 11
-10.6608220275
 21
-6.1417322835
 31
0.0
  0
LINE
  5
2E6
330
28A
100
AcDbEntity
  8
0
  6
Continuous
 62
     7
370
    25
100
AcDbLine
 10
0.6314572808
 20
4.5669291339
 30
0.0
 11
-0.6314572808
 21
4.5669291339
 31
0.0
  0
LINE
  5
2E7
330
28A
100
AcDbEntity
  8
0
  6
Continuous
 62
     7
370
    25
100
AcDbLine
 10
0.535852661
 20
3.8582677165
 30
0.0
 11
-0.535852661
 21
3.8582677165
 31
0.0
  0
LINE
  5
2E8
330
28A
100
AcDbEntity
  8
0
  6
Continuous
 62
     8
370
    25
100
AcDbLine
 10
-10.8183023425
 20
-6.1417322835
 30
0.0
 11
-10.6608220275
 21
-6.1417322835
 31
0.0
  0
LINE
  5
2E9
330
28A
100
AcDbEntity
  8
0
  6
Continuous
 62
     8
370
    25
100
AcDbLine
 10
-9.0551181102
 20
-7.9049165157
 30
0.0
 11
-9.0551181102
 21
-7.7474362007
 31
0.0
  0
LINE
  5
2EA
330
28A
100
AcDbEntity
  8
0
  6
Continuous
 62
     8
370
    25
100
AcDbLine
 10
10.8183023425
 20
-6.1417322835
 30
0.0
 11
10.6608220275
 21
-6.1417322835
 31
0.0
  0
LINE
  5
2EB
330
28A
100
AcDbEntity
  8
0
  6
Continuous
 62
     8
370
    25
100
AcDbLine
 10
9.0551181102
 20
-7.9049165157
 30
0.0
 11
9.0551181102
 21
-7.7474362007
 31
0.0
  0
ARC
  5
2EC
330
28A
100
AcDbEntity
  8
0
  6
Continuous
 62
     7
370
    25
100
AcDbCircle
 10
-9.0551181102
 20
-6.1417322835
 30
0.0
 40
1.76318423223922
100
AcDbArc
 50
180.0
 51
270.0
  0
ARC
  5
2ED
330
28A
100
AcDbEntity
  8
0
  6
Continuous
 62
     7
370
    25
100
AcDbCircle
 10
9.0551181102
 20
-6.1417322835
 30
0.0
 40
1.763184232239221
100
AcDbArc
 50
270.0
 51
0.0
  0
ARC
  5
2EE
330
28A
100
AcDbEntity
  8
0
  6
Continuous
 62
     7
370
    25
100
AcDbCircle
 10
-9.0551181102
 20
-6.1417322835
 30
0.0
 40
1.605703917278591
100
AcDbArc
 50
180.0
 51
270.0
  0
ARC
  5
2EF
330
28A
100
AcDbEntity
  8
0
  6
Continuous
 62
     7
370
    25
100
AcDbCircle
 10
9.0551181102
 20
-6.1417322835
 30
0.0
 40
1.605703917278579
100
AcDbArc
 50
270.0
 51
0.0
  0
ARC
  5
2F0
330
28A
100
AcDbEntity
  8
0
  6
Continuous
 62
     7
370
    25
100
AcDbCircle
 10
0.0
 20
-0.6299212598
 30
0.0
 40
0.964566929133858
100
AcDbArc
 50
47.9142067208
 51
132.0857932792
  0
ARC
  5
2F1
330
28A
100
AcDbEntity
  8
0
  6
Continuous
 62
     7
370
    25
100
AcDbCircle
 10
0.0
 20
-0.5961078544
 30
0.0
 40
0.93974589469383
100
AcDbArc
 50
46.5323110497
 51
133.4676889503
  0
VIEWPORT
  5
429
330
28A
100
AcDbEntity
  8
0
100
AcDbViewport
 10
0.0
 20
0.0
 30
0.0
 40
8.4
 41
6.4
 68
     1
 69
     1
 12
0.0
 22
8.9173228346
 13
0.0
 23
0.0
 14
0.5
 24
0.5
 15
0.5
 25
0.5
 16
0.0
 26
0.0
 36
1.0
 17
0.0
 27
0.0
 37
0.0
 42
50.0
 43
0.0
 44
0.0
 45
18.1913385827
 50
0.0
 51
0.0
 72
   100
 90
   557152
  1

281
     0
 71
     1
 74
     0
110
0.0
120
0.0
130
0.0
111
1.0
121
0.0
131
0.0
112
0.0
122
1.0
132
0.0
 79
     0
146
0.0
  0
ENDBLK
  5
28D
330
28A
100
AcDbEntity
  8
0
100
AcDbBlockEnd
  0
BLOCK
  5
2F4
330
2F2
100
AcDbEntity
  8
0
100
AcDbBlockBegin
  2
*Paper_Space2
 70
     0
 10
0.0
 20
0.0
 30
0.0
  3
*Paper_Space2
  1

  0
SPLINE
  5
2F6
330
2F2
100
AcDbEntity
  8
0
  6
Continuous
 62
     7
370
    25
100
AcDbSpline
210
0.0
220
0.0
230
1.0
 70
     8
 71
     3
 72
    17
 73
    13
 74
     0
 42
0.000000001
 43
0.00000001
 40
0.0
 40
0.0
 40
0.0
 40
0.0
 40
0.0054366619971385
 40
0.016716912983104
 40
0.0368591315927806
 40
0.549545878752362
 40
0.8058892523321526
 40
0.934060939122048
 40
0.9661038608195218
 40
0.9901360520926271
 40
0.9990475485040059
 40
1.0
 40
1.0
 40
1.0
 40
1.0
 10
1.130587459728196
 20
7.787153493903263
 30
0.0
 10
1.1068016643514
 20
7.799636479429227
 30
0.0
 10
1.03366394275732
 20
7.83801977103659
 30
0.0
 10
0.8785781569808498
 20
7.929629486144262
 30
0.0
 10
-1.445954134835026
 20
9.262959640668402
 30
0.0
 10
-4.79744954609641
 20
11.20771211662213
 30
0.0
 10
-8.620136441030285
 20
13.41162982196788
 30
0.0
 10
-10.39290404541345
 20
14.43639500710454
 30
0.0
 10
-11.17821948567336
 20
14.88858166052778
 30
0.0
 10
-11.453909033713
 20
15.04926348879959
 30
0.0
 10
-11.59950738610795
 20
15.13142717720096
 30
0.0
 10
-11.63820227431724
 20
15.15625890003634
 30
0.0
 10
-11.64193860833972
 20
15.15865662271136
 30
0.0
  0
SPLINE
  5
2F7
330
2F2
100
AcDbEntity
  8
0
  6
Continuous
 62
     7
370
    25
100
AcDbSpline
210
0.0
220
0.0
230
1.0
 70
     8
 71
     3
 72
    16
 73
    12
 74
     0
 42
0.000000001
 43
0.00000001
 40
0.0
 40
0.0
 40
0.0
 40
0.0
 40
0.0071814317984266
 40
0.0322655963118366
 40
0.0650836469034722
 40
0.1254948105743184
 40
0.6020173865045284
 40
0.8402786744696326
 40
0.9594768761070382
 40
0.9887253110209782
 40
1.0
 40
1.0
 40
1.0
 40
1.0
 10
8.019127757674497
 20
10.60656787873865
 30
0.0
 10
8.008231604516933
 20
10.59965773571506
 30
0.0
 10
7.95927606347692
 20
10.5686110180807
 30
0.0
 10
7.852769419788648
 20
10.5083190837669
 30
0.0
 10
7.65781721049398
 20
10.39731210236098
 30
0.0
 10
6.73203094388799
 20
9.860638618341497
 30
0.0
 10
5.464560202127276
 20
9.131312852026651
 30
0.0
 10
4.107805478762986
 20
8.346888754638837
 30
0.0
 10
3.474405707051254
 20
7.982294309405553
 30
0.0
 10
3.217245938214473
 20
7.832084343812891
 30
0.0
 10
3.148300919067759
 20
7.797044783786323
 30
0.0
 10
3.12911844810167
 20
7.787295778692219
 30
0.0
  0
SPLINE
  5
2F8
330
2F2
100
AcDbEntity
  8
0
  6
Continuous
 62
     7
370
    25
100
AcDbSpline
210
0.0
220
0.0
230
1.0
 70
     8
 71
     3
 72
    25
 73
    21
 74
     0
 42
0.000000001
 43
0.00000001
 40
0.0
 40
0.0
 40
0.0
 40
0.0
 40
0.0307592821308555
 40
0.0884521452605366
 40
0.1460712825048445
 40
0.2036045428885694
 40
0.2610398867708545
 40
0.3183828166990743
 40
0.3756488297309264
 40
0.4328588163297319
 40
0.4900364597928521
 40
0.5472068724769799
 40
0.604393105718494
 40
0.6616156214225293
 40
0.7189008923542428
 40
0.7762750601742175
 40
0.8337628706016569
 40
0.8913855549218599
 40
0.9491569027687121
 40
1.0
 40
1.0
 40
1.0
 40
1.0
 10
0.9218035463438822
 20
5.811008960448883
 30
0.0
 10
0.9408266997661849
 20
5.800339974163205
 30
0.0
 10
0.9955301457915146
 20
5.769659975822911
 30
0.0
 10
1.09213410578086
 20
5.723753542339429
 30
0.0
 10
1.213209250887523
 20
5.675602536265025
 30
0.0
 10
1.340548077570816
 20
5.634311241066889
 30
0.0
 10
1.473040673649112
 20
5.599984760537049
 30
0.0
 10
1.609742032453266
 20
5.572822056683717
 30
0.0
 10
1.74964698765889
 20
5.552948790488566
 30
0.0
 10
1.891753773429176
 20
5.540463437668903
 30
0.0
 10
2.035048665304267
 20
5.535425682933514
 30
0.0
 10
2.178512187323253
 20
5.53785934597527
 30
0.0
 10
2.321121346634823
 20
5.547750444538665
 30
0.0
 10
2.461859899186009
 20
5.565048595505935
 30
0.0
 10
2.599733160404415
 20
5.58966514647266
 30
0.0
 10
2.73375328442289
 20
5.621493290833979
 30
0.0
 10
2.863021179900713
 20
5.660351646222482
 30
0.0
 10
2.986415348779254
 20
5.706210190435574
 30
0.0
 10
3.098965647451877
 20
5.756228984017001
 30
0.0
 10
3.166658675077179
 20
5.793542344397257
 30
0.0
 10
3.198346202302103
 20
5.81100896044888
 30
0.0
  0
SPLINE
  5
2FB
330
2F2
100
AcDbEntity
  8
0
  6
Continuous
 62
     7
370
    25
100
AcDbSpline
210
0.0
220
0.0
230
1.0
 70
     8
 71
     3
 72
    10
 73
     6
 74
     0
 42
0.000000001
 43
0.00000001
 40
0.0
 40
0.0
 40
0.0
 40
0.0
 40
0.2101253400546619
 40
0.7483696450271203
 40
1.0
 40
1.0
 40
1.0
 40
1.0
 10
8.170001496075285
 20
10.70577197769988
 30
0.0
 10
8.161525744713783
 20
10.69896802180306
 30
0.0
 10
8.131339023606783
 20
10.67473546585359
 30
0.0
 10
8.083136782223265
 20
10.64365225097636
 30
0.0
 10
8.042447080489781
 20
10.619564843451
 30
0.0
 10
8.029484563004226
 20
10.61189131850667
 30
0.0
  0
SPLINE
  5
2FC
330
2F2
100
AcDbEntity
  8
0
  6
Continuous
 62
     7
370
    25
100
AcDbSpline
210
0.0
220
0.0
230
1.0
 70
     8
 71
     3
 72
    18
 73
    14
 74
     0
 42
0.000000001
 43
0.00000001
 40
0.0
 40
0.0
 40
0.0
 40
0.0
 40
0.0548038093744415
 40
0.158062935678654
 40
0.2613814275054629
 40
0.364394529528501
 40
0.4667291451479623
 40
0.5679567933964513
 40
0.6677020088438793
 40
0.7657777407644512
 40
0.8622779473051762
 40
0.9575791215191269
 40
1.0
 40
1.0
 40
1.0
 40
1.0
 10
-11.95993385302405
 20
16.41522336043158
 30
0.0
 10
-11.97904075742751
 20
16.40388115993812
 30
0.0
 10
-12.03414812014948
 20
16.37116844292964
 30
0.0
 10
-12.11848727752671
 20
16.31246544411366
 30
0.0
 10
-12.20915669494464
 20
16.23756239207079
 30
0.0
 10
-12.28913587866975
 20
16.15738851067253
 30
0.0
 10
-12.35769327196908
 20
16.07271179590646
 30
0.0
 10
-12.41408162641799
 20
15.98430729825651
 30
0.0
 10
-12.45770998690769
 20
15.8931305019888
 30
0.0
 10
-12.48855894945318
 20
15.80017107255204
 30
0.0
 10
-12.50567506617065
 20
15.70644761579171
 30
0.0
 10
-12.51137932209605
 20
15.62972973364396
 30
0.0
 10
-12.50685585016419
 20
15.58486192473456
 30
0.0
 10
-12.50546253914844
 20
15.5710418296067
 30
0.0
  0
SPLINE
  5
2FE
330
2F2
100
AcDbEntity
  8
0
  6
Continuous
 62
     7
370
    25
100
AcDbSpline
210
0.0
220
0.0
230
1.0
 70
     8
 71
     3
 72
    12
 73
     8
 74
     0
 42
0.000000001
 43
0.00000001
 40
0.0
 40
0.0
 40
0.0
 40
0.0
 40
0.1749815523549245
 40
0.3808048125038818
 40
0.5887143209647794
 40
0.8011971710463177
 40
1.0
 40
1.0
 40
1.0
 40
1.0
 10
-1.198467823092705
 20
10.17440728183691
 30
0.0
 10
-1.213163915622083
 20
10.18781992530341
 30
0.0
 10
-1.245146388544931
 20
10.21700928333402
 30
0.0
 10
-1.281401649209706
 20
10.26425784955243
 30
0.0
 10
-1.309449995898287
 20
10.31471762092154
 30
0.0
 10
-1.326791820613551
 20
10.36431985344639
 30
0.0
 10
-1.329358192698185
 20
10.39686745416667
 30
0.0
 10
-1.330598697915312
 20
10.4125999618339
 30
0.0
  0
SPLINE
  5
2FF
330
2F2
100
AcDbEntity
  8
0
  6
Continuous
 62
     7
370
    25
100
AcDbSpline
210
0.0
220
0.0
230
1.0
 70
     8
 71
     3
 72
    12
 73
     8
 74
     0
 42
0.000000001
 43
0.00000001
 40
0.0
 40
0.0
 40
0.0
 40
0.0
 40
0.2045692189917963
 40
0.4532236088408854
 40
0.6933849579557805
 40
0.9248113202438683
 40
0.9999999999999999
 40
0.9999999999999999
 40
0.9999999999999999
 40
0.9999999999999999
 10
0.4395578991763909
 20
10.42153299531164
 30
0.0
 10
0.4391074132866188
 20
10.40655161818725
 30
0.0
 10
0.4381093606875985
 20
10.37336034024628
 30
0.0
 10
0.4220658260880401
 20
10.32200865375559
 30
0.0
 10
0.3930808567273371
 20
10.26830800969906
 30
0.0
 10
0.3634990482412549
 20
10.22742900012677
 30
0.0
 10
0.3401632874524445
 20
10.20557299240944
 30
0.0
 10
0.3344408511586552
 20
10.20021342376582
 30
0.0
  0
SPLINE
  5
300
330
2F2
100
AcDbEntity
  8
0
  6
Continuous
 62
     7
370
    25
100
AcDbSpline
210
0.0
220
0.0
230
1.0
 70
     8
 71
     3
 72
    32
 73
    28
 74
     0
 42
0.000000001
 43
0.00000001
 40
0.0
 40
0.0
 40
0.0
 40
0.0
 40
0.0234698222702389
 40
0.0661263456492329
 40
0.1065769664460141
 40
0.1495924494424041
 40
0.1912344605758974
 40
0.2323124844444309
 40
0.2732750920535843
 40
0.3142665125676127
 40
0.3553810907260682
 40
0.3966344445545737
 40
0.4380062999530908
 40
0.4794611961766319
 40
0.5209578312150618
 40
0.5624515706993211
 40
0.6038848785584616
 40
0.6452135112147652
 40
0.6863951516842856
 40
0.7273947793180927
 40
0.7681972417024278
 40
0.8088334389582487
 40
0.8494178324958533
 40
0.8901501990103374
 40
0.9315334789579334
 40
0.9744461268516101
 40
0.9999999999999999
 40
0.9999999999999999
 40
0.9999999999999999
 40
0.9999999999999999
 10
3.721963354126255
 20
16.24737085940177
 30
0.0
 10
3.722109211510817
 20
16.2396795694595
 30
0.0
 10
3.722520165446299
 20
16.21800932026228
 30
0.0
 10
3.71185472158944
 20
16.18254144322471
 30
0.0
 10
3.69049303780087
 20
16.13944738706868
 30
0.0
 10
3.657307041618449
 20
16.09631764456849
 30
0.0
 10
3.612303396961182
 20
16.05407286870419
 30
0.0
 10
3.557266684454486
 20
16.01499899284511
 30
0.0
 10
3.492949743696787
 20
15.97977803317766
 30
0.0
 10
3.420287717846826
 20
15.94915517500641
 30
0.0
 10
3.340495096664139
 20
15.92384333721724
 30
0.0
 10
3.254955937972205
 20
15.90444667489541
 30
0.0
 10
3.165226465927774
 20
15.89144164017197
 30
0.0
 10
3.07297728476261
 20
15.8851532107053
 30
0.0
 10
2.979946768162627
 20
15.88574470155743
 30
0.0
 10
2.887908687438933
 20
15.89321235487828
 30
0.0
 10
2.798623739631903
 20
15.90738047814928
 30
0.0
 10
2.713799410552677
 20
15.92789998579264
 30
0.0
 10
2.635042971608891
 20
15.95425067455837
 30
0.0
 10
2.56382451814096
 20
15.9857402037224
 30
0.0
 10
2.501425514477789
 20
16.02151066435048
 30
0.0
 10
2.448855752940854
 20
16.06055942986566
 30
0.0
 10
2.406866705609018
 20
16.10177289632156
 30
0.0
 10
2.375580800089128
 20
16.1440711327461
 30
0.0
 10
2.35541389620625
 20
16.18671723525373
 30
0.0
 10
2.345479847136042
 20
16.22314464743768
 30
0.0
 10
2.346509952511409
 20
16.2455883828817
 30
0.0
 10
2.346894420448307
 20
16.2539650954674
 30
0.0
  0
SPLINE
  5
301
330
2F2
100
AcDbEntity
  8
0
  6
Continuous
 62
     7
370
    25
100
AcDbSpline
210
0.0
220
0.0
230
1.0
 70
     8
 71
     3
 72
    16
 73
    12
 74
     0
 42
0.000000001
 43
0.00000001
 40
0.0
 40
0.0
 40
0.0
 40
0.0
 40
0.0891866183012939
 40
0.1986628275258024
 40
0.3089758463097692
 40
0.4207612024402603
 40
0.5343718511670461
 40
0.6498334529651735
 40
0.7668838070215851
 40
0.8850900873103166
 40
0.9999999999999999
 40
0.9999999999999999
 40
0.9999999999999999
 40
0.9999999999999999
 10
-12.398590001641
 20
13.89842965209917
 30
0.0
 10
-12.39617728737606
 20
13.87395174701793
 30
0.0
 10
-12.390802976218
 20
13.81942731355505
 30
0.0
 10
-12.36777108047901
 20
13.73634851930361
 30
0.0
 10
-12.33264574255386
 20
13.64980234475969
 30
0.0
 10
-12.28537192332033
 20
13.5657247994597
 30
0.0
 10
-12.22653448906716
 20
13.48453610338607
 30
0.0
 10
-12.1562738718485
 20
13.40675719242021
 30
0.0
 10
-12.07482937384666
 20
13.33316521080924
 30
0.0
 10
-11.98457682602382
 20
13.26467220583164
 30
0.0
 10
-11.9172531423347
 20
13.22381873256673
 30
0.0
 10
-11.88406729404239
 20
13.20368083915846
 30
0.0
  0
SPLINE
  5
302
330
2F2
100
AcDbEntity
  8
0
  6
Continuous
 62
     7
370
    25
100
AcDbSpline
210
0.0
220
0.0
230
1.0
 70
     8
 71
     3
 72
    20
 73
    16
 74
     0
 42
0.000000001
 43
0.00000001
 40
0.0
 40
0.0
 40
0.0
 40
0.0
 40
0.0784157429408625
 40
0.1603709186322004
 40
0.2351716286109959
 40
0.3155216357276697
 40
0.3949208148977487
 40
0.4748305701002653
 40
0.5552848487396589
 40
0.6367433990963881
 40
0.7185532812548058
 40
0.8007082838258536
 40
0.8827097874999046
 40
0.9642701523281006
 40
1.0
 40
1.0
 40
1.0
 40
1.0
 10
0.2838016079208646
 20
15.61657654742942
 30
0.0
 10
0.2894852167238324
 20
15.61958118598259
 30
0.0
 10
0.3011089740293698
 20
15.62572608274515
 30
0.0
 10
0.3271531628868884
 20
15.62741388187759
 30
0.0
 10
0.3596792714656351
 20
15.62238236754896
 30
0.0
 10
0.3983088484938481
 20
15.608038525147
 30
0.0
 10
0.4407767803440227
 20
15.58369185076647
 30
0.0
 10
0.484580576822412
 20
15.54982968929851
 30
0.0
 10
0.5276717526311607
 20
15.50745463857068
 30
0.0
 10
0.5684116071299748
 20
15.45765117148524
 30
0.0
 10
0.6050973824949046
 20
15.40213381580876
 30
0.0
 10
0.6362553023165354
 20
15.34292005783285
 30
0.0
 10
0.660579546742971
 20
15.28236515747078
 30
0.0
 10
0.6745502117388201
 20
15.2335969096393
 30
0.0
 10
0.6796044563021529
 20
15.20623690886903
 30
0.0
 10
0.6811441191989553
 20
15.19790229476111
 30
0.0
  0
SPLINE
  5
303
330
2F2
100
AcDbEntity
  8
0
  6
Continuous
 62
     7
370
    25
100
AcDbSpline
210
0.0
220
0.0
230
1.0
 70
     8
 71
     3
 72
    14
 73
    10
 74
     0
 42
0.000000001
 43
0.00000001
 40
0.0
 40
0.0
 40
0.0
 40
0.0
 40
0.0896632817024299
 40
0.2647710272168597
 40
0.4354431268611179
 40
0.6050180659751091
 40
0.7782313136977348
 40
0.9593223747371015
 40
0.9999999999999999
 40
0.9999999999999999
 40
0.9999999999999999
 40
0.9999999999999999
 10
0.6811441191989553
 20
15.19790229476111
 30
0.0
 10
0.6825278311962825
 20
15.18847847294165
 30
0.0
 10
0.6866138610621129
 20
15.16065041516737
 30
0.0
 10
0.6876389549600468
 20
15.11826991931646
 30
0.0
 10
0.6822236706594348
 20
15.07577099042265
 30
0.0
 10
0.6711648551525385
 20
15.04199712243358
 30
0.0
 10
0.6565217467422945
 20
15.01935373482913
 30
0.0
 10
0.645374382158444
 20
15.00715661408686
 30
0.0
 10
0.6372269117507762
 20
15.00400558313636
 30
0.0
 10
0.6357324728666858
 20
15.00342760949033
 30
0.0
  0
SPLINE
  5
307
330
2F2
100
AcDbEntity
  8
0
  6
Continuous
 62
     7
370
    25
100
AcDbSpline
210
0.0
220
0.0
230
1.0
 70
     8
 71
     3
 72
    11
 73
     7
 74
     0
 42
0.000000001
 43
0.00000001
 40
0.0
 40
0.0
 40
0.0
 40
0.0
 40
0.17835123915839
 40
0.5180996861427477
 40
0.8127613428768519
 40
0.9999999999999999
 40
0.9999999999999999
 40
0.9999999999999999
 40
0.9999999999999999
 10
-3.294825978865037
 20
4.645033015787645
 30
0.0
 10
-3.288615389733655
 20
4.641755325034134
 30
0.0
 10
-3.270573999637826
 20
4.632233829368163
 30
0.0
 10
-3.242043371526159
 20
4.625942557937054
 30
0.0
 10
-3.213552914068152
 20
4.627657438599299
 30
0.0
 10
-3.200275961011648
 20
4.636461054994656
 30
0.0
 10
-3.195117303111868
 20
4.639881632371954
 30
0.0
  0
SPLINE
  5
30A
330
2F2
100
AcDbEntity
  8
0
  6
Continuous
 62
     7
370
    25
100
AcDbSpline
210
0.0
220
0.0
230
1.0
 70
     8
 71
     3
 72
    11
 73
     7
 74
     0
 42
0.000000001
 43
0.00000001
 40
0.0
 40
0.0
 40
0.0
 40
0.0
 40
0.2456676955181925
 40
0.5000000000000168
 40
0.7543323044818053
 40
1.0
 40
1.0
 40
1.0
 40
1.0
 10
-3.184175696698467
 20
5.053433259070815
 30
0.0
 10
-3.19332788012147
 20
5.049020219333864
 30
0.0
 10
-3.211955041099431
 20
5.04003849357696
 30
0.0
 10
-3.243225984576108
 20
5.036378145650514
 30
0.0
 10
-3.274496928052781
 20
5.040038493576959
 30
0.0
 10
-3.293124089030744
 20
5.04902021933386
 30
0.0
 10
-3.302276272453747
 20
5.053433259070812
 30
0.0
  0
SPLINE
  5
30B
330
2F2
100
AcDbEntity
  8
0
  6
Continuous
 62
     7
370
    25
100
AcDbSpline
210
0.0
220
0.0
230
1.0
 70
     8
 71
     3
 72
    14
 73
    10
 74
     0
 42
0.000000001
 43
0.00000001
 40
0.0
 40
0.0
 40
0.0
 40
0.0
 40
0.1315989197322445
 40
0.2711502063458409
 40
0.4182926557832748
 40
0.5747163308327384
 40
0.7434550597913407
 40
0.9300206266600204
 40
1.0
 40
1.0
 40
1.0
 40
1.0
 10
-2.950078064541922
 20
5.229886326543371
 30
0.0
 10
-2.950227992811224
 20
5.229095577443263
 30
0.0
 10
-2.950536909337595
 20
5.227466295211326
 30
0.0
 10
-2.955582238107277
 20
5.2147718789771
 30
0.0
 10
-2.967527398359322
 20
5.196227664881009
 30
0.0
 10
-2.98883253217239
 20
5.173445619709703
 30
0.0
 10
-3.020736837311447
 20
5.148811494326961
 30
0.0
 10
-3.053089677610698
 20
5.129104942107466
 30
0.0
 10
-3.074465566878866
 20
5.116766997754761
 30
0.0
 10
-3.080296402343227
 20
5.113401499244426
 30
0.0
  0
SPLINE
  5
311
330
2F2
100
AcDbEntity
  8
0
  6
Continuous
 62
     7
370
    25
100
AcDbSpline
210
0.0
220
0.0
230
1.0
 70
     8
 71
     3
 72
    17
 73
    13
 74
     0
 42
0.000000001
 43
0.00000001
 40
0.0
 40
0.0
 40
0.0
 40
0.0
 40
0.044955134619346
 40
0.1519408260851862
 40
0.2602343708441917
 40
0.374263063463771
 40
0.4915688133296733
 40
0.6089329376014705
 40
0.7260778949968498
 40
0.8434762543903599
 40
0.9615643171797044
 40
1.0
 40
1.0
 40
1.0
 40
1.0
 10
-7.829067159481572
 20
7.512823151301113
 30
0.0
 10
-7.832825511040703
 20
7.510948156406215
 30
0.0
 10
-7.845528109875044
 20
7.504610987679022
 30
0.0
 10
-7.859563618059023
 20
7.482898848364204
 30
0.0
 10
-7.869907645800571
 20
7.451319740761183
 30
0.0
 10
-7.871184748342447
 20
7.413022672743552
 30
0.0
 10
-7.86351706877225
 20
7.370646618971402
 30
0.0
 10
-7.847160096332462
 20
7.327194479595719
 30
0.0
 10
-7.823424037125204
 20
7.286037705914264
 30
0.0
 10
-7.793920818748452
 20
7.250139547883388
 30
0.0
 10
-7.768074570310164
 20
7.227996018362966
 30
0.0
 10
-7.752794154197454
 20
7.218683831078954
 30
0.0
 10
-7.749041923347219
 20
7.216397147512718
 30
0.0
  0
SPLINE
  5
312
330
2F2
100
AcDbEntity
  8
0
  6
Continuous
 62
     7
370
    25
100
AcDbSpline
210
0.0
220
0.0
230
1.0
 70
     8
 71
     3
 72
    14
 73
    10
 74
     0
 42
0.000000001
 43
0.00000001
 40
0.0
 40
0.0
 40
0.0
 40
0.0
 40
0.1315989197323391
 40
0.2711502063459105
 40
0.418292655783412
 40
0.5747163308328083
 40
0.743455059791518
 40
0.9300206266601778
 40
0.9999999999999999
 40
0.9999999999999999
 40
0.9999999999999999
 40
0.9999999999999999
 10
-7.404294009024104
 20
7.801250458268444
 30
0.0
 10
-7.404443937293408
 20
7.800459709168336
 30
0.0
 10
-7.404752853819788
 20
7.798830426936398
 30
0.0
 10
-7.409798182589459
 20
7.78613601070215
 30
0.0
 10
-7.421743342841523
 20
7.76759179660607
 30
0.0
 10
-7.443048476654591
 20
7.744809751434753
 30
0.0
 10
-7.47495278179366
 20
7.720175626052017
 30
0.0
 10
-7.5073056220929
 20
7.700469073832506
 30
0.0
 10
-7.528681511361059
 20
7.68813112947982
 30
0.0
 10
-7.534512346825409
 20
7.684765630969498
 30
0.0
  0
LWPOLYLINE
  5
316
330
2F2
100
AcDbEntity
  8
0
  6
Continuous
 62
     7
370
    25
100
AcDbPolyline
 90
       18
 70
   128
 43
0.0
 10
3.3066817927
 20
7.504330293
 10
3.1863416121
 20
7.4409991928
 10
3.0563925208
 20
7.3843482186
 10
2.9179431987
 20
7.3348606965
 10
2.7721748464
 20
7.2929588366
 10
2.6203311083
 20
7.2590001309
 10
2.4637074616
 20
7.2332743029
 10
2.3036401639
 20
7.2160008364
 10
2.141494853
 20
7.2073271025
 10
1.9786548956
 20
7.2073271025
 10
1.8165095848
 20
7.2160008364
 10
1.6564422871
 20
7.2332743029
 10
1.4998186403
 20
7.2590001309
 10
1.3479749022
 20
7.2929588366
 10
1.20220655
 20
7.3348606965
 10
1.0637572278
 20
7.3843482186
 10
0.9338081365
 20
7.4409991928
 10
0.8134679559
 20
7.504330293
  0
LWPOLYLINE
  5
318
330
2F2
100
AcDbEntity
  8
0
  6
Continuous
 62
     7
370
    25
100
AcDbPolyline
 90
       17
 70
   128
 43
0.0
 10
0.9246707458
 20
7.7038452351
 10
1.0414270928
 20
7.6427556192
 10
1.1679935748
 20
7.5885667182
 10
1.3031512874
 20
7.5418004009
 10
1.4455985879
 20
7.5029070524
 10
1.5939636309
 20
7.472261237
 10
1.74681758
 20
7.4501580907
 10
1.9026883681
 20
7.4368104788
 10
2.0600748743
 20
7.432346946
 10
2.2174613805
 20
7.4368104788
 10
2.3733321686
 20
7.4501580907
 10
2.5261861177
 20
7.472261237
 10
2.6745511607
 20
7.5029070524
 10
2.8169984612
 20
7.5418004009
 10
2.9521561738
 20
7.5885667182
 10
3.0787226558
 20
7.6427556192
 10
3.1954790028
 20
7.7038452351
  0
LWPOLYLINE
  5
31C
330
2F2
100
AcDbEntity
  8
0
  6
Continuous
 62
     7
370
    25
100
AcDbPolyline
 90
       17
 70
   128
 43
0.0
 10
-11.8812000945
 20
16.407426817
 10
-11.9870218791
 20
16.3400248126
 10
-12.0808899796
 20
16.2669595378
 10
-12.161900395
 20
16.1889346511
 10
-12.2292729505
 20
16.1067015749
 10
-12.2823588118
 20
16.0210522587
 10
-12.3206467328
 20
15.9328115521
 10
-12.3437679801
 20
15.8428292615
 10
-12.3514998833
 20
15.7519719654
 10
-12.3437679801
 20
15.6611146694
 10
-12.3206467328
 20
15.5711323787
 10
-12.2823588118
 20
15.4828916721
 10
-12.2292729505
 20
15.3972423559
 10
-12.161900395
 20
15.3150092797
 10
-12.0808899796
 20
15.236984393
 10
-11.9870218791
 20
15.1639191182
 10
-11.8812000945
 20
15.0965171138
  0
LWPOLYLINE
  5
31F
330
2F2
100
AcDbEntity
  8
0
  6
Continuous
 62
     7
370
    25
100
AcDbPolyline
 90
       47
 70
   128
 43
0.0
 10
3.5772921804
 20
16.6278428728
 10
3.6461550717
 20
16.5822514021
 10
3.7036227683
 20
16.5316714447
 10
3.7486247557
 20
16.4770452093
 10
3.780322732
 20
16.4193902793
 10
3.7981262239
 20
16.3597806572
 10
3.801703586
 20
16.2993267572
 10
3.7909881789
 20
16.2391547212
 10
3.7661796103
 20
16.1803854404
 10
3.7277400169
 20
16.1241136753
 10
3.6763854556
 20
16.0713876623
 10
3.6130725647
 20
16.0231895874
 10
3.5389807436
 20
15.9804172895
 10
3.4554901826
 20
15.9438675356
 10
3.3641561531
 20
15.9142211784
 10
3.2666800351
 20
15.8920304734
 10
3.1648776243
 20
15.8777087916
 10
3.060645307
 20
15.8715229188
 10
2.9559247341
 20
15.873588086
 10
2.8526666516
 20
15.8838658231
 10
2.7527945623
 20
15.9021646753
 10
2.6581688943
 20
15.9281437696
 10
2.5705523446
 20
15.9613191647
 10
2.4915770439
 20
16.0010728657
 10
2.4227141526
 20
16.0466643363
 10
2.3652464561
 20
16.0972442938
 10
2.3202444687
 20
16.1518705292
 10
2.2885464924
 20
16.2095254591
 10
2.2707430005
 20
16.2691350813
 10
2.2671656383
 20
16.3295889813
 10
2.2778810454
 20
16.3897610173
 10
2.302689614
 20
16.4485302981
 10
2.3411292074
 20
16.5048020632
 10
2.3924837688
 20
16.5575280762
 10
2.4557966597
 20
16.6057261511
 10
2.5298884808
 20
16.648498449
 10
2.6133790417
 20
16.6850482029
 10
2.7047130713
 20
16.7146945601
 10
2.8021891893
 20
16.736885265
 10
2.9039916001
 20
16.7512069469
 10
3.0082239174
 20
16.7573928197
 10
3.1129444903
 20
16.7553276525
 10
3.2162025728
 20
16.7450499154
 10
3.3160746621
 20
16.7267510632
 10
3.4107003301
 20
16.7007719688
 10
3.4983168797
 20
16.6675965738
 10
3.5772921804
 20
16.6278428728
  0
SPLINE
  5
320
330
2F2
100
AcDbEntity
  8
0
  6
Continuous
 62
     7
370
    25
100
AcDbSpline
210
0.0
220
0.0
230
1.0
 70
     8
 71
     3
 72
    40
 73
    36
 74
     0
 42
0.000000001
 43
0.00000001
 40
0.0
 40
0.0
 40
0.0
 40
0.0
 40
0.015625
 40
0.015625
 40
0.03125
 40
0.03125
 40
0.0624999999999999
 40
0.0624999999999999
 40
0.0937499999999998
 40
0.0937499999999998
 40
0.1249999999999996
 40
0.1249999999999996
 40
0.2500000000000001
 40
0.2500000000000001
 40
0.2812500000000004
 40
0.2812500000000004
 40
0.3125000000000008
 40
0.3125000000000008
 40
0.3749999999999999
 40
0.3749999999999999
 40
0.5
 40
0.5
 40
0.5625000000000009
 40
0.5625000000000009
 40
0.6250000000000017
 40
0.6250000000000017
 40
0.7500000000000011
 40
0.7500000000000011
 40
0.7812500000000009
 40
0.7812500000000009
 40
0.8125000000000007
 40
0.8125000000000007
 40
0.8750000000000001
 40
0.8750000000000001
 40
1.0
 40
1.0
 40
1.0
 40
1.0
 10
-6.856870104016139
 20
19.24429907095374
 30
0.0
 10
-6.847827727670726
 20
19.249519123706
 30
0.0
 10
-6.838756097594013
 20
19.25472014574143
 30
0.0
 10
-6.820344343993904
 20
19.26494752413628
 30
0.0
 10
-6.811034662532998
 20
19.26999368426928
 30
0.0
 10
-6.78279567464628
 20
19.2849305340798
 30
0.0
 10
-6.763556703900893
 20
19.29461977478945
 30
0.0
 10
-6.724253651224162
 20
19.31346148853394
 30
0.0
 10
-6.704149575737932
 20
19.32263064927652
 30
0.0
 10
-6.663355335441242
 20
19.34032247960627
 30
0.0
 10
-6.642663108052402
 20
19.34884839961396
 30
0.0
 10
-6.53774895416969
 20
19.38990244229618
 30
0.0
 10
-6.449233211847282
 20
19.41777462949219
 30
0.0
 10
-6.332926159003777
 20
19.44647495124344
 30
0.0
 10
-6.309377322726514
 20
19.45190334979167
 30
0.0
 10
-6.261701317317568
 20
19.46213304023921
 30
0.0
 10
-6.23751558462713
 20
19.4669448983711
 30
0.0
 10
-6.164507730200833
 20
19.48034585284093
 30
0.0
 10
-6.115480028485169
 20
19.48786774158251
 30
0.0
 10
-5.96736135795721
 20
19.50632349443763
 30
0.0
 10
-5.86724295809748
 20
19.51317972842196
 30
0.0
 10
-5.715016044589908
 20
19.51533083933196
 30
0.0
 10
-5.663679158185909
 20
19.51465031095846
 30
0.0
 10
-5.562277734952448
 20
19.51055267164747
 30
0.0
 10
-5.512051829045894
 20
19.50715538781797
 30
0.0
 10
-5.362757951668963
 20
19.49303338324839
 30
0.0
 10
-5.265074134463388
 20
19.47837761787807
 30
0.0
 10
-5.14529845429077
 20
19.45344321350026
 30
0.0
 10
-5.121405716071582
 20
19.44810820151868
 30
0.0
 10
-5.074302968051869
 20
19.43686291899604
 30
0.0
 10
-5.051057637911089
 20
19.43094624521953
 30
0.0
 10
-4.982219800316233
 20
19.41233332101366
 30
0.0
 10
-4.937521345733641
 20
19.39877810675232
 30
0.0
 10
-4.806924787180404
 20
19.3547509769545
 30
0.0
 10
-4.724511674038911
 20
19.32093084659488
 30
0.0
 10
-4.646944266701425
 20
19.28245519064082
 30
0.0
  0
SPLINE
  5
321
330
2F2
100
AcDbEntity
  8
0
  6
Continuous
 62
     7
370
    25
100
AcDbSpline
210
0.0
220
0.0
230
1.0
 70
     8
 71
     3
 72
    16
 73
    12
 74
     0
 42
0.000000001
 43
0.00000001
 40
0.0
 40
0.0
 40
0.0
 40
0.0
 40
0.0078125000000001
 40
0.0078125000000001
 40
0.0156250000000003
 40
0.0312500000000005
 40
0.0625000000000006
 40
0.1250000000000006
 40
0.2500000000000006
 40
0.5000000000000004
 40
1.0
 40
1.0
 40
1.0
 40
1.0
 10
-11.75833573435735
 20
16.41426193488001
 30
0.0
 10
-11.74591728478717
 20
16.42183124465331
 30
0.0
 10
-11.73322212506824
 20
16.42924096939686
 30
0.0
 10
-11.70769148621456
 20
16.44397949348878
 30
0.0
 10
-11.66939552793404
 20
16.46608727962666
 30
0.0
 10
-11.58003829194618
 20
16.51767211394841
 30
0.0
 10
-11.40132381997045
 20
16.62084178259184
 30
0.0
 10
-11.04389487601898
 20
16.82718111987871
 30
0.0
 10
-10.32903698811606
 20
17.2398597944525
 30
0.0
 10
-8.899321212310225
 20
18.06521714360009
 30
0.0
 10
-7.673850547333775
 20
18.77266630001228
 30
0.0
 10
-6.856870104016137
 20
19.24429907095373
 30
0.0
  0
SPLINE
  5
322
330
2F2
100
AcDbEntity
  8
0
  6
Continuous
 62
     7
370
    25
100
AcDbSpline
210
0.0
220
0.0
230
1.0
 70
     8
 71
     3
 72
    38
 73
    34
 74
     0
 42
0.000000001
 43
0.00000001
 40
0.0
 40
0.0
 40
0.0
 40
0.0
 40
0.0624999999999988
 40
0.0624999999999988
 40
0.0937499999999983
 40
0.0937499999999983
 40
0.1249999999999978
 40
0.1249999999999978
 40
0.2499999999999956
 40
0.2499999999999956
 40
0.3124999999999949
 40
0.3124999999999949
 40
0.3437499999999954
 40
0.3437499999999954
 40
0.3749999999999972
 40
0.3749999999999972
 40
0.5000000000000042
 40
0.5000000000000042
 40
0.5312500000000046
 40
0.5312500000000046
 40
0.5625000000000048
 40
0.5625000000000048
 40
0.6250000000000043
 40
0.6250000000000043
 40
0.7500000000000049
 40
0.7500000000000049
 40
0.7812500000000051
 40
0.7812500000000051
 40
0.8125000000000053
 40
0.8125000000000053
 40
0.8750000000000036
 40
0.8750000000000036
 40
1.0
 40
1.0
 40
1.0
 40
1.0
 10
-11.75720419015493
 20
15.17048836808348
 30
0.0
 10
-11.79163754741404
 20
15.19140072711852
 30
0.0
 10
-11.82424080440828
 20
15.21316432308885
 30
0.0
 10
-11.87041103856603
 20
15.24708168900403
 30
0.0
 10
-11.88534426557228
 20
15.25859997336847
 30
0.0
 10
-11.91428641820796
 20
15.28206646360845
 30
0.0
 10
-11.92831111781502
 20
15.29403202825968
 30
0.0
 10
-11.99559694766024
 20
15.35448365551878
 30
0.0
 10
-12.04085302465899
 20
15.4051092582215
 30
0.0
 10
-12.09602211869851
 20
15.48440611578388
 30
0.0
 10
-12.11228737321489
 20
15.51139953672837
 30
0.0
 10
-12.13341516373892
 20
15.55275340632034
 30
0.0
 10
-12.13992229510191
 20
15.56671415688335
 30
0.0
 10
-12.15170000690764
 20
15.59465032073171
 30
0.0
 10
-12.15698505354635
 20
15.60865067679732
 30
0.0
 10
-12.18043455251148
 20
15.67881151276285
 30
0.0
 10
-12.18983706124006
 20
15.73544032633002
 30
0.0
 10
-12.18982879242208
 20
15.80685500081766
 30
0.0
 10
-12.18923210333148
 20
15.82116974088189
 30
0.0
 10
-12.18683813587853
 20
15.84986339357326
 30
0.0
 10
-12.18503294641857
 20
15.86428035686331
 30
0.0
 10
-12.17785481969354
 20
15.90723092068928
 30
0.0
 10
-12.17073579538277
 20
15.93552269687934
 30
0.0
 10
-12.14252402220632
 20
16.01939363657284
 30
0.0
 10
-12.11465614448919
 20
16.07398007044341
 30
0.0
 10
-12.06837020228467
 20
16.14053523452393
 30
0.0
 10
-12.0585056015867
 20
16.15379182296385
 30
0.0
 10
-12.03771250168155
 20
16.17997959980288
 30
0.0
 10
-12.02681350871323
 20
16.19287942308644
 30
0.0
 10
-11.99264811257615
 20
16.23101172694831
 30
0.0
 10
-11.9679185218134
 20
16.25567906144942
 30
0.0
 10
-11.88798745507264
 20
16.32746314347938
 30
0.0
 10
-11.82706477878753
 20
16.37237011700251
 30
0.0
 10
-11.75833573435735
 20
16.41426193488001
 30
0.0
  0
SPLINE
  5
323
330
2F2
100
AcDbEntity
  8
0
  6
Continuous
 62
     7
370
    25
100
AcDbSpline
210
0.0
220
0.0
230
1.0
 70
     8
 71
     3
 72
    25
 73
    21
 74
     0
 42
0.000000001
 43
0.00000001
 40
0.0
 40
0.0
 40
0.0
 40
0.0
 40
0.00390625
 40
0.00390625
 40
0.0078125
 40
0.015625
 40
0.0312500000000001
 40
0.0625000000000002
 40
0.1250000000000003
 40
0.2500000000000003
 40
0.5000000000000002
 40
0.7500000000000001
 40
0.875
 40
0.9374999999999999
 40
0.9687499999999998
 40
0.9843749999999998
 40
0.9921874999999999
 40
0.99609375
 40
0.99609375
 40
1.0
 40
1.0
 40
1.0
 40
1.0
 10
1.052806600351767
 20
7.775426547040725
 30
0.0
 10
1.035703984040248
 20
7.784811314620134
 30
0.0
 10
1.01908491429314
 20
7.794475314328122
 30
0.0
 10
0.9857255110138123
 20
7.813733287923784
 30
0.0
 10
0.9356864060948202
 20
7.842620248317265
 30
0.0
 10
0.8189284946171737
 20
7.910023155902103
 30
0.0
 10
0.5854126716618812
 20
8.044828971071725
 30
0.0
 10
0.1183810257512995
 20
8.314440601411002
 30
0.0
 10
-0.8156822660698578
 20
8.853663862089514
 30
0.0
 10
-2.683808849712187
 20
9.932110383446577
 30
0.0
 10
-5.35256111205836
 20
11.47274827109954
 30
0.0
 10
-8.02131337440455
 20
13.01338615875247
 30
0.0
 10
-9.88943995804686
 20
14.09183268010954
 30
0.0
 10
-10.82350324986802
 20
14.63105594078807
 30
0.0
 10
-11.2905348957786
 20
14.90066757112733
 30
0.0
 10
-11.52405071873391
 20
15.03547338629698
 30
0.0
 10
-11.64080863021154
 20
15.10287629388179
 30
0.0
 10
-11.69084773513053
 20
15.13176325427528
 30
0.0
 10
-11.72420713840986
 20
15.15102122787094
 30
0.0
 10
-11.74094748474228
 20
15.16061520765482
 30
0.0
 10
-11.75720419015493
 20
15.17048836808348
 30
0.0
  0
SPLINE
  5
324
330
2F2
100
AcDbEntity
  8
0
  6
Continuous
 62
     7
370
    25
100
AcDbSpline
210
0.0
220
0.0
230
1.0
 70
     8
 71
     3
 72
    38
 73
    34
 74
     0
 42
0.000000001
 43
0.00000001
 40
0.0
 40
0.0
 40
0.0
 40
0.0
 40
0.0625000000000027
 40
0.0625000000000027
 40
0.0937500000000046
 40
0.0937500000000046
 40
0.1250000000000064
 40
0.1250000000000064
 40
0.2500000000000113
 40
0.2500000000000113
 40
0.3125000000000139
 40
0.3125000000000139
 40
0.3437500000000139
 40
0.3437500000000139
 40
0.3750000000000139
 40
0.3750000000000139
 40
0.5000000000000163
 40
0.5000000000000163
 40
0.5312500000000158
 40
0.5312500000000158
 40
0.5625000000000151
 40
0.5625000000000151
 40
0.6250000000000139
 40
0.6250000000000139
 40
0.7500000000000127
 40
0.7500000000000127
 40
0.7812500000000114
 40
0.7812500000000114
 40
0.8125000000000101
 40
0.8125000000000101
 40
0.8750000000000062
 40
0.8750000000000062
 40
1.0
 40
1.0
 40
1.0
 40
1.0
 10
3.207319057260468
 20
7.774773320583146
 30
0.0
 10
3.171033682152508
 20
7.754933974980315
 30
0.0
 10
3.133282972838175
 20
7.736149791927835
 30
0.0
 10
3.07446763894294
 20
7.709549973850367
 30
0.0
 10
3.054496751605166
 20
7.700946757006932
 30
0.0
 10
3.013814464743434
 20
7.684273553707757
 30
0.0
 10
2.993068141021803
 20
7.676192581600758
 30
0.0
 10
2.888240257494265
 20
7.637419051229368
 30
0.0
 10
2.800487061206715
 20
7.611347372473936
 30
0.0
 10
2.663084746535671
 20
7.579579435179852
 30
0.0
 10
2.616317950850334
 20
7.570218392531494
 30
0.0
 10
2.544685037842377
 20
7.558062060491117
 30
0.0
 10
2.520499129353222
 20
7.554317706661388
 30
0.0
 10
2.472085343983469
 20
7.547539007825542
 30
0.0
 10
2.447824231613176
 20
7.544497323064172
 30
0.0
 10
2.326250199568811
 20
7.531010369912339
 30
0.0
 10
2.228146439444751
 20
7.525636087663985
 30
0.0
 10
2.10446109739356
 20
7.525687167103136
 30
0.0
 10
2.079670359732944
 20
7.526041518176404
 30
0.0
 10
2.029980625060291
 20
7.527444395324785
 30
0.0
 10
2.005013675988567
 20
7.528497393780034
 30
0.0
 10
1.930600354067502
 20
7.532676500337335
 30
0.0
 10
1.881589523397877
 20
7.536810797270223
 30
0.0
 10
1.736308384573986
 20
7.553161881868668
 30
0.0
 10
1.641778325344192
 20
7.569301830249464
 30
0.0
 10
1.526546560493394
 20
7.596083886869126
 30
0.0
 10
1.503598100373712
 20
7.601789510980145
 30
0.0
 10
1.458249874864437
 20
7.61382101280966
 30
0.0
 10
1.435913719887441
 20
7.62012724555469
 30
0.0
 10
1.369892994894264
 20
7.639894927076904
 30
0.0
 10
1.327192767028762
 20
7.654202438671571
 30
0.0
 10
1.202949511003615
 20
7.700440513724836
 30
0.0
 10
1.125249866453561
 20
7.735674546371646
 30
0.0
 10
1.052806600351768
 20
7.775426547040725
 30
0.0
  0
LWPOLYLINE
  5
325
330
2F2
100
AcDbEntity
  8
0
  6
Continuous
 62
     7
370
    25
100
AcDbPolyline
 90
        7
 70
   128
 43
0.0
 10
8.1096183386
 20
10.6043292002
 10
7.8869075413
 20
10.4757609936
 10
6.9960643524
 20
9.9614881673
 10
5.1019001176
 20
8.8680104298
 10
4.1548180002
 20
8.3212715611
 10
3.6842390351
 20
8.0461417609
 10
3.2073190573
 20
7.7747733206
  0
SPLINE
  5
326
330
2F2
100
AcDbEntity
  8
0
  6
Continuous
 62
     7
370
    25
100
AcDbSpline
210
0.0
220
0.0
230
1.0
 70
     8
 71
     3
 72
    44
 73
    40
 74
     0
 42
0.000000001
 43
0.00000001
 40
0.0
 40
0.0
 40
0.0
 40
0.0
 40
0.0624999999999985
 40
0.0624999999999985
 40
0.0937499999999977
 40
0.0937499999999977
 40
0.124999999999997
 40
0.124999999999997
 40
0.2499999999999935
 40
0.2499999999999935
 40
0.3124999999999918
 40
0.3124999999999918
 40
0.3437499999999915
 40
0.3437499999999915
 40
0.3749999999999923
 40
0.3749999999999923
 40
0.4999999999999909
 40
0.4999999999999909
 40
0.5312499999999911
 40
0.5312499999999911
 40
0.5624999999999913
 40
0.5624999999999913
 40
0.6249999999999918
 40
0.6249999999999918
 40
0.7499999999999927
 40
0.7499999999999927
 40
0.7812499999999936
 40
0.7812499999999936
 40
0.8124999999999943
 40
0.8124999999999943
 40
0.8749999999999963
 40
0.8749999999999963
 40
0.9374999999999983
 40
0.9374999999999983
 40
0.9687499999999992
 40
0.9687499999999992
 40
0.9843749999999996
 40
0.9843749999999996
 40
1.0
 40
1.0
 40
1.0
 40
1.0
 10
8.1757138383967
 20
11.88009223024586
 30
0.0
 10
8.20902359527162
 20
11.85771278417092
 30
0.0
 10
8.2404495927767
 20
11.83453698943627
 30
0.0
 10
8.28477819009662
 20
11.79858521701833
 30
0.0
 10
8.299084238745124
 20
11.78640253942187
 30
0.0
 10
8.326753086490996
 20
11.76163843079586
 30
0.0
 10
8.34012386624849
 20
11.7490472476545
 30
0.0
 10
8.404149222618985
 20
11.68555925401553
 30
0.0
 10
8.446788574047703
 20
11.63273406711691
 30
0.0
 10
8.498047674212557
 20
11.5504847602082
 30
0.0
 10
8.513016006448481
 20
11.5225660762424
 30
0.0
 10
8.532184976227414
 20
11.47990942900451
 30
0.0
 10
8.538038290980863
 20
11.46552307058334
 30
0.0
 10
8.548529462437857
 20
11.43672099366198
 30
0.0
 10
8.553174236321523
 20
11.42229916697932
 30
0.0
 10
8.57345797534465
 20
11.35008830440769
 30
0.0
 10
8.580386589384279
 20
11.29199788845488
 30
0.0
 10
8.577204133888904
 20
11.21897509039169
 30
0.0
 10
8.575972930418539
 20
11.2043499536002
 30
0.0
 10
8.572304811161388
 20
11.17505796210589
 30
0.0
 10
8.569859109646558
 20
11.16035258287773
 30
0.0
 10
8.560738949862142
 20
11.11649262962337
 30
0.0
 10
8.55231047340515
 20
11.08763564301521
 30
0.0
 10
8.520078566894185
 20
11.00219754443801
 30
0.0
 10
8.489477120615339
 20
10.94672508207424
 30
0.0
 10
8.439459019620289
 20
10.87930340160678
 30
0.0
 10
8.428838353551166
 20
10.86589115969268
 30
0.0
 10
8.406480882223423
 20
10.83937855574521
 30
0.0
 10
8.394792004629574
 20
10.82633161155298
 30
0.0
 10
8.35822701870446
 20
10.78780568998747
 30
0.0
 10
8.331858301865012
 20
10.76293926607734
 30
0.0
 10
8.275168843995342
 20
10.71482829438284
 30
0.0
 10
8.24484779360553
 20
10.69158387355693
 30
0.0
 10
8.19639269647877
 20
10.6579375495241
 30
0.0
 10
8.179744268661198
 20
10.64692596132007
 30
0.0
 10
8.154013934594097
 20
10.63071952931667
 30
0.0
 10
8.145310788285249
 20
10.62536924575388
 30
0.0
 10
8.127648541588108
 20
10.61477371994149
 30
0.0
 10
8.118651616582985
 20
10.60954400058346
 30
0.0
 10
8.109618338564792
 20
10.6043292001837
 30
0.0
  0
SPLINE
  5
327
330
2F2
100
AcDbEntity
  8
0
  6
Continuous
 62
     7
370
    25
100
AcDbSpline
210
0.0
220
0.0
230
1.0
 70
     8
 71
     3
 72
    31
 73
    27
 74
     0
 42
0.000000001
 43
0.00000001
 40
0.0
 40
0.0
 40
0.0
 40
0.0
 40
0.0039062499999999
 40
0.0039062499999999
 40
0.0058593749999998
 40
0.0058593749999998
 40
0.0078124999999997
 40
0.0078124999999997
 40
0.0156249999999996
 40
0.0312499999999995
 40
0.0624999999999994
 40
0.1249999999999994
 40
0.2499999999999996
 40
0.4999999999999997
 40
0.7499999999999998
 40
0.875
 40
0.9375000000000001
 40
0.9687500000000003
 40
0.9843750000000003
 40
0.9921875000000003
 40
0.9921875000000003
 40
0.9941406250000002
 40
0.9941406250000002
 40
0.9960937500000001
 40
0.9960937500000001
 40
1.0
 40
1.0
 40
1.0
 40
1.0
 10
-4.646944266701425
 20
19.28245519064082
 30
0.0
 10
-4.628985977468986
 20
19.27354736476719
 30
0.0
 10
-4.611382175477983
 20
19.26443430707943
 30
0.0
 10
-4.585505903040014
 20
19.25045820460238
 30
0.0
 10
-4.576968762946023
 20
19.24574839136972
 30
0.0
 10
-4.560071227142073
 20
19.23622643803242
 30
0.0
 10
-4.551737843016124
 20
19.23139865946257
 30
0.0
 10
-4.509997329151747
 20
19.20730237371253
 30
0.0
 10
-4.409820095877257
 20
19.14947128791244
 30
0.0
 10
-4.176073218236743
 20
19.0145320877122
 30
0.0
 10
-3.708579462955737
 20
18.74465368731176
 30
0.0
 10
-2.773591952393712
 20
18.20489688651084
 30
0.0
 10
-0.9036169312696831
 20
17.12538328490906
 30
0.0
 10
1.76777595605038
 20
15.58322099690643
 30
0.0
 10
4.439168843370442
 20
14.04105870890383
 30
0.0
 10
6.309143864494484
 20
12.96154510730204
 30
0.0
 10
7.244131375056494
 20
12.42178830650112
 30
0.0
 10
7.711625130337509
 20
12.15190990610065
 30
0.0
 10
7.945372007978011
 20
12.01697070590047
 30
0.0
 10
8.045549241252512
 20
11.95913962010035
 30
0.0
 10
8.087289755116888
 20
11.93504333435031
 30
0.0
 10
8.095652602366792
 20
11.93023247461758
 30
0.0
 10
8.112145586493371
 20
11.92047821968775
 30
0.0
 10
8.120302997475946
 20
11.91555035790346
 30
0.0
 10
8.144508343644581
 20
11.90061477260868
 30
0.0
 10
8.16028957552695
 20
11.89045515365102
 30
0.0
 10
8.1757138383967
 20
11.88009223024586
 30
0.0
  0
LWPOLYLINE
  5
329
330
2F2
100
AcDbEntity
  8
0
  6
Continuous
 62
     7
370
    25
100
AcDbPolyline
 90
       18
 70
   128
 43
0.0
 10
0.8893345149
 20
5.8764687702
 10
1.0023509792
 20
5.8169919023
 10
1.1243915708
 20
5.7637886183
 10
1.2544150825
 20
5.7173128299
 10
1.3913121994
 20
5.6779610521
 10
1.5339149637
 20
5.6460690203
 10
1.6810067388
 20
5.6219088262
 10
1.8313325896
 20
5.6056865961
 10
1.9836099889
 20
5.5975407322
 10
2.1365397597
 20
5.5975407322
 10
2.288817159
 20
5.6056865961
 10
2.4391430098
 20
5.6219088262
 10
2.5862347849
 20
5.6460690203
 10
2.7288375492
 20
5.6779610521
 10
2.8657346661
 20
5.7173128299
 10
2.9957581778
 20
5.7637886183
 10
3.1177987694
 20
5.8169919023
 10
3.2308152337
 20
5.8764687702
  0
SPLINE
  5
32B
330
2F2
100
AcDbEntity
  8
0
  6
Continuous
 62
     7
370
    25
100
AcDbSpline
210
0.0
220
0.0
230
1.0
 70
     8
 71
     3
 72
    38
 73
    34
 74
     0
 42
0.000000001
 43
0.00000001
 40
0.0
 40
0.0
 40
0.0
 40
0.0
 40
0.1250000000000014
 40
0.1250000000000014
 40
0.1875000000000029
 40
0.1875000000000029
 40
0.2187500000000031
 40
0.2187500000000031
 40
0.2500000000000034
 40
0.2500000000000034
 40
0.375
 40
0.375
 40
0.4374999999999987
 40
0.4374999999999987
 40
0.4687499999999981
 40
0.4687499999999981
 40
0.4999999999999974
 40
0.4999999999999974
 40
0.624999999999998
 40
0.624999999999998
 40
0.6562499999999982
 40
0.6562499999999982
 40
0.6874999999999983
 40
0.6874999999999983
 40
0.7499999999999987
 40
0.7499999999999987
 40
0.8749999999999997
 40
0.8749999999999997
 40
0.9062499999999996
 40
0.9062499999999996
 40
0.9374999999999993
 40
0.9374999999999993
 40
1.0
 40
1.0
 40
1.0
 40
1.0
 10
1.132363193900446
 20
7.782587942282078
 30
0.0
 10
1.198155423173509
 20
7.746701616829331
 30
0.0
 10
1.26922905024322
 20
7.714666736305077
 30
0.0
 10
1.383533682415307
 20
7.672444592182842
 30
0.0
 10
1.422924107439511
 20
7.659342236401048
 30
0.0
 10
1.483977833851952
 20
7.641201554583062
 30
0.0
 10
1.504658063174875
 20
7.63540740663239
 30
0.0
 10
1.546694200181876
 20
7.624341622561553
 30
0.0
 10
1.567979218800436
 20
7.619091348620287
 30
0.0
 10
1.67490824640574
 20
7.594435482833012
 30
0.0
 10
1.762795427199201
 20
7.579535948074646
 30
0.0
 10
1.89809343988642
 20
7.56441834314406
 30
0.0
 10
1.943774814852196
 20
7.560589313995536
 30
0.0
 10
2.013190764857935
 20
7.556712692524349
 30
0.0
 10
2.03649137638196
 20
7.555734551139562
 30
0.0
 10
2.082847638060981
 20
7.554429505882966
 30
0.0
 10
2.105971256759628
 20
7.554098148810645
 30
0.0
 10
2.221319134722652
 20
7.55403243159921
 30
0.0
 10
2.312749060980538
 20
7.558984830523618
 30
0.0
 10
2.425973072173092
 20
7.571408882565177
 30
0.0
 10
2.448563732363399
 20
7.574211061255856
 30
0.0
 10
2.49363585094221
 20
7.580456282256473
 30
0.0
 10
2.516154718349032
 20
7.583907119034264
 30
0.0
 10
2.582791072990508
 20
7.595101674354402
 30
0.0
 10
2.62622522104361
 20
7.603711818229226
 30
0.0
 10
2.753615770728066
 20
7.632873132867847
 30
0.0
 10
2.834691992866215
 20
7.656747898563992
 30
0.0
 10
2.931136859898265
 20
7.692080715974362
 30
0.0
 10
2.950205019345798
 20
7.699438089225431
 30
0.0
 10
2.987533375811246
 20
7.714594638795241
 30
0.0
 10
3.00582648521123
 20
7.722403829038623
 30
0.0
 10
3.05960544741074
 20
7.746507828325902
 30
0.0
 10
3.09399505570668
 20
7.763477359770736
 30
0.0
 10
3.126908396744167
 20
7.781325150502661
 30
0.0
  0
SPLINE
  5
32E
330
2F2
100
AcDbEntity
  8
0
  6
Continuous
 62
     7
370
    25
100
AcDbSpline
210
0.0
220
0.0
230
1.0
 70
     8
 71
     3
 72
    31
 73
    27
 74
     0
 42
0.000000001
 43
0.00000001
 40
0.0
 40
0.0
 40
0.0
 40
0.0
 40
0.0139261760439732
 40
0.0278296396457727
 40
0.0417169939756741
 40
0.0555948651986237
 40
0.0694698930658445
 40
0.0833487214094181
 40
0.0972379886076354
 40
0.1111443180894006
 40
0.1250743089453275
 40
0.1875779184968463
 40
0.2501008879614519
 40
0.3126044975157665
 40
0.3751274669775306
 40
0.5000027177825174
 40
0.6248779685875043
 40
0.6873815781392691
 40
0.7499045476035792
 40
0.8124081571545925
 40
0.8749311266196728
 40
0.8999805165365233
 40
0.9249733977138883
 40
0.9499484478748851
 40
0.9749444275156557
 40
1.0
 40
1.0
 40
1.0
 40
1.0
 10
-3.632969879718276
 20
14.39339559804099
 30
0.0
 10
-3.6288870320015
 20
14.39572328456125
 30
0.0
 10
-3.620727995355143
 20
14.40037486133743
 30
0.0
 10
-3.60816818334929
 20
14.40715090840144
 30
0.0
 10
-3.595388562027803
 20
14.41377051687884
 30
0.0
 10
-3.582365201727115
 20
14.42021986555369
 30
0.0
 10
-3.569104522673517
 20
14.42650264520201
 30
0.0
 10
-3.555604789657342
 20
14.43261786555724
 30
0.0
 10
-3.541866583252856
 20
14.43856577406748
 30
0.0
 10
-3.527889373983585
 20
14.44434634832669
 30
0.0
 10
-3.49716561216128
 20
14.45647854007999
 30
0.0
 10
-3.447976713544605
 20
14.47351266617106
 30
0.0
 10
-3.378008884870386
 20
14.49259966746581
 30
0.0
 10
-3.3051351548832
 20
14.50766719674562
 30
0.0
 10
-3.205114443362917
 20
14.52211906993743
 30
0.0
 10
-3.076192882704363
 20
14.52947317213326
 30
0.0
 10
-2.94727933452343
 20
14.52211952578354
 30
0.0
 10
-2.847258265829753
 20
14.50766853783602
 30
0.0
 10
-2.774391847431852
 20
14.49260322310014
 30
0.0
 10
-2.704415305113781
 20
14.47351473137321
 30
0.0
 10
-2.651292968833732
 20
14.45511844169208
 30
0.0
 10
-2.613232517131868
 20
14.43980893340417
 30
0.0
 10
-2.588574661825354
 20
14.42904036152351
 30
0.0
 10
-2.564705167524704
 20
14.41771816628887
 30
0.0
 10
-2.541545910805924
 20
14.40588683176601
 30
0.0
 10
-2.526798418932347
 20
14.39756264628899
 30
0.0
 10
-2.519415893597729
 20
14.39339559804098
 30
0.0
  0
SPLINE
  5
330
330
2F2
100
AcDbEntity
  8
0
  6
Continuous
 62
     7
370
    25
100
AcDbSpline
210
0.0
220
0.0
230
1.0
 70
     8
 71
     3
 72
    10
 73
     6
 74
     0
 42
0.000000001
 43
0.00000001
 40
0.0
 40
0.0
 40
0.0
 40
0.0
 40
0.3695449680114455
 40
0.739089936022891
 40
1.0
 40
1.0
 40
1.0
 40
1.0
 10
-6.695243341549785
 20
12.62558275748001
 30
0.0
 10
-6.729410161376474
 20
12.60331858862562
 30
0.0
 10
-6.797743801029847
 20
12.55879025091685
 30
0.0
 10
-6.86542941757765
 20
12.48723406065624
 30
0.0
 10
-6.888159449778249
 20
12.43820121430839
 30
0.0
 10
-6.897566138367845
 20
12.41790926257752
 30
0.0
  0
SPLINE
  5
331
330
2F2
100
AcDbEntity
  8
0
  6
Continuous
 62
     7
370
    25
100
AcDbSpline
210
0.0
220
0.0
230
1.0
 70
     8
 71
     3
 72
     9
 73
     5
 74
     0
 42
0.000000001
 43
0.00000001
 40
0.0
 40
0.0
 40
0.0
 40
0.0
 40
0.4625848840508925
 40
0.9999999999999999
 40
0.9999999999999999
 40
0.9999999999999999
 40
0.9999999999999999
 10
5.992794513536762
 20
9.435561392024233
 30
0.0
 10
5.973586834395349
 20
9.458753573409757
 30
0.0
 10
5.932064338084597
 20
9.50888962883472
 30
0.0
 10
5.86713370565966
 20
9.549996433084361
 30
0.0
 10
5.832239002306362
 20
9.572087851056478
 30
0.0
  0
SPLINE
  5
333
330
2F2
100
AcDbEntity
  8
0
  6
Continuous
 62
     7
370
    25
100
AcDbSpline
210
0.0
220
0.0
230
1.0
 70
    11
 71
     3
 72
    95
 73
    91
 74
     0
 42
0.000000001
 43
0.00000001
 40
0.0
 40
0.0
 40
0.0
 40
0.0
 40
0.0156250000000005
 40
0.0156250000000005
 40
0.031250000000001
 40
0.031250000000001
 40
0.0624999999999997
 40
0.0624999999999997
 40
0.0781249999999989
 40
0.0781249999999989
 40
0.0937499999999982
 40
0.0937499999999982
 40
0.1249999999999966
 40
0.1249999999999966
 40
0.1406249999999948
 40
0.1406249999999948
 40
0.156249999999993
 40
0.1718749999999913
 40
0.1718749999999913
 40
0.1874999999999895
 40
0.1874999999999895
 40
0.2187499999999862
 40
0.2187499999999862
 40
0.249999999999983
 40
0.249999999999983
 40
0.2812499999999797
 40
0.2812499999999797
 40
0.2968749999999781
 40
0.2968749999999781
 40
0.3124999999999766
 40
0.3124999999999766
 40
0.3437499999999738
 40
0.3437499999999738
 40
0.374999999999971
 40
0.374999999999971
 40
0.3906249999999696
 40
0.3906249999999696
 40
0.4062499999999682
 40
0.4062499999999682
 40
0.4374999999999654
 40
0.4374999999999654
 40
0.453124999999964
 40
0.453124999999964
 40
0.4687499999999626
 40
0.4687499999999626
 40
0.4999999999999621
 40
0.4999999999999621
 40
0.5312499999999616
 40
0.5312499999999616
 40
0.5468749999999614
 40
0.5468749999999614
 40
0.562499999999961
 40
0.5781249999999608
 40
0.5781249999999608
 40
0.5937499999999605
 40
0.5937499999999605
 40
0.6249999999999621
 40
0.6249999999999621
 40
0.640624999999964
 40
0.640624999999964
 40
0.6562499999999659
 40
0.6562499999999659
 40
0.6874999999999695
 40
0.6874999999999695
 40
0.7031249999999709
 40
0.7031249999999709
 40
0.7187499999999725
 40
0.7187499999999725
 40
0.7499999999999757
 40
0.7499999999999757
 40
0.7656249999999772
 40
0.7656249999999772
 40
0.7812499999999787
 40
0.7968749999999802
 40
0.7968749999999802
 40
0.8124999999999817
 40
0.8124999999999817
 40
0.8437499999999856
 40
0.8437499999999856
 40
0.8749999999999895
 40
0.8749999999999895
 40
0.9062499999999934
 40
0.9062499999999934
 40
0.9218749999999952
 40
0.9218749999999952
 40
0.9374999999999971
 40
0.9374999999999971
 40
0.9687499999999986
 40
0.9687499999999986
 40
1.0
 40
1.0
 40
1.0
 40
1.0
 10
0.709890666151855
 20
15.10093868721984
 30
0.0
 10
0.7098906661518547
 20
15.08926196498369
 30
0.0
 10
0.7093910463051333
 20
15.07791030205368
 30
0.0
 10
0.7073967004133332
 20
15.0558544054992
 30
0.0
 10
0.7058987253900219
 20
15.0451679854305
 30
0.0
 10
0.7000000727907308
 20
15.01454913202737
 30
0.0
 10
0.6941961081361981
 20
14.99587488813629
 30
0.0
 10
0.6826830547273877
 20
14.97047083528829
 30
0.0
 10
0.6783469226679304
 20
14.96240041687318
 30
0.0
 10
0.6688375050734751
 20
14.94739347858877
 30
0.0
 10
0.6636794199534535
 20
14.94046455727797
 30
0.0
 10
0.6470274770595253
 20
14.92135522898186
 30
0.0
 10
0.6343672729782126
 20
14.91083610379156
 30
0.0
 10
0.6129613981841707
 20
14.89849802385479
 30
0.0
 10
0.6054704505886593
 20
14.89499890970484
 30
0.0
 10
0.5899916089304162
 20
14.88929084965768
 30
0.0
 10
0.5739578619227999
 20
14.88483866227789
 30
0.0
 10
0.5568263729042462
 20
14.88287090614198
 30
0.0
 10
0.5391360938433304
 20
14.88216781458678
 30
0.0
 10
0.5299601234786355
 20
14.88245698386609
 30
0.0
 10
0.5020932724020006
 20
14.88523895717795
 30
0.0
 10
0.4830010472068461
 20
14.88959490722135
 30
0.0
 10
0.4438065819079557
 20
14.90321878716206
 30
0.0
 10
0.4235170930490549
 20
14.91262829621102
 30
0.0
 10
0.3835353617355478
 20
14.93572992764589
 30
0.0
 10
0.3636885973806083
 20
14.94943634290211
 30
0.0
 10
0.3341376927589115
 20
14.97327558752256
 30
0.0
 10
0.3242889432257622
 20
14.98181070621075
 30
0.0
 10
0.3050817990768959
 20
14.99963390667934
 30
0.0
 10
0.2956764816188145
 20
15.00895555626626
 30
0.0
 10
0.2680435393273146
 20
15.03812634280971
 30
0.0
 10
0.2503465893415192
 20
15.05923242288304
 30
0.0
 10
0.216762636892423
 20
15.10452813504971
 30
0.0
 10
0.2013348826606457
 20
15.12808310370686
 30
0.0
 10
0.1801660334277075
 20
15.16472731934645
 30
0.0
 10
0.1734409612960841
 20
15.17716229009514
 30
0.0
 10
0.1606700771564983
 20
15.20248389224774
 30
0.0
 10
0.1546265515512745
 20
15.21537975121672
 30
0.0
 10
0.137919098834888
 20
15.25389429052619
 30
0.0
 10
0.128515505489437
 20
15.27962358040257
 30
0.0
 10
0.1170017632556153
 20
15.31829659293689
 30
0.0
 10
0.1135877353708683
 20
15.3312516887415
 30
0.0
 10
0.1077217081446588
 20
15.35693901801362
 30
0.0
 10
0.1052770786662446
 20
15.36962126994299
 30
0.0
 10
0.0993932133435308
 20
15.40718878789607
 30
0.0
 10
0.0974205810848858
 20
15.43171705203685
 30
0.0
 10
0.0974515504979396
 20
15.47783358844195
 30
0.0
 10
0.0994027333316248
 20
15.49963246574109
 30
0.0
 10
0.105293981651337
 20
15.53040205549859
 30
0.0
 10
0.1077645825356255
 20
15.54033767518086
 30
0.0
 10
0.1135969423984329
 20
15.55912034254384
 30
0.0
 10
0.1203385206768291
 20
15.57693325675228
 30
0.0
 10
0.1288685750875075
 20
15.59283862010018
 30
0.0
 10
0.1383037399398137
 20
15.60777861177178
 30
0.0
 10
0.1435010153190378
 20
15.61479595641371
 30
0.0
 10
0.1603095184707791
 20
15.63411960326226
 30
0.0
 10
0.1729897144343965
 20
15.64460182605458
 30
0.0
 10
0.1941564631081407
 20
15.65683120043693
 30
0.0
 10
0.2015723773629514
 20
15.66032111775149
 30
0.0
 10
0.217145656291953
 20
15.66609403292905
 30
0.0
 10
0.2252778353790195
 20
15.66835870688762
 30
0.0
 10
0.2502565249074761
 20
15.67320035421093
 30
0.0
 10
0.2678375907271278
 20
15.67390694592362
 30
0.0
 10
0.2956056464961392
 20
15.67117544132805
 30
0.0
 10
0.3051510392335138
 20
15.66961404119993
 30
0.0
 10
0.3244086549954727
 20
15.66524187660469
 30
0.0
 10
0.334115984230148
 20
15.66244102400474
 30
0.0
 10
0.363467525580316
 20
15.65224121287432
 30
0.0
 10
0.3833390680138423
 20
15.64306240820302
 30
0.0
 10
0.4136184455870219
 20
15.62559825268081
 30
0.0
 10
0.4236914255128273
 20
15.61920986317511
 30
0.0
 10
0.4435980974446353
 20
15.6054565383464
 30
0.0
 10
0.4633296784328857
 20
15.59068977593425
 30
0.0
 10
0.4827144456387238
 20
15.5739156331609
 30
0.0
 10
0.5019224404701926
 20
15.55611832057498
 30
0.0
 10
0.511483367962265
 20
15.5466562048579
 30
0.0
 10
0.5393305850547642
 20
15.51727191563016
 30
0.0
 10
0.5569201380592107
 20
15.49626392299999
 30
0.0
 10
0.5901790414558449
 20
15.45145509528525
 30
0.0
 10
0.6059483685331183
 20
15.42742931596475
 30
0.0
 10
0.6342253595365973
 20
15.37848585027213
 30
0.0
 10
0.6468993357820485
 20
15.35338644744081
 30
0.0
 10
0.663676280215898
 20
15.31477987728637
 30
0.0
 10
0.6689022273919614
 20
15.30171353605987
 30
0.0
 10
0.6783714451922656
 20
15.27582196952761
 30
0.0
 10
0.6826463787213227
 20
15.26293001204736
 30
0.0
 10
0.6941176295738117
 20
15.22441263380226
 30
0.0
 10
0.6999865180327137
 20
15.19886155881932
 30
0.0
 10
0.7079067334704322
 20
15.1485488076456
 30
0.0
 10
0.7098906661518556
 20
15.12429213169214
 30
0.0
 10
0.709890666151855
 20
15.10093868721984
 30
0.0
  0
SPLINE
  5
334
330
2F2
100
AcDbEntity
  8
0
  6
Continuous
 62
     7
370
    25
100
AcDbSpline
210
0.0
220
0.0
230
1.0
 70
     8
 71
     3
 72
     8
 73
     4
 74
     0
 42
0.000000001
 43
0.00000001
 40
0.0
 40
0.0
 40
0.0
 40
0.0
 40
1.0
 40
1.0
 40
1.0
 40
1.0
 10
-11.67350764647364
 20
15.17525982098463
 30
0.0
 10
-11.66464992840768
 20
15.16986559046052
 30
0.0
 10
-11.6556771183971
 20
15.16453091988006
 30
0.0
 10
-11.64659139443703
 20
15.15925666861744
 30
0.0
  0
SPLINE
  5
336
330
2F2
100
AcDbEntity
  8
0
  6
Continuous
 62
     7
370
    25
100
AcDbSpline
210
0.0
220
0.0
230
1.0
 70
     8
 71
     3
 72
     8
 73
     4
 74
     0
 42
0.000000001
 43
0.00000001
 40
0.0
 40
0.0
 40
0.0
 40
0.0
 40
1.0
 40
1.0
 40
1.0
 40
1.0
 10
-11.6445365772258
 20
16.34046638624659
 30
0.0
 10
-11.65429990301289
 20
16.3355280062661
 30
0.0
 10
-11.66393366871247
 20
16.33049890349877
 30
0.0
 10
-11.67343524038303
 20
16.32538166666368
 30
0.0
  0
SPLINE
  5
338
330
2F2
100
AcDbEntity
  8
0
  6
Continuous
 62
     7
370
    25
100
AcDbSpline
210
0.0
220
0.0
230
1.0
 70
     8
 71
     3
 72
    40
 73
    36
 74
     0
 42
0.000000001
 43
0.00000001
 40
0.0
 40
0.0
 40
0.0
 40
0.0
 40
0.1249999999999941
 40
0.1249999999999941
 40
0.1874999999999912
 40
0.1874999999999912
 40
0.2187499999999902
 40
0.2187499999999902
 40
0.2499999999999893
 40
0.2499999999999893
 40
0.3749999999999865
 40
0.3749999999999865
 40
0.4374999999999868
 40
0.4374999999999868
 40
0.4687499999999868
 40
0.4687499999999868
 40
0.4999999999999869
 40
0.4999999999999869
 40
0.6249999999999883
 40
0.6249999999999883
 40
0.6874999999999882
 40
0.6874999999999882
 40
0.7187499999999889
 40
0.7187499999999889
 40
0.7499999999999896
 40
0.7499999999999896
 40
0.8749999999999953
 40
0.8749999999999953
 40
0.9062499999999966
 40
0.9062499999999966
 40
0.9374999999999977
 40
0.9374999999999977
 40
0.9687499999999989
 40
0.9687499999999989
 40
1.0
 40
1.0
 40
1.0
 40
1.0
 10
-4.749418545453613
 20
19.09212486349635
 30
0.0
 10
-4.820054694400194
 20
19.13325889932745
 30
0.0
 10
-4.894989366388897
 20
19.17033394432385
 30
0.0
 10
-5.013689295105292
 20
19.21971411117354
 30
0.0
 10
-5.054307492794281
 20
19.23514205455016
 30
0.0
 10
-5.116857137408196
 20
19.2566992057373
 30
0.0
 10
-5.137977566227356
 20
19.26362346959751
 30
0.0
 10
-5.180780292833888
 20
19.27690409143976
 30
0.0
 10
-5.202477680727434
 20
19.2832648918381
 30
0.0
 10
-5.311299220308508
 20
19.31335777625309
 30
0.0
 10
-5.400233074971521
 20
19.33233846411617
 30
0.0
 10
-5.53650065775919
 20
19.35298933600933
 30
0.0
 10
-5.58240099157134
 20
19.35856803930417
 30
0.0
 10
-5.651989791915359
 20
19.36495392146566
 30
0.0
 10
-5.6753634070996
 20
19.36675433493779
 30
0.0
 10
-5.722104686972455
 20
19.36966016324136
 30
0.0
 10
-5.745407780460409
 20
19.3707599959018
 30
0.0
 10
-5.861590156375371
 20
19.37447827242918
 30
0.0
 10
-5.953488674659368
 20
19.37193974928649
 30
0.0
 10
-6.089735506978836
 20
19.35998966468981
 30
0.0
 10
-6.134882138116402
 20
19.35461770346241
 30
0.0
 10
-6.202184440232848
 20
19.34445001108484
 30
0.0
 10
-6.224446499666037
 20
19.34072203780809
 30
0.0
 10
-6.268363296324054
 20
19.33264618853831
 30
0.0
 10
-6.290060324019157
 20
19.32829358765777
 30
0.0
 10
-6.397239940467774
 20
19.30495107143437
 30
0.0
 10
-6.478865522971653
 20
19.2812764695934
 30
0.0
 10
-6.575694118160088
 20
19.2455208490482
 30
0.0
 10
-6.594794894618349
 20
19.23805338348463
 30
0.0
 10
-6.632458313558175
 20
19.22247897790865
 30
0.0
 10
-6.651016128769759
 20
19.21437176149984
 30
0.0
 10
-6.687288176277862
 20
19.19764827371185
 30
0.0
 10
-6.705041305680036
 20
19.1890164799921
 30
0.0
 10
-6.739781356532648
 20
19.17121450963366
 30
0.0
 10
-6.756755696159165
 20
19.16212222825299
 30
0.0
 10
-6.773349456577661
 20
19.15254285426611
 30
0.0
  0
SPLINE
  5
339
330
2F2
100
AcDbEntity
  8
0
  6
Continuous
 62
     7
370
    25
100
AcDbSpline
210
0.0
220
0.0
230
1.0
 70
     8
 71
     3
 72
     8
 73
     4
 74
     0
 42
0.000000001
 43
0.00000001
 40
0.0
 40
0.0
 40
0.0
 40
0.0
 40
1.0
 40
1.0
 40
1.0
 40
1.0
 10
-4.66553812101638
 20
19.03993685076381
 30
0.0
 10
-4.692550820315341
 20
19.0578967221298
 30
0.0
 10
-4.720530642409427
 20
19.07530237166142
 30
0.0
 10
-4.749418545453613
 20
19.09212486349635
 30
0.0
  0
SPLINE
  5
33B
330
2F2
100
AcDbEntity
  8
0
  6
Continuous
 62
     7
370
    25
100
AcDbSpline
210
0.0
220
0.0
230
1.0
 70
     8
 71
     3
 72
     8
 73
     4
 74
     0
 42
0.000000001
 43
0.00000001
 40
0.0
 40
0.0
 40
0.0
 40
0.0
 40
1.0
 40
1.0
 40
1.0
 40
1.0
 10
8.056452294627361
 20
11.69945298496569
 30
0.0
 10
8.031418746190914
 20
11.713758684501
 30
0.0
 10
8.00537392919168
 20
11.72754079521361
 30
0.0
 10
7.978361229725012
 20
11.74076912273441
 30
0.0
  0
LWPOLYLINE
  5
349
330
2F2
100
AcDbEntity
  8
0
  6
Continuous
 62
     7
370
    25
100
AcDbPolyline
 90
       62
 70
   128
 43
0.0
 10
-1.3732466663
 20
10.2337572619
 10
-1.4637289771
 20
10.2916693147
 10
-1.5434169763
 20
10.3546452118
 10
-1.6114659513
 20
10.4220173933
 10
-1.667154566
 20
10.493071697
 10
-1.7098925073
 20
10.5670549299
 10
-1.7392267424
 20
10.6431828511
 10
-1.754846321
 20
10.7206484858
 10
-1.7565856718
 20
10.798630679
 10
-1.7444263572
 20
10.8763028001
 10
-1.718497269
 20
10.9528415051
 10
-1.6790732618
 20
11.0274354649
 10
-1.6265722402
 20
11.0992939649
 10
-1.5615507278
 20
11.1676552871
 10
-1.484697969
 20
11.2317947845
 10
-1.396828622
 20
11.2910325624
 10
-1.2988741239
 20
11.3447406858
 10
-1.1918728167
 20
11.392349835
 10
-1.0769589408
 20
11.4333553413
 10
-0.9553506119
 20
11.4673225362
 10
-0.8283369086
 20
11.4938913588
 10
-0.6972642077
 20
11.5127801731
 10
-0.5635219124
 20
11.523788753
 10
-0.4285277244
 20
11.5268004047
 10
-0.2937126156
 20
11.521783204
 10
-0.1605056598
 20
11.5087903345
 10
-0.0303188837
 20
11.4879595238
 10
0.0954677004
 20
11.4595115838
 10
0.2155207234
 20
11.4237480695
 10
0.3285675934
 20
11.3810480833
 10
0.4334099855
 20
11.3318642555
 10
0.5289365441
 20
11.276717947
 10
0.6141346642
 20
11.2161937223
 10
0.6881012243
 20
11.1509331534
 10
0.7500521605
 20
11.0816280184
 10
0.7993307776
 20
11.0090129691
 10
0.8354147098
 20
10.933857743
 10
0.8579214586
 20
10.8569590042
 10
0.8666124467
 20
10.7791318985
 10
0.8613955477
 20
10.7012014125
 10
0.8423260618
 20
10.6239936289
 10
0.8096061305
 20
10.5483269693
 10
0.763582593
 20
10.4750035191
 10
0.7047433104
 20
10.4048005251
 10
0.6337119936
 20
10.3384621566
 10
0.5512415924
 20
10.2766916168
 10
0.4582063135
 20
10.2201436887
 10
0.3555923539
 20
10.1694177944
 10
0.2444874472
 20
10.1250516411
 10
0.126069333
 20
10.087515521
 10
0.0015932729
 20
10.0572073263
 10
-0.1276212561
 20
10.0344483314
 10
-0.2602045477
 20
10.0194797874
 10
-0.3947511861
 20
10.0124603645
 10
-0.5298349434
 20
10.0134644703
 10
-0.6640238982
 20
10.0224814611
 10
-0.7958956142
 20
10.0394157546
 10
-0.9240522184
 20
10.0640878429
 10
-1.047135219
 20
10.0962361959
 10
-1.1638399054
 20
10.135520033
 10
-1.272929179
 20
10.1815229357
 10
-1.3732466663
 20
10.2337572619
  0
LWPOLYLINE
  5
34A
330
2F2
100
AcDbEntity
  8
0
  6
Continuous
 62
     7
370
    25
100
AcDbPolyline
 90
       20
 70
   128
 43
0.0
 10
-1.3981301959
 20
10.2776470511
 10
-1.3799028835
 20
10.2656779555
 10
-1.2853318695
 20
10.2110832712
 10
-1.1812443365
 20
10.162600936
 10
-1.0688196378
 20
10.1207802741
 10
-0.9493315902
 20
10.0860951304
 10
-0.824134041
 20
10.0589385013
 10
-0.6946455284
 20
10.0396180823
 10
-0.5623332091
 20
10.0283527815
 10
-0.4286962345
 20
10.0252702393
 10
-0.2952487649
 20
10.030405382
 10
-0.1635028134
 20
10.0437000265
 10
-0.0349511144
 20
10.0650035392
 10
0.0889497901
 20
10.0940745426
 10
0.2067960532
 20
10.1305836508
 10
0.3172524298
 20
10.174117201
 10
0.419067405
 20
10.2241819405
 10
0.5110873743
 20
10.280210616
 10
0.5922697148
 20
10.3415684002
 10
0.6571769658
 20
10.4027441039
  0
LWPOLYLINE
  5
34C
330
2F2
100
AcDbEntity
  8
0
  6
Continuous
 62
     7
370
    25
100
AcDbPolyline
 90
       13
 70
   128
 43
0.0
 10
0.5178979391
 20
10.5405107578
 10
0.5046996588
 20
10.6082096969
 10
0.4772794063
 20
10.6744715224
 10
0.4360476239
 20
10.7383043886
 10
0.3816214932
 20
10.7987528077
 10
0.3148156965
 20
10.8549119522
 10
0.2366302221
 20
10.9059411991
 10
0.1482353959
 20
10.9510767128
 10
0.0509543638
 20
10.9896428783
 10
-0.0537567149
 20
11.0210624148
 10
-0.1643304632
 20
11.0448650161
 10
-0.2791117485
 20
11.0606943909
 10
-0.3963824571
 20
11.068313596
  0
LWPOLYLINE
  5
34D
330
2F2
100
AcDbEntity
  8
0
  6
Continuous
 62
     7
370
    25
100
AcDbPolyline
 90
        3
 70
   128
 43
0.0
 10
0.3427017005
 20
10.205397246
 10
0.3063030317
 20
10.1718180968
 10
0.3002750734
 20
10.1667615084
  0
LWPOLYLINE
  5
34E
330
2F2
100
AcDbEntity
  8
0
  6
Continuous
 62
     7
370
    25
100
AcDbPolyline
 90
       13
 70
   128
 43
0.0
 10
0.5178979391
 20
10.5405107578
 10
0.5072200783
 20
10.6109624233
 10
0.4817184661
 20
10.6797421459
 10
0.4417998429
 20
10.7457529173
 10
0.3881008941
 20
10.8079418931
 10
0.3214780959
 20
10.8653171847
 10
0.2429940543
 20
10.9169636799
 10
0.1539005576
 20
10.9620576384
 10
0.0556186101
 20
10.9998798302
 10
-0.0502842315
 20
11.0298270068
 10
-0.1621188608
 20
11.0514215233
 10
-0.2781015614
 20
11.0643189559
 10
-0.3963824571
 20
11.068313596
  0
LWPOLYLINE
  5
350
330
2F2
100
AcDbEntity
  8
0
  6
Continuous
 62
     7
370
    25
100
AcDbPolyline
 90
        3
 70
   128
 43
0.0
 10
-12.4003359792
 20
13.9095804202
 10
-12.3997062114
 20
13.9008524337
 10
-12.3996490347
 20
13.9001441888
  0
LWPOLYLINE
  5
353
330
2F2
100
AcDbEntity
  8
0
  6
Continuous
 62
     7
370
    25
100
AcDbPolyline
 90
       15
 70
   128
 43
0.0
 10
3.5216144811
 20
16.2099335084
 10
3.4473227682
 20
16.2470959059
 10
3.3646258432
 20
16.2777764887
 10
3.2752071769
 20
16.3013506886
 10
3.1808870755
 20
16.3173386028
 10
3.0835856242
 20
16.3254147636
 10
2.9852836001
 20
16.3254147636
 10
2.8879821489
 20
16.3173386028
 10
2.7936620475
 20
16.3013506886
 10
2.7042433812
 20
16.2777764887
 10
2.6215464561
 20
16.2470959059
 10
2.5472547433
 20
16.2099335084
 10
2.4828806076
 20
16.1670458155
 10
2.4297345209
 20
16.1193058968
 10
2.4104622679
 20
16.0973405579
  0
LWPOLYLINE
  5
368
330
2F2
100
AcDbEntity
  8
0
  6
Continuous
 62
     7
370
    25
100
AcDbPolyline
 90
        7
 70
   128
 43
0.0
 10
-11.5113643315
 20
1.0526521914
 10
-11.5775777282
 20
1.096765247
 10
-11.6322422745
 20
1.1458691634
 10
-11.6742451578
 20
1.1989643263
 10
-11.7027313207
 20
1.2549698714
 10
-11.717120867
 20
1.3127456874
 10
-11.7189264551
 20
1.3419306562
  0
SPLINE
  5
36A
330
2F2
100
AcDbEntity
  8
0
  6
Continuous
 62
     7
370
    25
100
AcDbSpline
210
0.0
220
0.0
230
1.0
 70
     8
 71
     3
 72
     8
 73
     4
 74
     0
 42
0.000000001
 43
0.00000001
 40
0.0
 40
0.0
 40
0.0
 40
0.0
 40
1.0
 40
1.0
 40
1.0
 40
1.0
 10
-2.991720924058536
 20
5.104630387936266
 30
0.0
 10
-2.883506637400098
 20
5.167101165896286
 30
0.0
 10
-2.775292350741659
 20
5.229571943856305
 30
0.0
 10
-2.67647353504296
 20
5.487443408437271
 30
0.0
  0
LWPOLYLINE
  5
36C
330
2F2
100
AcDbEntity
  8
0
  6
Continuous
 62
     7
370
    25
100
AcDbPolyline
 90
        9
 70
   128
 43
0.0
 10
-2.676473535
 20
4.7964687708
 10
-2.6181055175
 20
4.7694120735
 10
-2.5619805502
 20
4.7566720338
 10
-2.5102554841
 20
4.7587382442
 10
-2.4649180844
 20
4.7755313016
 10
-2.4277106421
 20
4.8064058581
 10
-2.4000630182
 20
4.8501754218
 10
-2.3830376955
 20
4.9051579529
 10
-2.3772889476
 20
4.9692405036
  0
LWPOLYLINE
  5
375
330
2F2
100
AcDbEntity
  8
0
  6
Continuous
 62
     7
370
    25
100
AcDbPolyline
 90
       11
 70
   128
 43
0.0
 10
-7.7531196284
 20
7.482588049
 10
-7.787530339
 20
7.4961593307
 10
-7.8185726894
 20
7.4958149633
 10
-7.8432080383
 20
7.4815886559
 10
-7.8590249058
 20
7.4548729786
 10
-7.864475027
 20
7.4182830481
 10
-7.8590249058
 20
7.3754005416
 10
-7.8432080383
 20
7.3304230977
 10
-7.8185726894
 20
7.287753422
 10
-7.787530339
 20
7.2515683197
 10
-7.7531196284
 20
7.2254098406
  0
LWPOLYLINE
  5
37C
330
2F2
100
AcDbEntity
  8
0
  6
Continuous
 62
     7
370
    25
100
AcDbPolyline
 90
        3
 70
   128
 43
0.0
 10
-2.9756581225
 20
5.3146716756
 10
-2.9699093745
 20
5.2439517618
 10
-2.9633684623
 20
5.209573615
  0
LWPOLYLINE
  5
37D
330
2F2
100
AcDbEntity
  8
0
  6
Continuous
 62
     7
370
    25
100
AcDbPolyline
 90
        3
 70
   128
 43
0.0
 10
-2.7743973433
 20
4.8720285355
 10
-2.7348415526
 20
4.836802352
 10
-2.676473535
 20
4.7964687708
  0
LWPOLYLINE
  5
37E
330
2F2
100
AcDbEntity
  8
0
  6
Continuous
 62
     7
370
    25
100
AcDbPolyline
 90
        9
 70
   128
 43
0.0
 10
-2.676473535
 20
5.4874434084
 10
-2.7348415526
 20
5.5145001058
 10
-2.7909665199
 20
5.5272401455
 10
-2.842691586
 20
5.525173935
 10
-2.8880289857
 20
5.5083808776
 10
-2.925236428
 20
5.4775063212
 10
-2.9528840518
 20
5.4337367575
 10
-2.9699093745
 20
5.3787542263
 10
-2.9756581225
 20
5.3146716756
  0
LWPOLYLINE
  5
37F
330
2F2
100
AcDbEntity
  8
0
  6
Continuous
 62
     7
370
    25
100
AcDbPolyline
 90
       10
 70
   128
 43
0.0
 10
-2.9701278346
 20
5.3450552423
 10
-2.9653846363
 20
5.3876912657
 10
-2.9499198888
 20
5.441528437
 10
-2.9247311298
 20
5.4854019454
 10
-2.8906761322
 20
5.5178177312
 10
-2.8489145981
 20
5.5376719137
 10
-2.8008686664
 20
5.5442883825
 10
-2.7481744838
 20
5.5374418217
 10
-2.6926264875
 20
5.5173653827
 10
-2.6685486176
 20
5.5049411036
  0
LWPOLYLINE
  5
382
330
2F2
100
AcDbEntity
  8
0
  6
Continuous
 62
     7
370
    25
100
AcDbPolyline
 90
       14
 70
   128
 43
0.0
 10
-2.3106245212
 20
4.9995936617
 10
-2.3158386237
 20
5.0675812102
 10
-2.3313033712
 20
5.1392735989
 10
-2.3564921302
 20
5.2122294295
 10
-2.3905471279
 20
5.2839642786
 10
-2.432308662
 20
5.352035302
 10
-2.4803545936
 20
5.4141244227
 10
-2.5330487762
 20
5.4681172701
 10
-2.5885967725
 20
5.5121751826
 10
-2.6451069622
 20
5.5447978207
 10
-2.7006549586
 20
5.5648742597
 10
-2.7533491412
 20
5.5717208205
 10
-2.8013950728
 20
5.5651043517
 10
-2.8333697032
 20
5.5514354767
  0
LWPOLYLINE
  5
383
330
2F2
100
AcDbEntity
  8
0
  6
Continuous
 62
     7
370
    25
100
AcDbPolyline
 90
       10
 70
   128
 43
0.0
 10
-2.3586149507
 20
4.9528297732
 10
-2.363358149
 20
4.9101937497
 10
-2.3788228964
 20
4.8563565784
 10
-2.4040116555
 20
4.81248307
 10
-2.4380666531
 20
4.7800672842
 10
-2.4798281872
 20
4.7602131017
 10
-2.5278741189
 20
4.7535966329
 10
-2.5805683014
 20
4.7604431938
 10
-2.6361162978
 20
4.7805196327
 10
-2.6601941677
 20
4.7929439119
  0
SPLINE
  5
386
330
2F2
100
AcDbEntity
  8
0
  6
Continuous
 62
     7
370
    25
100
AcDbSpline
210
0.0
220
0.0
230
1.0
 70
     8
 71
     3
 72
     8
 73
     4
 74
     0
 42
0.000000001
 43
0.00000001
 40
0.0
 40
0.0
 40
0.0
 40
0.0
 40
1.0
 40
1.0
 40
1.0
 40
1.0
 10
-7.445936868540719
 20
7.675994519661339
 30
0.0
 10
-7.33772258188228
 20
7.738465297621357
 30
0.0
 10
-7.229508295223842
 20
7.800936075581375
 30
0.0
 10
-7.130689479525144
 20
8.058807540162338
 30
0.0
  0
LWPOLYLINE
  5
388
330
2F2
100
AcDbEntity
  8
0
  6
Continuous
 62
     7
370
    25
100
AcDbPolyline
 90
        9
 70
   128
 43
0.0
 10
-7.1306894795
 20
7.3678329025
 10
-7.072321462
 20
7.3407762052
 10
-7.0161964947
 20
7.3280361655
 10
-6.9644714286
 20
7.330102376
 10
-6.9191340289
 20
7.3468954333
 10
-6.8819265866
 20
7.3777699898
 10
-6.8542789627
 20
7.4215395535
 10
-6.83725364
 20
7.4765220846
 10
-6.8315048921
 20
7.5406046354
  0
SPLINE
  5
389
330
2F2
100
AcDbEntity
  8
0
  6
Continuous
 62
     7
370
    25
100
AcDbSpline
210
0.0
220
0.0
230
1.0
 70
     8
 71
     3
 72
    12
 73
     8
 74
     0
 42
0.000000001
 43
0.00000001
 40
0.0
 40
0.0
 40
0.0
 40
0.0
 40
0.0403937129213461
 40
0.3254606274734086
 40
0.6223367030051119
 40
0.8822391775459789
 40
0.9999999999999999
 40
0.9999999999999999
 40
0.9999999999999999
 40
0.9999999999999999
 10
-7.393996330631568
 20
7.415532969953035
 30
0.0
 10
-7.391130268201218
 20
7.417141639072158
 30
0.0
 10
-7.368037801341942
 20
7.430103023976955
 30
0.0
 10
-7.323860624430226
 20
7.44895278988353
 30
0.0
 10
-7.267277566035991
 20
7.458229280039376
 30
0.0
 10
-7.226177111590634
 20
7.451867210846379
 30
0.0
 10
-7.208068372115965
 20
7.439430068881353
 30
0.0
 10
-7.202421807911523
 20
7.435551989972353
 30
0.0
  0
SPLINE
  5
38A
330
2F2
100
AcDbEntity
  8
0
  6
Continuous
 62
     7
370
    25
100
AcDbSpline
210
0.0
220
0.0
230
1.0
 70
     8
 71
     3
 72
    27
 73
    23
 74
     0
 42
0.000000001
 43
0.00000001
 40
0.0
 40
0.0
 40
0.0
 40
0.0
 40
0.0365312608613572
 40
0.0708797549095303
 40
0.1030455306831404
 40
0.1330286514537679
 40
0.1608291995706911
 40
0.1864472826558821
 40
0.2098830426826152
 40
0.2311366697132339
 40
0.2502084234923475
 40
0.3856338836541149
 40
0.5003365483401733
 40
0.6366344774203674
 40
0.750298025595031
 40
0.8748893548704422
 40
0.9067517910130406
 40
0.9374280385831232
 40
0.9535488205991631
 40
0.9687245235450981
 40
0.9818988706204047
 40
1.0
 40
1.0
 40
1.0
 40
1.0
 10
-7.697441929058289
 20
7.530803738697215
 30
0.0
 10
-7.692482663728488
 20
7.531490420625593
 30
0.0
 10
-7.682860452427277
 20
7.532822754786419
 30
0.0
 10
-7.668876365081993
 20
7.534417448561358
 30
0.0
 10
-7.655793944288859
 20
7.535695791094795
 30
0.0
 10
-7.643616475608447
 20
7.536680872414247
 30
0.0
 10
-7.632345129158742
 20
7.537420894598179
 30
0.0
 10
-7.621978929421866
 20
7.537952776749943
 30
0.0
 10
-7.612515314586084
 20
7.538310756344737
 30
0.0
 10
-7.603950509347191
 20
7.53852596415244
 30
0.0
 10
-7.580388513278368
 20
7.53882217863518
 30
0.0
 10
-7.544565557191488
 20
7.537548738403096
 30
0.0
 10
-7.494559365029792
 20
7.531318836209691
 30
0.0
 10
-7.449422408482877
 20
7.520203374198774
 30
0.0
 10
-7.40737677133999
 20
7.501989169899892
 30
0.0
 10
-7.382420454464197
 20
7.482033597042887
 30
0.0
 10
-7.371010329868157
 20
7.464522685298537
 30
0.0
 10
-7.367397221609902
 20
7.456558923368894
 30
0.0
 10
-7.3653354596349
 20
7.449994305821873
 30
0.0
 10
-7.364246679547263
 20
7.445162862494745
 30
0.0
 10
-7.363607243890292
 20
7.43992679397365
 30
0.0
 10
-7.363460603465561
 20
7.436396995349634
 30
0.0
 10
-7.363375733222124
 20
7.434354073903838
 30
0.0
  0
LWPOLYLINE
  5
38D
330
2F2
100
AcDbEntity
  8
0
  6
Continuous
 62
     7
370
    25
100
AcDbPolyline
 90
        3
 70
   128
 43
0.0
 10
-7.429874067
 20
7.8860358073
 10
-7.424125319
 20
7.8153158935
 10
-7.4175844068
 20
7.7809377467
  0
LWPOLYLINE
  5
38E
330
2F2
100
AcDbEntity
  8
0
  6
Continuous
 62
     7
370
    25
100
AcDbPolyline
 90
        3
 70
   128
 43
0.0
 10
-7.2286132878
 20
7.4433926672
 10
-7.189057497
 20
7.4081664838
 10
-7.1306894795
 20
7.3678329025
  0
LWPOLYLINE
  5
38F
330
2F2
100
AcDbEntity
  8
0
  6
Continuous
 62
     7
370
    25
100
AcDbPolyline
 90
        9
 70
   128
 43
0.0
 10
-7.1306894795
 20
8.0588075402
 10
-7.189057497
 20
8.0858642375
 10
-7.2451824644
 20
8.0986042772
 10
-7.2969075305
 20
8.0965380667
 10
-7.3422449301
 20
8.0797450094
 10
-7.3794523725
 20
8.0488704529
 10
-7.4070999963
 20
8.0051008892
 10
-7.424125319
 20
7.9501183581
 10
-7.429874067
 20
7.8860358073
  0
LWPOLYLINE
  5
391
330
2F2
100
AcDbEntity
  8
0
  6
Continuous
 62
     7
370
    25
100
AcDbPolyline
 90
       10
 70
   128
 43
0.0
 10
-7.4243437791
 20
7.916419374
 10
-7.4196005808
 20
7.9590553974
 10
-7.4041358333
 20
8.0128925687
 10
-7.3789470743
 20
8.0567660772
 10
-7.3448920766
 20
8.089181863
 10
-7.3031305425
 20
8.1090360454
 10
-7.2550846109
 20
8.1156525142
 10
-7.2023904283
 20
8.1088059534
 10
-7.146842432
 20
8.0887295144
 10
-7.1227645621
 20
8.0763052353
  0
LWPOLYLINE
  5
392
330
2F2
100
AcDbEntity
  8
0
  6
Continuous
 62
     7
370
    25
100
AcDbPolyline
 90
       14
 70
   128
 43
0.0
 10
-7.2875856477
 20
8.1227996084
 10
-7.2556110173
 20
8.1364684834
 10
-7.2075650856
 20
8.1430849522
 10
-7.1548709031
 20
8.1362383914
 10
-7.0993229067
 20
8.1161619524
 10
-7.042812717
 20
8.0835393143
 10
-6.9872647207
 20
8.0394814019
 10
-6.9345705381
 20
7.9854885545
 10
-6.8865246064
 20
7.9233994338
 10
-6.8447630723
 20
7.8553284103
 10
-6.8107080747
 20
7.7835935612
 10
-6.7855193157
 20
7.7106377306
 10
-6.7700545682
 20
7.6389453419
 10
-6.7648404657
 20
7.5709577934
  0
LWPOLYLINE
  5
394
330
2F2
100
AcDbEntity
  8
0
  6
Continuous
 62
     7
370
    25
100
AcDbPolyline
 90
       10
 70
   128
 43
0.0
 10
-6.8128308951
 20
7.5241939049
 10
-6.8175740934
 20
7.4815578815
 10
-6.8330388409
 20
7.4277207101
 10
-6.8582276
 20
7.3838472017
 10
-6.8922825976
 20
7.3514314159
 10
-6.9340441317
 20
7.3315772335
 10
-6.9820900633
 20
7.3249607647
 10
-7.0347842459
 20
7.3318073255
 10
-7.0903322423
 20
7.3518837645
 10
-7.1144101121
 20
7.3643080436
  0
SPLINE
  5
396
330
2F2
100
AcDbEntity
  8
0
  6
Continuous
 62
     8
370
    25
100
AcDbSpline
210
0.0
220
0.0
230
1.0
 70
     8
 71
     3
 72
    16
 73
    12
 74
     0
 42
0.000000001
 43
0.00000001
 40
0.0
 40
0.0
 40
0.0
 40
0.0
 40
0.11252118252749
 40
0.2285839437018747
 40
0.3412283939624561
 40
0.4575111865002993
 40
0.5685339228736167
 40
0.6830438622608528
 40
0.7934170291552082
 40
0.9071892206880483
 40
1.0
 40
1.0
 40
1.0
 40
1.0
 10
-11.67343524038303
 20
16.32538166666368
 30
0.0
 10
-11.72842363894012
 20
16.29236836483706
 30
0.0
 10
-11.84013118340146
 20
16.2253026750119
 30
0.0
 10
-11.96322979186927
 20
16.10358089571137
 30
0.0
 10
-12.04954563363039
 20
15.96974559490199
 30
0.0
 10
-12.09155637279794
 20
15.82973515978256
 30
0.0
 10
-12.09005767352654
 20
15.68605472301718
 30
0.0
 10
-12.0460800557829
 20
15.5459655312054
 30
0.0
 10
-11.95942104697141
 20
15.41071882278114
 30
0.0
 10
-11.84509624252449
 20
15.29137116980105
 30
0.0
 10
-11.74438705047866
 20
15.22387102188397
 30
0.0
 10
-11.69914179836797
 20
15.19354547614205
 30
0.0
  0
SPLINE
  5
397
330
2F2
100
AcDbEntity
  8
0
  6
Continuous
 62
     8
370
    25
100
AcDbSpline
210
0.0
220
0.0
230
1.0
 70
     8
 71
     3
 72
    16
 73
    12
 74
     0
 42
0.000000001
 43
0.00000001
 40
0.0
 40
0.0
 40
0.0
 40
0.0
 40
0.0192677181863671
 40
0.1452344392583096
 40
0.2667688914874867
 40
0.3920783148988243
 40
0.5120441117492058
 40
0.6353775814607964
 40
0.7574973487996375
 40
0.8827923313231439
 40
1.0
 40
1.0
 40
1.0
 40
1.0
 10
8.15946363714016
 20
10.69922085516905
 30
0.0
 10
8.167909383014548
 20
10.70481716108378
 30
0.0
 10
8.231570951775337
 20
10.7470004826158
 30
0.0
 10
8.314405903533142
 20
10.83802242385115
 30
0.0
 10
8.40185029693841
 20
10.96918805040895
 30
0.0
 10
8.443004712712321
 20
11.10415359627021
 30
0.0
 10
8.442900553486865
 20
11.23931478176748
 30
0.0
 10
8.402068461175913
 20
11.36938907737249
 30
0.0
 10
8.320817297949343
 20
11.49312310827018
 30
0.0
 10
8.207032552163964
 20
11.60508590522834
 30
0.0
 10
8.105517222596765
 20
11.66870450541238
 30
0.0
 10
8.056452294627363
 20
11.69945298496569
 30
0.0
  0
LWPOLYLINE
  5
39B
330
2F2
100
AcDbEntity
  8
0
  6
Continuous
 62
     8
370
    25
100
AcDbPolyline
 90
       30
 70
   128
 43
0.0
 10
0.4430333987
 20
11.2634419869
 10
0.3435631456
 20
11.315053646
 10
0.2351533801
 20
11.3602692288
 10
0.1190324283
 20
11.3985764246
 10
-0.0034840132
 20
11.4295411975
 10
-0.1310077841
 20
11.4528127044
 10
-0.2620939891
 20
11.4681272697
 10
-0.3952573691
 20
11.4753113732
 10
-0.5289891298
 20
11.4742836163
 10
-0.661774037
 20
11.4650556439
 10
-0.7921075845
 20
11.4477320124
 10
-0.9185130413
 20
11.4225090057
 10
-1.0395581829
 20
11.3896724104
 10
-1.1538715195
 20
11.3495942784
 10
-1.2601578355
 20
11.3027287107
 10
-1.3572128642
 20
11.2496067132
 10
-1.4439369336
 20
11.1908301791
 10
-1.5193474251
 20
11.1270650702
 10
-1.5825899079
 20
11.0590338705
 10
-1.6329478193
 20
10.9875074009
 10
-1.6698505841
 20
10.9132960847
 10
-1.6928800791
 20
10.8372407658
 10
-1.7017753711
 20
10.7602031814
 10
-1.6964356727
 20
10.683056198
 10
-1.676921485
 20
10.6066739219
 10
-1.6434539114
 20
10.5319217948
 10
-1.596412153
 20
10.459646788
 10
-1.5363292116
 20
10.3906678064
 10
-1.4638858511
 20
10.3257664093
 10
-1.3981301959
 20
10.2776470511
  0
LWPOLYLINE
  5
39C
330
2F2
100
AcDbEntity
  8
0
  6
Continuous
 62
     8
370
    25
100
AcDbPolyline
 90
       14
 70
   128
 43
0.0
 10
0.6571769658
 20
10.4027441039
 10
0.6616945982
 20
10.4075600848
 10
0.7185754127
 20
10.4774379576
 10
0.762267676
 20
10.5504102745
 10
0.7922763373
 20
10.62565023
 10
0.8082613865
 20
10.7023053253
 10
0.8100417066
 20
10.7795070274
 10
0.7975971258
 20
10.8563806104
 10
0.7710686462
 20
10.9320550658
 10
0.7307568461
 20
11.0056729717
 10
0.6771184743
 20
11.0764002079
 10
0.610761275
 20
11.1434354065
 10
0.5324371017
 20
11.206019032
 10
0.4430333987
 20
11.2634419869
  0
LWPOLYLINE
  5
39D
330
2F2
100
AcDbEntity
  8
0
  6
Continuous
 62
     8
370
    25
100
AcDbPolyline
 90
       10
 70
   128
 43
0.0
 10
-11.9924028845
 20
14.8970021717
 10
-12.1021074544
 20
14.9664730792
 10
-12.2002404529
 20
15.0414910928
 10
-12.2859646439
 20
15.1214161852
 10
-12.3585486587
 20
15.2055664638
 10
-12.4173732363
 20
15.293223988
 10
-12.4619365059
 20
15.3836408946
 10
-12.4918582696
 20
15.4760457787
 10
-12.5068832453
 20
15.5696502742
 10
-12.5070797497
 20
15.5721717026
  0
LWPOLYLINE
  5
39F
330
2F2
100
AcDbEntity
  8
0
  6
Continuous
 62
     8
370
    25
100
AcDbPolyline
 90
       36
 70
   128
 43
0.0
 10
-1.1911182623
 20
10.1667615084
 10
-1.2277407525
 20
10.1996487149
 10
-1.2795588894
 20
10.2583581939
 10
-1.3182221828
 20
10.3203539463
 10
-1.3431208896
 20
10.3846582618
 10
-1.3538623423
 20
10.4502570231
 10
-1.3502771417
 20
10.5161156985
 10
-1.3324218286
 20
10.5811956574
 10
-1.3005779919
 20
10.6444705498
 10
-1.255247828
 20
10.7049424931
 10
-1.1971462206
 20
10.7616578084
 10
-1.1271894668
 20
10.8137220615
 10
-1.0464808264
 20
10.8603141678
 10
-0.9562931228
 20
10.9006993422
 10
-0.8580486701
 20
10.9342406862
 10
-0.7532968419
 20
10.9604092328
 10
-0.6436896371
 20
10.9787922884
 10
-0.5309556269
 20
10.9890999413
 10
-0.4168726938
 20
10.9911696335
 10
-0.303239994
 20
10.9849687249
 10
-0.191849583
 20
10.9705950074
 10
-0.084458154
 20
10.9482751632
 10
0.0172406659
 20
10.9183611895
 10
0.1116430255
 20
10.8813248475
 10
0.1972601433
 20
10.8377502226
 10
0.2727417862
 20
10.7883245126
 10
0.3368975636
 20
10.7338271904
 10
0.3887157005
 20
10.6751177113
 10
0.4273789939
 20
10.613121959
 10
0.4522777007
 20
10.5488176435
 10
0.4630191534
 20
10.4832188822
 10
0.4594339528
 20
10.4173602068
 10
0.4415786397
 20
10.3522802479
 10
0.409734803
 20
10.2890053554
 10
0.3644046391
 20
10.2285334122
 10
0.3427017005
 20
10.205397246
  0
LWPOLYLINE
  5
3A0
330
2F2
100
AcDbEntity
  8
0
  6
Continuous
 62
     8
370
    25
100
AcDbPolyline
 90
        9
 70
   128
 43
0.0
 10
-12.3996490347
 20
13.9001441888
 10
-12.3855956323
 20
13.8129445622
 10
-12.3574948607
 20
13.7261632958
 10
-12.3156436424
 20
13.6412490214
 10
-12.2603990372
 20
13.5589261979
 10
-12.1922323726
 20
13.4798971745
 10
-12.1117252226
 20
13.4048361989
 10
-12.0195644458
 20
13.334383665
 10
-11.9165363255
 20
13.2691406489
  0
LWPOLYLINE
  5
3A1
330
2F2
100
AcDbEntity
  8
0
  6
Continuous
 62
     8
370
    25
100
AcDbPolyline
 90
       20
 70
   128
 43
0.0
 10
0.1809525227
 20
10.7828729199
 10
0.0975078822
 20
10.8253418677
 10
0.0055009195
 20
10.8614384372
 10
-0.0936173606
 20
10.8905933637
 10
-0.1982838037
 20
10.9123468568
 10
-0.3068477573
 20
10.9263558508
 10
-0.4175971031
 20
10.9323994155
 10
-0.5287852578
 20
10.9303822403
 10
-0.6386587177
 20
10.9203361373
 10
-0.7454847128
 20
10.9024195394
 10
-0.8475785332
 20
10.8769150022
 10
-0.9433300985
 20
10.8442247475
 10
-1.0312293492
 20
10.80486432
 10
-1.1098900616
 20
10.7594544573
 10
-1.1780717095
 20
10.7087112999
 10
-1.2346990273
 20
10.6534350979
 10
-1.2788789685
 20
10.5944975899
 10
-1.3099147891
 20
10.5328282556
 10
-1.3273170355
 20
10.4693996573
 10
-1.3312483661
 20
10.4212748388
  0
LWPOLYLINE
  5
3A2
330
2F2
100
AcDbEntity
  8
0
  6
Continuous
 62
     8
370
    25
100
AcDbPolyline
 90
        8
 70
   128
 43
0.0
 10
0.4404049361
 20
10.4216521189
 10
0.4399680752
 20
10.4373375758
 10
0.4294991797
 20
10.5012718122
 10
0.405232261
 20
10.5639444486
 10
0.3675500228
 20
10.6243671001
 10
0.3170467366
 20
10.6815868652
 10
0.2545188693
 20
10.7347013542
 10
0.1809525227
 20
10.7828729199
  0
LWPOLYLINE
  5
3A3
330
2F2
100
AcDbEntity
  8
0
  6
Continuous
 62
     8
370
    25
100
AcDbPolyline
 90
       18
 70
   128
 43
0.0
 10
3.5216144811
 20
16.531406269
 10
3.4473227682
 20
16.5685686665
 10
3.3646258432
 20
16.5992492493
 10
3.2752071769
 20
16.6228234492
 10
3.1808870755
 20
16.6388113634
 10
3.0835856242
 20
16.6468875242
 10
2.9852836001
 20
16.6468875242
 10
2.8879821489
 20
16.6388113634
 10
2.7936620475
 20
16.6228234492
 10
2.7042433812
 20
16.5992492493
 10
2.6215464561
 20
16.5685686665
 10
2.5472547433
 20
16.531406269
 10
2.4828806076
 20
16.4885185761
 10
2.4297345209
 20
16.4407786574
 10
2.3888983843
 20
16.3891583601
 10
2.3612035037
 20
16.3347085246
 10
2.3472136671
 20
16.2785375924
 10
2.3455114284
 20
16.2551056617
  0
LWPOLYLINE
  5
3A4
330
2F2
100
AcDbEntity
  8
0
  6
Continuous
 62
     8
370
    25
100
AcDbPolyline
 90
        7
 70
   128
 43
0.0
 10
3.7233824558
 20
16.2465434788
 10
3.7216555573
 20
16.2785375924
 10
3.7076657206
 20
16.3347085246
 10
3.67997084
 20
16.3891583601
 10
3.6391347034
 20
16.4407786574
 10
3.5859886168
 20
16.4885185761
 10
3.5216144811
 20
16.531406269
  0
SPLINE
  5
3A5
330
2F2
100
AcDbEntity
  8
0
  6
Continuous
 62
     8
370
    25
100
AcDbSpline
210
0.0
220
0.0
230
1.0
 70
     8
 71
     3
 72
    18
 73
    14
 74
     0
 42
0.000000001
 43
0.00000001
 40
0.0
 40
0.0
 40
0.0
 40
0.0
 40
0.071926870477175
 40
0.1790023301698784
 40
0.2860777898625803
 40
0.3530946069216508
 40
0.4601700666143564
 40
0.5672455263070606
 40
0.6743209859997635
 40
0.781396445692465
 40
0.88847190538517
 40
0.9955473650778743
 40
1.0
 40
1.0
 40
1.0
 40
1.0
 10
0.2863589321597547
 20
15.61399385900367
 30
0.0
 10
0.2728009676612064
 20
15.60648775166471
 30
0.0
 10
0.2390596520513375
 20
15.58780751859933
 30
0.0
 10
0.2113251434705211
 20
15.52033366636179
 30
0.0
 10
0.2060424841789074
 20
15.4374209665911
 30
0.0
 10
0.2216308777433657
 20
15.34464986514849
 30
0.0
 10
0.2565386055389061
 20
15.24772760090143
 30
0.0
 10
0.3193849171661065
 20
15.1440291896385
 30
0.0
 10
0.3978173654813105
 20
15.05927247046778
 30
0.0
 10
0.4838567853801726
 20
15.00175921401108
 30
0.0
 10
0.5646425054844096
 20
14.98277134761066
 30
0.0
 10
0.6178612009010328
 20
14.98531733378943
 30
0.0
 10
0.6350039938328224
 20
15.00275551530407
 30
0.0
 10
0.6356884007415436
 20
15.00345171527286
 30
0.0
  0
SPLINE
  5
3A7
330
2F2
100
AcDbEntity
  8
0
  6
Continuous
 62
     8
370
    25
100
AcDbSpline
210
0.0
220
0.0
230
1.0
 70
     8
 71
     3
 72
     9
 73
     5
 74
     0
 42
0.000000001
 43
0.00000001
 40
0.0
 40
0.0
 40
0.0
 40
0.0
 40
0.334602326832161
 40
1.0
 40
1.0
 40
1.0
 40
1.0
 10
-2.748205863429338
 20
4.864187858247282
 30
0.0
 10
-2.738672857785286
 20
4.858947039969897
 30
0.0
 10
-2.710182303836349
 20
4.843284213213728
 30
0.0
 10
-2.689941631391269
 20
4.815173544412099
 30
0.0
 10
-2.676473535042961
 20
4.796468770800304
 30
0.0
  0
SPLINE
  5
3A9
330
2F2
100
AcDbEntity
  8
0
  6
Continuous
 62
     8
370
    25
100
AcDbSpline
210
0.0
220
0.0
230
1.0
 70
     8
 71
     3
 72
    12
 73
     8
 74
     0
 42
0.000000001
 43
0.00000001
 40
0.0
 40
0.0
 40
0.0
 40
0.0
 40
0.0068421736784702
 40
0.1632951690357268
 40
0.4267569073977309
 40
0.6869944655999951
 40
1.0
 40
1.0
 40
1.0
 40
1.0
 10
-3.184222892067226
 20
5.053322443669988
 30
0.0
 10
-3.184342877080812
 20
5.053280683958146
 30
0.0
 10
-3.187206436820161
 20
5.052284047578477
 30
0.0
 10
-3.195264816150311
 20
5.044459744650451
 30
0.0
 10
-3.208470948295881
 20
5.02774195042221
 30
0.0
 10
-3.225292776168821
 20
4.99892337753066
 30
0.0
 10
-3.236892329087112
 20
4.973384495942632
 30
0.0
 10
-3.243225984576107
 20
4.959439606972142
 30
0.0
  0
SPLINE
  5
3AD
330
2F2
100
AcDbEntity
  8
0
  6
Continuous
 62
     8
370
    25
100
AcDbSpline
210
0.0
220
0.0
230
1.0
 70
     8
 71
     3
 72
    13
 73
     9
 74
     0
 42
0.000000001
 43
0.00000001
 40
0.0
 40
0.0
 40
0.0
 40
0.0
 40
0.2459206668059253
 40
0.4180410457356682
 40
0.6442701581387936
 40
0.8362236954279865
 40
0.992849316752511
 40
1.0
 40
1.0
 40
1.0
 40
1.0
 10
-3.243225984576107
 20
4.959439606972145
 30
0.0
 10
-3.248192811710388
 20
4.970535889383643
 30
0.0
 10
-3.256635931339863
 20
4.989398482606613
 30
0.0
 10
-3.269704617967125
 20
5.01358255352975
 30
0.0
 10
-3.281398082853459
 20
5.032498589041429
 30
0.0
 10
-3.292511485921831
 20
5.045684877597028
 30
0.0
 10
-3.299237630078672
 20
5.052277697993818
 30
0.0
 10
-3.30211143313615
 20
5.053279616407245
 30
0.0
 10
-3.302236907058848
 20
5.053323361448585
 30
0.0
  0
SPLINE
  5
3AE
330
2F2
100
AcDbEntity
  8
0
  6
Continuous
 62
     8
370
    25
100
AcDbSpline
210
0.0
220
0.0
230
1.0
 70
     8
 71
     3
 72
    12
 73
     8
 74
     0
 42
0.000000001
 43
0.00000001
 40
0.0
 40
0.0
 40
0.0
 40
0.0
 40
0.0071221549049533
 40
0.163805037427824
 40
0.4272703786427854
 40
0.6879349967613506
 40
1.0
 40
1.0
 40
1.0
 40
1.0
 10
-7.461359735184682
 20
7.454334209319927
 30
0.0
 10
-7.461859182817488
 20
7.454651093714959
 30
0.0
 10
-7.473346161025194
 20
7.461939233453752
 30
0.0
 10
-7.505741809307618
 20
7.477459937504022
 30
0.0
 10
-7.558532625186301
 20
7.498818373268334
 30
0.0
 10
-7.625611141711179
 20
7.518421438008065
 30
0.0
 10
-7.672107377668638
 20
7.526436530084903
 30
0.0
 10
-7.697441929058289
 20
7.530803738697215
 30
0.0
  0
SPLINE
  5
3B2
330
2F2
100
AcDbEntity
  8
0
  6
Continuous
 62
     8
370
    25
100
AcDbSpline
210
0.0
220
0.0
230
1.0
 70
     8
 71
     3
 72
     9
 73
     5
 74
     0
 42
0.000000001
 43
0.00000001
 40
0.0
 40
0.0
 40
0.0
 40
0.0
 40
0.3346023268321828
 40
1.0
 40
1.0
 40
1.0
 40
1.0
 10
-7.202421807911522
 20
7.435551989972352
 30
0.0
 10
-7.192888802267469
 20
7.430311171694965
 30
0.0
 10
-7.164398248318532
 20
7.414648344938796
 30
0.0
 10
-7.144157575873453
 20
7.386537676137173
 30
0.0
 10
-7.130689479525144
 20
7.367832902525375
 30
0.0
  0
SPLINE
  5
3B4
330
2F2
100
AcDbEntity
  8
0
  6
Continuous
 62
     8
370
    25
100
AcDbSpline
210
0.0
220
0.0
230
1.0
 70
     8
 71
     3
 72
     9
 73
     5
 74
     0
 42
0.000000001
 43
0.00000001
 40
0.0
 40
0.0
 40
0.0
 40
0.0
 40
0.6642432161505804
 40
1.0
 40
1.0
 40
1.0
 40
1.0
 10
-7.363375733222125
 20
7.434354073903837
 30
0.0
 10
-7.363884477655684
 20
7.427208465662387
 30
0.0
 10
-7.364650378490182
 20
7.416450947832002
 30
0.0
 10
-7.369969018494678
 20
7.406151357869862
 30
0.0
 10
-7.37175478795704
 20
7.402693200669204
 30
0.0
  0
LWPOLYLINE
  5
3B5
330
2F2
100
AcDbEntity
  8
0
  6
Continuous
 62
     8
370
    25
100
AcDbPolyline
 90
        6
 70
   128
 43
0.0
 10
-7.8277756818
 20
7.5154683113
 10
-7.8277828807
 20
7.5154641548
 10
-7.8087991664
 20
7.522495758
 10
-7.787140803
 20
7.5233609233
 10
-7.7636401092
 20
7.5180264031
 10
-7.7392002035
 20
7.5066972
  0
LINE
  5
3B9
330
2F2
100
AcDbEntity
  8
0
  6
Continuous
 62
     7
370
    25
100
AcDbLine
 10
3.1983462023
 20
5.8110089604
 30
0.0
 11
12.3851665878
 21
11.1144474821
 31
0.0
  0
LINE
  5
3BA
330
2F2
100
AcDbEntity
  8
0
  6
Continuous
 62
     7
370
    25
100
AcDbLine
 10
-11.884067294
 20
13.2036808392
 30
0.0
 11
0.9218035463
 21
5.8110089604
 31
0.0
  0
LINE
  5
3BB
330
2F2
100
AcDbEntity
  8
0
  6
Continuous
 62
     7
370
    25
100
AcDbLine
 10
-12.5075538234
 20
15.5789438535
 30
0.0
 11
-12.4003359792
 21
13.9095804202
 31
0.0
  0
LINE
  5
3BC
330
2F2
100
AcDbEntity
  8
0
  6
Continuous
 62
     7
370
    25
100
AcDbLine
 10
-2.7731134675
 20
21.7186618821
 30
0.0
 11
-11.959933853
 21
16.4152233604
 31
0.0
  0
LINE
  5
3BD
330
2F2
100
AcDbEntity
  8
0
  6
Continuous
 62
     7
370
    25
100
AcDbLine
 10
-11.7189264551
 20
13.1083470621
 30
0.0
 11
-11.7189264551
 21
1.3419306562
 31
0.0
  0
LINE
  5
3BE
330
2F2
100
AcDbEntity
  8
0
  6
Continuous
 62
     7
370
    25
100
AcDbLine
 10
-3.0802964023
 20
5.1134014992
 30
0.0
 11
-3.1842612383
 21
5.053383877
 31
0.0
  0
LINE
  5
3BF
330
2F2
100
AcDbEntity
  8
0
  6
Continuous
 62
     7
370
    25
100
AcDbLine
 10
-3.1964087808
 20
4.6372364724
 30
0.0
 11
-2.9031454458
 21
4.8065337921
 31
0.0
  0
LINE
  5
3C0
330
2F2
100
AcDbEntity
  8
0
  6
Continuous
 62
     7
370
    25
100
AcDbLine
 10
-3.302196918
 20
5.0533874487
 30
0.0
 11
-7.4613199038
 21
7.4543980415
 31
0.0
  0
LINE
  5
3C1
330
2F2
100
AcDbEntity
  8
0
  6
Continuous
 62
     7
370
    25
100
AcDbLine
 10
-2.9750712084
 20
5.3360873382
 30
0.0
 11
-2.9763643534
 21
5.3176882789
 31
0.0
  0
LINE
  5
3C2
330
2F2
100
AcDbEntity
  8
0
  6
Continuous
 62
     7
370
    25
100
AcDbLine
 10
-2.8333697032
 20
5.5514354767
 30
0.0
 11
-2.8808892284
 21
5.5240030387
 31
0.0
  0
LINE
  5
3C3
330
2F2
100
AcDbEntity
  8
0
  6
Continuous
 62
     7
370
    25
100
AcDbLine
 10
-7.7490419233
 20
7.2163971475
 30
0.0
 11
-3.2948259789
 21
4.6450330158
 31
0.0
  0
LINE
  5
3C4
330
2F2
100
AcDbEntity
  8
0
  6
Continuous
 62
     7
370
    25
100
AcDbLine
 10
-2.4478535568
 20
4.7738819768
 30
0.0
 11
-2.4003340316
 21
4.8013144148
 31
0.0
  0
LINE
  5
3C5
330
2F2
100
AcDbEntity
  8
0
  6
Continuous
 62
     7
370
    25
100
AcDbLine
 10
-7.5345123468
 20
7.684765631
 30
0.0
 11
-7.8277756818
 21
7.5154683113
 31
0.0
  0
LINE
  5
3C6
330
2F2
100
AcDbEntity
  8
0
  6
Continuous
 62
     7
370
    25
100
AcDbLine
 10
-7.4292871529
 20
7.9074514699
 30
0.0
 11
-7.4305802978
 21
7.8890524106
 31
0.0
  0
LINE
  5
3C7
330
2F2
100
AcDbEntity
  8
0
  6
Continuous
 62
     7
370
    25
100
AcDbLine
 10
-7.2875856477
 20
8.1227996084
 30
0.0
 11
-7.3351051729
 21
8.0953671704
 31
0.0
  0
LINE
  5
3C8
330
2F2
100
AcDbEntity
  8
0
  6
Continuous
 62
     7
370
    25
100
AcDbLine
 10
-6.9020695013
 20
7.3452461085
 30
0.0
 11
-6.8545499761
 21
7.3726785465
 31
0.0
  0
LINE
  5
3C9
330
2F2
100
AcDbEntity
  8
0
  6
Continuous
 62
     7
370
    25
100
AcDbLine
 10
3.1954790028
 20
7.7038452351
 30
0.0
 11
12.3822993883
 21
13.0072837568
 31
0.0
  0
LINE
  5
3CA
330
2F2
100
AcDbEntity
  8
0
  6
Continuous
 62
     7
370
    25
100
AcDbLine
 10
-11.8812000945
 20
15.0965171138
 30
0.0
 11
0.9246707458
 21
7.7038452351
 31
0.0
  0
LINE
  5
3CB
330
2F2
100
AcDbEntity
  8
0
  6
Continuous
 62
     7
370
    25
100
AcDbLine
 10
-2.6943797091
 20
21.7108653387
 30
0.0
 11
-11.8812000945
 21
16.407426817
 31
0.0
  0
LINE
  5
3CC
330
2F2
100
AcDbEntity
  8
0
  6
Continuous
 62
     7
370
    25
100
AcDbLine
 10
12.3822993883
 20
13.0072837568
 30
0.0
 11
-2.6943797091
 21
21.7108653387
 31
0.0
  0
LINE
  5
3CD
330
2F2
100
AcDbEntity
  8
0
  6
Continuous
 62
     7
370
    25
100
AcDbLine
 10
3.2308152337
 20
5.8764687702
 30
0.0
 11
3.3066817927
 21
7.504330293
 31
0.0
  0
LINE
  5
3CE
330
2F2
100
AcDbEntity
  8
0
  6
Continuous
 62
     7
370
    25
100
AcDbLine
 10
0.8893345149
 20
5.8764687702
 30
0.0
 11
0.8134679559
 21
7.504330293
 31
0.0
  0
LINE
  5
3CF
330
2F2
100
AcDbEntity
  8
0
  6
Continuous
 62
     7
370
    25
100
AcDbLine
 10
-3.6329698797
 20
14.393395598
 30
0.0
 11
-6.6952433415
 21
12.6255827575
 31
0.0
  0
LINE
  5
3D0
330
2F2
100
AcDbEntity
  8
0
  6
Continuous
 62
     7
370
    25
100
AcDbLine
 10
5.8322390023
 20
9.5720878511
 30
0.0
 11
-2.5194158936
 21
14.393395598
 31
0.0
  0
LINE
  5
3D1
330
2F2
100
AcDbEntity
  8
0
  6
Continuous
 62
     7
370
    25
100
AcDbLine
 10
-11.6991417984
 20
15.1935454761
 30
0.0
 11
-11.6735076465
 21
15.175259821
 31
0.0
  0
LINE
  5
3D2
330
2F2
100
AcDbEntity
  8
0
  6
Continuous
 62
     7
370
    25
100
AcDbLine
 10
-6.7733494566
 20
19.1525428543
 30
0.0
 11
-11.6445365772
 21
16.3404663862
 31
0.0
  0
LINE
  5
3D3
330
2F2
100
AcDbEntity
  8
0
  6
Continuous
 62
     7
370
    25
100
AcDbLine
 10
7.9783612297
 20
11.7407691227
 30
0.0
 11
-4.665538121
 21
19.0399368508
 31
0.0
  0
LINE
  5
3D4
330
2F2
100
AcDbEntity
  8
0
  6
Continuous
 62
     7
370
    25
100
AcDbLine
 10
12.4935021782
 20
12.8077688146
 30
0.0
 11
3.3066817927
 21
7.504330293
 31
0.0
  0
LINE
  5
3D5
330
2F2
100
AcDbEntity
  8
0
  6
Continuous
 62
     7
370
    25
100
AcDbLine
 10
0.8134679559
 20
7.504330293
 30
0.0
 11
-11.9924028845
 21
14.8970021717
 31
0.0
  0
LINE
  5
3D6
330
2F2
100
AcDbEntity
  8
0
  6
Continuous
 62
     7
370
    25
100
AcDbLine
 10
12.4176356192
 20
11.1799072919
 30
0.0
 11
12.4935021782
 21
12.8077688146
 31
0.0
  0
LINE
  5
3D7
330
2F2
100
AcDbEntity
  8
0
  6
Continuous
 62
     7
370
    25
100
AcDbLine
 10
3.2308152337
 20
5.8764687702
 30
0.0
 11
12.4176356192
 21
11.1799072919
 31
0.0
  0
LINE
  5
3D8
330
2F2
100
AcDbEntity
  8
0
  6
Continuous
 62
     7
370
    25
100
AcDbLine
 10
-11.9165363255
 20
13.2691406489
 30
0.0
 11
0.8893345149
 21
5.8764687702
 31
0.0
  0
LINE
  5
3D9
330
2F2
100
AcDbEntity
  8
0
  6
Continuous
 62
     7
370
    25
100
AcDbLine
 10
-11.9165363255
 20
13.2691406489
 30
0.0
 11
-11.9924028845
 21
14.8970021717
 31
0.0
  0
LINE
  5
3DA
330
2F2
100
AcDbEntity
  8
0
  6
Continuous
 62
     7
370
    25
100
AcDbLine
 10
-12.5070797497
 20
15.5721717026
 30
0.0
 11
-12.5075538234
 21
15.5789438535
 31
0.0
  0
LINE
  5
3DB
330
2F2
100
AcDbEntity
  8
0
  6
Continuous
 62
     7
370
    25
100
AcDbLine
 10
-1.3312483661
 20
10.4212748388
 30
0.0
 11
-1.3310603261
 21
10.4107386431
 31
0.0
  0
LINE
  5
3DC
330
2F2
100
AcDbEntity
  8
0
  6
Continuous
 62
     7
370
    25
100
AcDbLine
 10
2.3455114284
 20
16.2551056617
 30
0.0
 11
2.3454582342
 21
16.2501633171
 31
0.0
  0
LINE
  5
3DD
330
2F2
100
AcDbEntity
  8
0
  6
Continuous
 62
     7
370
    25
100
AcDbLine
 10
-11.5113643315
 20
11.9827260513
 30
0.0
 11
1.8234446523
 21
4.284704682
 31
0.0
  0
LINE
  5
3DE
330
2F2
100
AcDbEntity
  8
0
  6
Continuous
 62
     7
370
    25
100
AcDbLine
 10
-11.5113643315
 20
12.9885239986
 30
0.0
 11
-11.5113643315
 21
1.0526521914
 31
0.0
  0
LINE
  5
3DF
330
2F2
100
AcDbEntity
  8
0
  6
Continuous
 62
     7
370
    25
100
AcDbLine
 10
1.8234446523
 20
5.5477255217
 30
0.0
 11
1.8234446523
 21
-6.6453691779
 31
0.0
  0
LINE
  5
3E0
330
2F2
100
AcDbEntity
  8
0
  6
Continuous
 62
     7
370
    25
100
AcDbLine
 10
1.8095252274
 20
4.2284456428
 30
0.0
 11
1.8234446523
 21
4.2364811557
 31
0.0
  0
LINE
  5
3E1
330
2F2
100
AcDbEntity
  8
0
  6
Continuous
 62
     7
370
    25
100
AcDbLine
 10
1.8095252274
 20
4.2284456428
 30
0.0
 11
-11.4974449067
 21
11.9103959863
 31
0.0
  0
LINE
  5
3E2
330
2F2
100
AcDbEntity
  8
0
  6
Continuous
 62
     7
370
    25
100
AcDbLine
 10
-11.4974449067
 20
11.9103959863
 30
0.0
 11
-11.4417581575
 21
11.9425432623
 31
0.0
  0
LINE
  5
3E3
330
2F2
100
AcDbEntity
  8
0
  6
Continuous
 62
     7
370
    25
100
AcDbLine
 10
-11.4974449067
 20
1.0446166785
 30
0.0
 11
1.8095252274
 21
-6.637333665
 31
0.0
  0
LINE
  5
3E4
330
2F2
100
AcDbEntity
  8
0
  6
Continuous
 62
     7
370
    25
100
AcDbLine
 10
-11.4974449067
 20
11.9103959863
 30
0.0
 11
-11.4974449067
 21
1.0446166785
 31
0.0
  0
LINE
  5
3E5
330
2F2
100
AcDbEntity
  8
0
  6
Continuous
 62
     7
370
    25
100
AcDbLine
 10
1.8095252274
 20
-6.637333665
 30
0.0
 11
1.8095252274
 21
4.2284456428
 31
0.0
  0
LINE
  5
3E6
330
2F2
100
AcDbEntity
  8
0
  6
Continuous
 62
     7
370
    25
100
AcDbLine
 10
1.8095252274
 20
-6.637333665
 30
0.0
 11
1.8234446523
 21
-6.6292981521
 31
0.0
  0
LINE
  5
3E7
330
2F2
100
AcDbEntity
  8
0
  6
Continuous
 62
     7
370
    25
100
AcDbLine
 10
12.0124636253
 20
10.8992906416
 30
0.0
 11
12.0124636253
 21
-1.3419306562
 31
0.0
  0
LINE
  5
3E8
330
2F2
100
AcDbEntity
  8
0
  6
Continuous
 62
     7
370
    25
100
AcDbLine
 10
2.8256432398
 20
-6.6453691779
 30
0.0
 11
12.0124636253
 21
-1.3419306562
 31
0.0
  0
LINE
  5
3E9
330
2F2
100
AcDbEntity
  8
0
  6
Continuous
 62
     7
370
    25
100
AcDbLine
 10
-11.5113643315
 20
1.0526521914
 30
0.0
 11
-11.4974449067
 21
1.0606877043
 31
0.0
  0
LINE
  5
3EA
330
2F2
100
AcDbEntity
  8
0
  6
Continuous
 62
     7
370
    25
100
AcDbLine
 10
-2.8664461006
 20
4.8876480295
 30
0.0
 11
-3.1597094356
 21
4.7183507098
 31
0.0
  0
LINE
  5
3EB
330
2F2
100
AcDbEntity
  8
0
  6
Continuous
 62
     7
370
    25
100
AcDbLine
 10
-3.2849842591
 20
4.9353330682
 30
0.0
 11
-3.2432259846
 21
4.959439607
 31
0.0
  0
LINE
  5
3EC
330
2F2
100
AcDbEntity
  8
0
  6
Continuous
 62
     7
370
    25
100
AcDbLine
 10
-7.7531196284
 20
7.2254098406
 30
0.0
 11
-3.2989036839
 21
4.6540457088
 31
0.0
  0
LINE
  5
3ED
330
2F2
100
AcDbEntity
  8
0
  6
Continuous
 62
     7
370
    25
100
AcDbLine
 10
-3.2989036839
 20
4.9112239173
 30
0.0
 11
-7.7531196284
 21
7.482588049
 31
0.0
  0
LINE
  5
3EE
330
2F2
100
AcDbEntity
  8
0
  6
Continuous
 62
     7
370
    25
100
AcDbLine
 10
-3.1945787205
 20
4.6383375227
 30
0.0
 11
-3.1964087808
 21
4.6372364724
 31
0.0
  0
LINE
  5
3EF
330
2F2
100
AcDbEntity
  8
0
  6
Continuous
 62
     7
370
    25
100
AcDbLine
 10
-7.7392002035
 20
7.5066972
 30
0.0
 11
-3.2849842591
 21
4.9353330682
 31
0.0
  0
LINE
  5
3F0
330
2F2
100
AcDbEntity
  8
0
  6
Continuous
 62
     7
370
    25
100
AcDbLine
 10
-3.2432259846
 20
4.959439607
 30
0.0
 11
-7.6974419291
 21
7.5308037387
 31
0.0
  0
LINE
  5
3F1
330
2F2
100
AcDbEntity
  8
0
  6
Continuous
 62
     7
370
    25
100
AcDbLine
 10
-7.7392002035
 20
7.5066972
 30
0.0
 11
-7.6974419291
 21
7.5308037387
 31
0.0
  0
LINE
  5
3F2
330
2F2
100
AcDbEntity
  8
0
  6
Continuous
 62
     7
370
    25
100
AcDbLine
 10
-2.3106245212
 20
4.9995936617
 30
0.0
 11
-2.3581440465
 21
4.9721612237
 31
0.0
  0
LINE
  5
3F3
330
2F2
100
AcDbEntity
  8
0
  6
Continuous
 62
     7
370
    25
100
AcDbLine
 10
-7.8296057421
 20
7.514367261
 30
0.0
 11
-7.8277756818
 21
7.5154683113
 31
0.0
  0
LINE
  5
3F4
330
2F2
100
AcDbEntity
  8
0
  6
Continuous
 62
     7
370
    25
100
AcDbLine
 10
-7.3206620451
 20
7.4590121612
 30
0.0
 11
-7.3633757332
 21
7.4343540739
 31
0.0
  0
LINE
  5
3F5
330
2F2
100
AcDbEntity
  8
0
  6
Continuous
 62
     7
370
    25
100
AcDbLine
 10
-6.7648404657
 20
7.5709577934
 30
0.0
 11
-6.8123599909
 21
7.5435253554
 31
0.0
  0
LINE
  5
3F6
330
2F2
100
AcDbEntity
  8
0
  6
Continuous
 62
     8
370
    25
100
AcDbLine
 10
2.8256432398
 20
5.6505596616
 30
0.0
 11
2.8256432398
 21
-6.6453691779
 31
0.0
  0
LINE
  5
3F7
330
2F2
100
AcDbEntity
  8
0
  6
Continuous
 62
     8
370
    25
100
AcDbLine
 10
-2.3581440465
 20
4.9721612237
 30
0.0
 11
-2.3586149507
 21
4.9528297732
 31
0.0
  0
LINE
  5
3F8
330
2F2
100
AcDbEntity
  8
0
  6
Continuous
 62
     8
370
    25
100
AcDbLine
 10
-6.8123599909
 20
7.5435253554
 30
0.0
 11
-6.8128308951
 21
7.5241939049
 31
0.0
  0
ARC
  5
3F9
330
2F2
100
AcDbEntity
  8
0
  6
Continuous
 62
     7
370
    25
100
AcDbCircle
 10
1.0533689224
 20
7.5013655001
 30
0.0
 40
0.2399192858454268
100
AcDbArc
 50
122.4404541696
 51
179.2919517135
  0
ARC
  5
3FA
330
2F2
100
AcDbEntity
  8
0
  6
Continuous
 62
     7
370
    25
100
AcDbCircle
 10
3.0667808262
 20
7.5013655001
 30
0.0
 40
0.2399192858454328
100
AcDbArc
 50
0.7080482865
 51
57.5595458304
  0
ARC
  5
3FB
330
2F2
100
AcDbEntity
  8
0
  6
Continuous
 62
     7
370
    25
100
AcDbCircle
 10
3.1621677449
 20
7.7173471584
 30
0.0
 40
0.0730507023247679
100
AcDbArc
 50
51.8238050011
 51
118.8598988856
  0
ARC
  5
3FC
330
2F2
100
AcDbEntity
  8
0
  6
Continuous
 62
     7
370
    25
100
AcDbCircle
 10
1.0981629102
 20
7.7170405876
 30
0.0
 40
0.0739331799852069
100
AcDbArc
 50
62.446045243
 51
127.8413439193
  0
ARC
  5
3FD
330
2F2
100
AcDbEntity
  8
0
  6
Continuous
 62
     7
370
    25
100
AcDbCircle
 10
-11.7114299527
 20
15.1040083291
 30
0.0
 40
0.0807147842534793
100
AcDbArc
 50
61.9766743606
 51
124.5490078118
  0
ARC
  5
3FE
330
2F2
100
AcDbEntity
  8
0
  6
Continuous
 62
     7
370
    25
100
AcDbCircle
 10
12.2536012117
 20
12.8048040218
 30
0.0
 40
0.2399192858454664
100
AcDbArc
 50
0.7080482865
 51
57.5595458304
  0
ARC
  5
3FF
330
2F2
100
AcDbEntity
  8
0
  6
Continuous
 62
     7
370
    25
100
AcDbCircle
 10
-11.752501918
 20
14.8940373788
 30
0.0
 40
0.2399192858454216
100
AcDbArc
 50
122.4404541695
 51
179.2919517135
  0
ARC
  5
400
330
2F2
100
AcDbEntity
  8
0
  6
Continuous
 62
     7
370
    25
100
AcDbCircle
 10
8.064303061
 20
10.5431514566
 30
0.0
 40
0.0761327176558546
100
AcDbArc
 50
53.4720937879
 51
120.1208745226
  0
ARC
  5
401
330
2F2
100
AcDbEntity
  8
0
  6
Continuous
 62
     7
370
    25
100
AcDbCircle
 10
12.3444846574
 20
11.175408784
 30
0.0
 40
0.0732891519403889
100
AcDbArc
 50
303.7167777616
 51
3.5190423775
  0
ARC
  5
402
330
2F2
100
AcDbEntity
  8
0
  6
Continuous
 62
     7
370
    25
100
AcDbCircle
 10
8.2849968566
 20
11.6782524375
 30
0.0
 40
0.2295257719968141
100
AcDbArc
 50
118.4326409954
 51
174.7002213409
  0
ARC
  5
403
330
2F2
100
AcDbEntity
  8
0
  6
Continuous
 62
     7
370
    25
100
AcDbCircle
 10
-4.4887670322
 20
19.0745408544
 30
0.0
 40
0.2612439640539717
100
AcDbArc
 50
127.2631805633
 51
176.1405738019
  0
ARC
  5
404
330
2F2
100
AcDbEntity
  8
0
  6
Continuous
 62
     7
370
    25
100
AcDbCircle
 10
-11.8746463017
 20
16.2181697882
 30
0.0
 40
0.2279918377347109
100
AcDbArc
 50
28.0501604042
 51
59.3260230831
  0
ARC
  5
405
330
2F2
100
AcDbEntity
  8
0
  6
Continuous
 62
     7
370
    25
100
AcDbCircle
 10
3.2900167638
 20
15.7890586202
 30
0.0
 40
0.4803885658052927
100
AcDbArc
 50
40.1256347017
 51
61.1770283065
  0
ARC
  5
406
330
2F2
100
AcDbEntity
  8
0
  6
Continuous
 62
     7
370
    25
100
AcDbCircle
 10
-6.9800022785
 20
19.0483283726
 30
0.0
 40
0.2314433991156093
100
AcDbArc
 50
26.7616908766
 51
57.8580602376
  0
ARC
  5
407
330
2F2
100
AcDbEntity
  8
0
  6
Continuous
 62
     7
370
    25
100
AcDbCircle
 10
-2.7404591176
 20
21.6469768191
 30
0.0
 40
0.0787721703868327
100
AcDbArc
 50
54.19908268
 51
114.4904588909
  0
ARC
  5
408
330
2F2
100
AcDbEntity
  8
0
  6
Continuous
 62
     7
370
    25
100
AcDbCircle
 10
1.0584686278
 20
15.6557529234
 30
0.0
 40
0.5754893854928177
100
AcDbArc
 50
192.2130571519
 51
227.9209810858
  0
ARC
  5
409
330
2F2
100
AcDbEntity
  8
0
  6
Continuous
 62
     7
370
    25
100
AcDbCircle
 10
2.324543946
 20
-5.6831180083
 30
0.0
 40
1.084909127863686
100
AcDbArc
 50
242.4914255688
 51
297.5085744312
  0
ARC
  5
40A
330
2F2
100
AcDbEntity
  8
0
  6
Continuous
 62
     7
370
    25
100
AcDbCircle
 10
-3.1384332052
 20
4.8752711068
 30
0.0
 40
0.2722685682706379
100
AcDbArc
 50
2.6054784857
 51
57.39452166
  0
ARC
  5
40B
330
2F2
100
AcDbEntity
  8
0
  6
Continuous
 62
     7
370
    25
100
AcDbCircle
 10
-3.0268556158
 20
4.9396816155
 30
0.0
 40
0.650238867166047
100
AcDbArc
 50
2.6054784857
 51
57.39452166
  0
ARC
  5
40C
330
2F2
100
AcDbEntity
  8
0
  6
Continuous
 62
     7
370
    25
100
AcDbCircle
 10
-3.4293146004
 20
4.7073490008
 30
0.0
 40
0.2420165051294614
100
AcDbArc
 50
2.6054784857
 51
57.39452166
  0
ARC
  5
40D
330
2F2
100
AcDbEntity
  8
0
  6
Continuous
 62
     7
370
    25
100
AcDbCircle
 10
-3.2686828945
 20
4.9098487037
 30
0.0
 40
0.030252063141177
100
AcDbArc
 50
122.60547834
 51
177.3945215144
  0
ARC
  5
40E
330
2F2
100
AcDbEntity
  8
0
  6
Continuous
 62
     7
370
    25
100
AcDbCircle
 10
-3.4316965402
 20
4.7059737871
 30
0.0
 40
0.2722685682706382
100
AcDbArc
 50
2.6054784857
 51
57.39452166
  0
ARC
  5
40F
330
2F2
100
AcDbEntity
  8
0
  6
Continuous
 62
     7
370
    25
100
AcDbCircle
 10
-3.1736288604
 20
4.7452151012
 30
0.0
 40
0.0302563367699154
100
AcDbArc
 50
242.6096722366
 51
297.3903277634
  0
ARC
  5
410
330
2F2
100
AcDbEntity
  8
0
  6
Continuous
 62
     7
370
    25
100
AcDbCircle
 10
-3.2554340124
 20
4.7073385528
 30
0.0
 40
0.06877310195724
100
AcDbArc
 50
230.7967147643
 51
9.2140369905
  0
ARC
  5
411
330
2F2
100
AcDbEntity
  8
0
  6
Continuous
 62
     7
370
    25
100
AcDbCircle
 10
-7.722898839
 20
7.4812128354
 30
0.0
 40
0.0302520631411838
100
AcDbArc
 50
122.60547834
 51
177.3945215143
  0
ARC
  5
412
330
2F2
100
AcDbEntity
  8
0
  6
Continuous
 62
     7
370
    25
100
AcDbCircle
 10
-2.372038543
 20
4.9990312554
 30
0.0
 40
0.0302498866271681
100
AcDbArc
 50
260.0046795441
 51
297.3434899563
  0
ARC
  5
413
330
2F2
100
AcDbEntity
  8
0
  6
Continuous
 62
     7
370
    25
100
AcDbCircle
 10
-2.5250646435
 20
4.9771812827
 30
0.0
 40
0.2156081649721258
100
AcDbArc
 50
305.3455294364
 51
5.966650957
  0
ARC
  5
414
330
2F2
100
AcDbEntity
  8
0
  6
Continuous
 62
     7
370
    25
100
AcDbCircle
 10
-7.5926491497
 20
7.4466352385
 30
0.0
 40
0.2722685682706382
100
AcDbArc
 50
2.6054784857
 51
57.39452166
  0
ARC
  5
415
330
2F2
100
AcDbEntity
  8
0
  6
Continuous
 62
     7
370
    25
100
AcDbCircle
 10
-7.4810715603
 20
7.5110457472
 30
0.0
 40
0.6502388671660393
100
AcDbArc
 50
2.6054784857
 51
57.39452166
  0
ARC
  5
416
330
2F2
100
AcDbEntity
  8
0
  6
Continuous
 62
     7
370
    25
100
AcDbCircle
 10
-6.8262544875
 20
7.5703953872
 30
0.0
 40
0.0302498866272142
100
AcDbArc
 50
260.0046795442
 51
297.3434899563
  0
ARC
  5
417
330
2F2
100
AcDbEntity
  8
0
  6
Continuous
 62
     7
370
    25
100
AcDbCircle
 10
-6.9732413946
 20
7.5458130403
 30
0.0
 40
0.2099123764810668
100
AcDbArc
 50
304.4323761967
 51
6.8798041967
  0
ARC
  5
418
330
2F2
100
AcDbEntity
  8
0
  6
Continuous
 62
     8
370
    25
100
AcDbCircle
 10
0.9643863202
 20
5.8729099634
 30
0.0
 40
0.0751361336960616
100
AcDbArc
 50
177.2851819936
 51
235.4488178299
  0
ARC
  5
419
330
2F2
100
AcDbEntity
  8
0
  6
Continuous
 62
     8
370
    25
100
AcDbCircle
 10
3.1557639633
 20
5.8729098369
 30
0.0
 40
0.0751356054418997
100
AcDbArc
 50
304.5497350559
 51
2.7149336608
  0
ARC
  5
41A
330
2F2
100
AcDbEntity
  8
0
  6
Continuous
 62
     8
370
    25
100
AcDbCircle
 10
-11.8414966386
 20
13.2655789766
 30
0.0
 40
0.0751241647067745
100
AcDbArc
 50
177.2825612183
 51
235.4816186426
  0
ARC
  5
41B
330
2F2
100
AcDbEntity
  8
0
  6
Continuous
 62
     8
370
    25
100
AcDbCircle
 10
-11.9272750318
 20
16.3435509898
 30
0.0
 40
0.0787592607183871
100
AcDbArc
 50
54.1963195793
 51
114.5214956683
  0
ARC
  5
41C
330
2F2
100
AcDbEntity
  8
0
  6
Continuous
 62
     8
370
    25
100
AcDbCircle
 10
-2.9532574613
 20
4.8780657335
 30
0.0
 40
0.0873386096499121
100
AcDbArc
 50
305.0133328765
 51
6.2988475169
  0
ARC
  5
41D
330
2F2
100
AcDbEntity
  8
0
  6
Continuous
 62
     8
370
    25
100
AcDbCircle
 10
-3.0436162094
 20
5.0321907824
 30
0.0
 40
0.0891101402188268
100
AcDbArc
 50
54.3824225248
 51
114.3071190461
  0
ARC
  5
41E
330
2F2
100
AcDbEntity
  8
0
  6
Continuous
 62
     8
370
    25
100
AcDbCircle
 10
-3.2890477025
 20
4.6530759154
 30
0.0
 40
0.009903578565641
100
AcDbArc
 50
174.3803889961
 51
234.2931481246
  0
ARC
  5
41F
330
2F2
100
AcDbEntity
  8
0
  6
Continuous
 62
     8
370
    25
100
AcDbCircle
 10
-3.2492753389
 20
4.7097785031
 30
0.0
 40
0.0899751841683204
100
AcDbArc
 50
307.4383783156
 51
5.4670334082
  0
ARC
  5
420
330
2F2
100
AcDbEntity
  8
0
  6
Continuous
 62
     8
370
    25
100
AcDbCircle
 10
-3.0174504417
 20
4.9448534737
 30
0.0
 40
0.6598716814538889
100
AcDbArc
 50
2.3717728784
 51
58.0795087856
  0
ARC
  5
421
330
2F2
100
AcDbEntity
  8
0
  6
Continuous
 62
     8
370
    25
100
AcDbCircle
 10
-7.7434739216
 20
7.224345141
 30
0.0
 40
0.0097042899553353
100
AcDbArc
 50
173.7011524629
 51
234.9866671437
  0
ARC
  5
422
330
2F2
100
AcDbEntity
  8
0
  6
Continuous
 62
     8
370
    25
100
AcDbCircle
 10
-7.4161935872
 20
7.4515280056
 30
0.0
 40
0.0958242564636533
100
AcDbArc
 50
317.9092983784
 51
4.4795306295
  0
ARC
  5
423
330
2F2
100
AcDbEntity
  8
0
  6
Continuous
 62
     8
370
    25
100
AcDbCircle
 10
-7.4978321538
 20
7.6035549141
 30
0.0
 40
0.0891101402188266
100
AcDbArc
 50
54.3824225248
 51
114.3071190461
  0
ARC
  5
424
330
2F2
100
AcDbEntity
  8
0
  6
Continuous
 62
     8
370
    25
100
AcDbCircle
 10
-7.4716663862
 20
7.5162176054
 30
0.0
 40
0.659871681453887
100
AcDbArc
 50
2.3717728784
 51
58.0795087856
  0
VIEWPORT
  5
42B
330
2F2
100
AcDbEntity
  8
0
100
AcDbViewport
 10
0.0
 20
0.0
 30
0.0
 40
8.4
 41
6.4
 68
     1
 69
     1
 12
0.0
 22
8.9173228346
 13
0.0
 23
0.0
 14
0.5
 24
0.5
 15
0.5
 25
0.5
 16
0.0
 26
0.0
 36
1.0
 17
0.0
 27
0.0
 37
0.0
 42
50.0
 43
0.0
 44
0.0
 45
18.1913385827
 50
0.0
 51
0.0
 72
   100
 90
   557152
  1

281
     0
 71
     1
 74
     0
110
0.0
120
0.0
130
0.0
111
1.0
121
0.0
131
0.0
112
0.0
122
1.0
132
0.0
 79
     0
146
0.0
  0
ENDBLK
  5
2F5
330
2F2
100
AcDbEntity
  8
0
100
AcDbBlockEnd
  0
ENDSEC
  0
SECTION
  2
ENTITIES
  0
LINE
  5
BE
330
1F
100
AcDbEntity
  8
0
  6
Continuous
 62
     7
370
    25
100
AcDbLine
 10
10.8180865212
 20
17.6689234715
 30
0.0
 11
-10.8180865212
 21
17.6689234715
 31
0.0
  0
LINE
  5
BF
330
1F
100
AcDbEntity
  8
0
  6
Continuous
 62
     7
370
    25
100
AcDbLine
 10
-9.0551181102
 20
15.4735325867
 30
0.0
 11
-9.0551181102
 21
17.8346456693
 31
0.0
  0
LINE
  5
C0
330
1F
100
AcDbEntity
  8
0
  6
Continuous
 62
     7
370
    25
100
AcDbLine
 10
9.0551181102
 20
15.4735325867
 30
0.0
 11
9.0551181102
 21
17.8346456693
 31
0.0
  0
LINE
  5
C1
330
1F
100
AcDbEntity
  8
0
  6
Continuous
 62
     7
370
    25
100
AcDbLine
 10
-10.6608220275
 20
17.8346456693
 30
0.0
 11
10.6608220275
 21
17.8346456693
 31
0.0
  0
LINE
  5
C2
330
1F
100
AcDbEntity
  8
0
  6
Continuous
 62
     7
370
    25
100
AcDbLine
 10
10.7107950045
 20
15.621679377
 30
0.0
 11
10.8180865212
 21
17.6689234715
 31
0.0
  0
LINE
  5
C3
330
1F
100
AcDbEntity
  8
0
  6
Continuous
 62
     7
370
    25
100
AcDbLine
 10
-10.7107950045
 20
15.621679377
 30
0.0
 11
10.7107950045
 21
15.621679377
 31
0.0
  0
LINE
  5
C4
330
1F
100
AcDbEntity
  8
0
  6
Continuous
 62
     7
370
    25
100
AcDbLine
 10
-10.7107950045
 20
15.621679377
 30
0.0
 11
-10.8180865212
 21
17.6689234715
 31
0.0
  0
LINE
  5
C5
330
1F
100
AcDbEntity
  8
0
  6
Continuous
 62
     7
370
    25
100
AcDbLine
 10
10.572040846
 20
15.4735325867
 30
0.0
 11
-10.572040846
 21
15.4735325867
 31
0.0
  0
LINE
  5
C6
330
1F
100
AcDbEntity
  8
0
  6
Continuous
 62
     7
370
    25
100
AcDbLine
 10
8.9905596478
 20
13.3858267717
 30
0.0
 11
8.9884429769
 21
13.3070866142
 31
0.0
  0
LINE
  5
C7
330
1F
100
AcDbEntity
  8
0
  6
Continuous
 62
     7
370
    25
100
AcDbLine
 10
-8.9884429769
 20
13.3070866142
 30
0.0
 11
-8.9905596478
 21
13.3858267717
 31
0.0
  0
LINE
  5
C8
330
1F
100
AcDbEntity
  8
0
  6
Continuous
 62
     7
370
    25
100
AcDbLine
 10
-9.4291338583
 20
13.3858267717
 30
0.0
 11
9.4291338583
 21
13.3858267717
 31
0.0
  0
LINE
  5
C9
330
1F
100
AcDbEntity
  8
0
  6
Continuous
 62
     7
370
    25
100
AcDbLine
 10
-9.4291338583
 20
15.4735325867
 30
0.0
 11
-9.4291338583
 21
0.0
 31
0.0
  0
LINE
  5
CA
330
1F
100
AcDbEntity
  8
0
  6
Continuous
 62
     7
370
    25
100
AcDbLine
 10
9.4291338583
 20
15.4735325867
 30
0.0
 11
9.4291338583
 21
0.0
 31
0.0
  0
LINE
  5
CB
330
1F
100
AcDbEntity
  8
0
  6
Continuous
 62
     7
370
    25
100
AcDbLine
 10
-9.4094488189
 20
13.3070866142
 30
0.0
 11
-9.4094488189
 21
0.0
 31
0.0
  0
LINE
  5
CC
330
1F
100
AcDbEntity
  8
0
  6
Continuous
 62
     7
370
    25
100
AcDbLine
 10
9.4094488189
 20
13.3070866142
 30
0.0
 11
-9.4094488189
 21
13.3070866142
 31
0.0
  0
LINE
  5
CD
330
1F
100
AcDbEntity
  8
0
  6
Continuous
 62
     7
370
    25
100
AcDbLine
 10
9.4094488189
 20
0.0
 30
0.0
 11
9.4094488189
 21
13.3070866142
 31
0.0
  0
LINE
  5
CE
330
1F
100
AcDbEntity
  8
0
  6
Continuous
 62
     7
370
    25
100
AcDbLine
 10
10.1377952756
 20
15.4735325867
 30
0.0
 11
10.1377952756
 21
0.0
 31
0.0
  0
LINE
  5
CF
330
1F
100
AcDbEntity
  8
0
  6
Continuous
 62
     7
370
    25
100
AcDbLine
 10
-10.1377952756
 20
0.0
 30
0.0
 11
-10.1377952756
 21
15.4735325867
 31
0.0
  0
LINE
  5
D0
330
1F
100
AcDbEntity
  8
0
  6
Continuous
 62
     7
370
    25
100
AcDbLine
 10
-10.1377952756
 20
0.0
 30
0.0
 11
10.1377952756
 21
0.0
 31
0.0
  0
LINE
  5
D1
330
1F
100
AcDbEntity
  8
0
  6
Continuous
 62
     7
370
    25
100
AcDbLine
 10
9.4291338583
 20
0.7086614173
 30
0.0
 11
9.4094488189
 21
0.7086614173
 31
0.0
  0
LINE
  5
D2
330
1F
100
AcDbEntity
  8
0
  6
Continuous
 62
     7
370
    25
100
AcDbLine
 10
-9.4094488189
 20
0.7086614173
 30
0.0
 11
-9.4291338583
 21
0.7086614173
 31
0.0
  0
LINE
  5
D3
330
1F
100
AcDbEntity
  8
0
  6
Continuous
 62
     7
370
    25
100
AcDbLine
 10
-3.1496062992
 20
11.1811023622
 30
0.0
 11
3.1496062992
 21
11.1811023622
 31
0.0
  0
LINE
  5
D4
330
1F
100
AcDbEntity
  8
0
  6
Continuous
 62
     7
370
    25
100
AcDbLine
 10
3.1496062992
 20
11.4960629921
 30
0.0
 11
-3.1496062992
 21
11.4960629921
 31
0.0
  0
LINE
  5
D5
330
1F
100
AcDbEntity
  8
0
  6
Continuous
 62
     7
370
    25
100
AcDbLine
 10
-3.1496062992
 20
11.1614173228
 30
0.0
 11
-3.1496062992
 21
11.1811023622
 31
0.0
  0
LINE
  5
D6
330
1F
100
AcDbEntity
  8
0
  6
Continuous
 62
     7
370
    25
100
AcDbLine
 10
-3.1496062992
 20
11.4960629921
 30
0.0
 11
-3.1496062992
 21
11.5157480315
 31
0.0
  0
LINE
  5
D7
330
1F
100
AcDbEntity
  8
0
  6
Continuous
 62
     7
370
    25
100
AcDbLine
 10
3.1496062992
 20
11.1614173228
 30
0.0
 11
3.1496062992
 21
11.1811023622
 31
0.0
  0
LINE
  5
D8
330
1F
100
AcDbEntity
  8
0
  6
Continuous
 62
     7
370
    25
100
AcDbLine
 10
3.3267716535
 20
11.3385826772
 30
0.0
 11
3.3070866142
 21
11.3385826772
 31
0.0
  0
LINE
  5
D9
330
1F
100
AcDbEntity
  8
0
  6
Continuous
 62
     7
370
    25
100
AcDbLine
 10
3.1496062992
 20
11.1614173228
 30
0.0
 11
-3.1496062992
 21
11.1614173228
 31
0.0
  0
LINE
  5
DA
330
1F
100
AcDbEntity
  8
0
  6
Continuous
 62
     7
370
    25
100
AcDbLine
 10
3.1496062992
 20
11.4960629921
 30
0.0
 11
3.1496062992
 21
11.5157480315
 31
0.0
  0
LINE
  5
DB
330
1F
100
AcDbEntity
  8
0
  6
Continuous
 62
     7
370
    25
100
AcDbLine
 10
-3.1496062992
 20
11.5157480315
 30
0.0
 11
3.1496062992
 21
11.5157480315
 31
0.0
  0
LINE
  5
DC
330
1F
100
AcDbEntity
  8
0
  6
Continuous
 62
     7
370
    25
100
AcDbLine
 10
-3.5826771654
 20
11.3385826772
 30
0.0
 11
-3.5727172005
 21
11.3385826772
 31
0.0
  0
LINE
  5
DD
330
1F
100
AcDbEntity
  8
0
  6
Continuous
 62
     7
370
    25
100
AcDbLine
 10
3.5727172005
 20
11.3385826772
 30
0.0
 11
3.5826771654
 21
11.3385826772
 31
0.0
  0
LINE
  5
DE
330
1F
100
AcDbEntity
  8
0
  6
Continuous
 62
     8
370
    25
100
AcDbLine
 10
8.6016555355
 20
13.3070866142
 30
0.0
 11
8.6034194279
 21
13.3858267717
 31
0.0
  0
LINE
  5
DF
330
1F
100
AcDbEntity
  8
0
  6
Continuous
 62
     8
370
    25
100
AcDbLine
 10
-8.6034194279
 20
13.3858267717
 30
0.0
 11
-8.6016555355
 21
13.3070866142
 31
0.0
  0
ARC
  5
E0
330
1F
100
AcDbEntity
  8
0
  6
Continuous
 62
     7
370
    25
100
AcDbCircle
 10
-10.6608220275
 20
17.6771653543
 30
0.0
 40
0.1574803149606332
100
AcDbArc
 50
90.0
 51
183.0
  0
ARC
  5
E1
330
1F
100
AcDbEntity
  8
0
  6
Continuous
 62
     7
370
    25
100
AcDbCircle
 10
10.6608220275
 20
17.6771653543
 30
0.0
 40
0.1574803149606339
100
AcDbArc
 50
357.0
 51
90.0
  0
ARC
  5
E2
330
1F
100
AcDbEntity
  8
0
  6
Continuous
 62
     7
370
    25
100
AcDbCircle
 10
-10.5535305109
 20
15.6299212598
 30
0.0
 40
0.157480314960637
100
AcDbArc
 50
183.0
 51
263.2498136127
  0
ARC
  5
E3
330
1F
100
AcDbEntity
  8
0
  6
Continuous
 62
     7
370
    25
100
AcDbCircle
 10
10.5535305109
 20
15.6299212598
 30
0.0
 40
0.1574803149606293
100
AcDbArc
 50
276.7501863873
 51
357.0
  0
ARC
  5
E4
330
1F
100
AcDbEntity
  8
0
  6
Continuous
 62
     7
370
    25
100
AcDbCircle
 10
3.1496062992
 20
11.3385826772
 30
0.0
 40
0.1574803149606314
100
AcDbArc
 50
270.0
 51
90.0
  0
ARC
  5
E5
330
1F
100
AcDbEntity
  8
0
  6
Continuous
 62
     7
370
    25
100
AcDbCircle
 10
-3.1496062992
 20
11.3385826772
 30
0.0
 40
0.1574803149606314
100
AcDbArc
 50
90.0
 51
270.0
  0
ARC
  5
E6
330
1F
100
AcDbEntity
  8
0
  6
Continuous
 62
     7
370
    25
100
AcDbCircle
 10
-3.1496062992
 20
11.3385826772
 30
0.0
 40
0.177165354330711
100
AcDbArc
 50
90.0
 51
270.0
  0
ARC
  5
E7
330
1F
100
AcDbEntity
  8
0
  6
Continuous
 62
     7
370
    25
100
AcDbCircle
 10
3.1496062992
 20
11.3385826772
 30
0.0
 40
0.177165354330711
100
AcDbArc
 50
270.0
 51
90.0
  0
ARC
  5
E8
330
1F
100
AcDbEntity
  8
0
  6
Continuous
 62
     7
370
    25
100
AcDbCircle
 10
-3.1496062992
 20
11.3385826772
 30
0.0
 40
0.4231109012427716
100
AcDbArc
 50
24.7538554335
 51
335.2461445665
  0
ARC
  5
E9
330
1F
100
AcDbEntity
  8
0
  6
Continuous
 62
     7
370
    25
100
AcDbCircle
 10
3.1496062992
 20
11.3385826772
 30
0.0
 40
0.4231109012427782
100
AcDbArc
 50
204.7538554335
 51
155.2461445665
  0
ARC
  5
EA
330
1F
100
AcDbEntity
  8
0
  6
Continuous
 62
     7
370
    25
100
AcDbCircle
 10
-3.1496062992
 20
11.3385826772
 30
0.0
 40
0.4330708661417325
100
AcDbArc
 50
24.147739917
 51
335.852260083
  0
ARC
  5
EB
330
1F
100
AcDbEntity
  8
0
  6
Continuous
 62
     7
370
    25
100
AcDbCircle
 10
3.1496062992
 20
11.3385826772
 30
0.0
 40
0.4330708661417325
100
AcDbArc
 50
204.147739917
 51
155.852260083
  0
SPLINE
  5
EC
330
1B
100
AcDbEntity
 67
     1
  8
0
  6
Continuous
 62
     7
370
    25
100
AcDbSpline
210
0.0
220
0.0
230
1.0
 70
     8
 71
     3
 72
    15
 73
    11
 74
     0
 42
0.000000001
 43
0.00000001
 40
0.0
 40
0.0
 40
0.0
 40
0.0
 40
0.2182502814011426
 40
0.3934699035960038
 40
0.539635881025545
 40
0.6616946309867042
 40
0.755603528314221
 40
0.8330277986691884
 40
0.9218120110776714
 40
0.9999999999999999
 40
0.9999999999999999
 40
0.9999999999999999
 40
0.9999999999999999
 10
3.543307086614173
 20
13.1539097203531
 30
0.0
 10
3.544348810100654
 20
13.16362941326672
 30
0.0
 10
3.546226868800821
 20
13.18115244512334
 30
0.0
 10
3.558717514609594
 20
13.20207776825556
 30
0.0
 10
3.57249314012765
 20
13.21573695818818
 30
0.0
 10
3.585424062828169
 20
13.22368495194928
 30
0.0
 10
3.594885622324703
 20
13.22747517831604
 30
0.0
 10
3.600333509560445
 20
13.22902628230814
 30
0.0
 10
3.603041999629788
 20
13.22957500481546
 30
0.0
 10
3.602899419407781
 20
13.2295472806404
 30
0.0
 10
3.602832653438775
 20
13.22953429825485
 30
0.0
  0
SPLINE
  5
EF
330
1B
100
AcDbEntity
 67
     1
  8
0
  6
Continuous
 62
     7
370
    25
100
AcDbSpline
210
0.0
220
0.0
230
1.0
 70
     8
 71
     3
 72
    13
 73
     9
 74
     0
 42
0.000000001
 43
0.00000001
 40
0.0
 40
0.0
 40
0.0
 40
0.0
 40
0.2284206520623048
 40
0.4228128191162263
 40
0.5908589767990033
 40
0.7551430311947638
 40
0.9249355509956909
 40
1.0
 40
1.0
 40
1.0
 40
1.0
 10
-1.4778399130995
 20
13.15447974600938
 30
0.0
 10
-1.477577888640752
 20
13.15441995144804
 30
0.0
 10
-1.477092874264512
 20
13.15430927009405
 30
0.0
 10
-1.470107660394326
 20
13.15133608931496
 30
0.0
 10
-1.457958216890507
 20
13.14359688058342
 30
0.0
 10
-1.443212972971601
 20
13.12706242437775
 30
0.0
 10
-1.432831225840331
 20
13.10619602792415
 30
0.0
 10
-1.433394925004375
 20
13.09230635917708
 30
0.0
 10
-1.433567735144759
 20
13.08804828011796
 30
0.0
  0
SPLINE
  5
F0
330
1B
100
AcDbEntity
 67
     1
  8
0
  6
Continuous
 62
     7
370
    25
100
AcDbSpline
210
0.0
220
0.0
230
1.0
 70
     8
 71
     3
 72
    16
 73
    12
 74
     0
 42
0.000000001
 43
0.00000001
 40
0.0
 40
0.0
 40
0.0
 40
0.0
 40
0.0008063578390565
 40
0.1132590747588214
 40
0.2412617648435285
 40
0.3809111240241044
 40
0.5282545149513586
 40
0.6800280086512803
 40
0.8486686466444484
 40
0.9986789701001426
 40
1.0
 40
1.0
 40
1.0
 40
1.0
 10
1.378419699501576
 20
11.54866885870264
 30
0.0
 10
1.378418784123202
 20
11.54872248375523
 30
0.0
 10
1.378290212287425
 20
11.55625452914024
 30
0.0
 10
1.381438976649079
 20
11.57900103628488
 30
0.0
 10
1.391635780118487
 20
11.61336471554974
 30
0.0
 10
1.411640643723482
 20
11.65023193904674
 30
0.0
 10
1.441148480736196
 20
11.68367287347152
 30
0.0
 10
1.480364936276329
 20
11.71162863892512
 30
0.0
 10
1.52551261503169
 20
11.72782426728228
 30
0.0
 10
1.558371971386572
 20
11.73393305724387
 30
0.0
 10
1.573511057723864
 20
11.7322673142288
 30
0.0
 10
1.573643212662445
 20
11.73225277331392
 30
0.0
  0
SPLINE
  5
118
330
1B
100
AcDbEntity
 67
     1
  8
0
  6
Continuous
 62
     7
370
    25
100
AcDbSpline
210
0.0
220
0.0
230
1.0
 70
     8
 71
     3
 72
     8
 73
     4
 74
     0
 42
0.000000001
 43
0.00000001
 40
0.0
 40
0.0
 40
0.0
 40
0.0
 40
1.0
 40
1.0
 40
1.0
 40
1.0
 10
6.145529343434059
 20
12.784303927524
 30
0.0
 10
6.165726237292216
 20
12.762715487004
 30
0.0
 10
6.185827275863501
 20
12.74016852382278
 30
0.0
 10
6.205819698254819
 20
12.71653543307087
 30
0.0
  0
SPLINE
  5
119
330
1B
100
AcDbEntity
 67
     1
  8
0
  6
Continuous
 62
     7
370
    25
100
AcDbSpline
210
0.0
220
0.0
230
1.0
 70
     8
 71
     3
 72
     8
 73
     4
 74
     0
 42
0.000000001
 43
0.00000001
 40
0.0
 40
0.0
 40
0.0
 40
0.0
 40
1.0
 40
1.0
 40
1.0
 40
1.0
 10
-6.20581969825501
 20
12.71653543307064
 30
0.0
 10
-6.185827275863629
 20
12.74016852382264
 30
0.0
 10
-6.165726237292281
 20
12.76271548700393
 30
0.0
 10
-6.145529343434059
 20
12.784303927524
 30
0.0
  0
SPLINE
  5
129
330
1B
100
AcDbEntity
 67
     1
  8
0
  6
Continuous
 62
     7
370
    25
100
AcDbSpline
210
0.0
220
0.0
230
1.0
 70
     8
 71
     3
 72
     8
 73
     4
 74
     0
 42
0.000000001
 43
0.00000001
 40
0.0
 40
0.0
 40
0.0
 40
0.0
 40
1.0
 40
1.0
 40
1.0
 40
1.0
 10
6.242894745879511
 20
12.59002518242598
 30
0.0
 10
6.224856877795472
 20
12.61132844116024
 30
0.0
 10
6.206737100337825
 20
12.63162346467925
 30
0.0
 10
6.188545465857896
 20
12.65103302054637
 30
0.0
  0
SPLINE
  5
12D
330
1B
100
AcDbEntity
 67
     1
  8
0
  6
Continuous
 62
     7
370
    25
100
AcDbSpline
210
0.0
220
0.0
230
1.0
 70
     8
 71
     3
 72
     8
 73
     4
 74
     0
 42
0.000000001
 43
0.00000001
 40
0.0
 40
0.0
 40
0.0
 40
0.0
 40
1.0
 40
1.0
 40
1.0
 40
1.0
 10
-6.188545465857896
 20
12.65103302054637
 30
0.0
 10
-6.206737100337886
 20
12.63162346467919
 30
0.0
 10
-6.224856877795591
 20
12.6113284411601
 30
0.0
 10
-6.24289474587969
 20
12.59002518242577
 30
0.0
  0
SPLINE
  5
12F
330
1B
100
AcDbEntity
 67
     1
  8
0
  6
Continuous
 62
     7
370
    25
100
AcDbSpline
210
0.0
220
0.0
230
1.0
 70
     8
 71
     3
 72
     8
 73
     4
 74
     0
 42
0.000000001
 43
0.00000001
 40
0.0
 40
0.0
 40
0.0
 40
0.0
 40
1.0
 40
1.0
 40
1.0
 40
1.0
 10
6.245453744264095
 20
12.5688631953054
 30
0.0
 10
6.243757593450216
 20
12.57591717120775
 30
0.0
 10
6.242980396738464
 20
12.58297116617862
 30
0.0
 10
6.242894745879513
 20
12.59002518242599
 30
0.0
  0
SPLINE
  5
130
330
1B
100
AcDbEntity
 67
     1
  8
0
  6
Continuous
 62
     7
370
    25
100
AcDbSpline
210
0.0
220
0.0
230
1.0
 70
     8
 71
     3
 72
    38
 73
    34
 74
     0
 42
0.000000001
 43
0.00000001
 40
0.0
 40
0.0
 40
0.0
 40
0.0
 40
0.1250000000000018
 40
0.1250000000000018
 40
0.1875000000000026
 40
0.1875000000000026
 40
0.2500000000000035
 40
0.2500000000000035
 40
0.3125000000000043
 40
0.3125000000000043
 40
0.3437500000000043
 40
0.3437500000000043
 40
0.3750000000000043
 40
0.3750000000000043
 40
0.5000000000000024
 40
0.5000000000000024
 40
0.5312500000000024
 40
0.5312500000000024
 40
0.5625000000000024
 40
0.5625000000000024
 40
0.6250000000000032
 40
0.6250000000000032
 40
0.687500000000004
 40
0.687500000000004
 40
0.7187500000000039
 40
0.7187500000000039
 40
0.7500000000000038
 40
0.7500000000000038
 40
0.8750000000000018
 40
0.8750000000000018
 40
0.9375000000000009
 40
0.9375000000000009
 40
1.0
 40
1.0
 40
1.0
 40
1.0
 10
4.993490977014363
 20
13.01386429706162
 30
0.0
 10
5.084251698726133
 20
13.0138518466004
 30
0.0
 10
5.173408365684938
 20
13.00787446903346
 30
0.0
 10
5.30475225477075
 20
12.99051074445784
 30
0.0
 10
5.348186877205102
 20
12.98330751926941
 30
0.0
 10
5.433977266260158
 20
12.96618969537071
 30
0.0
 10
5.475601349543325
 20
12.95642575948645
 30
0.0
 10
5.556369009062498
 20
12.93482841462478
 30
0.0
 10
5.595512056397064
 20
12.92299405383102
 30
0.0
 10
5.652356508377848
 20
12.90393743983238
 30
0.0
 10
5.670992449471997
 20
12.89736773865812
 30
0.0
 10
5.707632413552154
 20
12.88383606252848
 30
0.0
 10
5.725673143090774
 20
12.87685914991962
 30
0.0
 10
5.813859662624974
 20
12.84127145515421
 30
0.0
 10
5.876421911704302
 20
12.81123418085797
 30
0.0
 10
5.945677178589355
 20
12.77406866705784
 30
0.0
 10
5.959077778478535
 20
12.76665382592942
 30
0.0
 10
5.984992650187194
 20
12.75191735552836
 30
0.0
 10
5.997542106977479
 20
12.74457415930187
 30
0.0
 10
6.033539685336592
 20
12.72297496327742
 30
0.0
 10
6.055380006814836
 20
12.70913483579521
 30
0.0
 10
6.095187694923741
 20
12.68289237105452
 30
0.0
 10
6.113154248589322
 20
12.67048927707469
 30
0.0
 10
6.13743433912843
 20
12.65317905125867
 30
0.0
 10
6.145081824512624
 20
12.64762455183212
 30
0.0
 10
6.159513735790813
 20
12.63698185481185
 30
0.0
 10
6.166303455689891
 20
12.63188927769457
 30
0.0
 10
6.197864150928092
 20
12.60789998560618
 30
0.0
 10
6.215856339834507
 20
12.59321017113214
 30
0.0
 10
6.233753929760137
 20
12.57844740192306
 30
0.0
 10
6.238189440428787
 20
12.57473631459055
 30
0.0
 10
6.244062286258097
 20
12.56986753965702
 30
0.0
 10
6.245488330059038
 20
12.56871935941412
 30
0.0
 10
6.245453744264096
 20
12.5688631953054
 30
0.0
  0
SPLINE
  5
131
330
1B
100
AcDbEntity
 67
     1
  8
0
  6
Continuous
 62
     7
370
    25
100
AcDbSpline
210
0.0
220
0.0
230
1.0
 70
     8
 71
     3
 72
    10
 73
     6
 74
     0
 42
0.000000001
 43
0.00000001
 40
0.0
 40
0.0
 40
0.0
 40
0.0
 40
0.5
 40
0.5
 40
1.0
 40
1.0
 40
1.0
 40
1.0
 10
4.993490977014332
 20
13.01386429706162
 30
0.0
 10
4.94377359383904
 20
13.05793186720061
 30
0.0
 10
4.899051344320079
 20
13.10200567106477
 30
0.0
 10
4.817027847672296
 20
13.19016253990452
 30
0.0
 10
4.779753215293471
 20
13.23424464671591
 30
0.0
 10
4.74545966637278
 20
13.27832957680243
 30
0.0
  0
SPLINE
  5
132
330
1B
100
AcDbEntity
 67
     1
  8
0
  6
Continuous
 62
     7
370
    25
100
AcDbSpline
210
0.0
220
0.0
230
1.0
 70
     8
 71
     3
 72
    20
 73
    16
 74
     0
 42
0.000000001
 43
0.00000001
 40
0.0
 40
0.0
 40
0.0
 40
0.0
 40
0.2500000000000079
 40
0.2500000000000079
 40
0.3125000000000082
 40
0.3125000000000082
 40
0.3750000000000083
 40
0.3750000000000083
 40
0.5000000000000087
 40
0.5000000000000087
 40
0.750000000000005
 40
0.750000000000005
 40
0.8750000000000032
 40
0.8750000000000032
 40
1.0
 40
1.0
 40
1.0
 40
1.0
 10
5.847554774378707
 20
12.941113240338
 30
0.0
 10
5.766224262920885
 20
12.99599112776144
 30
0.0
 10
5.681430317375628
 20
13.04442389743421
 30
0.0
 10
5.571157297647013
 20
13.09699909735883
 30
0.0
 10
5.548887547563043
 20
13.1071137710736
 30
0.0
 10
5.503914480840177
 20
13.12653629284489
 30
0.0
 10
5.481195907881655
 20
13.1358483124436
 30
0.0
 10
5.412842392033834
 20
13.16239159629516
 30
0.0
 10
5.36686586966499
 20
13.17829757426948
 30
0.0
 10
5.227742990070004
 20
13.22077520370254
 30
0.0
 10
5.133409647093002
 20
13.24213433387463
 30
0.0
 10
4.989529953457001
 20
13.26372292153598
 30
0.0
 10
4.941171862651395
 20
13.2691704955973
 30
0.0
 10
4.843638890138838
 20
13.27647879337938
 30
0.0
 10
4.794517247449538
 20
13.27832493256108
 30
0.0
 10
4.74545966637278
 20
13.27832957680243
 30
0.0
  0
SPLINE
  5
133
330
1B
100
AcDbEntity
 67
     1
  8
0
  6
Continuous
 62
     7
370
    25
100
AcDbSpline
210
0.0
220
0.0
230
1.0
 70
     8
 71
     3
 72
    20
 73
    16
 74
     0
 42
0.000000001
 43
0.00000001
 40
0.0
 40
0.0
 40
0.0
 40
0.0
 40
0.2499999999999953
 40
0.2499999999999953
 40
0.3749999999999961
 40
0.3749999999999961
 40
0.4999999999999969
 40
0.4999999999999969
 40
0.6249999999999977
 40
0.6249999999999977
 40
0.7499999999999984
 40
0.7499999999999984
 40
0.8749999999999992
 40
0.8749999999999992
 40
1.0
 40
1.0
 40
1.0
 40
1.0
 10
5.847554774378707
 20
12.941113240338
 30
0.0
 10
5.886248577070712
 20
12.9150045375885
 30
0.0
 10
5.923043646894398
 20
12.88829562420362
 30
0.0
 10
5.975719266213919
 20
12.84739769897189
 30
0.0
 10
5.992954936636328
 20
12.83353995035136
 30
0.0
 10
6.025697629085456
 20
12.80635068309686
 30
0.0
 10
6.041297190147839
 20
12.79295274695197
 30
0.0
 10
6.071026441173889
 20
12.7666540851804
 30
0.0
 10
6.085192067228892
 20
12.75371863165952
 30
0.0
 10
6.111868734363765
 20
12.72868746344603
 30
0.0
 10
6.124154447953462
 20
12.71680595889079
 30
0.0
 10
6.146618055455089
 20
12.69458544674005
 30
0.0
 10
6.156798993362199
 20
12.68424199290387
 30
0.0
 10
6.174821241403883
 20
12.66560668760239
 30
0.0
 10
6.182445258895205
 20
12.65754163350107
 30
0.0
 10
6.188545465857896
 20
12.65103302054637
 30
0.0
  0
SPLINE
  5
136
330
1B
100
AcDbEntity
 67
     1
  8
0
  6
Continuous
 62
     7
370
    25
100
AcDbSpline
210
0.0
220
0.0
230
1.0
 70
     8
 71
     3
 72
    20
 73
    16
 74
     0
 42
0.000000001
 43
0.00000001
 40
0.0
 40
0.0
 40
0.0
 40
0.0
 40
0.2499999999999984
 40
0.2499999999999984
 40
0.3124999999999991
 40
0.3124999999999991
 40
0.3749999999999997
 40
0.3749999999999997
 40
0.5000000000000009
 40
0.5000000000000009
 40
0.7500000000000004
 40
0.7500000000000004
 40
0.8750000000000002
 40
0.8750000000000002
 40
1.0
 40
1.0
 40
1.0
 40
1.0
 10
-4.745459666372781
 20
13.27832957680243
 30
0.0
 10
-4.843574487636344
 20
13.27832028835201
 30
0.0
 10
-4.940952039910149
 20
13.27101749891805
 30
0.0
 10
-5.061763613374292
 20
13.25288312545662
 30
0.0
 10
-5.0858801718271
 20
13.24880360302063
 30
0.0
 10
-5.134021100765108
 20
13.23973258035983
 30
0.0
 10
-5.158060481760543
 20
13.234735990025
 30
0.0
 10
-5.22956275538198
 20
13.21848064697046
 30
0.0
 10
-5.276566853928504
 20
13.20593177548985
 30
0.0
 10
-5.415635481306443
 20
13.16327447827967
 30
0.0
 10
-5.505766632701773
 20
13.12818189903914
 30
0.0
 10
-5.637091084811392
 20
13.06556049267752
 30
0.0
 10
-5.680217950600912
 20
13.04301630273989
 30
0.0
 10
-5.765143254090098
 20
12.99450329953235
 30
0.0
 10
-5.806889639019038
 20
12.96855210283038
 30
0.0
 10
-5.847554774378707
 20
12.941113240338
 30
0.0
  0
SPLINE
  5
137
330
1B
100
AcDbEntity
 67
     1
  8
0
  6
Continuous
 62
     7
370
    25
100
AcDbSpline
210
0.0
220
0.0
230
1.0
 70
     8
 71
     3
 72
    10
 73
     6
 74
     0
 42
0.000000001
 43
0.00000001
 40
0.0
 40
0.0
 40
0.0
 40
0.0
 40
0.5
 40
0.5
 40
1.0
 40
1.0
 40
1.0
 40
1.0
 10
-4.74545966637278
 20
13.27832957680243
 30
0.0
 10
-4.779753635391051
 20
13.23424410667344
 30
0.0
 10
-4.817028663012845
 20
13.19016163888022
 30
0.0
 10
-4.899051278924409
 20
13.1020057660667
 30
0.0
 10
-4.943773292747319
 20
13.05793213407669
 30
0.0
 10
-4.993490977014332
 20
13.01386429706162
 30
0.0
  0
SPLINE
  5
138
330
1B
100
AcDbEntity
 67
     1
  8
0
  6
Continuous
 62
     7
370
    25
100
AcDbSpline
210
0.0
220
0.0
230
1.0
 70
     8
 71
     3
 72
    36
 73
    32
 74
     0
 42
0.000000001
 43
0.00000001
 40
0.0
 40
0.0
 40
0.0
 40
0.0
 40
0.1249999999999955
 40
0.1249999999999955
 40
0.1874999999999938
 40
0.1874999999999938
 40
0.218749999999993
 40
0.218749999999993
 40
0.2499999999999921
 40
0.2499999999999921
 40
0.3749999999999916
 40
0.3749999999999916
 40
0.4374999999999917
 40
0.4374999999999917
 40
0.4687499999999925
 40
0.4687499999999925
 40
0.4999999999999933
 40
0.4999999999999933
 40
0.6249999999999937
 40
0.6249999999999937
 40
0.6562499999999939
 40
0.6562499999999939
 40
0.6874999999999941
 40
0.6874999999999941
 40
0.7499999999999953
 40
0.7499999999999953
 40
0.8124999999999966
 40
0.8124999999999966
 40
0.8749999999999977
 40
0.8749999999999977
 40
1.0
 40
1.0
 40
1.0
 40
1.0
 10
-6.245453744264095
 20
12.5688631953054
 30
0.0
 10
-6.2455229869523
 20
12.56857522783811
 30
0.0
 10
-6.239804362279571
 20
12.5734543643039
 30
0.0
 10
-6.222063309485367
 20
12.58809152318057
 30
0.0
 10
-6.214606059122775
 20
12.5941939121249
 30
0.0
 10
-6.200883444027774
 20
12.60515396508695
 30
0.0
 10
-6.195885250007906
 20
12.60910853561773
 30
0.0
 10
-6.184987916716674
 20
12.61761676742434
 30
0.0
 10
-6.179094390447132
 20
12.62216556100021
 30
0.0
 10
-6.14761037164354
 20
12.64610309745738
 30
0.0
 10
-6.115819847536616
 20
12.66925307037802
 30
0.0
 10
-6.056514845078966
 20
12.70840497734662
 30
0.0
 10
-6.034796220945839
 20
12.72219263711339
 30
0.0
 10
-5.998930980077975
 20
12.7437538373673
 30
0.0
 10
-5.986382052089701
 20
12.75111182359837
 30
0.0
 10
-5.960459520772573
 20
12.76588198165172
 30
0.0
 10
-5.947064927703642
 20
12.77330804739945
 30
0.0
 10
-5.877901437650844
 20
12.81049992074121
 30
0.0
 10
-5.815604837670848
 20
12.84045677643345
 30
0.0
 10
-5.728233036576806
 20
12.87585138156577
 30
0.0
 10
-5.710280697725377
 20
12.88282711034017
 30
0.0
 10
-5.673386684359254
 20
12.89651046232872
 30
0.0
 10
-5.654567508603073
 20
12.90317108945245
 30
0.0
 10
-5.597351587722964
 20
12.92242371925662
 30
0.0
 10
-5.558056253237134
 20
12.93433917430607
 30
0.0
 10
-5.477213376018283
 20
12.9560312494817
 30
0.0
 10
-5.435666112650371
 20
12.96580876919201
 30
0.0
 10
-5.350303633205066
 20
12.98292719422213
 30
0.0
 10
-5.306334612291704
 20
12.99027275697089
 30
0.0
 10
-5.174051174437339
 20
13.00784586187285
 30
0.0
 10
-5.084464060196985
 20
13.01385181746888
 30
0.0
 10
-4.993490977014333
 20
13.01386429706162
 30
0.0
  0
SPLINE
  5
139
330
1B
100
AcDbEntity
 67
     1
  8
0
  6
Continuous
 62
     7
370
    25
100
AcDbSpline
210
0.0
220
0.0
230
1.0
 70
     8
 71
     3
 72
     8
 73
     4
 74
     0
 42
0.000000001
 43
0.00000001
 40
0.0
 40
0.0
 40
0.0
 40
0.0
 40
1.0
 40
1.0
 40
1.0
 40
1.0
 10
-6.242894745879511
 20
12.59002518242599
 30
0.0
 10
-6.24298039673983
 20
12.58297116606563
 30
0.0
 10
-6.243757593441101
 20
12.57591717124567
 30
0.0
 10
-6.245453744264096
 20
12.5688631953054
 30
0.0
  0
SPLINE
  5
13A
330
1B
100
AcDbEntity
 67
     1
  8
0
  6
Continuous
 62
     7
370
    25
100
AcDbSpline
210
0.0
220
0.0
230
1.0
 70
     8
 71
     3
 72
    22
 73
    18
 74
     0
 42
0.000000001
 43
0.00000001
 40
0.0
 40
0.0
 40
0.0
 40
0.0
 40
0.1250000000000006
 40
0.1250000000000006
 40
0.2500000000000012
 40
0.2500000000000012
 40
0.3750000000000018
 40
0.3750000000000018
 40
0.5000000000000024
 40
0.5000000000000024
 40
0.7499999999999954
 40
0.7499999999999954
 40
0.8124999999999978
 40
0.8124999999999978
 40
0.875
 40
0.875
 40
1.0
 40
1.0
 40
1.0
 40
1.0
 10
-6.188545465857896
 20
12.65103302054637
 30
0.0
 10
-6.182443686185733
 20
12.65754331150271
 30
0.0
 10
-6.17487781297512
 20
12.66554509804907
 30
0.0
 10
-6.157202895256044
 20
12.6838273656492
 30
0.0
 10
-6.14707300807605
 20
12.69412967165606
 30
0.0
 10
-6.124394915305165
 20
12.7165736661428
 30
0.0
 10
-6.112100038090309
 20
12.72846387069866
 30
0.0
 10
-6.085699429943458
 20
12.75324894029309
 30
0.0
 10
-6.071549013572632
 20
12.76618463864331
 30
0.0
 10
-6.026555706212897
 20
12.80600722236835
 30
0.0
 10
-5.994047197809701
 20
12.83314500615243
 30
0.0
 10
-5.9499802273764
 20
12.86738718886592
 30
0.0
 10
-5.94096791092421
 20
12.87427158285574
 30
0.0
 10
-5.922796271519664
 20
12.88791007301743
 30
0.0
 10
-5.913617434216436
 20
12.89467994115384
 30
0.0
 10
-5.885797828874269
 20
12.91483894822164
 30
0.0
 10
-5.866874871097408
 20
12.92807697542667
 30
0.0
 10
-5.847554774378707
 20
12.941113240338
 30
0.0
  0
SPLINE
  5
13E
330
1B
100
AcDbEntity
 67
     1
  8
0
  6
Continuous
 62
     7
370
    25
100
AcDbSpline
210
0.0
220
0.0
230
1.0
 70
     8
 71
     3
 72
    18
 73
    14
 74
     0
 42
0.000000001
 43
0.00000001
 40
0.0
 40
0.0
 40
0.0
 40
0.0
 40
0.1249999999999933
 40
0.1249999999999933
 40
0.1874999999999942
 40
0.1874999999999942
 40
0.2499999999999952
 40
0.2499999999999952
 40
0.4999999999999968
 40
0.4999999999999968
 40
0.7499999999999983
 40
0.7499999999999983
 40
1.0
 40
1.0
 40
1.0
 40
1.0
 10
6.145529343434059
 20
12.784303927524
 30
0.0
 10
6.141190550865829
 20
12.7935793899734
 30
0.0
 10
6.135930784204949
 20
12.80467802044557
 30
0.0
 10
6.127181726282697
 20
12.82265846320757
 30
0.0
 10
6.124100938309514
 20
12.82891904343674
 30
0.0
 10
6.117756449485922
 20
12.84164417762244
 30
0.0
 10
6.114489411249848
 20
12.8481164946623
 30
0.0
 10
6.097720727500006
 20
12.8808923953658
 30
0.0
 10
6.082956857652228
 20
12.90835779204894
 30
0.0
 10
6.050831124206843
 20
12.96446042439168
 30
0.0
 10
6.033716539367635
 20
12.99267335322247
 30
0.0
 10
5.997301647671303
 20
13.04884945888585
 30
0.0
 10
5.977942375362675
 20
13.07688695192361
 30
0.0
 10
5.957639583978343
 20
13.10428221951816
 30
0.0
  0
SPLINE
  5
13F
330
1B
100
AcDbEntity
 67
     1
  8
0
  6
Continuous
 62
     7
370
    25
100
AcDbSpline
210
0.0
220
0.0
230
1.0
 70
     8
 71
     3
 72
    16
 73
    12
 74
     0
 42
0.000000001
 43
0.00000001
 40
0.0
 40
0.0
 40
0.0
 40
0.0
 40
0.2499999999999956
 40
0.2499999999999956
 40
0.4999999999999911
 40
0.4999999999999911
 40
0.7499999999999867
 40
0.7499999999999867
 40
0.8749999999999933
 40
0.8749999999999933
 40
1.0
 40
1.0
 40
1.0
 40
1.0
 10
-5.957639583978344
 20
13.10428221951816
 30
0.0
 10
-5.977942535141632
 20
13.07688673632827
 30
0.0
 10
-5.997152430961833
 20
13.04907393569278
 30
0.0
 10
-6.033694226394541
 20
12.99271346308491
 30
0.0
 10
-6.050791323266711
 20
12.96452139519138
 30
0.0
 10
-6.082750549055104
 20
12.90872654806824
 30
0.0
 10
-6.097746568642679
 20
12.88084390421325
 30
0.0
 10
-6.117874304012101
 20
12.8414994051332
 30
0.0
 10
-6.124215673070975
 20
12.82875347874049
 30
0.0
 10
-6.135942636569834
 20
12.80465426682548
 30
0.0
 10
-6.141206999894242
 20
12.79354422527194
 30
0.0
 10
-6.145529343434059
 20
12.784303927524
 30
0.0
  0
SPLINE
  5
145
330
1B
100
AcDbEntity
 67
     1
  8
0
  6
Continuous
 62
     7
370
    25
100
AcDbSpline
210
0.0
220
0.0
230
1.0
 70
     8
 71
     3
 72
    18
 73
    14
 74
     0
 42
0.000000001
 43
0.00000001
 40
0.0
 40
0.0
 40
0.0
 40
0.0
 40
0.2500000000000088
 40
0.2500000000000088
 40
0.3750000000000035
 40
0.3750000000000035
 40
0.4999999999999982
 40
0.4999999999999982
 40
0.624999999999993
 40
0.624999999999993
 40
0.7499999999999876
 40
0.7499999999999876
 40
1.0
 40
1.0
 40
1.0
 40
1.0
 10
3.543307086614173
 20
13.23336099399597
 30
0.0
 10
3.543307086614171
 20
13.2473811754424
 30
0.0
 10
3.540910980200967
 20
13.26404567072453
 30
0.0
 10
3.536208765147892
 20
13.29191111141337
 30
0.0
 10
3.534450083523119
 20
13.30160046329102
 30
0.0
 10
3.53086428366869
 20
13.32145224518271
 30
0.0
 10
3.52902864246115
 20
13.33165550824931
 30
0.0
 10
3.525481697331017
 20
13.35259602376614
 30
0.0
 10
3.523766973099681
 20
13.36336318561586
 30
0.0
 10
3.52069424798722
 20
13.38506298978796
 30
0.0
 10
3.519328427130113
 20
13.39603662497112
 30
0.0
 10
3.515940514929476
 20
13.42933206239643
 30
0.0
 10
3.514653512261355
 20
13.45216884067368
 30
0.0
 10
3.514653512261355
 20
13.47506005456209
 30
0.0
  0
SPLINE
  5
148
330
1B
100
AcDbEntity
 67
     1
  8
0
  6
Continuous
 62
     7
370
    25
100
AcDbSpline
210
0.0
220
0.0
230
1.0
 70
     8
 71
     3
 72
    20
 73
    16
 74
     0
 42
0.000000001
 43
0.00000001
 40
0.0
 40
0.0
 40
0.0
 40
0.0
 40
0.1249999999999968
 40
0.1249999999999968
 40
0.2499999999999935
 40
0.2499999999999935
 40
0.3749999999999902
 40
0.3749999999999902
 40
0.499999999999987
 40
0.499999999999987
 40
0.6249999999999838
 40
0.6249999999999838
 40
0.7499999999999805
 40
0.7499999999999805
 40
1.0
 40
1.0
 40
1.0
 40
1.0
 10
3.58193224000054
 20
13.47506005456209
 30
0.0
 10
3.58193224000054
 20
13.46598279416326
 30
0.0
 10
3.582480261970276
 20
13.45689138121934
 30
0.0
 10
3.584517784457119
 20
13.4391833117276
 30
0.0
 10
3.585992431472435
 20
13.43058430720778
 30
0.0
 10
3.589599371916464
 20
13.41382081954927
 30
0.0
 10
3.591731692075391
 20
13.40565643055136
 30
0.0
 10
3.596395345603954
 20
13.38971026104064
 30
0.0
 10
3.598924868311696
 20
13.38194317254375
 30
0.0
 10
3.603963153059982
 20
13.36716282327956
 30
0.0
 10
3.606489955469136
 20
13.3600903742661
 30
0.0
 10
3.611283178540141
 20
13.34652487929237
 30
0.0
 10
3.613566374562815
 20
13.33998301899333
 30
0.0
 10
3.619414973915478
 20
13.32167154074913
 30
0.0
 10
3.622047244094487
 20
13.31115190798094
 30
0.0
 10
3.622047244094487
 20
13.30241786844343
 30
0.0
  0
SPLINE
  5
14E
330
1B
100
AcDbEntity
 67
     1
  8
0
  6
Continuous
 62
     7
370
    25
100
AcDbSpline
210
0.0
220
0.0
230
1.0
 70
     8
 71
     3
 72
    16
 73
    12
 74
     0
 42
0.000000001
 43
0.00000001
 40
0.0
 40
0.0
 40
0.0
 40
0.0
 40
0.2500000000000006
 40
0.2500000000000006
 40
0.5000000000000011
 40
0.5000000000000011
 40
0.6250000000000013
 40
0.6250000000000013
 40
0.7500000000000017
 40
0.7500000000000017
 40
1.0
 40
1.0
 40
1.0
 40
1.0
 10
4.74545966637278
 20
13.47506005456209
 30
0.0
 10
4.853501165189223
 20
13.47506005456209
 30
0.0
 10
4.960173183508051
 20
13.46702128644454
 30
0.0
 10
5.170892818657457
 20
13.4355386713871
 30
0.0
 10
5.274940152857345
 20
13.41209316542208
 30
0.0
 10
5.428995925879387
 20
13.36509563774283
 30
0.0
 10
5.480174918919134
 20
13.34737694090937
 30
0.0
 10
5.580504188162145
 20
13.3083863995339
 30
0.0
 10
5.629766458762041
 20
13.28709466062111
 30
0.0
 10
5.774881300021677
 20
13.21789996077107
 30
0.0
 10
5.868076852638413
 20
13.1647072848481
 30
0.0
 10
5.957639583978344
 20
13.10428221951816
 30
0.0
  0
SPLINE
  5
153
330
1B
100
AcDbEntity
 67
     1
  8
0
  6
Continuous
 62
     7
370
    25
100
AcDbSpline
210
0.0
220
0.0
230
1.0
 70
     8
 71
     3
 72
    16
 73
    12
 74
     0
 42
0.000000001
 43
0.00000001
 40
0.0
 40
0.0
 40
0.0
 40
0.0
 40
0.2500000000000009
 40
0.2500000000000009
 40
0.3750000000000003
 40
0.3750000000000003
 40
0.4999999999999997
 40
0.4999999999999997
 40
0.7499999999999998
 40
0.7499999999999998
 40
1.0
 40
1.0
 40
1.0
 40
1.0
 10
-5.957639583978344
 20
13.10428221951816
 30
0.0
 10
-5.868076797343165
 20
13.16470732215401
 30
0.0
 10
-5.77488108436346
 20
13.21790009407561
 30
0.0
 10
-5.629765813152599
 20
13.2870949532287
 30
0.0
 10
-5.580503367576867
 20
13.30838674788788
 30
0.0
 10
-5.480173677999757
 20
13.34737739370866
 30
0.0
 10
-5.428994744421618
 20
13.3650960249666
 30
0.0
 10
-5.274939546378448
 20
13.41209329684177
 30
0.0
 10
-5.170892491241257
 20
13.43553872830437
 30
0.0
 10
-4.960173192641459
 20
13.46702127708038
 30
0.0
 10
-4.853501232029679
 20
13.47506005456209
 30
0.0
 10
-4.74545966637278
 20
13.47506005456209
 30
0.0
  0
LWPOLYLINE
  5
15C
330
1B
100
AcDbEntity
 67
     1
  8
0
  6
Continuous
 62
     7
370
    25
100
AcDbPolyline
 90
        3
 70
   128
 43
0.0
 10
-1.482344459
 20
13.1537445546
 10
-1.4845636784
 20
13.1541459498
 10
-1.4901625308
 20
13.1552435464
  0
LWPOLYLINE
  5
15F
330
1B
100
AcDbEntity
 67
     1
  8
0
  6
Continuous
 62
     7
370
    25
100
AcDbPolyline
 90
        9
 70
   128
 43
0.0
 10
1.2708611434
 20
11.7322834646
 10
1.2429038052
 20
11.7360658897
 10
1.216020852
 20
11.7472678086
 10
1.1912453803
 20
11.7654587377
 10
1.1695294978
 20
11.78993961
 10
1.1517077336
 20
11.8197696392
 10
1.1384649681
 20
11.8538024739
 10
1.1303101134
 20
11.8907302516
 10
1.1275565559
 20
11.9291338583
  0
SPLINE
  5
163
330
1B
100
AcDbEntity
 67
     1
  8
0
  6
Continuous
 62
     7
370
    25
100
AcDbSpline
210
0.0
220
0.0
230
1.0
 70
     8
 71
     3
 72
    12
 73
     8
 74
     0
 42
0.000000001
 43
0.00000001
 40
0.0
 40
0.0
 40
0.0
 40
0.0
 40
0.2500000000000029
 40
0.2500000000000029
 40
0.5000000000000059
 40
0.5000000000000059
 40
1.0
 40
1.0
 40
1.0
 40
1.0
 10
-0.2329723970767524
 20
13.18897637795276
 30
0.0
 10
-0.2399933432953294
 20
13.19322471082276
 30
0.0
 10
-0.2473422260706455
 20
13.19662989479801
 30
0.0
 10
-0.2624932485935379
 20
13.20224709874581
 30
0.0
 10
-0.2703465729495828
 20
13.20445736490408
 30
0.0
 10
-0.2939837857334634
 20
13.2095091171489
 30
0.0
 10
-0.3099095628339747
 20
13.21086841776333
 30
0.0
 10
-0.3259401069288287
 20
13.2107321358416
 30
0.0
  0
SPLINE
  5
165
330
1B
100
AcDbEntity
 67
     1
  8
0
  6
Continuous
 62
     7
370
    25
100
AcDbSpline
210
0.0
220
0.0
230
1.0
 70
     8
 71
     3
 72
    14
 73
    10
 74
     0
 42
0.000000001
 43
0.00000001
 40
0.0
 40
0.0
 40
0.0
 40
0.0
 40
0.5
 40
0.5
 40
0.75
 40
0.75
 40
0.875
 40
0.875
 40
1.0
 40
1.0
 40
1.0
 40
1.0
 10
-0.1597492356050504
 20
13.18897637795276
 30
0.0
 10
-0.1454921043608381
 20
13.18167099158608
 30
0.0
 10
-0.1325445254988786
 20
13.17359975727523
 30
0.0
 10
-0.1146261559299417
 20
13.16087750051105
 30
0.0
 10
-0.1089066753102912
 20
13.15652660320315
 30
0.0
 10
-0.1007053416442706
 20
13.14988661215909
 30
0.0
 10
-0.0980469441211904
 20
13.14766420454005
 30
0.0
 10
-0.0928764261582141
 20
13.14320761735012
 30
0.0
 10
-0.0903390449993167
 20
13.1409501890353
 30
0.0
 10
-0.0879280148804718
 20
13.1387399861211
 30
0.0
  0
SPLINE
  5
166
330
1B
100
AcDbEntity
 67
     1
  8
0
  6
Continuous
 62
     7
370
    25
100
AcDbSpline
210
0.0
220
0.0
230
1.0
 70
     8
 71
     3
 72
    24
 73
    20
 74
     0
 42
0.000000001
 43
0.00000001
 40
0.0
 40
0.0
 40
0.0
 40
0.0
 40
0.2499999999999997
 40
0.2499999999999997
 40
0.3749999999999995
 40
0.3749999999999995
 40
0.4999999999999994
 40
0.4999999999999994
 40
0.6249999999999993
 40
0.6249999999999993
 40
0.7499999999999994
 40
0.7499999999999994
 40
0.8124999999999996
 40
0.8124999999999996
 40
0.8749999999999997
 40
0.8749999999999997
 40
0.9374999999999999
 40
0.9374999999999999
 40
1.0
 40
1.0
 40
1.0
 40
1.0
 10
0.2530863598698436
 20
11.73228346456693
 30
0.0
 10
0.2129705189513707
 20
11.73228346456693
 30
0.0
 10
0.1738271306613935
 20
11.73658807748814
 30
0.0
 10
0.1162101278814946
 20
11.74781072740544
 30
0.0
 10
0.0971804211850367
 20
11.75238527469995
 30
0.0
 10
0.0599659459864488
 20
11.76305653623002
 30
0.0
 10
0.0417149683130532
 20
11.76916088409165
 30
0.0
 10
0.0059437522017786
 20
11.78310133848631
 30
0.0
 10
-0.0116502903696628
 20
11.79096365052657
 30
0.0
 10
-0.0456033990839162
 20
11.80884792945777
 30
0.0
 10
-0.0619308278747531
 20
11.81879673846788
 30
0.0
 10
-0.0849252291826886
 20
11.83631237838108
 30
0.0
 10
-0.0923828329994472
 20
11.84264192977357
 30
0.0
 10
-0.1062037460036811
 20
11.85629997010214
 30
0.0
 10
-0.1125986290316124
 20
11.86362679143718
 30
0.0
 10
-0.1237851844737249
 20
11.87986914311982
 30
0.0
 10
-0.1286246308623497
 20
11.88895874828662
 30
0.0
 10
-0.1348553367519511
 20
11.90833742585229
 30
0.0
 10
-0.1362215926198383
 20
11.91883354588841
 30
0.0
 10
-0.1353946543357963
 20
11.92913385826772
 30
0.0
  0
SPLINE
  5
169
330
1B
100
AcDbEntity
 67
     1
  8
0
  6
Continuous
 62
     7
370
    25
100
AcDbSpline
210
0.0
220
0.0
230
1.0
 70
     8
 71
     3
 72
     8
 73
     4
 74
     0
 42
0.000000001
 43
0.00000001
 40
0.0
 40
0.0
 40
0.0
 40
0.0
 40
1.0
 40
1.0
 40
1.0
 40
1.0
 10
-0.0879280148804727
 20
13.1387399861211
 30
0.0
 10
-0.1034131244323566
 20
12.73550996333482
 30
0.0
 10
-0.1192107715937112
 20
12.33230553617993
 30
0.0
 10
-0.1353946543357961
 20
11.92913385826772
 30
0.0
  0
LWPOLYLINE
  5
16A
330
1B
100
AcDbEntity
 67
     1
  8
0
  6
Continuous
 62
     7
370
    25
100
AcDbPolyline
 90
        9
 70
   128
 43
0.0
 10
0.2530863599
 20
11.7322834646
 10
0.2470504255
 20
11.7286667684
 10
0.2412362854
 20
11.7179495777
 10
0.2358575837
 20
11.7005257024
 10
0.2311119644
 20
11.6770353938
 10
0.2271738081
 20
11.6483418182
 10
0.2241878249
 20
11.6154993392
 10
0.2222637367
 20
11.5797147745
 10
0.2214722453
 20
11.5423030505
  0
SPLINE
  5
16B
330
1B
100
AcDbEntity
 67
     1
  8
0
  6
Continuous
 62
     7
370
    25
100
AcDbSpline
210
0.0
220
0.0
230
1.0
 70
     8
 71
     3
 72
    32
 73
    28
 74
     0
 42
0.000000001
 43
0.00000001
 40
0.0
 40
0.0
 40
0.0
 40
0.0
 40
0.0624999999999981
 40
0.0624999999999981
 40
0.1249999999999963
 40
0.1249999999999963
 40
0.1874999999999944
 40
0.1874999999999944
 40
0.2499999999999925
 40
0.2499999999999925
 40
0.3124999999999906
 40
0.3124999999999906
 40
0.3749999999999888
 40
0.3749999999999888
 40
0.4374999999999869
 40
0.4374999999999869
 40
0.499999999999985
 40
0.499999999999985
 40
0.6249999999999871
 40
0.6249999999999871
 40
0.6874999999999881
 40
0.6874999999999881
 40
0.7499999999999892
 40
0.7499999999999892
 40
0.8749999999999947
 40
0.8749999999999947
 40
1.0
 40
1.0
 40
1.0
 40
1.0
 10
-0.2441869867648085
 20
11.93600383793357
 30
0.0
 10
-0.2446743801897557
 20
11.92184034643878
 30
0.0
 10
-0.2440474036463783
 20
11.90769575430433
 30
0.0
 10
-0.2406641638010321
 20
11.87984173672858
 30
0.0
 10
-0.2379114153109657
 20
11.86607366687146
 30
0.0
 10
-0.230359821525998
 20
11.83884433818203
 30
0.0
 10
-0.2255877346679332
 20
11.82551564405294
 30
0.0
 10
-0.2144305407373818
 20
11.7998039712293
 30
0.0
 10
-0.2080250421452782
 20
11.78734670189831
 30
0.0
 10
-0.1937228645247965
 20
11.76314815155874
 30
0.0
 10
-0.1857975432628978
 20
11.75138256948576
 30
0.0
 10
-0.1689293350832272
 20
11.72896966151739
 30
0.0
 10
-0.1599519290263064
 20
11.71825634927804
 30
0.0
 10
-0.1410279871428545
 20
11.69770461103489
 30
0.0
 10
-0.1310809177392301
 20
11.68786668121309
 30
0.0
 10
-0.1102811690791251
 20
11.66900381502452
 30
0.0
 10
-0.0993927320022753
 20
11.65995713117316
 30
0.0
 10
-0.0659782110633679
 20
11.63440898437494
 30
0.0
 10
-0.0425676199873983
 20
11.61932849422194
 30
0.0
 10
-0.0058846223637861
 20
11.5994042621267
 30
0.0
 10
0.0066071728845433
 20
11.59321733406275
 30
0.0
 10
0.0321291052782931
 20
11.58176980457875
 30
0.0
 10
0.0452166480511525
 20
11.57648927123337
 30
0.0
 10
0.084907016632785
 20
11.56226692243992
 30
0.0
 10
0.1117108783939296
 20
11.55498440599345
 30
0.0
 10
0.1660269333928386
 20
11.54500571116447
 30
0.0
 10
0.1935380335322174
 20
11.54230305053199
 30
0.0
 10
0.2214722453330567
 20
11.54230305053199
 30
0.0
  0
SPLINE
  5
171
330
1B
100
AcDbEntity
 67
     1
  8
0
  6
Continuous
 62
     7
370
    25
100
AcDbSpline
210
0.0
220
0.0
230
1.0
 70
     8
 71
     3
 72
     8
 73
     4
 74
     0
 42
0.000000001
 43
0.00000001
 40
0.0
 40
0.0
 40
0.0
 40
0.0
 40
1.0
 40
1.0
 40
1.0
 40
1.0
 10
-0.2441869867648085
 20
11.93600383793357
 30
0.0
 10
-0.2303745106610632
 20
12.33738981854771
 30
0.0
 10
-0.2168370651125044
 20
12.73879949900126
 30
0.0
 10
-0.2035184807935179
 20
13.14022776879853
 30
0.0
  0
SPLINE
  5
172
330
1B
100
AcDbEntity
 67
     1
  8
0
  6
Continuous
 62
     7
370
    25
100
AcDbSpline
210
0.0
220
0.0
230
1.0
 70
    24
 71
     3
 72
    36
 73
    32
 74
     0
 42
0.000000001
 43
0.00000001
 40
0.0
 40
0.0
 40
0.0
 40
0.0
 40
0.001953125
 40
0.001953125
 40
0.00390625
 40
0.00390625
 40
0.0078125
 40
0.0078125
 40
0.0156250000000001
 40
0.0156250000000001
 40
0.0312500000000001
 40
0.0312500000000001
 40
0.0625000000000001
 40
0.0625000000000001
 40
0.1250000000000002
 40
0.1250000000000002
 40
0.2500000000000005
 40
0.2500000000000005
 40
0.3750000000000007
 40
0.3750000000000007
 40
0.4375000000000007
 40
0.4375000000000007
 40
0.5000000000000007
 40
0.5000000000000007
 40
0.6250000000000004
 40
0.6250000000000004
 40
0.7500000000000003
 40
0.7500000000000003
 40
0.8750000000000001
 40
0.8750000000000001
 40
1.0
 40
1.0
 40
1.0
 40
1.0
 10
-1.330025800615547
 20
13.18897637795276
 30
0.0
 10
-1.329154072379771
 20
13.18897637795276
 30
0.0
 10
-1.32833415070628
 20
13.18897637795276
 30
0.0
 10
-1.326776021844505
 20
13.18897637795276
 30
0.0
 10
-1.326046695870931
 20
13.18897637795276
 30
0.0
 10
-1.323924118349052
 20
13.18897637795276
 30
0.0
 10
-1.322595630773766
 20
13.18897637795276
 30
0.0
 10
-1.318769713282588
 20
13.18897637795276
 30
0.0
 10
-1.316401911329296
 20
13.18897637795276
 30
0.0
 10
-1.30946430458983
 20
13.18897637795276
 30
0.0
 10
-1.305081183574374
 20
13.18897637795276
 30
0.0
 10
-1.292133638386909
 20
13.18897637795276
 30
0.0
 10
-1.283790551551475
 20
13.18897637795276
 30
0.0
 10
-1.258752223618098
 20
13.18897637795276
 30
0.0
 10
-1.24209720057946
 20
13.18897637795276
 30
0.0
 10
-1.191093819010937
 20
13.18897637795276
 30
0.0
 10
-1.155800637384272
 20
13.18897637795276
 30
0.0
 10
-1.08155929866061
 20
13.18897637795276
 30
0.0
 10
-1.042661844450073
 20
13.18897637795276
 30
0.0
 10
-0.9813845126445112
 20
13.18897637795276
 30
0.0
 10
-0.9604406365200084
 20
13.18897637795276
 30
0.0
 10
-0.9178055735092234
 20
13.18897637795276
 30
0.0
 10
-0.8960939701264427
 20
13.18897637795276
 30
0.0
 10
-0.8297647314064653
 20
13.18897637795276
 30
0.0
 10
-0.7838638423486158
 20
13.18897637795275
 30
0.0
 10
-0.6891843368886518
 20
13.18897637795276
 30
0.0
 10
-0.6406195298861773
 20
13.18897637795276
 30
0.0
 10
-0.5410200635113368
 20
13.18897637795276
 30
0.0
 10
-0.4899156067679755
 20
13.18897637795275
 30
0.0
 10
-0.3864149281239398
 20
13.18897637795276
 30
0.0
 10
-0.3338787970461796
 20
13.18897637795276
 30
0.0
 10
-0.2805446563747689
 20
13.18897637795276
 30
0.0
  0
SPLINE
  5
173
330
1B
100
AcDbEntity
 67
     1
  8
0
  6
Continuous
 62
     7
370
    25
100
AcDbSpline
210
0.0
220
0.0
230
1.0
 70
     8
 71
     3
 72
    12
 73
     8
 74
     0
 42
0.000000001
 43
0.00000001
 40
0.0
 40
0.0
 40
0.0
 40
0.0
 40
0.5000000000000001
 40
0.5000000000000001
 40
0.75
 40
0.75
 40
1.0
 40
1.0
 40
1.0
 40
1.0
 10
-0.2805446563747688
 20
13.18897637795276
 30
0.0
 10
-0.2674081945284152
 20
13.18183175903015
 30
0.0
 10
-0.2545208381830042
 20
13.17399990973234
 30
0.0
 10
-0.2353157308505044
 20
13.16168779903468
 30
0.0
 10
-0.2289367153542015
 20
13.15748592599647
 30
0.0
 10
-0.2161940372863852
 20
13.14893597728381
 30
0.0
 10
-0.209758375945851
 20
13.14453748611483
 30
0.0
 10
-0.2035184807935179
 20
13.14022776879853
 30
0.0
  0
SPLINE
  5
174
330
1B
100
AcDbEntity
 67
     1
  8
0
  6
Continuous
 62
     7
370
    25
100
AcDbSpline
210
0.0
220
0.0
230
1.0
 70
    24
 71
     3
 72
    12
 73
     8
 74
     0
 42
0.000000001
 43
0.00000001
 40
0.0
 40
0.0
 40
0.0
 40
0.0
 40
0.5000000000000003
 40
0.5000000000000003
 40
0.7500000000000001
 40
0.7500000000000001
 40
1.0
 40
1.0
 40
1.0
 40
1.0
 10
-0.2805446563747693
 20
13.18897637795276
 30
0.0
 10
-0.2605750661063569
 20
13.18897637795276
 30
0.0
 10
-0.2403060889378232
 20
13.18897637795276
 30
0.0
 10
-0.2094595624687608
 20
13.18897637795276
 30
0.0
 10
-0.199122503203613
 20
13.18897637795276
 30
0.0
 10
-0.1790724851667528
 20
13.18897637795276
 30
0.0
 10
-0.1692907312437681
 20
13.18897637795275
 30
0.0
 10
-0.1597492356050504
 20
13.18897637795276
 30
0.0
  0
CIRCLE
  5
193
330
1B
100
AcDbEntity
 67
     1
  8
0
  6
Continuous
 62
     7
370
    25
100
AcDbCircle
 10
3.1496062992
 20
11.3385826772
 30
0.0
 40
0.0393700787401574
  0
CIRCLE
  5
195
330
1B
100
AcDbEntity
 67
     1
  8
0
  6
Continuous
 62
     7
370
    25
100
AcDbCircle
 10
-3.1496062992
 20
11.3385826772
 30
0.0
 40
0.0393700787401574
  0
LWPOLYLINE
  5
1B1
330
1B
100
AcDbEntity
 67
     1
  8
0
  6
Continuous
 62
     8
370
    25
100
AcDbPolyline
 90
        3
 70
   128
 43
0.0
 10
3.6220472441
 20
13.2326019115
 10
3.6171472674
 20
13.2307951995
 10
3.6081583
 20
13.2295852702
  0
LWPOLYLINE
  5
1B4
330
1B
100
AcDbEntity
 67
     1
  8
0
  6
Continuous
 62
     8
370
    25
100
AcDbPolyline
 90
        8
 70
   128
 43
0.0
 10
-1.4901625308
 20
13.1552435464
 10
-1.5048076813
 20
13.1592288108
 10
-1.510815255
 20
13.1643563076
 10
-1.5025295641
 20
13.169479931
 10
-1.4800289965
 20
13.1745512081
 10
-1.4435264217
 20
13.1795221615
 10
-1.393367177
 20
13.1843457629
 10
-1.3300258006
 20
13.188976378
  0
SPLINE
  5
1B6
330
1B
100
AcDbEntity
 67
     1
  8
0
  6
Continuous
 62
     8
370
    25
100
AcDbSpline
210
0.0
220
0.0
230
1.0
 70
     8
 71
     3
 72
    16
 73
    12
 74
     0
 42
0.000000001
 43
0.00000001
 40
0.0
 40
0.0
 40
0.0
 40
0.0
 40
0.0770950907648491
 40
0.1933100528210844
 40
0.3128949503251358
 40
0.4291094674729868
 40
0.5486896325368136
 40
0.6649853305293675
 40
0.784649382050702
 40
0.9010190830853348
 40
0.9999999999999999
 40
0.9999999999999999
 40
0.9999999999999999
 40
0.9999999999999999
 10
-0.2035184807935178
 20
13.14022776879853
 30
0.0
 10
-0.2553319309256403
 20
13.13988968730611
 30
0.0
 10
-0.385250200461552
 20
13.13904197378107
 30
0.0
 10
-0.5874370907692277
 20
13.1363806656318
 30
0.0
 10
-0.7986378378083875
 20
13.13210464980788
 30
0.0
 10
-0.9889490171697906
 20
13.12651125121827
 30
0.0
 10
-1.149588630844937
 20
13.11988706244269
 30
0.0
 10
-1.279268495263181
 20
13.11229195916722
 30
0.0
 10
-1.370522104656282
 20
13.10407642546182
 30
0.0
 10
-1.424538187665571
 20
13.09583883029016
 30
0.0
 10
-1.427708430421297
 20
13.0904219077898
 30
0.0
 10
-1.429165558976544
 20
13.08793214499716
 30
0.0
  0
LINE
  5
1B9
330
1B
100
AcDbEntity
 67
     1
  8
0
  6
Continuous
 62
     7
370
    25
100
AcDbLine
 10
-1.4321635623
 20
13.0878274524
 30
0.0
 11
-1.3779527559
 21
11.5354330709
 31
0.0
  0
LINE
  5
1BA
330
1B
100
AcDbEntity
 67
     1
  8
0
  6
Continuous
 62
     7
370
    25
100
AcDbLine
 10
1.3779527559
 20
11.5354330709
 30
0.0
 11
1.3784158692
 21
11.5486949009
 31
0.0
  0
LINE
  5
1BB
330
1B
100
AcDbEntity
 67
     1
  8
0
  6
Continuous
 62
     7
370
    25
100
AcDbLine
 10
-4.993490977
 20
13.0137443811
 30
0.0
 11
-1.4295765244
 21
13.0137443811
 31
0.0
  0
LINE
  5
1BC
330
1B
100
AcDbEntity
 67
     1
  8
0
  6
Continuous
 62
     7
370
    25
100
AcDbLine
 10
3.5433070866
 20
13.0137443811
 30
0.0
 11
4.993490977
 21
13.0137443811
 31
0.0
  0
LINE
  5
1BD
330
1B
100
AcDbEntity
 67
     1
  8
0
  6
Continuous
 62
     7
370
    25
100
AcDbLine
 10
6.4271403719
 20
12.5196850394
 30
0.0
 11
8.5840166113
 21
12.5196850394
 31
0.0
  0
LINE
  5
1BE
330
1B
100
AcDbEntity
 67
     1
  8
0
  6
Continuous
 62
     7
370
    25
100
AcDbLine
 10
6.2472562088
 20
12.6365869161
 30
0.0
 11
5.5637674133
 21
14.1744367059
 31
0.0
  0
LINE
  5
1BF
330
1B
100
AcDbEntity
 67
     1
  8
0
  6
Continuous
 62
     7
370
    25
100
AcDbLine
 10
5.3838832502
 20
14.2913385827
 30
0.0
 11
-5.3838832502
 21
14.2913385827
 31
0.0
  0
LINE
  5
1C0
330
1B
100
AcDbEntity
 67
     1
  8
0
  6
Continuous
 62
     7
370
    25
100
AcDbLine
 10
-5.5637674133
 20
14.1744367059
 30
0.0
 11
-6.2472562088
 21
12.6365869161
 31
0.0
  0
LINE
  5
1C1
330
1B
100
AcDbEntity
 67
     1
  8
0
  6
Continuous
 62
     7
370
    25
100
AcDbLine
 10
-8.5840166113
 20
12.5196850394
 30
0.0
 11
-6.4271403719
 21
12.5196850394
 31
0.0
  0
LINE
  5
1C2
330
1B
100
AcDbEntity
 67
     1
  8
0
  6
Continuous
 62
     7
370
    25
100
AcDbLine
 10
-8.9775752263
 20
12.9028062941
 30
0.0
 11
-9.0509985269
 21
15.6341530729
 31
0.0
  0
LINE
  5
1C3
330
1B
100
AcDbEntity
 67
     1
  8
0
  6
Continuous
 62
     7
370
    25
100
AcDbLine
 10
-10.2755905512
 20
15.7874015748
 30
0.0
 11
-9.2084219729
 21
15.7874015748
 31
0.0
  0
LINE
  5
1C4
330
1B
100
AcDbEntity
 67
     1
  8
0
  6
Continuous
 62
     7
370
    25
100
AcDbLine
 10
-10.7107950045
 20
15.621679377
 30
0.0
 11
-10.8180865212
 21
17.6689234715
 31
0.0
  0
LINE
  5
1C5
330
1B
100
AcDbEntity
 67
     1
  8
0
  6
Continuous
 62
     7
370
    25
100
AcDbLine
 10
-10.6608220275
 20
17.8346456693
 30
0.0
 11
10.6608220275
 21
17.8346456693
 31
0.0
  0
LINE
  5
1C6
330
1B
100
AcDbEntity
 67
     1
  8
0
  6
Continuous
 62
     7
370
    25
100
AcDbLine
 10
10.7107950045
 20
15.621679377
 30
0.0
 11
10.8180865212
 21
17.6689234715
 31
0.0
  0
LINE
  5
1C7
330
1B
100
AcDbEntity
 67
     1
  8
0
  6
Continuous
 62
     7
370
    25
100
AcDbLine
 10
9.2084219729
 20
15.7874015748
 30
0.0
 11
10.2755905512
 21
15.7874015748
 31
0.0
  0
LINE
  5
1C8
330
1B
100
AcDbEntity
 67
     1
  8
0
  6
Continuous
 62
     7
370
    25
100
AcDbLine
 10
5.7086614173
 20
16.4566929134
 30
0.0
 11
5.3149606299
 21
16.4566929134
 31
0.0
  0
LINE
  5
1C9
330
1B
100
AcDbEntity
 67
     1
  8
0
  6
Continuous
 62
     7
370
    25
100
AcDbLine
 10
5.3149606299
 20
15.6692913386
 30
0.0
 11
5.7086614173
 21
15.6692913386
 31
0.0
  0
LINE
  5
1CA
330
1B
100
AcDbEntity
 67
     1
  8
0
  6
Continuous
 62
     7
370
    25
100
AcDbLine
 10
-5.7086614173
 20
15.6692913386
 30
0.0
 11
-5.3149606299
 21
15.6692913386
 31
0.0
  0
LINE
  5
1CB
330
1B
100
AcDbEntity
 67
     1
  8
0
  6
Continuous
 62
     7
370
    25
100
AcDbLine
 10
-5.3149606299
 20
16.4566929134
 30
0.0
 11
-5.7086614173
 21
16.4566929134
 31
0.0
  0
LINE
  5
1CC
330
1B
100
AcDbEntity
 67
     1
  8
0
  6
Continuous
 62
     7
370
    25
100
AcDbLine
 10
8.9775752263
 20
12.9028062941
 30
0.0
 11
9.0509985269
 21
15.6341530729
 31
0.0
  0
LINE
  5
1CD
330
1B
100
AcDbEntity
 67
     1
  8
0
  6
Continuous
 62
     7
370
    25
100
AcDbLine
 10
2.5774137108
 20
11.7322834646
 30
0.0
 11
2.5774137108
 21
14.2913385827
 31
0.0
  0
LINE
  5
1CE
330
1B
100
AcDbEntity
 67
     1
  8
0
  6
Continuous
 62
     7
370
    25
100
AcDbLine
 10
-0.1353946543
 20
11.9291338583
 30
0.0
 11
3.5433070866
 21
11.9291338583
 31
0.0
  0
LINE
  5
1CF
330
1B
100
AcDbEntity
 67
     1
  8
0
  6
Continuous
 62
     7
370
    25
100
AcDbLine
 10
3.3464566929
 20
11.7322834646
 30
0.0
 11
0.2530863599
 21
11.7322834646
 31
0.0
  0
LINE
  5
1D0
330
1B
100
AcDbEntity
 67
     1
  8
0
  6
Continuous
 62
     7
370
    25
100
AcDbLine
 10
1.3779527559
 20
14.2913385827
 30
0.0
 11
1.3779527559
 21
11.7322834646
 31
0.0
  0
LINE
  5
1D1
330
1B
100
AcDbEntity
 67
     1
  8
0
  6
Continuous
 62
     7
370
    25
100
AcDbLine
 10
1.1811023622
 20
11.9291338583
 30
0.0
 11
1.1811023622
 21
14.2913385827
 31
0.0
  0
LINE
  5
1D2
330
1B
100
AcDbEntity
 67
     1
  8
0
  6
Continuous
 62
     7
370
    25
100
AcDbLine
 10
6.3937094577
 20
12.5196850394
 30
0.0
 11
6.3756184522
 21
12.5196850394
 31
0.0
  0
LINE
  5
1D3
330
1B
100
AcDbEntity
 67
     1
  8
0
  6
Continuous
 62
     7
370
    25
100
AcDbLine
 10
-6.3756184522
 20
12.5196850394
 30
0.0
 11
-6.3937094577
 21
12.5196850394
 31
0.0
  0
LINE
  5
1D4
330
1B
100
AcDbEntity
 67
     1
  8
0
  6
Continuous
 62
     7
370
    25
100
AcDbLine
 10
5.8475547744
 20
12.9411132403
 30
0.0
 11
5.957639584
 21
13.1042822195
 31
0.0
  0
LINE
  5
1D5
330
1B
100
AcDbEntity
 67
     1
  8
0
  6
Continuous
 62
     7
370
    25
100
AcDbLine
 10
-5.8475547744
 20
12.9411132403
 30
0.0
 11
-5.957639584
 21
13.1042822195
 31
0.0
  0
LINE
  5
1D6
330
1B
100
AcDbEntity
 67
     1
  8
0
  6
Continuous
 62
     7
370
    25
100
AcDbLine
 10
1.1023622047
 20
13.2653303776
 30
0.0
 11
1.1023622047
 21
14.2913385827
 31
0.0
  0
LINE
  5
1D7
330
1B
100
AcDbEntity
 67
     1
  8
0
  6
Continuous
 62
     7
370
    25
100
AcDbLine
 10
-4.7454596664
 20
13.4750600546
 30
0.0
 11
1.1811023622
 21
13.4750600546
 31
0.0
  0
LINE
  5
1D8
330
1B
100
AcDbEntity
 67
     1
  8
0
  6
Continuous
 62
     7
370
    25
100
AcDbLine
 10
3.5433070866
 20
13.233360994
 30
0.0
 11
3.5433070866
 21
11.9291338583
 31
0.0
  0
LINE
  5
1D9
330
1B
100
AcDbEntity
 67
     1
  8
0
  6
Continuous
 62
     7
370
    25
100
AcDbLine
 10
3.5146535123
 20
13.4750600546
 30
0.0
 11
4.7454596664
 21
13.4750600546
 31
0.0
  0
LINE
  5
1DA
330
1B
100
AcDbEntity
 67
     1
  8
0
  6
Continuous
 62
     7
370
    25
100
AcDbLine
 10
-4.7454596664
 20
13.2783295768
 30
0.0
 11
-4.7454596664
 21
13.4750600546
 31
0.0
  0
LINE
  5
1DB
330
1B
100
AcDbEntity
 67
     1
  8
0
  6
Continuous
 62
     7
370
    25
100
AcDbLine
 10
1.1023622047
 20
13.2783295768
 30
0.0
 11
-4.7454596664
 21
13.2783295768
 31
0.0
  0
LINE
  5
1DC
330
1B
100
AcDbEntity
 67
     1
  8
0
  6
Continuous
 62
     7
370
    25
100
AcDbLine
 10
4.7454596664
 20
13.2783295768
 30
0.0
 11
4.7454596664
 21
13.4750600546
 31
0.0
  0
LINE
  5
1DD
330
1B
100
AcDbEntity
 67
     1
  8
0
  6
Continuous
 62
     7
370
    25
100
AcDbLine
 10
4.7454596664
 20
13.2783295768
 30
0.0
 11
3.6220472441
 21
13.2783295768
 31
0.0
  0
LINE
  5
1DE
330
1B
100
AcDbEntity
 67
     1
  8
0
  6
Continuous
 62
     7
370
    25
100
AcDbLine
 10
3.6220472441
 20
13.3024178684
 30
0.0
 11
3.6220472441
 21
13.2326019115
 31
0.0
  0
LINE
  5
1DF
330
1B
100
AcDbEntity
 67
     1
  8
0
  6
Continuous
 62
     7
370
    25
100
AcDbLine
 10
-0.3259401069
 20
13.2107321358
 30
0.0
 11
1.070234721
 21
13.2625026589
 31
0.0
  0
LINE
  5
1E0
330
1B
100
AcDbEntity
 67
     1
  8
0
  6
Continuous
 62
     7
370
    25
100
AcDbLine
 10
1.1275565559
 20
11.9291338583
 30
0.0
 11
1.1275565559
 21
13.1838104678
 31
0.0
  0
LINE
  5
1E1
330
1B
100
AcDbEntity
 67
     1
  8
0
  6
Continuous
 62
     7
370
    25
100
AcDbLine
 10
1.1275565559
 20
13.1838104678
 30
0.0
 11
-0.0879280149
 21
13.1387399861
 31
0.0
  0
LINE
  5
1E2
330
1B
100
AcDbEntity
 67
     1
  8
0
  6
Continuous
 62
     7
370
    25
100
AcDbLine
 10
1.3762132214
 20
11.5423030505
 30
0.0
 11
0.2214722453
 21
11.5423030505
 31
0.0
  0
LINE
  5
1E3
330
1B
100
AcDbEntity
 67
     1
  8
0
  6
Continuous
 62
     7
370
    25
100
AcDbLine
 10
1.3779527559
 20
11.5354330709
 30
0.0
 11
-1.3779527559
 21
11.5354330709
 31
0.0
  0
LINE
  5
1E4
330
1B
100
AcDbEntity
 67
     1
  8
0
  6
Continuous
 62
     7
370
    25
100
AcDbLine
 10
-4.993490977
 20
13.0138642971
 30
0.0
 11
-4.993490977
 21
13.0137443811
 31
0.0
  0
LINE
  5
1E5
330
1B
100
AcDbEntity
 67
     1
  8
0
  6
Continuous
 62
     7
370
    25
100
AcDbLine
 10
4.993490977
 20
13.0138642971
 30
0.0
 11
4.993490977
 21
13.0137443811
 31
0.0
  0
LINE
  5
1E6
330
1B
100
AcDbEntity
 67
     1
  8
0
  6
Continuous
 62
     7
370
    25
100
AcDbLine
 10
10.1377952756
 20
15.4735325867
 30
0.0
 11
10.572040846
 21
15.4735325867
 31
0.0
  0
LINE
  5
1E7
330
1B
100
AcDbEntity
 67
     1
  8
0
  6
Continuous
 62
     7
370
    25
100
AcDbLine
 10
-10.572040846
 20
15.4735325867
 30
0.0
 11
-10.1377952756
 21
15.4735325867
 31
0.0
  0
LINE
  5
1E8
330
1B
100
AcDbEntity
 67
     1
  8
0
  6
Continuous
 62
     7
370
    25
100
AcDbLine
 10
-9.0551181102
 20
0.905511811
 30
0.0
 11
9.0551181102
 21
0.905511811
 31
0.0
  0
LINE
  5
1E9
330
1B
100
AcDbEntity
 67
     1
  8
0
  6
Continuous
 62
     7
370
    25
100
AcDbLine
 10
9.0551181102
 20
1.6141732283
 30
0.0
 11
-9.0551181102
 21
1.6141732283
 31
0.0
  0
LINE
  5
1EA
330
1B
100
AcDbEntity
 67
     1
  8
0
  6
Continuous
 62
     7
370
    25
100
AcDbLine
 10
-9.0551181102
 20
5.5511811024
 30
0.0
 11
-9.0551181102
 21
0.905511811
 31
0.0
  0
LINE
  5
1EB
330
1B
100
AcDbEntity
 67
     1
  8
0
  6
Continuous
 62
     7
370
    25
100
AcDbLine
 10
9.0551181102
 20
5.5511811024
 30
0.0
 11
9.0551181102
 21
0.905511811
 31
0.0
  0
LINE
  5
1EC
330
1B
100
AcDbEntity
 67
     1
  8
0
  6
Continuous
 62
     7
370
    25
100
AcDbLine
 10
8.3464566929
 20
5.5511811024
 30
0.0
 11
8.3464566929
 21
1.6141732283
 31
0.0
  0
LINE
  5
1ED
330
1B
100
AcDbEntity
 67
     1
  8
0
  6
Continuous
 62
     7
370
    25
100
AcDbLine
 10
-8.3464566929
 20
5.5511811024
 30
0.0
 11
-8.3464566929
 21
1.6141732283
 31
0.0
  0
LINE
  5
1EE
330
1B
100
AcDbEntity
 67
     1
  8
0
  6
Continuous
 62
     7
370
    25
100
AcDbLine
 10
-9.0551181102
 20
5.5511811024
 30
0.0
 11
9.0551181102
 21
5.5511811024
 31
0.0
  0
LINE
  5
1EF
330
1B
100
AcDbEntity
 67
     1
  8
0
  6
Continuous
 62
     7
370
    25
100
AcDbLine
 10
9.4291338583
 20
13.3858267717
 30
0.0
 11
8.9905596478
 21
13.3858267717
 31
0.0
  0
LINE
  5
1F0
330
1B
100
AcDbEntity
 67
     1
  8
0
  6
Continuous
 62
     7
370
    25
100
AcDbLine
 10
-8.9905596478
 20
13.3858267717
 30
0.0
 11
-9.4291338583
 21
13.3858267717
 31
0.0
  0
LINE
  5
1F1
330
1B
100
AcDbEntity
 67
     1
  8
0
  6
Continuous
 62
     7
370
    25
100
AcDbLine
 10
-10.1377952756
 20
15.7480314961
 30
0.0
 11
-9.1042585354
 21
15.7480314961
 31
0.0
  0
LINE
  5
1F2
330
1B
100
AcDbEntity
 67
     1
  8
0
  6
Continuous
 62
     7
370
    25
100
AcDbLine
 10
9.1042585354
 20
15.7480314961
 30
0.0
 11
10.1377952756
 21
15.7480314961
 31
0.0
  0
LINE
  5
1F3
330
1B
100
AcDbEntity
 67
     1
  8
0
  6
Continuous
 62
     7
370
    25
100
AcDbLine
 10
9.4094488189
 20
13.3070866142
 30
0.0
 11
9.4094488189
 21
0.7086614173
 31
0.0
  0
LINE
  5
1F4
330
1B
100
AcDbEntity
 67
     1
  8
0
  6
Continuous
 62
     7
370
    25
100
AcDbLine
 10
-9.4094488189
 20
13.3070866142
 30
0.0
 11
-8.9884429769
 21
13.3070866142
 31
0.0
  0
LINE
  5
1F5
330
1B
100
AcDbEntity
 67
     1
  8
0
  6
Continuous
 62
     7
370
    25
100
AcDbLine
 10
8.9884429769
 20
13.3070866142
 30
0.0
 11
9.4094488189
 21
13.3070866142
 31
0.0
  0
LINE
  5
1F6
330
1B
100
AcDbEntity
 67
     1
  8
0
  6
Continuous
 62
     7
370
    25
100
AcDbLine
 10
-9.4094488189
 20
0.7086614173
 30
0.0
 11
-9.4094488189
 21
13.3070866142
 31
0.0
  0
LINE
  5
1F7
330
1B
100
AcDbEntity
 67
     1
  8
0
  6
Continuous
 62
     7
370
    25
100
AcDbLine
 10
-9.4291338583
 20
15.7480314961
 30
0.0
 11
-9.4291338583
 21
0.0
 31
0.0
  0
LINE
  5
1F8
330
1B
100
AcDbEntity
 67
     1
  8
0
  6
Continuous
 62
     7
370
    25
100
AcDbLine
 10
-10.1377952756
 20
15.7480314961
 30
0.0
 11
-10.1377952756
 21
0.0
 31
0.0
  0
LINE
  5
1F9
330
1B
100
AcDbEntity
 67
     1
  8
0
  6
Continuous
 62
     7
370
    25
100
AcDbLine
 10
-10.1377952756
 20
0.0
 30
0.0
 11
10.1377952756
 21
0.0
 31
0.0
  0
LINE
  5
1FA
330
1B
100
AcDbEntity
 67
     1
  8
0
  6
Continuous
 62
     7
370
    25
100
AcDbLine
 10
9.4291338583
 20
15.7480314961
 30
0.0
 11
9.4291338583
 21
0.0
 31
0.0
  0
LINE
  5
1FB
330
1B
100
AcDbEntity
 67
     1
  8
0
  6
Continuous
 62
     7
370
    25
100
AcDbLine
 10
10.1377952756
 20
15.7480314961
 30
0.0
 11
10.1377952756
 21
0.0
 31
0.0
  0
LINE
  5
1FC
330
1B
100
AcDbEntity
 67
     1
  8
0
  6
Continuous
 62
     7
370
    25
100
AcDbLine
 10
-9.4291338583
 20
0.7086614173
 30
0.0
 11
9.4291338583
 21
0.7086614173
 31
0.0
  0
LINE
  5
1FD
330
1B
100
AcDbEntity
 67
     1
  8
0
  6
Continuous
 62
     8
370
    25
100
AcDbLine
 10
6.2058196983
 20
12.7165354331
 30
0.0
 11
6.2117235346
 21
12.7165354331
 31
0.0
  0
LINE
  5
1FE
330
1B
100
AcDbEntity
 67
     1
  8
0
  6
Continuous
 62
     8
370
    25
100
AcDbLine
 10
6.1455293434
 20
12.8654723631
 30
0.0
 11
6.1455293434
 21
12.7843039275
 31
0.0
  0
LINE
  5
1FF
330
1B
100
AcDbEntity
 67
     1
  8
0
  6
Continuous
 62
     8
370
    25
100
AcDbLine
 10
-6.1455293434
 20
12.7843039275
 30
0.0
 11
-6.1455293434
 21
12.8654723631
 31
0.0
  0
LINE
  5
200
330
1B
100
AcDbEntity
 67
     1
  8
0
  6
Continuous
 62
     8
370
    25
100
AcDbLine
 10
-6.2117235346
 20
12.7165354331
 30
0.0
 11
-6.2058196983
 21
12.7165354331
 31
0.0
  0
LINE
  5
201
330
1B
100
AcDbEntity
 67
     1
  8
0
  6
Continuous
 62
     8
370
    25
100
AcDbLine
 10
2.7361548517
 20
14.2913385827
 30
0.0
 11
2.7361548517
 21
11.9291338583
 31
0.0
  0
LINE
  5
202
330
1B
100
AcDbEntity
 67
     1
  8
0
  6
Continuous
 62
     8
370
    25
100
AcDbLine
 10
3.5051978338
 20
11.9291338583
 30
0.0
 11
3.5051978338
 21
14.2913385827
 31
0.0
  0
LINE
  5
203
330
1B
100
AcDbEntity
 67
     1
  8
0
  6
Continuous
 62
     8
370
    25
100
AcDbLine
 10
5.957639584
 20
13.1042822195
 30
0.0
 11
5.957639584
 21
13.2882243219
 31
0.0
  0
LINE
  5
204
330
1B
100
AcDbEntity
 67
     1
  8
0
  6
Continuous
 62
     8
370
    25
100
AcDbLine
 10
5.957639584
 20
15.7580164179
 30
0.0
 11
5.957639584
 21
16.3679678341
 31
0.0
  0
LINE
  5
205
330
1B
100
AcDbEntity
 67
     1
  8
0
  6
Continuous
 62
     8
370
    25
100
AcDbLine
 10
-5.957639584
 20
16.3679678341
 30
0.0
 11
-5.957639584
 21
15.7580164179
 31
0.0
  0
LINE
  5
206
330
1B
100
AcDbEntity
 67
     1
  8
0
  6
Continuous
 62
     8
370
    25
100
AcDbLine
 10
-5.957639584
 20
13.2882243219
 30
0.0
 11
-5.957639584
 21
13.1042822195
 31
0.0
  0
LINE
  5
207
330
1B
100
AcDbEntity
 67
     1
  8
0
  6
Continuous
 62
     8
370
    25
100
AcDbLine
 10
3.5146535123
 20
13.4750600546
 30
0.0
 11
3.5146535123
 21
14.2913385827
 31
0.0
  0
LINE
  5
208
330
1B
100
AcDbEntity
 67
     1
  8
0
  6
Continuous
 62
     8
370
    25
100
AcDbLine
 10
3.58193224
 20
14.2913385827
 30
0.0
 11
3.58193224
 21
13.4750600546
 31
0.0
  0
LINE
  5
209
330
1B
100
AcDbEntity
 67
     1
  8
0
  6
Continuous
 62
     8
370
    25
100
AcDbLine
 10
-4.993490977
 20
13.0138642971
 30
0.0
 11
-1.429580712
 21
13.0138642971
 31
0.0
  0
LINE
  5
20A
330
1B
100
AcDbEntity
 67
     1
  8
0
  6
Continuous
 62
     8
370
    25
100
AcDbLine
 10
3.5433070866
 20
13.0138642971
 30
0.0
 11
4.993490977
 21
13.0138642971
 31
0.0
  0
LINE
  5
20B
330
1B
100
AcDbEntity
 67
     1
  8
0
  6
Continuous
 62
     8
370
    25
100
AcDbLine
 10
1.3775494476
 20
11.548725157
 30
0.0
 11
1.3762132214
 21
11.5423030505
 31
0.0
  0
LINE
  5
20C
330
1B
100
AcDbEntity
 67
     1
  8
0
  6
Continuous
 62
     8
370
    25
100
AcDbLine
 10
10.1377952756
 20
15.6299212598
 30
0.0
 11
10.4330708661
 21
15.6299212598
 31
0.0
  0
LINE
  5
20D
330
1B
100
AcDbEntity
 67
     1
  8
0
  6
Continuous
 62
     8
370
    25
100
AcDbLine
 10
-10.4330708661
 20
15.6299212598
 30
0.0
 11
-10.1377952756
 21
15.6299212598
 31
0.0
  0
ARC
  5
20E
330
1B
100
AcDbEntity
 67
     1
  8
0
  6
Continuous
 62
     7
370
    25
100
AcDbCircle
 10
9.2084219729
 20
15.6299212598
 30
0.0
 40
0.1574803149606314
100
AcDbArc
 50
90.0
 51
178.4601617114
  0
ARC
  5
20F
330
1B
100
AcDbEntity
 67
     1
  8
0
  6
Continuous
 62
     7
370
    25
100
AcDbCircle
 10
8.5840166113
 20
12.9133858268
 30
0.0
 40
0.3937007874015883
100
AcDbArc
 50
270.0
 51
358.4601617114
  0
ARC
  5
210
330
1B
100
AcDbEntity
 67
     1
  8
0
  6
Continuous
 62
     7
370
    25
100
AcDbCircle
 10
6.4271403719
 20
12.7165354331
 30
0.0
 40
0.1968503937007836
100
AcDbArc
 50
203.9624889746
 51
270.0
  0
ARC
  5
211
330
1B
100
AcDbEntity
 67
     1
  8
0
  6
Continuous
 62
     7
370
    25
100
AcDbCircle
 10
5.3838832502
 20
14.094488189
 30
0.0
 40
0.1968503937007853
100
AcDbArc
 50
23.9624889746
 51
90.0
  0
ARC
  5
212
330
1B
100
AcDbEntity
 67
     1
  8
0
  6
Continuous
 62
     7
370
    25
100
AcDbCircle
 10
-5.3838832502
 20
14.094488189
 30
0.0
 40
0.1968503937007942
100
AcDbArc
 50
90.0
 51
156.0375110254
  0
ARC
  5
213
330
1B
100
AcDbEntity
 67
     1
  8
0
  6
Continuous
 62
     7
370
    25
100
AcDbCircle
 10
-6.4271403719
 20
12.7165354331
 30
0.0
 40
0.1968503937007892
100
AcDbArc
 50
270.0
 51
336.0375110254
  0
ARC
  5
214
330
1B
100
AcDbEntity
 67
     1
  8
0
  6
Continuous
 62
     7
370
    25
100
AcDbCircle
 10
-9.2084219729
 20
15.6299212598
 30
0.0
 40
0.1574803149606403
100
AcDbArc
 50
1.5398382886
 51
90.0
  0
ARC
  5
215
330
1B
100
AcDbEntity
 67
     1
  8
0
  6
Continuous
 62
     7
370
    25
100
AcDbCircle
 10
-10.2755905512
 20
15.6299212598
 30
0.0
 40
0.157480314960635
100
AcDbArc
 50
90.0
 51
180.0
  0
ARC
  5
216
330
1B
100
AcDbEntity
 67
     1
  8
0
  6
Continuous
 62
     7
370
    25
100
AcDbCircle
 10
-10.5905511811
 20
15.6299212598
 30
0.0
 40
0.1574803149606333
100
AcDbArc
 50
276.7501863873
 51
360.0
  0
ARC
  5
217
330
1B
100
AcDbEntity
 67
     1
  8
0
  6
Continuous
 62
     7
370
    25
100
AcDbCircle
 10
-10.5535305109
 20
15.6299212598
 30
0.0
 40
0.1574803149606272
100
AcDbArc
 50
183.0
 51
263.2498136127
  0
ARC
  5
218
330
1B
100
AcDbEntity
 67
     1
  8
0
  6
Continuous
 62
     7
370
    25
100
AcDbCircle
 10
-10.6608220275
 20
17.6771653543
 30
0.0
 40
0.1574803149606439
100
AcDbArc
 50
90.0
 51
183.0
  0
ARC
  5
219
330
1B
100
AcDbEntity
 67
     1
  8
0
  6
Continuous
 62
     7
370
    25
100
AcDbCircle
 10
10.6608220275
 20
17.6771653543
 30
0.0
 40
0.1574803149606296
100
AcDbArc
 50
357.0
 51
90.0
  0
ARC
  5
21A
330
1B
100
AcDbEntity
 67
     1
  8
0
  6
Continuous
 62
     7
370
    25
100
AcDbCircle
 10
10.5535305109
 20
15.6299212598
 30
0.0
 40
0.1574803149606412
100
AcDbArc
 50
276.7501863873
 51
357.0
  0
ARC
  5
21B
330
1B
100
AcDbEntity
 67
     1
  8
0
  6
Continuous
 62
     7
370
    25
100
AcDbCircle
 10
10.5905511811
 20
15.6299212598
 30
0.0
 40
0.1574803149606296
100
AcDbArc
 50
180.0
 51
263.2498136127
  0
ARC
  5
21C
330
1B
100
AcDbEntity
 67
     1
  8
0
  6
Continuous
 62
     7
370
    25
100
AcDbCircle
 10
10.2755905512
 20
15.6299212598
 30
0.0
 40
0.1574803149606332
100
AcDbArc
 50
0.0
 51
90.0
  0
ARC
  5
21D
330
1B
100
AcDbEntity
 67
     1
  8
0
  6
Continuous
 62
     7
370
    25
100
AcDbCircle
 10
5.3149606299
 20
16.062992126
 30
0.0
 40
0.3937007874015741
100
AcDbArc
 50
90.0
 51
270.0
  0
ARC
  5
21E
330
1B
100
AcDbEntity
 67
     1
  8
0
  6
Continuous
 62
     7
370
    25
100
AcDbCircle
 10
5.7086614173
 20
16.062992126
 30
0.0
 40
0.3937007874015741
100
AcDbArc
 50
270.0
 51
90.0
  0
ARC
  5
21F
330
1B
100
AcDbEntity
 67
     1
  8
0
  6
Continuous
 62
     7
370
    25
100
AcDbCircle
 10
-5.3149606299
 20
16.062992126
 30
0.0
 40
0.3937007874015741
100
AcDbArc
 50
270.0
 51
90.0
  0
ARC
  5
220
330
1B
100
AcDbEntity
 67
     1
  8
0
  6
Continuous
 62
     7
370
    25
100
AcDbCircle
 10
-5.7086614173
 20
16.062992126
 30
0.0
 40
0.3937007874015741
100
AcDbArc
 50
90.0
 51
270.0
  0
ARC
  5
221
330
1B
100
AcDbEntity
 67
     1
  8
0
  6
Continuous
 62
     7
370
    25
100
AcDbCircle
 10
-8.5840166113
 20
12.9133858268
 30
0.0
 40
0.3937007874015741
100
AcDbArc
 50
181.5398382886
 51
270.0
  0
ARC
  5
222
330
1B
100
AcDbEntity
 67
     1
  8
0
  6
Continuous
 62
     7
370
    25
100
AcDbCircle
 10
6.39829661
 20
12.712157088
 30
0.0
 40
0.1925267032808091
100
AcDbArc
 50
178.6968959793
 51
268.6347382615
  0
ARC
  5
223
330
1B
100
AcDbEntity
 67
     1
  8
0
  6
Continuous
 62
     7
370
    25
100
AcDbCircle
 10
-6.39829661
 20
12.712157088
 30
0.0
 40
0.19252670328099
100
AcDbArc
 50
271.3652617386
 51
1.3031040206
  0
ARC
  5
224
330
1B
100
AcDbEntity
 67
     1
  8
0
  6
Continuous
 62
     7
370
    25
100
AcDbCircle
 10
2.5560718463
 20
11.9119236721
 30
0.0
 40
0.1809035083895838
100
AcDbArc
 50
276.7751760746
 51
5.4590679447
  0
ARC
  5
225
330
1B
100
AcDbEntity
 67
     1
  8
0
  6
Continuous
 62
     7
370
    25
100
AcDbCircle
 10
1.3779527559
 20
11.9291338583
 30
0.0
 40
0.1968503937007871
100
AcDbArc
 50
180.0
 51
270.0
  0
ARC
  5
226
330
1B
100
AcDbEntity
 67
     1
  8
0
  6
Continuous
 62
     7
370
    25
100
AcDbCircle
 10
3.3251148284
 20
11.9119236721
 30
0.0
 40
0.1809035083895832
100
AcDbArc
 50
276.7751760746
 51
5.4590679447
  0
ARC
  5
227
330
1B
100
AcDbEntity
 67
     1
  8
0
  6
Continuous
 62
     7
370
    25
100
AcDbCircle
 10
6.3937095362
 20
12.7165344876
 30
0.0
 40
0.1968494482015131
100
AcDbArc
 50
219.9912307251
 51
269.9999771648
  0
ARC
  5
228
330
1B
100
AcDbEntity
 67
     1
  8
0
  6
Continuous
 62
     7
370
    25
100
AcDbCircle
 10
6.3729528019
 20
12.6968276738
 30
0.0
 40
0.1682910280128062
100
AcDbArc
 50
173.2749336696
 51
219.3925284097
  0
ARC
  5
229
330
1B
100
AcDbEntity
 67
     1
  8
0
  6
Continuous
 62
     7
370
    25
100
AcDbCircle
 10
6.3162921911
 20
12.7658437458
 30
0.0
 40
0.1717577609384805
100
AcDbArc
 50
173.8300460159
 51
221.9472110961
  0
ARC
  5
22A
330
1B
100
AcDbEntity
 67
     1
  8
0
  6
Continuous
 62
     7
370
    25
100
AcDbCircle
 10
-6.3729528019
 20
12.6968276738
 30
0.0
 40
0.1682910280128909
100
AcDbArc
 50
320.6074715902
 51
6.7250663303
  0
ARC
  5
22B
330
1B
100
AcDbEntity
 67
     1
  8
0
  6
Continuous
 62
     7
370
    25
100
AcDbCircle
 10
-6.3937095362
 20
12.7165344876
 30
0.0
 40
0.1968494482015068
100
AcDbArc
 50
270.0000228352
 51
320.0087692749
  0
ARC
  5
22C
330
1B
100
AcDbEntity
 67
     1
  8
0
  6
Continuous
 62
     7
370
    25
100
AcDbCircle
 10
-6.3162921911
 20
12.7658437458
 30
0.0
 40
0.1717577609384802
100
AcDbArc
 50
318.0527889039
 51
6.1699539841
  0
ARC
  5
22D
330
1B
100
AcDbEntity
 67
     1
  8
0
  6
Continuous
 62
     7
370
    25
100
AcDbCircle
 10
6.3756185064
 20
12.7165341888
 30
0.0
 40
0.1968491493899464
100
AcDbArc
 50
228.6053995837
 51
269.9999842225
  0
ARC
  5
22E
330
1B
100
AcDbEntity
 67
     1
  8
0
  6
Continuous
 62
     7
370
    25
100
AcDbCircle
 10
-6.3756185064
 20
12.7165341888
 30
0.0
 40
0.19684914938992
100
AcDbArc
 50
270.0000157775
 51
311.3946004163
  0
ARC
  5
22F
330
1B
100
AcDbEntity
 67
     1
  8
0
  6
Continuous
 62
     7
370
    25
100
AcDbCircle
 10
1.1023861806
 20
13.1996133952
 30
0.0
 40
0.0787161852528632
100
AcDbArc
 50
0.0174621557
 51
90.0174515182
  0
ARC
  5
230
330
1B
100
AcDbEntity
 67
     1
  8
0
  6
Continuous
 62
     7
370
    25
100
AcDbCircle
 10
3.3464566929
 20
11.9291338583
 30
0.0
 40
0.1968503937007871
100
AcDbArc
 50
270.0
 51
0.0
  0
ARC
  5
231
330
1B
100
AcDbEntity
 67
     1
  8
0
  6
Continuous
 62
     7
370
    25
100
AcDbCircle
 10
3.6175033095
 20
13.2281799005
 30
0.0
 40
0.0743768998098272
100
AcDbArc
 50
86.4974272938
 51
176.0055420576
  0
ARC
  5
232
330
1B
100
AcDbEntity
 67
     1
  8
0
  6
Continuous
 62
     7
370
    25
100
AcDbCircle
 10
3.6220232682
 20
13.1996133952
 30
0.0
 40
0.0787161852528647
100
AcDbArc
 50
89.9825484818
 51
179.9825378443
  0
ARC
  5
233
330
1B
100
AcDbEntity
 67
     1
  8
0
  6
Continuous
 62
     7
370
    25
100
AcDbCircle
 10
3.6220232682
 20
13.1538857299
 30
0.0
 40
0.0787161852528623
100
AcDbArc
 50
89.9825484818
 51
179.9825378443
  0
ARC
  5
234
330
1B
100
AcDbEntity
 67
     1
  8
0
  6
Continuous
 62
     7
370
    25
100
AcDbCircle
 10
1.1023861806
 20
13.186614196
 30
0.0
 40
0.0787161852528648
100
AcDbArc
 50
0.0174621557
 51
90.0174515182
  0
ARC
  5
235
330
1B
100
AcDbEntity
 67
     1
  8
0
  6
Continuous
 62
     7
370
    25
100
AcDbCircle
 10
1.0746521979
 20
13.3962370309
 30
0.0
 40
0.1338073105307769
100
AcDbArc
 50
268.1081094729
 51
281.9518078319
  0
ARC
  5
236
330
1B
100
AcDbEntity
 67
     1
  8
0
  6
Continuous
 62
     7
370
    25
100
AcDbCircle
 10
-0.1040349433
 20
-4.2713556974
 30
0.0
 40
17.46875662047612
100
AcDbArc
 50
90.4848477701
 51
91.7794972439
  0
ARC
  5
237
330
1B
100
AcDbEntity
 67
     1
  8
0
  6
Continuous
 62
     7
370
    25
100
AcDbCircle
 10
1.1350367498
 20
13.5505519218
 30
0.0
 40
0.3668177304571604
100
AcDbArc
 50
268.8315361719
 51
277.2143523181
  0
ARC
  5
238
330
1B
100
AcDbEntity
 67
     1
  8
0
  6
Continuous
 62
     7
370
    25
100
AcDbCircle
 10
1.0551979297
 20
13.1913257958
 30
0.0
 40
0.0727478586453294
100
AcDbArc
 50
354.0703934361
 51
78.071120323
  0
ARC
  5
239
330
1B
100
AcDbEntity
 67
     1
  8
0
  6
Continuous
 62
     7
370
    25
100
AcDbCircle
 10
-0.3816195579
 20
8.8947875474
 30
0.0
 40
3.04431999587777
100
AcDbArc
 50
85.3608443476
 51
87.4125639332
  0
ARC
  5
23A
330
1B
100
AcDbEntity
 67
     1
  8
0
  6
Continuous
 62
     7
370
    25
100
AcDbCircle
 10
1.5727959967
 20
11.5355860116
 30
0.0
 40
0.1966974991682578
100
AcDbArc
 50
90.0392812361
 51
178.0430212786
  0
ARC
  5
23B
330
1B
100
AcDbEntity
 67
     1
  8
0
  6
Continuous
 62
     7
370
    25
100
AcDbCircle
 10
0.0
 20
5.5511811024
 30
0.0
 40
2.952755905511812
100
AcDbArc
 50
180.0
 51
0.0
  0
VIEWPORT
  5
425
330
1B
100
AcDbEntity
 67
     1
  8
0
100
AcDbViewport
 10
0.0
 20
0.0
 30
0.0
 40
8.4
 41
6.4
 68
     1
 69
     1
 12
0.0
 22
8.9173228346
 13
0.0
 23
0.0
 14
0.5
 24
0.5
 15
0.5
 25
0.5
 16
0.0
 26
0.0
 36
1.0
 17
0.0
 27
0.0
 37
0.0
 42
50.0
 43
0.0
 44
0.0
 45
18.1913385827
 50
0.0
 51
0.0
 72
   100
 90
   557152
  1

281
     0
 71
     1
 74
     0
110
0.0
120
0.0
130
0.0
111
1.0
121
0.0
131
0.0
112
0.0
122
1.0
132
0.0
 79
     0
146
0.0
  0
ENDSEC
  0
SECTION
  2
OBJECTS
  0
DICTIONARY
  5
C
330
0
100
AcDbDictionary
281
     1
  3
ACAD_GROUP
350
D
  3
ACAD_LAYOUT
350
1A
  3
ACAD_MLINESTYLE
350
17
  3
ACAD_PLOTSETTINGS
350
19
  3
ACAD_PLOTSTYLENAME
350
E
  3
ACAD_SCALELIST
350
47
  0
DICTIONARY
  5
D
102
{ACAD_REACTORS
330
C
102
}
330
C
100
AcDbDictionary
281
     1
  0
DICTIONARY
  5
1A
102
{ACAD_REACTORS
330
C
102
}
330
C
100
AcDbDictionary
281
     1
  3
_Back
350
1E
  3
_Isometric
350
2F3
  3
_Right
350
26
  3
_Top
350
28B
  3
Model
350
22
  0
DICTIONARY
  5
17
102
{ACAD_REACTORS
330
C
102
}
330
C
100
AcDbDictionary
281
     1
  3
Standard
350
18
  0
DICTIONARY
  5
19
102
{ACAD_REACTORS
330
C
102
}
330
C
100
AcDbDictionary
281
     1
  0
ACDBDICTIONARYWDFLT
  5
E
102
{ACAD_REACTORS
330
C
102
}
330
C
100
AcDbDictionary
281
     1
  3
Normal
350
F
100
AcDbDictionaryWithDefault
340
F
  0
DICTIONARY
  5
47
102
{ACAD_REACTORS
330
C
102
}
330
C
100
AcDbDictionary
281
     1
  3
A0
350
48
  3
A1
350
49
  3
A2
350
4A
  3
A3
350
4B
  3
A4
350
4C
  3
A5
350
4D
  3
A6
350
4E
  3
A7
350
4F
  3
A8
350
50
  3
A9
350
51
  3
B0
350
52
  3
B1
350
53
  3
B2
350
54
  3
B3
350
55
  3
B4
350
56
  3
B5
350
57
  3
B6
350
58
  3
B7
350
59
  3
B8
350
5A
  3
B9
350
5B
  3
C0
350
5C
  3
C1
350
5D
  3
C2
350
5E
  3
C3
350
5F
  3
C4
350
60
  3
C5
350
61
  3
C6
350
62
  3
C7
350
63
  3
C8
350
64
  3
C9
350
65
  3
D0
350
66
  3
D1
350
67
  3
D2
350
68
  0
LAYOUT
  5
1E
102
{ACAD_REACTORS
330
1A
102
}
330
1A
100
AcDbPlotSettings
  1

  2
none_device
  4
Letter_(8.50_x_11.00_Inches)
  6

 40
6.35
 41
6.35
 42
6.35001
 43
6.35001
 44
215.9
 45
279.4
 46
0.0
 47
0.0
 48
0.0
 49
0.0
140
0.0
141
0.0
142
1.0
143
2.2293308184
 70
   688
 72
     0
 73
     1
 74
     1
  7

 75
     0
147
0.4485650993
148
274.7848794989
149
0.0
100
AcDbLayout
  1
_Back
 70
     1
 71
     1
 10
-11.3756359248
 20
-0.5573327046
 11
13.1470030773
 21
18.3919792516
 12
0.0
 22
0.0
 32
0.0
 14
-10.8183023425
 24
0.0
 34
0.0
 15
10.8183023425
 25
17.8346456693
 35
0.0
146
0.0
 13
0.0
 23
0.0
 33
0.0
 16
1.0
 26
0.0
 36
0.0
 17
0.0
 27
1.0
 37
0.0
 76
     0
330
1B
331
425
  0
LAYOUT
  5
2F3
102
{ACAD_REACTORS
330
1A
102
}
330
1A
100
AcDbPlotSettings
  1

  2
none_device
  4
Letter_(8.50_x_11.00_Inches)
  6

 40
6.35
 41
6.35
 42
6.35001
 43
6.35001
 44
215.9
 45
279.4
 46
0.0
 47
0.0
 48
0.0
 49
0.0
140
0.0
141
0.0
142
1.0
143
2.2293308184
 70
   688
 72
     0
 73
     1
 74
     1
  7

 75
     0
147
0.4485650993
148
274.7848794989
149
0.0
100
AcDbLayout
  1
_Isometric
 70
     1
 71
     4
 10
0.0
 20
0.0
 11
0.0
 21
0.0
 12
0.0
 22
0.0
 32
0.0
 14
0.0
 24
0.0
 34
0.0
 15
0.0
 25
0.0
 35
0.0
146
0.0
 13
0.0
 23
0.0
 33
0.0
 16
1.0
 26
0.0
 36
0.0
 17
0.0
 27
1.0
 37
0.0
 76
     0
330
2F2
331
42B
  0
LAYOUT
  5
26
102
{ACAD_REACTORS
330
1A
102
}
330
1A
100
AcDbPlotSettings
  1

  2
none_device
  4
Letter_(8.50_x_11.00_Inches)
  6

 40
6.35
 41
6.35
 42
6.35001
 43
6.35001
 44
215.9
 45
279.4
 46
0.0
 47
0.0
 48
0.0
 49
0.0
140
0.0
141
0.0
142
1.0
143
2.2293308184
 70
   688
 72
     0
 73
     1
 74
     1
  7

 75
     0
147
0.4485650993
148
274.7848794989
149
0.0
100
AcDbLayout
  1
_Right
 70
     1
 71
     2
 10
0.0
 20
0.0
 11
0.0
 21
0.0
 12
0.0
 22
0.0
 32
0.0
 14
0.0
 24
0.0
 34
0.0
 15
0.0
 25
0.0
 35
0.0
146
0.0
 13
0.0
 23
0.0
 33
0.0
 16
1.0
 26
0.0
 36
0.0
 17
0.0
 27
1.0
 37
0.0
 76
     0
330
23
331
427
  0
LAYOUT
  5
28B
102
{ACAD_REACTORS
330
1A
102
}
330
1A
100
AcDbPlotSettings
  1

  2
none_device
  4
Letter_(8.50_x_11.00_Inches)
  6

 40
6.35
 41
6.35
 42
6.35001
 43
6.35001
 44
215.9
 45
279.4
 46
0.0
 47
0.0
 48
0.0
 49
0.0
140
0.0
141
0.0
142
1.0
143
2.2293308184
 70
   688
 72
     0
 73
     1
 74
     1
  7

 75
     0
147
0.4485650993
148
274.7848794989
149
0.0
100
AcDbLayout
  1
_Top
 70
     1
 71
     3
 10
0.0
 20
0.0
 11
0.0
 21
0.0
 12
0.0
 22
0.0
 32
0.0
 14
0.0
 24
0.0
 34
0.0
 15
0.0
 25
0.0
 35
0.0
146
0.0
 13
0.0
 23
0.0
 33
0.0
 16
1.0
 26
0.0
 36
0.0
 17
0.0
 27
1.0
 37
0.0
 76
     0
330
28A
331
429
  0
LAYOUT
  5
22
102
{ACAD_REACTORS
330
1A
102
}
330
1A
100
AcDbPlotSettings
  1

  2
none_device
  4
ANSI_A_(11.00_x_8.50_Inches)
  6

 40
6.35
 41
19.05
 42
6.35000508
 43
19.05000254
 44
279.4
 45
215.9
 46
133.34999746
 47
-17.97050127
 48
0.0
 49
0.0
140
0.0
141
0.0
142
0.4718344371
143
1.0
 70
  1696
 72
     0
 73
     0
 74
     0
  7

 75
     0
147
0.5913241897
148
-39.4088153714
149
0.0
100
AcDbLayout
  1
Model
 70
     1
 71
     0
 10
0.0
 20
0.0
 11
12.0
 21
9.0
 12
0.0
 22
0.0
 32
0.0
 14
-10.8183023425
 24
0.0
 34
0.0
 15
10.8183023425
 25
17.8346456693
 35
0.0
146
0.0
 13
0.0
 23
0.0
 33
0.0
 16
1.0
 26
0.0
 36
0.0
 17
0.0
 27
1.0
 37
0.0
 76
     0
330
1F
331
29
  0
MLINESTYLE
  5
18
102
{ACAD_REACTORS
330
17
102
}
330
17
100
AcDbMlineStyle
  2
Standard
 70
     0
  3

 62
   256
 51
90.0
 52
90.0
 71
     2
 49
0.5
 62
   256
  6
BYLAYER
 49
-0.5
 62
   256
  6
BYLAYER
  0
ACDBPLACEHOLDER
  5
F
102
{ACAD_REACTORS
330
E
102
}
330
E
  0
SCALE
  5
48
102
{ACAD_REACTORS
330
47
102
}
330
47
100
AcDbScale
 70
     0
300
1:1
140
1.0
141
1.0
290
     1
  0
SCALE
  5
49
102
{ACAD_REACTORS
330
47
102
}
330
47
100
AcDbScale
 70
     0
300
1:2
140
1.0
141
2.0
290
     0
  0
SCALE
  5
4A
102
{ACAD_REACTORS
330
47
102
}
330
47
100
AcDbScale
 70
     0
300
1:4
140
1.0
141
4.0
290
     0
  0
SCALE
  5
4B
102
{ACAD_REACTORS
330
47
102
}
330
47
100
AcDbScale
 70
     0
300
1:5
140
1.0
141
5.0
290
     0
  0
SCALE
  5
4C
102
{ACAD_REACTORS
330
47
102
}
330
47
100
AcDbScale
 70
     0
300
1:8
140
1.0
141
8.0
290
     0
  0
SCALE
  5
4D
102
{ACAD_REACTORS
330
47
102
}
330
47
100
AcDbScale
 70
     0
300
1:10
140
1.0
141
10.0
290
     0
  0
SCALE
  5
4E
102
{ACAD_REACTORS
330
47
102
}
330
47
100
AcDbScale
 70
     0
300
1:16
140
1.0
141
16.0
290
     0
  0
SCALE
  5
4F
102
{ACAD_REACTORS
330
47
102
}
330
47
100
AcDbScale
 70
     0
300
1:20
140
1.0
141
20.0
290
     0
  0
SCALE
  5
50
102
{ACAD_REACTORS
330
47
102
}
330
47
100
AcDbScale
 70
     0
300
1:30
140
1.0
141
30.0
290
     0
  0
SCALE
  5
51
102
{ACAD_REACTORS
330
47
102
}
330
47
100
AcDbScale
 70
     0
300
1:40
140
1.0
141
40.0
290
     0
  0
SCALE
  5
52
102
{ACAD_REACTORS
330
47
102
}
330
47
100
AcDbScale
 70
     0
300
1:50
140
1.0
141
50.0
290
     0
  0
SCALE
  5
53
102
{ACAD_REACTORS
330
47
102
}
330
47
100
AcDbScale
 70
     0
300
1:100
140
1.0
141
100.0
290
     0
  0
SCALE
  5
54
102
{ACAD_REACTORS
330
47
102
}
330
47
100
AcDbScale
 70
     0
300
2:1
140
2.0
141
1.0
290
     0
  0
SCALE
  5
55
102
{ACAD_REACTORS
330
47
102
}
330
47
100
AcDbScale
 70
     0
300
4:1
140
4.0
141
1.0
290
     0
  0
SCALE
  5
56
102
{ACAD_REACTORS
330
47
102
}
330
47
100
AcDbScale
 70
     0
300
8:1
140
8.0
141
1.0
290
     0
  0
SCALE
  5
57
102
{ACAD_REACTORS
330
47
102
}
330
47
100
AcDbScale
 70
     0
300
10:1
140
10.0
141
1.0
290
     0
  0
SCALE
  5
58
102
{ACAD_REACTORS
330
47
102
}
330
47
100
AcDbScale
 70
     0
300
100:1
140
100.0
141
1.0
290
     0
  0
SCALE
  5
59
102
{ACAD_REACTORS
330
47
102
}
330
47
100
AcDbScale
 70
     0
300
1/128" = 1'-0"
140
0.0078125
141
12.0
290
     0
  0
SCALE
  5
5A
102
{ACAD_REACTORS
330
47
102
}
330
47
100
AcDbScale
 70
     0
300
1/64" = 1'-0"
140
0.015625
141
12.0
290
     0
  0
SCALE
  5
5B
102
{ACAD_REACTORS
330
47
102
}
330
47
100
AcDbScale
 70
     0
300
1/32" = 1'-0"
140
0.03125
141
12.0
290
     0
  0
SCALE
  5
5C
102
{ACAD_REACTORS
330
47
102
}
330
47
100
AcDbScale
 70
     0
300
1/16" = 1'-0"
140
0.0625
141
12.0
290
     0
  0
SCALE
  5
5D
102
{ACAD_REACTORS
330
47
102
}
330
47
100
AcDbScale
 70
     0
300
3/32" = 1'-0"
140
0.09375
141
12.0
290
     0
  0
SCALE
  5
5E
102
{ACAD_REACTORS
330
47
102
}
330
47
100
AcDbScale
 70
     0
300
1/8" = 1'-0"
140
0.125
141
12.0
290
     0
  0
SCALE
  5
5F
102
{ACAD_REACTORS
330
47
102
}
330
47
100
AcDbScale
 70
     0
300
3/16" = 1'-0"
140
0.1875
141
12.0
290
     0
  0
SCALE
  5
60
102
{ACAD_REACTORS
330
47
102
}
330
47
100
AcDbScale
 70
     0
300
1/4" = 1'-0"
140
0.25
141
12.0
290
     0
  0
SCALE
  5
61
102
{ACAD_REACTORS
330
47
102
}
330
47
100
AcDbScale
 70
     0
300
3/8" = 1'-0"
140
0.375
141
12.0
290
     0
  0
SCALE
  5
62
102
{ACAD_REACTORS
330
47
102
}
330
47
100
AcDbScale
 70
     0
300
1/2" = 1'-0"
140
0.5
141
12.0
290
     0
  0
SCALE
  5
63
102
{ACAD_REACTORS
330
47
102
}
330
47
100
AcDbScale
 70
     0
300
3/4" = 1'-0"
140
0.75
141
12.0
290
     0
  0
SCALE
  5
64
102
{ACAD_REACTORS
330
47
102
}
330
47
100
AcDbScale
 70
     0
300
1" = 1'-0"
140
1.0
141
12.0
290
     0
  0
SCALE
  5
65
102
{ACAD_REACTORS
330
47
102
}
330
47
100
AcDbScale
 70
     0
300
1-1/2" = 1'-0"
140
1.5
141
12.0
290
     0
  0
SCALE
  5
66
102
{ACAD_REACTORS
330
47
102
}
330
47
100
AcDbScale
 70
     0
300
3" = 1'-0"
140
3.0
141
12.0
290
     0
  0
SCALE
  5
67
102
{ACAD_REACTORS
330
47
102
}
330
47
100
AcDbScale
 70
     0
300
6" = 1'-0"
140
6.0
141
12.0
290
     0
  0
SCALE
  5
68
102
{ACAD_REACTORS
330
47
102
}
330
47
100
AcDbScale
 70
     0
300
1'-0" = 1'-0"
140
12.0
141
12.0
290
     0
  0
ENDSEC
  0
EOF
