  0
SECTION
  2
HEADER
  9
$ACADVER
  1
AC1015
  9
$ACADMAINTVER
 70
     6
  9
$DWGCODEPAGE
  3
ANSI_1252
  9
$INSBASE
 10
0.0
 20
0.0
 30
0.0
  9
$EXTMIN
 10
-275.0
 20
-400.0
 30
0.0
  9
$EXTMAX
 10
275.0
 20
400.0
 30
0.0
  9
$LIMMIN
 10
0.0
 20
0.0
  9
$LIMMAX
 10
420.0
 20
297.0
  9
$ORTHOMODE
 70
     0
  9
$REGENMODE
 70
     1
  9
$FILLMODE
 70
     1
  9
$QTEXTMODE
 70
     0
  9
$MIRRTEXT
 70
     1
  9
$LTSCALE
 40
1.0
  9
$ATTMODE
 70
     1
  9
$TEXTSIZE
 40
3.5
  9
$TRACEWID
 40
1.0
  9
$TEXTSTYLE
  7
Standard
  9
$CLAYER
  8
0
  9
$CELTYPE
  6
ByLayer
  9
$CECOLOR
 62
   256
  9
$CELTSCALE
 40
1.0
  9
$DISPSILH
 70
     0
  9
$DIMSCALE
 40
1.0
  9
$DIMASZ
 40
3.302
  9
$DIMEXO
 40
1.0
  9
$DIMDLI
 40
3.75
  9
$DIMRND
 40
0.0
  9
$DIMDLE
 40
0.0
  9
$DIMEXE
 40
1.0
  9
$DIMTP
 40
0.0
  9
$DIMTM
 40
0.0
  9
$DIMTXT
 40
3.5
  9
$DIMCEN
 40
2.5
  9
$DIMTSZ
 40
0.0
  9
$DIMTOL
 70
     0
  9
$DIMLIM
 70
     0
  9
$DIMTIH
 70
     1
  9
$DIMTOH
 70
     1
  9
$DIMSE1
 70
     0
  9
$DIMSE2
 70
     0
  9
$DIMTAD
 70
     1
  9
$DIMZIN
 70
     1
  9
$DIMBLK
  1

  9
$DIMASO
 70
     1
  9
$DIMSHO
 70
     1
  9
$DIMPOST
  1

  9
$DIMAPOST
  1

  9
$DIMALT
 70
     0
  9
$DIMALTD
 70
     3
  9
$DIMALTF
 40
0.0393700787
  9
$DIMLFAC
 40
1.0
  9
$DIMTOFL
 70
     1
  9
$DIMTVP
 40
0.0
  9
$DIMTIX
 70
     0
  9
$DIMSOXD
 70
     0
  9
$DIMSAH
 70
     0
  9
$DIMBLK1
  1

  9
$DIMBLK2
  1

  9
$DIMSTYLE
  2
ISO-25
  9
$DIMCLRD
 70
     0
  9
$DIMCLRE
 70
     0
  9
$DIMCLRT
 70
     0
  9
$DIMTFAC
 40
1.0
  9
$DIMGAP
 40
1.524
  9
$DIMJUST
 70
     0
  9
$DIMSD1
 70
     0
  9
$DIMSD2
 70
     0
  9
$DIMTOLJ
 70
     0
  9
$DIMTZIN
 70
     1
  9
$DIMALTZ
 70
     0
  9
$DIMALTTZ
 70
     0
  9
$DIMUPT
 70
     0
  9
$DIMDEC
 70
     2
  9
$DIMTDEC
 70
     2
  9
$DIMALTU
 70
     2
  9
$DIMALTTD
 70
     3
  9
$DIMTXSTY
  7
Standard
  9
$DIMAUNIT
 70
     0
  9
$DIMADEC
 70
     2
  9
$DIMALTRND
 40
0.0
  9
$DIMAZIN
 70
     0
  9
$DIMDSEP
 70
    44
  9
$DIMATFIT
 70
     3
  9
$DIMFRAC
 70
     0
  9
$DIMLDRBLK
  1

  9
$DIMLUNIT
 70
     2
  9
$DIMLWD
 70
    -2
  9
$DIMLWE
 70
    -2
  9
$DIMTMOVE
 70
     0
  9
$LUNITS
 70
     2
  9
$LUPREC
 70
     2
  9
$SKETCHINC
 40
1.0
  9
$FILLETRAD
 40
10.0
  9
$AUNITS
 70
     0
  9
$AUPREC
 70
     2
  9
$MENU
  1
.
  9
$ELEVATION
 40
0.0
  9
$PELEVATION
 40
0.0
  9
$THICKNESS
 40
0.0
  9
$LIMCHECK
 70
     0
  9
$CHAMFERA
 40
0.0
  9
$CHAMFERB
 40
0.0
  9
$CHAMFERC
 40
0.0
  9
$CHAMFERD
 40
0.0
  9
$SKPOLY
 70
     0
  9
$TDCREATE
 40
2458901.355389572
  9
$TDUCREATE
 40
2458901.355389572
  9
$TDUPDATE
 40
2458901.355423252
  9
$TDUUPDATE
 40
2458901.355423252
  9
$TDINDWG
 40
0.0000000116
  9
$TDUSRTIMER
 40
0.0000000116
  9
$USRTIMER
 70
     1
  9
$ANGBASE
 50
0.0
  9
$ANGDIR
 70
     0
  9
$PDMODE
 70
     0
  9
$PDSIZE
 40
-1.0
  9
$PLINEWID
 40
0.0
  9
$SPLFRAME
 70
     0
  9
$SPLINETYPE
 70
     6
  9
$SPLINESEGS
 70
     8
  9
$HANDSEED
  5
33A
  9
$SURFTAB1
 70
     6
  9
$SURFTAB2
 70
     6
  9
$SURFTYPE
 70
     6
  9
$SURFU
 70
     6
  9
$SURFV
 70
     6
  9
$UCSBASE
  2

  9
$UCSNAME
  2

  9
$UCSORG
 10
0.0
 20
0.0
 30
0.0
  9
$UCSXDIR
 10
1.0
 20
0.0
 30
0.0
  9
$UCSYDIR
 10
0.0
 20
1.0
 30
0.0
  9
$UCSORTHOREF
  2

  9
$UCSORTHOVIEW
 70
     0
  9
$UCSORGTOP
 10
0.0
 20
0.0
 30
0.0
  9
$UCSORGBOTTOM
 10
0.0
 20
0.0
 30
0.0
  9
$UCSORGLEFT
 10
0.0
 20
0.0
 30
0.0
  9
$UCSORGRIGHT
 10
0.0
 20
0.0
 30
0.0
  9
$UCSORGFRONT
 10
0.0
 20
0.0
 30
0.0
  9
$UCSORGBACK
 10
0.0
 20
0.0
 30
0.0
  9
$PUCSBASE
  2

  9
$PUCSNAME
  2

  9
$PUCSORG
 10
0.0
 20
0.0
 30
0.0
  9
$PUCSXDIR
 10
1.0
 20
0.0
 30
0.0
  9
$PUCSYDIR
 10
0.0
 20
1.0
 30
0.0
  9
$PUCSORTHOREF
  2

  9
$PUCSORTHOVIEW
 70
     0
  9
$PUCSORGTOP
 10
0.0
 20
0.0
 30
0.0
  9
$PUCSORGBOTTOM
 10
0.0
 20
0.0
 30
0.0
  9
$PUCSORGLEFT
 10
0.0
 20
0.0
 30
0.0
  9
$PUCSORGRIGHT
 10
0.0
 20
0.0
 30
0.0
  9
$PUCSORGFRONT
 10
0.0
 20
0.0
 30
0.0
  9
$PUCSORGBACK
 10
0.0
 20
0.0
 30
0.0
  9
$USERI1
 70
     0
  9
$USERI2
 70
     0
  9
$USERI3
 70
     0
  9
$USERI4
 70
     0
  9
$USERI5
 70
     0
  9
$USERR1
 40
0.0
  9
$USERR2
 40
0.0
  9
$USERR3
 40
0.0
  9
$USERR4
 40
0.0
  9
$USERR5
 40
0.0
  9
$WORLDVIEW
 70
     1
  9
$SHADEDGE
 70
     3
  9
$SHADEDIF
 70
    70
  9
$TILEMODE
 70
     1
  9
$MAXACTVP
 70
    64
  9
$PINSBASE
 10
0.0
 20
0.0
 30
0.0
  9
$PLIMCHECK
 70
     0
  9
$PEXTMIN
 10
-275.0
 20
-400.0
 30
0.0
  9
$PEXTMAX
 10
275.0
 20
400.0
 30
0.0
  9
$PLIMMIN
 10
-357.0512820513
 20
-430.7692307692
  9
$PLIMMAX
 10
861.4102564103
 20
430.7692307692
  9
$UNITMODE
 70
     0
  9
$VISRETAIN
 70
     1
  9
$PLINEGEN
 70
     0
  9
$PSLTSCALE
 70
     1
  9
$TREEDEPTH
 70
  3020
  9
$CMLSTYLE
  2
Standard
  9
$CMLJUST
 70
     0
  9
$CMLSCALE
 40
20.0
  9
$PROXYGRAPHICS
 70
     1
  9
$MEASUREMENT
 70
     1
  9
$CELWEIGHT
370
    -1
  9
$ENDCAPS
280
     0
  9
$JOINSTYLE
280
     0
  9
$LWDISPLAY
290
     1
  9
$INSUNITS
 70
     4
  9
$HYPERLINKBASE
  1

  9
$STYLESHEET
  1

  9
$XEDIT
290
     1
  9
$CEPSNTYPE
380
     0
  9
$PSTYLEMODE
290
     1
  9
$FINGERPRINTGUID
  2
{3111c517-9a99-43b9-bfc0-4188b72c07b9}
  9
$VERSIONGUID
  2
{FAEB1C32-E019-11D5-929B-00C0DF256EC4}
  9
$EXTNAMES
290
     1
  9
$PSVPSCALE
 40
0.0
  9
$OLESTARTUP
290
     0
  0
ENDSEC
  0
SECTION
  2
CLASSES
  0
CLASS
  1
ACDBDICTIONARYWDFLT
  2
AcDbDictionaryWithDefault
  3
ObjectDBX Classes
 90
        0
280
     0
281
     0
  0
CLASS
  1
VISUALSTYLE
  2
AcDbVisualStyle
  3
ObjectDBX Classes
 90
     4095
280
     0
281
     0
  0
CLASS
  1
MATERIAL
  2
AcDbMaterial
  3
ObjectDBX Classes
 90
     1153
280
     0
281
     0
  0
CLASS
  1
SCALE
  2
AcDbScale
  3
ObjectDBX Classes
 90
     1153
280
     0
281
     0
  0
CLASS
  1
TABLESTYLE
  2
AcDbTableStyle
  3
ObjectDBX Classes
 90
     4095
280
     0
281
     0
  0
CLASS
  1
MLEADERSTYLE
  2
AcDbMLeaderStyle
  3
ACDB_MLEADERSTYLE_CLASS
 90
     4095
280
     0
281
     0
  0
CLASS
  1
SUN
  2
AcDbSun
  3
SCENEOE
 90
     1153
280
     0
281
     0
  0
CLASS
  1
ACDBPLACEHOLDER
  2
AcDbPlaceHolder
  3
ObjectDBX Classes
 90
        0
280
     0
281
     0
  0
CLASS
  1
LAYOUT
  2
AcDbLayout
  3
ObjectDBX Classes
 90
        0
280
     0
281
     0
  0
ENDSEC
  0
SECTION
  2
TABLES
  0
TABLE
  2
VPORT
  5
8
330
0
100
AcDbSymbolTable
 70
     1
  0
VPORT
  5
29
330
8
100
AcDbSymbolTableRecord
100
AcDbViewportTableRecord
  2
*Active
 70
     0
 10
0.0
 20
0.0
 11
1.0
 21
1.0
 12
0.0
 22
0.0
 13
0.0
 23
0.0
 14
10.0
 24
10.0
 15
10.0
 25
10.0
 16
0.0
 26
0.0
 36
1.0
 17
0.0
 27
0.0
 37
0.0
 40
816.0
 41
0.6875
 42
50.0
 43
0.0
 44
0.0
 50
0.0
 51
0.0
 71
     0
 72
   100
 73
     1
 74
     3
 75
     0
 76
     0
 77
     0
 78
     0
281
     0
 65
     1
110
0.0
120
0.0
130
0.0
111
1.0
121
0.0
131
0.0
112
0.0
122
1.0
132
0.0
 79
     0
146
0.0
  0
ENDTAB
  0
TABLE
  2
LTYPE
  5
5
330
0
100
AcDbSymbolTable
 70
     6
  0
LTYPE
  5
14
330
5
100
AcDbSymbolTableRecord
100
AcDbLinetypeTableRecord
  2
ByBlock
 70
     0
  3

 72
    65
 73
     0
 40
0.0
  0
LTYPE
  5
15
330
5
100
AcDbSymbolTableRecord
100
AcDbLinetypeTableRecord
  2
ByLayer
 70
     0
  3

 72
    65
 73
     0
 40
0.0
  0
LTYPE
  5
16
330
5
100
AcDbSymbolTableRecord
100
AcDbLinetypeTableRecord
  2
Continuous
 70
     0
  3
Solid line
 72
    65
 73
     0
 40
0.0
  0
LTYPE
  5
6E
330
5
100
AcDbSymbolTableRecord
100
AcDbLinetypeTableRecord
  2
HIDDEN
 70
     0
  3
Hidden __ __ __ __ __ __ __ __ __ __ __ __ __ __
 72
    65
 73
     2
 40
1.905
 49
1.27
 74
     0
 49
-0.635
 74
     0
  0
LTYPE
  5
6F
330
5
100
AcDbSymbolTableRecord
100
AcDbLinetypeTableRecord
  2
PHANTOM
 70
     0
  3
Phantom ______  __  __  ______  __  __  ______
 72
    65
 73
     6
 40
12.7
 49
6.35
 74
     0
 49
-1.27
 74
     0
 49
1.27
 74
     0
 49
-1.27
 74
     0
 49
1.27
 74
     0
 49
-1.27
 74
     0
  0
LTYPE
  5
70
330
5
100
AcDbSymbolTableRecord
100
AcDbLinetypeTableRecord
  2
CENTER
 70
     0
  3
Center ____ _ ____ _ ____ _ ____ _ ____ _ ____
 72
    65
 73
     4
 40
10.16
 49
6.35
 74
     0
 49
-1.27
 74
     0
 49
1.27
 74
     0
 49
-1.27
 74
     0
  0
LTYPE
  5
71
330
5
100
AcDbSymbolTableRecord
100
AcDbLinetypeTableRecord
  2
CENTERX2
 70
     0
  3
Center (2x) ________  __  ________  __  _____
 72
    65
 73
     4
 40
20.32
 49
12.7
 74
     0
 49
-2.54
 74
     0
 49
2.54
 74
     0
 49
-2.54
 74
     0
  0
LTYPE
  5
72
330
5
100
AcDbSymbolTableRecord
100
AcDbLinetypeTableRecord
  2
DOT2
 70
     0
  3
Dot (.5x) ........................................
 72
    65
 73
     2
 40
0.635
 49
0.0
 74
     0
 49
-0.635
 74
     0
  0
ENDTAB
  0
TABLE
  2
LAYER
  5
2
330
0
100
AcDbSymbolTable
 70
     1
  0
LAYER
  5
10
330
2
100
AcDbSymbolTableRecord
100
AcDbLayerTableRecord
  2
0
 70
     0
 62
     7
  6
Continuous
370
    -3
390
F
  0
ENDTAB
  0
TABLE
  2
STYLE
  5
3
330
0
100
AcDbSymbolTable
 70
     1
  0
STYLE
  5
11
330
3
100
AcDbSymbolTableRecord
100
AcDbTextStyleTableRecord
  2
Standard
 70
     0
 40
0.0
 41
1.0
 50
0.0
 71
     0
 42
3.5
  3
txt
  4

  0
ENDTAB
  0
TABLE
  2
VIEW
  5
6
330
0
100
AcDbSymbolTable
 70
     0
  0
ENDTAB
  0
TABLE
  2
UCS
  5
7
330
0
100
AcDbSymbolTable
 70
     0
  0
ENDTAB
  0
TABLE
  2
APPID
  5
9
330
0
100
AcDbSymbolTable
 70
     1
  0
APPID
  5
12
330
9
100
AcDbSymbolTableRecord
100
AcDbRegAppTableRecord
  2
ACAD
 70
     0
  0
ENDTAB
  0
TABLE
  2
DIMSTYLE
  5
A
330
0
100
AcDbSymbolTable
 70
     1
100
AcDbDimStyleTable
  0
DIMSTYLE
105
27
330
A
100
AcDbSymbolTableRecord
100
AcDbDimStyleTableRecord
  2
ISO-25
 70
     0
 41
2.5
 42
0.625
 43
3.75
 44
1.25
 73
     0
 74
     0
 77
     1
 78
     8
140
2.5
141
2.5
143
0.0393700787
147
0.625
171
     3
172
     1
178
     0
271
     2
272
     2
274
     3
278
    44
283
     0
284
     8
340
11
  0
ENDTAB
  0
TABLE
  2
BLOCK_RECORD
  5
1
330
0
100
AcDbSymbolTable
 70
     7
  0
BLOCK_RECORD
  5
1F
330
1
100
AcDbSymbolTableRecord
100
AcDbBlockTableRecord
  2
*Model_Space
340
22
  0
BLOCK_RECORD
  5
1B
330
1
100
AcDbSymbolTableRecord
100
AcDbBlockTableRecord
  2
*Paper_Space
340
1E
  0
BLOCK_RECORD
  5
23
330
1
100
AcDbSymbolTableRecord
100
AcDbBlockTableRecord
  2
*Paper_Space0
340
26
  0
BLOCK_RECORD
  5
FC
330
1
100
AcDbSymbolTableRecord
100
AcDbBlockTableRecord
  2
*Paper_Space1
340
FD
  0
BLOCK_RECORD
  5
11E
330
1
100
AcDbSymbolTableRecord
100
AcDbBlockTableRecord
  2
*Paper_Space2
340
11F
  0
BLOCK_RECORD
  5
150
330
1
100
AcDbSymbolTableRecord
100
AcDbBlockTableRecord
  2
*Paper_Space3
340
151
  0
BLOCK_RECORD
  5
17A
330
1
100
AcDbSymbolTableRecord
100
AcDbBlockTableRecord
  2
*Paper_Space4
340
17B
  0
BLOCK_RECORD
  5
1FE
330
1
100
AcDbSymbolTableRecord
100
AcDbBlockTableRecord
  2
*Paper_Space5
340
1FF
  0
BLOCK_RECORD
  5
292
330
1
100
AcDbSymbolTableRecord
100
AcDbBlockTableRecord
  2
*Paper_Space6
340
293
  0
ENDTAB
  0
ENDSEC
  0
SECTION
  2
BLOCKS
  0
BLOCK
  5
20
330
1F
100
AcDbEntity
  8
0
100
AcDbBlockBegin
  2
*Model_Space
 70
     0
 10
0.0
 20
0.0
 30
0.0
  3
*Model_Space
  1

  0
ENDBLK
  5
21
330
1F
100
AcDbEntity
  8
0
100
AcDbBlockEnd
  0
BLOCK
  5
1C
330
1B
100
AcDbEntity
 67
     1
  8
0
100
AcDbBlockBegin
  2
*Paper_Space
 70
     0
 10
0.0
 20
0.0
 30
0.0
  3
*Paper_Space
  1

  0
ENDBLK
  5
1D
330
1B
100
AcDbEntity
 67
     1
  8
0
100
AcDbBlockEnd
  0
BLOCK
  5
24
330
23
100
AcDbEntity
  8
0
100
AcDbBlockBegin
  2
*Paper_Space0
 70
     0
 10
0.0
 20
0.0
 30
0.0
  3
*Paper_Space0
  1

  0
CIRCLE
  5
E2
330
23
100
AcDbEntity
  8
0
  6
Continuous
 62
     7
370
    25
100
AcDbCircle
 10
50.0
 20
-123.0
 30
0.0
 40
2.999999999999986
  0
CIRCLE
  5
E3
330
23
100
AcDbEntity
  8
0
  6
Continuous
 62
     7
370
    25
100
AcDbCircle
 10
50.0
 20
123.0
 30
0.0
 40
2.999999999999986
  0
LINE
  5
EB
330
23
100
AcDbEntity
  8
0
  6
Continuous
 62
     7
370
    25
100
AcDbLine
 10
116.0
 20
360.0
 30
0.0
 11
100.0
 21
360.0
 31
0.0
  0
LINE
  5
EC
330
23
100
AcDbEntity
  8
0
  6
Continuous
 62
     7
370
    25
100
AcDbLine
 10
100.0
 20
-360.0
 30
0.0
 11
116.0
 21
-360.0
 31
0.0
  0
LINE
  5
ED
330
23
100
AcDbEntity
  8
0
  6
Continuous
 62
     7
370
    25
100
AcDbLine
 10
100.0
 20
400.0
 30
0.0
 11
100.0
 21
-400.0
 31
0.0
  0
LINE
  5
EE
330
23
100
AcDbEntity
  8
0
  6
Continuous
 62
     7
370
    25
100
AcDbLine
 10
116.0
 20
400.0
 30
0.0
 11
116.0
 21
-400.0
 31
0.0
  0
LINE
  5
EF
330
23
100
AcDbEntity
  8
0
  6
Continuous
 62
     7
370
    25
100
AcDbLine
 10
100.0
 20
400.0
 30
0.0
 11
116.0
 21
400.0
 31
0.0
  0
LINE
  5
F0
330
23
100
AcDbEntity
  8
0
  6
Continuous
 62
     7
370
    25
100
AcDbLine
 10
116.0
 20
-400.0
 30
0.0
 11
100.0
 21
-400.0
 31
0.0
  0
LINE
  5
F1
330
23
100
AcDbEntity
  8
0
  6
Continuous
 62
     7
370
    25
100
AcDbLine
 10
58.0
 20
323.0
 30
0.0
 11
42.0
 21
323.0
 31
0.0
  0
LINE
  5
F2
330
23
100
AcDbEntity
  8
0
  6
Continuous
 62
     7
370
    25
100
AcDbLine
 10
42.0
 20
323.0
 30
0.0
 11
42.0
 21
281.0
 31
0.0
  0
LINE
  5
F3
330
23
100
AcDbEntity
  8
0
  6
Continuous
 62
     7
370
    25
100
AcDbLine
 10
42.0
 20
281.0
 30
0.0
 11
58.0
 21
281.0
 31
0.0
  0
LINE
  5
F4
330
23
100
AcDbEntity
  8
0
  6
Continuous
 62
     7
370
    25
100
AcDbLine
 10
58.0
 20
281.0
 30
0.0
 11
58.0
 21
323.0
 31
0.0
  0
LINE
  5
F5
330
23
100
AcDbEntity
  8
0
  6
Continuous
 62
     7
370
    25
100
AcDbLine
 10
100.0
 20
373.0
 30
0.0
 11
0.0
 21
373.0
 31
0.0
  0
LINE
  5
F6
330
23
100
AcDbEntity
  8
0
  6
Continuous
 62
     7
370
    25
100
AcDbLine
 10
100.0
 20
-373.0
 30
0.0
 11
0.0
 21
-373.0
 31
0.0
  0
LINE
  5
F7
330
23
100
AcDbEntity
  8
0
  6
Continuous
 62
     7
370
    25
100
AcDbLine
 10
0.0
 20
373.0
 30
0.0
 11
0.0
 21
-373.0
 31
0.0
  0
LINE
  5
F8
330
23
100
AcDbEntity
  8
0
  6
Continuous
 62
     7
370
    25
100
AcDbLine
 10
20.0
 20
393.0
 30
0.0
 11
20.0
 21
373.0
 31
0.0
  0
LINE
  5
F9
330
23
100
AcDbEntity
  8
0
  6
Continuous
 62
     7
370
    25
100
AcDbLine
 10
20.0
 20
393.0
 30
0.0
 11
80.0
 21
393.0
 31
0.0
  0
LINE
  5
FA
330
23
100
AcDbEntity
  8
0
  6
Continuous
 62
     7
370
    25
100
AcDbLine
 10
80.0
 20
393.0
 30
0.0
 11
80.0
 21
373.0
 31
0.0
  0
LINE
  5
FB
330
23
100
AcDbEntity
  8
0
  6
Continuous
 62
     7
370
    25
100
AcDbLine
 10
57.7269920418
 20
281.0
 30
0.0
 11
57.7269920418
 21
323.0
 31
0.0
  0
VIEWPORT
  5
32C
330
23
100
AcDbEntity
  8
0
100
AcDbViewport
 10
0.0
 20
0.0
 30
0.0
 40
205.6
 41
156.0
 68
     1
 69
     1
 12
0.0
 22
0.0
 13
0.0
 23
0.0
 14
10.0
 24
10.0
 15
10.0
 25
10.0
 16
0.0
 26
0.0
 36
1.0
 17
0.0
 27
0.0
 37
0.0
 42
50.0
 43
0.0
 44
0.0
 45
816.0
 50
0.0
 51
0.0
 72
   100
 90
   557152
  1

281
     0
 71
     1
 74
     0
110
0.0
120
0.0
130
0.0
111
1.0
121
0.0
131
0.0
112
0.0
122
1.0
132
0.0
 79
     0
146
0.0
  0
ENDBLK
  5
25
330
23
100
AcDbEntity
  8
0
100
AcDbBlockEnd
  0
BLOCK
  5
FE
330
FC
100
AcDbEntity
  8
0
100
AcDbBlockBegin
  2
*Paper_Space1
 70
     0
 10
0.0
 20
0.0
 30
0.0
  3
*Paper_Space1
  1

  0
CIRCLE
  5
10D
330
FC
100
AcDbEntity
  8
0
  6
Continuous
 62
     7
370
    25
100
AcDbCircle
 10
-50.0
 20
-123.0
 30
0.0
 40
2.999999999999986
  0
CIRCLE
  5
10E
330
FC
100
AcDbEntity
  8
0
  6
Continuous
 62
     7
370
    25
100
AcDbCircle
 10
-50.0
 20
123.0
 30
0.0
 40
2.999999999999986
  0
LINE
  5
112
330
FC
100
AcDbEntity
  8
0
  6
Continuous
 62
     7
370
    25
100
AcDbLine
 10
-100.0
 20
360.0
 30
0.0
 11
-116.0
 21
360.0
 31
0.0
  0
LINE
  5
113
330
FC
100
AcDbEntity
  8
0
  6
Continuous
 62
     7
370
    25
100
AcDbLine
 10
-100.0
 20
-400.0
 30
0.0
 11
-100.0
 21
400.0
 31
0.0
  0
LINE
  5
114
330
FC
100
AcDbEntity
  8
0
  6
Continuous
 62
     7
370
    25
100
AcDbLine
 10
-116.0
 20
-360.0
 30
0.0
 11
-100.0
 21
-360.0
 31
0.0
  0
LINE
  5
115
330
FC
100
AcDbEntity
  8
0
  6
Continuous
 62
     7
370
    25
100
AcDbLine
 10
-116.0
 20
-400.0
 30
0.0
 11
-116.0
 21
400.0
 31
0.0
  0
LINE
  5
116
330
FC
100
AcDbEntity
  8
0
  6
Continuous
 62
     7
370
    25
100
AcDbLine
 10
-100.0
 20
-400.0
 30
0.0
 11
-116.0
 21
-400.0
 31
0.0
  0
LINE
  5
117
330
FC
100
AcDbEntity
  8
0
  6
Continuous
 62
     7
370
    25
100
AcDbLine
 10
-116.0
 20
400.0
 30
0.0
 11
-100.0
 21
400.0
 31
0.0
  0
LINE
  5
118
330
FC
100
AcDbEntity
  8
0
  6
Continuous
 62
     7
370
    25
100
AcDbLine
 10
-100.0
 20
-373.0
 30
0.0
 11
0.0
 21
-373.0
 31
0.0
  0
LINE
  5
119
330
FC
100
AcDbEntity
  8
0
  6
Continuous
 62
     7
370
    25
100
AcDbLine
 10
-100.0
 20
373.0
 30
0.0
 11
0.0
 21
373.0
 31
0.0
  0
LINE
  5
11A
330
FC
100
AcDbEntity
  8
0
  6
Continuous
 62
     7
370
    25
100
AcDbLine
 10
0.0
 20
-373.0
 30
0.0
 11
0.0
 21
373.0
 31
0.0
  0
LINE
  5
11B
330
FC
100
AcDbEntity
  8
0
  6
Continuous
 62
     7
370
    25
100
AcDbLine
 10
-80.0
 20
393.0
 30
0.0
 11
-80.0
 21
373.0
 31
0.0
  0
LINE
  5
11C
330
FC
100
AcDbEntity
  8
0
  6
Continuous
 62
     7
370
    25
100
AcDbLine
 10
-20.0
 20
393.0
 30
0.0
 11
-20.0
 21
373.0
 31
0.0
  0
LINE
  5
11D
330
FC
100
AcDbEntity
  8
0
  6
Continuous
 62
     7
370
    25
100
AcDbLine
 10
-80.0
 20
393.0
 30
0.0
 11
-20.0
 21
393.0
 31
0.0
  0
VIEWPORT
  5
32E
330
FC
100
AcDbEntity
  8
0
100
AcDbViewport
 10
0.0
 20
0.0
 30
0.0
 40
205.6
 41
156.0
 68
     1
 69
     1
 12
0.0
 22
0.0
 13
0.0
 23
0.0
 14
10.0
 24
10.0
 15
10.0
 25
10.0
 16
0.0
 26
0.0
 36
1.0
 17
0.0
 27
0.0
 37
0.0
 42
50.0
 43
0.0
 44
0.0
 45
816.0
 50
0.0
 51
0.0
 72
   100
 90
   557152
  1

281
     0
 71
     1
 74
     0
110
0.0
120
0.0
130
0.0
111
1.0
121
0.0
131
0.0
112
0.0
122
1.0
132
0.0
 79
     0
146
0.0
  0
ENDBLK
  5
FF
330
FC
100
AcDbEntity
  8
0
100
AcDbBlockEnd
  0
BLOCK
  5
120
330
11E
100
AcDbEntity
  8
0
100
AcDbBlockBegin
  2
*Paper_Space2
 70
     0
 10
0.0
 20
0.0
 30
0.0
  3
*Paper_Space2
  1

  0
LINE
  5
13B
330
11E
100
AcDbEntity
  8
0
  6
Continuous
 62
     7
370
    25
100
AcDbLine
 10
235.0
 20
-116.0
 30
0.0
 11
235.0
 21
-100.0
 31
0.0
  0
LINE
  5
13C
330
11E
100
AcDbEntity
  8
0
  6
Continuous
 62
     7
370
    25
100
AcDbLine
 10
275.0
 20
-100.0
 30
0.0
 11
-275.0
 21
-100.0
 31
0.0
  0
LINE
  5
13D
330
11E
100
AcDbEntity
  8
0
  6
Continuous
 62
     7
370
    25
100
AcDbLine
 10
275.0
 20
-100.0
 30
0.0
 11
275.0
 21
-116.0
 31
0.0
  0
LINE
  5
13E
330
11E
100
AcDbEntity
  8
0
  6
Continuous
 62
     7
370
    25
100
AcDbLine
 10
275.0
 20
-116.0
 30
0.0
 11
230.0
 21
-116.0
 31
0.0
  0
LINE
  5
13F
330
11E
100
AcDbEntity
  8
0
  6
Continuous
 62
     7
370
    25
100
AcDbLine
 10
-235.0
 20
-100.0
 30
0.0
 11
-235.0
 21
-116.0
 31
0.0
  0
LINE
  5
140
330
11E
100
AcDbEntity
  8
0
  6
Continuous
 62
     7
370
    25
100
AcDbLine
 10
230.0
 20
-115.0
 30
0.0
 11
229.0
 21
-115.0
 31
0.0
  0
LINE
  5
141
330
11E
100
AcDbEntity
  8
0
  6
Continuous
 62
     7
370
    25
100
AcDbLine
 10
229.0
 20
-115.0
 30
0.0
 11
229.0
 21
-116.0
 31
0.0
  0
LINE
  5
142
330
11E
100
AcDbEntity
  8
0
  6
Continuous
 62
     7
370
    25
100
AcDbLine
 10
229.0
 20
-116.0
 30
0.0
 11
-229.0
 21
-116.0
 31
0.0
  0
LINE
  5
143
330
11E
100
AcDbEntity
  8
0
  6
Continuous
 62
     7
370
    25
100
AcDbLine
 10
-229.0
 20
-115.0
 30
0.0
 11
-229.0
 21
-116.0
 31
0.0
  0
LINE
  5
144
330
11E
100
AcDbEntity
  8
0
  6
Continuous
 62
     7
370
    25
100
AcDbLine
 10
-230.0
 20
-116.0
 30
0.0
 11
-275.0
 21
-116.0
 31
0.0
  0
LINE
  5
145
330
11E
100
AcDbEntity
  8
0
  6
Continuous
 62
     7
370
    25
100
AcDbLine
 10
-230.0
 20
-115.0
 30
0.0
 11
-230.0
 21
-116.0
 31
0.0
  0
LINE
  5
146
330
11E
100
AcDbEntity
  8
0
  6
Continuous
 62
     7
370
    25
100
AcDbLine
 10
-229.0
 20
-115.0
 30
0.0
 11
-230.0
 21
-115.0
 31
0.0
  0
LINE
  5
147
330
11E
100
AcDbEntity
  8
0
  6
Continuous
 62
     7
370
    25
100
AcDbLine
 10
230.0
 20
-115.0
 30
0.0
 11
230.0
 21
-116.0
 31
0.0
  0
LINE
  5
148
330
11E
100
AcDbEntity
  8
0
  6
Continuous
 62
     7
370
    25
100
AcDbLine
 10
-275.0
 20
-116.0
 30
0.0
 11
-275.0
 21
-100.0
 31
0.0
  0
LINE
  5
149
330
11E
100
AcDbEntity
  8
0
  6
Continuous
 62
     7
370
    25
100
AcDbLine
 10
-148.0
 20
-80.0
 30
0.0
 11
148.0
 21
-80.0
 31
0.0
  0
LINE
  5
14A
330
11E
100
AcDbEntity
  8
0
  6
Continuous
 62
     7
370
    25
100
AcDbLine
 10
-148.0
 20
-20.0
 30
0.0
 11
-148.0
 21
-80.0
 31
0.0
  0
LINE
  5
14B
330
11E
100
AcDbEntity
  8
0
  6
Continuous
 62
     7
370
    25
100
AcDbLine
 10
148.0
 20
-80.0
 30
0.0
 11
148.0
 21
-20.0
 31
0.0
  0
LINE
  5
14C
330
11E
100
AcDbEntity
  8
0
  6
Continuous
 62
     7
370
    25
100
AcDbLine
 10
148.0
 20
-20.0
 30
0.0
 11
-148.0
 21
-20.0
 31
0.0
  0
LINE
  5
14D
330
11E
100
AcDbEntity
  8
0
  6
Continuous
 62
     7
370
    25
100
AcDbLine
 10
248.0
 20
-100.0
 30
0.0
 11
248.0
 21
0.0
 31
0.0
  0
LINE
  5
14E
330
11E
100
AcDbEntity
  8
0
  6
Continuous
 62
     7
370
    25
100
AcDbLine
 10
248.0
 20
0.0
 30
0.0
 11
-248.0
 21
0.0
 31
0.0
  0
LINE
  5
14F
330
11E
100
AcDbEntity
  8
0
  6
Continuous
 62
     7
370
    25
100
AcDbLine
 10
-248.0
 20
-100.0
 30
0.0
 11
-248.0
 21
0.0
 31
0.0
  0
VIEWPORT
  5
330
330
11E
100
AcDbEntity
  8
0
100
AcDbViewport
 10
0.0
 20
0.0
 30
0.0
 40
205.6
 41
156.0
 68
     1
 69
     1
 12
0.0
 22
0.0
 13
0.0
 23
0.0
 14
10.0
 24
10.0
 15
10.0
 25
10.0
 16
0.0
 26
0.0
 36
1.0
 17
0.0
 27
0.0
 37
0.0
 42
50.0
 43
0.0
 44
0.0
 45
816.0
 50
0.0
 51
0.0
 72
   100
 90
   557152
  1

281
     0
 71
     1
 74
     0
110
0.0
120
0.0
130
0.0
111
1.0
121
0.0
131
0.0
112
0.0
122
1.0
132
0.0
 79
     0
146
0.0
  0
ENDBLK
  5
121
330
11E
100
AcDbEntity
  8
0
100
AcDbBlockEnd
  0
BLOCK
  5
152
330
150
100
AcDbEntity
  8
0
100
AcDbBlockBegin
  2
*Paper_Space3
 70
     0
 10
0.0
 20
0.0
 30
0.0
  3
*Paper_Space3
  1

  0
LINE
  5
169
330
150
100
AcDbEntity
  8
0
  6
Continuous
 62
     7
370
    25
100
AcDbLine
 10
235.0
 20
100.0
 30
0.0
 11
235.0
 21
116.0
 31
0.0
  0
LINE
  5
16A
330
150
100
AcDbEntity
  8
0
  6
Continuous
 62
     7
370
    25
100
AcDbLine
 10
-275.0
 20
100.0
 30
0.0
 11
275.0
 21
100.0
 31
0.0
  0
LINE
  5
16B
330
150
100
AcDbEntity
  8
0
  6
Continuous
 62
     7
370
    25
100
AcDbLine
 10
-235.0
 20
116.0
 30
0.0
 11
-235.0
 21
100.0
 31
0.0
  0
LINE
  5
16C
330
150
100
AcDbEntity
  8
0
  6
Continuous
 62
     7
370
    25
100
AcDbLine
 10
-230.0
 20
115.0
 30
0.0
 11
-229.0
 21
115.0
 31
0.0
  0
LINE
  5
16D
330
150
100
AcDbEntity
  8
0
  6
Continuous
 62
     7
370
    25
100
AcDbLine
 10
230.0
 20
116.0
 30
0.0
 11
275.0
 21
116.0
 31
0.0
  0
LINE
  5
16E
330
150
100
AcDbEntity
  8
0
  6
Continuous
 62
     7
370
    25
100
AcDbLine
 10
-229.0
 20
116.0
 30
0.0
 11
229.0
 21
116.0
 31
0.0
  0
LINE
  5
16F
330
150
100
AcDbEntity
  8
0
  6
Continuous
 62
     7
370
    25
100
AcDbLine
 10
229.0
 20
115.0
 30
0.0
 11
230.0
 21
115.0
 31
0.0
  0
LINE
  5
170
330
150
100
AcDbEntity
  8
0
  6
Continuous
 62
     7
370
    25
100
AcDbLine
 10
-275.0
 20
116.0
 30
0.0
 11
-230.0
 21
116.0
 31
0.0
  0
LINE
  5
171
330
150
100
AcDbEntity
  8
0
  6
Continuous
 62
     7
370
    25
100
AcDbLine
 10
-230.0
 20
115.0
 30
0.0
 11
-230.0
 21
116.0
 31
0.0
  0
LINE
  5
172
330
150
100
AcDbEntity
  8
0
  6
Continuous
 62
     7
370
    25
100
AcDbLine
 10
229.0
 20
115.0
 30
0.0
 11
229.0
 21
116.0
 31
0.0
  0
LINE
  5
173
330
150
100
AcDbEntity
  8
0
  6
Continuous
 62
     7
370
    25
100
AcDbLine
 10
230.0
 20
115.0
 30
0.0
 11
230.0
 21
116.0
 31
0.0
  0
LINE
  5
174
330
150
100
AcDbEntity
  8
0
  6
Continuous
 62
     7
370
    25
100
AcDbLine
 10
-229.0
 20
115.0
 30
0.0
 11
-229.0
 21
116.0
 31
0.0
  0
LINE
  5
175
330
150
100
AcDbEntity
  8
0
  6
Continuous
 62
     7
370
    25
100
AcDbLine
 10
275.0
 20
116.0
 30
0.0
 11
275.0
 21
100.0
 31
0.0
  0
LINE
  5
176
330
150
100
AcDbEntity
  8
0
  6
Continuous
 62
     7
370
    25
100
AcDbLine
 10
-275.0
 20
100.0
 30
0.0
 11
-275.0
 21
116.0
 31
0.0
  0
LINE
  5
177
330
150
100
AcDbEntity
  8
0
  6
Continuous
 62
     7
370
    25
100
AcDbLine
 10
248.0
 20
100.0
 30
0.0
 11
248.0
 21
0.0
 31
0.0
  0
LINE
  5
178
330
150
100
AcDbEntity
  8
0
  6
Continuous
 62
     7
370
    25
100
AcDbLine
 10
-248.0
 20
0.0
 30
0.0
 11
248.0
 21
0.0
 31
0.0
  0
LINE
  5
179
330
150
100
AcDbEntity
  8
0
  6
Continuous
 62
     7
370
    25
100
AcDbLine
 10
-248.0
 20
100.0
 30
0.0
 11
-248.0
 21
0.0
 31
0.0
  0
VIEWPORT
  5
332
330
150
100
AcDbEntity
  8
0
100
AcDbViewport
 10
0.0
 20
0.0
 30
0.0
 40
205.6
 41
156.0
 68
     1
 69
     1
 12
0.0
 22
0.0
 13
0.0
 23
0.0
 14
10.0
 24
10.0
 15
10.0
 25
10.0
 16
0.0
 26
0.0
 36
1.0
 17
0.0
 27
0.0
 37
0.0
 42
50.0
 43
0.0
 44
0.0
 45
816.0
 50
0.0
 51
0.0
 72
   100
 90
   557152
  1

281
     0
 71
     1
 74
     0
110
0.0
120
0.0
130
0.0
111
1.0
121
0.0
131
0.0
112
0.0
122
1.0
132
0.0
 79
     0
146
0.0
  0
ENDBLK
  5
153
330
150
100
AcDbEntity
  8
0
100
AcDbBlockEnd
  0
BLOCK
  5
17C
330
17A
100
AcDbEntity
  8
0
100
AcDbBlockBegin
  2
*Paper_Space4
 70
     0
 10
0.0
 20
0.0
 30
0.0
  3
*Paper_Space4
  1

  0
LWPOLYLINE
  5
181
330
17A
100
AcDbEntity
  8
0
  6
Continuous
 62
     7
370
    25
100
AcDbPolyline
 90
       17
 70
   128
 43
0.0
 10
112.4299782087
 20
134.3469064175
 10
112.2937817117
 20
137.6269307954
 10
111.8865038676
 20
141.0326158736
 10
111.2120669847
 20
144.5311630433
 10
110.2769662587
 20
148.0888793825
 10
109.0902072209
 20
151.6715021383
 10
107.6632190096
 20
155.2445286948
 10
106.0097443012
 20
158.7735488532
 10
104.1457069612
 20
162.2245762203
 10
102.0890586881
 20
165.5643755158
 10
99.8596061289
 20
168.760782647
 10
97.4788201308
 20
171.7830144658
 10
94.9696289641
 20
174.6019652276
 10
92.3561975116
 20
177.1904868956
 10
89.6636945469
 20
179.5236505912
 10
86.9180503452
 20
181.5789866725
 10
84.1457069612
 20
183.3367011294
  0
LWPOLYLINE
  5
183
330
17A
100
AcDbEntity
  8
0
  6
Continuous
 62
     7
370
    25
100
AcDbPolyline
 90
       17
 70
   128
 43
0.0
 10
84.1457069612
 20
-469.8959483792
 10
86.9180503452
 20
-471.3391134607
 10
89.6636945469
 20
-472.4538306982
 10
92.3561975116
 20
-473.2293647553
 10
94.9696289641
 20
-473.6582468151
 10
97.4788201308
 20
-473.7363465088
 10
99.8596061289
 20
-473.4629116938
 10
102.0890586881
 20
-472.8405756967
 10
104.1457069612
 20
-471.8753319535
 10
106.0097443012
 20
-470.576476289
 10
107.6632190096
 20
-468.9565173933
 10
109.0902072209
 20
-467.0310563561
 10
110.2769662587
 20
-464.8186364199
 10
111.2120669847
 20
-462.3405643979
 10
111.8865038676
 20
-459.6207054785
 10
112.2937817117
 20
-456.6852533898
 10
112.4299782087
 20
-453.5624781402
  0
LWPOLYLINE
  5
187
330
17A
100
AcDbEntity
  8
0
  6
Continuous
 62
     7
370
    25
100
AcDbPolyline
 90
       17
 70
   128
 43
0.0
 10
95.4594154602
 20
189.867966024
 10
98.2317588442
 20
188.110251567
 10
100.9774030458
 20
186.0549154858
 10
103.6699060106
 20
183.7217517902
 10
106.2833374631
 20
181.1332301222
 10
108.7925286297
 20
178.3142793603
 10
111.1733146279
 20
175.2920475416
 10
113.402767187
 20
172.0956404104
 10
115.4594154602
 20
168.7558411149
 10
117.3234528002
 20
165.3048137478
 10
118.9769275086
 20
161.7757935894
 10
120.4039157199
 20
158.2027670328
 10
121.5906747577
 20
154.6201442771
 10
122.5257754837
 20
151.0624279379
 10
123.2002123666
 20
147.5638807682
 10
123.6074902107
 20
144.15819569
 10
123.7436867076
 20
140.8781713121
  0
LWPOLYLINE
  5
19F
330
17A
100
AcDbEntity
  8
0
  6
Continuous
 62
     7
370
    25
100
AcDbPolyline
 90
       17
 70
   128
 43
0.0
 10
-276.4787514439
 20
-229.050247389
 10
-276.342554947
 20
-232.3302717668
 10
-275.9352771029
 20
-235.7359568451
 10
-275.26084022
 20
-239.2345040147
 10
-274.325739494
 20
-242.792220354
 10
-273.1389804562
 20
-246.3748431097
 10
-271.7119922449
 20
-249.9478696662
 10
-270.0585175365
 20
-253.4768898247
 10
-268.1944801965
 20
-256.9279171917
 10
-266.1378319233
 20
-260.2677164873
 10
-263.9083793642
 20
-263.4641236184
 10
-261.527593366
 20
-266.4863554372
 10
-259.0184021994
 20
-269.305306199
 10
-256.4049707469
 20
-271.8938278671
 10
-253.7124677821
 20
-274.2269915626
 10
-250.9668235805
 20
-276.2823276439
 10
-248.1944801965
 20
-278.0400421008
  0
LWPOLYLINE
  5
1A1
330
17A
100
AcDbEntity
  8
0
  6
Continuous
 62
     7
370
    25
100
AcDbPolyline
 90
       17
 70
   128
 43
0.0
 10
-248.1944801965
 20
375.1926074078
 10
-250.9668235805
 20
376.6357724893
 10
-253.7124677821
 20
377.7504897268
 10
-256.4049707469
 20
378.5260237839
 10
-259.0184021994
 20
378.9549058436
 10
-261.527593366
 20
379.0330055374
 10
-263.9083793642
 20
378.7595707223
 10
-266.1378319233
 20
378.1372347253
 10
-268.1944801965
 20
377.171990982
 10
-270.0585175365
 20
375.8731353175
 10
-271.7119922449
 20
374.2531764219
 10
-273.1389804562
 20
372.3277153847
 10
-274.325739494
 20
370.1152954484
 10
-275.26084022
 20
367.6372234265
 10
-275.9352771029
 20
364.9173645071
 10
-276.342554947
 20
361.9819124184
 10
-276.4787514439
 20
358.8591371688
  0
LWPOLYLINE
  5
1A3
330
17A
100
AcDbEntity
  8
0
  6
Continuous
 62
     7
370
    25
100
AcDbPolyline
 90
        9
 70
   128
 43
0.0
 10
-256.8791463502
 20
383.7041943221
 10
-254.8241234243
 20
384.6684996198
 10
-252.5946708652
 20
385.2908356169
 10
-250.213884867
 20
385.5642704319
 10
-247.7046937004
 20
385.4861707382
 10
-245.0912622479
 20
385.0572886785
 10
-242.3987592832
 20
384.2817546214
 10
-239.6531150815
 20
383.1670373839
 10
-236.8807716975
 20
381.7238723023
  0
LWPOLYLINE
  5
1A4
330
17A
100
AcDbEntity
  8
0
  6
Continuous
 62
     7
370
    25
100
AcDbPolyline
 90
       10
 70
   128
 43
0.0
 10
123.7436867076
 20
-447.0312132456
 10
123.6074902107
 20
-450.1539884953
 10
123.2002123666
 20
-453.0894405839
 10
122.5257754837
 20
-455.8092995034
 10
121.5906747577
 20
-458.2873715253
 10
120.4039157199
 20
-460.4997914616
 10
118.9769275086
 20
-462.4252524987
 10
117.3234528002
 20
-464.0452113944
 10
115.4594154602
 20
-465.3440670589
 10
115.4577901129
 20
-465.3450055044
  0
LWPOLYLINE
  5
1B7
330
17A
100
AcDbEntity
  8
0
  6
Continuous
 62
     7
370
    25
100
AcDbPolyline
 90
       19
 70
   128
 43
0.0
 10
140.0071426749
 20
-219.6297060879
 10
139.281608387
 20
-220.1962784262
 10
138.6435842419
 20
-220.989974397
 10
138.1700253678
 20
-221.9150625527
 10
137.918049954
 20
-222.8599636088
 10
137.918049954
 20
-223.7107085527
 10
138.1700253678
 20
-224.3646849884
 10
138.6435842419
 20
-224.7430137062
 10
139.281608387
 20
-224.8000626792
 10
140.0071426749
 20
-224.5289509592
 10
140.7326769629
 20
-223.9623786209
 10
141.370701108
 20
-223.16868265
 10
141.844259982
 20
-222.2435944943
 10
142.0962353959
 20
-221.2986934382
 10
142.0962353959
 20
-220.4479484944
 10
141.844259982
 20
-219.7939720587
 10
141.370701108
 20
-219.4156433409
 10
140.7326769629
 20
-219.3585943679
 10
140.0071426749
 20
-219.6297060879
  0
LWPOLYLINE
  5
1B8
330
17A
100
AcDbEntity
  8
0
  6
Continuous
 62
     7
370
    25
100
AcDbPolyline
 90
       19
 70
   128
 43
0.0
 10
140.0071426749
 20
-18.760666364
 10
139.281608387
 20
-19.3272387023
 10
138.6435842419
 20
-20.1209346732
 10
138.1700253678
 20
-21.0460228288
 10
137.918049954
 20
-21.9909238849
 10
137.918049954
 20
-22.8416688288
 10
138.1700253678
 20
-23.4956452645
 10
138.6435842419
 20
-23.8739739823
 10
139.281608387
 20
-23.9310229553
 10
140.0071426749
 20
-23.6599112353
 10
140.7326769629
 20
-23.093338897
 10
141.370701108
 20
-22.2996429261
 10
141.844259982
 20
-21.3745547704
 10
142.0962353959
 20
-20.4296537143
 10
142.0962353959
 20
-19.5789087705
 10
141.844259982
 20
-18.9249323348
 10
141.370701108
 20
-18.546603617
 10
140.7326769629
 20
-18.489554644
 10
140.0071426749
 20
-18.760666364
  0
LINE
  5
1C4
330
17A
100
AcDbEntity
  8
0
  6
Continuous
 62
     7
370
    25
100
AcDbLine
 10
-256.8791463502
 20
383.7041943221
 30
0.0
 11
-268.1928548492
 21
377.1729294275
 31
0.0
  0
LINE
  5
1C5
330
17A
100
AcDbEntity
  8
0
  6
Continuous
 62
     7
370
    25
100
AcDbLine
 10
104.1440816139
 20
-471.876270399
 30
0.0
 11
115.4577901129
 21
-465.3450055044
 31
0.0
  0
LINE
  5
1C6
330
17A
100
AcDbEntity
  8
0
  6
Continuous
 62
     7
370
    25
100
AcDbLine
 10
84.1457069612
 20
183.3367011294
 30
0.0
 11
80.6101730553
 21
185.377721409
 31
0.0
  0
LINE
  5
1C7
330
17A
100
AcDbEntity
  8
0
  6
Continuous
 62
     7
370
    25
100
AcDbLine
 10
112.4299782087
 20
-453.5624781402
 30
0.0
 11
112.4299782087
 21
134.3469064175
 31
0.0
  0
LINE
  5
1C8
330
17A
100
AcDbEntity
  8
0
  6
Continuous
 62
     7
370
    25
100
AcDbLine
 10
80.6101730553
 20
-467.8549280996
 30
0.0
 11
84.1457069612
 21
-469.8959483792
 31
0.0
  0
LINE
  5
1C9
330
17A
100
AcDbEntity
  8
0
  6
Continuous
 62
     7
370
    25
100
AcDbLine
 10
80.6101730553
 20
-467.8549280996
 30
0.0
 11
80.6101730553
 21
186.1941295208
 31
0.0
  0
LINE
  5
1CA
330
17A
100
AcDbEntity
  8
0
  6
Continuous
 62
     7
370
    25
100
AcDbLine
 10
84.1457069612
 20
183.3367011294
 30
0.0
 11
95.4594154602
 21
189.867966024
 31
0.0
  0
LINE
  5
1CB
330
17A
100
AcDbEntity
  8
0
  6
Continuous
 62
     7
370
    25
100
AcDbLine
 10
123.7436867076
 20
140.8781713121
 30
0.0
 11
112.4299782087
 21
134.3469064175
 31
0.0
  0
LINE
  5
1CC
330
17A
100
AcDbEntity
  8
0
  6
Continuous
 62
     7
370
    25
100
AcDbLine
 10
112.4299782087
 20
-453.5624781402
 30
0.0
 11
123.7436867076
 21
-447.0312132456
 31
0.0
  0
LINE
  5
1CD
330
17A
100
AcDbEntity
  8
0
  6
Continuous
 62
     7
370
    25
100
AcDbLine
 10
123.7436867076
 20
-447.0312132456
 30
0.0
 11
123.7436867076
 21
140.8781713121
 31
0.0
  0
LINE
  5
1CE
330
17A
100
AcDbEntity
  8
0
  6
Continuous
 62
     7
370
    25
100
AcDbLine
 10
-243.2447327282
 20
373.1515871282
 30
0.0
 11
-243.9518395094
 21
372.7433830723
 31
0.0
  0
LINE
  5
1CF
330
17A
100
AcDbEntity
  8
0
  6
Continuous
 62
     7
370
    25
100
AcDbLine
 10
-243.2447327282
 20
373.1515871282
 30
0.0
 11
-243.9518395094
 21
373.5597911841
 31
0.0
  0
LINE
  5
1D0
330
17A
100
AcDbEntity
  8
0
  6
Continuous
 62
     7
370
    25
100
AcDbLine
 10
-243.9518395094
 20
373.5597911841
 30
0.0
 11
-244.6589462905
 21
373.1515871282
 31
0.0
  0
LINE
  5
1D1
330
17A
100
AcDbEntity
  8
0
  6
Continuous
 62
     7
370
    25
100
AcDbLine
 10
-244.6589462905
 20
373.1515871282
 30
0.0
 11
-248.1944801965
 21
375.1926074078
 31
0.0
  0
LINE
  5
1D2
330
17A
100
AcDbEntity
  8
0
  6
Continuous
 62
     7
370
    25
100
AcDbLine
 10
-236.8807716975
 20
381.7238723023
 30
0.0
 11
-248.1944801965
 21
375.1926074078
 31
0.0
  0
LINE
  5
1D3
330
17A
100
AcDbEntity
  8
0
  6
Continuous
 62
     7
370
    25
100
AcDbLine
 10
81.3172798365
 20
185.7859254649
 30
0.0
 11
80.6101730553
 21
185.377721409
 31
0.0
  0
LINE
  5
1D4
330
17A
100
AcDbEntity
  8
0
  6
Continuous
 62
     7
370
    25
100
AcDbLine
 10
81.3172798365
 20
185.7859254649
 30
0.0
 11
80.6101730553
 21
186.1941295208
 31
0.0
  0
LINE
  5
1D5
330
17A
100
AcDbEntity
  8
0
  6
Continuous
 62
     7
370
    25
100
AcDbLine
 10
80.6101730553
 20
186.1941295208
 30
0.0
 11
79.9030662741
 21
185.7859254649
 31
0.0
  0
LINE
  5
1D6
330
17A
100
AcDbEntity
  8
0
  6
Continuous
 62
     7
370
    25
100
AcDbLine
 10
79.9030662741
 20
185.7859254649
 30
0.0
 11
-243.9518395094
 21
372.7433830723
 31
0.0
  0
LINE
  5
1D7
330
17A
100
AcDbEntity
  8
0
  6
Continuous
 62
     7
370
    25
100
AcDbLine
 10
95.4594154602
 20
189.867966024
 30
0.0
 11
-236.8807716975
 21
381.7238723023
 31
0.0
  0
LINE
  5
1D8
330
17A
100
AcDbEntity
  8
0
  6
Continuous
 62
     7
370
    25
100
AcDbLine
 10
79.9030662741
 20
149.04158893
 30
0.0
 11
-243.9518395094
 21
335.9990465374
 31
0.0
  0
LINE
  5
1D9
330
17A
100
AcDbEntity
  8
0
  6
Continuous
 62
     7
370
    25
100
AcDbLine
 10
-243.9518395094
 20
335.9990465374
 30
0.0
 11
-243.9518395094
 21
373.5597911841
 31
0.0
  0
LINE
  5
1DA
330
17A
100
AcDbEntity
  8
0
  6
Continuous
 62
     7
370
    25
100
AcDbLine
 10
79.9030662741
 20
185.7859254649
 30
0.0
 11
79.9030662741
 21
149.04158893
 31
0.0
  0
LINE
  5
1DB
330
17A
100
AcDbEntity
  8
0
  6
Continuous
 62
     7
370
    25
100
AcDbLine
 10
80.6101730553
 20
149.4497929859
 30
0.0
 11
79.9030662741
 21
149.04158893
 31
0.0
  0
LINE
  5
1DC
330
17A
100
AcDbEntity
  8
0
  6
Continuous
 62
     7
370
    25
100
AcDbLine
 10
-243.9517245753
 20
-242.9284554396
 30
0.0
 11
-243.9518395094
 21
-242.9285217896
 31
0.0
  0
LINE
  5
1DD
330
17A
100
AcDbEntity
  8
0
  6
Continuous
 62
     7
370
    25
100
AcDbLine
 10
-243.9518395094
 20
-280.4892664363
 30
0.0
 11
-243.9518395094
 21
-242.9285217896
 31
0.0
  0
LINE
  5
1DE
330
17A
100
AcDbEntity
  8
0
  6
Continuous
 62
     7
370
    25
100
AcDbLine
 10
-243.9518395094
 20
-279.6728583245
 30
0.0
 11
-244.6589462905
 21
-280.0810623804
 31
0.0
  0
LINE
  5
1DF
330
17A
100
AcDbEntity
  8
0
  6
Continuous
 62
     7
370
    25
100
AcDbLine
 10
-244.6589462905
 20
373.1515871282
 30
0.0
 11
-244.6589462905
 21
-280.0810623804
 31
0.0
  0
LINE
  5
1E0
330
17A
100
AcDbEntity
  8
0
  6
Continuous
 62
     7
370
    25
100
AcDbLine
 10
-276.4787514439
 20
358.8591371688
 30
0.0
 11
-276.4787514439
 21
-229.050247389
 31
0.0
  0
LINE
  5
1E1
330
17A
100
AcDbEntity
  8
0
  6
Continuous
 62
     7
370
    25
100
AcDbLine
 10
-248.1944801965
 20
-278.0400421008
 30
0.0
 11
-244.6589462905
 21
-280.0810623804
 31
0.0
  0
LINE
  5
1E2
330
17A
100
AcDbEntity
  8
0
  6
Continuous
 62
     7
370
    25
100
AcDbLine
 10
80.6101730553
 20
-430.2941834529
 30
0.0
 11
79.9030662741
 21
-430.7023875089
 31
0.0
  0
LINE
  5
1E3
330
17A
100
AcDbEntity
  8
0
  6
Continuous
 62
     7
370
    25
100
AcDbLine
 10
-243.9518395094
 20
-243.7449299015
 30
0.0
 11
79.9030662741
 21
-430.7023875089
 31
0.0
  0
LINE
  5
1E4
330
17A
100
AcDbEntity
  8
0
  6
Continuous
 62
     7
370
    25
100
AcDbLine
 10
-243.2447327282
 20
-243.3367258455
 30
0.0
 11
-243.9518395094
 21
-243.7449299015
 31
0.0
  0
LINE
  5
1E5
330
17A
100
AcDbEntity
  8
0
  6
Continuous
 62
     7
370
    25
100
AcDbLine
 10
-243.2447327282
 20
-243.3367258455
 30
0.0
 11
-243.9518395094
 21
-242.9285217896
 31
0.0
  0
LINE
  5
1E6
330
17A
100
AcDbEntity
  8
0
  6
Continuous
 62
     7
370
    25
100
AcDbLine
 10
80.6101730553
 20
-467.0385199878
 30
0.0
 11
79.9030662741
 21
-467.4467240437
 31
0.0
  0
LINE
  5
1E7
330
17A
100
AcDbEntity
  8
0
  6
Continuous
 62
     7
370
    25
100
AcDbLine
 10
79.9030662741
 20
-430.7023875089
 30
0.0
 11
79.9030662741
 21
-467.4467240437
 31
0.0
  0
LINE
  5
1E8
330
17A
100
AcDbEntity
  8
0
  6
Continuous
 62
     7
370
    25
100
AcDbLine
 10
-243.9518395094
 20
-280.4892664363
 30
0.0
 11
79.9030662741
 21
-467.4467240437
 31
0.0
  0
LINE
  5
1E9
330
17A
100
AcDbEntity
  8
0
  6
Continuous
 62
     7
370
    25
100
AcDbLine
 10
80.6101730553
 20
148.633252174
 30
0.0
 11
79.9030662741
 21
148.2250481181
 31
0.0
  0
LINE
  5
1EA
330
17A
100
AcDbEntity
  8
0
  6
Continuous
 62
     7
370
    25
100
AcDbLine
 10
80.6101730553
 20
-429.4776426411
 30
0.0
 11
79.9030662741
 21
-429.885846697
 31
0.0
  0
LINE
  5
1EB
330
17A
100
AcDbEntity
  8
0
  6
Continuous
 62
     7
370
    25
100
AcDbLine
 10
79.9030662741
 20
148.2250481181
 30
0.0
 11
79.9030662741
 21
-429.885846697
 31
0.0
  0
LINE
  5
1EC
330
17A
100
AcDbEntity
  8
0
  6
Continuous
 62
     7
370
    25
100
AcDbLine
 10
-243.9518395094
 20
335.1825057255
 30
0.0
 11
79.9030662741
 21
148.2250481181
 31
0.0
  0
LINE
  5
1ED
330
17A
100
AcDbEntity
  8
0
  6
Continuous
 62
     7
370
    25
100
AcDbLine
 10
79.9030662741
 20
-429.885846697
 30
0.0
 11
-243.9518395094
 21
-242.9283890896
 31
0.0
  0
LINE
  5
1EE
330
17A
100
AcDbEntity
  8
0
  6
Continuous
 62
     7
370
    25
100
AcDbLine
 10
-243.9518395094
 20
-242.9283890896
 30
0.0
 11
-243.9518395094
 21
335.1825057255
 31
0.0
  0
LINE
  5
1EF
330
17A
100
AcDbEntity
  8
0
  6
Continuous
 62
     7
370
    25
100
AcDbLine
 10
-243.2446177941
 20
335.5907761315
 30
0.0
 11
-243.9518395094
 21
335.1825057255
 31
0.0
  0
LINE
  5
1F0
330
17A
100
AcDbEntity
  8
0
  6
Continuous
 62
     7
370
    25
100
AcDbLine
 10
123.7436867076
 20
-435.6032247809
 30
0.0
 11
175.3624817343
 21
-405.8043286994
 31
0.0
  0
LINE
  5
1F1
330
17A
100
AcDbEntity
  8
0
  6
Continuous
 62
     7
370
    25
100
AcDbLine
 10
115.4602937113
 20
168.7543198947
 30
0.0
 11
175.3624817343
 21
203.3351169674
 31
0.0
  0
LINE
  5
1F2
330
17A
100
AcDbEntity
  8
0
  6
Continuous
 62
     7
370
    25
100
AcDbLine
 10
175.3624817343
 20
-405.8043286994
 30
0.0
 11
175.3624817343
 21
203.3351169674
 31
0.0
  0
LINE
  5
1F3
330
17A
100
AcDbEntity
  8
0
  6
Continuous
 62
     7
370
    25
100
AcDbLine
 10
53.0361118091
 20
214.3584179278
 30
0.0
 11
90.5096679919
 21
235.9914414403
 31
0.0
  0
LINE
  5
1F4
330
17A
100
AcDbEntity
  8
0
  6
Continuous
 62
     7
370
    25
100
AcDbLine
 10
-226.9781735407
 20
376.0072240687
 30
0.0
 11
-175.3624817343
 21
405.8043286994
 31
0.0
  0
LINE
  5
1F5
330
17A
100
AcDbEntity
  8
0
  6
Continuous
 62
     7
370
    25
100
AcDbLine
 10
175.3624817343
 20
203.3351169674
 30
0.0
 11
90.5096679919
 21
252.3196036767
 31
0.0
  0
LINE
  5
1F6
330
17A
100
AcDbEntity
  8
0
  6
Continuous
 62
     7
370
    25
100
AcDbLine
 10
-118.7962379209
 20
373.1493312271
 30
0.0
 11
-175.3624817343
 21
405.8043286994
 31
0.0
  0
LINE
  5
1F7
330
17A
100
AcDbEntity
  8
0
  6
Continuous
 62
     7
370
    25
100
AcDbLine
 10
48.0832611207
 20
227.8300143233
 30
0.0
 11
48.0832611207
 21
217.2176377701
 31
0.0
  0
LINE
  5
1F8
330
17A
100
AcDbEntity
  8
0
  6
Continuous
 62
     7
370
    25
100
AcDbLine
 10
48.0832611207
 20
227.8300143233
 30
0.0
 11
90.5096679919
 21
252.322257678
 31
0.0
  0
LINE
  5
1F9
330
17A
100
AcDbEntity
  8
0
  6
Continuous
 62
     7
370
    25
100
AcDbLine
 10
90.5096679919
 20
252.322257678
 30
0.0
 11
90.5096679919
 21
235.9914414403
 31
0.0
  0
LINE
  5
1FA
330
17A
100
AcDbEntity
  8
0
  6
Continuous
 62
     7
370
    25
100
AcDbLine
 10
-161.2203461105
 20
348.6584148731
 30
0.0
 11
48.0832611207
 21
227.8300143233
 31
0.0
  0
LINE
  5
1FB
330
17A
100
AcDbEntity
  8
0
  6
Continuous
 62
     7
370
    25
100
AcDbLine
 10
-118.7939392393
 20
373.1506582278
 30
0.0
 11
-161.2203461105
 21
348.6584148731
 31
0.0
  0
LINE
  5
1FC
330
17A
100
AcDbEntity
  8
0
  6
Continuous
 62
     7
370
    25
100
AcDbLine
 10
90.5096679919
 20
252.322257678
 30
0.0
 11
-118.7939392393
 21
373.1506582278
 31
0.0
  0
LINE
  5
1FD
330
17A
100
AcDbEntity
  8
0
  6
Continuous
 62
     7
370
    25
100
AcDbLine
 10
-161.2203461105
 20
348.6584148731
 30
0.0
 11
-161.2203461105
 21
338.0460383198
 31
0.0
  0
VIEWPORT
  5
334
330
17A
100
AcDbEntity
  8
0
100
AcDbViewport
 10
0.0
 20
0.0
 30
0.0
 40
205.6
 41
156.0
 68
     1
 69
     1
 12
0.0
 22
0.0
 13
0.0
 23
0.0
 14
10.0
 24
10.0
 15
10.0
 25
10.0
 16
0.0
 26
0.0
 36
1.0
 17
0.0
 27
0.0
 37
0.0
 42
50.0
 43
0.0
 44
0.0
 45
816.0
 50
0.0
 51
0.0
 72
   100
 90
   557152
  1

281
     0
 71
     1
 74
     0
110
0.0
120
0.0
130
0.0
111
1.0
121
0.0
131
0.0
112
0.0
122
1.0
132
0.0
 79
     0
146
0.0
  0
ENDBLK
  5
17D
330
17A
100
AcDbEntity
  8
0
100
AcDbBlockEnd
  0
BLOCK
  5
200
330
1FE
100
AcDbEntity
  8
0
100
AcDbBlockBegin
  2
*Paper_Space5
 70
     0
 10
0.0
 20
0.0
 30
0.0
  3
*Paper_Space5
  1

  0
LWPOLYLINE
  5
205
330
1FE
100
AcDbEntity
  8
0
  6
Continuous
 62
     7
370
    25
100
AcDbPolyline
 90
       17
 70
   128
 43
0.0
 10
189.0783183454
 20
189.6405624254
 10
188.9079697457
 20
193.0475430286
 10
188.3985644968
 20
196.5143067447
 10
187.5550084497
 20
200.007466744
 10
186.3854255103
 20
203.493381986
 10
184.9010794016
 20
206.9384812015
 10
183.1162651881
 20
210.3095862017
 10
181.0481716063
 20
213.5742314027
 10
178.716715528
 20
216.7009764864
 10
176.1443501497
 20
219.6597091885
 10
173.3558487562
 20
222.4219352957
 10
170.3780661402
 20
224.9610530606
 10
167.2396799763
 20
227.252609391
 10
163.9709146387
 20
229.2745353468
 10
160.6032501245
 20
231.0073586758
 10
157.169118884
 20
232.434391342
 10
153.7015934783
 20
233.5418902408
  0
LWPOLYLINE
  5
207
330
1FE
100
AcDbEntity
  8
0
  6
Continuous
 62
     7
370
    25
100
AcDbPolyline
 90
       17
 70
   128
 43
0.0
 10
153.7015934783
 20
-452.1919503209
 10
157.169118884
 20
-452.9692496324
 10
160.6032501245
 20
-453.4088635395
 10
163.9709146387
 20
-453.5065583197
 10
167.2396799763
 20
-453.2613931191
 10
170.3780661402
 20
-452.6757290124
 10
173.3558487562
 20
-451.7552062653
 10
176.1443501497
 20
-450.5086900149
 10
178.716715528
 20
-448.9481848942
 10
181.0481716063
 20
-447.0887194205
 10
183.1162651881
 20
-444.9482012628
 10
184.9010794016
 20
-442.5472447812
 10
186.3854255103
 20
-439.908972499
 10
187.5550084497
 20
-437.0587924206
 10
188.3985644968
 20
-434.0241533381
 10
188.9079697457
 20
-430.8342804848
 10
189.0783183454
 20
-427.5198940801
  0
LWPOLYLINE
  5
20B
330
1FE
100
AcDbEntity
  8
0
  6
Continuous
 62
     7
370
    25
100
AcDbPolyline
 90
       17
 70
   128
 43
0.0
 10
161.1687197012
 20
240.8300343497
 10
164.6362451069
 20
239.7225354509
 10
168.0703763474
 20
238.2955027847
 10
171.4380408616
 20
236.5626794557
 10
174.7068061992
 20
234.5407534998
 10
177.8451923631
 20
232.2491971694
 10
180.8229749791
 20
229.7100794046
 10
183.6114763726
 20
226.9478532974
 10
186.1838417509
 20
223.9891205953
 10
188.5152978292
 20
220.8623755115
 10
190.583391411
 20
217.5977303106
 10
192.3682056245
 20
214.2266253104
 10
193.8525517332
 20
210.7815260949
 10
195.0221346726
 20
207.2956108528
 10
195.8656907197
 20
203.8024508536
 10
196.3750959686
 20
200.3356871375
 10
196.5454445683
 20
196.9287065343
  0
LWPOLYLINE
  5
21F
330
1FE
100
AcDbEntity
  8
0
  6
Continuous
 62
     7
370
    25
100
AcDbPolyline
 90
       17
 70
   128
 43
0.0
 10
-297.3516485772
 20
-295.318652004
 10
-297.1812999775
 20
-298.7256326072
 10
-296.6718947286
 20
-302.1923963233
 10
-295.8283386815
 20
-305.6855563225
 10
-294.6587557421
 20
-309.1714715646
 10
-293.1744096334
 20
-312.6165707801
 10
-291.3895954199
 20
-315.9876757803
 10
-289.3215018381
 20
-319.2523209812
 10
-286.9900457598
 20
-322.379066065
 10
-284.4176803815
 20
-325.3377987671
 10
-281.629178988
 20
-328.1000248743
 10
-278.651396372
 20
-330.6391426391
 10
-275.5130102081
 20
-332.9306989696
 10
-272.2442448704
 20
-334.9526249254
 10
-268.8765803563
 20
-336.6854482544
 10
-265.4424491158
 20
-338.1124809206
 10
-261.9749237101
 20
-339.2199798194
  0
LWPOLYLINE
  5
221
330
1FE
100
AcDbEntity
  8
0
  6
Continuous
 62
     7
370
    25
100
AcDbPolyline
 90
       17
 70
   128
 43
0.0
 10
-261.9749237101
 20
346.5138607423
 10
-265.4424491158
 20
347.2911600538
 10
-268.8765803563
 20
347.7307739609
 10
-272.2442448704
 20
347.8284687411
 10
-275.5130102081
 20
347.5833035405
 10
-278.651396372
 20
346.9976394339
 10
-281.629178988
 20
346.0771166867
 10
-284.4176803815
 20
344.8306004363
 10
-286.9900457598
 20
343.2700953156
 10
-289.3215018381
 20
341.4106298419
 10
-291.3895954199
 20
339.2701116843
 10
-293.1744096334
 20
336.8691552026
 10
-294.6587557421
 20
334.2308829204
 10
-295.8283386815
 20
331.380702842
 10
-296.6718947286
 20
328.3460637595
 10
-297.1812999775
 20
325.1561909062
 10
-297.3516485772
 20
321.8418045016
  0
LWPOLYLINE
  5
229
330
1FE
100
AcDbEntity
  8
0
  6
Continuous
 62
     7
370
    25
100
AcDbPolyline
 90
       11
 70
   128
 43
0.0
 10
-282.4469238332
 20
348.1405677393
 10
-281.8543756152
 20
348.6987739508
 10
-279.5229195369
 20
350.5582394245
 10
-276.9505541586
 20
352.1187445452
 10
-274.1620527651
 20
353.3652607956
 10
-271.1842701491
 20
354.2857835427
 10
-268.0458839852
 20
354.8714476494
 10
-264.7771186476
 20
355.11661285
 10
-261.4094541334
 20
355.0189180698
 10
-257.9753228929
 20
354.5793041627
 10
-254.5077974872
 20
353.8020048511
  0
LWPOLYLINE
  5
241
330
1FE
100
AcDbEntity
  8
0
  6
Continuous
 62
     7
370
    25
100
AcDbPolyline
 90
        8
 70
   128
 43
0.0
 10
196.5454445683
 20
-189.6553549438
 10
196.90088277
 20
-188.9092683137
 10
197.2134349174
 20
-187.9200740446
 10
197.3797404414
 20
-186.918540423
 10
197.3797404414
 20
-186.0254671846
 10
197.2134349174
 20
-185.3485721425
 10
196.90088277
 20
-184.9694988286
 10
196.5454445683
 20
-184.9172493612
  0
LWPOLYLINE
  5
242
330
1FE
100
AcDbEntity
  8
0
  6
Continuous
 62
     7
370
    25
100
AcDbPolyline
 90
        8
 70
   128
 43
0.0
 10
196.5454445683
 20
21.2078010289
 10
196.90088277
 20
21.953887659
 10
197.2134349174
 20
22.9430819281
 10
197.3797404414
 20
23.9446155498
 10
197.3797404414
 20
24.8376887881
 10
197.2134349174
 20
25.5145838302
 10
196.90088277
 20
25.8936571441
 10
196.5454445683
 20
25.9459066116
  0
LINE
  5
24E
330
1FE
100
AcDbEntity
  8
0
  6
Continuous
 62
     7
370
    25
100
AcDbLine
 10
-282.4469238332
 20
348.1405677393
 30
0.0
 11
-289.9140500561
 21
340.8524236305
 31
0.0
  0
LINE
  5
24F
330
1FE
100
AcDbEntity
  8
0
  6
Continuous
 62
     7
370
    25
100
AcDbLine
 10
181.6407198243
 20
-446.530513209
 30
0.0
 11
189.1078460472
 21
-439.2423691002
 31
0.0
  0
LINE
  5
250
330
1FE
100
AcDbEntity
  8
0
  6
Continuous
 62
     7
370
    25
100
AcDbLine
 10
153.7015934783
 20
233.5418902408
 30
0.0
 11
149.2795028699
 21
234.7437197143
 31
0.0
  0
LINE
  5
251
330
1FE
100
AcDbEntity
  8
0
  6
Continuous
 62
     7
370
    25
100
AcDbLine
 10
189.0783183454
 20
-427.5198940801
 30
0.0
 11
189.0783183454
 21
189.6405624254
 31
0.0
  0
LINE
  5
252
330
1FE
100
AcDbEntity
  8
0
  6
Continuous
 62
     7
370
    25
100
AcDbLine
 10
149.2795028699
 20
-450.9901208475
 30
0.0
 11
153.7015934783
 21
-452.1919503209
 31
0.0
  0
LINE
  5
253
330
1FE
100
AcDbEntity
  8
0
  6
Continuous
 62
     7
370
    25
100
AcDbLine
 10
149.2795028699
 20
-450.9901208475
 30
0.0
 11
149.2795028699
 21
234.7437197143
 31
0.0
  0
LINE
  5
254
330
1FE
100
AcDbEntity
  8
0
  6
Continuous
 62
     7
370
    25
100
AcDbLine
 10
153.7015934783
 20
233.5418902408
 30
0.0
 11
161.1687197012
 21
240.8300343497
 31
0.0
  0
LINE
  5
255
330
1FE
100
AcDbEntity
  8
0
  6
Continuous
 62
     7
370
    25
100
AcDbLine
 10
196.5454445683
 20
196.9287065343
 30
0.0
 11
189.0783183454
 21
189.6405624254
 31
0.0
  0
LINE
  5
256
330
1FE
100
AcDbEntity
  8
0
  6
Continuous
 62
     7
370
    25
100
AcDbLine
 10
-256.2017195911
 20
345.527174381
 30
0.0
 11
-256.66841498
 21
345.0716653742
 31
0.0
  0
LINE
  5
257
330
1FE
100
AcDbEntity
  8
0
  6
Continuous
 62
     7
370
    25
100
AcDbLine
 10
-256.2017195911
 20
345.527174381
 30
0.0
 11
-257.0861377128
 21
345.7675402757
 31
0.0
  0
LINE
  5
258
330
1FE
100
AcDbEntity
  8
0
  6
Continuous
 62
     7
370
    25
100
AcDbLine
 10
-257.0861377128
 20
345.7675402757
 30
0.0
 11
-257.5528331017
 21
345.3120312689
 31
0.0
  0
LINE
  5
259
330
1FE
100
AcDbEntity
  8
0
  6
Continuous
 62
     7
370
    25
100
AcDbLine
 10
-257.5528331017
 20
345.3120312689
 30
0.0
 11
-261.9749237101
 21
346.5138607423
 31
0.0
  0
LINE
  5
25A
330
1FE
100
AcDbEntity
  8
0
  6
Continuous
 62
     7
370
    25
100
AcDbLine
 10
-254.5077974872
 20
353.8020048511
 30
0.0
 11
-261.9749237101
 21
346.5138607423
 31
0.0
  0
LINE
  5
25B
330
1FE
100
AcDbEntity
  8
0
  6
Continuous
 62
     7
370
    25
100
AcDbLine
 10
149.7461982588
 20
235.1992287211
 30
0.0
 11
149.2795028699
 21
234.7437197143
 31
0.0
  0
LINE
  5
25C
330
1FE
100
AcDbEntity
  8
0
  6
Continuous
 62
     7
370
    25
100
AcDbLine
 10
149.7461982588
 20
235.1992287211
 30
0.0
 11
148.8617801372
 21
235.4395946157
 31
0.0
  0
LINE
  5
25D
330
1FE
100
AcDbEntity
  8
0
  6
Continuous
 62
     7
370
    25
100
AcDbLine
 10
148.8617801372
 20
235.4395946157
 30
0.0
 11
148.3950847482
 21
234.9840856089
 31
0.0
  0
LINE
  5
25E
330
1FE
100
AcDbEntity
  8
0
  6
Continuous
 62
     7
370
    25
100
AcDbLine
 10
148.3950847482
 20
234.9840856089
 30
0.0
 11
-256.66841498
 21
345.0716653742
 31
0.0
  0
LINE
  5
25F
330
1FE
100
AcDbEntity
  8
0
  6
Continuous
 62
     7
370
    25
100
AcDbLine
 10
161.1687197012
 20
240.8300343497
 30
0.0
 11
-254.5077974872
 21
353.8020048511
 31
0.0
  0
LINE
  5
260
330
1FE
100
AcDbEntity
  8
0
  6
Continuous
 62
     7
370
    25
100
AcDbLine
 10
148.3950847482
 20
196.4115570773
 30
0.0
 11
-256.66841498
 21
306.4991368426
 31
0.0
  0
LINE
  5
261
330
1FE
100
AcDbEntity
  8
0
  6
Continuous
 62
     7
370
    25
100
AcDbLine
 10
-256.66841498
 20
306.4991368426
 30
0.0
 11
-256.66841498
 21
345.0716653742
 31
0.0
  0
LINE
  5
262
330
1FE
100
AcDbEntity
  8
0
  6
Continuous
 62
     7
370
    25
100
AcDbLine
 10
148.3950847482
 20
234.9840856089
 30
0.0
 11
148.3950847482
 21
196.4115570773
 31
0.0
  0
LINE
  5
263
330
1FE
100
AcDbEntity
  8
0
  6
Continuous
 62
     7
370
    25
100
AcDbLine
 10
148.8617801372
 20
235.4395946157
 30
0.0
 11
148.8617801372
 21
196.8670660841
 31
0.0
  0
LINE
  5
264
330
1FE
100
AcDbEntity
  8
0
  6
Continuous
 62
     7
370
    25
100
AcDbLine
 10
148.8617801372
 20
196.8670660841
 30
0.0
 11
148.3950847482
 21
196.4115570773
 31
0.0
  0
LINE
  5
265
330
1FE
100
AcDbEntity
  8
0
  6
Continuous
 62
     7
370
    25
100
AcDbLine
 10
148.8617801372
 20
196.8670660841
 30
0.0
 11
149.2795028699
 21
196.7535379961
 31
0.0
  0
LINE
  5
266
330
1FE
100
AcDbEntity
  8
0
  6
Continuous
 62
     7
370
    25
100
AcDbLine
 10
189.0783183454
 20
-427.5198940801
 30
0.0
 11
196.5454445683
 21
-420.2317499713
 31
0.0
  0
LINE
  5
267
330
1FE
100
AcDbEntity
  8
0
  6
Continuous
 62
     7
370
    25
100
AcDbLine
 10
196.5454445683
 20
-420.2317499713
 30
0.0
 11
196.5454445683
 21
196.9287065343
 31
0.0
  0
LINE
  5
268
330
1FE
100
AcDbEntity
  8
0
  6
Continuous
 62
     7
370
    25
100
AcDbLine
 10
-297.3516485772
 20
321.8418045016
 30
0.0
 11
-297.3516485772
 21
-295.318652004
 31
0.0
  0
LINE
  5
269
330
1FE
100
AcDbEntity
  8
0
  6
Continuous
 62
     7
370
    25
100
AcDbLine
 10
-257.5528331017
 20
345.3120312689
 30
0.0
 11
-257.5528331017
 21
-340.4218092928
 31
0.0
  0
LINE
  5
26A
330
1FE
100
AcDbEntity
  8
0
  6
Continuous
 62
     7
370
    25
100
AcDbLine
 10
-261.9749237101
 20
-339.2199798194
 30
0.0
 11
-257.5528331017
 21
-340.4218092928
 31
0.0
  0
LINE
  5
26B
330
1FE
100
AcDbEntity
  8
0
  6
Continuous
 62
     7
370
    25
100
AcDbLine
 10
-257.0861377128
 20
345.7675402757
 30
0.0
 11
-257.0861377128
 21
307.1950117441
 31
0.0
  0
LINE
  5
26C
330
1FE
100
AcDbEntity
  8
0
  6
Continuous
 62
     7
370
    25
100
AcDbLine
 10
-256.66841498
 20
-300.9860615614
 30
0.0
 11
-257.0861377128
 21
-301.3937717544
 31
0.0
  0
LINE
  5
26D
330
1FE
100
AcDbEntity
  8
0
  6
Continuous
 62
     7
370
    25
100
AcDbLine
 10
-257.0861377128
 20
-301.3937717544
 30
0.0
 11
-257.0861377128
 21
-339.966300286
 31
0.0
  0
LINE
  5
26E
330
1FE
100
AcDbEntity
  8
0
  6
Continuous
 62
     7
370
    25
100
AcDbLine
 10
-257.0861377128
 20
-339.966300286
 30
0.0
 11
-257.5528331017
 21
-340.4218092928
 31
0.0
  0
LINE
  5
26F
330
1FE
100
AcDbEntity
  8
0
  6
Continuous
 62
     7
370
    25
100
AcDbLine
 10
-257.0861377128
 20
307.1950117441
 30
0.0
 11
-256.66841498
 21
307.081483656
 31
0.0
  0
LINE
  5
270
330
1FE
100
AcDbEntity
  8
0
  6
Continuous
 62
     7
370
    25
100
AcDbLine
 10
149.2795028699
 20
-411.8352455024
 30
0.0
 11
148.8617801372
 21
-411.7217174144
 31
0.0
  0
LINE
  5
271
330
1FE
100
AcDbEntity
  8
0
  6
Continuous
 62
     7
370
    25
100
AcDbLine
 10
148.8617801372
 20
-411.7217174144
 30
0.0
 11
148.3950847482
 21
-412.1772264212
 31
0.0
  0
LINE
  5
272
330
1FE
100
AcDbEntity
  8
0
  6
Continuous
 62
     7
370
    25
100
AcDbLine
 10
-256.66841498
 20
-302.0896466559
 30
0.0
 11
148.3950847482
 21
-412.1772264212
 31
0.0
  0
LINE
  5
273
330
1FE
100
AcDbEntity
  8
0
  6
Continuous
 62
     7
370
    25
100
AcDbLine
 10
-256.2017195911
 20
-301.6341376491
 30
0.0
 11
-256.66841498
 21
-302.0896466559
 31
0.0
  0
LINE
  5
274
330
1FE
100
AcDbEntity
  8
0
  6
Continuous
 62
     7
370
    25
100
AcDbLine
 10
-256.2017195911
 20
-301.6341376491
 30
0.0
 11
-257.0861377128
 21
-301.3937717544
 31
0.0
  0
LINE
  5
275
330
1FE
100
AcDbEntity
  8
0
  6
Continuous
 62
     7
370
    25
100
AcDbLine
 10
148.8617801372
 20
-411.7217174144
 30
0.0
 11
148.8617801372
 21
-450.294245946
 31
0.0
  0
LINE
  5
276
330
1FE
100
AcDbEntity
  8
0
  6
Continuous
 62
     7
370
    25
100
AcDbLine
 10
148.8617801372
 20
-450.294245946
 30
0.0
 11
148.3950847482
 21
-450.7497549528
 31
0.0
  0
LINE
  5
277
330
1FE
100
AcDbEntity
  8
0
  6
Continuous
 62
     7
370
    25
100
AcDbLine
 10
148.3950847482
 20
-412.1772264212
 30
0.0
 11
148.3950847482
 21
-450.7497549528
 31
0.0
  0
LINE
  5
278
330
1FE
100
AcDbEntity
  8
0
  6
Continuous
 62
     7
370
    25
100
AcDbLine
 10
-256.66841498
 20
-340.6621751875
 30
0.0
 11
148.3950847482
 21
-450.7497549528
 31
0.0
  0
LINE
  5
279
330
1FE
100
AcDbEntity
  8
0
  6
Continuous
 62
     7
370
    25
100
AcDbLine
 10
-256.66841498
 20
-340.6621751875
 30
0.0
 11
-256.66841498
 21
-302.0896466559
 31
0.0
  0
LINE
  5
27A
330
1FE
100
AcDbEntity
  8
0
  6
Continuous
 62
     7
370
    25
100
AcDbLine
 10
148.8617801372
 20
-450.294245946
 30
0.0
 11
149.2795028699
 21
-450.407774034
 31
0.0
  0
LINE
  5
27B
330
1FE
100
AcDbEntity
  8
0
  6
Continuous
 62
     7
370
    25
100
AcDbLine
 10
-257.0861377128
 20
-339.966300286
 30
0.0
 11
-256.66841498
 21
-340.0798283741
 31
0.0
  0
LINE
  5
27C
330
1FE
100
AcDbEntity
  8
0
  6
Continuous
 62
     7
370
    25
100
AcDbLine
 10
149.2795028699
 20
196.4176089765
 30
0.0
 11
148.3950847482
 21
195.5543897766
 31
0.0
  0
LINE
  5
27D
330
1FE
100
AcDbEntity
  8
0
  6
Continuous
 62
     7
370
    25
100
AcDbLine
 10
149.2795028699
 20
-410.4568399206
 30
0.0
 11
148.3950847482
 21
-411.3200591205
 31
0.0
  0
LINE
  5
27E
330
1FE
100
AcDbEntity
  8
0
  6
Continuous
 62
     7
370
    25
100
AcDbLine
 10
148.3950847482
 20
195.5543897766
 30
0.0
 11
148.3950847482
 21
-411.3200591205
 31
0.0
  0
LINE
  5
27F
330
1FE
100
AcDbEntity
  8
0
  6
Continuous
 62
     7
370
    25
100
AcDbLine
 10
-256.66841498
 20
305.6419695419
 30
0.0
 11
148.3950847482
 21
195.5543897766
 31
0.0
  0
LINE
  5
280
330
1FE
100
AcDbEntity
  8
0
  6
Continuous
 62
     7
370
    25
100
AcDbLine
 10
148.3950847482
 20
-411.3200591205
 30
0.0
 11
-256.66841498
 21
-301.2324793552
 31
0.0
  0
LINE
  5
281
330
1FE
100
AcDbEntity
  8
0
  6
Continuous
 62
     7
370
    25
100
AcDbLine
 10
-256.66841498
 20
-301.2324793552
 30
0.0
 11
-256.66841498
 21
305.6419695419
 31
0.0
  0
LINE
  5
282
330
1FE
100
AcDbEntity
  8
0
  6
Continuous
 62
     7
370
    25
100
AcDbLine
 10
-255.9814772008
 20
306.3124418735
 30
0.0
 11
-256.66841498
 21
305.6419695419
 31
0.0
  0
LINE
  5
283
330
1FE
100
AcDbEntity
  8
0
  6
Continuous
 62
     7
370
    25
100
AcDbLine
 10
196.5454445683
 20
-401.578127328
 30
0.0
 11
219.335694176
 21
-379.3341450435
 31
0.0
  0
LINE
  5
284
330
1FE
100
AcDbEntity
  8
0
  6
Continuous
 62
     7
370
    25
100
AcDbLine
 10
184.4349376393
 20
226.0484529683
 30
0.0
 11
219.335694176
 21
260.1126612803
 31
0.0
  0
LINE
  5
285
330
1FE
100
AcDbEntity
  8
0
  6
Continuous
 62
     7
370
    25
100
AcDbLine
 10
219.335694176
 20
-379.3341450435
 30
0.0
 11
219.335694176
 21
260.1126612803
 31
0.0
  0
LINE
  5
286
330
1FE
100
AcDbEntity
  8
0
  6
Continuous
 62
     7
370
    25
100
AcDbLine
 10
102.771663155
 20
256.7011030214
 30
0.0
 11
121.5599742297
 21
275.0390706126
 31
0.0
  0
LINE
  5
287
330
1FE
100
AcDbEntity
  8
0
  6
Continuous
 62
     7
370
    25
100
AcDbLine
 10
-247.4579130293
 20
351.8859973162
 30
0.0
 11
-219.335694176
 21
379.3341450435
 31
0.0
  0
LINE
  5
288
330
1FE
100
AcDbEntity
  8
0
  6
Continuous
 62
     7
370
    25
100
AcDbLine
 10
219.335694176
 20
260.1126612803
 30
0.0
 11
121.5599742297
 21
286.6860068814
 31
0.0
  0
LINE
  5
289
330
1FE
100
AcDbEntity
  8
0
  6
Continuous
 62
     7
370
    25
100
AcDbLine
 10
-144.6326375932
 20
359.0314549572
 30
0.0
 11
-219.335694176
 21
379.3341450435
 31
0.0
  0
LINE
  5
28A
330
1FE
100
AcDbEntity
  8
0
  6
Continuous
 62
     7
370
    25
100
AcDbLine
 10
93.5582508939
 20
264.8518762184
 30
0.0
 11
93.5582508939
 21
259.2051110544
 31
0.0
  0
LINE
  5
28B
330
1FE
100
AcDbEntity
  8
0
  6
Continuous
 62
     7
370
    25
100
AcDbLine
 10
93.5582508939
 20
264.8518762184
 30
0.0
 11
121.5599742297
 21
292.1824166266
 31
0.0
  0
LINE
  5
28C
330
1FE
100
AcDbEntity
  8
0
  6
Continuous
 62
     7
370
    25
100
AcDbLine
 10
121.5599742297
 20
292.1824166266
 30
0.0
 11
121.5599742297
 21
275.0390706126
 31
0.0
  0
LINE
  5
28D
330
1FE
100
AcDbEntity
  8
0
  6
Continuous
 62
     7
370
    25
100
AcDbLine
 10
-168.2295131227
 20
336.0001810448
 30
0.0
 11
-168.2295131227
 21
330.3534158809
 31
0.0
  0
LINE
  5
28E
330
1FE
100
AcDbEntity
  8
0
  6
Continuous
 62
     7
370
    25
100
AcDbLine
 10
-168.2295131227
 20
336.0001810448
 30
0.0
 11
93.5582508939
 21
264.8518762184
 31
0.0
  0
LINE
  5
28F
330
1FE
100
AcDbEntity
  8
0
  6
Continuous
 62
     7
370
    25
100
AcDbLine
 10
-140.2277897869
 20
363.3307214531
 30
0.0
 11
-168.2295131227
 21
336.0001810448
 31
0.0
  0
LINE
  5
290
330
1FE
100
AcDbEntity
  8
0
  6
Continuous
 62
     7
370
    25
100
AcDbLine
 10
121.5599742297
 20
292.1824166266
 30
0.0
 11
-140.2277897869
 21
363.3307214531
 31
0.0
  0
ARC
  5
291
330
1FE
100
AcDbEntity
  8
0
  6
Continuous
 62
     7
370
    25
100
AcDbCircle
 10
170.7326473854
 20
-421.0931387272
 30
0.0
 40
25.82716571735658
100
AcDbArc
 50
315.3544713609
 51
1.9112857848
  0
VIEWPORT
  5
336
330
1FE
100
AcDbEntity
  8
0
100
AcDbViewport
 10
0.0
 20
0.0
 30
0.0
 40
205.6
 41
156.0
 68
     1
 69
     1
 12
0.0
 22
0.0
 13
0.0
 23
0.0
 14
10.0
 24
10.0
 15
10.0
 25
10.0
 16
0.0
 26
0.0
 36
1.0
 17
0.0
 27
0.0
 37
0.0
 42
50.0
 43
0.0
 44
0.0
 45
816.0
 50
0.0
 51
0.0
 72
   100
 90
   557152
  1

281
     0
 71
     1
 74
     0
110
0.0
120
0.0
130
0.0
111
1.0
121
0.0
131
0.0
112
0.0
122
1.0
132
0.0
 79
     0
146
0.0
  0
ENDBLK
  5
201
330
1FE
100
AcDbEntity
  8
0
100
AcDbBlockEnd
  0
BLOCK
  5
294
330
292
100
AcDbEntity
  8
0
100
AcDbBlockBegin
  2
*Paper_Space6
 70
     0
 10
0.0
 20
0.0
 30
0.0
  3
*Paper_Space6
  1

  0
LINE
  5
2E0
330
292
100
AcDbEntity
  8
0
  6
Continuous
 62
     7
370
    25
100
AcDbLine
 10
-281.6352236424
 20
365.9257923461
 30
0.0
 11
-287.2920778906
 21
360.9369158315
 31
0.0
  0
LINE
  5
2E1
330
292
100
AcDbEntity
  8
0
  6
Continuous
 62
     7
370
    25
100
AcDbLine
 10
205.2676912918
 20
-433.2756252942
 30
0.0
 11
210.92454554
 21
-428.2867487796
 31
0.0
  0
LINE
  5
2E2
330
292
100
AcDbEntity
  8
0
  6
Continuous
 62
     7
370
    25
100
AcDbLine
 10
178.8101781808
 20
313.2592463291
 30
0.0
 11
174.1331064471
 21
313.8485019798
 31
0.0
  0
LINE
  5
2E3
330
292
100
AcDbEntity
  8
0
  6
Continuous
 62
     7
370
    25
100
AcDbLine
 10
216.2267520497
 20
-407.9896705003
 30
0.0
 11
216.2267520497
 21
270.832839459
 31
0.0
  0
LINE
  5
2E4
330
292
100
AcDbEntity
  8
0
  6
Continuous
 62
     7
370
    25
100
AcDbLine
 10
174.1331064471
 20
-440.3987313083
 30
0.0
 11
178.8101781808
 21
-440.987986959
 31
0.0
  0
LINE
  5
2E5
330
292
100
AcDbEntity
  8
0
  6
Continuous
 62
     7
370
    25
100
AcDbLine
 10
174.1331064471
 20
-440.3987313083
 30
0.0
 11
174.1331064471
 21
313.8485019798
 31
0.0
  0
LINE
  5
2E6
330
292
100
AcDbEntity
  8
0
  6
Continuous
 62
     7
370
    25
100
AcDbLine
 10
178.8101781808
 20
313.2592463291
 30
0.0
 11
184.467032429
 21
318.2481228438
 31
0.0
  0
LINE
  5
2E7
330
292
100
AcDbEntity
  8
0
  6
Continuous
 62
     7
370
    25
100
AcDbLine
 10
221.8836062979
 20
275.8217159737
 30
0.0
 11
216.2267520497
 21
270.832839459
 31
0.0
  0
LINE
  5
2E8
330
292
100
AcDbEntity
  8
0
  6
Continuous
 62
     7
370
    25
100
AcDbLine
 10
221.8836062979
 20
-403.0007939856
 30
0.0
 11
221.8836062979
 21
275.8217159737
 31
0.0
  0
LINE
  5
2E9
330
292
100
AcDbEntity
  8
0
  6
Continuous
 62
     7
370
    25
100
AcDbLine
 10
216.2267520497
 20
-407.9896705003
 30
0.0
 11
221.8836062979
 21
-403.0007939856
 31
0.0
  0
LINE
  5
2EA
330
292
100
AcDbEntity
  8
0
  6
Continuous
 62
     7
370
    25
100
AcDbLine
 10
-254.8685253087
 20
368.2539754975
 30
0.0
 11
-255.2220786992
 21
367.9421707153
 31
0.0
  0
LINE
  5
2EB
330
292
100
AcDbEntity
  8
0
  6
Continuous
 62
     7
370
    25
100
AcDbLine
 10
-254.8685253087
 20
368.2539754975
 30
0.0
 11
-255.8039396555
 21
368.3718266276
 31
0.0
  0
LINE
  5
2EC
330
292
100
AcDbEntity
  8
0
  6
Continuous
 62
     7
370
    25
100
AcDbLine
 10
-255.8039396555
 20
368.3718266276
 30
0.0
 11
-256.157493046
 21
368.0600218455
 31
0.0
  0
LINE
  5
2ED
330
292
100
AcDbEntity
  8
0
  6
Continuous
 62
     7
370
    25
100
AcDbLine
 10
-256.157493046
 20
368.0600218455
 30
0.0
 11
-260.8345647796
 21
368.6492774962
 31
0.0
  0
LINE
  5
2EE
330
292
100
AcDbEntity
  8
0
  6
Continuous
 62
     7
370
    25
100
AcDbLine
 10
-255.1777105314
 20
373.6381540109
 30
0.0
 11
-260.8345647796
 21
368.6492774962
 31
0.0
  0
LINE
  5
2EF
330
292
100
AcDbEntity
  8
0
  6
Continuous
 62
     7
370
    25
100
AcDbLine
 10
184.467032429
 20
318.2481228438
 30
0.0
 11
-255.1777105314
 21
373.6381540109
 31
0.0
  0
LINE
  5
2F0
330
292
100
AcDbEntity
  8
0
  6
Continuous
 62
     7
370
    25
100
AcDbLine
 10
174.4866598377
 20
314.160306762
 30
0.0
 11
174.1331064471
 21
313.8485019798
 31
0.0
  0
LINE
  5
2F1
330
292
100
AcDbEntity
  8
0
  6
Continuous
 62
     7
370
    25
100
AcDbLine
 10
174.4866598377
 20
314.160306762
 30
0.0
 11
173.5512454909
 21
314.2781578921
 31
0.0
  0
LINE
  5
2F2
330
292
100
AcDbEntity
  8
0
  6
Continuous
 62
     7
370
    25
100
AcDbLine
 10
173.5512454909
 20
314.2781578921
 30
0.0
 11
173.1976921004
 21
313.96635311
 31
0.0
  0
LINE
  5
2F3
330
292
100
AcDbEntity
  8
0
  6
Continuous
 62
     7
370
    25
100
AcDbLine
 10
173.1976921004
 20
313.96635311
 30
0.0
 11
-255.2220786992
 21
367.9421707153
 31
0.0
  0
LINE
  5
2F4
330
292
100
AcDbEntity
  8
0
  6
Continuous
 62
     7
370
    25
100
AcDbLine
 10
173.1976921004
 20
271.5399462375
 30
0.0
 11
-255.2220786992
 21
325.5157638429
 31
0.0
  0
LINE
  5
2F5
330
292
100
AcDbEntity
  8
0
  6
Continuous
 62
     7
370
    25
100
AcDbLine
 10
-255.2220786992
 20
325.5157638429
 30
0.0
 11
-255.2220786992
 21
367.9421707153
 31
0.0
  0
LINE
  5
2F6
330
292
100
AcDbEntity
  8
0
  6
Continuous
 62
     7
370
    25
100
AcDbLine
 10
173.1976921004
 20
313.96635311
 30
0.0
 11
173.1976921004
 21
271.5399462375
 31
0.0
  0
LINE
  5
2F7
330
292
100
AcDbEntity
  8
0
  6
Continuous
 62
     7
370
    25
100
AcDbLine
 10
173.5512454909
 20
314.2781578921
 30
0.0
 11
173.5512454909
 21
271.8517510197
 31
0.0
  0
LINE
  5
2F8
330
292
100
AcDbEntity
  8
0
  6
Continuous
 62
     7
370
    25
100
AcDbLine
 10
173.5512454909
 20
271.8517510197
 30
0.0
 11
173.1976921004
 21
271.5399462375
 31
0.0
  0
LINE
  5
2F9
330
292
100
AcDbEntity
  8
0
  6
Continuous
 62
     7
370
    25
100
AcDbLine
 10
173.5512454909
 20
271.8517510197
 30
0.0
 11
174.1331064471
 21
271.7784434298
 31
0.0
  0
LINE
  5
2FA
330
292
100
AcDbEntity
  8
0
  6
Continuous
 62
     7
370
    25
100
AcDbLine
 10
-255.8039396555
 20
368.3718266276
 30
0.0
 11
-255.8039396555
 21
325.9454197552
 31
0.0
  0
LINE
  5
2FB
330
292
100
AcDbEntity
  8
0
  6
Continuous
 62
     7
370
    25
100
AcDbLine
 10
-255.2220786992
 20
-342.9358466587
 30
0.0
 11
-255.8039396555
 21
-343.448999788
 31
0.0
  0
LINE
  5
2FC
330
292
100
AcDbEntity
  8
0
  6
Continuous
 62
     7
370
    25
100
AcDbLine
 10
-255.8039396555
 20
-343.448999788
 30
0.0
 11
-255.8039396555
 21
-385.8754066605
 31
0.0
  0
LINE
  5
2FD
330
292
100
AcDbEntity
  8
0
  6
Continuous
 62
     7
370
    25
100
AcDbLine
 10
-255.8039396555
 20
-385.8754066605
 30
0.0
 11
-256.157493046
 21
-386.1872114426
 31
0.0
  0
LINE
  5
2FE
330
292
100
AcDbEntity
  8
0
  6
Continuous
 62
     7
370
    25
100
AcDbLine
 10
-256.157493046
 20
368.0600218455
 30
0.0
 11
-256.157493046
 21
-386.1872114426
 31
0.0
  0
LINE
  5
2FF
330
292
100
AcDbEntity
  8
0
  6
Continuous
 62
     7
370
    25
100
AcDbLine
 10
-298.2511386486
 20
335.6509610375
 30
0.0
 11
-298.2511386485
 21
-343.1715489218
 31
0.0
  0
LINE
  5
300
330
292
100
AcDbEntity
  8
0
  6
Continuous
 62
     7
370
    25
100
AcDbLine
 10
-260.8345647796
 20
-385.5979557919
 30
0.0
 11
-256.157493046
 21
-386.1872114426
 31
0.0
  0
LINE
  5
301
330
292
100
AcDbEntity
  8
0
  6
Continuous
 62
     7
370
    25
100
AcDbLine
 10
-255.8039396555
 20
325.9454197552
 30
0.0
 11
-255.2220786992
 21
325.8721121653
 31
0.0
  0
LINE
  5
302
330
292
100
AcDbEntity
  8
0
  6
Continuous
 62
     7
370
    25
100
AcDbLine
 10
174.1331064471
 20
-397.6159761133
 30
0.0
 11
173.5512454909
 21
-397.5426685235
 31
0.0
  0
LINE
  5
303
330
292
100
AcDbEntity
  8
0
  6
Continuous
 62
     7
370
    25
100
AcDbLine
 10
173.5512454909
 20
-397.5426685235
 30
0.0
 11
173.1976921004
 21
-397.8544733057
 31
0.0
  0
LINE
  5
304
330
292
100
AcDbEntity
  8
0
  6
Continuous
 62
     7
370
    25
100
AcDbLine
 10
-255.2220786992
 20
-343.8786557003
 30
0.0
 11
173.1976921004
 21
-397.8544733057
 31
0.0
  0
LINE
  5
305
330
292
100
AcDbEntity
  8
0
  6
Continuous
 62
     7
370
    25
100
AcDbLine
 10
-254.8685253087
 20
-343.5668509181
 30
0.0
 11
-255.2220786992
 21
-343.8786557003
 31
0.0
  0
LINE
  5
306
330
292
100
AcDbEntity
  8
0
  6
Continuous
 62
     7
370
    25
100
AcDbLine
 10
-254.8685253087
 20
-343.5668509181
 30
0.0
 11
-255.8039396555
 21
-343.448999788
 31
0.0
  0
LINE
  5
307
330
292
100
AcDbEntity
  8
0
  6
Continuous
 62
     7
370
    25
100
AcDbLine
 10
173.5512454909
 20
-397.5426685235
 30
0.0
 11
173.5512454909
 21
-439.9690753959
 31
0.0
  0
LINE
  5
308
330
292
100
AcDbEntity
  8
0
  6
Continuous
 62
     7
370
    25
100
AcDbLine
 10
173.5512454909
 20
-439.9690753959
 30
0.0
 11
173.1976921004
 21
-440.2808801781
 31
0.0
  0
LINE
  5
309
330
292
100
AcDbEntity
  8
0
  6
Continuous
 62
     7
370
    25
100
AcDbLine
 10
173.1976921004
 20
-397.8544733057
 30
0.0
 11
173.1976921004
 21
-440.2808801781
 31
0.0
  0
LINE
  5
30A
330
292
100
AcDbEntity
  8
0
  6
Continuous
 62
     7
370
    25
100
AcDbLine
 10
-255.2220786992
 20
-386.3050625728
 30
0.0
 11
173.1976921004
 21
-440.2808801781
 31
0.0
  0
LINE
  5
30B
330
292
100
AcDbEntity
  8
0
  6
Continuous
 62
     7
370
    25
100
AcDbLine
 10
-255.2220786992
 20
-386.3050625728
 30
0.0
 11
-255.2220786992
 21
-343.8786557003
 31
0.0
  0
LINE
  5
30C
330
292
100
AcDbEntity
  8
0
  6
Continuous
 62
     7
370
    25
100
AcDbLine
 10
173.5512454909
 20
-439.9690753959
 30
0.0
 11
174.1331064471
 21
-440.0423829858
 31
0.0
  0
LINE
  5
30D
330
292
100
AcDbEntity
  8
0
  6
Continuous
 62
     7
370
    25
100
AcDbLine
 10
-255.8039396555
 20
-385.8754066605
 30
0.0
 11
-255.2220786992
 21
-385.9487142503
 31
0.0
  0
LINE
  5
30E
330
292
100
AcDbEntity
  8
0
  6
Continuous
 62
     7
370
    25
100
AcDbLine
 10
174.1331064471
 20
271.4220951073
 30
0.0
 11
173.1976921004
 21
270.5971371959
 31
0.0
  0
LINE
  5
30F
330
292
100
AcDbEntity
  8
0
  6
Continuous
 62
     7
370
    25
100
AcDbLine
 10
174.1331064471
 20
-396.0867063526
 30
0.0
 11
173.1976921004
 21
-396.911664264
 31
0.0
  0
LINE
  5
310
330
292
100
AcDbEntity
  8
0
  6
Continuous
 62
     7
370
    25
100
AcDbLine
 10
173.1976921004
 20
270.5971371959
 30
0.0
 11
173.1976921004
 21
-396.911664264
 31
0.0
  0
LINE
  5
311
330
292
100
AcDbEntity
  8
0
  6
Continuous
 62
     7
370
    25
100
AcDbLine
 10
-255.2220786992
 20
324.5729548013
 30
0.0
 11
173.1976921004
 21
270.5971371959
 31
0.0
  0
LINE
  5
312
330
292
100
AcDbEntity
  8
0
  6
Continuous
 62
     7
370
    25
100
AcDbLine
 10
173.1976921004
 20
-396.911664264
 30
0.0
 11
-255.2220786992
 21
-342.9358466587
 31
0.0
  0
LINE
  5
313
330
292
100
AcDbEntity
  8
0
  6
Continuous
 62
     7
370
    25
100
AcDbLine
 10
-255.2220786992
 20
-342.9358466587
 30
0.0
 11
-255.2220786992
 21
324.5729548013
 31
0.0
  0
LINE
  5
314
330
292
100
AcDbEntity
  8
0
  6
Continuous
 62
     7
370
    25
100
AcDbLine
 10
-254.2866643525
 20
325.3979127127
 30
0.0
 11
-255.2220786992
 21
324.5729548013
 31
0.0
  0
LINE
  5
315
330
292
100
AcDbEntity
  8
0
  6
Continuous
 62
     7
370
    25
100
AcDbLine
 10
221.8836062979
 20
-389.801467404
 30
0.0
 11
231.9827579876
 21
-380.894852796
 31
0.0
  0
LINE
  5
316
330
292
100
AcDbEntity
  8
0
  6
Continuous
 62
     7
370
    25
100
AcDbLine
 10
210.9245455407
 20
303.8690945148
 30
0.0
 11
231.9827579876
 21
322.4406922452
 31
0.0
  0
LINE
  5
317
330
292
100
AcDbEntity
  8
0
  6
Continuous
 62
     7
370
    25
100
AcDbLine
 10
231.9827579876
 20
-380.894852796
 30
0.0
 11
231.9827579876
 21
322.4406922452
 31
0.0
  0
LINE
  5
318
330
292
100
AcDbEntity
  8
0
  6
Continuous
 62
     7
370
    25
100
AcDbLine
 10
128.3421716265
 20
325.3191906522
 30
0.0
 11
131.3702555049
 21
327.9897096161
 31
0.0
  0
LINE
  5
319
330
292
100
AcDbEntity
  8
0
  6
Continuous
 62
     7
370
    25
100
AcDbLine
 10
-242.0819096763
 20
371.9882381887
 30
0.0
 11
-231.9827579876
 21
380.894852796
 31
0.0
  0
LINE
  5
31A
330
292
100
AcDbEntity
  8
0
  6
Continuous
 62
     7
370
    25
100
AcDbLine
 10
231.9827579876
 20
322.4406922452
 30
0.0
 11
131.3702555049
 21
335.1166760652
 31
0.0
  0
LINE
  5
31B
330
292
100
AcDbEntity
  8
0
  6
Continuous
 62
     7
370
    25
100
AcDbLine
 10
-157.1496102504
 20
371.4667623846
 30
0.0
 11
-231.9827579876
 21
380.894852796
 31
0.0
  0
LINE
  5
31C
330
292
100
AcDbEntity
  8
0
  6
Continuous
 62
     7
370
    25
100
AcDbLine
 10
110.1570520742
 20
328.1376035183
 30
0.0
 11
110.1570520742
 21
327.6103003605
 31
0.0
  0
LINE
  5
31D
330
292
100
AcDbEntity
  8
0
  6
Continuous
 62
     7
370
    25
100
AcDbLine
 10
110.1570520742
 20
328.1376035183
 30
0.0
 11
131.3702555049
 21
346.8458904483
 31
0.0
  0
LINE
  5
31E
330
292
100
AcDbEntity
  8
0
  6
Continuous
 62
     7
370
    25
100
AcDbLine
 10
131.3702555049
 20
346.8458904483
 30
0.0
 11
131.3702555049
 21
327.9897096161
 31
0.0
  0
LINE
  5
31F
330
292
100
AcDbEntity
  8
0
  6
Continuous
 62
     7
370
    25
100
AcDbLine
 10
-166.7255945561
 20
363.0215380405
 30
0.0
 11
-166.7255945561
 21
362.4942348827
 31
0.0
  0
LINE
  5
320
330
292
100
AcDbEntity
  8
0
  6
Continuous
 62
     7
370
    25
100
AcDbLine
 10
-166.7255945561
 20
363.0215380405
 30
0.0
 11
110.1570520742
 21
328.1376035183
 31
0.0
  0
LINE
  5
321
330
292
100
AcDbEntity
  8
0
  6
Continuous
 62
     7
370
    25
100
AcDbLine
 10
-145.5123911254
 20
381.7298249705
 30
0.0
 11
-166.7255945561
 21
363.0215380405
 31
0.0
  0
LINE
  5
322
330
292
100
AcDbEntity
  8
0
  6
Continuous
 62
     7
370
    25
100
AcDbLine
 10
131.3702555049
 20
346.8458904483
 30
0.0
 11
-145.5123911254
 21
381.7298249705
 31
0.0
  0
ARC
  5
323
330
292
100
AcDbEntity
  8
0
  6
Continuous
 62
     7
370
    25
100
AcDbCircle
 10
172.549726584
 20
270.0256853245
 30
0.0
 40
43.6844829583079
100
AcDbArc
 50
1.0587090425
 51
81.7605351794
  0
ARC
  5
324
330
292
100
AcDbEntity
  8
0
  6
Continuous
 62
     7
370
    25
100
AcDbCircle
 10
183.6794183121
 20
-408.7968246349
 30
0.0
 40
32.55734066578557
100
AcDbArc
 50
261.3986348259
 51
1.4206093965
  0
ARC
  5
325
330
292
100
AcDbEntity
  8
0
  6
Continuous
 62
     7
370
    25
100
AcDbCircle
 10
178.2065808321
 20
275.0145618392
 30
0.0
 40
43.68448295830819
100
AcDbArc
 50
1.0587090425
 51
81.7605351794
  0
ARC
  5
326
330
292
100
AcDbEntity
  8
0
  6
Continuous
 62
     7
370
    25
100
AcDbCircle
 10
-254.5741131828
 20
-342.3643947873
 30
0.0
 40
43.68448295830777
100
AcDbArc
 50
181.0587090425
 51
261.7605351794
  0
ARC
  5
327
330
292
100
AcDbEntity
  8
0
  6
Continuous
 62
     7
370
    25
100
AcDbCircle
 10
-265.7038049109
 20
336.4581151722
 30
0.0
 40
32.55734066578547
100
AcDbArc
 50
81.3986348259
 51
181.4206093965
  0
ARC
  5
328
330
292
100
AcDbEntity
  8
0
  6
Continuous
 62
     7
370
    25
100
AcDbCircle
 10
-259.9094309997
 20
340.6326083725
 30
0.0
 40
33.34299358895889
100
AcDbArc
 50
81.8415869733
 51
130.6612067915
  0
ARC
  5
329
330
292
100
AcDbEntity
  8
0
  6
Continuous
 62
     7
370
    25
100
AcDbCircle
 10
188.5454666222
 20
-403.5697091452
 30
0.0
 40
33.34299358930368
100
AcDbArc
 50
312.158037431
 51
0.9776572489
  0
VIEWPORT
  5
338
330
292
100
AcDbEntity
  8
0
100
AcDbViewport
 10
0.0
 20
0.0
 30
0.0
 40
205.6
 41
156.0
 68
     1
 69
     1
 12
0.0
 22
0.0
 13
0.0
 23
0.0
 14
10.0
 24
10.0
 15
10.0
 25
10.0
 16
0.0
 26
0.0
 36
1.0
 17
0.0
 27
0.0
 37
0.0
 42
50.0
 43
0.0
 44
0.0
 45
816.0
 50
0.0
 51
0.0
 72
   100
 90
   557152
  1

281
     0
 71
     1
 74
     0
110
0.0
120
0.0
130
0.0
111
1.0
121
0.0
131
0.0
112
0.0
122
1.0
132
0.0
 79
     0
146
0.0
  0
ENDBLK
  5
295
330
292
100
AcDbEntity
  8
0
100
AcDbBlockEnd
  0
ENDSEC
  0
SECTION
  2
ENTITIES
  0
LINE
  5
95
330
1F
100
AcDbEntity
  8
0
  6
Continuous
 62
     7
370
    25
100
AcDbLine
 10
229.0
 20
-355.0
 30
0.0
 11
229.0
 21
-400.0
 31
0.0
  0
LINE
  5
96
330
1F
100
AcDbEntity
  8
0
  6
Continuous
 62
     7
370
    25
100
AcDbLine
 10
-229.0
 20
-400.0
 30
0.0
 11
-229.0
 21
-355.0
 31
0.0
  0
LINE
  5
97
330
1F
100
AcDbEntity
  8
0
  6
Continuous
 62
     7
370
    25
100
AcDbLine
 10
-230.0
 20
-355.0
 30
0.0
 11
230.0
 21
-355.0
 31
0.0
  0
LINE
  5
98
330
1F
100
AcDbEntity
  8
0
  6
Continuous
 62
     7
370
    25
100
AcDbLine
 10
275.0
 20
-360.0
 30
0.0
 11
275.0
 21
360.0
 31
0.0
  0
LINE
  5
99
330
1F
100
AcDbEntity
  8
0
  6
Continuous
 62
     7
370
    25
100
AcDbLine
 10
230.0
 20
-400.0
 30
0.0
 11
230.0
 21
400.0
 31
0.0
  0
LINE
  5
9A
330
1F
100
AcDbEntity
  8
0
  6
Continuous
 62
     7
370
    25
100
AcDbLine
 10
229.0
 20
400.0
 30
0.0
 11
229.0
 21
355.0
 31
0.0
  0
LINE
  5
9B
330
1F
100
AcDbEntity
  8
0
  6
Continuous
 62
     7
370
    25
100
AcDbLine
 10
-229.0
 20
355.0
 30
0.0
 11
-229.0
 21
400.0
 31
0.0
  0
LINE
  5
9C
330
1F
100
AcDbEntity
  8
0
  6
Continuous
 62
     7
370
    25
100
AcDbLine
 10
230.0
 20
355.0
 30
0.0
 11
-230.0
 21
355.0
 31
0.0
  0
LINE
  5
9D
330
1F
100
AcDbEntity
  8
0
  6
Continuous
 62
     7
370
    25
100
AcDbLine
 10
-235.0
 20
-400.0
 30
0.0
 11
235.0
 21
-400.0
 31
0.0
  0
LINE
  5
9E
330
1F
100
AcDbEntity
  8
0
  6
Continuous
 62
     7
370
    25
100
AcDbLine
 10
-275.0
 20
360.0
 30
0.0
 11
-275.0
 21
-360.0
 31
0.0
  0
LINE
  5
9F
330
1F
100
AcDbEntity
  8
0
  6
Continuous
 62
     7
370
    25
100
AcDbLine
 10
235.0
 20
400.0
 30
0.0
 11
-235.0
 21
400.0
 31
0.0
  0
LINE
  5
A0
330
1F
100
AcDbEntity
  8
0
  6
Continuous
 62
     7
370
    25
100
AcDbLine
 10
-230.0
 20
400.0
 30
0.0
 11
-230.0
 21
-400.0
 31
0.0
  0
LINE
  5
A1
330
1F
100
AcDbEntity
  8
0
  6
Continuous
 62
     7
370
    25
100
AcDbLine
 10
229.0
 20
354.0
 30
0.0
 11
229.0
 21
-354.0
 31
0.0
  0
LINE
  5
A2
330
1F
100
AcDbEntity
  8
0
  6
Continuous
 62
     7
370
    25
100
AcDbLine
 10
229.0
 20
-354.0
 30
0.0
 11
-229.0
 21
-354.0
 31
0.0
  0
LINE
  5
A3
330
1F
100
AcDbEntity
  8
0
  6
Continuous
 62
     7
370
    25
100
AcDbLine
 10
-229.0
 20
-354.0
 30
0.0
 11
-229.0
 21
354.0
 31
0.0
  0
LINE
  5
A4
330
1F
100
AcDbEntity
  8
0
  6
Continuous
 62
     7
370
    25
100
AcDbLine
 10
-229.0
 20
354.0
 30
0.0
 11
229.0
 21
354.0
 31
0.0
  0
LINE
  5
A5
330
1F
100
AcDbEntity
  8
0
  6
Continuous
 62
     7
370
    25
100
AcDbLine
 10
-229.0
 20
277.0
 30
0.0
 11
-230.0
 21
277.0
 31
0.0
  0
LINE
  5
A6
330
1F
100
AcDbEntity
  8
0
  6
Continuous
 62
     7
370
    25
100
AcDbLine
 10
-229.0
 20
327.0
 30
0.0
 11
-230.0
 21
327.0
 31
0.0
  0
ARC
  5
A7
330
1F
100
AcDbEntity
  8
0
  6
Continuous
 62
     7
370
    25
100
AcDbCircle
 10
235.0
 20
-360.0
 30
0.0
 40
39.99999999999991
100
AcDbArc
 50
270.0
 51
0.0
  0
ARC
  5
A8
330
1F
100
AcDbEntity
  8
0
  6
Continuous
 62
     7
370
    25
100
AcDbCircle
 10
235.0
 20
360.0
 30
0.0
 40
39.99999999999983
100
AcDbArc
 50
0.0
 51
90.0
  0
ARC
  5
A9
330
1F
100
AcDbEntity
  8
0
  6
Continuous
 62
     7
370
    25
100
AcDbCircle
 10
-235.0
 20
-360.0
 30
0.0
 40
39.99999999999983
100
AcDbArc
 50
180.0
 51
270.0
  0
ARC
  5
AA
330
1F
100
AcDbEntity
  8
0
  6
Continuous
 62
     7
370
    25
100
AcDbCircle
 10
-235.0
 20
360.0
 30
0.0
 40
39.99999999999994
100
AcDbArc
 50
90.0
 51
180.0
  0
LINE
  5
BE
330
1B
100
AcDbEntity
 67
     1
  8
0
  6
Continuous
 62
     7
370
    25
100
AcDbLine
 10
-235.0
 20
400.0
 30
0.0
 11
235.0
 21
400.0
 31
0.0
  0
LINE
  5
BF
330
1B
100
AcDbEntity
 67
     1
  8
0
  6
Continuous
 62
     7
370
    25
100
AcDbLine
 10
275.0
 20
360.0
 30
0.0
 11
275.0
 21
-360.0
 31
0.0
  0
LINE
  5
C0
330
1B
100
AcDbEntity
 67
     1
  8
0
  6
Continuous
 62
     7
370
    25
100
AcDbLine
 10
235.0
 20
-400.0
 30
0.0
 11
-235.0
 21
-400.0
 31
0.0
  0
LINE
  5
C1
330
1B
100
AcDbEntity
 67
     1
  8
0
  6
Continuous
 62
     7
370
    25
100
AcDbLine
 10
-275.0
 20
-360.0
 30
0.0
 11
-275.0
 21
360.0
 31
0.0
  0
LINE
  5
C2
330
1B
100
AcDbEntity
 67
     1
  8
0
  6
Continuous
 62
     7
370
    25
100
AcDbLine
 10
-248.0
 20
373.0
 30
0.0
 11
248.0
 21
373.0
 31
0.0
  0
LINE
  5
C3
330
1B
100
AcDbEntity
 67
     1
  8
0
  6
Continuous
 62
     7
370
    25
100
AcDbLine
 10
248.0
 20
-373.0
 30
0.0
 11
-248.0
 21
-373.0
 31
0.0
  0
LINE
  5
C4
330
1B
100
AcDbEntity
 67
     1
  8
0
  6
Continuous
 62
     7
370
    25
100
AcDbLine
 10
-248.0
 20
-373.0
 30
0.0
 11
-248.0
 21
373.0
 31
0.0
  0
LINE
  5
C5
330
1B
100
AcDbEntity
 67
     1
  8
0
  6
Continuous
 62
     7
370
    25
100
AcDbLine
 10
232.0
 20
357.0
 30
0.0
 11
232.0
 21
-357.0
 31
0.0
  0
LINE
  5
C6
330
1B
100
AcDbEntity
 67
     1
  8
0
  6
Continuous
 62
     7
370
    25
100
AcDbLine
 10
248.0
 20
373.0
 30
0.0
 11
248.0
 21
-373.0
 31
0.0
  0
LINE
  5
C7
330
1B
100
AcDbEntity
 67
     1
  8
0
  6
Continuous
 62
     7
370
    25
100
AcDbLine
 10
-232.0
 20
357.0
 30
0.0
 11
232.0
 21
357.0
 31
0.0
  0
LINE
  5
C8
330
1B
100
AcDbEntity
 67
     1
  8
0
  6
Continuous
 62
     7
370
    25
100
AcDbLine
 10
-232.0
 20
-357.0
 30
0.0
 11
-232.0
 21
357.0
 31
0.0
  0
LINE
  5
C9
330
1B
100
AcDbEntity
 67
     1
  8
0
  6
Continuous
 62
     7
370
    25
100
AcDbLine
 10
232.0
 20
-357.0
 30
0.0
 11
-232.0
 21
-357.0
 31
0.0
  0
LINE
  5
CA
330
1B
100
AcDbEntity
 67
     1
  8
0
  6
Continuous
 62
     7
370
    25
100
AcDbLine
 10
-148.0
 20
393.0
 30
0.0
 11
-148.0
 21
373.0
 31
0.0
  0
LINE
  5
CB
330
1B
100
AcDbEntity
 67
     1
  8
0
  6
Continuous
 62
     7
370
    25
100
AcDbLine
 10
148.0
 20
393.0
 30
0.0
 11
148.0
 21
373.0
 31
0.0
  0
LINE
  5
CC
330
1B
100
AcDbEntity
 67
     1
  8
0
  6
Continuous
 62
     7
370
    25
100
AcDbLine
 10
-148.0
 20
393.0
 30
0.0
 11
148.0
 21
393.0
 31
0.0
  0
ARC
  5
CD
330
1B
100
AcDbEntity
 67
     1
  8
0
  6
Continuous
 62
     7
370
    25
100
AcDbCircle
 10
-235.0
 20
360.0
 30
0.0
 40
40.0
100
AcDbArc
 50
90.0
 51
180.0
  0
ARC
  5
CE
330
1B
100
AcDbEntity
 67
     1
  8
0
  6
Continuous
 62
     7
370
    25
100
AcDbCircle
 10
235.0
 20
360.0
 30
0.0
 40
39.99999999999983
100
AcDbArc
 50
0.0
 51
90.0
  0
ARC
  5
CF
330
1B
100
AcDbEntity
 67
     1
  8
0
  6
Continuous
 62
     7
370
    25
100
AcDbCircle
 10
235.0
 20
-360.0
 30
0.0
 40
39.99999999999994
100
AcDbArc
 50
270.0
 51
0.0
  0
ARC
  5
D0
330
1B
100
AcDbEntity
 67
     1
  8
0
  6
Continuous
 62
     7
370
    25
100
AcDbCircle
 10
-235.0
 20
-360.0
 30
0.0
 40
39.99999999999994
100
AcDbArc
 50
180.0
 51
270.0
  0
VIEWPORT
  5
32A
330
1B
100
AcDbEntity
 67
     1
  8
0
100
AcDbViewport
 10
0.0
 20
0.0
 30
0.0
 40
205.6
 41
156.0
 68
     1
 69
     1
 12
0.0
 22
0.0
 13
0.0
 23
0.0
 14
10.0
 24
10.0
 15
10.0
 25
10.0
 16
0.0
 26
0.0
 36
1.0
 17
0.0
 27
0.0
 37
0.0
 42
50.0
 43
0.0
 44
0.0
 45
816.0
 50
0.0
 51
0.0
 72
   100
 90
   557152
  1

281
     0
 71
     1
 74
     0
110
0.0
120
0.0
130
0.0
111
1.0
121
0.0
131
0.0
112
0.0
122
1.0
132
0.0
 79
     0
146
0.0
  0
ENDSEC
  0
SECTION
  2
OBJECTS
  0
DICTIONARY
  5
C
330
0
100
AcDbDictionary
281
     1
  3
ACAD_GROUP
350
D
  3
ACAD_LAYOUT
350
1A
  3
ACAD_MLINESTYLE
350
17
  3
ACAD_PLOTSETTINGS
350
19
  3
ACAD_PLOTSTYLENAME
350
E
  3
ACAD_SCALELIST
350
47
  0
DICTIONARY
  5
D
102
{ACAD_REACTORS
330
C
102
}
330
C
100
AcDbDictionary
281
     1
  0
DICTIONARY
  5
1A
102
{ACAD_REACTORS
330
C
102
}
330
C
100
AcDbDictionary
281
     1
  3
_Back
350
1E
  3
_Bottom
350
151
  3
_Dimetric
350
293
  3
_Isometric
350
17B
  3
_Left
350
26
  3
_Right
350
FD
  3
_Top
350
11F
  3
_Trimetric
350
1FF
  3
Model
350
22
  0
DICTIONARY
  5
17
102
{ACAD_REACTORS
330
C
102
}
330
C
100
AcDbDictionary
281
     1
  3
Standard
350
18
  0
DICTIONARY
  5
19
102
{ACAD_REACTORS
330
C
102
}
330
C
100
AcDbDictionary
281
     1
  0
ACDBDICTIONARYWDFLT
  5
E
102
{ACAD_REACTORS
330
C
102
}
330
C
100
AcDbDictionary
281
     1
  3
Normal
350
F
100
AcDbDictionaryWithDefault
340
F
  0
DICTIONARY
  5
47
102
{ACAD_REACTORS
330
C
102
}
330
C
100
AcDbDictionary
281
     1
  3
A0
350
48
  3
A1
350
49
  3
A2
350
4A
  3
A3
350
4B
  3
A4
350
4C
  3
A5
350
4D
  3
A6
350
4E
  3
A7
350
4F
  3
A8
350
50
  3
A9
350
51
  3
B0
350
52
  3
B1
350
53
  3
B2
350
54
  3
B3
350
55
  3
B4
350
56
  3
B5
350
57
  3
B6
350
58
  3
B7
350
59
  3
B8
350
5A
  3
B9
350
5B
  3
C0
350
5C
  3
C1
350
5D
  3
C2
350
5E
  3
C3
350
5F
  3
C4
350
60
  3
C5
350
61
  3
C6
350
62
  3
C7
350
63
  3
C8
350
64
  3
C9
350
65
  3
D0
350
66
  3
D1
350
67
  3
D2
350
68
  0
LAYOUT
  5
1E
102
{ACAD_REACTORS
330
1A
102
}
330
1A
100
AcDbPlotSettings
  1

  2
none_device
  4
ISO_A4_(210.00_x_297.00_MM)
  6

 40
7.5
 41
20.0
 42
7.5
 43
20.0
 44
210.0
 45
297.0
 46
0.0
 47
0.0
 48
0.0
 49
0.0
140
0.0
141
0.0
142
1.0
143
4.1025641026
 70
   688
 72
     1
 73
     1
 74
     1
  7

 75
     0
147
0.24375
148
275.0
149
400.0
100
AcDbLayout
  1
_Back
 70
     1
 71
     1
 10
-357.0512820513
 20
-430.7692307692
 11
861.4102564103
 21
430.7692307692
 12
0.0
 22
0.0
 32
0.0
 14
-275.0
 24
-400.0
 34
0.0
 15
275.0
 25
400.0
 35
0.0
146
0.0
 13
0.0
 23
0.0
 33
0.0
 16
1.0
 26
0.0
 36
0.0
 17
0.0
 27
1.0
 37
0.0
 76
     0
330
1B
331
32A
  0
LAYOUT
  5
151
102
{ACAD_REACTORS
330
1A
102
}
330
1A
100
AcDbPlotSettings
  1

  2
none_device
  4
ISO_A4_(210.00_x_297.00_MM)
  6

 40
7.5
 41
20.0
 42
7.5
 43
20.0
 44
210.0
 45
297.0
 46
0.0
 47
0.0
 48
0.0
 49
0.0
140
0.0
141
0.0
142
1.0
143
4.1025641026
 70
   688
 72
     1
 73
     1
 74
     1
  7

 75
     0
147
0.24375
148
275.0
149
400.0
100
AcDbLayout
  1
_Bottom
 70
     1
 71
     5
 10
0.0
 20
0.0
 11
0.0
 21
0.0
 12
0.0
 22
0.0
 32
0.0
 14
0.0
 24
0.0
 34
0.0
 15
0.0
 25
0.0
 35
0.0
146
0.0
 13
0.0
 23
0.0
 33
0.0
 16
1.0
 26
0.0
 36
0.0
 17
0.0
 27
1.0
 37
0.0
 76
     0
330
150
331
332
  0
LAYOUT
  5
293
102
{ACAD_REACTORS
330
1A
102
}
330
1A
100
AcDbPlotSettings
  1

  2
none_device
  4
ISO_A4_(210.00_x_297.00_MM)
  6

 40
7.5
 41
20.0
 42
7.5
 43
20.0
 44
210.0
 45
297.0
 46
0.0
 47
0.0
 48
0.0
 49
0.0
140
0.0
141
0.0
142
1.0
143
4.1025641026
 70
   688
 72
     1
 73
     1
 74
     1
  7

 75
     0
147
0.24375
148
275.0
149
400.0
100
AcDbLayout
  1
_Dimetric
 70
     1
 71
     8
 10
0.0
 20
0.0
 11
0.0
 21
0.0
 12
0.0
 22
0.0
 32
0.0
 14
0.0
 24
0.0
 34
0.0
 15
0.0
 25
0.0
 35
0.0
146
0.0
 13
0.0
 23
0.0
 33
0.0
 16
1.0
 26
0.0
 36
0.0
 17
0.0
 27
1.0
 37
0.0
 76
     0
330
292
331
338
  0
LAYOUT
  5
17B
102
{ACAD_REACTORS
330
1A
102
}
330
1A
100
AcDbPlotSettings
  1

  2
none_device
  4
ISO_A4_(210.00_x_297.00_MM)
  6

 40
7.5
 41
20.0
 42
7.5
 43
20.0
 44
210.0
 45
297.0
 46
0.0
 47
0.0
 48
0.0
 49
0.0
140
0.0
141
0.0
142
1.0
143
4.1025641026
 70
   688
 72
     1
 73
     1
 74
     1
  7

 75
     0
147
0.24375
148
275.0
149
400.0
100
AcDbLayout
  1
_Isometric
 70
     1
 71
     6
 10
0.0
 20
0.0
 11
0.0
 21
0.0
 12
0.0
 22
0.0
 32
0.0
 14
0.0
 24
0.0
 34
0.0
 15
0.0
 25
0.0
 35
0.0
146
0.0
 13
0.0
 23
0.0
 33
0.0
 16
1.0
 26
0.0
 36
0.0
 17
0.0
 27
1.0
 37
0.0
 76
     0
330
17A
331
334
  0
LAYOUT
  5
26
102
{ACAD_REACTORS
330
1A
102
}
330
1A
100
AcDbPlotSettings
  1

  2
none_device
  4
ISO_A4_(210.00_x_297.00_MM)
  6

 40
7.5
 41
20.0
 42
7.5
 43
20.0
 44
210.0
 45
297.0
 46
0.0
 47
0.0
 48
0.0
 49
0.0
140
0.0
141
0.0
142
1.0
143
4.1025641026
 70
   688
 72
     1
 73
     1
 74
     1
  7

 75
     0
147
0.24375
148
275.0
149
400.0
100
AcDbLayout
  1
_Left
 70
     1
 71
     2
 10
0.0
 20
0.0
 11
0.0
 21
0.0
 12
0.0
 22
0.0
 32
0.0
 14
0.0
 24
0.0
 34
0.0
 15
0.0
 25
0.0
 35
0.0
146
0.0
 13
0.0
 23
0.0
 33
0.0
 16
1.0
 26
0.0
 36
0.0
 17
0.0
 27
1.0
 37
0.0
 76
     0
330
23
331
32C
  0
LAYOUT
  5
FD
102
{ACAD_REACTORS
330
1A
102
}
330
1A
100
AcDbPlotSettings
  1

  2
none_device
  4
ISO_A4_(210.00_x_297.00_MM)
  6

 40
7.5
 41
20.0
 42
7.5
 43
20.0
 44
210.0
 45
297.0
 46
0.0
 47
0.0
 48
0.0
 49
0.0
140
0.0
141
0.0
142
1.0
143
4.1025641026
 70
   688
 72
     1
 73
     1
 74
     1
  7

 75
     0
147
0.24375
148
275.0
149
400.0
100
AcDbLayout
  1
_Right
 70
     1
 71
     3
 10
0.0
 20
0.0
 11
0.0
 21
0.0
 12
0.0
 22
0.0
 32
0.0
 14
0.0
 24
0.0
 34
0.0
 15
0.0
 25
0.0
 35
0.0
146
0.0
 13
0.0
 23
0.0
 33
0.0
 16
1.0
 26
0.0
 36
0.0
 17
0.0
 27
1.0
 37
0.0
 76
     0
330
FC
331
32E
  0
LAYOUT
  5
11F
102
{ACAD_REACTORS
330
1A
102
}
330
1A
100
AcDbPlotSettings
  1

  2
none_device
  4
ISO_A4_(210.00_x_297.00_MM)
  6

 40
7.5
 41
20.0
 42
7.5
 43
20.0
 44
210.0
 45
297.0
 46
0.0
 47
0.0
 48
0.0
 49
0.0
140
0.0
141
0.0
142
1.0
143
4.1025641026
 70
   688
 72
     1
 73
     1
 74
     1
  7

 75
     0
147
0.24375
148
275.0
149
400.0
100
AcDbLayout
  1
_Top
 70
     1
 71
     4
 10
0.0
 20
0.0
 11
0.0
 21
0.0
 12
0.0
 22
0.0
 32
0.0
 14
0.0
 24
0.0
 34
0.0
 15
0.0
 25
0.0
 35
0.0
146
0.0
 13
0.0
 23
0.0
 33
0.0
 16
1.0
 26
0.0
 36
0.0
 17
0.0
 27
1.0
 37
0.0
 76
     0
330
11E
331
330
  0
LAYOUT
  5
1FF
102
{ACAD_REACTORS
330
1A
102
}
330
1A
100
AcDbPlotSettings
  1

  2
none_device
  4
ISO_A4_(210.00_x_297.00_MM)
  6

 40
7.5
 41
20.0
 42
7.5
 43
20.0
 44
210.0
 45
297.0
 46
0.0
 47
0.0
 48
0.0
 49
0.0
140
0.0
141
0.0
142
1.0
143
4.1025641026
 70
   688
 72
     1
 73
     1
 74
     1
  7

 75
     0
147
0.24375
148
275.0
149
400.0
100
AcDbLayout
  1
_Trimetric
 70
     1
 71
     7
 10
0.0
 20
0.0
 11
0.0
 21
0.0
 12
0.0
 22
0.0
 32
0.0
 14
0.0
 24
0.0
 34
0.0
 15
0.0
 25
0.0
 35
0.0
146
0.0
 13
0.0
 23
0.0
 33
0.0
 16
1.0
 26
0.0
 36
0.0
 17
0.0
 27
1.0
 37
0.0
 76
     0
330
1FE
331
336
  0
LAYOUT
  5
22
102
{ACAD_REACTORS
330
1A
102
}
330
1A
100
AcDbPlotSettings
  1

  2
none_device
  4
ANSI_A_(11.00_x_8.50_Inches)
  6

 40
6.35
 41
19.05
 42
6.35000508
 43
19.05000254
 44
279.4
 45
215.9
 46
133.34999746
 47
88.89999873
 48
0.0
 49
0.0
140
0.0
141
0.0
142
0.01051875
143
1.0
 70
  1696
 72
     0
 73
     0
 74
     0
  7

 75
     0
147
0.0179189148
148
-1300.4909072572
149
0.0
100
AcDbLayout
  1
Model
 70
     1
 71
     0
 10
0.0
 20
0.0
 11
420.0
 21
297.0
 12
0.0
 22
0.0
 32
0.0
 14
-275.0
 24
-400.0
 34
0.0
 15
275.0
 25
400.0
 35
0.0
146
0.0
 13
0.0
 23
0.0
 33
0.0
 16
1.0
 26
0.0
 36
0.0
 17
0.0
 27
1.0
 37
0.0
 76
     0
330
1F
331
29
  0
MLINESTYLE
  5
18
102
{ACAD_REACTORS
330
17
102
}
330
17
100
AcDbMlineStyle
  2
Standard
 70
     0
  3

 62
   256
 51
90.0
 52
90.0
 71
     2
 49
0.5
 62
   256
  6
BYLAYER
 49
-0.5
 62
   256
  6
BYLAYER
  0
ACDBPLACEHOLDER
  5
F
102
{ACAD_REACTORS
330
E
102
}
330
E
  0
SCALE
  5
48
102
{ACAD_REACTORS
330
47
102
}
330
47
100
AcDbScale
 70
     0
300
1:1
140
1.0
141
1.0
290
     1
  0
SCALE
  5
49
102
{ACAD_REACTORS
330
47
102
}
330
47
100
AcDbScale
 70
     0
300
1:2
140
1.0
141
2.0
290
     0
  0
SCALE
  5
4A
102
{ACAD_REACTORS
330
47
102
}
330
47
100
AcDbScale
 70
     0
300
1:4
140
1.0
141
4.0
290
     0
  0
SCALE
  5
4B
102
{ACAD_REACTORS
330
47
102
}
330
47
100
AcDbScale
 70
     0
300
1:5
140
1.0
141
5.0
290
     0
  0
SCALE
  5
4C
102
{ACAD_REACTORS
330
47
102
}
330
47
100
AcDbScale
 70
     0
300
1:8
140
1.0
141
8.0
290
     0
  0
SCALE
  5
4D
102
{ACAD_REACTORS
330
47
102
}
330
47
100
AcDbScale
 70
     0
300
1:10
140
1.0
141
10.0
290
     0
  0
SCALE
  5
4E
102
{ACAD_REACTORS
330
47
102
}
330
47
100
AcDbScale
 70
     0
300
1:16
140
1.0
141
16.0
290
     0
  0
SCALE
  5
4F
102
{ACAD_REACTORS
330
47
102
}
330
47
100
AcDbScale
 70
     0
300
1:20
140
1.0
141
20.0
290
     0
  0
SCALE
  5
50
102
{ACAD_REACTORS
330
47
102
}
330
47
100
AcDbScale
 70
     0
300
1:30
140
1.0
141
30.0
290
     0
  0
SCALE
  5
51
102
{ACAD_REACTORS
330
47
102
}
330
47
100
AcDbScale
 70
     0
300
1:40
140
1.0
141
40.0
290
     0
  0
SCALE
  5
52
102
{ACAD_REACTORS
330
47
102
}
330
47
100
AcDbScale
 70
     0
300
1:50
140
1.0
141
50.0
290
     0
  0
SCALE
  5
53
102
{ACAD_REACTORS
330
47
102
}
330
47
100
AcDbScale
 70
     0
300
1:100
140
1.0
141
100.0
290
     0
  0
SCALE
  5
54
102
{ACAD_REACTORS
330
47
102
}
330
47
100
AcDbScale
 70
     0
300
2:1
140
2.0
141
1.0
290
     0
  0
SCALE
  5
55
102
{ACAD_REACTORS
330
47
102
}
330
47
100
AcDbScale
 70
     0
300
4:1
140
4.0
141
1.0
290
     0
  0
SCALE
  5
56
102
{ACAD_REACTORS
330
47
102
}
330
47
100
AcDbScale
 70
     0
300
8:1
140
8.0
141
1.0
290
     0
  0
SCALE
  5
57
102
{ACAD_REACTORS
330
47
102
}
330
47
100
AcDbScale
 70
     0
300
10:1
140
10.0
141
1.0
290
     0
  0
SCALE
  5
58
102
{ACAD_REACTORS
330
47
102
}
330
47
100
AcDbScale
 70
     0
300
100:1
140
100.0
141
1.0
290
     0
  0
SCALE
  5
59
102
{ACAD_REACTORS
330
47
102
}
330
47
100
AcDbScale
 70
     0
300
1/128" = 1'-0"
140
0.0078125
141
12.0
290
     0
  0
SCALE
  5
5A
102
{ACAD_REACTORS
330
47
102
}
330
47
100
AcDbScale
 70
     0
300
1/64" = 1'-0"
140
0.015625
141
12.0
290
     0
  0
SCALE
  5
5B
102
{ACAD_REACTORS
330
47
102
}
330
47
100
AcDbScale
 70
     0
300
1/32" = 1'-0"
140
0.03125
141
12.0
290
     0
  0
SCALE
  5
5C
102
{ACAD_REACTORS
330
47
102
}
330
47
100
AcDbScale
 70
     0
300
1/16" = 1'-0"
140
0.0625
141
12.0
290
     0
  0
SCALE
  5
5D
102
{ACAD_REACTORS
330
47
102
}
330
47
100
AcDbScale
 70
     0
300
3/32" = 1'-0"
140
0.09375
141
12.0
290
     0
  0
SCALE
  5
5E
102
{ACAD_REACTORS
330
47
102
}
330
47
100
AcDbScale
 70
     0
300
1/8" = 1'-0"
140
0.125
141
12.0
290
     0
  0
SCALE
  5
5F
102
{ACAD_REACTORS
330
47
102
}
330
47
100
AcDbScale
 70
     0
300
3/16" = 1'-0"
140
0.1875
141
12.0
290
     0
  0
SCALE
  5
60
102
{ACAD_REACTORS
330
47
102
}
330
47
100
AcDbScale
 70
     0
300
1/4" = 1'-0"
140
0.25
141
12.0
290
     0
  0
SCALE
  5
61
102
{ACAD_REACTORS
330
47
102
}
330
47
100
AcDbScale
 70
     0
300
3/8" = 1'-0"
140
0.375
141
12.0
290
     0
  0
SCALE
  5
62
102
{ACAD_REACTORS
330
47
102
}
330
47
100
AcDbScale
 70
     0
300
1/2" = 1'-0"
140
0.5
141
12.0
290
     0
  0
SCALE
  5
63
102
{ACAD_REACTORS
330
47
102
}
330
47
100
AcDbScale
 70
     0
300
3/4" = 1'-0"
140
0.75
141
12.0
290
     0
  0
SCALE
  5
64
102
{ACAD_REACTORS
330
47
102
}
330
47
100
AcDbScale
 70
     0
300
1" = 1'-0"
140
1.0
141
12.0
290
     0
  0
SCALE
  5
65
102
{ACAD_REACTORS
330
47
102
}
330
47
100
AcDbScale
 70
     0
300
1-1/2" = 1'-0"
140
1.5
141
12.0
290
     0
  0
SCALE
  5
66
102
{ACAD_REACTORS
330
47
102
}
330
47
100
AcDbScale
 70
     0
300
3" = 1'-0"
140
3.0
141
12.0
290
     0
  0
SCALE
  5
67
102
{ACAD_REACTORS
330
47
102
}
330
47
100
AcDbScale
 70
     0
300
6" = 1'-0"
140
6.0
141
12.0
290
     0
  0
SCALE
  5
68
102
{ACAD_REACTORS
330
47
102
}
330
47
100
AcDbScale
 70
     0
300
1'-0" = 1'-0"
140
12.0
141
12.0
290
     0
  0
ENDSEC
  0
EOF
