  0
SECTION
  2
HEADER
  9
$ACADVER
  1
AC1015
  9
$ACADMAINTVER
 70
     6
  9
$DWGCODEPAGE
  3
ANSI_1252
  9
$INSBASE
 10
0.0
 20
0.0
 30
0.0
  9
$EXTMIN
 10
-274.7848794989
 20
-187.2848794989
 30
0.0
  9
$EXTMAX
 10
274.7848794989
 20
187.5
 30
0.0
  9
$LIMMIN
 10
0.0
 20
0.0
  9
$LIMMAX
 10
420.0
 20
297.0
  9
$ORTHOMODE
 70
     0
  9
$REGENMODE
 70
     1
  9
$FILLMODE
 70
     1
  9
$QTEXTMODE
 70
     0
  9
$MIRRTEXT
 70
     1
  9
$LTSCALE
 40
1.0
  9
$ATTMODE
 70
     1
  9
$TEXTSIZE
 40
3.5
  9
$TRACEWID
 40
1.0
  9
$TEXTSTYLE
  7
Standard
  9
$CLAYER
  8
0
  9
$CELTYPE
  6
ByLayer
  9
$CECOLOR
 62
   256
  9
$CELTSCALE
 40
1.0
  9
$DISPSILH
 70
     0
  9
$DIMSCALE
 40
1.0
  9
$DIMASZ
 40
3.302
  9
$DIMEXO
 40
1.0
  9
$DIMDLI
 40
3.75
  9
$DIMRND
 40
0.0
  9
$DIMDLE
 40
0.0
  9
$DIMEXE
 40
1.0
  9
$DIMTP
 40
0.0
  9
$DIMTM
 40
0.0
  9
$DIMTXT
 40
3.5
  9
$DIMCEN
 40
2.5
  9
$DIMTSZ
 40
0.0
  9
$DIMTOL
 70
     0
  9
$DIMLIM
 70
     0
  9
$DIMTIH
 70
     1
  9
$DIMTOH
 70
     1
  9
$DIMSE1
 70
     0
  9
$DIMSE2
 70
     0
  9
$DIMTAD
 70
     1
  9
$DIMZIN
 70
     1
  9
$DIMBLK
  1

  9
$DIMASO
 70
     1
  9
$DIMSHO
 70
     1
  9
$DIMPOST
  1

  9
$DIMAPOST
  1

  9
$DIMALT
 70
     0
  9
$DIMALTD
 70
     3
  9
$DIMALTF
 40
0.0393700787
  9
$DIMLFAC
 40
1.0
  9
$DIMTOFL
 70
     1
  9
$DIMTVP
 40
0.0
  9
$DIMTIX
 70
     0
  9
$DIMSOXD
 70
     0
  9
$DIMSAH
 70
     0
  9
$DIMBLK1
  1

  9
$DIMBLK2
  1

  9
$DIMSTYLE
  2
ISO-25
  9
$DIMCLRD
 70
     0
  9
$DIMCLRE
 70
     0
  9
$DIMCLRT
 70
     0
  9
$DIMTFAC
 40
1.0
  9
$DIMGAP
 40
1.524
  9
$DIMJUST
 70
     0
  9
$DIMSD1
 70
     0
  9
$DIMSD2
 70
     0
  9
$DIMTOLJ
 70
     0
  9
$DIMTZIN
 70
     1
  9
$DIMALTZ
 70
     0
  9
$DIMALTTZ
 70
     0
  9
$DIMUPT
 70
     0
  9
$DIMDEC
 70
     2
  9
$DIMTDEC
 70
     2
  9
$DIMALTU
 70
     2
  9
$DIMALTTD
 70
     3
  9
$DIMTXSTY
  7
Standard
  9
$DIMAUNIT
 70
     0
  9
$DIMADEC
 70
     2
  9
$DIMALTRND
 40
0.0
  9
$DIMAZIN
 70
     0
  9
$DIMDSEP
 70
    44
  9
$DIMATFIT
 70
     3
  9
$DIMFRAC
 70
     0
  9
$DIMLDRBLK
  1

  9
$DIMLUNIT
 70
     2
  9
$DIMLWD
 70
    -2
  9
$DIMLWE
 70
    -2
  9
$DIMTMOVE
 70
     0
  9
$LUNITS
 70
     2
  9
$LUPREC
 70
     2
  9
$SKETCHINC
 40
1.0
  9
$FILLETRAD
 40
10.0
  9
$AUNITS
 70
     0
  9
$AUPREC
 70
     2
  9
$MENU
  1
.
  9
$ELEVATION
 40
0.0
  9
$PELEVATION
 40
0.0
  9
$THICKNESS
 40
0.0
  9
$LIMCHECK
 70
     0
  9
$CHAMFERA
 40
0.0
  9
$CHAMFERB
 40
0.0
  9
$CHAMFERC
 40
0.0
  9
$CHAMFERD
 40
0.0
  9
$SKPOLY
 70
     0
  9
$TDCREATE
 40
2460409.629080625
  9
$TDUCREATE
 40
2460409.587413958
  9
$TDUPDATE
 40
2460409.629123461
  9
$TDUUPDATE
 40
2460409.587456794
  9
$TDINDWG
 40
0.0000000116
  9
$TDUSRTIMER
 40
0.0000000116
  9
$USRTIMER
 70
     1
  9
$ANGBASE
 50
0.0
  9
$ANGDIR
 70
     0
  9
$PDMODE
 70
     0
  9
$PDSIZE
 40
-1.0
  9
$PLINEWID
 40
0.0
  9
$SPLFRAME
 70
     0
  9
$SPLINETYPE
 70
     6
  9
$SPLINESEGS
 70
     8
  9
$HANDSEED
  5
378
  9
$SURFTAB1
 70
     6
  9
$SURFTAB2
 70
     6
  9
$SURFTYPE
 70
     6
  9
$SURFU
 70
     6
  9
$SURFV
 70
     6
  9
$UCSBASE
  2

  9
$UCSNAME
  2

  9
$UCSORG
 10
0.0
 20
0.0
 30
0.0
  9
$UCSXDIR
 10
1.0
 20
0.0
 30
0.0
  9
$UCSYDIR
 10
0.0
 20
1.0
 30
0.0
  9
$UCSORTHOREF
  2

  9
$UCSORTHOVIEW
 70
     0
  9
$UCSORGTOP
 10
0.0
 20
0.0
 30
0.0
  9
$UCSORGBOTTOM
 10
0.0
 20
0.0
 30
0.0
  9
$UCSORGLEFT
 10
0.0
 20
0.0
 30
0.0
  9
$UCSORGRIGHT
 10
0.0
 20
0.0
 30
0.0
  9
$UCSORGFRONT
 10
0.0
 20
0.0
 30
0.0
  9
$UCSORGBACK
 10
0.0
 20
0.0
 30
0.0
  9
$PUCSBASE
  2

  9
$PUCSNAME
  2

  9
$PUCSORG
 10
0.0
 20
0.0
 30
0.0
  9
$PUCSXDIR
 10
1.0
 20
0.0
 30
0.0
  9
$PUCSYDIR
 10
0.0
 20
1.0
 30
0.0
  9
$PUCSORTHOREF
  2

  9
$PUCSORTHOVIEW
 70
     0
  9
$PUCSORGTOP
 10
0.0
 20
0.0
 30
0.0
  9
$PUCSORGBOTTOM
 10
0.0
 20
0.0
 30
0.0
  9
$PUCSORGLEFT
 10
0.0
 20
0.0
 30
0.0
  9
$PUCSORGRIGHT
 10
0.0
 20
0.0
 30
0.0
  9
$PUCSORGFRONT
 10
0.0
 20
0.0
 30
0.0
  9
$PUCSORGBACK
 10
0.0
 20
0.0
 30
0.0
  9
$USERI1
 70
     0
  9
$USERI2
 70
     0
  9
$USERI3
 70
     0
  9
$USERI4
 70
     0
  9
$USERI5
 70
     0
  9
$USERR1
 40
0.0
  9
$USERR2
 40
0.0
  9
$USERR3
 40
0.0
  9
$USERR4
 40
0.0
  9
$USERR5
 40
0.0
  9
$WORLDVIEW
 70
     1
  9
$SHADEDGE
 70
     3
  9
$SHADEDIF
 70
    70
  9
$TILEMODE
 70
     1
  9
$MAXACTVP
 70
    64
  9
$PINSBASE
 10
0.0
 20
0.0
 30
0.0
  9
$PLIMCHECK
 70
     0
  9
$PEXTMIN
 10
-274.7848794989
 20
-160.0
 30
0.0
  9
$PEXTMAX
 10
274.7848794989
 20
0.0
 30
0.0
  9
$PLIMMIN
 10
-317.5529541291
 20
-176.0380279863
  9
$PLIMMAX
 10
317.5529541291
 20
273.0267556305
  9
$UNITMODE
 70
     0
  9
$VISRETAIN
 70
     1
  9
$PLINEGEN
 70
     0
  9
$PSLTSCALE
 70
     1
  9
$TREEDEPTH
 70
  3020
  9
$CMLSTYLE
  2
Standard
  9
$CMLJUST
 70
     0
  9
$CMLSCALE
 40
20.0
  9
$PROXYGRAPHICS
 70
     1
  9
$MEASUREMENT
 70
     1
  9
$CELWEIGHT
370
    -1
  9
$ENDCAPS
280
     0
  9
$JOINSTYLE
280
     0
  9
$LWDISPLAY
290
     1
  9
$INSUNITS
 70
     4
  9
$HYPERLINKBASE
  1

  9
$STYLESHEET
  1

  9
$XEDIT
290
     1
  9
$CEPSNTYPE
380
     0
  9
$PSTYLEMODE
290
     1
  9
$FINGERPRINTGUID
  2
{0302edb8-9566-4a73-8071-97c459391312}
  9
$VERSIONGUID
  2
{FAEB1C32-E019-11D5-929B-00C0DF256EC4}
  9
$EXTNAMES
290
     1
  9
$PSVPSCALE
 40
0.0
  9
$OLESTARTUP
290
     0
  0
ENDSEC
  0
SECTION
  2
CLASSES
  0
CLASS
  1
ACDBDICTIONARYWDFLT
  2
AcDbDictionaryWithDefault
  3
ObjectDBX Classes
 90
        0
280
     0
281
     0
  0
CLASS
  1
VISUALSTYLE
  2
AcDbVisualStyle
  3
ObjectDBX Classes
 90
     4095
280
     0
281
     0
  0
CLASS
  1
MATERIAL
  2
AcDbMaterial
  3
ObjectDBX Classes
 90
     1153
280
     0
281
     0
  0
CLASS
  1
SCALE
  2
AcDbScale
  3
ObjectDBX Classes
 90
     1153
280
     0
281
     0
  0
CLASS
  1
TABLESTYLE
  2
AcDbTableStyle
  3
ObjectDBX Classes
 90
     4095
280
     0
281
     0
  0
CLASS
  1
MLEADERSTYLE
  2
AcDbMLeaderStyle
  3
ACDB_MLEADERSTYLE_CLASS
 90
     4095
280
     0
281
     0
  0
CLASS
  1
SUN
  2
AcDbSun
  3
SCENEOE
 90
     1153
280
     0
281
     0
  0
CLASS
  1
ACDBPLACEHOLDER
  2
AcDbPlaceHolder
  3
ObjectDBX Classes
 90
        0
280
     0
281
     0
  0
CLASS
  1
LAYOUT
  2
AcDbLayout
  3
ObjectDBX Classes
 90
        0
280
     0
281
     0
  0
ENDSEC
  0
SECTION
  2
TABLES
  0
TABLE
  2
VPORT
  5
8
330
0
100
AcDbSymbolTable
 70
     1
  0
VPORT
  5
29
330
8
100
AcDbSymbolTableRecord
100
AcDbViewportTableRecord
  2
*Active
 70
     0
 10
0.0
 20
0.0
 11
1.0
 21
1.0
 12
0.0
 22
0.1075602506
 13
0.0
 23
0.0
 14
10.0
 24
10.0
 15
10.0
 25
10.0
 16
0.0
 26
0.0
 36
1.0
 17
0.0
 27
0.0
 37
0.0
 40
382.2805770889
 41
1.4663605419
 42
50.0
 43
0.0
 44
0.0
 50
0.0
 51
0.0
 71
     0
 72
   100
 73
     1
 74
     3
 75
     0
 76
     0
 77
     0
 78
     0
281
     0
 65
     1
110
0.0
120
0.0
130
0.0
111
1.0
121
0.0
131
0.0
112
0.0
122
1.0
132
0.0
 79
     0
146
0.0
  0
ENDTAB
  0
TABLE
  2
LTYPE
  5
5
330
0
100
AcDbSymbolTable
 70
     6
  0
LTYPE
  5
14
330
5
100
AcDbSymbolTableRecord
100
AcDbLinetypeTableRecord
  2
ByBlock
 70
     0
  3

 72
    65
 73
     0
 40
0.0
  0
LTYPE
  5
15
330
5
100
AcDbSymbolTableRecord
100
AcDbLinetypeTableRecord
  2
ByLayer
 70
     0
  3

 72
    65
 73
     0
 40
0.0
  0
LTYPE
  5
16
330
5
100
AcDbSymbolTableRecord
100
AcDbLinetypeTableRecord
  2
Continuous
 70
     0
  3
Solid line
 72
    65
 73
     0
 40
0.0
  0
LTYPE
  5
6E
330
5
100
AcDbSymbolTableRecord
100
AcDbLinetypeTableRecord
  2
HIDDEN
 70
     0
  3
Hidden __ __ __ __ __ __ __ __ __ __ __ __ __ __
 72
    65
 73
     2
 40
1.905
 49
1.27
 74
     0
 49
-0.635
 74
     0
  0
LTYPE
  5
6F
330
5
100
AcDbSymbolTableRecord
100
AcDbLinetypeTableRecord
  2
PHANTOM
 70
     0
  3
Phantom ______  __  __  ______  __  __  ______
 72
    65
 73
     6
 40
12.7
 49
6.35
 74
     0
 49
-1.27
 74
     0
 49
1.27
 74
     0
 49
-1.27
 74
     0
 49
1.27
 74
     0
 49
-1.27
 74
     0
  0
LTYPE
  5
70
330
5
100
AcDbSymbolTableRecord
100
AcDbLinetypeTableRecord
  2
CENTER
 70
     0
  3
Center ____ _ ____ _ ____ _ ____ _ ____ _ ____
 72
    65
 73
     4
 40
10.16
 49
6.35
 74
     0
 49
-1.27
 74
     0
 49
1.27
 74
     0
 49
-1.27
 74
     0
  0
LTYPE
  5
71
330
5
100
AcDbSymbolTableRecord
100
AcDbLinetypeTableRecord
  2
CENTERX2
 70
     0
  3
Center (2x) ________  __  ________  __  _____
 72
    65
 73
     4
 40
20.32
 49
12.7
 74
     0
 49
-2.54
 74
     0
 49
2.54
 74
     0
 49
-2.54
 74
     0
  0
LTYPE
  5
72
330
5
100
AcDbSymbolTableRecord
100
AcDbLinetypeTableRecord
  2
DOT2
 70
     0
  3
Dot (.5x) ........................................
 72
    65
 73
     2
 40
0.635
 49
0.0
 74
     0
 49
-0.635
 74
     0
  0
ENDTAB
  0
TABLE
  2
LAYER
  5
2
330
0
100
AcDbSymbolTable
 70
     1
  0
LAYER
  5
10
330
2
100
AcDbSymbolTableRecord
100
AcDbLayerTableRecord
  2
0
 70
     0
 62
     7
  6
Continuous
370
    -3
390
F
  0
ENDTAB
  0
TABLE
  2
STYLE
  5
3
330
0
100
AcDbSymbolTable
 70
     1
  0
STYLE
  5
11
330
3
100
AcDbSymbolTableRecord
100
AcDbTextStyleTableRecord
  2
Standard
 70
     0
 40
0.0
 41
1.0
 50
0.0
 71
     0
 42
3.5
  3
txt
  4

  0
ENDTAB
  0
TABLE
  2
VIEW
  5
6
330
0
100
AcDbSymbolTable
 70
     0
  0
ENDTAB
  0
TABLE
  2
UCS
  5
7
330
0
100
AcDbSymbolTable
 70
     0
  0
ENDTAB
  0
TABLE
  2
APPID
  5
9
330
0
100
AcDbSymbolTable
 70
     1
  0
APPID
  5
12
330
9
100
AcDbSymbolTableRecord
100
AcDbRegAppTableRecord
  2
ACAD
 70
     0
  0
ENDTAB
  0
TABLE
  2
DIMSTYLE
  5
A
330
0
100
AcDbSymbolTable
 70
     1
100
AcDbDimStyleTable
  0
DIMSTYLE
105
27
330
A
100
AcDbSymbolTableRecord
100
AcDbDimStyleTableRecord
  2
ISO-25
 70
     0
 41
2.5
 42
0.625
 43
3.75
 44
1.25
 73
     0
 74
     0
 77
     1
 78
     8
140
2.5
141
2.5
143
0.0393700787
147
0.625
171
     3
172
     1
178
     0
271
     2
272
     2
274
     3
278
    44
283
     0
284
     8
340
11
  0
ENDTAB
  0
TABLE
  2
BLOCK_RECORD
  5
1
330
0
100
AcDbSymbolTable
 70
     3
  0
BLOCK_RECORD
  5
1F
330
1
100
AcDbSymbolTableRecord
100
AcDbBlockTableRecord
  2
*Model_Space
340
22
  0
BLOCK_RECORD
  5
1B
330
1
100
AcDbSymbolTableRecord
100
AcDbBlockTableRecord
  2
*Paper_Space
340
1E
  0
BLOCK_RECORD
  5
23
330
1
100
AcDbSymbolTableRecord
100
AcDbBlockTableRecord
  2
*Paper_Space0
340
26
  0
BLOCK_RECORD
  5
25F
330
1
100
AcDbSymbolTableRecord
100
AcDbBlockTableRecord
  2
*Paper_Space1
340
260
  0
BLOCK_RECORD
  5
2B2
330
1
100
AcDbSymbolTableRecord
100
AcDbBlockTableRecord
  2
*Paper_Space2
340
2B3
  0
ENDTAB
  0
ENDSEC
  0
SECTION
  2
BLOCKS
  0
BLOCK
  5
20
330
1F
100
AcDbEntity
  8
0
100
AcDbBlockBegin
  2
*Model_Space
 70
     0
 10
0.0
 20
0.0
 30
0.0
  3
*Model_Space
  1

  0
ENDBLK
  5
21
330
1F
100
AcDbEntity
  8
0
100
AcDbBlockEnd
  0
BLOCK
  5
1C
330
1B
100
AcDbEntity
 67
     1
  8
0
100
AcDbBlockBegin
  2
*Paper_Space
 70
     0
 10
0.0
 20
0.0
 30
0.0
  3
*Paper_Space
  1

  0
ENDBLK
  5
1D
330
1B
100
AcDbEntity
 67
     1
  8
0
100
AcDbBlockEnd
  0
BLOCK
  5
24
330
23
100
AcDbEntity
  8
0
100
AcDbBlockBegin
  2
*Paper_Space0
 70
     0
 10
0.0
 20
0.0
 30
0.0
  3
*Paper_Space0
  1

  0
SPLINE
  5
1F6
330
23
100
AcDbEntity
  8
0
  6
Continuous
 62
     7
370
    25
100
AcDbSpline
210
0.0
220
0.0
230
1.0
 70
     8
 71
     3
 72
    16
 73
    12
 74
     0
 42
0.000000001
 43
0.00000001
 40
0.0
 40
0.0
 40
0.0
 40
0.0
 40
0.0328211262317744
 40
0.1971662824551199
 40
0.3419046334397883
 40
0.4624875853600036
 40
0.5554828578085731
 40
0.6261648019951179
 40
0.7035830928555538
 40
0.83193389996118
 40
1.0
 40
1.0
 40
1.0
 40
1.0
 10
-161.8885628200462
 20
-134.9747312567668
 30
0.0
 10
-161.8351240380649
 20
-134.9777899690543
 30
0.0
 10
-161.5141013556695
 20
-134.9961645649341
 30
0.0
 10
-160.9592221799245
 20
-134.8997021496046
 30
0.0
 10
-160.2878217754917
 20
-134.7179139916244
 30
0.0
 10
-159.7622127594142
 20
-134.4909905831301
 30
0.0
 10
-159.4001340503122
 20
-134.2909412210678
 30
0.0
 10
-159.1839706112339
 20
-134.1533967327403
 30
0.0
 10
-159.0293151427028
 20
-134.0469931670901
 30
0.0
 10
-158.9100049941336
 20
-133.9594511040307
 30
0.0
 10
-158.8520224221405
 20
-133.9147800793338
 30
0.0
 10
-158.8191467510495
 20
-133.8894519528855
 30
0.0
  0
SPLINE
  5
1F7
330
23
100
AcDbEntity
  8
0
  6
Continuous
 62
     7
370
    25
100
AcDbSpline
210
0.0
220
0.0
230
1.0
 70
     8
 71
     3
 72
    15
 73
    11
 74
     0
 42
0.000000001
 43
0.00000001
 40
0.0
 40
0.0
 40
0.0
 40
0.0
 40
0.1614577109234485
 40
0.3595738368419261
 40
0.4701084875354105
 40
0.5403014309606229
 40
0.6305983674198087
 40
0.7467109640648678
 40
0.9142900759236016
 40
1.0
 40
1.0
 40
1.0
 40
1.0
 10
158.6971071628567
 20
-133.7937782257609
 30
0.0
 10
158.7337773814278
 20
-133.8228605536222
 30
0.0
 10
158.8154436649024
 20
-133.8876282513283
 30
0.0
 10
158.9295023998284
 20
-133.9743329509201
 30
0.0
 10
159.1186739367078
 20
-134.1110397261032
 30
0.0
 10
159.4093412858668
 20
-134.2980901170118
 30
0.0
 10
159.8569069838479
 20
-134.5413741847755
 30
0.0
 10
160.5399924874248
 20
-134.8031516608356
 30
0.0
 10
161.2617074240678
 20
-134.9825905025092
 30
0.0
 10
161.7659087481561
 20
-134.9622226406128
 30
0.0
 10
161.936524333814
 20
-134.9553304042778
 30
0.0
  0
SPLINE
  5
1FB
330
23
100
AcDbEntity
  8
0
  6
Continuous
 62
     7
370
    25
100
AcDbSpline
210
0.0
220
0.0
230
1.0
 70
     8
 71
     3
 72
    15
 73
    11
 74
     0
 42
0.000000001
 43
0.00000001
 40
0.0
 40
0.0
 40
0.0
 40
0.0
 40
0.0854066259605627
 40
0.2406470975574371
 40
0.4045024344046026
 40
0.5512116673680626
 40
0.6848227935523455
 40
0.8074155799870885
 40
0.9192538286934656
 40
1.0
 40
1.0
 40
1.0
 40
1.0
 10
-39.82984529079341
 20
-155.0342245267964
 30
0.0
 10
-39.61332357951815
 20
-155.0345864946518
 30
0.0
 10
-39.00323834560879
 20
-155.0356063981174
 30
0.0
 10
-38.00438905268003
 20
-155.349567960136
 30
0.0
 10
-36.9661093311032
 20
-155.9337688370867
 30
0.0
 10
-36.1443186914429
 20
-156.7169366655846
 30
0.0
 10
-35.57252006889771
 20
-157.5596479109527
 30
0.0
 10
-35.22078559741787
 20
-158.3926981410395
 30
0.0
 10
-35.04790522110694
 20
-159.1252276872159
 30
0.0
 10
-35.02709062625112
 20
-159.5052777269823
 30
0.0
 10
-35.01836355039632
 20
-159.6646238756166
 30
0.0
  0
LWPOLYLINE
  5
214
330
23
100
AcDbEntity
  8
0
  6
Continuous
 62
     7
370
    25
100
AcDbPolyline
 90
        9
 70
   128
 43
0.0
 10
219.2915726283
 20
-78.8629366799
 10
221.2396539295
 20
-78.9027436624
 10
223.1130358496
 20
-78.9163367903
 10
224.8398833633
 20
-78.9031948335
 10
226.353980322
 20
-78.8638217219
 10
227.5972685199
 20
-78.7997272215
 10
228.5220739409
 20
-78.7133690426
 10
229.0929348246
 20
-78.6080585986
 10
229.2879614508
 20
-78.4878340295
  0
LWPOLYLINE
  5
216
330
23
100
AcDbEntity
  8
0
  6
Continuous
 62
     7
370
    25
100
AcDbPolyline
 90
        9
 70
   128
 43
0.0
 10
-229.2879614508
 20
-78.4878340295
 10
-229.0929348246
 20
-78.6080585986
 10
-228.5220739409
 20
-78.7133690426
 10
-227.5972685199
 20
-78.7997272215
 10
-226.353980322
 20
-78.8638217219
 10
-224.8398833633
 20
-78.9031948335
 10
-223.1130358496
 20
-78.9163367903
 10
-221.2396539295
 20
-78.9027436624
 10
-219.2915726283
 20
-78.8629366799
  0
SPLINE
  5
21F
330
23
100
AcDbEntity
  8
0
  6
Continuous
 62
     7
370
    25
100
AcDbSpline
210
0.0
220
0.0
230
1.0
 70
     8
 71
     3
 72
    40
 73
    36
 74
     0
 42
0.000000001
 43
0.00000001
 40
0.0
 40
0.0
 40
0.0
 40
0.0
 40
0.0625000000000009
 40
0.0625000000000009
 40
0.1250000000000019
 40
0.1250000000000019
 40
0.1875000000000028
 40
0.1875000000000028
 40
0.2187500000000032
 40
0.2187500000000032
 40
0.2500000000000036
 40
0.2500000000000036
 40
0.3750000000000031
 40
0.3750000000000031
 40
0.4062500000000034
 40
0.4062500000000034
 40
0.4375000000000037
 40
0.4375000000000037
 40
0.5000000000000033
 40
0.5000000000000033
 40
0.5625000000000029
 40
0.5625000000000029
 40
0.5937500000000028
 40
0.5937500000000028
 40
0.6250000000000026
 40
0.6250000000000026
 40
0.7500000000000017
 40
0.7500000000000017
 40
0.7812500000000017
 40
0.7812500000000017
 40
0.8125000000000016
 40
0.8125000000000016
 40
0.875000000000001
 40
0.875000000000001
 40
1.0
 40
1.0
 40
1.0
 40
1.0
 10
126.8346708161641
 20
-121.310064784952
 30
0.0
 10
128.1091948624072
 20
-121.310064784952
 30
0.0
 10
129.3835064531636
 20
-121.3568174695364
 30
0.0
 10
131.8920815304244
 20
-121.5394133438261
 30
0.0
 10
133.1309910732235
 20
-121.6751145109308
 30
0.0
 10
135.5782415094321
 20
-122.0312238888782
 30
0.0
 10
136.7865817250053
 20
-122.2516471457611
 30
0.0
 10
138.5754607644287
 20
-122.643351714814
 30
0.0
 10
139.1697412745016
 20
-122.7846185068003
 30
0.0
 10
140.3392669479414
 20
-123.0842664096504
 30
0.0
 10
140.9141511517332
 20
-123.242459434554
 30
0.0
 10
143.7402346325655
 20
-124.0716582242431
 30
0.0
 10
145.8476524653349
 20
-124.8573434660532
 30
0.0
 10
148.2933120325609
 20
-125.9371037005738
 30
0.0
 10
148.7740132649737
 20
-126.1584905652101
 30
0.0
 10
149.7045446079056
 20
-126.6037907352424
 30
0.0
 10
150.1557265647052
 20
-126.8282577560807
 30
0.0
 10
151.4686575892645
 20
-127.5044787453964
 30
0.0
 10
152.2898666758685
 20
-127.9590334073514
 30
0.0
 10
153.8307711442885
 20
-128.8623157198109
 30
0.0
 10
154.5504535697556
 20
-129.3110654160517
 30
0.0
 10
155.5571009339817
 20
-129.9701443593564
 30
0.0
 10
155.8814347085045
 20
-130.188158118837
 30
0.0
 10
156.5006017772187
 20
-130.6140305975602
 30
0.0
 10
156.795441915999
 20
-130.8218448963203
 30
0.0
 10
158.2001985446588
 20
-131.8326422094316
 30
0.0
 10
159.1040619361021
 20
-132.5505627798806
 30
0.0
 10
160.0025286654933
 20
-133.2960538988752
 30
0.0
 10
160.170516248352
 20
-133.4375653576239
 30
0.0
 10
160.4836329966981
 20
-133.7044472403936
 30
0.0
 10
160.6286368953758
 20
-133.8297181093754
 30
0.0
 10
161.0261543078765
 20
-134.1765127854485
 30
0.0
 10
161.2430671815552
 20
-134.3705219132094
 30
0.0
 10
161.7619881589155
 20
-134.8388708639388
 30
0.0
 10
161.9340903750426
 20
-135.0
 30
0.0
 10
161.9407086862825
 20
-135.0
 30
0.0
  0
SPLINE
  5
221
330
23
100
AcDbEntity
  8
0
  6
Continuous
 62
     7
370
    25
100
AcDbSpline
210
0.0
220
0.0
230
1.0
 70
     8
 71
     3
 72
    36
 73
    32
 74
     0
 42
0.000000001
 43
0.00000001
 40
0.0
 40
0.0
 40
0.0
 40
0.0
 40
0.1249999999999998
 40
0.1249999999999998
 40
0.1874999999999996
 40
0.1874999999999996
 40
0.2499999999999993
 40
0.2499999999999993
 40
0.3749999999999982
 40
0.3749999999999982
 40
0.4062499999999976
 40
0.4062499999999976
 40
0.437499999999997
 40
0.437499999999997
 40
0.4999999999999945
 40
0.4999999999999945
 40
0.562499999999992
 40
0.562499999999992
 40
0.5937499999999916
 40
0.5937499999999916
 40
0.624999999999991
 40
0.624999999999991
 40
0.749999999999991
 40
0.749999999999991
 40
0.7812499999999922
 40
0.7812499999999922
 40
0.8124999999999933
 40
0.8124999999999933
 40
0.8749999999999956
 40
0.8749999999999956
 40
1.0
 40
1.0
 40
1.0
 40
1.0
 10
-161.9407086862825
 20
-135.0
 30
0.0
 10
-161.934085004258
 20
-134.9999999999999
 30
0.0
 10
-161.7617074104058
 20
-134.8386186728667
 30
0.0
 10
-161.2433296651946
 20
-134.3707582180342
 30
0.0
 10
-161.0267575342065
 20
-134.1770545605175
 30
0.0
 10
-160.4980351797801
 20
-133.7157655669534
 30
0.0
 10
-160.1838822380836
 20
-133.4465352352991
 30
0.0
 10
-159.1017916851628
 20
-132.5486679546175
 30
0.0
 10
-158.1944163890301
 20
-131.8280841783093
 30
0.0
 10
-156.7848415607326
 20
-130.8143188730002
 30
0.0
 10
-156.4890168023125
 20
-130.6059283793415
 30
0.0
 10
-155.8678593238147
 20
-130.1789601973418
 30
0.0
 10
-155.5435288329796
 20
-129.9611068445741
 30
0.0
 10
-154.5360961579631
 20
-129.3019777889421
 30
0.0
 10
-153.8157003981064
 20
-128.8531102718395
 30
0.0
 10
-152.2727920982136
 20
-127.9494029910822
 30
0.0
 10
-151.4502933825803
 20
-127.4945410302326
 30
0.0
 10
-150.1348176087725
 20
-126.8177366271151
 30
0.0
 10
-149.6826852943074
 20
-126.5930550998237
 30
0.0
 10
-148.7500129022044
 20
-126.147294192623
 30
0.0
 10
-148.2685605168006
 20
-125.9258759141957
 30
0.0
 10
-145.8221676792889
 20
-124.8473309872394
 30
0.0
 10
-143.7170952472396
 20
-124.0640522157958
 30
0.0
 10
-140.8991651230552
 20
-123.2382703481356
 30
0.0
 10
-140.3261750444666
 20
-123.0807782620958
 30
0.0
 10
-139.1610168722177
 20
-122.7825195586347
 30
0.0
 10
-138.5669411913003
 20
-122.6413458590176
 30
0.0
 10
-136.769369782439
 20
-122.2481630667532
 30
0.0
 10
-135.5577156249853
 20
-122.027724164644
 30
0.0
 10
-131.8846058004487
 20
-121.4947872358556
 30
0.0
 10
-129.3854859571151
 20
-121.3100647849521
 30
0.0
 10
-126.8346708161647
 20
-121.3100647849521
 30
0.0
  0
SPLINE
  5
224
330
23
100
AcDbEntity
  8
0
  6
Continuous
 62
     7
370
    25
100
AcDbSpline
210
0.0
220
0.0
230
1.0
 70
     8
 71
     3
 72
    18
 73
    14
 74
     0
 42
0.000000001
 43
0.00000001
 40
0.0
 40
0.0
 40
0.0
 40
0.0
 40
0.097311860324675
 40
0.1946023819528229
 40
0.2920889305625533
 40
0.389557994319363
 40
0.4841522435127771
 40
0.578771465239645
 40
0.6737454937285088
 40
0.7687675365316623
 40
0.8735303354914772
 40
0.9783376561984739
 40
0.9999999999999999
 40
0.9999999999999999
 40
0.9999999999999999
 40
0.9999999999999999
 10
-126.8346708161641
 20
-122.4478468546349
 30
0.0
 10
-128.528580817927
 20
-122.4974185757554
 30
0.0
 10
-131.9160293782254
 20
-122.5965511478321
 30
0.0
 10
-136.8711475087391
 20
-123.351255264222
 30
0.0
 10
-141.5437077628364
 20
-124.5165308504683
 30
0.0
 10
-145.7661479964243
 20
-125.9954638958241
 30
0.0
 10
-149.3993776572831
 20
-127.6428527651924
 30
0.0
 10
-152.4209352531471
 20
-129.2976435060353
 30
0.0
 10
-154.8041562242252
 20
-130.8213922789738
 30
0.0
 10
-156.6587175090318
 20
-132.159986474929
 30
0.0
 10
-157.898613244596
 20
-133.135633448861
 30
0.0
 10
-158.4681266913428
 20
-133.6187188019736
 30
0.0
 10
-158.5309767638952
 20
-133.6681336313038
 30
0.0
 10
-158.5417420322691
 20
-133.6765976453897
 30
0.0
  0
SPLINE
  5
225
330
23
100
AcDbEntity
  8
0
  6
Continuous
 62
     7
370
    25
100
AcDbSpline
210
0.0
220
0.0
230
1.0
 70
     8
 71
     3
 72
    17
 73
    13
 74
     0
 42
0.000000001
 43
0.00000001
 40
0.0
 40
0.0
 40
0.0
 40
0.0
 40
0.04823090942243
 40
0.1711247763585467
 40
0.2909784901337323
 40
0.4150870367042012
 40
0.5226017045234335
 40
0.63409362242821
 40
0.729639569717316
 40
0.8279751740754145
 40
0.913100757758735
 40
1.0
 40
1.0
 40
1.0
 40
1.0
 10
158.4230917679918
 20
-133.5775873117414
 30
0.0
 10
158.3879006449577
 20
-133.5488495149505
 30
0.0
 10
158.2630414388777
 20
-133.4468869123833
 30
0.0
 10
157.2584943141664
 20
-132.6175064246242
 30
0.0
 10
155.3026458171136
 20
-131.1546613031008
 30
0.0
 10
152.4619366195854
 20
-129.3024760005911
 30
0.0
 10
148.8136183464419
 20
-127.3348358965749
 30
0.0
 10
144.7387486363372
 20
-125.5873552902684
 30
0.0
 10
140.2387090514098
 20
-124.1413799740598
 30
0.0
 10
135.7755208603214
 20
-123.1593653630887
 30
0.0
 10
131.2532399014318
 20
-122.5572263132199
 30
0.0
 10
128.3176164072031
 20
-122.484556427967
 30
0.0
 10
126.8346708161641
 20
-122.4478468546349
 30
0.0
  0
SPLINE
  5
227
330
23
100
AcDbEntity
  8
0
  6
Continuous
 62
     7
370
    25
100
AcDbSpline
210
0.0
220
0.0
230
1.0
 70
     8
 71
     3
 72
    30
 73
    26
 74
     0
 42
0.000000001
 43
0.00000001
 40
0.0
 40
0.0
 40
0.0
 40
0.0
 40
0.0156250000000016
 40
0.0156250000000016
 40
0.0312500000000032
 40
0.0312500000000032
 40
0.0625000000000017
 40
0.0625000000000017
 40
0.0937500000000002
 40
0.0937500000000002
 40
0.1249999999999988
 40
0.1249999999999988
 40
0.1874999999999987
 40
0.1874999999999987
 40
0.2499999999999987
 40
0.2499999999999987
 40
0.3749999999999987
 40
0.3749999999999987
 40
0.4999999999999986
 40
0.4999999999999986
 40
0.7499999999999997
 40
0.7499999999999997
 40
0.8749999999999999
 40
0.8749999999999999
 40
1.0
 40
1.0
 40
1.0
 40
1.0
 10
-33.76360035351071
 20
-150.0
 30
0.0
 10
-33.75209207100642
 20
-150.0870805908404
 30
0.0
 10
-33.74695806334704
 20
-150.1740363434537
 30
0.0
 10
-33.7494139642013
 20
-150.3476991398247
 30
0.0
 10
-33.75725657874822
 20
-150.4350527739654
 30
0.0
 10
-33.79656236073899
 20
-150.6833517819194
 30
0.0
 10
-33.84314002050066
 20
-150.8337528907768
 30
0.0
 10
-33.95307426866727
 20
-151.1042698723308
 30
0.0
 10
-34.0170020722483
 20
-151.2262577377809
 30
0.0
 10
-34.15207591675277
 20
-151.4512909496331
 30
0.0
 10
-34.22322603807626
 20
-151.5541253072118
 30
0.0
 10
-34.44096662552009
 20
-151.8426973545411
 30
0.0
 10
-34.59258916372542
 20
-152.0103156804583
 30
0.0
 10
-34.8998410546634
 20
-152.32076437651
 30
0.0
 10
-35.05596404222224
 20
-152.4631250644729
 30
0.0
 10
-35.5220102547291
 20
-152.8619361036724
 30
0.0
 10
-35.83078479999106
 20
-153.0921320250735
 30
0.0
 10
-36.43611572395656
 20
-153.5114258287533
 30
0.0
 10
-36.73287402123169
 20
-153.6996228288869
 30
0.0
 10
-37.599224373162
 20
-154.2125521830629
 30
0.0
 10
-38.14048716584043
 20
-154.4846538135894
 30
0.0
 10
-38.8786773641442
 20
-154.7795820311577
 30
0.0
 10
-39.11298368647781
 20
-154.8586270218509
 30
0.0
 10
-39.5526172202863
 20
-154.9688211923584
 30
0.0
 10
-39.75745005699222
 20
-155.0
 30
0.0
 10
-39.94559304482723
 20
-155.0
 30
0.0
  0
LWPOLYLINE
  5
22B
330
23
100
AcDbEntity
  8
0
  6
Continuous
 62
     7
370
    25
100
AcDbPolyline
 90
        9
 70
   128
 43
0.0
 10
-88.6399365206
 20
-150.0
 10
-88.569996161
 20
-150.9754516101
 10
-88.362862851
 20
-151.9134171618
 10
-88.0264966076
 20
-152.7778511651
 10
-87.5738237968
 20
-153.5355339059
 10
-87.0222403809
 20
-154.1573480615
 10
-86.3929434013
 20
-154.6193976626
 10
-85.7101163879
 20
-154.903926402
 10
-85.0
 20
-155.0
  0
SPLINE
  5
235
330
23
100
AcDbEntity
  8
0
  6
Continuous
 62
     8
370
    25
100
AcDbSpline
210
0.0
220
0.0
230
1.0
 70
     8
 71
     3
 72
    15
 73
    11
 74
     0
 42
0.000000001
 43
0.00000001
 40
0.0
 40
0.0
 40
0.0
 40
0.0
 40
0.0735127445001499
 40
0.161295450458205
 40
0.3086910041862429
 40
0.4611446990618948
 40
0.6175518188470784
 40
0.7836580292684401
 40
0.9539535708688887
 40
1.0
 40
1.0
 40
1.0
 40
1.0
 10
-32.77173237340855
 20
-149.8255025164875
 30
0.0
 10
-32.76044261930895
 20
-150.2681425542358
 30
0.0
 10
-32.73567159510842
 20
-151.2393459117611
 30
0.0
 10
-32.97213836984525
 20
-152.9553704533373
 30
0.0
 10
-33.43922922629467
 20
-154.714925334272
 30
0.0
 10
-34.0044285202924
 20
-156.3776349593193
 30
0.0
 10
-34.50777234567047
 20
-157.7937044117268
 30
0.0
 10
-34.86290031216818
 20
-158.8934947971028
 30
0.0
 10
-35.0288576575053
 20
-159.5506719704077
 30
0.0
 10
-34.99661790782142
 20
-159.6427772388139
 30
0.0
 10
-34.98975596908617
 20
-159.6623810110266
 30
0.0
  0
SPLINE
  5
236
330
23
100
AcDbEntity
  8
0
  6
Continuous
 62
     8
370
    25
100
AcDbSpline
210
0.0
220
0.0
230
1.0
 70
     8
 71
     3
 72
     9
 73
     5
 74
     0
 42
0.000000001
 43
0.00000001
 40
0.0
 40
0.0
 40
0.0
 40
0.0
 40
0.5286096891066389
 40
0.9999999999999999
 40
0.9999999999999999
 40
0.9999999999999999
 40
0.9999999999999999
 10
-34.36055618515773
 20
-122.4508927195394
 30
0.0
 10
-34.09348868199289
 20
-127.2758754668531
 30
0.0
 10
-33.58826240886845
 20
-136.403560499392
 30
0.0
 10
-33.03332465413761
 20
-145.5255058579599
 30
0.0
 10
-32.77173237340855
 20
-149.8255025164875
 30
0.0
  0
SPLINE
  5
237
330
23
100
AcDbEntity
  8
0
  6
Continuous
 62
     8
370
    25
100
AcDbSpline
210
0.0
220
0.0
230
1.0
 70
     8
 71
     3
 72
     9
 73
     5
 74
     0
 42
0.000000001
 43
0.00000001
 40
0.0
 40
0.0
 40
0.0
 40
0.0
 40
0.4684395167839451
 40
1.0
 40
1.0
 40
1.0
 40
1.0
 10
-33.76360035351071
 20
-150.0
 30
0.0
 10
-34.04235846014779
 20
-145.7001400228497
 30
0.0
 10
-34.63743657941253
 20
-136.5210254881262
 30
0.0
 10
-35.1739856402022
 20
-127.3342301099629
 30
0.0
 10
-35.45919391822468
 20
-122.4508927195394
 30
0.0
  0
LINE
  5
239
330
23
100
AcDbEntity
  8
0
  6
Continuous
 62
     7
370
    25
100
AcDbLine
 10
-126.8346708162
 20
-122.4508927195
 30
0.0
 11
126.8346708162
 21
-122.4508927195
 31
0.0
  0
LINE
  5
23A
330
23
100
AcDbEntity
  8
0
  6
Continuous
 62
     7
370
    25
100
AcDbLine
 10
-35.0117630781
 20
-159.6631495162
 30
0.0
 11
-35.0
 21
-160.0
 31
0.0
  0
LINE
  5
23B
330
23
100
AcDbEntity
  8
0
  6
Continuous
 62
     7
370
    25
100
AcDbLine
 10
35.0
 20
-160.0
 30
0.0
 11
36.31124372
 21
-122.4508927195
 31
0.0
  0
LINE
  5
23C
330
23
100
AcDbEntity
  8
0
  6
Continuous
 62
     7
370
    25
100
AcDbLine
 10
274.7793976379
 20
-4.209343825
 30
0.0
 11
-274.7793976379
 21
-4.209343825
 31
0.0
  0
LINE
  5
23D
330
23
100
AcDbEntity
  8
0
  6
Continuous
 62
     7
370
    25
100
AcDbLine
 10
-230.0
 20
-59.9722722984
 30
0.0
 11
-230.0
 21
0.0
 31
0.0
  0
LINE
  5
23E
330
23
100
AcDbEntity
  8
0
  6
Continuous
 62
     7
370
    25
100
AcDbLine
 10
230.0
 20
-59.9722722984
 30
0.0
 11
230.0
 21
0.0
 31
0.0
  0
LINE
  5
23F
330
23
100
AcDbEntity
  8
0
  6
Continuous
 62
     7
370
    25
100
AcDbLine
 10
-270.7848794989
 20
0.0
 30
0.0
 11
270.7848794989
 21
0.0
 31
0.0
  0
LINE
  5
240
330
23
100
AcDbEntity
  8
0
  6
Continuous
 62
     7
370
    25
100
AcDbLine
 10
272.0541931152
 20
-56.209343825
 30
0.0
 11
274.7793976379
 21
-4.209343825
 31
0.0
  0
LINE
  5
241
330
23
100
AcDbEntity
  8
0
  6
Continuous
 62
     7
370
    25
100
AcDbLine
 10
-272.0541931152
 20
-56.209343825
 30
0.0
 11
272.0541931152
 21
-56.209343825
 31
0.0
  0
LINE
  5
242
330
23
100
AcDbEntity
  8
0
  6
Continuous
 62
     7
370
    25
100
AcDbLine
 10
-272.0541931152
 20
-56.209343825
 30
0.0
 11
-274.7793976379
 21
-4.209343825
 31
0.0
  0
LINE
  5
243
330
23
100
AcDbEntity
  8
0
  6
Continuous
 62
     7
370
    25
100
AcDbLine
 10
268.5298374881
 20
-59.9722722984
 30
0.0
 11
-268.5298374881
 21
-59.9722722984
 31
0.0
  0
LINE
  5
244
330
23
100
AcDbEntity
  8
0
  6
Continuous
 62
     7
370
    25
100
AcDbLine
 10
229.7856916049
 20
-59.9722722984
 30
0.0
 11
228.0304107492
 21
-125.2687201296
 31
0.0
  0
LINE
  5
245
330
23
100
AcDbEntity
  8
0
  6
Continuous
 62
     7
370
    25
100
AcDbLine
 10
-228.0304107492
 20
-125.2687201296
 30
0.0
 11
-229.7856916049
 21
-59.9722722984
 31
0.0
  0
LINE
  5
246
330
23
100
AcDbEntity
  8
0
  6
Continuous
 62
     7
370
    25
100
AcDbLine
 10
-219.2915726283
 20
-78.8629366799
 30
0.0
 11
219.2915726283
 21
-78.8629366799
 31
0.0
  0
LINE
  5
247
330
23
100
AcDbEntity
  8
0
  6
Continuous
 62
     7
370
    25
100
AcDbLine
 10
-219.2915726283
 20
-78.8629366799
 30
0.0
 11
-218.0340219266
 21
-135.0
 31
0.0
  0
LINE
  5
248
330
23
100
AcDbEntity
  8
0
  6
Continuous
 62
     7
370
    25
100
AcDbLine
 10
218.0340219266
 20
-135.0
 30
0.0
 11
219.2915726283
 21
-78.8629366799
 31
0.0
  0
LINE
  5
249
330
23
100
AcDbEntity
  8
0
  6
Continuous
 62
     7
370
    25
100
AcDbLine
 10
-126.8346708162
 20
-121.310064785
 30
0.0
 11
126.8346708162
 21
-121.310064785
 31
0.0
  0
LINE
  5
24A
330
23
100
AcDbEntity
  8
0
  6
Continuous
 62
     7
370
    25
100
AcDbLine
 10
-161.9407086863
 20
-135.0
 30
0.0
 11
-218.0340219266
 21
-135.0
 31
0.0
  0
LINE
  5
24B
330
23
100
AcDbEntity
  8
0
  6
Continuous
 62
     7
370
    25
100
AcDbLine
 10
218.0340219266
 20
-135.0
 30
0.0
 11
161.9407086863
 21
-135.0
 31
0.0
  0
LINE
  5
24C
330
23
100
AcDbEntity
  8
0
  6
Continuous
 62
     7
370
    25
100
AcDbLine
 10
35.0
 20
-160.0
 30
0.0
 11
-35.0
 21
-160.0
 31
0.0
  0
LINE
  5
24D
330
23
100
AcDbEntity
  8
0
  6
Continuous
 62
     7
370
    25
100
AcDbLine
 10
-90.0
 20
-150.0
 30
0.0
 11
-33.7636003535
 21
-150.0
 31
0.0
  0
LINE
  5
24E
330
23
100
AcDbEntity
  8
0
  6
Continuous
 62
     7
370
    25
100
AcDbLine
 10
-39.9455930448
 20
-155.0
 30
0.0
 11
-85.0
 21
-155.0
 31
0.0
  0
LINE
  5
24F
330
23
100
AcDbEntity
  8
0
  6
Continuous
 62
     7
370
    25
100
AcDbLine
 10
-90.0
 20
-150.0
 30
0.0
 11
-90.0
 21
-122.4508927195
 31
0.0
  0
LINE
  5
250
330
23
100
AcDbEntity
  8
0
  6
Continuous
 62
     8
370
    25
100
AcDbLine
 10
219.2915726283
 20
-78.8629366799
 30
0.0
 11
219.7993861869
 21
-59.9722722984
 31
0.0
  0
LINE
  5
251
330
23
100
AcDbEntity
  8
0
  6
Continuous
 62
     8
370
    25
100
AcDbLine
 10
-219.7993861869
 20
-59.9722722984
 30
0.0
 11
-219.2915726283
 21
-78.8629366799
 31
0.0
  0
LINE
  5
252
330
23
100
AcDbEntity
  8
0
  6
Continuous
 62
     8
370
    25
100
AcDbLine
 10
-126.8346708162
 20
-122.4508927195
 30
0.0
 11
-126.8346708162
 21
-121.310064785
 31
0.0
  0
LINE
  5
253
330
23
100
AcDbEntity
  8
0
  6
Continuous
 62
     8
370
    25
100
AcDbLine
 10
126.8346708162
 20
-122.4508927195
 30
0.0
 11
126.8346708162
 21
-121.310064785
 31
0.0
  0
LINE
  5
254
330
23
100
AcDbEntity
  8
0
  6
Continuous
 62
     8
370
    25
100
AcDbLine
 10
-88.6399365206
 20
-122.4508927195
 30
0.0
 11
-88.6399365206
 21
-150.0
 31
0.0
  0
ARC
  5
255
330
23
100
AcDbEntity
  8
0
  6
Continuous
 62
     7
370
    25
100
AcDbCircle
 10
-270.7848794989
 20
-4.0
 30
0.0
 40
3.999999999999938
100
AcDbArc
 50
90.0
 51
183.0
  0
ARC
  5
256
330
23
100
AcDbEntity
  8
0
  6
Continuous
 62
     7
370
    25
100
AcDbCircle
 10
270.7848794989
 20
-4.0
 30
0.0
 40
3.999999999999935
100
AcDbArc
 50
357.0
 51
90.0
  0
ARC
  5
257
330
23
100
AcDbEntity
  8
0
  6
Continuous
 62
     7
370
    25
100
AcDbCircle
 10
268.0596749762
 20
-56.0
 30
0.0
 40
3.99999999999995
100
AcDbArc
 50
276.7501863873
 51
357.0
  0
ARC
  5
258
330
23
100
AcDbEntity
  8
0
  6
Continuous
 62
     7
370
    25
100
AcDbCircle
 10
-268.0596749762
 20
-56.0
 30
0.0
 40
3.999999999999929
100
AcDbArc
 50
183.0
 51
263.2498136127
  0
ARC
  5
259
330
23
100
AcDbEntity
  8
0
  6
Continuous
 62
     7
370
    25
100
AcDbCircle
 10
-218.0340219266
 20
-125.0
 30
0.0
 40
9.999999999999972
100
AcDbArc
 50
181.5398382886
 51
270.0
  0
ARC
  5
25A
330
23
100
AcDbEntity
  8
0
  6
Continuous
 62
     7
370
    25
100
AcDbCircle
 10
218.0340219266
 20
-125.0
 30
0.0
 40
10.00000000000004
100
AcDbArc
 50
270.0
 51
358.4601617114
  0
ARC
  5
25B
330
23
100
AcDbEntity
  8
0
  6
Continuous
 62
     7
370
    25
100
AcDbCircle
 10
-35.2114777864
 20
-138.8638566213
 30
0.0
 40
11.22987259109941
100
AcDbArc
 50
277.4078167371
 51
282.5478540008
  0
ARC
  5
25C
330
23
100
AcDbEntity
  8
0
  6
Continuous
 62
     7
370
    25
100
AcDbCircle
 10
-85.0
 20
-150.0
 30
0.0
 40
4.999999999999986
100
AcDbArc
 50
180.0
 51
270.0
  0
ARC
  5
25D
330
23
100
AcDbEntity
  8
0
  6
Continuous
 62
     7
370
    25
100
AcDbCircle
 10
-163.2493654454
 20
-130.0
 30
0.0
 40
4.999999999999756
100
AcDbArc
 50
284.8948651868
 51
336.0375110254
  0
ARC
  5
25E
330
23
100
AcDbEntity
  8
0
  6
Continuous
 62
     7
370
    25
100
AcDbCircle
 10
163.2493654454
 20
-130.0
 30
0.0
 40
5.00000000000049
100
AcDbArc
 50
203.9624889746
 51
254.7256082278
  0
VIEWPORT
  5
372
330
23
100
AcDbEntity
  8
0
100
AcDbViewport
 10
0.0
 20
0.0
 30
0.0
 40
205.6
 41
156.0
 68
     1
 69
     1
 12
0.0
 22
0.1075602506
 13
0.0
 23
0.0
 14
10.0
 24
10.0
 15
10.0
 25
10.0
 16
0.0
 26
0.0
 36
1.0
 17
0.0
 27
0.0
 37
0.0
 42
50.0
 43
0.0
 44
0.0
 45
425.3285021971
 50
0.0
 51
0.0
 72
   100
 90
   557152
  1

281
     0
 71
     1
 74
     0
110
0.0
120
0.0
130
0.0
111
1.0
121
0.0
131
0.0
112
0.0
122
1.0
132
0.0
 79
     0
146
0.0
  0
ENDBLK
  5
25
330
23
100
AcDbEntity
  8
0
100
AcDbBlockEnd
  0
BLOCK
  5
261
330
25F
100
AcDbEntity
  8
0
100
AcDbBlockBegin
  2
*Paper_Space1
 70
     0
 10
0.0
 20
0.0
 30
0.0
  3
*Paper_Space1
  1

  0
SPLINE
  5
265
330
25F
100
AcDbEntity
  8
0
  6
Continuous
 62
     7
370
    25
100
AcDbSpline
210
0.0
220
0.0
230
1.0
 70
     8
 71
     3
 72
    16
 73
    12
 74
     0
 42
0.000000001
 43
0.00000001
 40
0.0
 40
0.0
 40
0.0
 40
0.0
 40
0.0489778021312974
 40
0.1681012168886878
 40
0.2825148150403924
 40
0.3994993861350277
 40
0.5274265290851573
 40
0.6645701028509333
 40
0.8061025843460906
 40
0.9587298291984608
 40
1.0
 40
1.0
 40
1.0
 40
1.0
 10
32.55286633272105
 20
-158.4804695518491
 30
0.0
 10
32.55231649306739
 20
-158.4879904470322
 30
0.0
 10
32.55042933784911
 20
-158.5138036027345
 30
0.0
 10
32.57967564360249
 20
-158.2856742227084
 30
0.0
 10
32.71618847548032
 20
-157.8195266446323
 30
0.0
 10
33.03577874417712
 20
-157.1501775663635
 30
0.0
 10
33.59731772347223
 20
-156.4068095240637
 30
0.0
 10
34.41870533557282
 20
-155.7127965117351
 30
0.0
 10
35.46772741171046
 20
-155.2112302676325
 30
0.0
 10
36.37447977446691
 20
-154.9814429430951
 30
0.0
 10
36.88442818236773
 20
-155.0191379088928
 30
0.0
 10
36.99296834946107
 20
-155.0271611085398
 30
0.0
  0
SPLINE
  5
282
330
25F
100
AcDbEntity
  8
0
  6
Continuous
 62
     7
370
    25
100
AcDbSpline
210
0.0
220
0.0
230
1.0
 70
     8
 71
     3
 72
    24
 73
    20
 74
     0
 42
0.000000001
 43
0.00000001
 40
0.0
 40
0.0
 40
0.0
 40
0.0
 40
0.2499999999999971
 40
0.2499999999999971
 40
0.3749999999999964
 40
0.3749999999999964
 40
0.4999999999999958
 40
0.4999999999999958
 40
0.6249999999999951
 40
0.6249999999999951
 40
0.7499999999999944
 40
0.7499999999999944
 40
0.8124999999999959
 40
0.8124999999999959
 40
0.8749999999999972
 40
0.8749999999999972
 40
0.9374999999999987
 40
0.9374999999999987
 40
1.0
 40
1.0
 40
1.0
 40
1.0
 10
36.983155693208
 20
-155.0
 30
0.0
 10
36.79972934930884
 20
-155.0
 30
0.0
 10
36.56656077458678
 20
-154.8906628318013
 30
0.0
 10
36.15945518974704
 20
-154.6056075239019
 30
0.0
 10
36.01395668484533
 20
-154.4894140226212
 30
0.0
 10
35.7104394035518
 20
-154.2183639797577
 30
0.0
 10
35.55195892933698
 20
-154.0633135440721
 30
0.0
 10
35.22519540295402
 20
-153.7092260024477
 30
0.0
 10
35.05612680010495
 20
-153.5095232766251
 30
0.0
 10
34.71700852776883
 20
-153.0552625917728
 30
0.0
 10
34.54722263144824
 20
-152.8025628429158
 30
0.0
 10
34.30289750183407
 20
-152.3576655891207
 30
0.0
 10
34.22273855331466
 20
-152.1968949837513
 30
0.0
 10
34.07390975989721
 20
-151.8499807594057
 30
0.0
 10
34.00487990520219
 20
-151.6638794974958
 30
0.0
 10
33.88655894620651
 20
-151.2513237647565
 30
0.0
 10
33.83685395359922
 20
-151.02044779352
 30
0.0
 10
33.78135208046065
 20
-150.5282293833519
 30
0.0
 10
33.77621902356505
 20
-150.2616279344344
 30
0.0
 10
33.79852215067753
 20
-150.0
 30
0.0
  0
LWPOLYLINE
  5
285
330
25F
100
AcDbEntity
  8
0
  6
Continuous
 62
     7
370
    25
100
AcDbPolyline
 90
        9
 70
   128
 43
0.0
 10
64.4332820279
 20
-155.0
 10
65.1020424926
 20
-154.903926402
 10
65.7451028678
 20
-154.6193976626
 10
66.3377507037
 20
-154.1573480615
 10
66.8572108765
 20
-153.5355339059
 10
67.2835208229
 20
-152.7778511651
 10
67.6002976909
 20
-151.9134171618
 10
67.7953679231
 20
-150.9754516101
 10
67.8612350798
 20
-150.0
  0
SPLINE
  5
290
330
25F
100
AcDbEntity
  8
0
  6
Continuous
 62
     8
370
    25
100
AcDbSpline
210
0.0
220
0.0
230
1.0
 70
     8
 71
     3
 72
    13
 73
     9
 74
     0
 42
0.000000001
 43
0.00000001
 40
0.0
 40
0.0
 40
0.0
 40
0.0
 40
0.0765159535496699
 40
0.284726512656484
 40
0.5754922040692392
 40
0.7925956332511728
 40
0.977216347102951
 40
1.0
 40
1.0
 40
1.0
 40
1.0
 10
32.54201186119253
 20
-158.3974225786304
 30
0.0
 10
32.54957308508437
 20
-158.2803747149659
 30
0.0
 10
32.57770945155784
 20
-157.8448233235369
 30
0.0
 10
32.50968409131345
 20
-156.5638140170807
 30
0.0
 10
32.37018626495869
 20
-154.6139546648828
 30
0.0
 10
32.2626420590182
 20
-152.2680240495435
 30
0.0
 10
32.27318731268651
 20
-150.6809490019849
 30
0.0
 10
32.30366544984089
 20
-149.9101732818365
 30
0.0
 10
32.30701351482504
 20
-149.8255025164875
 30
0.0
  0
SPLINE
  5
291
330
25F
100
AcDbEntity
  8
0
  6
Continuous
 62
     8
370
    25
100
AcDbSpline
210
0.0
220
0.0
230
1.0
 70
     8
 71
     3
 72
     9
 73
     5
 74
     0
 42
0.000000001
 43
0.00000001
 40
0.0
 40
0.0
 40
0.0
 40
0.0
 40
0.9039735654289885
 40
1.0
 40
1.0
 40
1.0
 40
1.0
 10
32.30701351482504
 20
-149.8255025164875
 30
0.0
 10
32.49279980658734
 20
-145.3583445357757
 30
0.0
 10
32.69832162588315
 20
-140.4166535930856
 30
0.0
 10
32.89803120723874
 20
-135.4745706083758
 30
0.0
 10
32.91720860628597
 20
-135.0
 30
0.0
  0
SPLINE
  5
292
330
25F
100
AcDbEntity
  8
0
  6
Continuous
 62
     8
370
    25
100
AcDbSpline
210
0.0
220
0.0
230
1.0
 70
     8
 71
     3
 72
     9
 73
     5
 74
     0
 42
0.000000001
 43
0.00000001
 40
0.0
 40
0.0
 40
0.0
 40
0.0
 40
0.1065401287832706
 40
0.9999999999999999
 40
0.9999999999999999
 40
0.9999999999999999
 40
0.9999999999999999
 10
34.42989437407581
 20
-135.0
 30
0.0
 10
34.40793768989003
 20
-135.5327372933674
 30
0.0
 10
34.20184929449823
 20
-140.5330812900517
 30
0.0
 10
33.98883863081752
 20
-145.5328802579934
 30
0.0
 10
33.79852215067754
 20
-150.0
 30
0.0
  0
LINE
  5
296
330
25F
100
AcDbEntity
  8
0
  6
Continuous
 62
     7
370
    25
100
AcDbLine
 10
-38.3730192373
 20
-135.0
 30
0.0
 11
-37.5
 21
-160.0
 31
0.0
  0
LINE
  5
297
330
25F
100
AcDbEntity
  8
0
  6
Continuous
 62
     7
370
    25
100
AcDbLine
 10
32.5
 20
-160.0
 30
0.0
 11
32.5559462443
 21
-158.397909178
 31
0.0
  0
LINE
  5
298
330
25F
100
AcDbEntity
  8
0
  6
Continuous
 62
     7
370
    25
100
AcDbLine
 10
187.5
 20
-4.209343825
 30
0.0
 11
-187.2793976379
 21
-4.209343825
 31
0.0
  0
LINE
  5
299
330
25F
100
AcDbEntity
  8
0
  6
Continuous
 62
     7
370
    25
100
AcDbLine
 10
-183.2848794989
 20
0.0
 30
0.0
 11
187.5
 21
0.0
 31
0.0
  0
LINE
  5
29A
330
25F
100
AcDbEntity
  8
0
  6
Continuous
 62
     7
370
    25
100
AcDbLine
 10
-142.5
 20
-59.9722722984
 30
0.0
 11
-142.5
 21
0.0
 31
0.0
  0
LINE
  5
29B
330
25F
100
AcDbEntity
  8
0
  6
Continuous
 62
     7
370
    25
100
AcDbLine
 10
187.5
 20
-135.0
 30
0.0
 11
187.5
 21
0.0
 31
0.0
  0
LINE
  5
29C
330
25F
100
AcDbEntity
  8
0
  6
Continuous
 62
     7
370
    25
100
AcDbLine
 10
-184.5541931152
 20
-56.209343825
 30
0.0
 11
187.5
 21
-56.209343825
 31
0.0
  0
LINE
  5
29D
330
25F
100
AcDbEntity
  8
0
  6
Continuous
 62
     7
370
    25
100
AcDbLine
 10
-184.5541931152
 20
-56.209343825
 30
0.0
 11
-187.2793976379
 21
-4.209343825
 31
0.0
  0
LINE
  5
29E
330
25F
100
AcDbEntity
  8
0
  6
Continuous
 62
     7
370
    25
100
AcDbLine
 10
187.5
 20
-59.9722722984
 30
0.0
 11
-181.0298374881
 21
-59.9722722984
 31
0.0
  0
LINE
  5
29F
330
25F
100
AcDbEntity
  8
0
  6
Continuous
 62
     7
370
    25
100
AcDbLine
 10
-136.766907311
 20
-78.8629366799
 30
0.0
 11
-137.9856598517
 21
-59.9722722984
 31
0.0
  0
LINE
  5
2A0
330
25F
100
AcDbEntity
  8
0
  6
Continuous
 62
     7
370
    25
100
AcDbLine
 10
-76.8913887729
 20
-125.2687201296
 30
0.0
 11
187.5
 21
-125.2687201296
 31
0.0
  0
LINE
  5
2A1
330
25F
100
AcDbEntity
  8
0
  6
Continuous
 62
     7
370
    25
100
AcDbLine
 10
-76.8913887729
 20
-135.0
 30
0.0
 11
-76.8913887729
 21
-125.2687201296
 31
0.0
  0
LINE
  5
2A2
330
25F
100
AcDbEntity
  8
0
  6
Continuous
 62
     7
370
    25
100
AcDbLine
 10
187.5
 20
-135.0
 30
0.0
 11
-76.8913887729
 21
-135.0
 31
0.0
  0
LINE
  5
2A3
330
25F
100
AcDbEntity
  8
0
  6
Continuous
 62
     7
370
    25
100
AcDbLine
 10
32.5
 20
-160.0
 30
0.0
 11
-37.5
 21
-160.0
 31
0.0
  0
LINE
  5
2A4
330
25F
100
AcDbEntity
  8
0
  6
Continuous
 62
     7
370
    25
100
AcDbLine
 10
110.5
 20
-155.0
 30
0.0
 11
36.9831556932
 21
-155.0
 31
0.0
  0
LINE
  5
2A5
330
25F
100
AcDbEntity
  8
0
  6
Continuous
 62
     7
370
    25
100
AcDbLine
 10
71.2891881317
 20
-135.0
 30
0.0
 11
71.2891881317
 21
-155.0
 31
0.0
  0
LINE
  5
2A6
330
25F
100
AcDbEntity
  8
0
  6
Continuous
 62
     7
370
    25
100
AcDbLine
 10
33.7985221507
 20
-150.0
 30
0.0
 11
115.5
 21
-150.0
 31
0.0
  0
LINE
  5
2A7
330
25F
100
AcDbEntity
  8
0
  6
Continuous
 62
     7
370
    25
100
AcDbLine
 10
115.5
 20
-135.0
 30
0.0
 11
115.5
 21
-150.0
 31
0.0
  0
LINE
  5
2A8
330
25F
100
AcDbEntity
  8
0
  6
Continuous
 62
     7
370
    25
100
AcDbLine
 10
110.5
 20
-155.0
 30
0.0
 11
110.5
 21
-135.0
 31
0.0
  0
LINE
  5
2A9
330
25F
100
AcDbEntity
  8
0
  6
Continuous
 62
     8
370
    25
100
AcDbLine
 10
-127.982206591
 20
-59.9722722984
 30
0.0
 11
-126.7876542213
 21
-78.4878340295
 31
0.0
  0
LINE
  5
2AA
330
25F
100
AcDbEntity
  8
0
  6
Continuous
 62
     8
370
    25
100
AcDbLine
 10
67.8612350798
 20
-150.0
 30
0.0
 11
67.8612350798
 21
-135.0
 31
0.0
  0
ARC
  5
2AB
330
25F
100
AcDbEntity
  8
0
  6
Continuous
 62
     7
370
    25
100
AcDbCircle
 10
-183.2848794989
 20
-4.0
 30
0.0
 40
4.000000000000019
100
AcDbArc
 50
90.0
 51
183.0
  0
ARC
  5
2AC
330
25F
100
AcDbEntity
  8
0
  6
Continuous
 62
     7
370
    25
100
AcDbCircle
 10
-180.5596749762
 20
-56.0
 30
0.0
 40
4.000000000000046
100
AcDbArc
 50
183.0
 51
263.2498136127
  0
ARC
  5
2AD
330
25F
100
AcDbEntity
  8
0
  6
Continuous
 62
     7
370
    25
100
AcDbCircle
 10
-135.2746958786
 20
14.3700531014
 30
0.0
 40
93.24493057806966
100
AcDbArc
 50
269.0830486287
 51
275.2222205884
  0
ARC
  5
2AE
330
25F
100
AcDbEntity
  8
0
  6
Continuous
 62
     7
370
    25
100
AcDbCircle
 10
-76.8913887729
 20
-75.2687201296
 30
0.0
 40
50.00000000000007
100
AcDbArc
 50
183.6913859865
 51
270.0
  0
ARC
  5
2AF
330
25F
100
AcDbEntity
  8
0
  6
Continuous
 62
     7
370
    25
100
AcDbCircle
 10
-76.8913887729
 20
-75.0
 30
0.0
 40
59.99999999999997
100
AcDbArc
 50
183.6913859865
 51
270.0
  0
ARC
  5
2B0
330
25F
100
AcDbEntity
  8
0
  6
Continuous
 62
     7
370
    25
100
AcDbCircle
 10
34.4712707155
 20
-137.7881678146
 30
0.0
 40
12.23034897112345
100
AcDbArc
 50
259.807382458
 51
266.8467687994
  0
ARC
  5
2B1
330
25F
100
AcDbEntity
  8
0
  6
Continuous
 62
     7
370
    25
100
AcDbCircle
 10
110.5
 20
-150.0
 30
0.0
 40
4.999999999999972
100
AcDbArc
 50
270.0
 51
0.0
  0
VIEWPORT
  5
374
330
25F
100
AcDbEntity
  8
0
100
AcDbViewport
 10
0.0
 20
0.0
 30
0.0
 40
205.6
 41
156.0
 68
     1
 69
     1
 12
0.0
 22
0.1075602506
 13
0.0
 23
0.0
 14
10.0
 24
10.0
 15
10.0
 25
10.0
 16
0.0
 26
0.0
 36
1.0
 17
0.0
 27
0.0
 37
0.0
 42
50.0
 43
0.0
 44
0.0
 45
425.3285021971
 50
0.0
 51
0.0
 72
   100
 90
   557152
  1

281
     0
 71
     1
 74
     0
110
0.0
120
0.0
130
0.0
111
1.0
121
0.0
131
0.0
112
0.0
122
1.0
132
0.0
 79
     0
146
0.0
  0
ENDBLK
  5
262
330
25F
100
AcDbEntity
  8
0
100
AcDbBlockEnd
  0
BLOCK
  5
2B4
330
2B2
100
AcDbEntity
  8
0
100
AcDbBlockBegin
  2
*Paper_Space2
 70
     0
 10
0.0
 20
0.0
 30
0.0
  3
*Paper_Space2
  1

  0
SPLINE
  5
2B6
330
2B2
100
AcDbEntity
  8
0
  6
Continuous
 62
     7
370
    25
100
AcDbSpline
210
0.0
220
0.0
230
1.0
 70
     8
 71
     3
 72
    17
 73
    13
 74
     0
 42
0.000000001
 43
0.00000001
 40
0.0
 40
0.0
 40
0.0
 40
0.0
 40
0.0054366619971426
 40
0.0167169129831105
 40
0.036859131592817
 40
0.5495458787523698
 40
0.8058892523321465
 40
0.9340609391220346
 40
0.9661038608195067
 40
0.9901360520926108
 40
0.9990475485039877
 40
0.9999999999999999
 40
0.9999999999999999
 40
0.9999999999999999
 40
0.9999999999999999
 10
38.26286302311471
 20
-166.5885342842985
 30
0.0
 10
37.65870382054362
 20
-166.2714664519387
 30
0.0
 10
35.80100569205329
 20
-165.2965308451112
 30
0.0
 10
31.86182673332695
 20
-162.9696440813741
 30
0.0
 10
-27.18129347879793
 20
-129.1030581564613
 30
0.0
 10
-112.3092769248371
 20
-79.70634526723525
 30
0.0
 10
-209.4055240561546
 20
-23.72683555145501
 30
0.0
 10
-254.4338212074847
 20
2.302200151014774
 30
0.0
 10
-274.3808333900864
 20
13.78774114796502
 30
0.0
 10
-281.3833479102922
 20
17.86905958606844
 30
0.0
 10
-285.0815460611261
 20
19.9560172714644
 30
0.0
 10
-286.0643962216433
 20
20.58674303148415
 30
0.0
 10
-286.159299105816
 20
20.64764518743068
 30
0.0
  0
SPLINE
  5
2B7
330
2B2
100
AcDbEntity
  8
0
  6
Continuous
 62
     7
370
    25
100
AcDbSpline
210
0.0
220
0.0
230
1.0
 70
     8
 71
     3
 72
    16
 73
    12
 74
     0
 42
0.000000001
 43
0.00000001
 40
0.0
 40
0.0
 40
0.0
 40
0.0
 40
0.0071814317984123
 40
0.0322655963118174
 40
0.0650836469034576
 40
0.1254948105743179
 40
0.6020173865045277
 40
0.8402786744696327
 40
0.9594768761070388
 40
0.9887253110209785
 40
1.0
 40
1.0
 40
1.0
 40
1.0
 10
213.2317865909492
 20
-94.97540890948073
 30
0.0
 10
212.9550243007476
 20
-95.15092654227949
 30
0.0
 10
211.711553558332
 20
-95.93951317019167
 30
0.0
 10
209.0062848086505
 20
-97.47092830176204
 30
0.0
 10
204.0544986925656
 20
-100.2905056294727
 30
0.0
 10
180.5395275207728
 20
-113.9220121235682
 30
0.0
 10
148.3457706800508
 20
-132.4468865879647
 30
0.0
 10
113.8842007065978
 20
-152.3712586616149
 30
0.0
 10
97.79584650512032
 20
-161.6319575705409
 30
0.0
 10
91.26398837666572
 20
-165.4472906965939
 30
0.0
 10
89.5127848903393
 20
-166.337295521269
 30
0.0
 10
89.0255501278007
 20
-166.5849202506591
 30
0.0
  0
SPLINE
  5
2B8
330
2B2
100
AcDbEntity
  8
0
  6
Continuous
 62
     7
370
    25
100
AcDbSpline
210
0.0
220
0.0
230
1.0
 70
     8
 71
     3
 72
    25
 73
    21
 74
     0
 42
0.000000001
 43
0.00000001
 40
0.0
 40
0.0
 40
0.0
 40
0.0
 40
0.0307592821308555
 40
0.0884521452605366
 40
0.1460712825048445
 40
0.2036045428885689
 40
0.2610398867708541
 40
0.3183828166990753
 40
0.3756488297309223
 40
0.4328588163297293
 40
0.4900364597928474
 40
0.5472068724769766
 40
0.604393105718499
 40
0.6616156214225262
 40
0.7189008923542413
 40
0.7762750601742187
 40
0.8337628706016595
 40
0.8913855549218648
 40
0.9491569027687201
 40
1.0
 40
1.0
 40
1.0
 40
1.0
 10
32.95975162315304
 20
-216.7826054340398
 30
0.0
 10
33.44293972007956
 20
-217.053597685696
 30
0.0
 10
34.8324072491229
 20
-217.8328696435394
 30
0.0
 10
37.28614783285228
 20
-218.99889305402
 30
0.0
 10
40.36145651856155
 20
-220.2219286083098
 30
0.0
 10
43.5958627163171
 20
-221.2707275063425
 30
0.0
 10
46.96117465670585
 20
-222.1426201118004
 30
0.0
 10
50.43338917033132
 20
-222.8325527896751
 30
0.0
 10
53.98697503255411
 20
-223.3373337510317
 30
0.0
 10
57.59648739111926
 20
-223.6544617126513
 30
0.0
 10
61.23617764474653
 20
-223.78242068293
 30
0.0
 10
64.88015110402897
 20
-223.7206056416697
 30
0.0
 10
68.50242375054299
 20
-223.4693717381595
 30
0.0
 10
72.07718298534299
 20
-223.0299987035906
 30
0.0
 10
75.57916382029049
 20
-222.4047383090359
 30
0.0
 10
78.98327497035991
 20
-221.5963034422583
 30
0.0
 10
82.26667951549669
 20
-220.6093012153902
 30
0.0
 10
85.40089140501176
 20
-219.4444941923778
 30
0.0
 10
88.25966899129631
 20
-218.1740168354096
 30
0.0
 10
89.97907189297891
 20
-217.226257481751
 30
0.0
 10
90.78393508449182
 20
-216.7826054340399
 30
0.0
  0
SPLINE
  5
2BB
330
2B2
100
AcDbEntity
  8
0
  6
Continuous
 62
     7
370
    25
100
AcDbSpline
210
0.0
220
0.0
230
1.0
 70
     8
 71
     3
 72
    20
 73
    16
 74
     0
 42
0.000000001
 43
0.00000001
 40
0.0
 40
0.0
 40
0.0
 40
0.0
 40
0.0211771856663113
 40
0.1033553150858211
 40
0.1855062969783785
 40
0.2681621067928563
 40
0.3518187010676534
 40
0.436895321471356
 40
0.5236924960885604
 40
0.6123483305636856
 40
0.7028091877380039
 40
0.7948359170638539
 40
0.8880566522378709
 40
0.9781002800267445
 40
0.9999999999999999
 40
0.9999999999999999
 40
0.9999999999999999
 40
0.9999999999999999
 10
70.12227715879101
 20
-233.7411350962622
 30
0.0
 10
70.32984628547095
 20
-233.8711618937129
 30
0.0
 10
71.34288800065154
 20
-234.5057580497783
 30
0.0
 10
73.31776184575058
 20
-235.3712743352542
 30
0.0
 10
76.02030411612552
 20
-236.3167562682985
 30
0.0
 10
78.84491281842911
 20
-236.9532106994053
 30
0.0
 10
81.7663277433135
 20
-237.3076033447654
 30
0.0
 10
84.7817035206134
 20
-237.3702812142884
 30
0.0
 10
87.88223207505413
 20
-237.1396059582351
 30
0.0
 10
91.05845156140708
 20
-236.6109421015509
 30
0.0
 10
94.29659754857053
 20
-235.7814380535788
 30
0.0
 10
97.5787795527631
 20
-234.6520703410201
 30
0.0
 10
100.8360981814411
 20
-233.2456217489169
 30
0.0
 10
103.2440774076784
 20
-232.0076235235547
 30
0.0
 10
104.5475127893407
 20
-231.2634276095125
 30
0.0
 10
104.8025066807356
 20
-231.1178389483854
 30
0.0
  0
SPLINE
  5
2BD
330
2B2
100
AcDbEntity
  8
0
  6
Continuous
 62
     7
370
    25
100
AcDbSpline
210
0.0
220
0.0
230
1.0
 70
     8
 71
     3
 72
    10
 73
     6
 74
     0
 42
0.000000001
 43
0.00000001
 40
0.0
 40
0.0
 40
0.0
 40
0.0
 40
0.2101253400554708
 40
0.7483696450276904
 40
1.0
 40
1.0
 40
1.0
 40
1.0
 10
217.0639795463309
 20
-92.45562479586422
 30
0.0
 10
216.8486954617478
 20
-92.62844527564387
 30
0.0
 10
216.0819527456291
 20
-93.24395219676097
 30
0.0
 10
214.8576158144878
 20
-94.03346585464293
 30
0.0
 10
213.8240973904582
 20
-94.64528600578633
 30
0.0
 10
213.4948494463258
 20
-94.8401935393718
 30
0.0
  0
SPLINE
  5
2BF
330
2B2
100
AcDbEntity
  8
0
  6
Continuous
 62
     7
370
    25
100
AcDbSpline
210
0.0
220
0.0
230
1.0
 70
     8
 71
     3
 72
    32
 73
    28
 74
     0
 42
0.000000001
 43
0.00000001
 40
0.0
 40
0.0
 40
0.0
 40
0.0
 40
0.0234698222702345
 40
0.0661263456492302
 40
0.106576966446013
 40
0.1495924494424037
 40
0.191234460575896
 40
0.2323124844444274
 40
0.2732750920535776
 40
0.3142665125676052
 40
0.3553810907260609
 40
0.396634444554568
 40
0.4380062999530842
 40
0.4794611961766246
 40
0.5209578312150558
 40
0.5624515706993155
 40
0.6038848785584578
 40
0.6452135112147612
 40
0.6863951516842816
 40
0.7273947793180899
 40
0.7681972417024228
 40
0.8088334389582447
 40
0.84941783249585
 40
0.890150199010333
 40
0.9315334789579314
 40
0.9744461268516047
 40
1.0
 40
1.0
 40
1.0
 40
1.0
 10
176.0470941665663
 20
8.20369486010207
 30
0.0
 10
176.0507989441342
 20
8.0083360955686
 30
0.0
 10
176.0612371740955
 20
7.457911765959127
 30
0.0
 10
175.7903349001312
 20
6.557027689204784
 30
0.0
 10
175.2477481319017
 20
5.462438662841699
 30
0.0
 10
174.4048238288681
 20
4.366943203336929
 30
0.0
 10
173.2617312545735
 20
3.293925896383568
 30
0.0
 10
171.8637987569036
 20
2.301449449563134
 30
0.0
 10
170.2301484616582
 20
1.406837074009973
 30
0.0
 10
168.3845330050692
 20
0.6290164764600203
 30
0.0
 10
166.357800427029
 20
-0.0139042033848041
 30
0.0
 10
164.1851057962539
 20
-0.5065794263594686
 30
0.0
 10
161.9059772063254
 20
-0.8369073083348416
 30
0.0
 10
159.5628480047302
 20
-0.9966334167882673
 30
0.0
 10
157.1998728830906
 20
-0.9816095491439886
 30
0.0
 10
154.8621056327087
 20
-0.7919311547946034
 30
0.0
 10
152.5942679584101
 20
-0.4320608237112084
 30
0.0
 10
150.4397299997977
 20
0.0891346704300217
 30
0.0
 10
148.4393164506255
 20
0.7584421650797535
 30
0.0
 10
146.6303677325401
 20
1.558276205846074
 30
0.0
 10
145.0454330394955
 20
2.466845905799361
 30
0.0
 10
143.7101610964572
 20
3.458684549884752
 30
0.0
 10
142.6436392942287
 20
4.50550659786475
 30
0.0
 10
141.8489772940232
 20
5.579881803047873
 30
0.0
 10
141.3367379353983
 20
6.663092806741807
 30
0.0
 10
141.0844130890149
 20
7.588349076214182
 30
0.0
 10
141.1105777655492
 20
8.158419956492205
 30
0.0
 10
141.1203432511464
 20
8.371188456169119
 30
0.0
  0
SPLINE
  5
2C0
330
2B2
100
AcDbEntity
  8
0
  6
Continuous
 62
     7
370
    25
100
AcDbSpline
210
0.0
220
0.0
230
1.0
 70
     8
 71
     3
 72
    18
 73
    14
 74
     0
 42
0.000000001
 43
0.00000001
 40
0.0
 40
0.0
 40
0.0
 40
0.0
 40
0.0548038093744414
 40
0.158062935678655
 40
0.2613814275054491
 40
0.3643945295284862
 40
0.4667291451479661
 40
0.567956793396437
 40
0.6677020088438815
 40
0.7657777407644537
 40
0.8622779473051595
 40
0.95757912151911
 40
0.9999999999999999
 40
0.9999999999999999
 40
0.9999999999999999
 40
0.9999999999999999
 10
-294.2363783207924
 20
52.56444032552064
 30
0.0
 10
-294.7216936926404
 20
52.27634843298666
 30
0.0
 10
-296.1214207057783
 20
51.44544542097123
 30
0.0
 10
-298.26363530316
 20
49.95438925104558
 30
0.0
 10
-300.5666385055754
 20
48.05185172915694
 30
0.0
 10
-302.5981097721929
 20
46.01543514164086
 30
0.0
 10
-304.3394675619963
 20
43.86464658658277
 30
0.0
 10
-305.7717317649984
 20
41.61917234627391
 30
0.0
 10
-306.879892121437
 20
39.30328172107403
 30
0.0
 10
-307.6634557700922
 20
36.94211221338048
 30
0.0
 10
-308.0982051347161
 20
34.56153641166812
 30
0.0
 10
-308.2430932352211
 20
32.61290220511515
 30
0.0
 10
-308.1281970481523
 20
31.47325985881666
 30
0.0
 10
-308.0928069483519
 20
31.12222944256858
 30
0.0
  0
SPLINE
  5
2C2
330
2B2
100
AcDbEntity
  8
0
  6
Continuous
 62
     7
370
    25
100
AcDbSpline
210
0.0
220
0.0
230
1.0
 70
     8
 71
     3
 72
    12
 73
     8
 74
     0
 42
0.000000001
 43
0.00000001
 40
0.0
 40
0.0
 40
0.0
 40
0.0
 40
0.174981552354913
 40
0.3808048125038796
 40
0.5887143209647864
 40
0.8011971710463242
 40
1.0
 40
1.0
 40
1.0
 40
1.0
 10
-20.89514116053636
 20
-105.9522880707839
 30
0.0
 10
-21.26842191078252
 20
-105.6116069267349
 30
0.0
 10
-22.08077672302286
 20
-104.8701972327573
 30
0.0
 10
-23.00166034390812
 20
-103.6700836508096
 30
0.0
 10
-23.71408834979808
 20
-102.3884054580344
 30
0.0
 10
-24.15457069756578
 20
-101.1285087519031
 30
0.0
 10
-24.21975654851548
 20
-100.3017996936082
 30
0.0
 10
-24.25126538103051
 20
-99.90219399886053
 30
0.0
  0
SPLINE
  5
2C3
330
2B2
100
AcDbEntity
  8
0
  6
Continuous
 62
     7
370
    25
100
AcDbSpline
210
0.0
220
0.0
230
1.0
 70
     8
 71
     3
 72
    12
 73
     8
 74
     0
 42
0.000000001
 43
0.00000001
 40
0.0
 40
0.0
 40
0.0
 40
0.0
 40
0.2045692189917973
 40
0.4532236088408735
 40
0.6933849579557558
 40
0.9248113202438402
 40
1.0
 40
1.0
 40
1.0
 40
1.0
 10
20.71071218509875
 20
-99.67529494852583
 30
0.0
 10
20.69926984349854
 20
-100.0558219274854
 30
0.0
 10
20.67391930748343
 20
-100.8988803871859
 30
0.0
 10
20.26641352865463
 20
-102.2032132240495
 30
0.0
 10
19.53019530689278
 20
-103.5672095830856
 30
0.0
 10
18.77881737134624
 20
-104.6055364262216
 30
0.0
 10
18.18608904731039
 20
-105.1606790222417
 30
0.0
 10
18.04073916544808
 20
-105.2968120657899
 30
0.0
  0
SPLINE
  5
2C4
330
2B2
100
AcDbEntity
  8
0
  6
Continuous
 62
     7
370
    25
100
AcDbSpline
210
0.0
220
0.0
230
1.0
 70
     8
 71
     3
 72
    32
 73
    28
 74
     0
 42
0.000000001
 43
0.00000001
 40
0.0
 40
0.0
 40
0.0
 40
0.0
 40
0.0234698222702324
 40
0.0661263456492275
 40
0.1065769664460088
 40
0.1495924494423986
 40
0.1912344605758915
 40
0.2323124844444249
 40
0.2732750920535785
 40
0.3142665125676067
 40
0.3553810907260619
 40
0.3966344445545672
 40
0.4380062999530847
 40
0.4794611961766252
 40
0.5209578312150559
 40
0.5624515706993155
 40
0.6038848785584557
 40
0.6452135112147591
 40
0.6863951516842792
 40
0.7273947793180877
 40
0.7681972417024202
 40
0.8088334389582437
 40
0.8494178324958492
 40
0.8901501990103334
 40
0.9315334789579327
 40
0.9744461268516065
 40
0.9999999999999999
 40
0.9999999999999999
 40
0.9999999999999999
 40
0.9999999999999999
 10
104.0838107408253
 20
48.30098679936343
 30
0.0
 10
104.0875155183931
 20
48.10562803482997
 30
0.0
 10
104.0979537483544
 20
47.55520370522054
 30
0.0
 10
103.8270514743902
 20
46.65431962846624
 30
0.0
 10
103.2844647061606
 20
45.55973060210318
 30
0.0
 10
102.4415404031271
 20
44.46423514259838
 30
0.0
 10
101.2984478288326
 20
43.39121783564505
 30
0.0
 10
99.9005153311626
 20
42.39874138882456
 30
0.0
 10
98.26686503591705
 20
41.50412901327135
 30
0.0
 10
96.42124957932803
 20
40.72630841572139
 30
0.0
 10
94.39451700128787
 20
40.08338773587659
 30
0.0
 10
92.2218223705128
 20
39.59071251290194
 30
0.0
 10
89.94269378058422
 20
39.26038463092656
 30
0.0
 10
87.59956457898906
 20
39.10065852247318
 30
0.0
 10
85.23658945734947
 20
39.11568239011743
 30
0.0
 10
82.89882220696762
 20
39.30536078446682
 30
0.0
 10
80.63098453266902
 20
39.66523111555022
 30
0.0
 10
78.47644657405667
 20
40.18642660969142
 30
0.0
 10
76.47603302488449
 20
40.85573410434117
 30
0.0
 10
74.66708430679903
 20
41.65556814510746
 30
0.0
 10
73.08214961375442
 20
42.56413784506076
 30
0.0
 10
71.74687767071623
 20
43.55597648914618
 30
0.0
 10
70.68035586848755
 20
44.60279853712619
 30
0.0
 10
69.88569386828222
 20
45.67717374230934
 30
0.0
 10
69.3734545096572
 20
46.76038474600329
 30
0.0
 10
69.12112966327386
 20
47.68564101547565
 30
0.0
 10
69.14729433980823
 20
48.25571189575368
 30
0.0
 10
69.15705982540541
 20
48.46848039543058
 30
0.0
  0
SPLINE
  5
2C5
330
2B2
100
AcDbEntity
  8
0
  6
Continuous
 62
     7
370
    25
100
AcDbSpline
210
0.0
220
0.0
230
1.0
 70
     8
 71
     3
 72
    16
 73
    12
 74
     0
 42
0.000000001
 43
0.00000001
 40
0.0
 40
0.0
 40
0.0
 40
0.0
 40
0.0891866183012611
 40
0.198662827525767
 40
0.3089758463097326
 40
0.4207612024402124
 40
0.5343718511669937
 40
0.6498334529651144
 40
0.7668838070215187
 40
0.8850900873102721
 40
1.0
 40
1.0
 40
1.0
 40
1.0
 10
-305.3782444956631
 20
-11.36211986612251
 30
0.0
 10
-305.3169615533335
 20
-11.98385865518584
 30
0.0
 10
-305.180454049919
 20
-13.36877926514259
 30
0.0
 10
-304.5954438981487
 20
-15.47898063912914
 30
0.0
 10
-303.7032603148502
 20
-17.67725347254451
 30
0.0
 10
-302.5025053063182
 20
-19.81282312316429
 30
0.0
 10
-301.0080344762883
 20
-21.87501600343426
 30
0.0
 10
-299.2234147989343
 20
-23.85060034196716
 30
0.0
 10
-297.1547245496878
 20
-25.71983667488589
 30
0.0
 10
-294.8623098349875
 20
-27.45955900131731
 30
0.0
 10
-293.1522882692835
 20
-28.49723722224622
 30
0.0
 10
-292.3093677226584
 20
-29.00873971481645
 30
0.0
  0
SPLINE
  5
2C6
330
2B2
100
AcDbEntity
  8
0
  6
Continuous
 62
     7
370
    25
100
AcDbSpline
210
0.0
220
0.0
230
1.0
 70
     8
 71
     3
 72
    20
 73
    16
 74
     0
 42
0.000000001
 43
0.00000001
 40
0.0
 40
0.0
 40
0.0
 40
0.0
 40
0.07841574294052
 40
0.1603709186318554
 40
0.2351716286106347
 40
0.3155216357273713
 40
0.3949208148974003
 40
0.4748305700999815
 40
0.5552848487393633
 40
0.6367433990961191
 40
0.7185532812545103
 40
0.8007082838255067
 40
0.8827097874995693
 40
0.9642701523277715
 40
0.9999999999999999
 40
0.9999999999999999
 40
0.9999999999999999
 40
0.9999999999999999
 10
16.75450238720822
 20
32.27881127526565
 30
0.0
 10
16.89886605080297
 20
32.35512909451617
 30
0.0
 10
17.19410948636297
 20
32.51120947228512
 30
0.0
 10
17.85563188334184
 20
32.55407957024936
 30
0.0
 10
18.68179504124144
 20
32.4262791063033
 30
0.0
 10
19.66298629775757
 20
32.06194550929482
 30
0.0
 10
20.74167176675209
 20
31.44353998002952
 30
0.0
 10
21.85428819730322
 20
30.58344107874482
 30
0.0
 10
22.94880406284599
 20
29.50711479025787
 30
0.0
 10
23.98359636711617
 20
28.24210672628852
 30
0.0
 10
24.91541506138576
 20
26.83196589210656
 30
0.0
 10
25.70682622485552
 20
25.3279364395189
 30
0.0
 10
26.32466203328772
 20
23.78984197032265
 30
0.0
 10
26.67951692418356
 20
22.55112847540089
 30
0.0
 10
26.80789473609271
 20
21.85618445583393
 30
0.0
 10
26.84700217367189
 20
21.64448525749066
 30
0.0
  0
SPLINE
  5
2C7
330
2B2
100
AcDbEntity
  8
0
  6
Continuous
 62
     7
370
    25
100
AcDbSpline
210
0.0
220
0.0
230
1.0
 70
     8
 71
     3
 72
    14
 73
    10
 74
     0
 42
0.000000001
 43
0.00000001
 40
0.0
 40
0.0
 40
0.0
 40
0.0
 40
0.0896632817024213
 40
0.2647710272168655
 40
0.4354431268611271
 40
0.6050180659751236
 40
0.7782313136977529
 40
0.959322374737077
 40
1.0
 40
1.0
 40
1.0
 40
1.0
 10
26.84700217367189
 20
21.64448525749066
 30
0.0
 10
26.882148458404
 20
21.40512018327652
 30
0.0
 10
26.98593361699609
 20
20.69828751581004
 30
0.0
 10
27.01197100200359
 20
19.62182292119662
 30
0.0
 10
26.87442278076808
 20
18.54235012729387
 30
0.0
 10
26.59352886689284
 20
17.68449388037163
 30
0.0
 10
26.22159391327281
 20
17.10935183521838
 30
0.0
 10
25.93845085284301
 20
16.79954496836526
 30
0.0
 10
25.73150510448827
 20
16.7195087822221
 30
0.0
 10
25.69354635683236
 20
16.70482825161297
 30
0.0
  0
SPLINE
  5
2C9
330
2B2
100
AcDbEntity
  8
0
  6
Continuous
 62
     7
370
    25
100
AcDbSpline
210
0.0
220
0.0
230
1.0
 70
     8
 71
     3
 72
    32
 73
    28
 74
     0
 42
0.000000001
 43
0.00000001
 40
0.0
 40
0.0
 40
0.0
 40
0.0
 40
0.0234698222702345
 40
0.0661263456492302
 40
0.106576966446013
 40
0.1495924494424036
 40
0.191234460575896
 40
0.2323124844444273
 40
0.2732750920535775
 40
0.3142665125676051
 40
0.3553810907260608
 40
0.3966344445545678
 40
0.438006299953084
 40
0.4794611961766245
 40
0.5209578312150557
 40
0.5624515706993153
 40
0.6038848785584576
 40
0.645213511214761
 40
0.6863951516842812
 40
0.7273947793180896
 40
0.7681972417024224
 40
0.8088334389582444
 40
0.8494178324958497
 40
0.8901501990103327
 40
0.9315334789579309
 40
0.9744461268516043
 40
0.9999999999999999
 40
0.9999999999999999
 40
0.9999999999999999
 40
0.9999999999999999
 10
34.62573792925702
 20
89.84450604237308
 30
0.0
 10
34.62944270682488
 20
89.64914727783962
 30
0.0
 10
34.6398809367862
 20
89.09872294823022
 30
0.0
 10
34.36897866282197
 20
88.1978388714758
 30
0.0
 10
33.82639189459238
 20
87.10324984511274
 30
0.0
 10
32.98346759155882
 20
86.00775438560794
 30
0.0
 10
31.8403750172643
 20
84.9347370786546
 30
0.0
 10
30.44244251959431
 20
83.94226063183417
 30
0.0
 10
28.80879222434886
 20
83.04764825628101
 30
0.0
 10
26.96317676775992
 20
82.2698276587311
 30
0.0
 10
24.93644418971972
 20
81.62690697888624
 30
0.0
 10
22.76374955894461
 20
81.1342317559116
 30
0.0
 10
20.48462096901606
 20
80.80390387393619
 30
0.0
 10
18.14149176742089
 20
80.64417776548275
 30
0.0
 10
15.77851664578132
 20
80.65920163312705
 30
0.0
 10
13.4407493953994
 20
80.84888002747644
 30
0.0
 10
11.17291172110077
 20
81.20875035855983
 30
0.0
 10
9.018373762488388
 20
81.72994585270104
 30
0.0
 10
7.017960213316174
 20
82.39925334735081
 30
0.0
 10
5.209011495230731
 20
83.19908738811714
 30
0.0
 10
3.624076802186154
 20
84.10765708807043
 30
0.0
 10
2.288804859147966
 20
85.09949573215576
 30
0.0
 10
1.222283056919335
 20
86.1463177801358
 30
0.0
 10
0.4276210567139838
 20
87.2206929853189
 30
0.0
 10
-0.0846183019110325
 20
88.30390398901288
 30
0.0
 10
-0.3369431482943969
 20
89.2291602584852
 30
0.0
 10
-0.3107784717600454
 20
89.79923113876325
 30
0.0
 10
-0.3010129861628491
 20
90.01199963844019
 30
0.0
  0
LWPOLYLINE
  5
2CA
330
2B2
100
AcDbEntity
  8
0
  6
Continuous
 62
     7
370
    25
100
AcDbPolyline
 90
       18
 70
   128
 43
0.0
 10
93.535659081
 20
-173.7722435884
 10
90.4790184938
 20
-175.3808535327
 10
87.1783115749
 20
-176.8197882772
 10
83.6616987919
 20
-178.076771338
 10
79.9591826453
 20
-179.1410785789
 10
76.1023516972
 20
-180.0036297057
 10
72.1241110695
 20
-180.6570657363
 10
68.0584017084
 20
-181.0958117849
 10
63.9399108128
 20
-181.316124625
 10
59.8037758948
 20
-181.316124625
 10
55.6852849992
 20
-181.0958117849
 10
51.6195756382
 20
-180.6570657363
 10
47.6413350105
 20
-180.0036297057
 10
43.7845040624
 20
-179.1410785789
 10
40.0819879157
 20
-178.076771338
 10
36.5653751327
 20
-176.8197882772
 10
33.2646682138
 20
-175.3808535327
 10
30.2080276266
 20
-173.7722435884
  0
LWPOLYLINE
  5
2CC
330
2B2
100
AcDbEntity
  8
0
  6
Continuous
 62
     7
370
    25
100
AcDbPolyline
 90
       17
 70
   128
 43
0.0
 10
33.0325784903
 20
-168.7045640583
 10
35.9981897043
 20
-170.2562403023
 10
39.212978347
 20
-171.6326383872
 10
42.6459842462
 20
-172.8205028471
 10
46.2641456786
 20
-173.8083938978
 10
50.0326177716
 20
-174.5867976084
 10
53.915108079
 20
-175.1482175258
 10
57.8742260967
 20
-175.4872468691
 10
61.8718433538
 20
-175.6006206006
 10
65.869460611
 20
-175.4872468691
 10
69.8285786286
 20
-175.1482175258
 10
73.711068936
 20
-174.5867976084
 10
77.479541029
 20
-173.8083938978
 10
81.0977024614
 20
-172.8205028471
 10
84.5307083607
 20
-171.6326383872
 10
87.7454970033
 20
-170.2562403023
 10
90.7111082174
 20
-168.7045640583
  0
LWPOLYLINE
  5
2D0
330
2B2
100
AcDbEntity
  8
0
  6
Continuous
 62
     7
370
    25
100
AcDbPolyline
 90
       17
 70
   128
 43
0.0
 10
-292.2365408555
 20
52.3664081235
 10
-294.9244141838
 20
50.6543972109
 10
-297.3086639367
 20
48.7985392305
 10
-299.3663284859
 20
46.8167071094
 10
-301.0775913969
 20
44.7279869741
 10
-302.4259722724
 20
42.5524943415
 10
-303.3984854675
 20
40.3111803947
 10
-303.9857651484
 20
38.0256302124
 10
-304.1821554909
 20
35.7178548922
 10
-303.9857651484
 20
33.4100795721
 10
-303.3984854675
 20
31.1245293898
 10
-302.4259722724
 20
28.883215443
 10
-301.0775913969
 20
26.7077228104
 10
-299.3663284859
 20
24.6190026751
 10
-297.3086639367
 20
22.637170554
 10
-294.9244141838
 20
20.7813125736
 10
-292.2365408555
 20
19.0693016609
  0
LWPOLYLINE
  5
2D3
330
2B2
100
AcDbEntity
  8
0
  6
Continuous
 62
     7
370
    25
100
AcDbPolyline
 90
       47
 70
   128
 43
0.0
 10
100.4091629285
 20
57.9649759394
 10
102.158280368
 20
56.806952585
 10
103.617959861
 20
55.5222216651
 10
104.7610103404
 20
54.1347152858
 10
105.5661389386
 20
52.6702800657
 10
106.0183476331
 20
51.1561956623
 10
106.1092126315
 20
49.6206666031
 10
105.8370412908
 20
48.0922968892
 10
105.2069036482
 20
46.5995571566
 10
104.2305379757
 20
45.1702543221
 10
102.9261321183
 20
43.8310135933
 10
101.3179846892
 20
42.6067824908
 10
99.4360524323
 20
41.5203661239
 10
97.3153921847
 20
40.5920023739
 10
94.9955078344
 20
39.8389849009
 10
92.5196144375
 20
39.2753409956
 10
89.9338332034
 20
38.9115702776
 10
87.286332344
 20
38.754449107
 10
84.626429791
 20
38.8069043541
 10
82.0036744963
 20
39.0679588767
 10
79.4669234285
 20
39.5327497231
 10
77.0634314604
 20
40.1926187192
 10
74.8379710997
 20
41.0352737541
 10
72.8319984622
 20
42.0450177589
 10
71.0828810227
 20
43.2030411133
 10
69.6232015297
 20
44.4877720332
 10
68.4801510503
 20
45.8752784125
 10
67.6750224521
 20
47.3397136326
 10
67.2228137576
 20
48.853798036
 10
67.1319487592
 20
50.3893270952
 10
67.4041200999
 20
51.9176968091
 10
68.0342577425
 20
53.4104365417
 10
69.010623415
 20
54.8397393761
 10
70.3150292724
 20
56.178980105
 10
71.9231767015
 20
57.4032112075
 10
73.8051089584
 20
58.4896275744
 10
75.925769206
 20
59.4179913244
 10
78.2456535563
 20
60.1710087974
 10
80.7215469532
 20
60.7346527027
 10
83.3073281873
 20
61.0984234207
 10
85.9548290467
 20
61.2555445912
 10
88.6147315997
 20
61.2030893442
 10
91.2374868944
 20
60.9420348216
 10
93.7742379622
 20
60.4772439752
 10
96.1777299303
 20
59.8173749791
 10
98.403190291
 20
58.9747199442
 10
100.4091629285
 20
57.9649759394
  0
SPLINE
  5
2D4
330
2B2
100
AcDbEntity
  8
0
  6
Continuous
 62
     7
370
    25
100
AcDbSpline
210
0.0
220
0.0
230
1.0
 70
     8
 71
     3
 72
    40
 73
    36
 74
     0
 42
0.000000001
 43
0.00000001
 40
0.0
 40
0.0
 40
0.0
 40
0.0
 40
0.0156250000000006
 40
0.0156250000000006
 40
0.0312500000000012
 40
0.0312500000000012
 40
0.0625000000000019
 40
0.0625000000000019
 40
0.0937500000000026
 40
0.0937500000000026
 40
0.1250000000000034
 40
0.1250000000000034
 40
0.2500000000000063
 40
0.2500000000000063
 40
0.2812500000000067
 40
0.2812500000000067
 40
0.312500000000007
 40
0.312500000000007
 40
0.3750000000000069
 40
0.3750000000000069
 40
0.5000000000000052
 40
0.5000000000000052
 40
0.5625000000000043
 40
0.5625000000000043
 40
0.6250000000000034
 40
0.6250000000000034
 40
0.7500000000000007
 40
0.7500000000000007
 40
0.781250000000001
 40
0.781250000000001
 40
0.8125000000000012
 40
0.8125000000000012
 40
0.8750000000000008
 40
0.8750000000000008
 40
1.0
 40
1.0
 40
1.0
 40
1.0
 10
-164.6185590959915
 20
124.4229633727833
 30
0.0
 10
-164.388882736818
 20
124.5555527126908
 30
0.0
 10
-164.1584633328698
 20
124.687658672391
 30
0.0
 10
-163.690804791427
 20
124.9474340836203
 30
0.0
 10
-163.4543388823197
 20
125.0756065509981
 30
0.0
 10
-162.7370685899973
 20
125.4550025361855
 30
0.0
 10
-162.248398733064
 20
125.7011092502108
 30
0.0
 10
-161.250101195075
 20
126.1796887793207
 30
0.0
 10
-160.7394576777247
 20
126.412585462182
 30
0.0
 10
-159.703283974189
 20
126.8619579525578
 30
0.0
 10
-159.1777013985127
 20
127.078516320753
 30
0.0
 10
-156.5128818898917
 20
128.1212890048811
 30
0.0
 10
-154.2645820349022
 20
128.8292425596601
 30
0.0
 10
-151.3103828926772
 20
129.5582307321419
 30
0.0
 10
-150.7122424512351
 20
129.6961120552668
 30
0.0
 10
-149.5012719138479
 20
129.9559461926345
 30
0.0
 10
-148.8869543035106
 20
130.0781673891847
 30
0.0
 10
-147.0325548010826
 20
130.4185516327182
 30
0.0
 10
-145.7872511775047
 20
130.6096076067545
 30
0.0
 10
-142.0250369460946
 20
131.0783837292745
 30
0.0
 10
-139.4820295896574
 20
131.2525320724766
 30
0.0
 10
-135.6154659865652
 20
131.3071702895904
 30
0.0
 10
-134.3115090719036
 20
131.2898848689031
 30
0.0
 10
-131.7359129217738
 20
131.1858048304042
 30
0.0
 10
-130.4601749117472
 20
131.0995138211348
 30
0.0
 10
-126.6681104263732
 20
130.7408149050675
 30
0.0
 10
-124.1869414693514
 20
130.3685584646617
 30
0.0
 10
-121.1446391929669
 20
129.735224593465
 30
0.0
 10
-120.5377636421998
 20
129.5997152891332
 30
0.0
 10
-119.341353842499
 20
129.3140851130583
 30
0.0
 10
-118.7509224569233
 20
129.1638015991346
 30
0.0
 10
-117.0024413820139
 20
128.691033324305
 30
0.0
 10
-115.8671006356159
 20
128.3467308820676
 30
0.0
 10
-112.5499480483638
 20
127.2284417852028
 30
0.0
 10
-110.4566549745699
 20
126.3694104740683
 30
0.0
 10
-108.4864428281978
 20
125.3921288128353
 30
0.0
  0
SPLINE
  5
2D5
330
2B2
100
AcDbEntity
  8
0
  6
Continuous
 62
     7
370
    25
100
AcDbSpline
210
0.0
220
0.0
230
1.0
 70
     8
 71
     3
 72
    16
 73
    12
 74
     0
 42
0.000000001
 43
0.00000001
 40
0.0
 40
0.0
 40
0.0
 40
0.0
 40
0.0078124999999999
 40
0.0078124999999999
 40
0.0156249999999997
 40
0.0312499999999995
 40
0.0624999999999995
 40
0.1249999999999994
 40
0.2499999999999995
 40
0.4999999999999997
 40
1.0
 40
1.0
 40
1.0
 40
1.0
 10
-289.1157861066582
 20
52.54002011651086
 30
0.0
 10
-288.8003574875758
 20
52.73228058475256
 30
0.0
 10
-288.4779004307148
 20
52.92048759323893
 30
0.0
 10
-287.8294222038315
 20
53.29484610517374
 30
0.0
 10
-286.8567048635063
 20
53.85638387307586
 30
0.0
 10
-284.5870310694145
 20
55.16663866484775
 30
0.0
 10
-280.047683481231
 20
57.78714824839119
 30
0.0
 10
-270.9689883048638
 20
63.02816741547822
 30
0.0
 10
-252.8115979521293
 20
73.51020574965221
 30
0.0
 10
-216.4968172466609
 20
94.47428241800031
 30
0.0
 10
-185.3698623562592
 20
112.4434909908701
 30
0.0
 10
-164.6185590959914
 20
124.4229633727833
 30
0.0
  0
SPLINE
  5
2D6
330
2B2
100
AcDbEntity
  8
0
  6
Continuous
 62
     7
370
    25
100
AcDbSpline
210
0.0
220
0.0
230
1.0
 70
     8
 71
     3
 72
    38
 73
    34
 74
     0
 42
0.000000001
 43
0.00000001
 40
0.0
 40
0.0
 40
0.0
 40
0.0
 40
0.0625000000000044
 40
0.0625000000000044
 40
0.0937500000000059
 40
0.0937500000000059
 40
0.1250000000000075
 40
0.1250000000000075
 40
0.2500000000000095
 40
0.2500000000000095
 40
0.3125000000000105
 40
0.3125000000000105
 40
0.3437500000000111
 40
0.3437500000000111
 40
0.3750000000000128
 40
0.3750000000000128
 40
0.500000000000015
 40
0.500000000000015
 40
0.5312500000000143
 40
0.5312500000000143
 40
0.5625000000000137
 40
0.5625000000000137
 40
0.6250000000000122
 40
0.6250000000000122
 40
0.7500000000000095
 40
0.7500000000000095
 40
0.7812500000000083
 40
0.7812500000000083
 40
0.8125000000000071
 40
0.8125000000000071
 40
0.8750000000000046
 40
0.8750000000000046
 40
1.0
 40
1.0
 40
1.0
 40
1.0
 10
-289.0870448839168
 20
20.94817151987886
 30
0.0
 10
-289.9616521582983
 20
21.47934543936897
 30
0.0
 10
-290.7897748859519
 20
22.0321407770154
 30
0.0
 10
-291.9624988335584
 20
22.89364187126069
 30
0.0
 10
-292.3418027995175
 20
23.1862062941177
 30
0.0
 10
-293.0769334764641
 20
23.78225514621327
 30
0.0
 10
-293.4331608464831
 20
24.0861804883542
 30
0.0
 10
-295.1422209245517
 20
25.62165182073583
 30
0.0
 10
-296.2917252803198
 20
26.90754212938462
 30
0.0
 10
-297.6930202689238
 20
28.92168231146906
 30
0.0
 10
-298.1061577336395
 20
29.60731520345897
 30
0.0
 10
-298.6428036129498
 20
30.65770349109505
 30
0.0
 10
-298.8080847495698
 20
31.01230655539541
 30
0.0
 10
-299.1072386294355
 20
31.72188511714355
 30
0.0
 10
-299.241478814059
 20
32.0774941612104
 30
0.0
 10
-299.8370960877729
 20
33.85957939473477
 30
0.0
 10
-300.0759198094792
 20
35.29795125934072
 30
0.0
 10
-300.0757097815023
 20
37.11188399132693
 30
0.0
 10
-300.0605538786012
 20
37.47547838895883
 30
0.0
 10
-299.9997471052961
 20
38.20429716731957
 30
0.0
 10
-299.953895293013
 20
38.5704880348863
 30
0.0
 10
-299.7715708741973
 20
39.66143235606588
 30
0.0
 10
-299.5907476567039
 20
40.38004347129373
 30
0.0
 10
-298.8741686180222
 20
42.5103653395086
 30
0.0
 10
-298.1663245240071
 20
43.89686075982098
 30
0.0
 10
-296.9906615920123
 20
45.5873619274663
 30
0.0
 10
-296.7401007342837
 20
45.92407927384036
 30
0.0
 10
-296.211955996693
 20
46.58924880555204
 30
0.0
 10
-295.9351215752976
 20
46.91690431695404
 30
0.0
 10
-295.0673205134158
 20
47.88546483504563
 30
0.0
 10
-294.4391889080421
 20
48.51201513137333
 30
0.0
 10
-292.4089398128265
 20
50.33533081493415
 30
0.0
 10
-290.861503835185
 20
51.47596794242253
 30
0.0
 10
-289.1157861066582
 20
52.54002011651086
 30
0.0
  0
SPLINE
  5
2D7
330
2B2
100
AcDbEntity
  8
0
  6
Continuous
 62
     7
370
    25
100
AcDbSpline
210
0.0
220
0.0
230
1.0
 70
     8
 71
     3
 72
    25
 73
    21
 74
     0
 42
0.000000001
 43
0.00000001
 40
0.0
 40
0.0
 40
0.0
 40
0.0
 40
0.0039062499999999
 40
0.0039062499999999
 40
0.0078124999999999
 40
0.0156249999999998
 40
0.0312499999999997
 40
0.0624999999999998
 40
0.1249999999999998
 40
0.2499999999999999
 40
0.5000000000000001
 40
0.7500000000000003
 40
0.8750000000000003
 40
0.9375000000000002
 40
0.9687500000000001
 40
0.984375
 40
0.9921875
 40
0.99609375
 40
0.99609375
 40
1.0
 40
1.0
 40
1.0
 40
1.0
 10
36.28722919495331
 20
-166.886398734607
 30
0.0
 10
35.85282274064075
 20
-166.6480256380901
 30
0.0
 10
35.43069836906412
 20
-166.4025600455072
 30
0.0
 10
34.58336952576924
 20
-165.9134075161774
 30
0.0
 10
33.31237626082678
 20
-165.1796787221826
 30
0.0
 10
30.34672530929478
 20
-163.4676448695284
 30
0.0
 10
24.41542340623026
 20
-160.0435771642196
 30
0.0
 10
12.55281960010149
 20
-153.1954417536023
 30
0.0
 10
-11.1723880121561
 20
-139.4991709323676
 30
0.0
 10
-58.62280323667099
 20
-112.1066292898981
 30
0.0
 10
-126.4091107002641
 20
-72.97442694351338
 30
0.0
 10
-194.195418163857
 20
-33.84222459712849
 30
0.0
 10
-241.6458333883718
 20
-6.449682954659114
 30
0.0
 10
-265.3710410006293
 20
7.246587866575574
 30
0.0
 10
-277.233644806758
 20
14.09472327719287
 30
0.0
 10
-283.1649467098227
 20
17.51879098250164
 30
0.0
 10
-286.1305976613547
 20
19.23082483515591
 30
0.0
 10
-287.4015909262972
 20
19.96455362915066
 30
0.0
 10
-288.248919769592
 20
20.45370615848047
 30
0.0
 10
-288.6741245664356
 20
20.69739324499109
 30
0.0
 10
-289.0870448839169
 20
20.94817151987889
 30
0.0
  0
SPLINE
  5
2D8
330
2B2
100
AcDbEntity
  8
0
  6
Continuous
 62
     7
370
    25
100
AcDbSpline
210
0.0
220
0.0
230
1.0
 70
     8
 71
     3
 72
    38
 73
    34
 74
     0
 42
0.000000001
 43
0.00000001
 40
0.0
 40
0.0
 40
0.0
 40
0.0
 40
0.0624999999999996
 40
0.0624999999999996
 40
0.0937499999999998
 40
0.0937499999999998
 40
0.1250000000000001
 40
0.1250000000000001
 40
0.2499999999999986
 40
0.2499999999999986
 40
0.3124999999999978
 40
0.3124999999999978
 40
0.3437499999999974
 40
0.3437499999999974
 40
0.3749999999999971
 40
0.3749999999999971
 40
0.4999999999999973
 40
0.4999999999999973
 40
0.5312499999999977
 40
0.5312499999999977
 40
0.562499999999998
 40
0.562499999999998
 40
0.6249999999999966
 40
0.6249999999999966
 40
0.7499999999999979
 40
0.7499999999999979
 40
0.7812499999999984
 40
0.7812499999999984
 40
0.812499999999999
 40
0.812499999999999
 40
0.8749999999999998
 40
0.8749999999999998
 40
1.0
 40
1.0
 40
1.0
 40
1.0
 10
91.01184560043431
 20
-166.9029906866295
 30
0.0
 10
90.09019707269209
 20
-167.4069100649415
 30
0.0
 10
89.13132905610809
 20
-167.8840283144743
 30
0.0
 10
87.6374195751691
 20
-168.5596636936419
 30
0.0
 10
87.13015903678952
 20
-168.7781854014653
 30
0.0
 10
86.09682895050148
 20
-169.2016847652644
 30
0.0
 10
85.56987232797229
 20
-169.4069414567823
 30
0.0
 10
82.90724408637278
 20
-170.3917891282155
 30
0.0
 10
80.67831290066873
 20
-171.0540097686036
 30
0.0
 10
77.18829410802425
 20
-171.8609153758732
 30
0.0
 10
76.00041749761738
 20
-172.0986858591417
 30
0.0
 10
74.18094150721497
 20
-172.4074566929669
 30
0.0
 10
73.56661943159037
 20
-172.502563280242
 30
0.0
 10
72.33690928319865
 20
-172.6747422306724
 30
0.0
 10
71.7206770289929
 20
-172.7520010236115
 30
0.0
 10
68.6326966150659
 20
-173.0945696336681
 30
0.0
 10
66.14086110791486
 20
-173.2310764027764
 30
0.0
 10
62.99925341981449
 20
-173.2297789850219
 30
0.0
 10
62.36956868323496
 20
-173.2207784677609
 30
0.0
 10
61.10744942254946
 20
-173.185145388192
 30
0.0
 10
60.47328891612771
 20
-173.1583992274283
 30
0.0
 10
58.5831905393326
 20
-173.0522499208729
 30
0.0
 10
57.33831544032407
 20
-172.9472387787779
 30
0.0
 10
53.64817451419741
 20
-172.5319212299773
 30
0.0
 10
51.24711100976067
 20
-172.121966541105
 30
0.0
 10
48.32022418255036
 20
-171.4417023029657
 30
0.0
 10
47.73733329551037
 20
-171.2967794505458
 30
0.0
 10
46.58548836757477
 20
-170.991179304076
 30
0.0
 10
46.01815003115917
 20
-170.8310009923522
 30
0.0
 10
44.3412236163325
 20
-170.328901881688
 30
0.0
 10
43.25663782854869
 20
-169.9654910871834
 30
0.0
 10
40.10085912551001
 20
-168.7910439808306
 30
0.0
 10
38.12728815393881
 20
-167.8960995516016
 30
0.0
 10
36.28722919495333
 20
-166.886398734607
 30
0.0
  0
LWPOLYLINE
  5
2D9
330
2B2
100
AcDbEntity
  8
0
  6
Continuous
 62
     7
370
    25
100
AcDbPolyline
 90
        7
 70
   128
 43
0.0
 10
215.5302473456
 20
-95.0322713448
 10
209.8733930961
 20
-98.2979037921
 10
187.2459760981
 20
-111.3604335812
 10
139.1342045329
 20
-139.1347681125
 10
115.0783187504
 20
-153.0219353781
 10
103.1256130384
 20
-160.0102323029
 10
91.0118456004
 20
-166.9029906866
  0
SPLINE
  5
2DA
330
2B2
100
AcDbEntity
  8
0
  6
Continuous
 62
     7
370
    25
100
AcDbSpline
210
0.0
220
0.0
230
1.0
 70
     8
 71
     3
 72
    44
 73
    40
 74
     0
 42
0.000000001
 43
0.00000001
 40
0.0
 40
0.0
 40
0.0
 40
0.0
 40
0.0625000000000027
 40
0.0625000000000027
 40
0.0937500000000032
 40
0.0937500000000032
 40
0.1250000000000039
 40
0.1250000000000039
 40
0.2500000000000061
 40
0.2500000000000061
 40
0.312500000000008
 40
0.312500000000008
 40
0.3437500000000088
 40
0.3437500000000088
 40
0.3750000000000095
 40
0.3750000000000095
 40
0.5000000000000097
 40
0.5000000000000097
 40
0.53125000000001
 40
0.53125000000001
 40
0.56250000000001
 40
0.56250000000001
 40
0.6250000000000083
 40
0.6250000000000083
 40
0.7500000000000047
 40
0.7500000000000047
 40
0.781250000000004
 40
0.781250000000004
 40
0.8125000000000033
 40
0.8125000000000033
 40
0.875000000000002
 40
0.875000000000002
 40
0.9375000000000007
 40
0.9375000000000007
 40
0.9687500000000002
 40
0.9687500000000002
 40
0.9843750000000001
 40
0.9843750000000001
 40
1.0
 40
1.0
 40
1.0
 40
1.0
 10
217.2090730412946
 20
-62.62789038119664
 30
0.0
 10
218.0551408659175
 20
-63.19632831150007
 30
0.0
 10
218.8533612025466
 20
-63.78499349776035
 30
0.0
 10
219.9793075744726
 20
-64.6981685171757
 30
0.0
 10
220.3426812101444
 20
-65.00760852812583
 30
0.0
 10
221.0454699428895
 20
-65.63661688722638
 30
0.0
 10
221.3850877487301
 20
-65.95643293901685
 30
0.0
 10
223.0113318005407
 20
-67.56902797744685
 30
0.0
 10
224.0943713268301
 20
-68.91078772467205
 30
0.0
 10
225.3963524710174
 20
-70.99992012015343
 30
0.0
 10
225.7765481098099
 20
-71.7090546928846
 30
0.0
 10
226.2634399421946
 20
-72.79253353272703
 30
0.0
 10
226.4121141369323
 20
-73.15794703662439
 30
0.0
 10
226.67858989194
 20
-73.88951979042714
 30
0.0
 10
226.7965671485852
 20
-74.25583418816673
 30
0.0
 10
227.3117741197726
 20
-76.08999009748612
 30
0.0
 10
227.487760916379
 20
-77.56548666268753
 30
0.0
 10
227.4069265467965
 20
-79.42026573349273
 30
0.0
 10
227.3756539786493
 20
-79.79174420799649
 30
0.0
 10
227.2824837495176
 20
-80.53576079195204
 30
0.0
 10
227.220362931041
 20
-80.90927742434701
 30
0.0
 10
226.9887108725169
 20
-82.0233202370079
 30
0.0
 10
226.7746275705094
 20
-82.75628769685478
 30
0.0
 10
225.9559371451309
 20
-84.92641540071587
 30
0.0
 10
225.1786604096477
 20
-86.33541594475597
 30
0.0
 10
223.9082006443737
 20
-88.04792662862941
 30
0.0
 10
223.6384357262181
 20
-88.38859757324744
 30
0.0
 10
223.0705559544933
 20
-89.06201771351284
 30
0.0
 10
222.77365846361
 20
-89.39341009599542
 30
0.0
 10
221.844907821112
 20
-90.37196850375935
 30
0.0
 10
221.1751424133898
 20
-91.00357567107697
 30
0.0
 10
219.7352301835002
 20
-92.22559435211734
 30
0.0
 10
218.9650755035983
 20
-92.8160026410956
 30
0.0
 10
217.7343160365786
 20
-93.67061927152965
 30
0.0
 10
217.3114459700127
 20
-93.95031361191162
 30
0.0
 10
216.6578954847083
 20
-94.36195698479816
 30
0.0
 10
216.4368355684639
 20
-94.49785418729289
 30
0.0
 10
215.9882145023565
 20
-94.76698054292757
 30
0.0
 10
215.7596926072263
 20
-94.8998154146216
 30
0.0
 10
215.5302473455641
 20
-95.0322713447754
 30
0.0
  0
SPLINE
  5
2DB
330
2B2
100
AcDbEntity
  8
0
  6
Continuous
 62
     7
370
    25
100
AcDbSpline
210
0.0
220
0.0
230
1.0
 70
     8
 71
     3
 72
    31
 73
    27
 74
     0
 42
0.000000001
 43
0.00000001
 40
0.0
 40
0.0
 40
0.0
 40
0.0
 40
0.00390625
 40
0.00390625
 40
0.0058593749999999
 40
0.0058593749999999
 40
0.0078124999999999
 40
0.0078124999999999
 40
0.015625
 40
0.03125
 40
0.0624999999999999
 40
0.125
 40
0.2500000000000001
 40
0.5
 40
0.7499999999999999
 40
0.8749999999999998
 40
0.9374999999999999
 40
0.9687500000000001
 40
0.984375
 40
0.9921875000000001
 40
0.9921875000000001
 40
0.9941406250000001
 40
0.9941406250000001
 40
0.99609375
 40
0.99609375
 40
1.0
 40
1.0
 40
1.0
 40
1.0
 10
-108.4864428281978
 20
125.3921288128353
 30
0.0
 10
-108.0303022816938
 20
125.1658700356452
 30
0.0
 10
-107.5831657111223
 20
124.9343983703759
 30
0.0
 10
-106.9259083911979
 20
124.5794053674589
 30
0.0
 10
-106.7090650328106
 20
124.4597761113494
 30
0.0
 10
-106.2798676233902
 20
124.2179184965819
 30
0.0
 10
-106.0681996665911
 20
124.0952929209078
 30
0.0
 10
-105.007990614436
 20
123.4832472628568
 30
0.0
 10
-102.4634888892636
 20
122.0143376835343
 30
0.0
 10
-96.52631819719501
 20
118.5868819984487
 30
0.0
 10
-84.65197681305713
 20
111.731970628277
 30
0.0
 10
-60.90329404478192
 20
98.022147887934
 30
0.0
 10
-13.4059285082315
 20
70.60250240724807
 30
0.0
 10
54.44745082969812
 20
31.43158029198202
 30
0.0
 10
122.3008301676275
 20
-7.739341823283653
 30
0.0
 10
169.7981957041783
 20
-35.1589873039699
 30
0.0
 10
193.5468784724535
 20
-48.86881004431289
 30
0.0
 10
205.421219856591
 20
-55.7237214144843
 30
0.0
 10
211.3583905486601
 20
-59.15117709957022
 30
0.0
 10
213.9028922738323
 20
-60.6200866788926
 30
0.0
 10
214.9631013259874
 20
-61.23213233694364
 30
0.0
 10
215.175517646135
 20
-61.35432817415499
 30
0.0
 10
215.5944394429501
 20
-61.60208624937265
 30
0.0
 10
215.8016376819074
 20
-61.72725393869393
 30
0.0
 10
216.4164534745908
 20
-62.10661780518122
 30
0.0
 10
216.817296764403
 20
-62.36467212670563
 30
0.0
 10
217.2090730412946
 20
-62.62789038119666
 30
0.0
  0
LWPOLYLINE
  5
2DC
330
2B2
100
AcDbEntity
  8
0
  6
Continuous
 62
     7
370
    25
100
AcDbPolyline
 90
       47
 70
   128
 43
0.0
 10
172.3724463542
 20
17.8676840002
 10
174.1215637937
 20
16.7096606458
 10
175.5812432867
 20
15.4249297258
 10
176.7242937662
 20
14.0374233465
 10
177.5294223644
 20
12.5729881265
 10
177.9816310588
 20
11.058903723
 10
178.0724960572
 20
9.5233746638
 10
177.8003247166
 20
7.9950049499
 10
177.170187074
 20
6.5022652173
 10
176.1938214014
 20
5.0729623829
 10
174.8894155441
 20
3.733721654
 10
173.281268115
 20
2.5094905516
 10
171.399335858
 20
1.4230741847
 10
169.2786756105
 20
0.4947104346
 10
166.9587912602
 20
-0.2583070384
 10
164.4828978633
 20
-0.8219509437
 10
161.8971166292
 20
-1.1857216617
 10
159.2496157697
 20
-1.3428428322
 10
156.5897132167
 20
-1.2903875852
 10
153.966957922
 20
-1.0293330626
 10
151.4302068542
 20
-0.5645422162
 10
149.0267148861
 20
0.0953267799
 10
146.8012545254
 20
0.9379818148
 10
144.795281888
 20
1.9477258196
 10
143.0461644485
 20
3.105749174
 10
141.5864849555
 20
4.390480094
 10
140.443434476
 20
5.7779864733
 10
139.6383058778
 20
7.2424216933
 10
139.1860971834
 20
8.7565060967
 10
139.095232185
 20
10.2920351559
 10
139.3674035256
 20
11.8204048698
 10
139.9975411682
 20
13.3131446024
 10
140.9739068408
 20
14.7424474369
 10
142.2783126981
 20
16.0816881658
 10
143.8864601272
 20
17.3059192682
 10
145.7683923841
 20
18.3923356351
 10
147.8890526317
 20
19.3206993851
 10
150.208936982
 20
20.0737168582
 10
152.6848303789
 20
20.6373607634
 10
155.270611613
 20
21.0011314814
 10
157.9181124725
 20
21.158252652
 10
160.5780150255
 20
21.1057974049
 10
163.2007703202
 20
20.8447428823
 10
165.7375213879
 20
20.3799520359
 10
168.1410133561
 20
19.7200830399
 10
170.3664737168
 20
18.877428005
 10
172.3724463542
 20
17.8676840002
  0
LWPOLYLINE
  5
2DD
330
2B2
100
AcDbEntity
  8
0
  6
Continuous
 62
     7
370
    25
100
AcDbPolyline
 90
       47
 70
   128
 43
0.0
 10
30.9510901169
 20
99.5084951824
 10
32.7002075564
 20
98.350471828
 10
34.1598870494
 20
97.0657409081
 10
35.3029375289
 20
95.6782345288
 10
36.108066127
 20
94.2137993087
 10
36.5602748215
 20
92.6997149053
 10
36.6511398199
 20
91.1641858461
 10
36.3789684793
 20
89.6358161322
 10
35.7488308367
 20
88.1430763996
 10
34.7724651641
 20
86.7137735651
 10
33.4680593068
 20
85.3745328363
 10
31.8599118777
 20
84.1503017338
 10
29.9779796207
 20
83.0638853669
 10
27.8573193731
 20
82.1355216169
 10
25.5374350229
 20
81.3825041439
 10
23.061541626
 20
80.8188602386
 10
20.4757603918
 20
80.4550895206
 10
17.8282595324
 20
80.2979683501
 10
15.1683569794
 20
80.3504235971
 10
12.5456016847
 20
80.6114781197
 10
10.0088506169
 20
81.0762689661
 10
7.6053586488
 20
81.7361379622
 10
5.3798982881
 20
82.5787929971
 10
3.3739256506
 20
83.5885370019
 10
1.6248082112
 20
84.7465603563
 10
0.1651287181
 20
86.0312912762
 10
-0.9779217613
 20
87.4187976555
 10
-1.7830503595
 20
88.8832328756
 10
-2.2352590539
 20
90.397317279
 10
-2.3261240524
 20
91.9328463382
 10
-2.0539527117
 20
93.4612160521
 10
-1.4238150691
 20
94.9539557847
 10
-0.4474493965
 20
96.3832586192
 10
0.8569564608
 20
97.722499348
 10
2.4651038899
 20
98.9467304505
 10
4.3470361468
 20
100.0331468174
 10
6.4676963944
 20
100.9615105674
 10
8.7875807447
 20
101.7145280404
 10
11.2634741416
 20
102.2781719457
 10
13.8492553757
 20
102.6419426637
 10
16.4967562352
 20
102.7990638342
 10
19.1566587882
 20
102.7466085872
 10
21.7794140829
 20
102.4855540646
 10
24.3161651506
 20
102.0207632182
 10
26.7196571188
 20
101.3608942221
 10
28.9451174794
 20
100.5182391872
 10
30.9510901169
 20
99.5084951824
  0
LWPOLYLINE
  5
2DF
330
2B2
100
AcDbEntity
  8
0
  6
Continuous
 62
     7
370
    25
100
AcDbPolyline
 90
       18
 70
   128
 43
0.0
 10
32.1350382248
 20
-215.1199262671
 10
35.0056564179
 20
-216.6306387111
 10
38.1054874453
 20
-217.9820021241
 10
41.4080846415
 20
-219.1624871501
 10
44.8852714117
 20
-220.1620223069
 10
48.5073816244
 20
-220.9720799131
 10
52.2435127124
 20
-221.5857488427
 10
56.0617893226
 20
-221.997793489
 10
59.9296352652
 20
-222.2046984321
 10
63.8140514424
 20
-222.2046984321
 10
67.6818973851
 20
-221.997793489
 10
71.5001739953
 20
-221.5857488427
 10
75.2363050833
 20
-220.9720799131
 10
78.858415296
 20
-220.1620223069
 10
82.3356020662
 20
-219.1624871501
 10
85.6381992624
 20
-217.9820021241
 10
88.7380302897
 20
-216.6306387111
 10
91.6086484829
 20
-215.1199262671
  0
SPLINE
  5
2E1
330
2B2
100
AcDbEntity
  8
0
  6
Continuous
 62
     7
370
    25
100
AcDbSpline
210
0.0
220
0.0
230
1.0
 70
     8
 71
     3
 72
    38
 73
    34
 74
     0
 42
0.000000001
 43
0.00000001
 40
0.0
 40
0.0
 40
0.0
 40
0.0
 40
0.1250000000000054
 40
0.1250000000000054
 40
0.187500000000008
 40
0.187500000000008
 40
0.2187500000000087
 40
0.2187500000000087
 40
0.2500000000000093
 40
0.2500000000000093
 40
0.3750000000000112
 40
0.3750000000000112
 40
0.437500000000011
 40
0.437500000000011
 40
0.4687500000000097
 40
0.4687500000000097
 40
0.5000000000000084
 40
0.5000000000000084
 40
0.6250000000000023
 40
0.6250000000000023
 40
0.6562500000000022
 40
0.6562500000000022
 40
0.6875000000000021
 40
0.6875000000000021
 40
0.7500000000000019
 40
0.7500000000000019
 40
0.8750000000000017
 40
0.8750000000000017
 40
0.906250000000001
 40
0.906250000000001
 40
0.9375000000000003
 40
0.9375000000000003
 40
1.0
 40
1.0
 40
1.0
 40
1.0
 10
38.30796667108974
 20
-166.7044992954766
 30
0.0
 10
39.97908929462555
 20
-167.6160119619765
 30
0.0
 10
41.7843594221962
 20
-168.4296979272926
 30
0.0
 10
44.68769707936729
 20
-169.5021403879971
 30
0.0
 10
45.68821387498201
 20
-169.8349402248549
 30
0.0
 10
47.23897852585808
 20
-170.2957135430319
 30
0.0
 10
47.7642563506601
 20
-170.4428849009786
 30
0.0
 10
48.83197423063776
 20
-170.723955816378
 30
0.0
 10
49.37261370354933
 20
-170.8573127744861
 30
0.0
 10
52.08861100472407
 20
-171.483571765483
 30
0.0
 10
54.32094539687796
 20
-171.8620199483456
 30
0.0
 10
57.75751491913324
 20
-172.2460071135824
 30
0.0
 10
58.91782184326418
 20
-172.3432644539549
 30
0.0
 10
60.68098697340996
 20
-172.4417306393231
 30
0.0
 10
61.27282250612011
 20
-172.4665754304968
 30
0.0
 10
62.45027155276741
 20
-172.4997235800141
 30
0.0
 10
63.03761146771259
 20
-172.5081400496509
 30
0.0
 10
65.96744756797351
 20
-172.5098092668215
 30
0.0
 10
68.28976769492397
 20
-172.3840183341416
 30
0.0
 10
71.16565757921487
 20
-172.0684474122859
 30
0.0
 10
71.73946034804885
 20
-171.9972720735427
 30
0.0
 10
72.88429215995066
 20
-171.838643460127
 30
0.0
 10
73.45627139208393
 20
-171.7509922059712
 30
0.0
 10
75.14883479997727
 20
-171.4666505008398
 30
0.0
 10
76.25206216052618
 20
-171.247952846419
 30
0.0
 10
79.48778212251139
 20
-170.5072554545981
 30
0.0
 10
81.54711816482023
 20
-169.9008364059161
 30
0.0
 10
83.99681778743437
 20
-169.0033828436925
 30
0.0
 10
84.48114903740169
 20
-168.8165055631154
 30
0.0
 10
85.42928929162412
 20
-168.4315292040422
 30
0.0
 10
85.89393427038358
 20
-168.2331757718603
 30
0.0
 10
87.25991991025123
 20
-167.6209341899636
 30
0.0
 10
88.13341596096807
 20
-167.1899080912647
 30
0.0
 10
88.96941482332025
 20
-166.7365742066739
 30
0.0
  0
SPLINE
  5
2E9
330
2B2
100
AcDbEntity
  8
0
  6
Continuous
 62
     7
370
    25
100
AcDbSpline
210
0.0
220
0.0
230
1.0
 70
    11
 71
     3
 72
    95
 73
    91
 74
     0
 42
0.000000001
 43
0.00000001
 40
0.0
 40
0.0
 40
0.0
 40
0.0
 40
0.0156249999999995
 40
0.0156249999999995
 40
0.0312499999999992
 40
0.0312499999999992
 40
0.0624999999999987
 40
0.0624999999999987
 40
0.0781249999999985
 40
0.0781249999999985
 40
0.0937499999999982
 40
0.0937499999999982
 40
0.1249999999999975
 40
0.1249999999999975
 40
0.1406249999999971
 40
0.1406249999999971
 40
0.1562499999999968
 40
0.1718749999999964
 40
0.1718749999999964
 40
0.1874999999999961
 40
0.1874999999999961
 40
0.2187499999999954
 40
0.2187499999999954
 40
0.2499999999999948
 40
0.2499999999999948
 40
0.2812499999999942
 40
0.2812499999999942
 40
0.2968749999999941
 40
0.2968749999999941
 40
0.3124999999999939
 40
0.3124999999999939
 40
0.3437499999999934
 40
0.3437499999999934
 40
0.374999999999993
 40
0.374999999999993
 40
0.3906249999999929
 40
0.3906249999999929
 40
0.4062499999999928
 40
0.4062499999999928
 40
0.437499999999993
 40
0.437499999999993
 40
0.4531249999999932
 40
0.4531249999999932
 40
0.4687499999999934
 40
0.4687499999999934
 40
0.4999999999999938
 40
0.4999999999999938
 40
0.5312499999999943
 40
0.5312499999999943
 40
0.5468749999999946
 40
0.5468749999999946
 40
0.5624999999999949
 40
0.5781249999999951
 40
0.5781249999999951
 40
0.5937499999999954
 40
0.5937499999999954
 40
0.6249999999999961
 40
0.6249999999999961
 40
0.6406249999999962
 40
0.6406249999999962
 40
0.6562499999999964
 40
0.6562499999999964
 40
0.6874999999999969
 40
0.6874999999999969
 40
0.703124999999997
 40
0.703124999999997
 40
0.7187499999999972
 40
0.7187499999999972
 40
0.7499999999999976
 40
0.7499999999999976
 40
0.7656249999999976
 40
0.7656249999999976
 40
0.7812499999999977
 40
0.7968749999999977
 40
0.7968749999999977
 40
0.8124999999999978
 40
0.8124999999999978
 40
0.8437499999999981
 40
0.8437499999999981
 40
0.8749999999999984
 40
0.8749999999999984
 40
0.9062499999999988
 40
0.9062499999999988
 40
0.9218749999999989
 40
0.9218749999999989
 40
0.9374999999999991
 40
0.9374999999999991
 40
0.9687499999999996
 40
0.9687499999999996
 40
1.0
 40
1.0
 40
1.0
 40
1.0
 10
27.57716446627551
 20
19.18160962594236
 30
0.0
 10
27.57716446627552
 20
18.88502088114426
 30
0.0
 10
27.56447412216882
 20
18.59668864272231
 30
0.0
 10
27.5138177365171
 20
18.03646887023827
 30
0.0
 10
27.47576917092498
 20
17.76503380049332
 30
0.0
 10
27.32594339490299
 20
16.98731492405349
 30
0.0
 10
27.17852269267783
 20
16.51298912922025
 30
0.0
 10
26.88609113609405
 20
15.8677261868812
 30
0.0
 10
26.77595338178386
 20
15.66273755913696
 30
0.0
 10
26.53441417488468
 20
15.28156132671303
 30
0.0
 10
26.40339881283613
 20
15.10556672541907
 30
0.0
 10
25.98043946333036
 20
14.62018978669768
 30
0.0
 10
25.65887027966497
 20
14.35300400686412
 30
0.0
 10
25.11516105989633
 20
14.03961677647027
 30
0.0
 10
24.92489099097033
 20
13.95073927706156
 30
0.0
 10
24.53172841285102
 20
13.8057545518635
 30
0.0
 10
24.12447123885752
 20
13.69266899241713
 30
0.0
 10
23.68933141778628
 20
13.64268798656466
 30
0.0
 10
23.239998329639
 20
13.62482946106273
 30
0.0
 10
23.00692868237577
 20
13.63217436075713
 30
0.0
 10
22.29911066502926
 20
13.70283648287821
 30
0.0
 10
21.81416814507234
 20
13.81347761398051
 30
0.0
 10
20.81862872648052
 20
14.15952416447482
 30
0.0
 10
20.30327570946437
 20
14.3985256943182
 30
0.0
 10
19.28773973410133
 20
14.98530713276411
 30
0.0
 10
18.78363191948591
 20
15.33345008027265
 30
0.0
 10
18.03303894209477
 20
15.93896689363129
 30
0.0
 10
17.78288070395281
 20
16.15575890831165
 30
0.0
 10
17.29501924257158
 20
16.60846820021382
 30
0.0
 10
17.05612417913639
 20
16.84523809972137
 30
0.0
 10
16.35424744493231
 20
17.58617607792501
 30
0.0
 10
15.90474491529302
 20
18.12227051178751
 30
0.0
 10
15.051712523086
 20
19.27278160082106
 30
0.0
 10
14.65984756559882
 20
19.87107780471284
 30
0.0
 10
14.12215879508219
 20
20.80184088195831
 30
0.0
 10
13.95134196293896
 20
21.11768913897535
 30
0.0
 10
13.62696150579345
 20
21.76085783365107
 30
0.0
 10
13.47345595542077
 20
22.0884126514633
 30
0.0
 10
13.04908665642456
 20
23.06668194992383
 30
0.0
 10
12.8102353854501
 20
23.72020591278373
 30
0.0
 10
12.51778633271106
 20
24.7025004311557
 30
0.0
 10
12.43107002443847
 20
25.0315598645927
 30
0.0
 10
12.2820729328927
 20
25.68401802810451
 30
0.0
 10
12.21997934414103
 20
26.00614722711038
 30
0.0
 10
12.0705291649441
 20
26.96036218311871
 30
0.0
 10
12.02042430557455
 20
27.58338009229445
 30
0.0
 10
12.02121092866611
 20
28.75474011698401
 30
0.0
 10
12.07077097264168
 20
29.3084316003822
 30
0.0
 10
12.22040867996239
 20
30.08997918022271
 30
0.0
 10
12.28316194242331
 20
30.34234392015237
 30
0.0
 10
12.43130363252673
 20
30.81942393825603
 30
0.0
 10
12.60253997120991
 20
31.27187169206638
 30
0.0
 10
12.81920335324109
 20
31.67586792110293
 30
0.0
 10
13.05885654048966
 20
32.05534370956163
 30
0.0
 10
13.19086733512183
 20
32.23358426346665
 30
0.0
 10
13.61780331517608
 20
32.72440489342004
 30
0.0
 10
13.939880292652
 20
32.99065335234476
 30
0.0
 10
14.47751570896517
 20
33.30127946165666
 30
0.0
 10
14.66587993103735
 20
33.38992336144664
 30
0.0
 10
15.06144121583396
 20
33.53655540695656
 30
0.0
 10
15.26799856464542
 20
33.59407812550438
 30
0.0
 10
15.90245727866817
 20
33.71705596751632
 30
0.0
 10
16.34901635048745
 20
33.73500339701814
 30
0.0
 10
17.05432496702033
 20
33.66562318029115
 30
0.0
 10
17.29677794254967
 20
33.62596361703664
 30
0.0
 10
17.78592138290342
 20
33.51491063631769
 30
0.0
 10
18.03248754546417
 20
33.4437689802789
 30
0.0
 10
18.77801669575845
 20
33.18469377756649
 30
0.0
 10
19.28275387357
 20
32.9515521389153
 30
0.0
 10
20.05185006392879
 20
32.50796258865134
 30
0.0
 10
20.30770375404422
 20
32.34569749520626
 30
0.0
 10
20.81333311854467
 20
31.99636245088978
 30
0.0
 10
21.3145153782135
 20
31.62128727928877
 30
0.0
 10
21.806888465242
 20
31.19522405284518
 30
0.0
 10
22.29477153396131
 20
30.74317231316316
 30
0.0
 10
22.53761909225992
 20
30.50283457394902
 30
0.0
 10
23.24493840640941
 20
29.75647362756469
 30
0.0
 10
23.69171305272234
 20
29.22287061475832
 30
0.0
 10
24.53648919899684
 20
28.08472639080391
 30
0.0
 10
24.93703010675948
 20
27.47447159606319
 30
0.0
 10
25.65526567824789
 20
26.23130756747068
 30
0.0
 10
25.97718467488249
 20
25.59378273555508
 30
0.0
 10
26.40331906350222
 20
24.6131758536325
 30
0.0
 10
26.53605812177408
 20
24.28129078647948
 30
0.0
 10
26.77657625390178
 20
23.62364499655995
 30
0.0
 10
26.88515956554003
 20
23.29618927656156
 30
0.0
 10
27.17652933719322
 20
22.31784786913608
 30
0.0
 10
27.32559910404933
 20
21.66885056456919
 30
0.0
 10
27.52677257616738
 20
20.39090668475678
 30
0.0
 10
27.57716446627551
 20
19.77478711553861
 30
0.0
 10
27.57716446627551
 20
19.18160962594236
 30
0.0
  0
SPLINE
  5
2EA
330
2B2
100
AcDbEntity
  8
0
  6
Continuous
 62
     7
370
    25
100
AcDbSpline
210
0.0
220
0.0
230
1.0
 70
     8
 71
     3
 72
     8
 73
     4
 74
     0
 42
0.000000001
 43
0.00000001
 40
0.0
 40
0.0
 40
0.0
 40
0.0
 40
1.0
 40
1.0
 40
1.0
 40
1.0
 10
-286.9611526744119
 20
21.06936642356809
 30
0.0
 10
-286.7361666355366
 20
20.93235296825558
 30
0.0
 10
-286.5082572612584
 20
20.79685233550541
 30
0.0
 10
-286.2774798726821
 20
20.66288635344146
 30
0.0
  0
SPLINE
  5
2EC
330
2B2
100
AcDbEntity
  8
0
  6
Continuous
 62
     7
370
    25
100
AcDbSpline
210
0.0
220
0.0
230
1.0
 70
     8
 71
     3
 72
     8
 73
     4
 74
     0
 42
0.000000001
 43
0.00000001
 40
0.0
 40
0.0
 40
0.0
 40
0.0
 40
1.0
 40
1.0
 40
1.0
 40
1.0
 10
-286.2252875155169
 20
50.66561318122198
 30
0.0
 10
-286.4732759905273
 20
50.5401783297557
 30
0.0
 10
-286.7179736392783
 20
50.41243911942725
 30
0.0
 10
-286.9593135597104
 20
50.2824613038161
 30
0.0
  0
SPLINE
  5
2EE
330
2B2
100
AcDbEntity
  8
0
  6
Continuous
 62
     7
370
    25
100
AcDbSpline
210
0.0
220
0.0
230
1.0
 70
     8
 71
     3
 72
    40
 73
    36
 74
     0
 42
0.000000001
 43
0.00000001
 40
0.0
 40
0.0
 40
0.0
 40
0.0
 40
0.1250000000000024
 40
0.1250000000000024
 40
0.1875000000000043
 40
0.1875000000000043
 40
0.2187500000000044
 40
0.2187500000000044
 40
0.2500000000000046
 40
0.2500000000000046
 40
0.3750000000000021
 40
0.3750000000000021
 40
0.4375000000000018
 40
0.4375000000000018
 40
0.4687500000000004
 40
0.4687500000000004
 40
0.4999999999999992
 40
0.4999999999999992
 40
0.6250000000000009
 40
0.6250000000000009
 40
0.6875000000000008
 40
0.6875000000000008
 40
0.7187500000000013
 40
0.7187500000000013
 40
0.7500000000000019
 40
0.7500000000000019
 40
0.8750000000000008
 40
0.8750000000000008
 40
0.9062500000000006
 40
0.9062500000000006
 40
0.9375000000000003
 40
0.9375000000000003
 40
0.9687500000000002
 40
0.9687500000000002
 40
1.0
 40
1.0
 40
1.0
 40
1.0
 10
-111.0892895085034
 20
120.5577385033657
 30
0.0
 10
-112.8834476917465
 20
121.6025430134757
 30
0.0
 10
-114.7867883602595
 20
122.5442491563843
 30
0.0
 10
-117.8017665496559
 20
123.7985053943664
 30
0.0
 10
-118.8334687709563
 20
124.1903751561324
 30
0.0
 10
-120.4222297441497
 20
124.7379267962859
 30
0.0
 10
-120.9586886361565
 20
124.9138030983352
 30
0.0
 10
-122.0458778919624
 20
125.2511308931284
 30
0.0
 10
-122.5969915444584
 20
125.412695223246
 30
0.0
 10
-125.3610586498176
 20
126.1770544873869
 30
0.0
 10
-127.6199785582581
 20
126.6591639591091
 30
0.0
 10
-131.0811751610649
 20
127.1836961051954
 30
0.0
 10
-132.2470436398935
 20
127.3253951688844
 30
0.0
 10
-134.0145991686316
 20
127.4875965757863
 30
0.0
 10
-134.6082889943113
 20
127.5333270779784
 30
0.0
 10
-135.7955175030819
 20
127.6071351168895
 30
0.0
 10
-136.387416077676
 20
127.6350708664643
 30
0.0
 10
-139.3384484259159
 20
127.7295150902598
 30
0.0
 10
-141.6726707903296
 20
127.6650366024355
 30
0.0
 10
-145.133340331244
 20
127.3615044536795
 30
0.0
 10
-146.2800647621382
 20
127.2250566385036
 30
0.0
 10
-147.9895432358958
 20
126.9667972521132
 30
0.0
 10
-148.5549995454988
 20
126.872106730884
 30
0.0
 10
-149.6704861806124
 20
126.6669801594315
 30
0.0
 10
-150.221590684068
 20
126.5564240970659
 30
0.0
 10
-152.9439529418631
 20
125.9635241849916
 30
0.0
 10
-155.0172427374615
 20
125.3621892982309
 30
0.0
 10
-157.4766890552477
 20
124.4539965363824
 30
0.0
 10
-157.9618487772875
 20
124.264322911068
 30
0.0
 10
-158.9184996183592
 20
123.8687330094384
 30
0.0
 10
-159.3898681247335
 20
123.6628097126546
 30
0.0
 10
-160.3111781314392
 20
123.2380331228393
 30
0.0
 10
-160.7621076182545
 20
123.0187855623579
 30
0.0
 10
-161.6445049099108
 20
122.5666155152535
 30
0.0
 10
-162.0756531364244
 20
122.3356715681846
 30
0.0
 10
-162.4971346510542
 20
122.0923554689177
 30
0.0
  0
SPLINE
  5
2EF
330
2B2
100
AcDbEntity
  8
0
  6
Continuous
 62
     7
370
    25
100
AcDbSpline
210
0.0
220
0.0
230
1.0
 70
     8
 71
     3
 72
     8
 73
     4
 74
     0
 42
0.000000001
 43
0.00000001
 40
0.0
 40
0.0
 40
0.0
 40
0.0
 40
1.0
 40
1.0
 40
1.0
 40
1.0
 10
-108.9587267277976
 20
119.2321629799592
 30
0.0
 10
-109.6448492900032
 20
119.6883437124798
 30
0.0
 10
-110.355536771181
 20
120.1304472107584
 30
0.0
 10
-111.0892895085034
 20
120.5577385033657
 30
0.0
  0
SPLINE
  5
2F1
330
2B2
100
AcDbEntity
  8
0
  6
Continuous
 62
     7
370
    25
100
AcDbSpline
210
0.0
220
0.0
230
1.0
 70
     8
 71
     3
 72
     8
 73
     4
 74
     0
 42
0.000000001
 43
0.00000001
 40
0.0
 40
0.0
 40
0.0
 40
0.0
 40
1.0
 40
1.0
 40
1.0
 40
1.0
 10
214.1798298295534
 20
-67.216127211313
 30
0.0
 10
213.5439776992676
 20
-66.85276244311585
 30
0.0
 10
212.8824393474991
 20
-66.502696831206
 30
0.0
 10
212.1963167810337
 20
-66.16669731198753
 30
0.0
  0
LWPOLYLINE
  5
302
330
2B2
100
AcDbEntity
  8
0
  6
Continuous
 62
     7
370
    25
100
AcDbPolyline
 90
       62
 70
   128
 43
0.0
 10
-25.3345237792
 20
-104.4447985767
 10
-27.6327744728
 20
-102.9738324367
 10
-29.6568496522
 20
-101.3742446485
 10
-31.3852936171
 20
-99.6629912406
 10
-32.7997844313
 20
-97.8582119247
 10
-33.8853281404
 20
-95.9790378106
 10
-34.630417711
 20
-94.0453886115
 10
-35.0271550083
 20
-92.0777614898
 10
-35.0713345183
 20
-90.0970137825
 10
-34.7624879271
 20
-88.1241419082
 10
-34.1038890854
 20
-86.1800587993
 10
-33.1025193049
 20
-84.2853722206
 10
-31.7689933543
 20
-82.4601663211
 10
-30.1174469403
 20
-80.7237887374
 10
-28.165386866
 20
-79.0946455038
 10
-25.9335054536
 20
-77.5900059439
 10
-23.4454612013
 20
-76.2258196114
 10
-20.7276279973
 20
-75.0165472207
 10
-17.8088155495
 20
-73.97500736
 10
-14.7199639961
 20
-73.112240611
 10
-11.4938159318
 20
-72.4373925157
 10
-8.1645693289
 20
-71.957616632
 10
-4.7675150294
 20
-71.6779987035
 10
-1.3386626541
 20
-71.6015027499
 10
2.085641109
 20
-71.7289396472
 10
5.4690977879
 20
-72.0589585327
 10
8.7758419003
 20
-72.588061124
 10
11.9708211359
 20
-73.3106388021
 10
15.02016792
 20
-74.2190320638
 10
17.8915584181
 20
-75.3036117147
 10
20.5545551766
 20
-76.5528809404
 10
22.9809297674
 20
-77.9535971766
 10
25.1449620161
 20
-79.4909124826
 10
27.0237126428
 20
-81.1485309338
 10
28.5972664232
 20
-82.9088813621
 10
29.8489432959
 20
-84.7533036152
 10
30.7654751746
 20
-86.6622463583
 10
31.3371465935
 20
-88.6154743234
 10
31.5578976932
 20
-90.5922828082
 10
31.4253884573
 20
-92.5717171511
 10
30.9410235165
 20
-94.5327948555
 10
30.1099372597
 20
-96.4547280099
 10
28.940939408
 20
-98.3171436447
 10
27.4464216295
 20
-100.100299691
 10
25.6422261844
 20
-101.785294251
 10
23.5474779932
 20
-103.3542659631
 10
21.1843819079
 20
-104.7905833371
 10
18.5779873348
 20
-106.0790210513
 10
15.7559227048
 20
-107.2059213455
 10
12.7481026051
 20
-108.1593387962
 10
9.586410677
 20
-108.9291669412
 10
6.3043616414
 20
-109.5072454108
 10
2.9367460346
 20
-109.8874464293
 10
-0.4807385803
 20
-110.0657397713
 10
-3.911866016
 20
-110.0402354831
 10
-7.3202654683
 20
-109.8112039164
 10
-10.6698070551
 20
-109.3810728629
 10
-13.9249848022
 20
-108.7544018187
 10
-17.0512930157
 20
-107.9378336528
 10
-20.0155920509
 20
-106.9400241908
 10
-22.7864596005
 20
-105.7715504614
 10
-25.3345237792
 20
-104.4447985767
  0
LWPOLYLINE
  5
305
330
2B2
100
AcDbEntity
  8
0
  6
Continuous
 62
     7
370
    25
100
AcDbPolyline
 90
       15
 70
   128
 43
0.0
 10
142.7193621266
 20
4.3736319733
 10
143.2244818037
 20
4.9508448109
 10
144.5743924049
 20
6.1634387448
 10
146.2094954503
 20
7.2527861457
 10
148.0965049571
 20
8.1967110418
 10
150.1970068535
 20
8.9759978443
 10
152.4682409781
 20
9.5747825212
 10
154.8639715539
 20
9.9808755432
 10
157.3354284151
 20
10.1860100275
 10
159.8322998271
 20
10.1860100275
 10
162.3037566883
 20
9.9808755432
 10
164.6994872641
 20
9.5747825212
 10
166.9707213887
 20
8.9759978443
 10
169.071223285
 20
8.1967110418
 10
170.9582327919
 20
7.2527861457
  0
LWPOLYLINE
  5
309
330
2B2
100
AcDbEntity
  8
0
  6
Continuous
 62
     7
370
    25
100
AcDbPolyline
 90
       20
 70
   128
 43
0.0
 10
-25.9665654296
 20
-103.3299979327
 10
-25.5035916946
 20
-103.6340129593
 10
-23.1014879397
 20
-105.0207179401
 10
-20.4576646016
 20
-106.2521692542
 10
-17.602077255
 20
-107.3144140661
 10
-14.5670808456
 20
-108.1954167176
 10
-11.3870630954
 20
-108.8851950967
 10
-8.0980548763
 20
-109.3759337387
 10
-4.7373219655
 20
-109.6620723787
 10
-1.3429428099
 20
-109.7403689516
 10
2.0466229184
 20
-109.6099363259
 10
5.3929700853
 20
-109.2722523554
 10
8.6581832403
 20
-108.7311431344
 10
11.8052662137
 20
-107.9927396465
 10
14.7985612977
 20
-107.0654082985
 10
17.6041532631
 20
-105.9596561249
 10
20.1902536318
 20
-104.6880117398
 10
22.5275608532
 20
-103.2648833821
 10
24.5895923028
 20
-101.7063956648
 10
26.2382364785
 20
-100.15253279
  0
LWPOLYLINE
  5
30B
330
2B2
100
AcDbEntity
  8
0
  6
Continuous
 62
     7
370
    25
100
AcDbPolyline
 90
       13
 70
   128
 43
0.0
 10
22.7005492001
 20
-96.6532597809
 10
22.3653128802
 20
-94.9337067287
 10
21.6688384654
 20
-93.2506563594
 10
20.6215511934
 20
-91.6293015581
 10
19.2391274742
 20
-90.0939117145
 10
17.5422602371
 20
-88.6674694444
 10
15.5563491861
 20
-87.3713265725
 10
13.3111206028
 20
-86.2248845255
 10
10.8401823857
 20
-85.2453039204
 10
8.1805209873
 20
-84.4472476944
 10
5.3719477796
 20
-83.8426616213
 10
2.4565031337
 20
-83.4405954998
 10
-0.5221728647
 20
-83.2470676917
  0
LWPOLYLINE
  5
30C
330
2B2
100
AcDbEntity
  8
0
  6
Continuous
 62
     7
370
    25
100
AcDbPolyline
 90
        3
 70
   128
 43
0.0
 10
18.2505647392
 20
-105.1651429806
 10
17.3260385514
 20
-106.0180533699
 10
17.1729284108
 20
-106.1464907149
  0
LWPOLYLINE
  5
30D
330
2B2
100
AcDbEntity
  8
0
  6
Continuous
 62
     7
370
    25
100
AcDbPolyline
 90
       13
 70
   128
 43
0.0
 10
22.7005492001
 20
-96.6532597809
 10
22.4293315341
 20
-94.8637874775
 10
21.7815905854
 20
-93.116782524
 10
20.7676575549
 20
-91.4401089288
 10
19.403704256
 20
-89.8605089439
 10
17.7114851811
 20
-88.4031765372
 10
15.7179905263
 20
-87.0913555595
 10
13.4550157088
 20
-85.945969014
 10
10.9586542433
 20
-84.9852853436
 10
8.2687220651
 20
-84.2246270564
 10
5.4281224828
 20
-83.6761263384
 10
2.4821618875
 20
-83.3485315496
 10
-0.5221728647
 20
-83.2470676917
  0
LWPOLYLINE
  5
30F
330
2B2
100
AcDbEntity
  8
0
  6
Continuous
 62
     7
370
    25
100
AcDbPolyline
 90
        3
 70
   128
 43
0.0
 10
-305.4225923255
 20
-11.0788903564
 10
-305.4065962234
 20
-11.300581214
 10
-305.4051439359
 20
-11.3185706339
  0
LWPOLYLINE
  5
312
330
2B2
100
AcDbEntity
  8
0
  6
Continuous
 62
     7
370
    25
100
AcDbPolyline
 90
       15
 70
   128
 43
0.0
 10
98.9949493661
 20
47.350078085
 10
97.1079398593
 20
48.2940029811
 10
95.007437963
 20
49.0732897836
 10
92.7362038383
 20
49.6720744605
 10
90.3404732625
 20
50.0781674825
 10
87.8690164013
 20
50.2833019668
 10
85.3721449894
 20
50.2833019668
 10
82.9006881282
 20
50.0781674825
 10
80.5049575524
 20
49.6720744605
 10
78.2337234278
 20
49.0732897836
 10
76.1332215314
 20
48.2940029811
 10
74.2462120246
 20
47.350078085
 10
72.6111089792
 20
46.2607306841
 10
71.2611983779
 20
45.0481367501
 10
70.7716831509
 20
44.4902171423
  0
LWPOLYLINE
  5
318
330
2B2
100
AcDbEntity
  8
0
  6
Continuous
 62
     7
370
    25
100
AcDbPolyline
 90
       15
 70
   128
 43
0.0
 10
29.5368765545
 20
88.893597328
 10
27.6498670477
 20
89.8375222241
 10
25.5493651514
 20
90.6168090266
 10
23.2781310268
 20
91.2155937035
 10
20.882400451
 20
91.6216867255
 10
18.4109435898
 20
91.8268212098
 10
15.9140721778
 20
91.8268212098
 10
13.4426153166
 20
91.6216867255
 10
11.0468847408
 20
91.2155937035
 10
8.7756506162
 20
90.6168090266
 10
6.6751487198
 20
89.8375222241
 10
4.788139213
 20
88.893597328
 10
3.1530361676
 20
87.8042499271
 10
1.8031255664
 20
86.5916559931
 10
1.3136103394
 20
86.0337363853
  0
SPLINE
  5
31A
330
2B2
100
AcDbEntity
  8
0
  6
Continuous
 62
     8
370
    25
100
AcDbSpline
210
0.0
220
0.0
230
1.0
 70
     8
 71
     3
 72
    16
 73
    12
 74
     0
 42
0.000000001
 43
0.00000001
 40
0.0
 40
0.0
 40
0.0
 40
0.0
 40
0.1125211825274892
 40
0.2285839437018763
 40
0.3412283939624575
 40
0.4575111865003022
 40
0.5685339228736207
 40
0.6830438622608573
 40
0.7934170291552144
 40
0.9071892206880543
 40
1.0
 40
1.0
 40
1.0
 40
1.0
 10
-286.9593135597104
 20
50.28246130381594
 30
0.0
 10
-288.3560188830606
 20
49.44392343741974
 30
0.0
 10
-291.1933905123786
 20
47.7404549158605
 30
0.0
 10
-294.3200951674613
 20
44.64872172162764
 30
0.0
 10
-296.512517548193
 20
41.24930508106863
 30
0.0
 10
-297.5795903230493
 20
37.69304002903584
 30
0.0
 10
-297.5415233615557
 20
34.04355693519448
 30
0.0
 10
-296.4244918708672
 20
30.48529146317572
 30
0.0
 10
-294.2233530470554
 20
27.0500250691995
 30
0.0
 10
-291.3195030141036
 20
24.01859468350519
 30
0.0
 10
-288.7614895361399
 20
22.30409092641146
 30
0.0
 10
-287.6122601325282
 20
21.53382206456664
 30
0.0
  0
SPLINE
  5
31B
330
2B2
100
AcDbEntity
  8
0
  6
Continuous
 62
     8
370
    25
100
AcDbSpline
210
0.0
220
0.0
230
1.0
 70
     8
 71
     3
 72
    16
 73
    12
 74
     0
 42
0.000000001
 43
0.00000001
 40
0.0
 40
0.0
 40
0.0
 40
0.0
 40
0.0192677181862913
 40
0.1452344392582442
 40
0.2667688914874292
 40
0.3920783148987779
 40
0.512044111749165
 40
0.6353775814607684
 40
0.7574973487996189
 40
0.882792331323135
 40
1.0
 40
1.0
 40
1.0
 40
1.0
 10
216.7963179293811
 20
-92.6220233081458
 30
0.0
 10
217.0108398745897
 20
-92.47987713791223
 30
0.0
 10
218.6278437211129
 20
-91.40842077099973
 30
0.0
 10
220.73185149576
 20
-89.09646346362217
 30
0.0
 10
222.952939088254
 20
-85.76485654905397
 30
0.0
 10
223.9982612489114
 20
-82.33673168417832
 30
0.0
 10
223.9956156045846
 20
-78.90363757254734
 30
0.0
 10
222.9584804598866
 20
-75.59975046418027
 30
0.0
 10
220.8947009139318
 20
-72.4569060793789
 30
0.0
 10
218.0045683709831
 20
-69.6130510366416
 30
0.0
 10
215.4260789999761
 20
-67.99713859196696
 30
0.0
 10
214.1798298295534
 20
-67.21612721131304
 30
0.0
  0
LWPOLYLINE
  5
31F
330
2B2
100
AcDbEntity
  8
0
  6
Continuous
 62
     8
370
    25
100
AcDbPolyline
 90
       15
 70
   128
 43
0.0
 10
75.61203992
 20
-222.4505752499
 10
76.0674089178
 20
-223.257567761
 10
77.4803910592
 20
-225.3186084297
 10
79.1057469529
 20
-227.1077925271
 10
80.9320999855
 20
-228.6125967308
 10
82.9466666723
 20
-229.8224882243
 10
85.1353461346
 20
-230.7289984206
 10
87.4828187982
 20
-231.3257822379
 10
89.9726536225
 20
-231.6086625118
 10
92.5874231084
 20
-231.5756592332
 10
95.308825282
 20
-231.2270034072
 10
98.1178117978
 20
-230.5651354363
 10
100.9947212674
 20
-229.5946880388
 10
103.9194168785
 20
-228.3224538223
 10
106.8714273414
 20
-226.7573377392
  0
LWPOLYLINE
  5
322
330
2B2
100
AcDbEntity
  8
0
  6
Continuous
 62
     8
370
    25
100
AcDbPolyline
 90
       18
 70
   128
 43
0.0
 10
170.9582327919
 20
15.4181942646
 10
169.071223285
 20
16.3621191607
 10
166.9707213887
 20
17.1414059632
 10
164.6994872641
 20
17.7401906401
 10
162.3037566883
 20
18.1462836621
 10
159.8322998271
 20
18.3514181464
 10
157.3354284151
 20
18.3514181464
 10
154.8639715539
 20
18.1462836621
 10
152.4682409781
 20
17.7401906401
 10
150.1970068535
 20
17.1414059632
 10
148.0965049571
 20
16.3621191607
 10
146.2094954503
 20
15.4181942646
 10
144.5743924049
 20
14.3288468637
 10
143.2244818037
 20
13.1162529297
 10
142.1872439336
 20
11.8050973783
 10
141.4837939666
 20
10.4220715554
 10
141.1284521154
 20
8.9953298785
 10
141.0852152525
 20
8.400158839
  0
LWPOLYLINE
  5
323
330
2B2
100
AcDbEntity
  8
0
  6
Continuous
 62
     8
370
    25
100
AcDbPolyline
 90
        7
 70
   128
 43
0.0
 10
176.0831393479
 20
8.1826793916
 10
176.0392761268
 20
8.9953298785
 10
175.6839342756
 20
10.4220715554
 10
174.9804843086
 20
11.8050973783
 10
173.9432464385
 20
13.1162529297
 10
172.5933358373
 20
14.3288468637
 10
170.9582327919
 20
15.4181942646
  0
LWPOLYLINE
  5
324
330
2B2
100
AcDbEntity
  8
0
  6
Continuous
 62
     8
370
    25
100
AcDbPolyline
 90
       30
 70
   128
 43
0.0
 10
20.7989898732
 20
-78.2908065632
 10
18.2724454444
 20
-76.9798704203
 10
15.5188374014
 20
-75.8313946176
 10
12.5693652237
 20
-74.8583918448
 10
9.4574476097
 20
-74.0718866123
 10
6.2183438292
 20
-73.4807903384
 10
2.8887542226
 20
-73.0918003803
 10
-0.4935956297
 20
-72.9093241495
 10
-3.8903823522
 20
-72.9354291746
 10
-7.263118994
 20
-73.1698196754
 10
-10.5735911014
 20
-73.6098399138
 10
-13.7842897026
 20
-74.2505042846
 10
-16.8588362994
 20
-75.0845538045
 10
-19.7623950505
 20
-76.1025383592
 10
-22.4620674749
 20
-77.292923777
 10
-24.9272652054
 20
-78.6422225153
 10
-27.1300565667
 20
-80.1351464804
 10
-29.0454830523
 20
-81.7547802471
 10
-30.6518421149
 20
-83.4827727178
 10
-31.9309330645
 20
-85.2995450472
 10
-32.8682632894
 20
-87.1845124789
 10
-33.4532124637
 20
-89.1163175787
 10
-33.6791528795
 20
-91.073072223
 10
-33.5435245416
 20
-93.0326055997
 10
-33.0478641733
 20
-94.9727154127
 10
-32.1977878046
 20
-96.8714194425
 10
-31.0029271404
 20
-98.7072046139
 10
-29.4768204295
 20
-100.4592707473
 10
-27.6367590707
 20
-102.1077662333
 10
-25.9665654296
 20
-103.3299979327
  0
LWPOLYLINE
  5
325
330
2B2
100
AcDbEntity
  8
0
  6
Continuous
 62
     8
370
    25
100
AcDbPolyline
 90
       14
 70
   128
 43
0.0
 10
26.2382364785
 20
-100.15253279
 10
26.3529843401
 20
-100.0302068765
 10
27.7977570287
 20
-98.2553089059
 10
28.9075405169
 20
-96.4018120563
 10
29.6697605142
 20
-94.4907171875
 10
30.0757807635
 20
-92.543677768
 10
30.1210008932
 20
-90.5827545326
 10
29.804908541
 20
-88.6301655249
 10
29.1310851597
 20
-86.7080343587
 10
28.1071654374
 20
-84.838139548
 10
26.7447507937
 20
-83.0416677484
 10
25.0592779309
 20
-81.3389737031
 10
23.06984393
 20
-79.749349616
 10
20.7989898732
 20
-78.2908065632
  0
LWPOLYLINE
  5
326
330
2B2
100
AcDbEntity
  8
0
  6
Continuous
 62
     8
370
    25
100
AcDbPolyline
 90
       10
 70
   128
 43
0.0
 10
-295.0610917192
 20
14.0016221308
 10
-297.847587795
 20
15.7661831821
 10
-300.3401659573
 20
17.6716407276
 10
-302.5175604081
 20
19.7017380753
 10
-304.3611943857
 20
21.8391551506
 10
-305.8553386551
 20
24.0656562645
 10
-306.9872457041
 20
26.3622456946
 10
-307.7472585009
 20
28.7093297497
 10
-308.1288928843
 20
31.0868839361
 10
-308.1338840975
 20
31.1509282154
  0
LWPOLYLINE
  5
328
330
2B2
100
AcDbEntity
  8
0
  6
Continuous
 62
     8
370
    25
100
AcDbPolyline
 90
       36
 70
   128
 43
0.0
 10
-20.7084623167
 20
-106.1464907149
 10
-21.6386735663
 20
-105.3111556709
 10
-22.9548542437
 20
-103.8199349032
 10
-23.9369018979
 20
-102.2452427944
 10
-24.5693290509
 20
-100.6119131796
 10
-24.8421619486
 20
-98.9457046426
 10
-24.7510978532
 20
-97.2728942874
 10
-24.2975729
 20
-95.6198633326
 10
-23.4887394483
 20
-94.0126810637
 10
-22.3373532849
 20
-92.4766937052
 10
-20.8615724574
 20
-91.0361246955
 10
-19.084670911
 20
-89.7136926682
 10
-17.0346714445
 20
-88.5302531664
 10
-14.7439037742
 20
-87.504469738
 10
-12.2484946747
 20
-86.6525196006
 10
-9.5877982381
 20
-85.9878385166
 10
-6.8037752367
 20
-85.5209089038
 10
-3.9403313762
 20
-85.2590945212
 10
-1.042624877
 20
-85.2065243379
 10
1.8436456984
 20
-85.3640274172
 10
4.6729621391
 20
-85.7291198414
 10
7.4007044344
 20
-86.2960438849
 10
9.983854459
 20
-87.0558588168
 10
12.3816743938
 20
-87.9965819019
 10
14.5563491861
 20
-89.103377375
 10
16.4735829154
 20
-90.3587904103
 10
18.1031396603
 20
-91.7430223945
 10
19.4193203377
 20
-93.2342431622
 10
20.401367992
 20
-94.808935271
 10
21.0337951449
 20
-96.4422648858
 10
21.3066280426
 20
-98.1084734228
 10
21.2155639473
 20
-99.781283778
 10
20.7620389941
 20
-101.4343147328
 10
19.9532055424
 20
-103.0414970017
 10
18.801819379
 20
-104.5774843601
 10
18.2505647392
 20
-105.1651429806
  0
LWPOLYLINE
  5
329
330
2B2
100
AcDbEntity
  8
0
  6
Continuous
 62
     8
370
    25
100
AcDbPolyline
 90
        9
 70
   128
 43
0.0
 10
-305.4051439359
 20
-11.3185706339
 10
-305.0481875153
 20
-13.5334411489
 10
-304.3344279157
 20
-15.7376853174
 10
-303.27140697
 20
-17.8945078852
 10
-301.868193998
 20
-19.9855076028
 10
-300.136760718
 20
-21.9928447979
 10
-298.0918791083
 20
-23.8993935772
 10
-295.7509953778
 20
-25.6888879389
 10
-293.1340811211
 20
-27.3460605479
  0
LWPOLYLINE
  5
32A
330
2B2
100
AcDbEntity
  8
0
  6
Continuous
 62
     8
370
    25
100
AcDbPolyline
 90
       20
 70
   128
 43
0.0
 10
14.1421356237
 20
-90.4972608651
 10
12.0226417542
 20
-89.4185495891
 10
9.6856649014
 20
-88.5016967251
 10
7.1680605863
 20
-87.7611615905
 10
4.5095329329
 20
-87.2086228666
 10
1.7520085104
 20
-86.8527944192
 10
-1.0610248737
 20
-86.6992878755
 10
-3.8852040026
 20
-86.7505241254
 10
-6.6759898844
 20
-87.0056951427
 10
-9.3893701585
 20
-87.4607767279
 10
-11.9825531971
 20
-88.1085919726
 10
-14.4146429546
 20
-88.9389244433
 10
-16.6472839227
 20
-89.9386793012
 10
-18.6452660197
 20
-91.0920898147
 10
-20.3770798741
 20
-92.3809660111
 10
-21.8154137472
 20
-93.7849815428
 10
-22.9375842544
 20
-95.2819942462
 10
-23.7258940966
 20
-96.8483953366
 10
-24.1679111565
 20
-98.4594817332
 10
-24.267766953
 20
-99.6818521231
  0
LWPOLYLINE
  5
32B
330
2B2
100
AcDbEntity
  8
0
  6
Continuous
 62
     8
370
    25
100
AcDbPolyline
 90
        8
 70
   128
 43
0.0
 10
20.7322269236
 20
-99.6722692102
 10
20.7211306553
 20
-99.2738586051
 10
20.4552207104
 20
-97.6499289988
 10
19.8388409748
 20
-96.0580440339
 10
18.8817121249
 20
-94.5233086874
 10
17.5989286546
 20
-93.0699266524
 10
16.0107208255
 20
-91.7208186318
 10
14.1421356237
 20
-90.4972608651
  0
LWPOLYLINE
  5
32C
330
2B2
100
AcDbEntity
  8
0
  6
Continuous
 62
     8
370
    25
100
AcDbPolyline
 90
       18
 70
   128
 43
0.0
 10
98.9949493661
 20
55.5154862038
 10
97.1079398593
 20
56.4594110999
 10
95.007437963
 20
57.2386979024
 10
92.7362038383
 20
57.8374825793
 10
90.3404732625
 20
58.2435756014
 10
87.8690164013
 20
58.4487100856
 10
85.3721449894
 20
58.4487100856
 10
82.9006881282
 20
58.2435756014
 10
80.5049575524
 20
57.8374825793
 10
78.2337234278
 20
57.2386979024
 10
76.1332215314
 20
56.4594110999
 10
74.2462120246
 20
55.5154862038
 10
72.6111089792
 20
54.4261388029
 10
71.2611983779
 20
53.213544869
 10
70.2239605079
 20
51.9023893176
 10
69.5205105409
 20
50.5193634947
 10
69.1651686897
 20
49.0926218178
 10
69.1219318267
 20
48.4974507782
  0
LWPOLYLINE
  5
32D
330
2B2
100
AcDbEntity
  8
0
  6
Continuous
 62
     8
370
    25
100
AcDbPolyline
 90
        7
 70
   128
 43
0.0
 10
104.1198559222
 20
48.2799713308
 10
104.075992701
 20
49.0926218178
 10
103.7206508498
 20
50.5193634947
 10
103.0172008828
 20
51.9023893176
 10
101.9799630128
 20
53.213544869
 10
100.6300524115
 20
54.4261388029
 10
98.9949493661
 20
55.5154862038
  0
SPLINE
  5
32E
330
2B2
100
AcDbEntity
  8
0
  6
Continuous
 62
     8
370
    25
100
AcDbSpline
210
0.0
220
0.0
230
1.0
 70
     8
 71
     3
 72
    18
 73
    14
 74
     0
 42
0.000000001
 43
0.00000001
 40
0.0
 40
0.0
 40
0.0
 40
0.0
 40
0.0719268704771601
 40
0.1790023301698633
 40
0.2860777898625671
 40
0.3530946069216382
 40
0.4601700666143433
 40
0.5672455263070483
 40
0.6743209859997521
 40
0.7813964456924543
 40
0.8884719053851599
 40
0.995547365077865
 40
1.0
 40
1.0
 40
1.0
 40
1.0
 10
16.81945842287596
 20
32.21321098925159
 30
0.0
 10
16.47508612461293
 20
32.0225558628422
 30
0.0
 10
15.61805670812235
 20
31.54807794298127
 30
0.0
 10
14.91360019016966
 20
29.83424209614797
 30
0.0
 10
14.77942064416268
 20
27.72825952197253
 30
0.0
 10
15.17536584069989
 20
25.37187354533032
 30
0.0
 10
16.06202212670662
 20
22.91004803345474
 30
0.0
 10
17.65831844203752
 20
20.27610838737635
 30
0.0
 10
19.65050262924369
 20
18.12328772044026
 30
0.0
 10
21.83590389467481
 20
16.6624510064399
 30
0.0
 10
23.88786118532244
 20
16.18015919986975
 30
0.0
 10
25.23961604890468
 20
16.24482724880899
 30
0.0
 10
25.67504298937218
 20
16.68775705928198
 30
0.0
 10
25.69242692485372
 20
16.70544053848941
 30
0.0
  0
LWPOLYLINE
  5
32F
330
2B2
100
AcDbEntity
  8
0
  6
Continuous
 62
     8
370
    25
100
AcDbPolyline
 90
       18
 70
   128
 43
0.0
 10
29.5368765545
 20
97.0590054468
 10
27.6498670477
 20
98.0029303429
 10
25.5493651514
 20
98.7822171455
 10
23.2781310268
 20
99.3810018224
 10
20.882400451
 20
99.7870948444
 10
18.4109435898
 20
99.9922293286
 10
15.9140721778
 20
99.9922293286
 10
13.4426153166
 20
99.7870948444
 10
11.0468847408
 20
99.3810018224
 10
8.7756506162
 20
98.7822171455
 10
6.6751487198
 20
98.0029303429
 10
4.788139213
 20
97.0590054468
 10
3.1530361676
 20
95.969658046
 10
1.8031255664
 20
94.757064112
 10
0.7658876963
 20
93.4459085606
 10
0.0624377293
 20
92.0628827377
 10
-0.2929041219
 20
90.6361410608
 10
-0.3361409849
 20
90.0409700213
  0
LWPOLYLINE
  5
330
330
2B2
100
AcDbEntity
  8
0
  6
Continuous
 62
     8
370
    25
100
AcDbPolyline
 90
        7
 70
   128
 43
0.0
 10
34.6617831106
 20
89.8234905739
 10
34.6179198895
 20
90.6361410608
 10
34.2625780383
 20
92.0628827377
 10
33.5591280713
 20
93.4459085606
 10
32.5218902012
 20
94.757064112
 10
31.1719796
 20
95.969658046
 10
29.5368765545
 20
97.0590054468
  0
LINE
  5
332
330
2B2
100
AcDbEntity
  8
0
  6
Continuous
 62
     7
370
    25
100
AcDbLine
 10
90.7839350845
 20
-216.782605434
 30
0.0
 11
324.1291728761
 21
-82.0752669833
 31
0.0
  0
LINE
  5
333
330
2B2
100
AcDbEntity
  8
0
  6
Continuous
 62
     7
370
    25
100
AcDbLine
 10
-292.3093677227
 20
-29.0087397148
 30
0.0
 11
32.9597516232
 21
-216.782605434
 31
0.0
  0
LINE
  5
334
330
2B2
100
AcDbEntity
  8
0
  6
Continuous
 62
     7
370
    25
100
AcDbLine
 10
51.3290086182
 20
-222.9270760296
 30
0.0
 11
70.0836657573
 21
-233.7539091404
 31
0.0
  0
LINE
  5
335
330
2B2
100
AcDbEntity
  8
0
  6
Continuous
 62
     7
370
    25
100
AcDbLine
 10
104.8025066807
 20
-231.1178389484
 30
0.0
 11
291.7554505694
 21
-123.1922017033
 31
0.0
  0
LINE
  5
336
330
2B2
100
AcDbEntity
  8
0
  6
Continuous
 62
     7
370
    25
100
AcDbLine
 10
-308.145925569
 20
31.3229408505
 30
0.0
 11
-305.4225923255
 21
-11.0788903564
 31
0.0
  0
LINE
  5
337
330
2B2
100
AcDbEntity
  8
0
  6
Continuous
 62
     7
370
    25
100
AcDbLine
 10
-60.8911405292
 20
187.2717787763
 30
0.0
 11
-294.2363783208
 21
52.5644403255
 31
0.0
  0
LINE
  5
338
330
2B2
100
AcDbEntity
  8
0
  6
Continuous
 62
     7
370
    25
100
AcDbLine
 10
90.7111082174
 20
-168.7045640583
 30
0.0
 11
324.0563460089
 21
-33.9972256075
 31
0.0
  0
LINE
  5
339
330
2B2
100
AcDbEntity
  8
0
  6
Continuous
 62
     7
370
    25
100
AcDbLine
 10
-292.2365408555
 20
19.0693016609
 30
0.0
 11
33.0325784903
 21
-168.7045640583
 31
0.0
  0
LINE
  5
33A
330
2B2
100
AcDbEntity
  8
0
  6
Continuous
 62
     7
370
    25
100
AcDbLine
 10
-58.891303064
 20
187.0737465743
 30
0.0
 11
-292.2365408555
 21
52.3664081235
 31
0.0
  0
LINE
  5
33B
330
2B2
100
AcDbEntity
  8
0
  6
Continuous
 62
     7
370
    25
100
AcDbLine
 10
324.0563460089
 20
-33.9972256075
 30
0.0
 11
-58.891303064
 21
187.0737465743
 31
0.0
  0
LINE
  5
33C
330
2B2
100
AcDbEntity
  8
0
  6
Continuous
 62
     7
370
    25
100
AcDbLine
 10
91.6086484829
 20
-215.1199262671
 30
0.0
 11
93.535659081
 21
-173.7722435884
 31
0.0
  0
LINE
  5
33D
330
2B2
100
AcDbEntity
  8
0
  6
Continuous
 62
     7
370
    25
100
AcDbLine
 10
32.1350382248
 20
-215.1199262671
 30
0.0
 11
30.2080276266
 21
-173.7722435884
 31
0.0
  0
LINE
  5
33E
330
2B2
100
AcDbEntity
  8
0
  6
Continuous
 62
     7
370
    25
100
AcDbLine
 10
-82.7314933988
 20
1.2100151608
 30
0.0
 11
-160.5132393293
 21
-43.6924309894
 31
0.0
  0
LINE
  5
33F
330
2B2
100
AcDbEntity
  8
0
  6
Continuous
 62
     7
370
    25
100
AcDbLine
 10
157.6848122046
 20
-121.2512016126
 30
0.0
 11
-54.4472221514
 21
1.2100151608
 31
0.0
  0
LINE
  5
340
330
2B2
100
AcDbEntity
  8
0
  6
Continuous
 62
     7
370
    25
100
AcDbLine
 10
-287.6122601325
 20
21.5338220646
 30
0.0
 11
-286.9611526744
 21
21.0693664236
 31
0.0
  0
LINE
  5
341
330
2B2
100
AcDbEntity
  8
0
  6
Continuous
 62
     7
370
    25
100
AcDbLine
 10
-162.4971346511
 20
122.0923554689
 30
0.0
 11
-286.2252875155
 21
50.6656131812
 31
0.0
  0
LINE
  5
342
330
2B2
100
AcDbEntity
  8
0
  6
Continuous
 62
     7
370
    25
100
AcDbLine
 10
212.196316781
 20
-66.166697312
 30
0.0
 11
-108.9587267278
 21
119.23216298
 31
0.0
  0
LINE
  5
343
330
2B2
100
AcDbEntity
  8
0
  6
Continuous
 62
     7
370
    25
100
AcDbLine
 10
326.8808968726
 20
-39.0649051376
 30
0.0
 11
93.535659081
 21
-173.7722435884
 31
0.0
  0
LINE
  5
344
330
2B2
100
AcDbEntity
  8
0
  6
Continuous
 62
     7
370
    25
100
AcDbLine
 10
30.2080276266
 20
-173.7722435884
 30
0.0
 11
-295.0610917192
 21
14.0016221308
 31
0.0
  0
LINE
  5
345
330
2B2
100
AcDbEntity
  8
0
  6
Continuous
 62
     7
370
    25
100
AcDbLine
 10
324.9538862745
 20
-80.4125878163
 30
0.0
 11
326.8808968726
 21
-39.0649051376
 31
0.0
  0
LINE
  5
346
330
2B2
100
AcDbEntity
  8
0
  6
Continuous
 62
     7
370
    25
100
AcDbLine
 10
91.6086484829
 20
-215.1199262671
 30
0.0
 11
324.9538862745
 21
-80.4125878163
 31
0.0
  0
LINE
  5
347
330
2B2
100
AcDbEntity
  8
0
  6
Continuous
 62
     7
370
    25
100
AcDbLine
 10
-293.1340811211
 20
-27.3460605479
 30
0.0
 11
32.1350382248
 21
-215.1199262671
 31
0.0
  0
LINE
  5
348
330
2B2
100
AcDbEntity
  8
0
  6
Continuous
 62
     7
370
    25
100
AcDbLine
 10
-293.1340811211
 20
-27.3460605479
 30
0.0
 11
-295.0610917192
 21
14.0016221308
 31
0.0
  0
LINE
  5
349
330
2B2
100
AcDbEntity
  8
0
  6
Continuous
 62
     7
370
    25
100
AcDbLine
 10
106.8714273414
 20
-226.7573377392
 30
0.0
 11
293.82437123
 21
-118.8317004941
 31
0.0
  0
LINE
  5
34A
330
2B2
100
AcDbEntity
  8
0
  6
Continuous
 62
     7
370
    25
100
AcDbLine
 10
293.82437123
 20
-118.8317004941
 30
0.0
 11
294.2851521045
 21
-99.3038534539
 31
0.0
  0
LINE
  5
34B
330
2B2
100
AcDbEntity
  8
0
  6
Continuous
 62
     7
370
    25
100
AcDbLine
 10
141.0852152525
 20
8.400158839
 30
0.0
 11
141.0838641211
 21
8.2746232861
 31
0.0
  0
LINE
  5
34C
330
2B2
100
AcDbEntity
  8
0
  6
Continuous
 62
     7
370
    25
100
AcDbLine
 10
16.494364039
 20
80.6838041746
 30
0.0
 11
14.4956890143
 21
81.8376147068
 31
0.0
  0
LINE
  5
34D
330
2B2
100
AcDbEntity
  8
0
  6
Continuous
 62
     7
370
    25
100
AcDbLine
 10
-308.1338840975
 20
31.1509282154
 30
0.0
 11
-308.145925569
 21
31.3229408505
 31
0.0
  0
LINE
  5
34E
330
2B2
100
AcDbEntity
  8
0
  6
Continuous
 62
     7
370
    25
100
AcDbLine
 10
-24.267766953
 20
-99.6818521231
 30
0.0
 11
-24.262990736
 21
-99.9494714941
 31
0.0
  0
LINE
  5
34F
330
2B2
100
AcDbEntity
  8
0
  6
Continuous
 62
     7
370
    25
100
AcDbLine
 10
69.1219318267
 20
48.4974507782
 30
0.0
 11
69.1205806954
 21
48.3719152254
 31
0.0
  0
LINE
  5
350
330
2B2
100
AcDbEntity
  8
0
  6
Continuous
 62
     7
370
    25
100
AcDbLine
 10
-0.3361409849
 20
90.0409700213
 30
0.0
 11
-0.3374921162
 21
89.9154344684
 31
0.0
  0
LINE
  5
351
330
2B2
100
AcDbEntity
  8
0
  6
Continuous
 62
     8
370
    25
100
AcDbLine
 10
14.4956890143
 20
81.8376147068
 30
0.0
 11
26.567737674
 21
88.8066600577
 31
0.0
  0
ARC
  5
352
330
2B2
100
AcDbEntity
  8
0
  6
Continuous
 62
     7
370
    25
100
AcDbCircle
 10
36.3015121755
 20
-173.8475493259
 30
0.0
 40
6.093949860474021
100
AcDbArc
 50
122.4404541696
 51
179.2919517135
  0
ARC
  5
353
330
2B2
100
AcDbEntity
  8
0
  6
Continuous
 62
     7
370
    25
100
AcDbCircle
 10
87.4421745321
 20
-173.8475493259
 30
0.0
 40
6.093949860473753
100
AcDbArc
 50
0.7080482865
 51
57.5595458305
  0
ARC
  5
354
330
2B2
100
AcDbEntity
  8
0
  6
Continuous
 62
     7
370
    25
100
AcDbCircle
 10
89.8650022672
 20
-168.3616152065
 30
0.0
 40
1.855487839049199
100
AcDbArc
 50
51.8238050011
 51
118.8598988856
  0
ARC
  5
355
330
2B2
100
AcDbEntity
  8
0
  6
Continuous
 62
     7
370
    25
100
AcDbCircle
 10
37.4392794663
 20
-168.3694021034
 30
0.0
 40
1.877902771624122
100
AcDbArc
 50
62.446045243
 51
127.8413439193
  0
ARC
  5
356
330
2B2
100
AcDbEntity
  8
0
  6
Continuous
 62
     7
370
    25
100
AcDbCircle
 10
-68.5893577751
 20
-25.9468511831
 30
0.0
 40
30.61854649748563
100
AcDbArc
 50
62.4914255688
 51
117.5085744312
  0
ARC
  5
357
330
2B2
100
AcDbEntity
  8
0
  6
Continuous
 62
     7
370
    25
100
AcDbCircle
 10
-154.9563116618
 20
-54.4193596974
 30
0.0
 40
12.08082963239226
100
AcDbArc
 50
117.3857509991
 51
152.9736458936
  0
ARC
  5
358
330
2B2
100
AcDbEntity
  8
0
  6
Continuous
 62
     7
370
    25
100
AcDbCircle
 10
151.0737341684
 20
-133.3122285066
 30
0.0
 40
13.7540802141766
100
AcDbArc
 50
38.5814990396
 51
61.2712847095
  0
ARC
  5
359
330
2B2
100
AcDbEntity
  8
0
  6
Continuous
 62
     7
370
    25
100
AcDbCircle
 10
-287.9243792515
 20
19.2595785306
 30
0.0
 40
2.050155520038544
100
AcDbArc
 50
61.9766743606
 51
124.5490078118
  0
ARC
  5
35A
330
2B2
100
AcDbEntity
  8
0
  6
Continuous
 62
     7
370
    25
100
AcDbCircle
 10
320.7874123237
 20
-39.1402108752
 30
0.0
 40
6.093949860474965
100
AcDbArc
 50
0.7080482865
 51
57.5595458304
  0
ARC
  5
35B
330
2B2
100
AcDbEntity
  8
0
  6
Continuous
 62
     7
370
    25
100
AcDbCircle
 10
-288.9676071703
 20
13.9263163933
 30
0.0
 40
6.093949860474019
100
AcDbArc
 50
122.4404541696
 51
179.2919517135
  0
ARC
  5
35C
330
2B2
100
AcDbEntity
  8
0
  6
Continuous
 62
     7
370
    25
100
AcDbCircle
 10
214.3792392946
 20
-96.5861860326
 30
0.0
 40
1.933771028458658
100
AcDbArc
 50
53.4720937879
 51
120.1208745226
  0
ARC
  5
35D
330
2B2
100
AcDbEntity
  8
0
  6
Continuous
 62
     7
370
    25
100
AcDbCircle
 10
323.0958518435
 20
-80.526849915
 30
0.0
 40
1.86154445928657
100
AcDbArc
 50
303.7167777616
 51
3.5190423775
  0
ARC
  5
35E
330
2B2
100
AcDbEntity
  8
0
  6
Continuous
 62
     7
370
    25
100
AcDbCircle
 10
219.9848617031
 20
-67.7546211177
 30
0.0
 40
5.829954608718895
100
AcDbArc
 50
118.4326409954
 51
174.7002213409
  0
ARC
  5
35F
330
2B2
100
AcDbEntity
  8
0
  6
Continuous
 62
     7
370
    25
100
AcDbCircle
 10
288.9261605546
 20
-119.1787230974
 30
0.0
 40
4.910488011141146
100
AcDbArc
 50
305.1818110716
 51
4.0524521638
  0
ARC
  5
360
330
2B2
100
AcDbEntity
  8
0
  6
Continuous
 62
     7
370
    25
100
AcDbCircle
 10
-104.4687410711
 20
120.1111046713
 30
0.0
 40
6.635596686970699
100
AcDbArc
 50
127.2631805633
 51
176.1405738019
  0
ARC
  5
361
330
2B2
100
AcDbEntity
  8
0
  6
Continuous
 62
     7
370
    25
100
AcDbCircle
 10
165.0985800525
 20
-3.4053876599
 30
0.0
 40
12.16273814134016
100
AcDbArc
 50
39.7675003487
 51
61.1988767272
  0
ARC
  5
362
330
2B2
100
AcDbEntity
  8
0
  6
Continuous
 62
     7
370
    25
100
AcDbCircle
 10
12.905825357
 20
80.8939445699
 30
0.0
 40
15.80440358183102
100
AcDbArc
 50
7.4279646717
 51
38.3126045445
  0
ARC
  5
363
330
2B2
100
AcDbEntity
  8
0
  6
Continuous
 62
     7
370
    25
100
AcDbCircle
 10
22.848813587
 20
94.8506926286
 30
0.0
 40
15.46334010249781
100
AcDbArc
 50
196.8280741634
 51
237.3035014612
  0
ARC
  5
364
330
2B2
100
AcDbEntity
  8
0
  6
Continuous
 62
     7
370
    25
100
AcDbCircle
 10
-292.0700745161
 20
47.5592795897
 30
0.0
 40
5.790992678461215
100
AcDbArc
 50
28.0501604042
 51
59.3260230831
  0
ARC
  5
365
330
2B2
100
AcDbEntity
  8
0
  6
Continuous
 62
     7
370
    25
100
AcDbCircle
 10
93.1123673477
 20
36.6598559247
 30
0.0
 40
12.20186957145283
100
AcDbArc
 50
40.1256347017
 51
61.1770283065
  0
ARC
  5
366
330
2B2
100
AcDbEntity
  8
0
  6
Continuous
 62
     7
370
    25
100
AcDbCircle
 10
-167.7461163282
 20
119.4453076356
 30
0.0
 40
5.878662337534919
100
AcDbArc
 50
26.7616908766
 51
57.8580602376
  0
ARC
  5
367
330
2B2
100
AcDbEntity
  8
0
  6
Continuous
 62
     7
370
    25
100
AcDbCircle
 10
-60.0617200404
 20
185.4509781762
 30
0.0
 40
2.000813127825902
100
AcDbArc
 50
54.19908268
 51
114.4904588909
  0
ARC
  5
368
330
2B2
100
AcDbEntity
  8
0
  6
Continuous
 62
     7
370
    25
100
AcDbCircle
 10
36.4310446926
 20
33.2738912253
 30
0.0
 40
14.61743039151797
100
AcDbArc
 50
192.2130571519
 51
227.9209810858
  0
ARC
  5
369
330
2B2
100
AcDbEntity
  8
0
  6
Continuous
 62
     7
370
    25
100
AcDbCircle
 10
23.6542945361
 20
78.2033751677
 30
0.0
 40
12.20186957145186
100
AcDbArc
 50
40.1256347017
 51
61.1770283065
  0
ARC
  5
36A
330
2B2
100
AcDbEntity
  8
0
  6
Continuous
 62
     8
370
    25
100
AcDbCircle
 10
34.0413540797
 20
-215.2103199603
 30
0.0
 40
1.908457795879455
100
AcDbArc
 50
177.2851819935
 51
235.44881783
  0
ARC
  5
36B
330
2B2
100
AcDbEntity
  8
0
  6
Continuous
 62
     8
370
    25
100
AcDbCircle
 10
89.702346213
 20
-215.2103231728
 30
0.0
 40
1.908444378224016
100
AcDbArc
 50
304.5497350559
 51
2.7149336609
  0
ARC
  5
36C
330
2B2
100
AcDbEntity
  8
0
  6
Continuous
 62
     8
370
    25
100
AcDbCircle
 10
-291.2280730733
 20
-27.4365270247
 30
0.0
 40
1.908153783550757
100
AcDbArc
 50
177.2825612183
 51
235.4816186427
  0
ARC
  5
36D
330
2B2
100
AcDbEntity
  8
0
  6
Continuous
 62
     8
370
    25
100
AcDbCircle
 10
81.058946055
 20
-215.4070449438
 30
0.0
 40
21.37875293048602
100
AcDbArc
 50
203.2962309094
 51
239.1644280239
  0
ARC
  5
36E
330
2B2
100
AcDbEntity
  8
0
  6
Continuous
 62
     8
370
    25
100
AcDbCircle
 10
101.9739115092
 20
-227.1045039318
 30
0.0
 40
4.909805056333528
100
AcDbArc
 50
305.1548914688
 51
4.054696645
  0
ARC
  5
36F
330
2B2
100
AcDbEntity
  8
0
  6
Continuous
 62
     8
370
    25
100
AcDbCircle
 10
-293.406844261
 20
50.743962111
 30
0.0
 40
2.000485222247043
100
AcDbArc
 50
54.1963195793
 51
114.5214956683
  0
VIEWPORT
  5
376
330
2B2
100
AcDbEntity
  8
0
100
AcDbViewport
 10
0.0
 20
0.0
 30
0.0
 40
205.6
 41
156.0
 68
     1
 69
     1
 12
0.0
 22
0.1075602506
 13
0.0
 23
0.0
 14
10.0
 24
10.0
 15
10.0
 25
10.0
 16
0.0
 26
0.0
 36
1.0
 17
0.0
 27
0.0
 37
0.0
 42
50.0
 43
0.0
 44
0.0
 45
425.3285021971
 50
0.0
 51
0.0
 72
   100
 90
   557152
  1

281
     0
 71
     1
 74
     0
110
0.0
120
0.0
130
0.0
111
1.0
121
0.0
131
0.0
112
0.0
122
1.0
132
0.0
 79
     0
146
0.0
  0
ENDBLK
  5
2B5
330
2B2
100
AcDbEntity
  8
0
100
AcDbBlockEnd
  0
ENDSEC
  0
SECTION
  2
ENTITIES
  0
SPLINE
  5
78
330
1F
100
AcDbEntity
  8
0
  6
Continuous
 62
     7
370
    25
100
AcDbSpline
210
0.0
220
0.0
230
1.0
 70
     8
 71
     3
 72
     8
 73
     4
 74
     0
 42
0.000000001
 43
0.00000001
 40
0.0
 40
0.0
 40
0.0
 40
0.0
 40
1.0
 40
1.0
 40
1.0
 40
1.0
 10
-229.9999999997812
 20
-175.8243539865887
 30
0.0
 10
-229.6825194702029
 20
-175.8236562086448
 30
0.0
 10
-229.3650833719773
 20
-175.8187797787743
 30
0.0
 10
-229.0477753870421
 20
-175.8097192508957
 30
0.0
  0
SPLINE
  5
7A
330
1F
100
AcDbEntity
  8
0
  6
Continuous
 62
     7
370
    25
100
AcDbSpline
210
0.0
220
0.0
230
1.0
 70
     8
 71
     3
 72
     8
 73
     4
 74
     0
 42
0.000000001
 43
0.00000001
 40
0.0
 40
0.0
 40
0.0
 40
0.0
 40
1.0
 40
1.0
 40
1.0
 40
1.0
 10
229.0477753870421
 20
-175.8097192508957
 30
0.0
 10
229.3650833719952
 20
-175.8187797785142
 30
0.0
 10
229.6825194702044
 20
-175.8236562086449
 30
0.0
 10
229.9999999997811
 20
-175.8243539865888
 30
0.0
  0
SPLINE
  5
7C
330
1F
100
AcDbEntity
  8
0
  6
Continuous
 62
     7
370
    25
100
AcDbSpline
210
0.0
220
0.0
230
1.0
 70
     8
 71
     3
 72
    25
 73
    21
 74
     0
 42
0.000000001
 43
0.00000001
 40
0.0
 40
0.0
 40
0.0
 40
0.0
 40
0.0039062499999999
 40
0.0039062499999999
 40
0.0078124999999999
 40
0.0156249999999998
 40
0.0312499999999997
 40
0.0624999999999998
 40
0.1249999999999998
 40
0.2499999999999999
 40
0.5000000000000001
 40
0.7500000000000003
 40
0.8750000000000003
 40
0.9375000000000002
 40
0.9687500000000001
 40
0.984375
 40
0.9921875
 40
0.99609375
 40
0.99609375
 40
1.0
 40
1.0
 40
1.0
 40
1.0
 10
230.0743556248198
 20
-178.7564639563752
 30
0.0
 10
229.4752060113377
 20
-178.7716578421643
 30
0.0
 10
228.8760537023609
 20
-178.7694795444795
 30
0.0
 10
227.6777497603834
 20
-178.7694795444795
 30
0.0
 10
225.8802938474169
 20
-178.7694795444794
 30
0.0
 10
221.6862300504957
 20
-178.7694795444795
 30
0.0
 10
213.2981024566525
 20
-178.7694795444795
 30
0.0
 10
196.5218472689665
 20
-178.7694795444795
 30
0.0
 10
162.9693368935943
 20
-178.7694795444795
 30
0.0
 10
95.86431614285029
 20
-178.7694795444793
 30
0.0
 10
0.0000007846444559
 20
-178.7694795444795
 30
0.0
 10
-95.86431457356146
 20
-178.7694795444795
 30
0.0
 10
-162.9693353243053
 20
-178.7694795444793
 30
0.0
 10
-196.5218456996774
 20
-178.7694795444793
 30
0.0
 10
-213.2981008873633
 20
-178.7694795444793
 30
0.0
 10
-221.6862284812067
 20
-178.7694795444795
 30
0.0
 10
-225.8802922781279
 20
-178.7694795444793
 30
0.0
 10
-227.6777481910944
 20
-178.7694795444794
 30
0.0
 10
-228.8760521330719
 20
-178.7694795444794
 30
0.0
 10
-229.4752041794132
 20
-178.7716578886203
 30
0.0
 10
-230.0743556248198
 20
-178.7564639563752
 30
0.0
  0
SPLINE
  5
7E
330
1F
100
AcDbEntity
  8
0
  6
Continuous
 62
     7
370
    25
100
AcDbSpline
210
0.0
220
0.0
230
1.0
 70
     8
 71
     3
 72
    38
 73
    34
 74
     0
 42
0.000000001
 43
0.00000001
 40
0.0
 40
0.0
 40
0.0
 40
0.0
 40
0.1250000000000024
 40
0.1250000000000024
 40
0.1875000000000033
 40
0.1875000000000033
 40
0.2187500000000035
 40
0.2187500000000035
 40
0.2500000000000037
 40
0.2500000000000037
 40
0.3750000000000032
 40
0.3750000000000032
 40
0.437500000000003
 40
0.437500000000003
 40
0.4687500000000029
 40
0.4687500000000029
 40
0.5000000000000028
 40
0.5000000000000028
 40
0.6250000000000054
 40
0.6250000000000054
 40
0.6562500000000062
 40
0.6562500000000062
 40
0.6875000000000069
 40
0.6875000000000069
 40
0.7500000000000062
 40
0.7500000000000062
 40
0.8750000000000041
 40
0.8750000000000041
 40
0.9062500000000036
 40
0.9062500000000036
 40
0.9375000000000029
 40
0.9375000000000029
 40
1.0
 40
1.0
 40
1.0
 40
1.0
 10
-265.8217530793331
 20
-140.000000006083
 30
0.0
 10
-265.8256717831776
 20
-142.3683479623825
 30
0.0
 10
-265.6009782815822
 20
-144.697007696462
 30
0.0
 10
-264.9298796016716
 20
-148.1318337440797
 30
0.0
 10
-264.6501582099345
 20
-149.2670267406691
 30
0.0
 10
-264.1451956186645
 20
-150.9549350370498
 30
0.0
 10
-263.9626011960371
 20
-151.5150834667095
 30
0.0
 10
-263.568101709184
 20
-152.6302691384496
 30
0.0
 10
-263.3567301748734
 20
-153.1835578994976
 30
0.0
 10
-262.2381238079559
 20
-155.9059296611478
 30
0.0
 10
-261.1422305668808
 20
-157.966885100874
 30
0.0
 10
-259.202259485205
 20
-160.8859992930472
 30
0.0
 10
-258.5056116732841
 20
-161.829949558159
 30
0.0
 10
-257.3841550359668
 20
-163.2013679044651
 30
0.0
 10
-256.9970863699451
 20
-163.6514300592208
 30
0.0
 10
-256.2062314178781
 20
-164.5261048978057
 30
0.0
 10
-255.8014002623879
 20
-164.9520573346382
 30
0.0
 10
-253.730648873533
 20
-167.0254064331559
 30
0.0
 10
-251.926880045451
 20
-168.5059109730465
 30
0.0
 10
-249.4890373651788
 20
-170.134823174591
 30
0.0
 10
-248.9921258595264
 20
-170.4492939564078
 30
0.0
 10
-247.9793795251506
 20
-171.0553249775008
 30
0.0
 10
-247.462438561036
 20
-171.3474173580665
 30
0.0
 10
-245.9002648901269
 20
-172.1797113561023
 30
0.0
 10
-244.8391472489136
 20
-172.6791461433656
 30
0.0
 10
-241.5981901249222
 20
-174.0150708834271
 30
0.0
 10
-239.3611115733941
 20
-174.6902328654444
 30
0.0
 10
-236.4676973737669
 20
-175.2604363876683
 30
0.0
 10
-235.8829978860272
 20
-175.3606612459685
 30
0.0
 10
-234.7127741275438
 20
-175.5314876309098
 30
0.0
 10
-234.1264701252562
 20
-175.6023252468271
 30
0.0
 10
-232.3640274266637
 20
-175.7716008259564
 30
0.0
 10
-231.1843701542235
 20
-175.8269570670745
 30
0.0
 10
-229.9999999997811
 20
-175.8243539865887
 30
0.0
  0
SPLINE
  5
7F
330
1F
100
AcDbEntity
  8
0
  6
Continuous
 62
     7
370
    25
100
AcDbSpline
210
0.0
220
0.0
230
1.0
 70
     8
 71
     3
 72
    38
 73
    34
 74
     0
 42
0.000000001
 43
0.00000001
 40
0.0
 40
0.0
 40
0.0
 40
0.0
 40
0.0625000000000044
 40
0.0625000000000044
 40
0.0937500000000059
 40
0.0937500000000059
 40
0.1250000000000075
 40
0.1250000000000075
 40
0.2500000000000095
 40
0.2500000000000095
 40
0.3125000000000105
 40
0.3125000000000105
 40
0.3437500000000111
 40
0.3437500000000111
 40
0.3750000000000128
 40
0.3750000000000128
 40
0.500000000000015
 40
0.500000000000015
 40
0.5312500000000143
 40
0.5312500000000143
 40
0.5625000000000137
 40
0.5625000000000137
 40
0.6250000000000122
 40
0.6250000000000122
 40
0.7500000000000095
 40
0.7500000000000095
 40
0.7812500000000083
 40
0.7812500000000083
 40
0.8125000000000071
 40
0.8125000000000071
 40
0.8750000000000046
 40
0.8750000000000046
 40
1.0
 40
1.0
 40
1.0
 40
1.0
 10
-230.0743556248197
 20
-178.7564639563751
 30
0.0
 10
-231.3434193894827
 20
-178.7242816608926
 30
0.0
 10
-232.6060972064855
 20
-178.632746236647
 30
0.0
 10
-234.4905716459078
 20
-178.4067539088495
 30
0.0
 10
-235.1171356573904
 20
-178.3166067102882
 30
0.0
 10
-236.3670384252545
 20
-178.1063357158785
 30
0.0
 10
-236.9912005546873
 20
-177.9859551644149
 30
0.0
 10
-240.0804529495904
 20
-177.313678710827
 30
0.0
 10
-242.4683334960858
 20
-176.5514428142657
 30
0.0
 10
-245.9262738559749
 20
-175.0752328321459
 30
0.0
 10
-247.0582225228117
 20
-174.5275487710345
 30
0.0
 10
-248.7242855368924
 20
-173.6204176376661
 30
0.0
 10
-249.2755022960031
 20
-173.3029437035678
 30
0.0
 10
-250.3561829112992
 20
-172.6453305624142
 30
0.0
 10
-250.8866826048301
 20
-172.3046751585933
 30
0.0
 10
-253.4906838830622
 20
-170.5430039068313
 30
0.0
 10
-255.4213872184104
 20
-168.9500483177364
 30
0.0
 10
-257.6430842583462
 20
-166.7280542533874
 30
0.0
 10
-258.0777260459312
 20
-166.2719787823696
 30
0.0
 10
-258.9274429525544
 20
-165.3362681122541
 30
0.0
 10
-259.3435598122955
 20
-164.8553069977229
 30
0.0
 10
-260.5509102297032
 20
-163.3901109144743
 30
0.0
 10
-261.3032595569751
 20
-162.3820389406313
 30
0.0
 10
-263.4059451741149
 20
-159.2659575284756
 30
0.0
 10
-264.603710983401
 20
-157.0671490013875
 30
0.0
 10
-265.8430487469508
 20
-154.1651727746314
 30
0.0
 10
-266.0783129968968
 20
-153.5755619614858
 30
0.0
 10
-266.5196095240633
 20
-152.3873559835226
 30
0.0
 10
-266.7251959203981
 20
-151.7902665939187
 30
0.0
 10
-267.2979359774371
 20
-149.9902705057247
 30
0.0
 10
-267.6212272764218
 20
-148.7786669714651
 30
0.0
 10
-268.4189628929458
 20
-145.1097255494916
 30
0.0
 10
-268.7219012748351
 20
-142.6183822211176
 30
0.0
 10
-268.7908260929806
 20
-140.0806397152143
 30
0.0
  0
SPLINE
  5
81
330
1F
100
AcDbEntity
  8
0
  6
Continuous
 62
     7
370
    25
100
AcDbSpline
210
0.0
220
0.0
230
1.0
 70
     8
 71
     3
 72
    38
 73
    34
 74
     0
 42
0.000000001
 43
0.00000001
 40
0.0
 40
0.0
 40
0.0
 40
0.0
 40
0.1250000000000054
 40
0.1250000000000054
 40
0.187500000000008
 40
0.187500000000008
 40
0.2187500000000087
 40
0.2187500000000087
 40
0.2500000000000093
 40
0.2500000000000093
 40
0.3750000000000112
 40
0.3750000000000112
 40
0.437500000000011
 40
0.437500000000011
 40
0.4687500000000097
 40
0.4687500000000097
 40
0.5000000000000084
 40
0.5000000000000084
 40
0.6250000000000023
 40
0.6250000000000023
 40
0.6562500000000022
 40
0.6562500000000022
 40
0.6875000000000021
 40
0.6875000000000021
 40
0.7500000000000019
 40
0.7500000000000019
 40
0.8750000000000017
 40
0.8750000000000017
 40
0.906250000000001
 40
0.906250000000001
 40
0.9375000000000003
 40
0.9375000000000003
 40
1.0
 40
1.0
 40
1.0
 40
1.0
 10
229.9999999997811
 20
-175.8243539865888
 30
0.0
 10
232.3685299770659
 20
-175.8295596852807
 30
0.0
 10
234.6972830708629
 20
-175.6052752809203
 30
0.0
 10
238.1322930597949
 20
-174.9343457789324
 30
0.0
 10
239.2675644128944
 20
-174.6546727102915
 30
0.0
 10
240.955588283842
 20
-174.1495841799214
 30
0.0
 10
241.5157751394871
 20
-173.9669160117177
 30
0.0
 10
242.6310367753253
 20
-173.5721965409031
 30
0.0
 10
243.1841529105588
 20
-173.3607330011909
 30
0.0
 10
245.9060984221491
 20
-172.2416782940911
 30
0.0
 10
247.96703644266
 20
-171.1456187414661
 30
0.0
 10
250.8858809716039
 20
-169.2044200439986
 30
0.0
 10
251.8298638247856
 20
-168.5074811085589
 30
0.0
 10
253.2013483189664
 20
-167.3854735629842
 30
0.0
 10
253.6512302270406
 20
-166.9983736340054
 30
0.0
 10
254.5254827716463
 20
-166.2074617678392
 30
0.0
 10
254.9512167851024
 20
-165.8025717078568
 30
0.0
 10
257.0234163827178
 20
-163.7313573569528
 30
0.0
 10
258.5038725141197
 20
-161.9275568686494
 30
0.0
 10
260.1322319857833
 20
-159.4887938620573
 30
0.0
 10
260.4465901944604
 20
-158.9916724129222
 30
0.0
 10
261.052486905629
 20
-157.978532449063
 30
0.0
 10
261.3444328037921
 20
-157.4615775597475
 30
0.0
 10
262.1762038988535
 20
-155.8997025281897
 30
0.0
 10
262.6754385435816
 20
-154.8387380772485
 30
0.0
 10
264.0105955891859
 20
-151.597896068572
 30
0.0
 10
264.6857195652851
 20
-149.3606790841543
 30
0.0
 10
265.2561631358085
 20
-146.4667242246365
 30
0.0
 10
265.3563967347533
 20
-145.8820100011963
 30
0.0
 10
265.5273012047048
 20
-144.7120416645947
 30
0.0
 10
265.5982205244869
 20
-144.1258537537265
 30
0.0
 10
265.7678900725753
 20
-142.3637278839072
 30
0.0
 10
265.8237125413388
 20
-141.1842403910677
 30
0.0
 10
265.8217530793226
 20
-139.9999999997845
 30
0.0
  0
SPLINE
  5
83
330
1F
100
AcDbEntity
  8
0
  6
Continuous
 62
     7
370
    25
100
AcDbSpline
210
0.0
220
0.0
230
1.0
 70
     8
 71
     3
 72
    38
 73
    34
 74
     0
 42
0.000000001
 43
0.00000001
 40
0.0
 40
0.0
 40
0.0
 40
0.0
 40
0.0624999999999996
 40
0.0624999999999996
 40
0.0937499999999998
 40
0.0937499999999998
 40
0.1250000000000001
 40
0.1250000000000001
 40
0.2499999999999986
 40
0.2499999999999986
 40
0.3124999999999978
 40
0.3124999999999978
 40
0.3437499999999974
 40
0.3437499999999974
 40
0.3749999999999971
 40
0.3749999999999971
 40
0.4999999999999973
 40
0.4999999999999973
 40
0.5312499999999977
 40
0.5312499999999977
 40
0.562499999999998
 40
0.562499999999998
 40
0.6249999999999966
 40
0.6249999999999966
 40
0.7499999999999979
 40
0.7499999999999979
 40
0.7812499999999984
 40
0.7812499999999984
 40
0.812499999999999
 40
0.812499999999999
 40
0.8749999999999998
 40
0.8749999999999998
 40
1.0
 40
1.0
 40
1.0
 40
1.0
 10
268.7908260931652
 20
-140.0806397084242
 30
0.0
 10
268.7563617227016
 20
-141.3495831856348
 30
0.0
 10
268.6627510972727
 20
-142.6120167137848
 30
0.0
 10
268.4339682073899
 20
-144.4959408728037
 30
0.0
 10
268.34294318359
 20
-145.1222905820368
 30
0.0
 10
268.1310033522267
 20
-146.3717001731103
 30
0.0
 10
268.0098030725659
 20
-146.9957290958126
 30
0.0
 10
267.3333584288923
 20
-150.0848094229667
 30
0.0
 10
266.5684052943519
 20
-152.4720410008452
 30
0.0
 10
265.088949934734
 20
-155.9282175507221
 30
0.0
 10
264.5402340646856
 20
-157.0594128935369
 30
0.0
 10
263.631876728288
 20
-158.7241831791786
 30
0.0
 10
263.3139793501416
 20
-159.2750684120456
 30
0.0
 10
262.6553411030736
 20
-160.3555029346211
 30
0.0
 10
262.3142316613963
 20
-160.8858775044133
 30
0.0
 10
260.5503043838376
 20
-163.4890140085726
 30
0.0
 10
258.9555146814158
 20
-165.4182118755667
 30
0.0
 10
256.7324734034006
 20
-167.6380747977186
 30
0.0
 10
256.2761945242693
 20
-168.0723046130774
 30
0.0
 10
255.3400952757662
 20
-168.921111540368
 30
0.0
 10
254.8589153083919
 20
-169.3367699618968
 30
0.0
 10
253.3923940223172
 20
-170.5432514345052
 30
0.0
 10
252.3835086034854
 20
-171.2948852641517
 30
0.0
 10
249.2654717730646
 20
-173.3954957785273
 30
0.0
 10
247.0655191759368
 20
-174.5911597534929
 30
0.0
 10
244.1626572324636
 20
-175.8275408565918
 30
0.0
 10
243.5729783794205
 20
-176.0621942013843
 30
0.0
 10
242.3841782492648
 20
-176.5023487900658
 30
0.0
 10
241.786810640015
 20
-176.7073187506292
 30
0.0
 10
239.9860346522153
 20
-177.278074841779
 30
0.0
 10
238.7739829489495
 20
-177.5998590691541
 30
0.0
 10
235.1039564875649
 20
-178.3927776494551
 30
0.0
 10
232.6122336952667
 20
-178.6921056914587
 30
0.0
 10
230.0743556248198
 20
-178.7564639563752
 30
0.0
  0
SPLINE
  5
84
330
1F
100
AcDbEntity
  8
0
  6
Continuous
 62
     7
370
    25
100
AcDbSpline
210
0.0
220
0.0
230
1.0
 70
     8
 71
     3
 72
    16
 73
    12
 74
     0
 42
0.000000001
 43
0.00000001
 40
0.0
 40
0.0
 40
0.0
 40
0.0
 40
0.0078124999999999
 40
0.0078124999999999
 40
0.0156249999999997
 40
0.0312499999999995
 40
0.0624999999999995
 40
0.1249999999999994
 40
0.2499999999999995
 40
0.4999999999999997
 40
1.0
 40
1.0
 40
1.0
 40
1.0
 10
-268.7908260929806
 20
-140.0806397152143
 30
0.0
 10
-268.8032799163297
 20
-139.6221024607985
 30
0.0
 10
-268.8057988916503
 20
-139.1635603423821
 30
0.0
 10
-268.8057988916504
 20
-138.24647363902
 30
0.0
 10
-268.8057988916502
 20
-136.8708435839768
 30
0.0
 10
-268.8057988916503
 20
-133.6610401222092
 30
0.0
 10
-268.8057988916503
 20
-127.2414331986745
 30
0.0
 10
-268.8057988916503
 20
-114.4022193516049
 30
0.0
 10
-268.8057988916501
 20
-88.72379165746565
 30
0.0
 10
-268.8057988916502
 20
-37.36693626918735
 30
0.0
 10
-268.8057988916502
 20
6.653225492194117
 30
0.0
 10
-268.8057988916502
 20
35.99999999978175
 30
0.0
  0
SPLINE
  5
87
330
1F
100
AcDbEntity
  8
0
  6
Continuous
 62
     7
370
    25
100
AcDbSpline
210
0.0
220
0.0
230
1.0
 70
     8
 71
     3
 72
     8
 73
     4
 74
     0
 42
0.000000001
 43
0.00000001
 40
0.0
 40
0.0
 40
0.0
 40
0.0
 40
1.0
 40
1.0
 40
1.0
 40
1.0
 10
-265.8056516700701
 20
-138.9780318285126
 30
0.0
 10
-265.8158250106881
 20
-139.3185671525667
 30
0.0
 10
-265.8211892818918
 20
-139.6592576149073
 30
0.0
 10
-265.8217530793332
 20
-140.000000006083
 30
0.0
  0
CIRCLE
  5
8A
330
1F
100
AcDbEntity
  8
0
  6
Continuous
 62
     7
370
    25
100
AcDbCircle
 10
-100.0
 20
124.2714514136
 30
0.0
 40
19.49999999999997
  0
CIRCLE
  5
8B
330
1F
100
AcDbEntity
  8
0
  6
Continuous
 62
     7
370
    25
100
AcDbCircle
 10
-100.0
 20
124.2714514136
 30
0.0
 40
17.49999999999993
  0
CIRCLE
  5
90
330
1F
100
AcDbEntity
  8
0
  6
Continuous
 62
     7
370
    25
100
AcDbCircle
 10
0.0
 20
122.5
 30
0.0
 40
19.49999999999999
  0
SPLINE
  5
91
330
1F
100
AcDbEntity
  8
0
  6
Continuous
 62
     7
370
    25
100
AcDbSpline
210
0.0
220
0.0
230
1.0
 70
     8
 71
     3
 72
    40
 73
    36
 74
     0
 42
0.000000001
 43
0.00000001
 40
0.0
 40
0.0
 40
0.0
 40
0.0
 40
0.0156250000000006
 40
0.0156250000000006
 40
0.0312500000000012
 40
0.0312500000000012
 40
0.0625000000000019
 40
0.0625000000000019
 40
0.0937500000000026
 40
0.0937500000000026
 40
0.1250000000000034
 40
0.1250000000000034
 40
0.2500000000000063
 40
0.2500000000000063
 40
0.2812500000000067
 40
0.2812500000000067
 40
0.312500000000007
 40
0.312500000000007
 40
0.3750000000000069
 40
0.3750000000000069
 40
0.5000000000000052
 40
0.5000000000000052
 40
0.5625000000000043
 40
0.5625000000000043
 40
0.6250000000000034
 40
0.6250000000000034
 40
0.7500000000000007
 40
0.7500000000000007
 40
0.781250000000001
 40
0.781250000000001
 40
0.8125000000000012
 40
0.8125000000000012
 40
0.8750000000000008
 40
0.8750000000000008
 40
1.0
 40
1.0
 40
1.0
 40
1.0
 10
-268.8057988916503
 20
35.99999999978175
 30
0.0
 10
-268.8057988916503
 20
36.3248114218814
 30
0.0
 10
-268.8046813980684
 20
36.64955617439699
 30
0.0
 10
-268.7921899516339
 20
37.2984337798306
 30
0.0
 10
-268.7819788866578
 20
37.62263601055272
 30
0.0
 10
-268.7395058387884
 20
38.59453633797318
 30
0.0
 10
-268.6954146678071
 20
39.24152870618983
 30
0.0
 10
-268.5757130490197
 20
40.53363300491005
 30
0.0
 10
-268.4999034826217
 20
41.17998242628669
 30
0.0
 10
-268.3176443231317
 20
42.46309417131135
 30
0.0
 10
-268.2112588118033
 20
43.09999466665129
 30
0.0
 10
-267.6042157582768
 20
46.26157550349299
 30
0.0
 10
-266.8815841282785
 20
48.71852002070241
 30
0.0
 10
-265.6855711572678
 20
51.70037554257718
 30
0.0
 10
-265.4315097377188
 20
52.29221244751955
 30
0.0
 10
-264.8934892707456
 20
53.46676293815351
 30
0.0
 10
-264.6088071272814
 20
54.05085709083293
 30
0.0
 10
-263.7144776957847
 20
55.77904458572783
 30
0.0
 10
-263.0679352398401
 20
56.8936274035195
 30
0.0
 10
-260.9818414114679
 20
60.12810796576044
 30
0.0
 10
-259.3969740679482
 20
62.13959611492889
 30
0.0
 10
-256.7298258519819
 20
64.94059458623366
 30
0.0
 10
-255.7866165508259
 20
65.8414588385423
 30
0.0
 10
-253.8379097408068
 20
67.53519503523276
 30
0.0
 10
-252.8301308194763
 20
68.3315821097167
 30
0.0
 10
-249.7093740435282
 20
70.57361435837777
 30
0.0
 10
-247.4989540773745
 20
71.87209718178347
 30
0.0
 10
-244.5719650418685
 20
73.24757328637895
 30
0.0
 10
-243.9768569145496
 20
73.5107167936276
 30
0.0
 10
-242.7810054305643
 20
74.0068442745352
 30
0.0
 10
-242.1794284857326
 20
74.24026340283542
 30
0.0
 10
-240.3639823960559
 20
74.8975429628483
 30
0.0
 10
-239.1394469098378
 20
75.27862175810097
 30
0.0
 10
-235.4240985679085
 20
76.25443559352469
 30
0.0
 10
-232.8917086387913
 20
76.68240911938841
 30
0.0
 10
-230.3015078643108
 20
76.87850908305954
 30
0.0
  0
LWPOLYLINE
  5
92
330
1F
100
AcDbEntity
  8
0
  6
Continuous
 62
     7
370
    25
100
AcDbPolyline
 90
        7
 70
   128
 43
0.0
 10
268.8057988917
 20
36.0000000061
 10
268.8057988917
 20
28.0000000061
 10
268.8057988917
 20
-3.9999999939
 10
268.8057988917
 20
-72.0403198512
 10
268.9387531082
 20
-94.7222844761
 10
269.0683800361
 20
-117.4042487349
 10
268.7908260932
 20
-140.0806397084
  0
SPLINE
  5
93
330
1F
100
AcDbEntity
  8
0
  6
Continuous
 62
     7
370
    25
100
AcDbSpline
210
0.0
220
0.0
230
1.0
 70
     8
 71
     3
 72
    44
 73
    40
 74
     0
 42
0.000000001
 43
0.00000001
 40
0.0
 40
0.0
 40
0.0
 40
0.0
 40
0.0625000000000027
 40
0.0625000000000027
 40
0.0937500000000032
 40
0.0937500000000032
 40
0.1250000000000039
 40
0.1250000000000039
 40
0.2500000000000061
 40
0.2500000000000061
 40
0.312500000000008
 40
0.312500000000008
 40
0.3437500000000088
 40
0.3437500000000088
 40
0.3750000000000095
 40
0.3750000000000095
 40
0.5000000000000097
 40
0.5000000000000097
 40
0.53125000000001
 40
0.53125000000001
 40
0.56250000000001
 40
0.56250000000001
 40
0.6250000000000083
 40
0.6250000000000083
 40
0.7500000000000047
 40
0.7500000000000047
 40
0.781250000000004
 40
0.781250000000004
 40
0.8125000000000033
 40
0.8125000000000033
 40
0.875000000000002
 40
0.875000000000002
 40
0.9375000000000007
 40
0.9375000000000007
 40
0.9687500000000002
 40
0.9687500000000002
 40
0.9843750000000001
 40
0.9843750000000001
 40
1.0
 40
1.0
 40
1.0
 40
1.0
 10
230.3015078839116
 20
76.87850908157563
 30
0.0
 10
231.5960350618566
 20
76.78050249589998
 30
0.0
 10
232.8815048690955
 20
76.62388671448397
 30
0.0
 10
234.7961968004453
 20
76.30152341281664
 30
0.0
 10
235.4321668970189
 20
76.17944124001893
 30
0.0
 10
236.6995718183105
 20
75.9059296760585
 30
0.0
 10
237.33145338641
 20
75.75434021500206
 30
0.0
 10
240.4566131067076
 20
74.92903688850373
 30
0.0
 10
242.8659291448143
 20
74.05137003706147
 30
0.0
 10
246.3455002934223
 20
72.41307828051724
 30
0.0
 10
247.482942253818
 20
71.813314148857
 30
0.0
 10
249.1543557197455
 20
70.83046971569662
 30
0.0
 10
249.7070710628309
 20
70.48801143518418
 30
0.0
 10
250.7915849473888
 20
69.78035117740188
 30
0.0
 10
251.3236977620648
 20
69.41508339912498
 30
0.0
 10
253.9346205739508
 20
67.53277327332141
 30
0.0
 10
255.8663647072257
 20
65.84991205460585
 30
0.0
 10
258.0810834935129
 20
63.52087620654918
 30
0.0
 10
258.513986106886
 20
63.0437475031721
 30
0.0
 10
259.3594340459132
 20
62.0665369624974
 30
0.0
 10
259.7730201462154
 20
61.56509875820004
 30
0.0
 10
260.9737834796504
 20
60.03672994184863
 30
0.0
 10
261.7201991404095
 20
58.98755477191278
 30
0.0
 10
263.7994383795913
 20
55.75051242977592
 30
0.0
 10
264.975673918961
 20
53.47504158936865
 30
0.0
 10
266.174939162046
 20
50.47907491578371
 30
0.0
 10
266.4014667645243
 20
49.8710421073973
 30
0.0
 10
266.8247723651206
 20
48.64463323183055
 30
0.0
 10
267.0207492386104
 20
48.02877990009902
 30
0.0
 10
267.5626376248865
 20
46.17343975913961
 30
0.0
 10
267.8626834278521
 20
44.9262026329649
 30
0.0
 10
268.3413350220541
 20
42.41120763462614
 30
0.0
 10
268.5199313071157
 20
41.14344815612216
 30
0.0
 10
268.6964537001488
 20
39.22636903281068
 30
0.0
 10
268.7400307379435
 20
38.58476341175689
 30
0.0
 10
268.7821135002228
 20
37.6184206894646
 30
0.0
 10
268.7922579721999
 20
37.2956502858377
 30
0.0
 10
268.8046818159139
 20
36.64878044606824
 30
0.0
 10
268.8057988916505
 20
36.32448460693936
 30
0.0
 10
268.8057988916504
 20
36.00000000607447
 30
0.0
  0
SPLINE
  5
94
330
1F
100
AcDbEntity
  8
0
  6
Continuous
 62
     7
370
    25
100
AcDbSpline
210
0.0
220
0.0
230
1.0
 70
     8
 71
     3
 72
    31
 73
    27
 74
     0
 42
0.000000001
 43
0.00000001
 40
0.0
 40
0.0
 40
0.0
 40
0.0
 40
0.00390625
 40
0.00390625
 40
0.0058593749999999
 40
0.0058593749999999
 40
0.0078124999999999
 40
0.0078124999999999
 40
0.015625
 40
0.03125
 40
0.0624999999999999
 40
0.125
 40
0.2500000000000001
 40
0.5
 40
0.7499999999999999
 40
0.8749999999999998
 40
0.9374999999999999
 40
0.9687500000000001
 40
0.984375
 40
0.9921875000000001
 40
0.9921875000000001
 40
0.9941406250000001
 40
0.9941406250000001
 40
0.99609375
 40
0.99609375
 40
1.0
 40
1.0
 40
1.0
 40
1.0
 10
-230.3015078643108
 20
76.87850908305954
 30
0.0
 10
-229.7018284851119
 20
76.92390985107484
 30
0.0
 10
-229.102130728568
 20
76.95655869686614
 30
0.0
 10
-228.2025566469876
 20
76.98648683109185
 30
0.0
 10
-227.9026940429682
 20
76.99328704541436
 30
0.0
 10
-227.3029596721378
 20
77.00052947192168
 30
0.0
 10
-227.0030865049911
 20
76.99999999999997
 30
0.0
 10
-225.5037244844826
 20
76.99999999999999
 30
0.0
 10
-221.905255635262
 20
77.0
 30
0.0
 10
-213.5088283204146
 20
76.99999999999997
 30
0.0
 10
-196.7159736907186
 20
76.99999999999997
 30
0.0
 10
-163.1302644313275
 20
76.99999999999997
 30
0.0
 10
-95.95884591254543
 20
77.00000000000003
 30
0.0
 10
0.0003234000012578
 20
76.99999999999991
 30
0.0
 10
95.95949271254729
 20
77.00000000000011
 30
0.0
 10
163.13091123133
 20
77.00000000000004
 30
0.0
 10
196.7166204907211
 20
77.00000000000004
 30
0.0
 10
213.5094751204164
 20
77.00000000000004
 30
0.0
 10
221.9059024352646
 20
77.00000000000007
 30
0.0
 10
225.5043712844849
 20
77.00000000000007
 30
0.0
 10
227.0037333049935
 20
77.00000000000007
 30
0.0
 10
227.3036092679262
 20
77.00052607788938
 30
0.0
 10
227.9033050251753
 20
76.99327520726996
 30
0.0
 10
228.2031314025622
 20
76.98647138951627
 30
0.0
 10
229.1025461170488
 20
76.95653750740375
 30
0.0
 10
229.7020700807588
 20
76.92389156053231
 30
0.0
 10
230.3015078839117
 20
76.87850908157563
 30
0.0
  0
CIRCLE
  5
95
330
1F
100
AcDbEntity
  8
0
  6
Continuous
 62
     7
370
    25
100
AcDbCircle
 10
100.0
 20
124.2714514136
 30
0.0
 40
19.50000000000001
  0
SPLINE
  5
98
330
1F
100
AcDbEntity
  8
0
  6
Continuous
 62
     7
370
    25
100
AcDbSpline
210
0.0
220
0.0
230
1.0
 70
     8
 71
     3
 72
    40
 73
    36
 74
     0
 42
0.000000001
 43
0.00000001
 40
0.0
 40
0.0
 40
0.0
 40
0.0
 40
0.1250000000000024
 40
0.1250000000000024
 40
0.1875000000000043
 40
0.1875000000000043
 40
0.2187500000000044
 40
0.2187500000000044
 40
0.2500000000000046
 40
0.2500000000000046
 40
0.3750000000000021
 40
0.3750000000000021
 40
0.4375000000000018
 40
0.4375000000000018
 40
0.4687500000000004
 40
0.4687500000000004
 40
0.4999999999999992
 40
0.4999999999999992
 40
0.6250000000000009
 40
0.6250000000000009
 40
0.6875000000000008
 40
0.6875000000000008
 40
0.7187500000000013
 40
0.7187500000000013
 40
0.7500000000000019
 40
0.7500000000000019
 40
0.8750000000000008
 40
0.8750000000000008
 40
0.9062500000000006
 40
0.9062500000000006
 40
0.9375000000000003
 40
0.9375000000000003
 40
0.9687500000000002
 40
0.9687500000000002
 40
1.0
 40
1.0
 40
1.0
 40
1.0
 10
-229.9999999862667
 20
72.89602012894953
 30
0.0
 10
-232.3680522746549
 20
72.72674958155268
 30
0.0
 10
-234.6886316741821
 20
72.35559879385248
 30
0.0
 10
-238.1009125772386
 20
71.50405665120546
 30
0.0
 10
-239.2268586943349
 20
71.17095549460836
 30
0.0
 10
-240.8980394293223
 20
70.59528891393657
 30
0.0
 10
-241.4521319963978
 20
70.39071404028041
 30
0.0
 10
-242.5542382510668
 20
69.95530250452244
 30
0.0
 10
-243.102598528048
 20
69.72427037973478
 30
0.0
 10
-245.8022043123891
 20
68.5148949763675
 30
0.0
 10
-247.8498893696389
 20
67.3679848627862
 30
0.0
 10
-250.7505880095147
 20
65.37381232493293
 30
0.0
 10
-251.6890262415843
 20
64.66346354229988
 30
0.0
 10
-253.0524723140665
 20
63.52720861379299
 30
0.0
 10
-253.5005704041762
 20
63.13570250058365
 30
0.0
 10
-254.3766017651605
 20
62.33273920282854
 30
0.0
 10
-254.8033260342365
 20
61.9223924801643
 30
0.0
 10
-256.8810534295067
 20
59.82672990555191
 30
0.0
 10
-258.3679449484399
 20
58.01253249913663
 30
0.0
 10
-260.3318706794578
 20
55.08233243050182
 30
0.0
 10
-260.941641804172
 20
54.0703903127411
 30
0.0
 10
-261.7868755652823
 20
52.49805643167844
 30
0.0
 10
-262.0556881180369
 20
51.96719300246296
 30
0.0
 10
-262.564516724501
 20
50.89848528090354
 30
0.0
 10
-262.8050810953466
 20
50.35967018867733
 30
0.0
 10
-263.9387170733468
 20
47.64330454001103
 30
0.0
 10
-264.627371515233
 20
45.39988443423225
 30
0.0
 10
-265.2125534893919
 20
42.50688406984931
 30
0.0
 10
-265.315552976308
 20
41.92376409793955
 30
0.0
 10
-265.493043773374
 20
40.74834630110636
 30
0.0
 10
-265.5674436233222
 20
40.15613041646457
 30
0.0
 10
-265.6863429428023
 20
38.97210062931129
 30
0.0
 10
-265.7310426487028
 20
38.37908973928369
 30
0.0
 10
-265.7909265942451
 20
37.19107546756438
 30
0.0
 10
-265.80565167007
 20
36.59606487406074
 30
0.0
 10
-265.8056516700701
 20
35.99999999978178
 30
0.0
  0
SPLINE
  5
99
330
1F
100
AcDbEntity
  8
0
  6
Continuous
 62
     7
370
    25
100
AcDbSpline
210
0.0
220
0.0
230
1.0
 70
     8
 71
     3
 72
     8
 73
     4
 74
     0
 42
0.000000001
 43
0.00000001
 40
0.0
 40
0.0
 40
0.0
 40
0.0
 40
1.0
 40
1.0
 40
1.0
 40
1.0
 10
265.8217530793228
 20
-139.9999999997845
 30
0.0
 10
265.8211892818256
 20
-139.6592576107069
 30
0.0
 10
265.8158250107606
 20
-139.3185671504571
 30
0.0
 10
265.8056516700701
 20
-138.9780318285125
 30
0.0
  0
SPLINE
  5
9C
330
1F
100
AcDbEntity
  8
0
  6
Continuous
 62
     7
370
    25
100
AcDbSpline
210
0.0
220
0.0
230
1.0
 70
     8
 71
     3
 72
     8
 73
     4
 74
     0
 42
0.000000001
 43
0.00000001
 40
0.0
 40
0.0
 40
0.0
 40
0.0
 40
1.0
 40
1.0
 40
1.0
 40
1.0
 10
-227.0909090773557
 20
72.99999999999999
 30
0.0
 10
-228.0612329102771
 20
72.99999999999999
 30
0.0
 10
-229.0315430993792
 20
72.96524631461169
 30
0.0
 10
-229.9999999862667
 20
72.89602012894953
 30
0.0
  0
SPLINE
  5
9E
330
1F
100
AcDbEntity
  8
0
  6
Continuous
 62
     7
370
    25
100
AcDbSpline
210
0.0
220
0.0
230
1.0
 70
     8
 71
     3
 72
     8
 73
     4
 74
     0
 42
0.000000001
 43
0.00000001
 40
0.0
 40
0.0
 40
0.0
 40
0.0
 40
1.0
 40
1.0
 40
1.0
 40
1.0
 10
230.0000000040369
 20
72.89602012767934
 30
0.0
 10
229.0315431112126
 20
72.96524631418959
 30
0.0
 10
228.0612329163013
 20
73.00000000000004
 30
0.0
 10
227.0909090773557
 20
73.00000000000004
 30
0.0
  0
SPLINE
  5
A0
330
1F
100
AcDbEntity
  8
0
  6
Continuous
 62
     7
370
    25
100
AcDbSpline
210
0.0
220
0.0
230
1.0
 70
     8
 71
     3
 72
    42
 73
    38
 74
     0
 42
0.000000001
 43
0.00000001
 40
0.0
 40
0.0
 40
0.0
 40
0.0
 40
0.0312500000000009
 40
0.0312500000000009
 40
0.0625000000000017
 40
0.0625000000000017
 40
0.1250000000000035
 40
0.1250000000000035
 40
0.1875000000000052
 40
0.1875000000000052
 40
0.2187500000000059
 40
0.2187500000000059
 40
0.2500000000000066
 40
0.2500000000000066
 40
0.3750000000000131
 40
0.3750000000000131
 40
0.4375000000000154
 40
0.4375000000000154
 40
0.4687500000000165
 40
0.4687500000000165
 40
0.5000000000000177
 40
0.5000000000000177
 40
0.6250000000000178
 40
0.6250000000000178
 40
0.656250000000017
 40
0.656250000000017
 40
0.6875000000000162
 40
0.6875000000000162
 40
0.7500000000000137
 40
0.7500000000000137
 40
0.8750000000000074
 40
0.8750000000000074
 40
0.9062500000000057
 40
0.9062500000000057
 40
0.9375000000000038
 40
0.9375000000000038
 40
1.0
 40
1.0
 40
1.0
 40
1.0
 10
265.8056516700702
 20
36.00000000607449
 30
0.0
 10
265.8056516700703
 20
36.5959422747293
 30
0.0
 10
265.7909343383689
 20
37.1891374533604
 30
0.0
 10
265.7315798622072
 20
38.37020026750852
 30
0.0
 10
265.687399495949
 20
38.95811436033966
 30
0.0
 10
265.5120868575017
 20
40.71413664452452
 30
0.0
 10
265.3383222155452
 20
41.87455005225976
 30
0.0
 10
264.877189450005
 20
44.17486347632889
 30
0.0
 10
264.5899890245692
 20
45.31479684316046
 30
0.0
 10
264.0735156720005
 20
47.00922485596622
 30
0.0
 10
263.8870306217245
 20
47.57144665957765
 30
0.0
 10
263.4847369939728
 20
48.69059259048941
 30
0.0
 10
263.269383314253
 20
49.24599586116231
 30
0.0
 10
262.1313401495258
 20
51.97847536681116
 30
0.0
 10
261.0204607435792
 20
54.04672717222707
 30
0.0
 10
259.0637535037586
 20
56.97830818544006
 30
0.0
 10
258.3623343881403
 20
57.92657714909368
 30
0.0
 10
257.2361026941177
 20
59.30540556835061
 30
0.0
 10
256.8479484966077
 20
59.757964366116
 30
0.0
 10
256.0552683311641
 20
60.63869325568751
 30
0.0
 10
255.6497488659459
 20
61.0681306559017
 30
0.0
 10
253.5769353355392
 20
63.16144844964987
 30
0.0
 10
251.7749208296463
 20
64.66492963629914
 30
0.0
 10
249.3494661606136
 20
66.33814870155258
 30
0.0
 10
248.8556045981352
 20
66.66233231686257
 30
0.0
 10
247.8500133487129
 20
67.28937061072787
 30
0.0
 10
247.3375858422377
 20
67.59261709192587
 30
0.0
 10
245.7888218694539
 20
68.4622188856411
 30
0.0
 10
244.736525749285
 20
68.99148196794445
 30
0.0
 10
241.5226776934516
 20
70.4336572001746
 30
0.0
 10
239.3041855668628
 20
71.20084825283625
 30
0.0
 10
236.4369143124657
 20
71.92000626618591
 30
0.0
 10
235.8577398947827
 20
72.05191520561637
 30
0.0
 10
234.6961716998094
 20
72.28980004327151
 30
0.0
 10
234.1135465035539
 20
72.39585925200086
 30
0.0
 10
232.3601094611352
 20
72.67572481113254
 30
0.0
 10
231.1837666554373
 20
72.81140340224562
 30
0.0
 10
230.0000000040369
 20
72.89602012767935
 30
0.0
  0
CIRCLE
  5
AB
330
1F
100
AcDbEntity
  8
0
  6
Continuous
 62
     7
370
    25
100
AcDbCircle
 10
0.0
 20
122.5
 30
0.0
 40
17.49999999999993
  0
CIRCLE
  5
AC
330
1F
100
AcDbEntity
  8
0
  6
Continuous
 62
     7
370
    25
100
AcDbCircle
 10
100.0
 20
124.2714514136
 30
0.0
 40
17.49999999999993
  0
CIRCLE
  5
AD
330
1F
100
AcDbEntity
  8
0
  6
Continuous
 62
     7
370
    25
100
AcDbCircle
 10
0.0
 20
-2.5
 30
0.0
 40
33.32842712474625
  0
CIRCLE
  5
AE
330
1F
100
AcDbEntity
  8
0
  6
Continuous
 62
     7
370
    25
100
AcDbCircle
 10
0.0
 20
-2.5
 30
0.0
 40
31.91421356237321
  0
CIRCLE
  5
B1
330
1F
100
AcDbEntity
  8
0
  6
Continuous
 62
     7
370
    25
100
AcDbCircle
 10
0.0
 20
-2.5
 30
0.0
 40
23.08578643762694
  0
CIRCLE
  5
B2
330
1F
100
AcDbEntity
  8
0
  6
Continuous
 62
     7
370
    25
100
AcDbCircle
 10
0.0
 20
-2.5
 30
0.0
 40
22.50000000000001
  0
LINE
  5
B7
330
1F
100
AcDbEntity
  8
0
  6
Continuous
 62
     7
370
    25
100
AcDbLine
 10
-274.7848794989
 20
187.5
 30
0.0
 11
-274.7848794989
 21
-142.5
 31
0.0
  0
LINE
  5
B8
330
1F
100
AcDbEntity
  8
0
  6
Continuous
 62
     7
370
    25
100
AcDbLine
 10
-230.0
 20
-187.2848794989
 30
0.0
 11
230.0
 21
-187.2848794989
 31
0.0
  0
LINE
  5
B9
330
1F
100
AcDbEntity
  8
0
  6
Continuous
 62
     7
370
    25
100
AcDbLine
 10
274.7848794989
 20
-142.5
 30
0.0
 11
274.7848794989
 21
187.5
 31
0.0
  0
LINE
  5
BA
330
1F
100
AcDbEntity
  8
0
  6
Continuous
 62
     7
370
    25
100
AcDbLine
 10
-229.047775387
 20
-175.8097192509
 30
0.0
 11
229.047775387
 21
-175.8097192509
 31
0.0
  0
LINE
  5
BB
330
1F
100
AcDbEntity
  8
0
  6
Continuous
 62
     7
370
    25
100
AcDbLine
 10
229.9999999998
 20
-175.8243539866
 30
0.0
 11
230.0743556248
 21
-178.7564639564
 31
0.0
  0
LINE
  5
BC
330
1F
100
AcDbEntity
  8
0
  6
Continuous
 62
     7
370
    25
100
AcDbLine
 10
-229.9999999998
 20
-175.8243539866
 30
0.0
 11
-230.0743556248
 21
-178.7564639564
 31
0.0
  0
LINE
  5
BD
330
1F
100
AcDbEntity
  8
0
  6
Continuous
 62
     7
370
    25
100
AcDbLine
 10
-268.790826093
 20
-140.0806397152
 30
0.0
 11
-265.8217530793
 21
-140.0000000061
 31
0.0
  0
LINE
  5
BE
330
1F
100
AcDbEntity
  8
0
  6
Continuous
 62
     7
370
    25
100
AcDbLine
 10
265.8217530793
 20
-139.9999999998
 30
0.0
 11
268.7908260932
 21
-140.0806397084
 31
0.0
  0
LINE
  5
BF
330
1F
100
AcDbEntity
  8
0
  6
Continuous
 62
     7
370
    25
100
AcDbLine
 10
-268.8057988917
 20
35.9999999998
 30
0.0
 11
-265.8056516701
 21
35.9999999998
 31
0.0
  0
LINE
  5
C0
330
1F
100
AcDbEntity
  8
0
  6
Continuous
 62
     7
370
    25
100
AcDbLine
 10
-265.8056516701
 20
35.9999999998
 30
0.0
 11
-265.8056516701
 21
-138.9780318285
 31
0.0
  0
LINE
  5
C1
330
1F
100
AcDbEntity
  8
0
  6
Continuous
 62
     7
370
    25
100
AcDbLine
 10
-270.7848794989
 20
187.5
 30
0.0
 11
-270.7848794989
 21
-142.5
 31
0.0
  0
LINE
  5
C2
330
1F
100
AcDbEntity
  8
0
  6
Continuous
 62
     7
370
    25
100
AcDbLine
 10
274.7848794989
 20
187.5
 30
0.0
 11
-274.7848794989
 21
187.5
 31
0.0
  0
LINE
  5
C3
330
1F
100
AcDbEntity
  8
0
  6
Continuous
 62
     7
370
    25
100
AcDbLine
 10
270.7848794989
 20
-142.5
 30
0.0
 11
270.7848794989
 21
187.5
 31
0.0
  0
LINE
  5
C4
330
1F
100
AcDbEntity
  8
0
  6
Continuous
 62
     7
370
    25
100
AcDbLine
 10
-230.0
 20
-183.2848794989
 30
0.0
 11
230.0
 21
-183.2848794989
 31
0.0
  0
LINE
  5
C5
330
1F
100
AcDbEntity
  8
0
  6
Continuous
 62
     7
370
    25
100
AcDbLine
 10
-230.3015078643
 20
76.8785090831
 30
0.0
 11
-229.9999999863
 21
72.8960201289
 31
0.0
  0
LINE
  5
C6
330
1F
100
AcDbEntity
  8
0
  6
Continuous
 62
     7
370
    25
100
AcDbLine
 10
265.8056516701
 20
-138.9780318285
 30
0.0
 11
265.8056516701
 21
36.0000000061
 31
0.0
  0
LINE
  5
C7
330
1F
100
AcDbEntity
  8
0
  6
Continuous
 62
     7
370
    25
100
AcDbLine
 10
265.8056516701
 20
36.0000000061
 30
0.0
 11
268.8057988917
 21
36.0000000061
 31
0.0
  0
LINE
  5
C8
330
1F
100
AcDbEntity
  8
0
  6
Continuous
 62
     7
370
    25
100
AcDbLine
 10
230.3015078839
 20
76.8785090816
 30
0.0
 11
230.000000004
 21
72.8960201277
 31
0.0
  0
LINE
  5
C9
330
1F
100
AcDbEntity
  8
0
  6
Continuous
 62
     7
370
    25
100
AcDbLine
 10
227.0909090774
 20
73.0
 30
0.0
 11
-227.0909090774
 21
73.0
 31
0.0
  0
LINE
  5
CA
330
1F
100
AcDbEntity
  8
0
  6
Continuous
 62
     7
370
    25
100
AcDbLine
 10
-170.0
 20
53.0
 30
0.0
 11
-170.0
 21
-57.0
 31
0.0
  0
LINE
  5
CB
330
1F
100
AcDbEntity
  8
0
  6
Continuous
 62
     7
370
    25
100
AcDbLine
 10
-150.0
 20
-77.0
 30
0.0
 11
150.0
 21
-77.0
 31
0.0
  0
LINE
  5
CC
330
1F
100
AcDbEntity
  8
0
  6
Continuous
 62
     7
370
    25
100
AcDbLine
 10
170.0
 20
-57.0
 30
0.0
 11
170.0
 21
53.0
 31
0.0
  0
LINE
  5
CD
330
1F
100
AcDbEntity
  8
0
  6
Continuous
 62
     8
370
    25
100
AcDbLine
 10
-274.7848794989
 20
-142.5
 30
0.0
 11
-270.7848794989
 21
-142.5
 31
0.0
  0
LINE
  5
CE
330
1F
100
AcDbEntity
  8
0
  6
Continuous
 62
     8
370
    25
100
AcDbLine
 10
230.0
 20
-187.2848794989
 30
0.0
 11
230.0
 21
-183.2848794989
 31
0.0
  0
LINE
  5
CF
330
1F
100
AcDbEntity
  8
0
  6
Continuous
 62
     8
370
    25
100
AcDbLine
 10
274.7848794989
 20
-142.5
 30
0.0
 11
270.7848794989
 21
-142.5
 31
0.0
  0
LINE
  5
D0
330
1F
100
AcDbEntity
  8
0
  6
Continuous
 62
     8
370
    25
100
AcDbLine
 10
-230.0
 20
-187.2848794989
 30
0.0
 11
-230.0
 21
-183.2848794989
 31
0.0
  0
ARC
  5
D1
330
1F
100
AcDbEntity
  8
0
  6
Continuous
 62
     7
370
    25
100
AcDbCircle
 10
230.0
 20
-142.5
 30
0.0
 40
44.78487949887631
100
AcDbArc
 50
270.0
 51
0.0
  0
ARC
  5
D2
330
1F
100
AcDbEntity
  8
0
  6
Continuous
 62
     7
370
    25
100
AcDbCircle
 10
-230.0
 20
-142.5
 30
0.0
 40
44.78487949887625
100
AcDbArc
 50
180.0
 51
270.0
  0
ARC
  5
D3
330
1F
100
AcDbEntity
  8
0
  6
Continuous
 62
     7
370
    25
100
AcDbCircle
 10
230.0
 20
-142.5
 30
0.0
 40
40.78487949887588
100
AcDbArc
 50
270.0
 51
0.0
  0
ARC
  5
D4
330
1F
100
AcDbEntity
  8
0
  6
Continuous
 62
     7
370
    25
100
AcDbCircle
 10
-230.0
 20
-142.5
 30
0.0
 40
40.78487949887614
100
AcDbArc
 50
180.0
 51
270.0
  0
ARC
  5
D5
330
1F
100
AcDbEntity
  8
0
  6
Continuous
 62
     7
370
    25
100
AcDbCircle
 10
-150.0
 20
53.0
 30
0.0
 40
19.99999999999992
100
AcDbArc
 50
90.0
 51
180.0
  0
ARC
  5
D6
330
1F
100
AcDbEntity
  8
0
  6
Continuous
 62
     7
370
    25
100
AcDbCircle
 10
-150.0
 20
-57.0
 30
0.0
 40
19.99999999999996
100
AcDbArc
 50
180.0
 51
270.0
  0
ARC
  5
D7
330
1F
100
AcDbEntity
  8
0
  6
Continuous
 62
     7
370
    25
100
AcDbCircle
 10
150.0
 20
-57.0
 30
0.0
 40
19.99999999999998
100
AcDbArc
 50
270.0
 51
0.0
  0
ARC
  5
D8
330
1F
100
AcDbEntity
  8
0
  6
Continuous
 62
     7
370
    25
100
AcDbCircle
 10
150.0
 20
53.0
 30
0.0
 40
20.00000000000001
100
AcDbArc
 50
0.0
 51
90.0
  0
ARC
  5
D9
330
1F
100
AcDbEntity
  8
0
  6
Continuous
 62
     7
370
    25
100
AcDbCircle
 10
0.0
 20
-2.5
 30
0.0
 40
24.49999999999998
100
AcDbArc
 50
47.9142067208
 51
132.0857932792
  0
ARC
  5
DA
330
1F
100
AcDbEntity
  8
0
  6
Continuous
 62
     7
370
    25
100
AcDbCircle
 10
0.0
 20
-1.6411395005
 30
0.0
 40
23.86954572522328
100
AcDbArc
 50
46.5323110497
 51
133.4676889503
  0
SPLINE
  5
DB
330
1B
100
AcDbEntity
 67
     1
  8
0
  6
Continuous
 62
     7
370
    25
100
AcDbSpline
210
0.0
220
0.0
230
1.0
 70
     8
 71
     3
 72
    15
 73
    11
 74
     0
 42
0.000000001
 43
0.00000001
 40
0.0
 40
0.0
 40
0.0
 40
0.0
 40
0.2182502814011369
 40
0.3934699035960063
 40
0.5396358810255464
 40
0.6616946309867008
 40
0.755603528314221
 40
0.8330277986691903
 40
0.9218120110776717
 40
0.9999999999999999
 40
0.9999999999999999
 40
0.9999999999999999
 40
0.9999999999999999
 10
89.99999999999999
 20
-118.8906931030314
 30
0.0
 10
90.02645977655659
 20
-118.6438129030252
 30
0.0
 10
90.07416246754086
 20
-118.1987278938671
 30
0.0
 10
90.39142487108367
 20
-117.6672246863087
 30
0.0
 10
90.74132575924223
 20
-117.3202812620205
 30
0.0
 10
91.06977119583554
 20
-117.1184022204883
 30
0.0
 10
91.31009480704743
 20
-117.0221304707726
 30
0.0
 10
91.44847114283529
 20
-116.9827324293732
 30
0.0
 10
91.51726679059665
 20
-116.9687948776875
 30
0.0
 10
91.51364525295764
 20
-116.969499071734
 30
0.0
 10
91.51194939734489
 20
-116.9698288243268
 30
0.0
  0
SPLINE
  5
DE
330
1B
100
AcDbEntity
 67
     1
  8
0
  6
Continuous
 62
     7
370
    25
100
AcDbSpline
210
0.0
220
0.0
230
1.0
 70
     8
 71
     3
 72
    13
 73
     9
 74
     0
 42
0.000000001
 43
0.00000001
 40
0.0
 40
0.0
 40
0.0
 40
0.0
 40
0.2284206520622962
 40
0.4228128191162215
 40
0.5908589767990055
 40
0.7551430311947595
 40
0.9249355509956887
 40
1.0
 40
1.0
 40
1.0
 40
1.0
 10
-37.53713379272731
 20
-118.8762144513618
 30
0.0
 10
-37.53047837147511
 20
-118.8777332332199
 30
0.0
 10
-37.51815900631858
 20
-118.8805445396111
 30
0.0
 10
-37.34073457401589
 20
-118.9560633314
 30
0.0
 10
-37.03213870901889
 20
-119.1526392331813
 30
0.0
 10
-36.65760951347868
 20
-119.5726144208051
 30
0.0
 10
-36.39391313634442
 20
-120.1026208907269
 30
0.0
 10
-36.40823109511113
 20
-120.4554184769022
 30
0.0
 10
-36.41262047267687
 20
-120.5635736850039
 30
0.0
  0
SPLINE
  5
DF
330
1B
100
AcDbEntity
 67
     1
  8
0
  6
Continuous
 62
     7
370
    25
100
AcDbSpline
210
0.0
220
0.0
230
1.0
 70
     8
 71
     3
 72
    16
 73
    12
 74
     0
 42
0.000000001
 43
0.00000001
 40
0.0
 40
0.0
 40
0.0
 40
0.0
 40
0.0008063578391926
 40
0.1132590747590318
 40
0.2412617648436586
 40
0.3809111240241786
 40
0.5282545149522451
 40
0.6800280086523767
 40
0.8486686466453232
 40
0.9986789701003406
 40
1.0
 40
1.0
 40
1.0
 40
1.0
 10
35.01186036734005
 20
-159.663810988953
 30
0.0
 10
35.01183711672935
 20
-159.6624489126169
 30
0.0
 10
35.00857139210051
 20
-159.471134959837
 30
0.0
 10
35.08855000688685
 20
-158.8933736783636
 30
0.0
 10
35.34754881500967
 20
-158.0205362250364
 30
0.0
 10
35.85567235057761
 20
-157.0841087482111
 30
0.0
 10
36.60517141070255
 20
-156.2347090138202
 30
0.0
 10
37.60126938142453
 20
-155.5246325712985
 30
0.0
 10
38.74802042180951
 20
-155.1132636110309
 30
0.0
 10
39.58264807322024
 20
-154.9581003460031
 30
0.0
 10
39.96718086618515
 20
-155.0004102185883
 30
0.0
 10
39.97053760162461
 20
-155.0007795578263
 30
0.0
  0
SPLINE
  5
106
330
1B
100
AcDbEntity
 67
     1
  8
0
  6
Continuous
 62
     7
370
    25
100
AcDbSpline
210
0.0
220
0.0
230
1.0
 70
     8
 71
     3
 72
     8
 73
     4
 74
     0
 42
0.000000001
 43
0.00000001
 40
0.0
 40
0.0
 40
0.0
 40
0.0
 40
1.0
 40
1.0
 40
1.0
 40
1.0
 10
-157.6278203356773
 20
-130.0000000000057
 30
0.0
 10
-157.1200128069362
 20
-129.3997194949051
 30
0.0
 10
-156.6094464272239
 20
-128.8270266301001
 30
0.0
 10
-156.0964453232251
 20
-128.2786802408904
 30
0.0
  0
SPLINE
  5
108
330
1B
100
AcDbEntity
 67
     1
  8
0
  6
Continuous
 62
     7
370
    25
100
AcDbSpline
210
0.0
220
0.0
230
1.0
 70
     8
 71
     3
 72
     8
 73
     4
 74
     0
 42
0.000000001
 43
0.00000001
 40
0.0
 40
0.0
 40
0.0
 40
0.0
 40
1.0
 40
1.0
 40
1.0
 40
1.0
 10
156.0964453232251
 20
-128.2786802408903
 30
0.0
 10
156.6094464272223
 20
-128.8270266300983
 30
0.0
 10
157.1200128069329
 20
-129.3997194949014
 30
0.0
 10
157.6278203356724
 20
-130.0
 30
0.0
  0
SPLINE
  5
118
330
1B
100
AcDbEntity
 67
     1
  8
0
  6
Continuous
 62
     7
370
    25
100
AcDbSpline
210
0.0
220
0.0
230
1.0
 70
     8
 71
     3
 72
     8
 73
     4
 74
     0
 42
0.000000001
 43
0.00000001
 40
0.0
 40
0.0
 40
0.0
 40
0.0
 40
1.0
 40
1.0
 40
1.0
 40
1.0
 10
158.5695265453396
 20
-133.2133603663801
 30
0.0
 10
158.111364696005
 20
-132.67225759453
 30
0.0
 10
157.6511223485807
 20
-132.156763997147
 30
0.0
 10
157.1890548327906
 20
-131.6637612781221
 30
0.0
  0
SPLINE
  5
11C
330
1B
100
AcDbEntity
 67
     1
  8
0
  6
Continuous
 62
     7
370
    25
100
AcDbSpline
210
0.0
220
0.0
230
1.0
 70
     8
 71
     3
 72
     8
 73
     4
 74
     0
 42
0.000000001
 43
0.00000001
 40
0.0
 40
0.0
 40
0.0
 40
0.0
 40
1.0
 40
1.0
 40
1.0
 40
1.0
 10
-157.1890548327906
 20
-131.6637612781222
 30
0.0
 10
-157.6511223485823
 20
-132.1567639971487
 30
0.0
 10
-158.111364696008
 20
-132.6722575945334
 30
0.0
 10
-158.5695265453441
 20
-133.2133603663854
 30
0.0
  0
SPLINE
  5
11E
330
1B
100
AcDbEntity
 67
     1
  8
0
  6
Continuous
 62
     7
370
    25
100
AcDbSpline
210
0.0
220
0.0
230
1.0
 70
     8
 71
     3
 72
     8
 73
     4
 74
     0
 42
0.000000001
 43
0.00000001
 40
0.0
 40
0.0
 40
0.0
 40
0.0
 40
1.0
 40
1.0
 40
1.0
 40
1.0
 10
158.634525104308
 20
-133.7508748392428
 30
0.0
 10
158.5914428736355
 20
-133.5717038513231
 30
0.0
 10
158.5717020771569
 20
-133.392532379063
 30
0.0
 10
158.5695265453396
 20
-133.21336036638
 30
0.0
  0
SPLINE
  5
11F
330
1B
100
AcDbEntity
 67
     1
  8
0
  6
Continuous
 62
     7
370
    25
100
AcDbSpline
210
0.0
220
0.0
230
1.0
 70
     8
 71
     3
 72
    38
 73
    34
 74
     0
 42
0.000000001
 43
0.00000001
 40
0.0
 40
0.0
 40
0.0
 40
0.0
 40
0.1250000000000024
 40
0.1250000000000024
 40
0.1875000000000036
 40
0.1875000000000036
 40
0.2500000000000047
 40
0.2500000000000047
 40
0.3125000000000059
 40
0.3125000000000059
 40
0.3437500000000062
 40
0.3437500000000062
 40
0.3750000000000065
 40
0.3750000000000065
 40
0.5000000000000077
 40
0.5000000000000077
 40
0.531250000000007
 40
0.531250000000007
 40
0.5625000000000064
 40
0.5625000000000064
 40
0.6250000000000043
 40
0.6250000000000043
 40
0.6875000000000023
 40
0.6875000000000023
 40
0.7187500000000021
 40
0.7187500000000021
 40
0.7500000000000019
 40
0.7500000000000019
 40
0.875000000000001
 40
0.875000000000001
 40
0.9375000000000004
 40
0.9375000000000004
 40
1.0
 40
1.0
 40
1.0
 40
1.0
 10
126.8346708161648
 20
-122.4478468546348
 30
0.0
 10
129.1399931476437
 20
-122.4481630963498
 30
0.0
 10
131.4045724883974
 20
-122.5999884865502
 30
0.0
 10
134.740707271177
 20
-123.0410270907708
 30
0.0
 10
135.8439466810096
 20
-123.223989010557
 30
0.0
 10
138.023022563008
 20
-123.658781737584
 30
0.0
 10
139.0802742784004
 20
-123.9067857090442
 30
0.0
 10
141.1317728301874
 20
-124.4553582685305
 30
0.0
 10
142.1260062324854
 20
-124.7559510326921
 30
0.0
 10
143.5698553127973
 20
-125.2399890282577
 30
0.0
 10
144.0432082165887
 20
-125.4068594380839
 30
0.0
 10
144.9738633042247
 20
-125.7505640117768
 30
0.0
 10
145.4320978345058
 20
-125.9277775920416
 30
0.0
 10
147.6720354306744
 20
-126.8317050390831
 30
0.0
 10
149.2611165572892
 20
-127.5946518062075
 30
0.0
 10
151.0202003361696
 20
-128.5386558567308
 30
0.0
 10
151.3605755733547
 20
-128.7269928213928
 30
0.0
 10
152.0188133147546
 20
-129.1012991695796
 30
0.0
 10
152.3375695172278
 20
-129.2878163537324
 30
0.0
 10
153.2519080075492
 20
-129.8364359327537
 30
0.0
 10
153.8066521730968
 20
-130.1879751708018
 30
0.0
 10
154.8177674510631
 20
-130.8545337752153
 30
0.0
 10
155.2741179141688
 20
-131.1695723623029
 30
0.0
 10
155.8908322138622
 20
-131.6092520980299
 30
0.0
 10
156.0850783426205
 20
-131.7503363834642
 30
0.0
 10
156.4516488890865
 20
-132.020660887779
 30
0.0
 10
156.6241077745233
 20
-132.1500123465578
 30
0.0
 10
157.4257494335735
 20
-132.7593403656031
 30
0.0
 10
157.8827510317964
 20
-133.1324616532436
 30
0.0
 10
158.3373498159075
 20
-133.5074359911542
 30
0.0
 10
158.4500117868913
 20
-133.6016976094001
 30
0.0
 10
158.5991820709557
 20
-133.7253644927119
 30
0.0
 10
158.6354035834995
 20
-133.7545282708814
 30
0.0
 10
158.634525104308
 20
-133.7508748392428
 30
0.0
  0
SPLINE
  5
120
330
1B
100
AcDbEntity
 67
     1
  8
0
  6
Continuous
 62
     7
370
    25
100
AcDbSpline
210
0.0
220
0.0
230
1.0
 70
     8
 71
     3
 72
    10
 73
     6
 74
     0
 42
0.000000001
 43
0.00000001
 40
0.0
 40
0.0
 40
0.0
 40
0.0
 40
0.5
 40
0.5
 40
1.0
 40
1.0
 40
1.0
 40
1.0
 10
126.8346708161641
 20
-122.4478468546349
 30
0.0
 10
125.5718492835116
 20
-121.3285305731046
 30
0.0
 10
124.43590414573
 20
-120.2090559549549
 30
0.0
 10
122.3525073308763
 20
-117.969871486425
 30
0.0
 10
121.4057316684542
 20
-116.8501859734161
 30
0.0
 10
120.5346755258686
 20
-115.7304287492184
 30
0.0
  0
SPLINE
  5
121
330
1B
100
AcDbEntity
 67
     1
  8
0
  6
Continuous
 62
     7
370
    25
100
AcDbSpline
210
0.0
220
0.0
230
1.0
 70
     8
 71
     3
 72
    20
 73
    16
 74
     0
 42
0.000000001
 43
0.00000001
 40
0.0
 40
0.0
 40
0.0
 40
0.0
 40
0.2500000000000007
 40
0.2500000000000007
 40
0.312500000000001
 40
0.312500000000001
 40
0.3750000000000013
 40
0.3750000000000013
 40
0.5000000000000024
 40
0.5000000000000024
 40
0.7500000000000019
 40
0.7500000000000019
 40
0.8750000000000018
 40
0.8750000000000018
 40
1.0
 40
1.0
 40
1.0
 40
1.0
 10
148.5278912692191
 20
-124.2957236954148
 30
0.0
 10
146.4620962781904
 20
-122.9018253548595
 30
0.0
 10
144.3083300613409
 20
-121.6716330051711
 30
0.0
 10
141.5073953602341
 20
-120.3362229270857
 30
0.0
 10
140.9417437081013
 20
-120.0793102147305
 30
0.0
 10
139.7994278133405
 20
-119.5859781617398
 30
0.0
 10
139.2223760601941
 20
-119.3494528639324
 30
0.0
 10
137.4861967576594
 20
-118.6752534541028
 30
0.0
 10
136.3183930894907
 20
-118.2712416135551
 30
0.0
 10
132.7846719477781
 20
-117.1923098259556
 30
0.0
 10
130.3886050361623
 20
-116.6497879195844
 30
0.0
 10
126.7340608178078
 20
-116.101437792986
 30
0.0
 10
125.5057653113455
 20
-115.9630694118285
 30
0.0
 10
123.0284278095266
 20
-115.7774386481637
 30
0.0
 10
121.7807380852183
 20
-115.7305467129486
 30
0.0
 10
120.5346755258686
 20
-115.7304287492184
 30
0.0
  0
SPLINE
  5
122
330
1B
100
AcDbEntity
 67
     1
  8
0
  6
Continuous
 62
     7
370
    25
100
AcDbSpline
210
0.0
220
0.0
230
1.0
 70
     8
 71
     3
 72
    20
 73
    16
 74
     0
 42
0.000000001
 43
0.00000001
 40
0.0
 40
0.0
 40
0.0
 40
0.0
 40
0.249999999999998
 40
0.249999999999998
 40
0.3749999999999983
 40
0.3749999999999983
 40
0.4999999999999987
 40
0.4999999999999987
 40
0.624999999999999
 40
0.624999999999999
 40
0.7499999999999993
 40
0.7499999999999993
 40
0.8749999999999997
 40
0.8749999999999997
 40
1.0
 40
1.0
 40
1.0
 40
1.0
 10
148.5278912692191
 20
-124.2957236954148
 30
0.0
 10
149.5107138575961
 20
-124.9588847452519
 30
0.0
 10
150.4453086311178
 20
-125.637291145228
 30
0.0
 10
151.7832693618336
 20
-126.6760984461141
 30
0.0
 10
152.2210553905628
 20
-127.0280852610754
 30
0.0
 10
153.0527197787706
 20
-127.7186926493398
 30
0.0
 10
153.4489486297551
 20
-128.0590002274201
 30
0.0
 10
154.2040716058168
 20
-128.7269862364177
 30
0.0
 10
154.5638785076138
 20
-129.0555467558483
 30
0.0
 10
155.2414658528396
 20
-129.6913384284708
 30
0.0
 10
155.5535229780179
 20
-129.9931286441741
 30
0.0
 10
156.1240986085592
 20
-130.5575296528028
 30
0.0
 10
156.3826944313998
 20
-130.8202533802417
 30
0.0
 10
156.8404595316586
 20
-131.2935901348994
 30
0.0
 10
157.0341095759383
 20
-131.4984425090727
 30
0.0
 10
157.1890548327906
 20
-131.6637612781222
 30
0.0
  0
SPLINE
  5
126
330
1B
100
AcDbEntity
 67
     1
  8
0
  6
Continuous
 62
     7
370
    25
100
AcDbSpline
210
0.0
220
0.0
230
1.0
 70
     8
 71
     3
 72
     8
 73
     4
 74
     0
 42
0.000000001
 43
0.00000001
 40
0.0
 40
0.0
 40
0.0
 40
0.0
 40
1.0
 40
1.0
 40
1.0
 40
1.0
 10
-158.5695265453395
 20
-133.21336036638
 30
0.0
 10
-158.5717020771916
 20
-133.3925323819331
 30
0.0
 10
-158.5914428734039
 20
-133.5717038503601
 30
0.0
 10
-158.634525104308
 20
-133.7508748392428
 30
0.0
  0
SPLINE
  5
128
330
1B
100
AcDbEntity
 67
     1
  8
0
  6
Continuous
 62
     7
370
    25
100
AcDbSpline
210
0.0
220
0.0
230
1.0
 70
     8
 71
     3
 72
    20
 73
    16
 74
     0
 42
0.000000001
 43
0.00000001
 40
0.0
 40
0.0
 40
0.0
 40
0.0
 40
0.2499999999999947
 40
0.2499999999999947
 40
0.3124999999999947
 40
0.3124999999999947
 40
0.3749999999999948
 40
0.3749999999999948
 40
0.4999999999999946
 40
0.4999999999999946
 40
0.7499999999999969
 40
0.7499999999999969
 40
0.8749999999999984
 40
0.8749999999999984
 40
1.0
 40
1.0
 40
1.0
 40
1.0
 10
-120.5346755258686
 20
-115.7304287492183
 30
0.0
 10
-123.026791985963
 20
-115.7306646758589
 30
0.0
 10
-125.5001818137178
 20
-115.9161555274817
 30
0.0
 10
-128.568795779707
 20
-116.3767686134018
 30
0.0
 10
-129.1813563644084
 20
-116.4803884832761
 30
0.0
 10
-130.4041359594337
 20
-116.7107924588602
 30
0.0
 10
-131.0147362367178
 20
-116.8377058533651
 30
0.0
 10
-132.8308939867022
 20
-117.2505915669504
 30
0.0
 10
-134.024798089784
 20
-117.5693329025578
 30
0.0
 10
-137.5571412251836
 20
-118.6528282516963
 30
0.0
 10
-139.8464724706251
 20
-119.5441797644058
 30
0.0
 10
-143.1821135542095
 20
-121.1347634859911
 30
0.0
 10
-144.2775359452632
 20
-121.7073859104068
 30
0.0
 10
-146.4346386538884
 20
-122.9396161918784
 30
0.0
 10
-147.4949968310836
 20
-123.5987765881082
 30
0.0
 10
-148.5278912692191
 20
-124.2957236954148
 30
0.0
  0
SPLINE
  5
129
330
1B
100
AcDbEntity
 67
     1
  8
0
  6
Continuous
 62
     7
370
    25
100
AcDbSpline
210
0.0
220
0.0
230
1.0
 70
     8
 71
     3
 72
    10
 73
     6
 74
     0
 42
0.000000001
 43
0.00000001
 40
0.0
 40
0.0
 40
0.0
 40
0.0
 40
0.5
 40
0.5
 40
1.0
 40
1.0
 40
1.0
 40
1.0
 10
-120.5346755258686
 20
-115.7304287492184
 30
0.0
 10
-121.4057423389327
 20
-116.8501996904945
 30
0.0
 10
-122.3525280405263
 20
-117.9698943724425
 30
0.0
 10
-124.43590248468
 20
-120.2090535419058
 30
0.0
 10
-125.5718416357819
 20
-121.3285237944521
 30
0.0
 10
-126.8346708161641
 20
-122.4478468546349
 30
0.0
  0
SPLINE
  5
12A
330
1B
100
AcDbEntity
 67
     1
  8
0
  6
Continuous
 62
     7
370
    25
100
AcDbSpline
210
0.0
220
0.0
230
1.0
 70
     8
 71
     3
 72
    36
 73
    32
 74
     0
 42
0.000000001
 43
0.00000001
 40
0.0
 40
0.0
 40
0.0
 40
0.0
 40
0.1250000000000013
 40
0.1250000000000013
 40
0.1875000000000015
 40
0.1875000000000015
 40
0.2187500000000016
 40
0.2187500000000016
 40
0.2500000000000018
 40
0.2500000000000018
 40
0.3750000000000043
 40
0.3750000000000043
 40
0.4375000000000061
 40
0.4375000000000061
 40
0.4687500000000069
 40
0.4687500000000069
 40
0.5000000000000078
 40
0.5000000000000078
 40
0.6250000000000082
 40
0.6250000000000082
 40
0.6562500000000075
 40
0.6562500000000075
 40
0.687500000000007
 40
0.687500000000007
 40
0.7500000000000057
 40
0.7500000000000057
 40
0.8125000000000043
 40
0.8125000000000043
 40
0.8750000000000029
 40
0.8750000000000029
 40
1.0
 40
1.0
 40
1.0
 40
1.0
 10
-158.634525104308
 20
-133.7508748392428
 30
0.0
 10
-158.6362838685884
 20
-133.758189212912
 30
0.0
 10
-158.491030801901
 20
-133.634259146681
 30
0.0
 10
-158.0404080609283
 20
-133.2624753112134
 30
0.0
 10
-157.8509939017184
 20
-133.1074746320275
 30
0.0
 10
-157.5024394783053
 20
-132.8290892867913
 30
0.0
 10
-157.3754853502008
 20
-132.7286431953099
 30
0.0
 10
-157.0986930846034
 20
-132.512534107422
 30
0.0
 10
-156.9489975173573
 20
-132.3969947505948
 30
0.0
 10
-156.149303439746
 20
-131.7889813245825
 30
0.0
 10
-155.34182412743
 20
-131.2009720123983
 30
0.0
 10
-153.8354770650057
 20
-130.2065135753957
 30
0.0
 10
-153.2838240120243
 20
-129.85630701732
 30
0.0
 10
-152.3728468939806
 20
-129.3086525308707
 30
0.0
 10
-152.0541041230784
 20
-129.1217596806015
 30
0.0
 10
-151.3956718276234
 20
-128.7465976660462
 30
0.0
 10
-151.0554491636726
 20
-128.557975596054
 30
0.0
 10
-149.2986965163314
 20
-127.6133020131732
 30
0.0
 10
-147.7163628768396
 20
-126.8523978785905
 30
0.0
 10
-145.4971191290509
 20
-125.9533749082295
 30
0.0
 10
-145.0411297222246
 20
-125.7761913973599
 30
0.0
 10
-144.104021782725
 20
-125.4286342568505
 30
0.0
 10
-143.626014718518
 20
-125.2594543279081
 30
0.0
 10
-142.1727303281633
 20
-124.7704375308818
 30
0.0
 10
-141.1746288322232
 20
-124.4677849726256
 30
0.0
 10
-139.1212197508644
 20
-123.9168062631647
 30
0.0
 10
-138.0659192613194
 20
-123.6684572625229
 30
0.0
 10
-135.8977122834086
 20
-123.2336492667579
 30
0.0
 10
-134.7808991522093
 20
-123.0470719729394
 30
0.0
 10
-131.4208998307084
 20
-122.6007151084297
 30
0.0
 10
-129.1453871290034
 20
-122.4481638362905
 30
0.0
 10
-126.8346708161641
 20
-122.4478468546349
 30
0.0
  0
SPLINE
  5
12B
330
1B
100
AcDbEntity
 67
     1
  8
0
  6
Continuous
 62
     7
370
    25
100
AcDbSpline
210
0.0
220
0.0
230
1.0
 70
     8
 71
     3
 72
    22
 73
    18
 74
     0
 42
0.000000001
 43
0.00000001
 40
0.0
 40
0.0
 40
0.0
 40
0.0
 40
0.1249999999999984
 40
0.1249999999999984
 40
0.2499999999999968
 40
0.2499999999999968
 40
0.3749999999999952
 40
0.3749999999999952
 40
0.4999999999999936
 40
0.4999999999999936
 40
0.7499999999999889
 40
0.7499999999999889
 40
0.8124999999999892
 40
0.8124999999999892
 40
0.8749999999999895
 40
0.8749999999999895
 40
1.0
 40
1.0
 40
1.0
 40
1.0
 10
-157.1890548327906
 20
-131.6637612781222
 30
0.0
 10
-157.0340696291177
 20
-131.4983998878312
 30
0.0
 10
-156.841896449568
 20
-131.2951545095538
 30
0.0
 10
-156.3929535395035
 20
-130.8307849125102
 30
0.0
 10
-156.1356544051317
 20
-130.5691063399362
 30
0.0
 10
-155.5596308487513
 20
-129.9990288799729
 30
0.0
 10
-155.2473409674939
 20
-129.6970176842541
 30
0.0
 10
-154.5767655205639
 20
-129.0674769165556
 30
0.0
 10
-154.2173449447449
 20
-128.73891017846
 30
0.0
 10
-153.0745149378076
 20
-127.727416551844
 30
0.0
 10
-152.2487988243664
 20
-127.0381168437284
 30
0.0
 10
-151.1294977753606
 20
-126.1683654028057
 30
0.0
 10
-150.900584937475
 20
-125.9935017954643
 30
0.0
 10
-150.4390252965995
 20
-125.6470841453571
 30
0.0
 10
-150.2058828290974
 20
-125.4751294946924
 30
0.0
 10
-149.4992648534065
 20
-124.9630907151703
 30
0.0
 10
-149.0186217258741
 20
-124.6268448241628
 30
0.0
 10
-148.5278912692191
 20
-124.2957236954148
 30
0.0
  0
SPLINE
  5
12C
330
1B
100
AcDbEntity
 67
     1
  8
0
  6
Continuous
 62
     7
370
    25
100
AcDbSpline
210
0.0
220
0.0
230
1.0
 70
     8
 71
     3
 72
    18
 73
    14
 74
     0
 42
0.000000001
 43
0.00000001
 40
0.0
 40
0.0
 40
0.0
 40
0.0
 40
0.1249999999999896
 40
0.1249999999999896
 40
0.1874999999999859
 40
0.1874999999999859
 40
0.2499999999999822
 40
0.2499999999999822
 40
0.4999999999999881
 40
0.4999999999999881
 40
0.749999999999994
 40
0.749999999999994
 40
1.0
 40
1.0
 40
1.0
 40
1.0
 10
156.0964453232251
 20
-128.2786802408903
 30
0.0
 10
155.9862399919921
 20
-128.0430834946759
 30
0.0
 10
155.8526419188057
 20
-127.7611782806826
 30
0.0
 10
155.6304158475805
 20
-127.3044750345276
 30
0.0
 10
155.5521638330617
 20
-127.1454562967068
 30
0.0
 10
155.3910138169425
 20
-126.8222378883899
 30
0.0
 10
155.3080310457461
 20
-126.6578410355776
 30
0.0
 10
154.8821064785001
 20
-125.8253331577087
 30
0.0
 10
154.5071041843666
 20
-125.127712081957
 30
0.0
 10
153.6911105548538
 20
-123.7027052204514
 30
0.0
 10
153.2564000999379
 20
-122.9860968281494
 30
0.0
 10
152.3314618508511
 20
-121.5592237442996
 30
0.0
 10
151.839736334212
 20
-120.8470714211402
 30
0.0
 10
151.3240454330499
 20
-120.1512316242386
 30
0.0
  0
SPLINE
  5
12E
330
1B
100
AcDbEntity
 67
     1
  8
0
  6
Continuous
 62
     7
370
    25
100
AcDbSpline
210
0.0
220
0.0
230
1.0
 70
     8
 71
     3
 72
    16
 73
    12
 74
     0
 42
0.000000001
 43
0.00000001
 40
0.0
 40
0.0
 40
0.0
 40
0.0
 40
0.2500000000000008
 40
0.2500000000000008
 40
0.5000000000000016
 40
0.5000000000000016
 40
0.7500000000000023
 40
0.7500000000000023
 40
0.8750000000000011
 40
0.8750000000000011
 40
1.0
 40
1.0
 40
1.0
 40
1.0
 10
-151.3240454330499
 20
-120.1512316242387
 30
0.0
 10
-151.8397403925975
 20
-120.8470768972621
 30
0.0
 10
-152.3276717464306
 20
-121.5535220334033
 30
0.0
 10
-153.2558333504214
 20
-122.9850780376432
 30
0.0
 10
-153.6900996109744
 20
-123.7011565621389
 30
0.0
 10
-154.5018639459997
 20
-125.1183456790668
 30
0.0
 10
-154.8827628435241
 20
-125.8265648329834
 30
0.0
 10
-155.3940073219073
 20
-126.8259151096168
 30
0.0
 10
-155.5550780960027
 20
-127.1496616399915
 30
0.0
 10
-155.8529429688737
 20
-127.7617816226329
 30
0.0
 10
-155.9866577973137
 20
-128.043976678093
 30
0.0
 10
-156.0964453232251
 20
-128.2786802408904
 30
0.0
  0
SPLINE
  5
134
330
1B
100
AcDbEntity
 67
     1
  8
0
  6
Continuous
 62
     7
370
    25
100
AcDbSpline
210
0.0
220
0.0
230
1.0
 70
     8
 71
     3
 72
    18
 73
    14
 74
     0
 42
0.000000001
 43
0.00000001
 40
0.0
 40
0.0
 40
0.0
 40
0.0
 40
0.2499999999999965
 40
0.2499999999999965
 40
0.3749999999999972
 40
0.3749999999999972
 40
0.4999999999999979
 40
0.4999999999999979
 40
0.6249999999999986
 40
0.6249999999999986
 40
0.7499999999999992
 40
0.7499999999999992
 40
1.0
 40
1.0
 40
1.0
 40
1.0
 10
89.99999999999999
 20
-116.8726307525024
 30
0.0
 10
89.99999999999997
 20
-116.516518143763
 30
0.0
 10
89.93913889710454
 20
-116.0932399635969
 30
0.0
 10
89.81970263475642
 20
-115.3854577701005
 30
0.0
 10
89.7750321214872
 20
-115.1393482324082
 30
0.0
 10
89.68395280518472
 20
-114.6351129723592
 30
0.0
 10
89.63732751851322
 20
-114.3759500904675
 30
0.0
 10
89.54723511220784
 20
-113.8440609963399
 30
0.0
 10
89.50368111673191
 20
-113.570575085357
 30
0.0
 10
89.42563389887539
 20
-113.0194000593859
 30
0.0
 10
89.39094204910486
 20
-112.7406697257336
 30
0.0
 10
89.30488907920875
 20
-111.8949656151309
 30
0.0
 10
89.27219921143843
 20
-111.3149114468886
 30
0.0
 10
89.2721992114384
 20
-110.7334746141229
 30
0.0
  0
SPLINE
  5
137
330
1B
100
AcDbEntity
 67
     1
  8
0
  6
Continuous
 62
     7
370
    25
100
AcDbSpline
210
0.0
220
0.0
230
1.0
 70
     8
 71
     3
 72
    20
 73
    16
 74
     0
 42
0.000000001
 43
0.00000001
 40
0.0
 40
0.0
 40
0.0
 40
0.0
 40
0.125
 40
0.125
 40
0.2500000000000001
 40
0.2500000000000001
 40
0.3750000000000001
 40
0.3750000000000001
 40
0.5000000000000001
 40
0.5000000000000001
 40
0.6250000000000001
 40
0.6250000000000001
 40
0.7500000000000002
 40
0.7500000000000002
 40
1.0
 40
1.0
 40
1.0
 40
1.0
 10
90.98107889601373
 20
-110.7334746141229
 30
0.0
 10
90.98107889601373
 20
-110.9640370282533
 30
0.0
 10
90.99499865404503
 20
-111.1949589170288
 30
0.0
 10
91.04675172521081
 20
-111.6447438821189
 30
0.0
 10
91.0842077593998
 20
-111.8631585969225
 30
0.0
 10
91.1758240466782
 20
-112.2889511834487
 30
0.0
 10
91.22998497871492
 20
-112.4963266639955
 30
0.0
 10
91.3484417783404
 20
-112.9013593695676
 30
0.0
 10
91.41269165511707
 20
-113.0986434173888
 30
0.0
 10
91.54066408772353
 20
-113.4740642886993
 30
0.0
 10
91.60484486891608
 20
-113.6537044936412
 30
0.0
 10
91.72659273491955
 20
-113.9982680659739
 30
0.0
 10
91.7845859138955
 20
-114.1644313175695
 30
0.0
 10
91.93314033745318
 20
-114.629542864972
 30
0.0
 10
91.99999999999997
 20
-114.8967415372841
 30
0.0
 10
91.99999999999996
 20
-115.1185861415369
 30
0.0
  0
SPLINE
  5
13E
330
1B
100
AcDbEntity
 67
     1
  8
0
  6
Continuous
 62
     7
370
    25
100
AcDbSpline
210
0.0
220
0.0
230
1.0
 70
     8
 71
     3
 72
    16
 73
    12
 74
     0
 42
0.000000001
 43
0.00000001
 40
0.0
 40
0.0
 40
0.0
 40
0.0
 40
0.2499999999999999
 40
0.2499999999999999
 40
0.4999999999999999
 40
0.4999999999999999
 40
0.6250000000000001
 40
0.6250000000000001
 40
0.7500000000000002
 40
0.7500000000000002
 40
1.0
 40
1.0
 40
1.0
 40
1.0
 10
120.5346755258686
 20
-110.7334746141229
 30
0.0
 10
123.2789295958062
 20
-110.7334746141229
 30
0.0
 10
125.9883988611045
 20
-110.9376593243086
 30
0.0
 10
131.3406775938994
 20
-111.7373177467674
 30
0.0
 10
133.9834798825766
 20
-112.3328335982792
 30
0.0
 10
137.8964965173364
 20
-113.5265708013322
 30
0.0
 10
139.196442940546
 20
-113.9766257009021
 30
0.0
 10
141.7448063793184
 20
-114.9669854518388
 30
0.0
 10
142.9960680525558
 20
-115.5077956202239
 30
0.0
 10
146.6819850205506
 20
-117.265340996415
 30
0.0
 10
149.0491520570156
 20
-118.6164349648583
 30
0.0
 10
151.3240454330499
 20
-120.1512316242386
 30
0.0
  0
SPLINE
  5
142
330
1B
100
AcDbEntity
 67
     1
  8
0
  6
Continuous
 62
     7
370
    25
100
AcDbSpline
210
0.0
220
0.0
230
1.0
 70
     8
 71
     3
 72
    16
 73
    12
 74
     0
 42
0.000000001
 43
0.00000001
 40
0.0
 40
0.0
 40
0.0
 40
0.0
 40
0.2500000000000009
 40
0.2500000000000009
 40
0.3749999999999999
 40
0.3749999999999999
 40
0.499999999999999
 40
0.499999999999999
 40
0.7499999999999994
 40
0.7499999999999994
 40
1.0
 40
1.0
 40
1.0
 40
1.0
 10
-151.3240454330499
 20
-120.1512316242387
 30
0.0
 10
-149.0491506525164
 20
-118.6164340172884
 30
0.0
 10
-146.6819795428318
 20
-117.2653376104796
 30
0.0
 10
-142.996051654076
 20
-115.5077881879913
 30
0.0
 10
-141.7447855364524
 20
-114.9669766036479
 30
0.0
 10
-139.1964114211939
 20
-113.9766141998001
 30
0.0
 10
-137.8964665083091
 20
-113.5265609658482
 30
0.0
 10
-133.9834644780126
 20
-112.3328302602191
 30
0.0
 10
-131.340669277528
 20
-111.7373163010691
 30
0.0
 10
-125.988399093093
 20
-110.9376595621583
 30
0.0
 10
-123.2789312935539
 20
-110.7334746141229
 30
0.0
 10
-120.5346755258686
 20
-110.7334746141229
 30
0.0
  0
LWPOLYLINE
  5
14B
330
1B
100
AcDbEntity
 67
     1
  8
0
  6
Continuous
 62
     7
370
    25
100
AcDbPolyline
 90
        3
 70
   128
 43
0.0
 10
-37.6515492593
 20
-118.8948883142
 10
-37.7079174312
 20
-118.8846928756
 10
-37.8501282812
 20
-118.8568139202
  0
LWPOLYLINE
  5
150
330
1B
100
AcDbEntity
 67
     1
  8
0
  6
Continuous
 62
     7
370
    25
100
AcDbPolyline
 90
        9
 70
   128
 43
0.0
 10
32.2798730411
 20
-155.0
 10
31.5697566532
 20
-154.903926402
 10
30.8869296399
 20
-154.6193976626
 10
30.2576326602
 20
-154.1573480615
 10
29.7060492444
 20
-153.5355339059
 10
29.2533764336
 20
-152.7778511651
 10
28.9170101901
 20
-151.9134171618
 10
28.7098768802
 20
-150.9754516101
 10
28.6399365206
 20
-150.0
  0
SPLINE
  5
152
330
1B
100
AcDbEntity
 67
     1
  8
0
  6
Continuous
 62
     7
370
    25
100
AcDbSpline
210
0.0
220
0.0
230
1.0
 70
     8
 71
     3
 72
    12
 73
     8
 74
     0
 42
0.000000001
 43
0.00000001
 40
0.0
 40
0.0
 40
0.0
 40
0.0
 40
0.2499999999999998
 40
0.2499999999999998
 40
0.4999999999999997
 40
0.4999999999999997
 40
1.0
 40
1.0
 40
1.0
 40
1.0
 10
-5.917498885749511
 20
-118.0
 30
0.0
 10
-6.095830919701365
 20
-117.8920923451019
 30
0.0
 10
-6.282492542194398
 20
-117.8056006721307
 30
0.0
 10
-6.667328514275861
 20
-117.6629236918563
 30
0.0
 10
-6.866802952919402
 20
-117.6067829314362
 30
0.0
 10
-7.467188157629974
 20
-117.478468424418
 30
0.0
 10
-7.871702895982957
 20
-117.4439421888113
 30
0.0
 10
-8.278878715992247
 20
-117.4474037496235
 30
0.0
  0
SPLINE
  5
154
330
1B
100
AcDbEntity
 67
     1
  8
0
  6
Continuous
 62
     7
370
    25
100
AcDbSpline
210
0.0
220
0.0
230
1.0
 70
     8
 71
     3
 72
    14
 73
    10
 74
     0
 42
0.000000001
 43
0.00000001
 40
0.0
 40
0.0
 40
0.0
 40
0.0
 40
0.500000000000006
 40
0.500000000000006
 40
0.750000000000003
 40
0.750000000000003
 40
0.8750000000000014
 40
0.8750000000000014
 40
1.0
 40
1.0
 40
1.0
 40
1.0
 10
-4.05763058436828
 20
-118.0
 30
0.0
 10
-3.695499450765288
 20
-118.1855568137135
 30
0.0
 10
-3.366630947671509
 20
-118.3905661652091
 30
0.0
 10
-2.911504360620514
 20
-118.7137114870193
 30
0.0
 10
-2.766229552881381
 20
-118.8242242786401
 30
0.0
 10
-2.557915677764454
 20
-118.992880051159
 30
0.0
 10
-2.49039238067823
 20
-119.0493292046829
 30
0.0
 10
-2.359061224418637
 20
-119.1625265193069
 30
0.0
 10
-2.294611742982518
 20
-119.219865198503
 30
0.0
 10
-2.233371577963983
 20
-119.2760043525241
 30
0.0
  0
SPLINE
  5
155
330
1B
100
AcDbEntity
 67
     1
  8
0
  6
Continuous
 62
     7
370
    25
100
AcDbSpline
210
0.0
220
0.0
230
1.0
 70
     8
 71
     3
 72
    24
 73
    20
 74
     0
 42
0.000000001
 43
0.00000001
 40
0.0
 40
0.0
 40
0.0
 40
0.0
 40
0.2499999999999971
 40
0.2499999999999971
 40
0.3749999999999964
 40
0.3749999999999964
 40
0.4999999999999958
 40
0.4999999999999958
 40
0.6249999999999951
 40
0.6249999999999951
 40
0.7499999999999944
 40
0.7499999999999944
 40
0.8124999999999959
 40
0.8124999999999959
 40
0.8749999999999972
 40
0.8749999999999972
 40
0.9374999999999987
 40
0.9374999999999987
 40
1.0
 40
1.0
 40
1.0
 40
1.0
 10
6.428393540694027
 20
-155.0
 30
0.0
 10
5.409451181364817
 20
-155.0
 30
0.0
 10
4.415209118799397
 20
-154.8906628318013
 30
0.0
 10
2.951737248189968
 20
-154.6056075239019
 30
0.0
 10
2.468382698099937
 20
-154.4894140226212
 30
0.0
 10
1.523135028055807
 20
-154.2183639797577
 30
0.0
 10
1.059560195151549
 20
-154.0633135440721
 30
0.0
 10
0.1509713059251746
 20
-153.7092260024477
 30
0.0
 10
-0.2959173753894344
 20
-153.5095232766251
 30
0.0
 10
-1.158326336731468
 20
-153.0552625917728
 30
0.0
 10
-1.57304302801873
 20
-152.8025628429158
 30
0.0
 10
-2.157100821240291
 20
-152.3576655891207
 30
0.0
 10
-2.346523958185966
 20
-152.1968949837513
 30
0.0
 10
-2.697575148493502
 20
-151.8499807594057
 30
0.0
 10
-2.860005177402965
 20
-151.6638794974958
 30
0.0
 10
-3.144143685632624
 20
-151.2513237647565
 30
0.0
 10
-3.267065623903692
 20
-151.02044779352
 30
0.0
 10
-3.425325553499567
 20
-150.5282293833519
 30
0.0
 10
-3.460028452543895
 20
-150.2616279344344
 30
0.0
 10
-3.439024220129227
 20
-150.0
 30
0.0
  0
SPLINE
  5
158
330
1B
100
AcDbEntity
 67
     1
  8
0
  6
Continuous
 62
     7
370
    25
100
AcDbSpline
210
0.0
220
0.0
230
1.0
 70
     8
 71
     3
 72
     8
 73
     4
 74
     0
 42
0.000000001
 43
0.00000001
 40
0.0
 40
0.0
 40
0.0
 40
0.0
 40
1.0
 40
1.0
 40
1.0
 40
1.0
 10
-2.233371577963999
 20
-119.2760043525242
 30
0.0
 10
-2.626693360581851
 20
-129.5180469312957
 30
0.0
 10
-3.027953598480263
 20
-139.7594393810297
 30
0.0
 10
-3.439024220129221
 20
-150.0
 30
0.0
  0
LWPOLYLINE
  5
159
330
1B
100
AcDbEntity
 67
     1
  8
0
  6
Continuous
 62
     7
370
    25
100
AcDbPolyline
 90
        9
 70
   128
 43
0.0
 10
6.4283935407
 20
-155.0
 10
6.2750808079
 20
-155.0918640828
 10
6.1274016485
 20
-155.3640807272
 10
5.9907826268
 20
-155.8066471603
 10
5.8702438951
 20
-156.4033009983
 10
5.7702147255
 20
-157.1321178182
 10
5.6943707532
 20
-157.9663167846
 10
5.645498913
 20
-158.8752447283
 10
5.6253950315
 20
-159.8255025165
  0
SPLINE
  5
15A
330
1B
100
AcDbEntity
 67
     1
  8
0
  6
Continuous
 62
     7
370
    25
100
AcDbSpline
210
0.0
220
0.0
230
1.0
 70
     8
 71
     3
 72
    32
 73
    28
 74
     0
 42
0.000000001
 43
0.00000001
 40
0.0
 40
0.0
 40
0.0
 40
0.0
 40
0.0624999999999993
 40
0.0624999999999993
 40
0.1249999999999985
 40
0.1249999999999985
 40
0.1874999999999978
 40
0.1874999999999978
 40
0.2499999999999971
 40
0.2499999999999971
 40
0.3124999999999963
 40
0.3124999999999963
 40
0.3749999999999956
 40
0.3749999999999956
 40
0.4374999999999948
 40
0.4374999999999948
 40
0.4999999999999941
 40
0.4999999999999941
 40
0.6249999999999957
 40
0.6249999999999957
 40
0.6874999999999963
 40
0.6874999999999963
 40
0.749999999999997
 40
0.749999999999997
 40
0.8749999999999986
 40
0.8749999999999986
 40
1.0
 40
1.0
 40
1.0
 40
1.0
 10
-6.202349463826135
 20
-149.8255025164875
 30
0.0
 10
-6.214729256819795
 20
-150.1852552004551
 30
0.0
 10
-6.19880405261802
 20
-150.54452784067
 30
0.0
 10
-6.112869760546224
 20
-151.252019887094
 30
0.0
 10
-6.042949948898549
 20
-151.6017288614648
 30
0.0
 10
-5.85113946676037
 20
-152.2933538101765
 30
0.0
 10
-5.729928460565499
 20
-152.6319026410552
 30
0.0
 10
-5.446535734729491
 20
-153.2849791307759
 30
0.0
 10
-5.283836070490081
 20
-153.6013937717828
 30
0.0
 10
-4.920560758929849
 20
-154.216036950408
 30
0.0
 10
-4.719257598877612
 20
-154.5148827350618
 30
0.0
 10
-4.290805111113977
 20
-155.0841705974582
 30
0.0
 10
-4.062778997268177
 20
-155.3562887283379
 30
0.0
 10
-3.582110873428496
 20
-155.878302879714
 30
0.0
 10
-3.329455310576436
 20
-156.1281862971877
 30
0.0
 10
-2.80114169460977
 20
-156.6073030983772
 30
0.0
 10
-2.524575392857784
 20
-156.8370888682018
 30
0.0
 10
-1.675846561009536
 20
-157.4860117968765
 30
0.0
 10
-1.081217547679904
 20
-157.8690562467627
 30
0.0
 10
-0.1494694080401572
 20
-158.375131741982
 30
0.0
 10
0.1678221912674092
 20
-158.5322797148061
 30
0.0
 10
0.8160792740686543
 20
-158.8230469636998
 30
0.0
 10
1.14850286049928
 20
-158.9571725106725
 30
0.0
 10
2.156638222472746
 20
-159.3184201700262
 30
0.0
 10
2.837456311205813
 20
-159.5033960877662
 30
0.0
 10
4.217084108178104
 20
-159.7568549364225
 30
0.0
 10
4.915866051718322
 20
-159.8255025164875
 30
0.0
 10
5.625395031459636
 20
-159.8255025164875
 30
0.0
  0
SPLINE
  5
160
330
1B
100
AcDbEntity
 67
     1
  8
0
  6
Continuous
 62
     7
370
    25
100
AcDbSpline
210
0.0
220
0.0
230
1.0
 70
     8
 71
     3
 72
     8
 73
     4
 74
     0
 42
0.000000001
 43
0.00000001
 40
0.0
 40
0.0
 40
0.0
 40
0.0
 40
1.0
 40
1.0
 40
1.0
 40
1.0
 10
-6.202349463826135
 20
-149.8255025164875
 30
0.0
 10
-5.851512570791004
 20
-139.6302986088882
 30
0.0
 10
-5.507661453857612
 20
-129.4344927253679
 30
0.0
 10
-5.169369412155352
 20
-119.2382146725174
 30
0.0
  0
SPLINE
  5
161
330
1B
100
AcDbEntity
 67
     1
  8
0
  6
Continuous
 62
     7
370
    25
100
AcDbSpline
210
0.0
220
0.0
230
1.0
 70
    24
 71
     3
 72
    36
 73
    32
 74
     0
 42
0.000000001
 43
0.00000001
 40
0.0
 40
0.0
 40
0.0
 40
0.0
 40
0.0019531250000003
 40
0.0019531250000003
 40
0.0039062500000006
 40
0.0039062500000006
 40
0.0078125000000008
 40
0.0078125000000008
 40
0.0156250000000008
 40
0.0156250000000008
 40
0.0312500000000006
 40
0.0312500000000006
 40
0.0625000000000008
 40
0.0625000000000008
 40
0.1250000000000009
 40
0.1250000000000009
 40
0.2500000000000007
 40
0.2500000000000007
 40
0.3750000000000005
 40
0.3750000000000005
 40
0.4375000000000004
 40
0.4375000000000004
 40
0.5000000000000003
 40
0.5000000000000003
 40
0.6250000000000003
 40
0.6250000000000003
 40
0.7500000000000003
 40
0.7500000000000003
 40
0.8750000000000002
 40
0.8750000000000002
 40
1.0
 40
1.0
 40
1.0
 40
1.0
 10
-33.78265533563491
 20
-118.0
 30
0.0
 10
-33.7605134384462
 20
-118.0
 30
0.0
 10
-33.73968742793969
 20
-118.0
 30
0.0
 10
-33.7001109548506
 20
-118.0
 30
0.0
 10
-33.68158607512176
 20
-118.0
 30
0.0
 10
-33.627672606066
 20
-118.0
 30
0.0
 10
-33.59392902165413
 20
-118.0
 30
0.0
 10
-33.49675071737812
 20
-118.0
 30
0.0
 10
-33.43660854776429
 20
-118.0
 30
0.0
 10
-33.26039333658181
 20
-118.0
 30
0.0
 10
-33.14906206278918
 20
-118.0
 30
0.0
 10
-32.82019441502756
 20
-118.0
 30
0.0
 10
-32.60828000940757
 20
-118.0
 30
0.0
 10
-31.97230647989976
 20
-118.0
 30
0.0
 10
-31.54926889471837
 20
-118.0
 30
0.0
 10
-30.25378300287788
 20
-118.0
 30
0.0
 10
-29.35733618956057
 20
-118.0
 30
0.0
 10
-27.47160618597956
 20
-118.0
 30
0.0
 10
-26.4836108490319
 20
-118.0
 30
0.0
 10
-24.92716662117064
 20
-118.0
 30
0.0
 10
-24.39519216760823
 20
-118.0
 30
0.0
 10
-23.3122615671343
 20
-118.0
 30
0.0
 10
-22.76078684121167
 20
-118.0
 30
0.0
 10
-21.07602417772425
 20
-118.0
 30
0.0
 10
-19.91014159565488
 20
-118.0
 30
0.0
 10
-17.50528215697178
 20
-118.0
 30
0.0
 10
-16.2717360591089
 20
-118.0
 30
0.0
 10
-13.74190961318796
 20
-118.0
 30
0.0
 10
-12.44385641190659
 20
-118.0
 30
0.0
 10
-9.814939174348075
 20
-118.0
 30
0.0
 10
-8.48052144497296
 20
-118.0
 30
0.0
 10
-7.12583427191913
 20
-118.0
 30
0.0
  0
SPLINE
  5
162
330
1B
100
AcDbEntity
 67
     1
  8
0
  6
Continuous
 62
     7
370
    25
100
AcDbSpline
210
0.0
220
0.0
230
1.0
 70
     8
 71
     3
 72
    12
 73
     8
 74
     0
 42
0.000000001
 43
0.00000001
 40
0.0
 40
0.0
 40
0.0
 40
0.0
 40
0.5000000000000004
 40
0.5000000000000004
 40
0.7500000000000002
 40
0.7500000000000002
 40
1.0
 40
1.0
 40
1.0
 40
1.0
 10
-7.125834271919127
 20
-118.0
 30
0.0
 10
-6.792168141021746
 20
-118.1814733206344
 30
0.0
 10
-6.464829289848335
 20
-118.3804022927985
 30
0.0
 10
-5.977019563602842
 20
-118.6931299045191
 30
0.0
 10
-5.814992569996716
 20
-118.7998574796898
 30
0.0
 10
-5.491328547074174
 20
-119.0170261769914
 30
0.0
 10
-5.327862749024523
 20
-119.1287478526833
 30
0.0
 10
-5.169369412155356
 20
-119.2382146725175
 30
0.0
  0
SPLINE
  5
163
330
1B
100
AcDbEntity
 67
     1
  8
0
  6
Continuous
 62
     7
370
    25
100
AcDbSpline
210
0.0
220
0.0
230
1.0
 70
    24
 71
     3
 72
    12
 73
     8
 74
     0
 42
0.000000001
 43
0.00000001
 40
0.0
 40
0.0
 40
0.0
 40
0.0
 40
0.4999999999999996
 40
0.4999999999999996
 40
0.7499999999999998
 40
0.7499999999999998
 40
1.0
 40
1.0
 40
1.0
 40
1.0
 10
-7.125834271919139
 20
-118.0
 30
0.0
 10
-6.618606679101465
 20
-118.0
 30
0.0
 10
-6.103774659020707
 20
-118.0
 30
0.0
 10
-5.320272886706523
 20
-118.0
 30
0.0
 10
-5.05771158137177
 20
-118.0
 30
0.0
 10
-4.548441123235522
 20
-118.0
 30
0.0
 10
-4.299984573591709
 20
-118.0
 30
0.0
 10
-4.057630584368278
 20
-118.0
 30
0.0
  0
LWPOLYLINE
  5
17D
330
1B
100
AcDbEntity
 67
     1
  8
0
  6
Continuous
 62
     8
370
    25
100
AcDbPolyline
 90
        3
 70
   128
 43
0.0
 10
92.0
 20
-116.891911449
 10
91.8755405909
 20
-116.937801932
 10
91.6472208211
 20
-116.9685341376
  0
LWPOLYLINE
  5
180
330
1B
100
AcDbEntity
 67
     1
  8
0
  6
Continuous
 62
     8
370
    25
100
AcDbPolyline
 90
        8
 70
   128
 43
0.0
 10
-37.8501282812
 20
-118.8568139202
 10
-38.2221151048
 20
-118.7555882061
 10
-38.3747074774
 20
-118.6253497862
 10
-38.164250929
 20
-118.4952097533
 10
-37.5927365113
 20
-118.3663993144
 10
-36.6655711107
 20
-118.2401370971
 10
-35.3915262965
 20
-118.1176176219
 10
-33.7826553356
 20
-118.0
  0
SPLINE
  5
182
330
1B
100
AcDbEntity
 67
     1
  8
0
  6
Continuous
 62
     8
370
    25
100
AcDbSpline
210
0.0
220
0.0
230
1.0
 70
     8
 71
     3
 72
    16
 73
    12
 74
     0
 42
0.000000001
 43
0.00000001
 40
0.0
 40
0.0
 40
0.0
 40
0.0
 40
0.0770950907648491
 40
0.1933100528210845
 40
0.3128949503251358
 40
0.4291094674729869
 40
0.5486896325368136
 40
0.6649853305293678
 40
0.7846493820507021
 40
0.9010190830853348
 40
0.9999999999999999
 40
0.9999999999999999
 40
0.9999999999999999
 40
0.9999999999999999
 10
-5.169369412155351
 20
-119.2382146725175
 30
0.0
 10
-6.485431045511265
 20
-119.2468019424247
 30
0.0
 10
-9.785355091723419
 20
-119.2683338659609
 30
0.0
 10
-14.92090210553837
 20
-119.3359310929524
 30
0.0
 10
-20.28540108033305
 20
-119.44454189488
 30
0.0
 10
-25.11930503611267
 20
-119.5866142190558
 30
0.0
 10
-29.19955122346139
 20
-119.7548686139557
 30
0.0
 10
-32.4934197796848
 20
-119.9477842371525
 30
0.0
 10
-34.81126145826954
 20
-120.1564587932699
 30
0.0
 10
-36.18326996670551
 20
-120.3656937106299
 30
0.0
 10
-36.26379413270094
 20
-120.5032835421392
 30
0.0
 10
-36.3008051980042
 20
-120.5665235170722
 30
0.0
  0
LINE
  5
187
330
1B
100
AcDbEntity
 67
     1
  8
0
  6
Continuous
 62
     7
370
    25
100
AcDbLine
 10
-36.3769544815
 20
-120.5691827086
 30
0.0
 11
-35.0
 21
-160.0
 31
0.0
  0
LINE
  5
188
330
1B
100
AcDbEntity
 67
     1
  8
0
  6
Continuous
 62
     7
370
    25
100
AcDbLine
 10
35.0
 20
-160.0
 30
0.0
 11
35.0117630781
 21
-159.6631495162
 31
0.0
  0
LINE
  5
189
330
1B
100
AcDbEntity
 67
     1
  8
0
  6
Continuous
 62
     7
370
    25
100
AcDbLine
 10
-126.8346708162
 20
-122.4508927195
 30
0.0
 11
-36.31124372
 21
-122.4508927195
 31
0.0
  0
LINE
  5
18A
330
1B
100
AcDbEntity
 67
     1
  8
0
  6
Continuous
 62
     7
370
    25
100
AcDbLine
 10
90.0
 20
-122.4508927195
 30
0.0
 11
126.8346708162
 21
-122.4508927195
 31
0.0
  0
LINE
  5
18B
330
1B
100
AcDbEntity
 67
     1
  8
0
  6
Continuous
 62
     7
370
    25
100
AcDbLine
 10
228.0304107492
 20
-125.2687201296
 30
0.0
 11
229.895362582
 21
-55.8925119481
 31
0.0
  0
LINE
  5
18C
330
1B
100
AcDbEntity
 67
     1
  8
0
  6
Continuous
 62
     7
370
    25
100
AcDbLine
 10
163.2493654454
 20
-135.0
 30
0.0
 11
218.0340219266
 21
-135.0
 31
0.0
  0
LINE
  5
18D
330
1B
100
AcDbEntity
 67
     1
  8
0
  6
Continuous
 62
     7
370
    25
100
AcDbLine
 10
158.6803077023
 20
-132.0306923303
 30
0.0
 11
141.3196922977
 21
-92.9693076697
 31
0.0
  0
LINE
  5
18E
330
1B
100
AcDbEntity
 67
     1
  8
0
  6
Continuous
 62
     7
370
    25
100
AcDbLine
 10
136.7506345546
 20
-90.0
 30
0.0
 11
-136.7506345546
 21
-90.0
 31
0.0
  0
LINE
  5
18F
330
1B
100
AcDbEntity
 67
     1
  8
0
  6
Continuous
 62
     7
370
    25
100
AcDbLine
 10
-141.3196922977
 20
-92.9693076697
 30
0.0
 11
-158.6803077023
 21
-132.0306923303
 31
0.0
  0
LINE
  5
190
330
1B
100
AcDbEntity
 67
     1
  8
0
  6
Continuous
 62
     7
370
    25
100
AcDbLine
 10
-218.0340219266
 20
-135.0
 30
0.0
 11
-163.2493654454
 21
-135.0
 31
0.0
  0
LINE
  5
191
330
1B
100
AcDbEntity
 67
     1
  8
0
  6
Continuous
 62
     7
370
    25
100
AcDbLine
 10
-228.0304107492
 20
-125.2687201296
 30
0.0
 11
-229.895362582
 21
-55.8925119481
 31
0.0
  0
LINE
  5
192
330
1B
100
AcDbEntity
 67
     1
  8
0
  6
Continuous
 62
     7
370
    25
100
AcDbLine
 10
-261.0
 20
-52.0
 30
0.0
 11
-233.8939181111
 21
-52.0
 31
0.0
  0
LINE
  5
193
330
1B
100
AcDbEntity
 67
     1
  8
0
  6
Continuous
 62
     7
370
    25
100
AcDbLine
 10
-272.0541931152
 20
-56.209343825
 30
0.0
 11
-274.7793976379
 21
-4.209343825
 31
0.0
  0
LINE
  5
194
330
1B
100
AcDbEntity
 67
     1
  8
0
  6
Continuous
 62
     7
370
    25
100
AcDbLine
 10
-270.7848794989
 20
0.0
 30
0.0
 11
270.7848794989
 21
0.0
 31
0.0
  0
LINE
  5
195
330
1B
100
AcDbEntity
 67
     1
  8
0
  6
Continuous
 62
     7
370
    25
100
AcDbLine
 10
272.0541931152
 20
-56.209343825
 30
0.0
 11
274.7793976379
 21
-4.209343825
 31
0.0
  0
LINE
  5
196
330
1B
100
AcDbEntity
 67
     1
  8
0
  6
Continuous
 62
     7
370
    25
100
AcDbLine
 10
233.8939181111
 20
-52.0
 30
0.0
 11
261.0
 21
-52.0
 31
0.0
  0
LINE
  5
197
330
1B
100
AcDbEntity
 67
     1
  8
0
  6
Continuous
 62
     7
370
    25
100
AcDbLine
 10
145.0
 20
-35.0
 30
0.0
 11
135.0
 21
-35.0
 31
0.0
  0
LINE
  5
198
330
1B
100
AcDbEntity
 67
     1
  8
0
  6
Continuous
 62
     7
370
    25
100
AcDbLine
 10
135.0
 20
-55.0
 30
0.0
 11
145.0
 21
-55.0
 31
0.0
  0
LINE
  5
199
330
1B
100
AcDbEntity
 67
     1
  8
0
  6
Continuous
 62
     7
370
    25
100
AcDbLine
 10
-145.0
 20
-55.0
 30
0.0
 11
-135.0
 21
-55.0
 31
0.0
  0
LINE
  5
19A
330
1B
100
AcDbEntity
 67
     1
  8
0
  6
Continuous
 62
     7
370
    25
100
AcDbLine
 10
-135.0
 20
-35.0
 30
0.0
 11
-145.0
 21
-35.0
 31
0.0
  0
LINE
  5
19B
330
1B
100
AcDbEntity
 67
     1
  8
0
  6
Continuous
 62
     7
370
    25
100
AcDbLine
 10
35.0
 20
-90.0
 30
0.0
 11
35.0
 21
-155.0
 31
0.0
  0
LINE
  5
19C
330
1B
100
AcDbEntity
 67
     1
  8
0
  6
Continuous
 62
     7
370
    25
100
AcDbLine
 10
65.4663082541
 20
-155.0
 30
0.0
 11
65.4663082541
 21
-90.0
 31
0.0
  0
LINE
  5
19D
330
1B
100
AcDbEntity
 67
     1
  8
0
  6
Continuous
 62
     7
370
    25
100
AcDbLine
 10
-3.4390242201
 20
-150.0
 30
0.0
 11
90.0
 21
-150.0
 31
0.0
  0
LINE
  5
19E
330
1B
100
AcDbEntity
 67
     1
  8
0
  6
Continuous
 62
     7
370
    25
100
AcDbLine
 10
85.0
 20
-155.0
 30
0.0
 11
6.4283935407
 21
-155.0
 31
0.0
  0
LINE
  5
19F
330
1B
100
AcDbEntity
 67
     1
  8
0
  6
Continuous
 62
     7
370
    25
100
AcDbLine
 10
30.0
 20
-150.0
 30
0.0
 11
30.0
 21
-90.0
 31
0.0
  0
LINE
  5
1A0
330
1B
100
AcDbEntity
 67
     1
  8
0
  6
Continuous
 62
     7
370
    25
100
AcDbLine
 10
162.4002202258
 20
-135.0
 30
0.0
 11
161.9407086863
 21
-135.0
 31
0.0
  0
LINE
  5
1A1
330
1B
100
AcDbEntity
 67
     1
  8
0
  6
Continuous
 62
     7
370
    25
100
AcDbLine
 10
-161.9407086863
 20
-135.0
 30
0.0
 11
-162.4002202258
 21
-135.0
 31
0.0
  0
LINE
  5
1A2
330
1B
100
AcDbEntity
 67
     1
  8
0
  6
Continuous
 62
     7
370
    25
100
AcDbLine
 10
148.5278912692
 20
-124.2957236954
 30
0.0
 11
151.324045433
 21
-120.1512316242
 31
0.0
  0
LINE
  5
1A3
330
1B
100
AcDbEntity
 67
     1
  8
0
  6
Continuous
 62
     7
370
    25
100
AcDbLine
 10
-148.5278912692
 20
-124.2957236954
 30
0.0
 11
-151.324045433
 21
-120.1512316242
 31
0.0
  0
LINE
  5
1A4
330
1B
100
AcDbEntity
 67
     1
  8
0
  6
Continuous
 62
     7
370
    25
100
AcDbLine
 10
-120.5346755259
 20
-110.7334746141
 30
0.0
 11
30.0
 21
-110.7334746141
 31
0.0
  0
LINE
  5
1A5
330
1B
100
AcDbEntity
 67
     1
  8
0
  6
Continuous
 62
     7
370
    25
100
AcDbLine
 10
28.0
 20
-116.0606084083
 30
0.0
 11
28.0
 21
-90.0
 31
0.0
  0
LINE
  5
1A6
330
1B
100
AcDbEntity
 67
     1
  8
0
  6
Continuous
 62
     7
370
    25
100
AcDbLine
 10
90.0
 20
-116.8726307525
 30
0.0
 11
90.0
 21
-150.0
 31
0.0
  0
LINE
  5
1A7
330
1B
100
AcDbEntity
 67
     1
  8
0
  6
Continuous
 62
     7
370
    25
100
AcDbLine
 10
89.2721992114
 20
-110.7334746141
 30
0.0
 11
120.5346755259
 21
-110.7334746141
 31
0.0
  0
LINE
  5
1A8
330
1B
100
AcDbEntity
 67
     1
  8
0
  6
Continuous
 62
     7
370
    25
100
AcDbLine
 10
120.5346755259
 20
-115.7304287492
 30
0.0
 11
120.5346755259
 21
-110.7334746141
 31
0.0
  0
LINE
  5
1A9
330
1B
100
AcDbEntity
 67
     1
  8
0
  6
Continuous
 62
     7
370
    25
100
AcDbLine
 10
120.5346755259
 20
-115.7304287492
 30
0.0
 11
92.0
 21
-115.7304287492
 31
0.0
  0
LINE
  5
1AA
330
1B
100
AcDbEntity
 67
     1
  8
0
  6
Continuous
 62
     7
370
    25
100
AcDbLine
 10
92.0
 20
-115.1185861415
 30
0.0
 11
92.0
 21
-116.891911449
 31
0.0
  0
LINE
  5
1AB
330
1B
100
AcDbEntity
 67
     1
  8
0
  6
Continuous
 62
     7
370
    25
100
AcDbLine
 10
-120.5346755259
 20
-115.7304287492
 30
0.0
 11
-120.5346755259
 21
-110.7334746141
 31
0.0
  0
LINE
  5
1AC
330
1B
100
AcDbEntity
 67
     1
  8
0
  6
Continuous
 62
     7
370
    25
100
AcDbLine
 10
28.0
 20
-115.7304287492
 30
0.0
 11
-120.5346755259
 21
-115.7304287492
 31
0.0
  0
LINE
  5
1AD
330
1B
100
AcDbEntity
 67
     1
  8
0
  6
Continuous
 62
     7
370
    25
100
AcDbLine
 10
-8.278878716
 20
-117.4474037496
 30
0.0
 11
27.1839619123
 21
-116.1324324633
 31
0.0
  0
LINE
  5
1AE
330
1B
100
AcDbEntity
 67
     1
  8
0
  6
Continuous
 62
     7
370
    25
100
AcDbLine
 10
28.6399365206
 20
-150.0
 30
0.0
 11
28.6399365206
 21
-118.1312141173
 31
0.0
  0
LINE
  5
1AF
330
1B
100
AcDbEntity
 67
     1
  8
0
  6
Continuous
 62
     7
370
    25
100
AcDbLine
 10
28.6399365206
 20
-118.1312141173
 30
0.0
 11
-2.233371578
 21
-119.2760043525
 31
0.0
  0
LINE
  5
1B0
330
1B
100
AcDbEntity
 67
     1
  8
0
  6
Continuous
 62
     7
370
    25
100
AcDbLine
 10
34.9558158225
 20
-159.8255025165
 30
0.0
 11
5.6253950315
 21
-159.8255025165
 31
0.0
  0
LINE
  5
1B1
330
1B
100
AcDbEntity
 67
     1
  8
0
  6
Continuous
 62
     7
370
    25
100
AcDbLine
 10
35.0
 20
-160.0
 30
0.0
 11
-35.0
 21
-160.0
 31
0.0
  0
LINE
  5
1B2
330
1B
100
AcDbEntity
 67
     1
  8
0
  6
Continuous
 62
     7
370
    25
100
AcDbLine
 10
-126.8346708162
 20
-122.4478468546
 30
0.0
 11
-126.8346708162
 21
-122.4508927195
 31
0.0
  0
LINE
  5
1B3
330
1B
100
AcDbEntity
 67
     1
  8
0
  6
Continuous
 62
     7
370
    25
100
AcDbLine
 10
126.8346708162
 20
-122.4478468546
 30
0.0
 11
126.8346708162
 21
-122.4508927195
 31
0.0
  0
LINE
  5
1B4
330
1B
100
AcDbEntity
 67
     1
  8
0
  6
Continuous
 62
     7
370
    25
100
AcDbLine
 10
229.8924731183
 20
-56.0
 30
0.0
 11
265.0
 21
-56.0
 31
0.0
  0
LINE
  5
1B5
330
1B
100
AcDbEntity
 67
     1
  8
0
  6
Continuous
 62
     7
370
    25
100
AcDbLine
 10
229.7856916049
 20
-59.9722722984
 30
0.0
 11
268.5298374881
 21
-59.9722722984
 31
0.0
  0
LINE
  5
1B6
330
1B
100
AcDbEntity
 67
     1
  8
0
  6
Continuous
 62
     7
370
    25
100
AcDbLine
 10
230.0
 20
-55.0849034235
 30
0.0
 11
230.0
 21
-59.9722722984
 31
0.0
  0
LINE
  5
1B7
330
1B
100
AcDbEntity
 67
     1
  8
0
  6
Continuous
 62
     7
370
    25
100
AcDbLine
 10
-265.0
 20
-56.0
 30
0.0
 11
-229.8924731183
 21
-56.0
 31
0.0
  0
LINE
  5
1B8
330
1B
100
AcDbEntity
 67
     1
  8
0
  6
Continuous
 62
     7
370
    25
100
AcDbLine
 10
-268.5298374881
 20
-59.9722722984
 30
0.0
 11
-229.7856916049
 21
-59.9722722984
 31
0.0
  0
LINE
  5
1B9
330
1B
100
AcDbEntity
 67
     1
  8
0
  6
Continuous
 62
     7
370
    25
100
AcDbLine
 10
-230.0
 20
-55.0849034235
 30
0.0
 11
-230.0
 21
-59.9722722984
 31
0.0
  0
LINE
  5
1BA
330
1B
100
AcDbEntity
 67
     1
  8
0
  6
Continuous
 62
     8
370
    25
100
AcDbLine
 10
-156.0964453232
 20
-128.2786802409
 30
0.0
 11
-156.0964453232
 21
-126.2170019773
 31
0.0
  0
LINE
  5
1BB
330
1B
100
AcDbEntity
 67
     1
  8
0
  6
Continuous
 62
     8
370
    25
100
AcDbLine
 10
-157.7777777778
 20
-130.0
 30
0.0
 11
-157.6278203357
 21
-130.0
 31
0.0
  0
LINE
  5
1BC
330
1B
100
AcDbEntity
 67
     1
  8
0
  6
Continuous
 62
     8
370
    25
100
AcDbLine
 10
157.6278203357
 20
-130.0
 30
0.0
 11
157.7777777778
 21
-130.0
 31
0.0
  0
LINE
  5
1BD
330
1B
100
AcDbEntity
 67
     1
  8
0
  6
Continuous
 62
     8
370
    25
100
AcDbLine
 10
156.0964453232
 20
-126.2170019773
 30
0.0
 11
156.0964453232
 21
-128.2786802409
 31
0.0
  0
LINE
  5
1BE
330
1B
100
AcDbEntity
 67
     1
  8
0
  6
Continuous
 62
     8
370
    25
100
AcDbLine
 10
69.4983332334
 20
-90.0
 30
0.0
 11
69.4983332334
 21
-150.0
 31
0.0
  0
LINE
  5
1BF
330
1B
100
AcDbEntity
 67
     1
  8
0
  6
Continuous
 62
     8
370
    25
100
AcDbLine
 10
89.0320249793
 20
-150.0
 30
0.0
 11
89.0320249793
 21
-90.0
 31
0.0
  0
LINE
  5
1C0
330
1B
100
AcDbEntity
 67
     1
  8
0
  6
Continuous
 62
     8
370
    25
100
AcDbLine
 10
151.324045433
 20
-120.1512316242
 30
0.0
 11
151.324045433
 21
-115.4791022244
 31
0.0
  0
LINE
  5
1C1
330
1B
100
AcDbEntity
 67
     1
  8
0
  6
Continuous
 62
     8
370
    25
100
AcDbLine
 10
151.324045433
 20
-52.7463829857
 30
0.0
 11
151.324045433
 21
-37.2536170143
 31
0.0
  0
LINE
  5
1C2
330
1B
100
AcDbEntity
 67
     1
  8
0
  6
Continuous
 62
     8
370
    25
100
AcDbLine
 10
-151.324045433
 20
-37.2536170143
 30
0.0
 11
-151.324045433
 21
-52.7463829857
 31
0.0
  0
LINE
  5
1C3
330
1B
100
AcDbEntity
 67
     1
  8
0
  6
Continuous
 62
     8
370
    25
100
AcDbLine
 10
-151.324045433
 20
-115.4791022244
 30
0.0
 11
-151.324045433
 21
-120.1512316242
 31
0.0
  0
LINE
  5
1C4
330
1B
100
AcDbEntity
 67
     1
  8
0
  6
Continuous
 62
     8
370
    25
100
AcDbLine
 10
89.2721992114
 20
-110.7334746141
 30
0.0
 11
89.2721992114
 21
-90.0
 31
0.0
  0
LINE
  5
1C5
330
1B
100
AcDbEntity
 67
     1
  8
0
  6
Continuous
 62
     8
370
    25
100
AcDbLine
 10
90.981078896
 20
-90.0
 30
0.0
 11
90.981078896
 21
-110.7334746141
 31
0.0
  0
LINE
  5
1C6
330
1B
100
AcDbEntity
 67
     1
  8
0
  6
Continuous
 62
     8
370
    25
100
AcDbLine
 10
-126.8346708162
 20
-122.4478468546
 30
0.0
 11
-36.3113500839
 21
-122.4478468546
 31
0.0
  0
LINE
  5
1C7
330
1B
100
AcDbEntity
 67
     1
  8
0
  6
Continuous
 62
     8
370
    25
100
AcDbLine
 10
90.0
 20
-122.4478468546
 30
0.0
 11
126.8346708162
 21
-122.4478468546
 31
0.0
  0
LINE
  5
1C8
330
1B
100
AcDbEntity
 67
     1
  8
0
  6
Continuous
 62
     8
370
    25
100
AcDbLine
 10
34.9897559691
 20
-159.662381011
 30
0.0
 11
34.9558158225
 21
-159.8255025165
 31
0.0
  0
ARC
  5
1C9
330
1B
100
AcDbEntity
 67
     1
  8
0
  6
Continuous
 62
     7
370
    25
100
AcDbCircle
 10
233.8939181111
 20
-56.0
 30
0.0
 40
4.000000000000045
100
AcDbArc
 50
90.0
 51
178.4601617114
  0
ARC
  5
1CA
330
1B
100
AcDbEntity
 67
     1
  8
0
  6
Continuous
 62
     7
370
    25
100
AcDbCircle
 10
163.2493654454
 20
-130.0
 30
0.0
 40
4.999999999999915
100
AcDbArc
 50
203.9624889746
 51
270.0
  0
ARC
  5
1CB
330
1B
100
AcDbEntity
 67
     1
  8
0
  6
Continuous
 62
     7
370
    25
100
AcDbCircle
 10
136.7506345546
 20
-95.0
 30
0.0
 40
4.999999999999957
100
AcDbArc
 50
23.9624889746
 51
90.0
  0
ARC
  5
1CC
330
1B
100
AcDbEntity
 67
     1
  8
0
  6
Continuous
 62
     7
370
    25
100
AcDbCircle
 10
-136.7506345546
 20
-95.0
 30
0.0
 40
5.000000000000028
100
AcDbArc
 50
90.0
 51
156.0375110254
  0
ARC
  5
1CD
330
1B
100
AcDbEntity
 67
     1
  8
0
  6
Continuous
 62
     7
370
    25
100
AcDbCircle
 10
-163.2493654454
 20
-130.0
 30
0.0
 40
4.999999999999943
100
AcDbArc
 50
270.0
 51
336.0375110254
  0
ARC
  5
1CE
330
1B
100
AcDbEntity
 67
     1
  8
0
  6
Continuous
 62
     7
370
    25
100
AcDbCircle
 10
-218.0340219266
 20
-125.0
 30
0.0
 40
10.00000000000001
100
AcDbArc
 50
181.5398382886
 51
270.0
  0
ARC
  5
1CF
330
1B
100
AcDbEntity
 67
     1
  8
0
  6
Continuous
 62
     7
370
    25
100
AcDbCircle
 10
-233.8939181111
 20
-56.0
 30
0.0
 40
4.000000000000075
100
AcDbArc
 50
1.5398382886
 51
90.0
  0
ARC
  5
1D0
330
1B
100
AcDbEntity
 67
     1
  8
0
  6
Continuous
 62
     7
370
    25
100
AcDbCircle
 10
-261.0
 20
-56.0
 30
0.0
 40
3.999999999999943
100
AcDbArc
 50
90.0
 51
180.0
  0
ARC
  5
1D1
330
1B
100
AcDbEntity
 67
     1
  8
0
  6
Continuous
 62
     7
370
    25
100
AcDbCircle
 10
-269.0
 20
-56.0
 30
0.0
 40
4.000000000000076
100
AcDbArc
 50
276.7501863873
 51
0.0
  0
ARC
  5
1D2
330
1B
100
AcDbEntity
 67
     1
  8
0
  6
Continuous
 62
     7
370
    25
100
AcDbCircle
 10
-268.0596749762
 20
-56.0
 30
0.0
 40
3.999999999999888
100
AcDbArc
 50
183.0
 51
263.2498136127
  0
ARC
  5
1D3
330
1B
100
AcDbEntity
 67
     1
  8
0
  6
Continuous
 62
     7
370
    25
100
AcDbCircle
 10
-270.7848794989
 20
-4.0
 30
0.0
 40
4.000000000000261
100
AcDbArc
 50
90.0
 51
183.0
  0
ARC
  5
1D4
330
1B
100
AcDbEntity
 67
     1
  8
0
  6
Continuous
 62
     7
370
    25
100
AcDbCircle
 10
270.7848794989
 20
-4.0
 30
0.0
 40
3.999999999999931
100
AcDbArc
 50
357.0
 51
90.0
  0
ARC
  5
1D5
330
1B
100
AcDbEntity
 67
     1
  8
0
  6
Continuous
 62
     7
370
    25
100
AcDbCircle
 10
268.0596749762
 20
-56.0
 30
0.0
 40
4.000000000000055
100
AcDbArc
 50
276.7501863873
 51
357.0
  0
ARC
  5
1D6
330
1B
100
AcDbEntity
 67
     1
  8
0
  6
Continuous
 62
     7
370
    25
100
AcDbCircle
 10
269.0
 20
-56.0
 30
0.0
 40
4.0
100
AcDbArc
 50
180.0
 51
263.2498136127
  0
ARC
  5
1D7
330
1B
100
AcDbEntity
 67
     1
  8
0
  6
Continuous
 62
     7
370
    25
100
AcDbCircle
 10
261.0
 20
-56.0
 30
0.0
 40
3.999999999999957
100
AcDbArc
 50
0.0
 51
90.0
  0
ARC
  5
1D8
330
1B
100
AcDbEntity
 67
     1
  8
0
  6
Continuous
 62
     7
370
    25
100
AcDbCircle
 10
135.0
 20
-45.0
 30
0.0
 40
10.00000000000001
100
AcDbArc
 50
90.0
 51
270.0
  0
ARC
  5
1D9
330
1B
100
AcDbEntity
 67
     1
  8
0
  6
Continuous
 62
     7
370
    25
100
AcDbCircle
 10
145.0
 20
-45.0
 30
0.0
 40
10.00000000000001
100
AcDbArc
 50
270.0
 51
90.0
  0
ARC
  5
1DA
330
1B
100
AcDbEntity
 67
     1
  8
0
  6
Continuous
 62
     7
370
    25
100
AcDbCircle
 10
-135.0
 20
-45.0
 30
0.0
 40
10.00000000000001
100
AcDbArc
 50
270.0
 51
90.0
  0
ARC
  5
1DB
330
1B
100
AcDbEntity
 67
     1
  8
0
  6
Continuous
 62
     7
370
    25
100
AcDbCircle
 10
-145.0
 20
-45.0
 30
0.0
 40
10.00000000000001
100
AcDbArc
 50
90.0
 51
270.0
  0
ARC
  5
1DC
330
1B
100
AcDbEntity
 67
     1
  8
0
  6
Continuous
 62
     7
370
    25
100
AcDbCircle
 10
218.0340219266
 20
-125.0
 30
0.0
 40
10.00000000000026
100
AcDbArc
 50
270.0
 51
358.4601617114
  0
ARC
  5
1DD
330
1B
100
AcDbEntity
 67
     1
  8
0
  6
Continuous
 62
     7
370
    25
100
AcDbCircle
 10
-162.5167338951
 20
-130.1112099644
 30
0.0
 40
4.890178263337192
100
AcDbArc
 50
271.3652617386
 51
1.3031040206
  0
ARC
  5
1DE
330
1B
100
AcDbEntity
 67
     1
  8
0
  6
Continuous
 62
     7
370
    25
100
AcDbCircle
 10
162.516733895
 20
-130.1112099644
 30
0.0
 40
4.890178263332511
100
AcDbArc
 50
178.6968959793
 51
268.6347382615
  0
ARC
  5
1DF
330
1B
100
AcDbEntity
 67
     1
  8
0
  6
Continuous
 62
     7
370
    25
100
AcDbCircle
 10
35.0
 20
-150.0
 30
0.0
 40
4.999999999999986
100
AcDbArc
 50
180.0
 51
270.0
  0
ARC
  5
1E0
330
1B
100
AcDbEntity
 67
     1
  8
0
  6
Continuous
 62
     7
370
    25
100
AcDbCircle
 10
64.9242248958
 20
-150.4371387283
 30
0.0
 40
4.594949113095455
100
AcDbArc
 50
276.7751760746
 51
5.4590679447
  0
ARC
  5
1E1
330
1B
100
AcDbEntity
 67
     1
  8
0
  6
Continuous
 62
     7
370
    25
100
AcDbCircle
 10
84.4579166417
 20
-150.4371387283
 30
0.0
 40
4.594949113095455
100
AcDbArc
 50
276.7751760746
 51
5.4590679447
  0
ARC
  5
1E2
330
1B
100
AcDbEntity
 67
     1
  8
0
  6
Continuous
 62
     7
370
    25
100
AcDbCircle
 10
162.4002222186
 20
-130.0000240157
 30
0.0
 40
4.999975984318243
100
AcDbArc
 50
219.9912307251
 51
269.9999771648
  0
ARC
  5
1E3
330
1B
100
AcDbEntity
 67
     1
  8
0
  6
Continuous
 62
     7
370
    25
100
AcDbCircle
 10
161.8730011684
 20
-130.5005770844
 30
0.0
 40
4.274592111525391
100
AcDbArc
 50
173.2749336696
 51
219.3925284097
  0
ARC
  5
1E4
330
1B
100
AcDbEntity
 67
     1
  8
0
  6
Continuous
 62
     7
370
    25
100
AcDbCircle
 10
160.4338216533
 20
-128.747568856
 30
0.0
 40
4.36264712783732
100
AcDbArc
 50
173.8300460159
 51
221.9472110961
  0
ARC
  5
1E5
330
1B
100
AcDbEntity
 67
     1
  8
0
  6
Continuous
 62
     7
370
    25
100
AcDbCircle
 10
-161.8730011684
 20
-130.5005770844
 30
0.0
 40
4.2745921115278
100
AcDbArc
 50
320.6074715902
 51
6.7250663303
  0
ARC
  5
1E6
330
1B
100
AcDbEntity
 67
     1
  8
0
  6
Continuous
 62
     7
370
    25
100
AcDbCircle
 10
-162.4002222186
 20
-130.0000240157
 30
0.0
 40
4.999975984318156
100
AcDbArc
 50
270.0000228352
 51
320.0087692749
  0
ARC
  5
1E7
330
1B
100
AcDbEntity
 67
     1
  8
0
  6
Continuous
 62
     7
370
    25
100
AcDbCircle
 10
-160.4338216533
 20
-128.747568856
 30
0.0
 40
4.36264712783715
100
AcDbArc
 50
318.0527889039
 51
6.1699539841
  0
ARC
  5
1E8
330
1B
100
AcDbEntity
 67
     1
  8
0
  6
Continuous
 62
     7
370
    25
100
AcDbCircle
 10
161.9407100631
 20
-130.0000316055
 30
0.0
 40
4.999968394504319
100
AcDbArc
 50
228.6053995837
 51
269.9999842225
  0
ARC
  5
1E9
330
1B
100
AcDbEntity
 67
     1
  8
0
  6
Continuous
 62
     7
370
    25
100
AcDbCircle
 10
-161.9407100631
 20
-130.0000316055
 30
0.0
 40
4.999968394504681
100
AcDbArc
 50
270.0000157775
 51
311.3946004163
  0
ARC
  5
1EA
330
1B
100
AcDbEntity
 67
     1
  8
0
  6
Continuous
 62
     7
370
    25
100
AcDbCircle
 10
28.0006089874
 20
-117.7298197619
 30
0.0
 40
1.999391105422742
100
AcDbArc
 50
0.0174621557
 51
90.0174515182
  0
ARC
  5
1EB
330
1B
100
AcDbEntity
 67
     1
  8
0
  6
Continuous
 62
     7
370
    25
100
AcDbCircle
 10
85.0
 20
-150.0
 30
0.0
 40
4.999999999999986
100
AcDbArc
 50
270.0
 51
0.0
  0
ARC
  5
1EC
330
1B
100
AcDbEntity
 67
     1
  8
0
  6
Continuous
 62
     7
370
    25
100
AcDbCircle
 10
91.8845840622
 20
-117.0042305272
 30
0.0
 40
1.889173255169626
100
AcDbArc
 50
86.4974272938
 51
176.0055420576
  0
ARC
  5
1ED
330
1B
100
AcDbEntity
 67
     1
  8
0
  6
Continuous
 62
     7
370
    25
100
AcDbCircle
 10
91.9993910126
 20
-117.7298197619
 30
0.0
 40
1.999391105422779
100
AcDbArc
 50
89.9825484818
 51
179.9825378443
  0
ARC
  5
1EE
330
1B
100
AcDbEntity
 67
     1
  8
0
  6
Continuous
 62
     7
370
    25
100
AcDbCircle
 10
91.9993910126
 20
-118.8913024617
 30
0.0
 40
1.999391105422751
100
AcDbArc
 50
89.9825484818
 51
179.9825378443
  0
ARC
  5
1EF
330
1B
100
AcDbEntity
 67
     1
  8
0
  6
Continuous
 62
     7
370
    25
100
AcDbCircle
 10
28.0006089874
 20
-118.0599994209
 30
0.0
 40
1.999391105422737
100
AcDbArc
 50
0.0174621557
 51
90.0174515182
  0
ARC
  5
1F0
330
1B
100
AcDbEntity
 67
     1
  8
0
  6
Continuous
 62
     7
370
    25
100
AcDbCircle
 10
27.2961658264
 20
-112.735579415
 30
0.0
 40
3.398705687484314
100
AcDbArc
 50
268.1081094729
 51
281.9518078319
  0
ARC
  5
1F1
330
1B
100
AcDbEntity
 67
     1
  8
0
  6
Continuous
 62
     7
370
    25
100
AcDbCircle
 10
-2.6424875608
 20
-561.4924347132
 30
0.0
 40
443.706418160215
100
AcDbArc
 50
90.4848477701
 51
91.7794972439
  0
ARC
  5
1F2
330
1B
100
AcDbEntity
 67
     1
  8
0
  6
Continuous
 62
     7
370
    25
100
AcDbCircle
 10
28.8299334456
 20
-108.8159811859
 30
0.0
 40
9.317170353603663
100
AcDbArc
 50
268.8315361719
 51
277.2143523181
  0
ARC
  5
1F3
330
1B
100
AcDbEntity
 67
     1
  8
0
  6
Continuous
 62
     7
370
    25
100
AcDbCircle
 10
26.8020274155
 20
-117.9403247872
 30
0.0
 40
1.847795609591212
100
AcDbArc
 50
354.0703934361
 51
78.071120323
  0
ARC
  5
1F4
330
1B
100
AcDbEntity
 67
     1
  8
0
  6
Continuous
 62
     7
370
    25
100
AcDbCircle
 10
-9.6931367711
 20
-227.0723962956
 30
0.0
 40
77.32572789537944
100
AcDbArc
 50
85.3608443476
 51
87.4125639332
  0
ARC
  5
1F5
330
1B
100
AcDbEntity
 67
     1
  8
0
  6
Continuous
 62
     7
370
    25
100
AcDbCircle
 10
39.9490183166
 20
-159.9961153047
 30
0.0
 40
4.996116478873745
100
AcDbArc
 50
90.0392812361
 51
178.0430212786
  0
VIEWPORT
  5
370
330
1B
100
AcDbEntity
 67
     1
  8
0
100
AcDbViewport
 10
0.0
 20
0.0
 30
0.0
 40
205.6
 41
156.0
 68
     1
 69
     1
 12
0.0
 22
0.1075602506
 13
0.0
 23
0.0
 14
10.0
 24
10.0
 15
10.0
 25
10.0
 16
0.0
 26
0.0
 36
1.0
 17
0.0
 27
0.0
 37
0.0
 42
50.0
 43
0.0
 44
0.0
 45
425.3285021971
 50
0.0
 51
0.0
 72
   100
 90
   557152
  1

281
     0
 71
     1
 74
     0
110
0.0
120
0.0
130
0.0
111
1.0
121
0.0
131
0.0
112
0.0
122
1.0
132
0.0
 79
     0
146
0.0
  0
ENDSEC
  0
SECTION
  2
OBJECTS
  0
DICTIONARY
  5
C
330
0
100
AcDbDictionary
281
     1
  3
ACAD_GROUP
350
D
  3
ACAD_LAYOUT
350
1A
  3
ACAD_MLINESTYLE
350
17
  3
ACAD_PLOTSETTINGS
350
19
  3
ACAD_PLOTSTYLENAME
350
E
  3
ACAD_SCALELIST
350
47
  0
DICTIONARY
  5
D
102
{ACAD_REACTORS
330
C
102
}
330
C
100
AcDbDictionary
281
     1
  0
DICTIONARY
  5
1A
102
{ACAD_REACTORS
330
C
102
}
330
C
100
AcDbDictionary
281
     1
  3
_Back
350
1E
  3
_Front
350
26
  3
_Isometric
350
2B3
  3
_Right
350
260
  3
Model
350
22
  0
DICTIONARY
  5
17
102
{ACAD_REACTORS
330
C
102
}
330
C
100
AcDbDictionary
281
     1
  3
Standard
350
18
  0
DICTIONARY
  5
19
102
{ACAD_REACTORS
330
C
102
}
330
C
100
AcDbDictionary
281
     1
  0
ACDBDICTIONARYWDFLT
  5
E
102
{ACAD_REACTORS
330
C
102
}
330
C
100
AcDbDictionary
281
     1
  3
Normal
350
F
100
AcDbDictionaryWithDefault
340
F
  0
DICTIONARY
  5
47
102
{ACAD_REACTORS
330
C
102
}
330
C
100
AcDbDictionary
281
     1
  3
A0
350
48
  3
A1
350
49
  3
A2
350
4A
  3
A3
350
4B
  3
A4
350
4C
  3
A5
350
4D
  3
A6
350
4E
  3
A7
350
4F
  3
A8
350
50
  3
A9
350
51
  3
B0
350
52
  3
B1
350
53
  3
B2
350
54
  3
B3
350
55
  3
B4
350
56
  3
B5
350
57
  3
B6
350
58
  3
B7
350
59
  3
B8
350
5A
  3
B9
350
5B
  3
C0
350
5C
  3
C1
350
5D
  3
C2
350
5E
  3
C3
350
5F
  3
C4
350
60
  3
C5
350
61
  3
C6
350
62
  3
C7
350
63
  3
C8
350
64
  3
C9
350
65
  3
D0
350
66
  3
D1
350
67
  3
D2
350
68
  0
LAYOUT
  5
1E
102
{ACAD_REACTORS
330
1A
102
}
330
1A
100
AcDbPlotSettings
  1

  2
none_device
  4
ISO_A4_(210.00_x_297.00_MM)
  6

 40
7.5
 41
20.0
 42
7.5
 43
20.0
 44
210.0
 45
297.0
 46
0.0
 47
0.0
 48
0.0
 49
0.0
140
0.0
141
0.0
142
1.0
143
2.1384037315
 70
   688
 72
     1
 73
     1
 74
     1
  7

 75
     0
147
0.4676385405
148
274.7848794989
149
160.0
100
AcDbLayout
  1
_Back
 70
     1
 71
     1
 10
-317.5529541291
 20
-176.0380279863
 11
317.5529541291
 21
273.0267556305
 12
0.0
 22
0.0
 32
0.0
 14
-274.7848794989
 24
-160.0
 34
0.0
 15
274.7848794989
 25
0.0
 35
0.0
146
0.0
 13
0.0
 23
0.0
 33
0.0
 16
1.0
 26
0.0
 36
0.0
 17
0.0
 27
1.0
 37
0.0
 76
     0
330
1B
331
370
  0
LAYOUT
  5
26
102
{ACAD_REACTORS
330
1A
102
}
330
1A
100
AcDbPlotSettings
  1

  2
none_device
  4
ISO_A4_(210.00_x_297.00_MM)
  6

 40
7.5
 41
20.0
 42
7.5
 43
20.0
 44
210.0
 45
297.0
 46
0.0
 47
0.0
 48
0.0
 49
0.0
140
0.0
141
0.0
142
1.0
143
2.1384037315
 70
   688
 72
     1
 73
     1
 74
     1
  7

 75
     0
147
0.4676385405
148
274.7848794989
149
160.0
100
AcDbLayout
  1
_Front
 70
     1
 71
     2
 10
0.0
 20
0.0
 11
0.0
 21
0.0
 12
0.0
 22
0.0
 32
0.0
 14
0.0
 24
0.0
 34
0.0
 15
0.0
 25
0.0
 35
0.0
146
0.0
 13
0.0
 23
0.0
 33
0.0
 16
1.0
 26
0.0
 36
0.0
 17
0.0
 27
1.0
 37
0.0
 76
     0
330
23
331
372
  0
LAYOUT
  5
2B3
102
{ACAD_REACTORS
330
1A
102
}
330
1A
100
AcDbPlotSettings
  1

  2
none_device
  4
ISO_A4_(210.00_x_297.00_MM)
  6

 40
7.5
 41
20.0
 42
7.5
 43
20.0
 44
210.0
 45
297.0
 46
0.0
 47
0.0
 48
0.0
 49
0.0
140
0.0
141
0.0
142
1.0
143
2.1384037315
 70
   688
 72
     1
 73
     1
 74
     1
  7

 75
     0
147
0.4676385405
148
274.7848794989
149
160.0
100
AcDbLayout
  1
_Isometric
 70
     1
 71
     4
 10
0.0
 20
0.0
 11
0.0
 21
0.0
 12
0.0
 22
0.0
 32
0.0
 14
0.0
 24
0.0
 34
0.0
 15
0.0
 25
0.0
 35
0.0
146
0.0
 13
0.0
 23
0.0
 33
0.0
 16
1.0
 26
0.0
 36
0.0
 17
0.0
 27
1.0
 37
0.0
 76
     0
330
2B2
331
376
  0
LAYOUT
  5
260
102
{ACAD_REACTORS
330
1A
102
}
330
1A
100
AcDbPlotSettings
  1

  2
none_device
  4
ISO_A4_(210.00_x_297.00_MM)
  6

 40
7.5
 41
20.0
 42
7.5
 43
20.0
 44
210.0
 45
297.0
 46
0.0
 47
0.0
 48
0.0
 49
0.0
140
0.0
141
0.0
142
1.0
143
2.1384037315
 70
   688
 72
     1
 73
     1
 74
     1
  7

 75
     0
147
0.4676385405
148
274.7848794989
149
160.0
100
AcDbLayout
  1
_Right
 70
     1
 71
     3
 10
0.0
 20
0.0
 11
0.0
 21
0.0
 12
0.0
 22
0.0
 32
0.0
 14
0.0
 24
0.0
 34
0.0
 15
0.0
 25
0.0
 35
0.0
146
0.0
 13
0.0
 23
0.0
 33
0.0
 16
1.0
 26
0.0
 36
0.0
 17
0.0
 27
1.0
 37
0.0
 76
     0
330
25F
331
374
  0
LAYOUT
  5
22
102
{ACAD_REACTORS
330
1A
102
}
330
1A
100
AcDbPlotSettings
  1

  2
none_device
  4
ANSI_A_(11.00_x_8.50_Inches)
  6

 40
6.35
 41
19.05
 42
6.35000508
 43
19.05000254
 44
279.4
 45
215.9
 46
133.34999746
 47
88.8458621801
 48
0.0
 49
0.0
140
0.0
141
0.0
142
0.0198155008
143
1.0
 70
  1696
 72
     0
 73
     0
 74
     0
  7

 75
     0
147
0.0179189148
148
-1300.4909072572
149
0.0
100
AcDbLayout
  1
Model
 70
     1
 71
     0
 10
0.0
 20
0.0
 11
420.0
 21
297.0
 12
0.0
 22
0.0
 32
0.0
 14
-274.7848794989
 24
-187.2848794989
 34
0.0
 15
274.7848794989
 25
187.5
 35
0.0
146
0.0
 13
0.0
 23
0.0
 33
0.0
 16
1.0
 26
0.0
 36
0.0
 17
0.0
 27
1.0
 37
0.0
 76
     0
330
1F
331
29
  0
MLINESTYLE
  5
18
102
{ACAD_REACTORS
330
17
102
}
330
17
100
AcDbMlineStyle
  2
Standard
 70
     0
  3

 62
   256
 51
90.0
 52
90.0
 71
     2
 49
0.5
 62
   256
  6
BYLAYER
 49
-0.5
 62
   256
  6
BYLAYER
  0
ACDBPLACEHOLDER
  5
F
102
{ACAD_REACTORS
330
E
102
}
330
E
  0
SCALE
  5
48
102
{ACAD_REACTORS
330
47
102
}
330
47
100
AcDbScale
 70
     0
300
1:1
140
1.0
141
1.0
290
     1
  0
SCALE
  5
49
102
{ACAD_REACTORS
330
47
102
}
330
47
100
AcDbScale
 70
     0
300
1:2
140
1.0
141
2.0
290
     0
  0
SCALE
  5
4A
102
{ACAD_REACTORS
330
47
102
}
330
47
100
AcDbScale
 70
     0
300
1:4
140
1.0
141
4.0
290
     0
  0
SCALE
  5
4B
102
{ACAD_REACTORS
330
47
102
}
330
47
100
AcDbScale
 70
     0
300
1:5
140
1.0
141
5.0
290
     0
  0
SCALE
  5
4C
102
{ACAD_REACTORS
330
47
102
}
330
47
100
AcDbScale
 70
     0
300
1:8
140
1.0
141
8.0
290
     0
  0
SCALE
  5
4D
102
{ACAD_REACTORS
330
47
102
}
330
47
100
AcDbScale
 70
     0
300
1:10
140
1.0
141
10.0
290
     0
  0
SCALE
  5
4E
102
{ACAD_REACTORS
330
47
102
}
330
47
100
AcDbScale
 70
     0
300
1:16
140
1.0
141
16.0
290
     0
  0
SCALE
  5
4F
102
{ACAD_REACTORS
330
47
102
}
330
47
100
AcDbScale
 70
     0
300
1:20
140
1.0
141
20.0
290
     0
  0
SCALE
  5
50
102
{ACAD_REACTORS
330
47
102
}
330
47
100
AcDbScale
 70
     0
300
1:30
140
1.0
141
30.0
290
     0
  0
SCALE
  5
51
102
{ACAD_REACTORS
330
47
102
}
330
47
100
AcDbScale
 70
     0
300
1:40
140
1.0
141
40.0
290
     0
  0
SCALE
  5
52
102
{ACAD_REACTORS
330
47
102
}
330
47
100
AcDbScale
 70
     0
300
1:50
140
1.0
141
50.0
290
     0
  0
SCALE
  5
53
102
{ACAD_REACTORS
330
47
102
}
330
47
100
AcDbScale
 70
     0
300
1:100
140
1.0
141
100.0
290
     0
  0
SCALE
  5
54
102
{ACAD_REACTORS
330
47
102
}
330
47
100
AcDbScale
 70
     0
300
2:1
140
2.0
141
1.0
290
     0
  0
SCALE
  5
55
102
{ACAD_REACTORS
330
47
102
}
330
47
100
AcDbScale
 70
     0
300
4:1
140
4.0
141
1.0
290
     0
  0
SCALE
  5
56
102
{ACAD_REACTORS
330
47
102
}
330
47
100
AcDbScale
 70
     0
300
8:1
140
8.0
141
1.0
290
     0
  0
SCALE
  5
57
102
{ACAD_REACTORS
330
47
102
}
330
47
100
AcDbScale
 70
     0
300
10:1
140
10.0
141
1.0
290
     0
  0
SCALE
  5
58
102
{ACAD_REACTORS
330
47
102
}
330
47
100
AcDbScale
 70
     0
300
100:1
140
100.0
141
1.0
290
     0
  0
SCALE
  5
59
102
{ACAD_REACTORS
330
47
102
}
330
47
100
AcDbScale
 70
     0
300
1/128" = 1'-0"
140
0.0078125
141
12.0
290
     0
  0
SCALE
  5
5A
102
{ACAD_REACTORS
330
47
102
}
330
47
100
AcDbScale
 70
     0
300
1/64" = 1'-0"
140
0.015625
141
12.0
290
     0
  0
SCALE
  5
5B
102
{ACAD_REACTORS
330
47
102
}
330
47
100
AcDbScale
 70
     0
300
1/32" = 1'-0"
140
0.03125
141
12.0
290
     0
  0
SCALE
  5
5C
102
{ACAD_REACTORS
330
47
102
}
330
47
100
AcDbScale
 70
     0
300
1/16" = 1'-0"
140
0.0625
141
12.0
290
     0
  0
SCALE
  5
5D
102
{ACAD_REACTORS
330
47
102
}
330
47
100
AcDbScale
 70
     0
300
3/32" = 1'-0"
140
0.09375
141
12.0
290
     0
  0
SCALE
  5
5E
102
{ACAD_REACTORS
330
47
102
}
330
47
100
AcDbScale
 70
     0
300
1/8" = 1'-0"
140
0.125
141
12.0
290
     0
  0
SCALE
  5
5F
102
{ACAD_REACTORS
330
47
102
}
330
47
100
AcDbScale
 70
     0
300
3/16" = 1'-0"
140
0.1875
141
12.0
290
     0
  0
SCALE
  5
60
102
{ACAD_REACTORS
330
47
102
}
330
47
100
AcDbScale
 70
     0
300
1/4" = 1'-0"
140
0.25
141
12.0
290
     0
  0
SCALE
  5
61
102
{ACAD_REACTORS
330
47
102
}
330
47
100
AcDbScale
 70
     0
300
3/8" = 1'-0"
140
0.375
141
12.0
290
     0
  0
SCALE
  5
62
102
{ACAD_REACTORS
330
47
102
}
330
47
100
AcDbScale
 70
     0
300
1/2" = 1'-0"
140
0.5
141
12.0
290
     0
  0
SCALE
  5
63
102
{ACAD_REACTORS
330
47
102
}
330
47
100
AcDbScale
 70
     0
300
3/4" = 1'-0"
140
0.75
141
12.0
290
     0
  0
SCALE
  5
64
102
{ACAD_REACTORS
330
47
102
}
330
47
100
AcDbScale
 70
     0
300
1" = 1'-0"
140
1.0
141
12.0
290
     0
  0
SCALE
  5
65
102
{ACAD_REACTORS
330
47
102
}
330
47
100
AcDbScale
 70
     0
300
1-1/2" = 1'-0"
140
1.5
141
12.0
290
     0
  0
SCALE
  5
66
102
{ACAD_REACTORS
330
47
102
}
330
47
100
AcDbScale
 70
     0
300
3" = 1'-0"
140
3.0
141
12.0
290
     0
  0
SCALE
  5
67
102
{ACAD_REACTORS
330
47
102
}
330
47
100
AcDbScale
 70
     0
300
6" = 1'-0"
140
6.0
141
12.0
290
     0
  0
SCALE
  5
68
102
{ACAD_REACTORS
330
47
102
}
330
47
100
AcDbScale
 70
     0
300
1'-0" = 1'-0"
140
12.0
141
12.0
290
     0
  0
ENDSEC
  0
EOF
