  0
SECTION
  2
HEADER
  9
$ACADVER
  1
AC1015
  9
$ACADMAINTVER
 70
     6
  9
$DWGCODEPAGE
  3
ANSI_1252
  9
$INSBASE
 10
0.0
 20
0.0
 30
0.0
  9
$EXTMIN
 10
-6.0
 20
-24.0
 30
0.0
  9
$EXTMAX
 10
6.0
 20
6.0
 30
0.0
  9
$LIMMIN
 10
0.0
 20
0.0
  9
$LIMMAX
 10
420.0
 20
297.0
  9
$ORTHOMODE
 70
     0
  9
$REGENMODE
 70
     1
  9
$FILLMODE
 70
     1
  9
$QTEXTMODE
 70
     0
  9
$MIRRTEXT
 70
     1
  9
$LTSCALE
 40
1.0
  9
$ATTMODE
 70
     1
  9
$TEXTSIZE
 40
3.5
  9
$TRACEWID
 40
1.0
  9
$TEXTSTYLE
  7
Standard
  9
$CLAYER
  8
0
  9
$CELTYPE
  6
ByLayer
  9
$CECOLOR
 62
   256
  9
$CELTSCALE
 40
1.0
  9
$DISPSILH
 70
     0
  9
$DIMSCALE
 40
1.0
  9
$DIMASZ
 40
3.302
  9
$DIMEXO
 40
1.0
  9
$DIMDLI
 40
3.75
  9
$DIMRND
 40
0.0
  9
$DIMDLE
 40
0.0
  9
$DIMEXE
 40
1.0
  9
$DIMTP
 40
0.0
  9
$DIMTM
 40
0.0
  9
$DIMTXT
 40
3.5
  9
$DIMCEN
 40
2.5
  9
$DIMTSZ
 40
0.0
  9
$DIMTOL
 70
     0
  9
$DIMLIM
 70
     0
  9
$DIMTIH
 70
     1
  9
$DIMTOH
 70
     1
  9
$DIMSE1
 70
     0
  9
$DIMSE2
 70
     0
  9
$DIMTAD
 70
     1
  9
$DIMZIN
 70
     1
  9
$DIMBLK
  1

  9
$DIMASO
 70
     1
  9
$DIMSHO
 70
     1
  9
$DIMPOST
  1

  9
$DIMAPOST
  1

  9
$DIMALT
 70
     0
  9
$DIMALTD
 70
     3
  9
$DIMALTF
 40
0.0393700787
  9
$DIMLFAC
 40
1.0
  9
$DIMTOFL
 70
     1
  9
$DIMTVP
 40
0.0
  9
$DIMTIX
 70
     0
  9
$DIMSOXD
 70
     0
  9
$DIMSAH
 70
     0
  9
$DIMBLK1
  1

  9
$DIMBLK2
  1

  9
$DIMSTYLE
  2
ISO-25
  9
$DIMCLRD
 70
     0
  9
$DIMCLRE
 70
     0
  9
$DIMCLRT
 70
     0
  9
$DIMTFAC
 40
1.0
  9
$DIMGAP
 40
1.524
  9
$DIMJUST
 70
     0
  9
$DIMSD1
 70
     0
  9
$DIMSD2
 70
     0
  9
$DIMTOLJ
 70
     0
  9
$DIMTZIN
 70
     1
  9
$DIMALTZ
 70
     0
  9
$DIMALTTZ
 70
     0
  9
$DIMUPT
 70
     0
  9
$DIMDEC
 70
     2
  9
$DIMTDEC
 70
     2
  9
$DIMALTU
 70
     2
  9
$DIMALTTD
 70
     3
  9
$DIMTXSTY
  7
Standard
  9
$DIMAUNIT
 70
     0
  9
$DIMADEC
 70
     2
  9
$DIMALTRND
 40
0.0
  9
$DIMAZIN
 70
     0
  9
$DIMDSEP
 70
    44
  9
$DIMATFIT
 70
     3
  9
$DIMFRAC
 70
     0
  9
$DIMLDRBLK
  1

  9
$DIMLUNIT
 70
     2
  9
$DIMLWD
 70
    -2
  9
$DIMLWE
 70
    -2
  9
$DIMTMOVE
 70
     0
  9
$LUNITS
 70
     2
  9
$LUPREC
 70
     2
  9
$SKETCHINC
 40
1.0
  9
$FILLETRAD
 40
10.0
  9
$AUNITS
 70
     0
  9
$AUPREC
 70
     2
  9
$MENU
  1
.
  9
$ELEVATION
 40
0.0
  9
$PELEVATION
 40
0.0
  9
$THICKNESS
 40
0.0
  9
$LIMCHECK
 70
     0
  9
$CHAMFERA
 40
0.0
  9
$CHAMFERB
 40
0.0
  9
$CHAMFERC
 40
0.0
  9
$CHAMFERD
 40
0.0
  9
$SKPOLY
 70
     0
  9
$TDCREATE
 40
2459327.386454595
  9
$TDUCREATE
 40
2459327.344787928
  9
$TDUPDATE
 40
2459327.386487477
  9
$TDUUPDATE
 40
2459327.34482081
  9
$TDINDWG
 40
0.0000000116
  9
$TDUSRTIMER
 40
0.0000000116
  9
$USRTIMER
 70
     1
  9
$ANGBASE
 50
0.0
  9
$ANGDIR
 70
     0
  9
$PDMODE
 70
     0
  9
$PDSIZE
 40
-1.0
  9
$PLINEWID
 40
0.0
  9
$SPLFRAME
 70
     0
  9
$SPLINETYPE
 70
     6
  9
$SPLINESEGS
 70
     8
  9
$HANDSEED
  5
1D2
  9
$SURFTAB1
 70
     6
  9
$SURFTAB2
 70
     6
  9
$SURFTYPE
 70
     6
  9
$SURFU
 70
     6
  9
$SURFV
 70
     6
  9
$UCSBASE
  2

  9
$UCSNAME
  2

  9
$UCSORG
 10
0.0
 20
0.0
 30
0.0
  9
$UCSXDIR
 10
1.0
 20
0.0
 30
0.0
  9
$UCSYDIR
 10
0.0
 20
1.0
 30
0.0
  9
$UCSORTHOREF
  2

  9
$UCSORTHOVIEW
 70
     0
  9
$UCSORGTOP
 10
0.0
 20
0.0
 30
0.0
  9
$UCSORGBOTTOM
 10
0.0
 20
0.0
 30
0.0
  9
$UCSORGLEFT
 10
0.0
 20
0.0
 30
0.0
  9
$UCSORGRIGHT
 10
0.0
 20
0.0
 30
0.0
  9
$UCSORGFRONT
 10
0.0
 20
0.0
 30
0.0
  9
$UCSORGBACK
 10
0.0
 20
0.0
 30
0.0
  9
$PUCSBASE
  2

  9
$PUCSNAME
  2

  9
$PUCSORG
 10
0.0
 20
0.0
 30
0.0
  9
$PUCSXDIR
 10
1.0
 20
0.0
 30
0.0
  9
$PUCSYDIR
 10
0.0
 20
1.0
 30
0.0
  9
$PUCSORTHOREF
  2

  9
$PUCSORTHOVIEW
 70
     0
  9
$PUCSORGTOP
 10
0.0
 20
0.0
 30
0.0
  9
$PUCSORGBOTTOM
 10
0.0
 20
0.0
 30
0.0
  9
$PUCSORGLEFT
 10
0.0
 20
0.0
 30
0.0
  9
$PUCSORGRIGHT
 10
0.0
 20
0.0
 30
0.0
  9
$PUCSORGFRONT
 10
0.0
 20
0.0
 30
0.0
  9
$PUCSORGBACK
 10
0.0
 20
0.0
 30
0.0
  9
$USERI1
 70
     0
  9
$USERI2
 70
     0
  9
$USERI3
 70
     0
  9
$USERI4
 70
     0
  9
$USERI5
 70
     0
  9
$USERR1
 40
0.0
  9
$USERR2
 40
0.0
  9
$USERR3
 40
0.0
  9
$USERR4
 40
0.0
  9
$USERR5
 40
0.0
  9
$WORLDVIEW
 70
     1
  9
$SHADEDGE
 70
     3
  9
$SHADEDIF
 70
    70
  9
$TILEMODE
 70
     1
  9
$MAXACTVP
 70
    64
  9
$PINSBASE
 10
0.0
 20
0.0
 30
0.0
  9
$PLIMCHECK
 70
     0
  9
$PEXTMIN
 10
-93.0
 20
-6.0
 30
0.0
  9
$PEXTMAX
 10
93.0
 20
6.0
 30
0.0
  9
$PLIMMIN
 10
-107.4747081712
 20
-11.4280155642
  9
$PLIMMAX
 10
107.4747081712
 20
140.5564202335
  9
$UNITMODE
 70
     0
  9
$VISRETAIN
 70
     1
  9
$PLINEGEN
 70
     0
  9
$PSLTSCALE
 70
     1
  9
$TREEDEPTH
 70
  3020
  9
$CMLSTYLE
  2
Standard
  9
$CMLJUST
 70
     0
  9
$CMLSCALE
 40
20.0
  9
$PROXYGRAPHICS
 70
     1
  9
$MEASUREMENT
 70
     1
  9
$CELWEIGHT
370
    -1
  9
$ENDCAPS
280
     0
  9
$JOINSTYLE
280
     0
  9
$LWDISPLAY
290
     1
  9
$INSUNITS
 70
     4
  9
$HYPERLINKBASE
  1

  9
$STYLESHEET
  1

  9
$XEDIT
290
     1
  9
$CEPSNTYPE
380
     0
  9
$PSTYLEMODE
290
     1
  9
$FINGERPRINTGUID
  2
{e64b4c25-388c-47fe-badf-688f930dfe5b}
  9
$VERSIONGUID
  2
{FAEB1C32-E019-11D5-929B-00C0DF256EC4}
  9
$EXTNAMES
290
     1
  9
$PSVPSCALE
 40
0.0
  9
$OLESTARTUP
290
     0
  0
ENDSEC
  0
SECTION
  2
CLASSES
  0
CLASS
  1
ACDBDICTIONARYWDFLT
  2
AcDbDictionaryWithDefault
  3
ObjectDBX Classes
 90
        0
280
     0
281
     0
  0
CLASS
  1
VISUALSTYLE
  2
AcDbVisualStyle
  3
ObjectDBX Classes
 90
     4095
280
     0
281
     0
  0
CLASS
  1
MATERIAL
  2
AcDbMaterial
  3
ObjectDBX Classes
 90
     1153
280
     0
281
     0
  0
CLASS
  1
SCALE
  2
AcDbScale
  3
ObjectDBX Classes
 90
     1153
280
     0
281
     0
  0
CLASS
  1
TABLESTYLE
  2
AcDbTableStyle
  3
ObjectDBX Classes
 90
     4095
280
     0
281
     0
  0
CLASS
  1
MLEADERSTYLE
  2
AcDbMLeaderStyle
  3
ACDB_MLEADERSTYLE_CLASS
 90
     4095
280
     0
281
     0
  0
CLASS
  1
SUN
  2
AcDbSun
  3
SCENEOE
 90
     1153
280
     0
281
     0
  0
CLASS
  1
ACDBPLACEHOLDER
  2
AcDbPlaceHolder
  3
ObjectDBX Classes
 90
        0
280
     0
281
     0
  0
CLASS
  1
LAYOUT
  2
AcDbLayout
  3
ObjectDBX Classes
 90
        0
280
     0
281
     0
  0
ENDSEC
  0
SECTION
  2
TABLES
  0
TABLE
  2
VPORT
  5
8
330
0
100
AcDbSymbolTable
 70
     1
  0
VPORT
  5
29
330
8
100
AcDbSymbolTableRecord
100
AcDbViewportTableRecord
  2
*Active
 70
     0
 10
0.0
 20
0.0
 11
1.0
 21
1.0
 12
0.0
 22
-9.0
 13
0.0
 23
0.0
 14
10.0
 24
10.0
 15
10.0
 25
10.0
 16
0.0
 26
0.0
 36
1.0
 17
0.0
 27
0.0
 37
0.0
 40
30.6
 41
0.4
 42
50.0
 43
0.0
 44
0.0
 50
0.0
 51
0.0
 71
     0
 72
   100
 73
     1
 74
     3
 75
     0
 76
     0
 77
     0
 78
     0
281
     0
 65
     1
110
0.0
120
0.0
130
0.0
111
1.0
121
0.0
131
0.0
112
0.0
122
1.0
132
0.0
 79
     0
146
0.0
  0
ENDTAB
  0
TABLE
  2
LTYPE
  5
5
330
0
100
AcDbSymbolTable
 70
     6
  0
LTYPE
  5
14
330
5
100
AcDbSymbolTableRecord
100
AcDbLinetypeTableRecord
  2
ByBlock
 70
     0
  3

 72
    65
 73
     0
 40
0.0
  0
LTYPE
  5
15
330
5
100
AcDbSymbolTableRecord
100
AcDbLinetypeTableRecord
  2
ByLayer
 70
     0
  3

 72
    65
 73
     0
 40
0.0
  0
LTYPE
  5
16
330
5
100
AcDbSymbolTableRecord
100
AcDbLinetypeTableRecord
  2
Continuous
 70
     0
  3
Solid line
 72
    65
 73
     0
 40
0.0
  0
LTYPE
  5
6E
330
5
100
AcDbSymbolTableRecord
100
AcDbLinetypeTableRecord
  2
HIDDEN
 70
     0
  3
Hidden __ __ __ __ __ __ __ __ __ __ __ __ __ __
 72
    65
 73
     2
 40
1.905
 49
1.27
 74
     0
 49
-0.635
 74
     0
  0
LTYPE
  5
6F
330
5
100
AcDbSymbolTableRecord
100
AcDbLinetypeTableRecord
  2
PHANTOM
 70
     0
  3
Phantom ______  __  __  ______  __  __  ______
 72
    65
 73
     6
 40
12.7
 49
6.35
 74
     0
 49
-1.27
 74
     0
 49
1.27
 74
     0
 49
-1.27
 74
     0
 49
1.27
 74
     0
 49
-1.27
 74
     0
  0
LTYPE
  5
70
330
5
100
AcDbSymbolTableRecord
100
AcDbLinetypeTableRecord
  2
CENTER
 70
     0
  3
Center ____ _ ____ _ ____ _ ____ _ ____ _ ____
 72
    65
 73
     4
 40
10.16
 49
6.35
 74
     0
 49
-1.27
 74
     0
 49
1.27
 74
     0
 49
-1.27
 74
     0
  0
LTYPE
  5
71
330
5
100
AcDbSymbolTableRecord
100
AcDbLinetypeTableRecord
  2
CENTERX2
 70
     0
  3
Center (2x) ________  __  ________  __  _____
 72
    65
 73
     4
 40
20.32
 49
12.7
 74
     0
 49
-2.54
 74
     0
 49
2.54
 74
     0
 49
-2.54
 74
     0
  0
LTYPE
  5
72
330
5
100
AcDbSymbolTableRecord
100
AcDbLinetypeTableRecord
  2
DOT2
 70
     0
  3
Dot (.5x) ........................................
 72
    65
 73
     2
 40
0.635
 49
0.0
 74
     0
 49
-0.635
 74
     0
  0
ENDTAB
  0
TABLE
  2
LAYER
  5
2
330
0
100
AcDbSymbolTable
 70
     1
  0
LAYER
  5
10
330
2
100
AcDbSymbolTableRecord
100
AcDbLayerTableRecord
  2
0
 70
     0
 62
     7
  6
Continuous
370
    -3
390
F
  0
ENDTAB
  0
TABLE
  2
STYLE
  5
3
330
0
100
AcDbSymbolTable
 70
     1
  0
STYLE
  5
11
330
3
100
AcDbSymbolTableRecord
100
AcDbTextStyleTableRecord
  2
Standard
 70
     0
 40
0.0
 41
1.0
 50
0.0
 71
     0
 42
3.5
  3
txt
  4

  0
ENDTAB
  0
TABLE
  2
VIEW
  5
6
330
0
100
AcDbSymbolTable
 70
     0
  0
ENDTAB
  0
TABLE
  2
UCS
  5
7
330
0
100
AcDbSymbolTable
 70
     0
  0
ENDTAB
  0
TABLE
  2
APPID
  5
9
330
0
100
AcDbSymbolTable
 70
     1
  0
APPID
  5
12
330
9
100
AcDbSymbolTableRecord
100
AcDbRegAppTableRecord
  2
ACAD
 70
     0
  0
ENDTAB
  0
TABLE
  2
DIMSTYLE
  5
A
330
0
100
AcDbSymbolTable
 70
     1
100
AcDbDimStyleTable
  0
DIMSTYLE
105
27
330
A
100
AcDbSymbolTableRecord
100
AcDbDimStyleTableRecord
  2
ISO-25
 70
     0
 41
2.5
 42
0.625
 43
3.75
 44
1.25
 73
     0
 74
     0
 77
     1
 78
     8
140
2.5
141
2.5
143
0.0393700787
147
0.625
171
     3
172
     1
178
     0
271
     2
272
     2
274
     3
278
    44
283
     0
284
     8
340
11
  0
ENDTAB
  0
TABLE
  2
BLOCK_RECORD
  5
1
330
0
100
AcDbSymbolTable
 70
     3
  0
BLOCK_RECORD
  5
1F
330
1
100
AcDbSymbolTableRecord
100
AcDbBlockTableRecord
  2
*Model_Space
340
22
  0
BLOCK_RECORD
  5
1B
330
1
100
AcDbSymbolTableRecord
100
AcDbBlockTableRecord
  2
*Paper_Space
340
1E
  0
BLOCK_RECORD
  5
23
330
1
100
AcDbSymbolTableRecord
100
AcDbBlockTableRecord
  2
*Paper_Space0
340
26
  0
BLOCK_RECORD
  5
F2
330
1
100
AcDbSymbolTableRecord
100
AcDbBlockTableRecord
  2
*Paper_Space1
340
F3
  0
BLOCK_RECORD
  5
135
330
1
100
AcDbSymbolTableRecord
100
AcDbBlockTableRecord
  2
*Paper_Space2
340
136
  0
ENDTAB
  0
ENDSEC
  0
SECTION
  2
BLOCKS
  0
BLOCK
  5
20
330
1F
100
AcDbEntity
  8
0
100
AcDbBlockBegin
  2
*Model_Space
 70
     0
 10
0.0
 20
0.0
 30
0.0
  3
*Model_Space
  1

  0
ENDBLK
  5
21
330
1F
100
AcDbEntity
  8
0
100
AcDbBlockEnd
  0
BLOCK
  5
1C
330
1B
100
AcDbEntity
 67
     1
  8
0
100
AcDbBlockBegin
  2
*Paper_Space
 70
     0
 10
0.0
 20
0.0
 30
0.0
  3
*Paper_Space
  1

  0
ENDBLK
  5
1D
330
1B
100
AcDbEntity
 67
     1
  8
0
100
AcDbBlockEnd
  0
BLOCK
  5
24
330
23
100
AcDbEntity
  8
0
100
AcDbBlockBegin
  2
*Paper_Space0
 70
     0
 10
0.0
 20
0.0
 30
0.0
  3
*Paper_Space0
  1

  0
LINE
  5
DC
330
23
100
AcDbEntity
  8
0
  6
Continuous
 62
     7
370
    25
100
AcDbLine
 10
92.0
 20
6.0
 30
0.0
 11
-92.0
 21
6.0
 31
0.0
  0
LINE
  5
DD
330
23
100
AcDbEntity
  8
0
  6
Continuous
 62
     7
370
    25
100
AcDbLine
 10
-77.0
 20
-6.0
 30
0.0
 11
77.0
 21
-6.0
 31
0.0
  0
LINE
  5
DE
330
23
100
AcDbEntity
  8
0
  6
Continuous
 62
     7
370
    25
100
AcDbLine
 10
-92.0
 20
6.0
 30
0.0
 11
-93.0
 21
5.0
 31
0.0
  0
LINE
  5
DF
330
23
100
AcDbEntity
  8
0
  6
Continuous
 62
     7
370
    25
100
AcDbLine
 10
93.0
 20
5.0
 30
0.0
 11
92.0
 21
6.0
 31
0.0
  0
LINE
  5
E0
330
23
100
AcDbEntity
  8
0
  6
Continuous
 62
     7
370
    25
100
AcDbLine
 10
-77.0
 20
-24.0
 30
0.0
 11
-93.0
 21
-24.0
 31
0.0
  0
LINE
  5
E1
330
23
100
AcDbEntity
  8
0
  6
Continuous
 62
     7
370
    25
100
AcDbLine
 10
-92.0
 20
6.0
 30
0.0
 11
-92.0
 21
-24.0
 31
0.0
  0
LINE
  5
E2
330
23
100
AcDbEntity
  8
0
  6
Continuous
 62
     7
370
    25
100
AcDbLine
 10
-77.0
 20
-5.0
 30
0.0
 11
-93.0
 21
-5.0
 31
0.0
  0
LINE
  5
E3
330
23
100
AcDbEntity
  8
0
  6
Continuous
 62
     7
370
    25
100
AcDbLine
 10
-78.0
 20
-24.0
 30
0.0
 11
-78.0
 21
-4.0
 31
0.0
  0
LINE
  5
E4
330
23
100
AcDbEntity
  8
0
  6
Continuous
 62
     7
370
    25
100
AcDbLine
 10
-77.0
 20
-5.0
 30
0.0
 11
-77.0
 21
-24.0
 31
0.0
  0
LINE
  5
E5
330
23
100
AcDbEntity
  8
0
  6
Continuous
 62
     7
370
    25
100
AcDbLine
 10
-92.0
 20
-4.0
 30
0.0
 11
-78.0
 21
-4.0
 31
0.0
  0
LINE
  5
E6
330
23
100
AcDbEntity
  8
0
  6
Continuous
 62
     7
370
    25
100
AcDbLine
 10
93.0
 20
-24.0
 30
0.0
 11
93.0
 21
5.0
 31
0.0
  0
LINE
  5
E7
330
23
100
AcDbEntity
  8
0
  6
Continuous
 62
     7
370
    25
100
AcDbLine
 10
92.0
 20
6.0
 30
0.0
 11
92.0
 21
-24.0
 31
0.0
  0
LINE
  5
E8
330
23
100
AcDbEntity
  8
0
  6
Continuous
 62
     7
370
    25
100
AcDbLine
 10
77.0
 20
-5.0
 30
0.0
 11
93.0
 21
-5.0
 31
0.0
  0
LINE
  5
E9
330
23
100
AcDbEntity
  8
0
  6
Continuous
 62
     7
370
    25
100
AcDbLine
 10
78.0
 20
-24.0
 30
0.0
 11
78.0
 21
-4.0
 31
0.0
  0
LINE
  5
EA
330
23
100
AcDbEntity
  8
0
  6
Continuous
 62
     7
370
    25
100
AcDbLine
 10
77.0
 20
-24.0
 30
0.0
 11
93.0
 21
-24.0
 31
0.0
  0
LINE
  5
EB
330
23
100
AcDbEntity
  8
0
  6
Continuous
 62
     7
370
    25
100
AcDbLine
 10
77.0
 20
-5.0
 30
0.0
 11
77.0
 21
-24.0
 31
0.0
  0
LINE
  5
EC
330
23
100
AcDbEntity
  8
0
  6
Continuous
 62
     7
370
    25
100
AcDbLine
 10
92.0
 20
-4.0
 30
0.0
 11
78.0
 21
-4.0
 31
0.0
  0
LINE
  5
ED
330
23
100
AcDbEntity
  8
0
  6
Continuous
 62
     7
370
    25
100
AcDbLine
 10
-93.0
 20
-24.0
 30
0.0
 11
-93.0
 21
5.0
 31
0.0
  0
ARC
  5
EE
330
23
100
AcDbEntity
  8
0
  6
Continuous
 62
     7
370
    25
100
AcDbCircle
 10
-78.0
 20
-5.0
 30
0.0
 40
1.0
100
AcDbArc
 50
0.0
 51
90.0
  0
ARC
  5
EF
330
23
100
AcDbEntity
  8
0
  6
Continuous
 62
     7
370
    25
100
AcDbCircle
 10
-92.0
 20
-5.0
 30
0.0
 40
1.000000000000017
100
AcDbArc
 50
90.0
 51
180.0
  0
ARC
  5
F0
330
23
100
AcDbEntity
  8
0
  6
Continuous
 62
     7
370
    25
100
AcDbCircle
 10
92.0
 20
-5.0
 30
0.0
 40
1.000000000000017
100
AcDbArc
 50
0.0
 51
90.0
  0
ARC
  5
F1
330
23
100
AcDbEntity
  8
0
  6
Continuous
 62
     7
370
    25
100
AcDbCircle
 10
78.0
 20
-5.0
 30
0.0
 40
1.0
100
AcDbArc
 50
90.0
 51
180.0
  0
VIEWPORT
  5
1CC
330
23
100
AcDbEntity
  8
0
100
AcDbViewport
 10
0.0
 20
0.0
 30
0.0
 40
205.6
 41
156.0
 68
     1
 69
     1
 12
0.0
 22
-9.0
 13
0.0
 23
0.0
 14
10.0
 24
10.0
 15
10.0
 25
10.0
 16
0.0
 26
0.0
 36
1.0
 17
0.0
 27
0.0
 37
0.0
 42
50.0
 43
0.0
 44
0.0
 45
30.6
 50
0.0
 51
0.0
 72
   100
 90
   557152
  1

281
     0
 71
     1
 74
     0
110
0.0
120
0.0
130
0.0
111
1.0
121
0.0
131
0.0
112
0.0
122
1.0
132
0.0
 79
     0
146
0.0
  0
ENDBLK
  5
25
330
23
100
AcDbEntity
  8
0
100
AcDbBlockEnd
  0
BLOCK
  5
F4
330
F2
100
AcDbEntity
  8
0
100
AcDbBlockBegin
  2
*Paper_Space1
 70
     0
 10
0.0
 20
0.0
 30
0.0
  3
*Paper_Space1
  1

  0
LINE
  5
11F
330
F2
100
AcDbEntity
  8
0
  6
Continuous
 62
     7
370
    25
100
AcDbLine
 10
-77.0
 20
-6.0
 30
0.0
 11
77.0
 21
-6.0
 31
0.0
  0
LINE
  5
120
330
F2
100
AcDbEntity
  8
0
  6
Continuous
 62
     7
370
    25
100
AcDbLine
 10
92.0
 20
6.0
 30
0.0
 11
-92.0
 21
6.0
 31
0.0
  0
LINE
  5
121
330
F2
100
AcDbEntity
  8
0
  6
Continuous
 62
     7
370
    25
100
AcDbLine
 10
93.0
 20
5.0
 30
0.0
 11
92.0
 21
6.0
 31
0.0
  0
LINE
  5
122
330
F2
100
AcDbEntity
  8
0
  6
Continuous
 62
     7
370
    25
100
AcDbLine
 10
-92.0
 20
6.0
 30
0.0
 11
-93.0
 21
5.0
 31
0.0
  0
LINE
  5
123
330
F2
100
AcDbEntity
  8
0
  6
Continuous
 62
     7
370
    25
100
AcDbLine
 10
77.0
 20
-24.0
 30
0.0
 11
93.0
 21
-24.0
 31
0.0
  0
LINE
  5
124
330
F2
100
AcDbEntity
  8
0
  6
Continuous
 62
     7
370
    25
100
AcDbLine
 10
78.0
 20
-4.0
 30
0.0
 11
78.0
 21
-24.0
 31
0.0
  0
LINE
  5
125
330
F2
100
AcDbEntity
  8
0
  6
Continuous
 62
     7
370
    25
100
AcDbLine
 10
93.0
 20
-5.0
 30
0.0
 11
77.0
 21
-5.0
 31
0.0
  0
LINE
  5
126
330
F2
100
AcDbEntity
  8
0
  6
Continuous
 62
     7
370
    25
100
AcDbLine
 10
92.0
 20
-24.0
 30
0.0
 11
92.0
 21
6.0
 31
0.0
  0
LINE
  5
127
330
F2
100
AcDbEntity
  8
0
  6
Continuous
 62
     7
370
    25
100
AcDbLine
 10
93.0
 20
5.0
 30
0.0
 11
93.0
 21
-24.0
 31
0.0
  0
LINE
  5
128
330
F2
100
AcDbEntity
  8
0
  6
Continuous
 62
     7
370
    25
100
AcDbLine
 10
77.0
 20
-24.0
 30
0.0
 11
77.0
 21
-5.0
 31
0.0
  0
LINE
  5
129
330
F2
100
AcDbEntity
  8
0
  6
Continuous
 62
     7
370
    25
100
AcDbLine
 10
78.0
 20
-4.0
 30
0.0
 11
92.0
 21
-4.0
 31
0.0
  0
LINE
  5
12A
330
F2
100
AcDbEntity
  8
0
  6
Continuous
 62
     7
370
    25
100
AcDbLine
 10
-93.0
 20
-5.0
 30
0.0
 11
-77.0
 21
-5.0
 31
0.0
  0
LINE
  5
12B
330
F2
100
AcDbEntity
  8
0
  6
Continuous
 62
     7
370
    25
100
AcDbLine
 10
-92.0
 20
-24.0
 30
0.0
 11
-92.0
 21
6.0
 31
0.0
  0
LINE
  5
12C
330
F2
100
AcDbEntity
  8
0
  6
Continuous
 62
     7
370
    25
100
AcDbLine
 10
-77.0
 20
-24.0
 30
0.0
 11
-93.0
 21
-24.0
 31
0.0
  0
LINE
  5
12D
330
F2
100
AcDbEntity
  8
0
  6
Continuous
 62
     7
370
    25
100
AcDbLine
 10
-78.0
 20
-4.0
 30
0.0
 11
-78.0
 21
-24.0
 31
0.0
  0
LINE
  5
12E
330
F2
100
AcDbEntity
  8
0
  6
Continuous
 62
     7
370
    25
100
AcDbLine
 10
-77.0
 20
-24.0
 30
0.0
 11
-77.0
 21
-5.0
 31
0.0
  0
LINE
  5
12F
330
F2
100
AcDbEntity
  8
0
  6
Continuous
 62
     7
370
    25
100
AcDbLine
 10
-78.0
 20
-4.0
 30
0.0
 11
-92.0
 21
-4.0
 31
0.0
  0
LINE
  5
130
330
F2
100
AcDbEntity
  8
0
  6
Continuous
 62
     7
370
    25
100
AcDbLine
 10
-93.0
 20
5.0
 30
0.0
 11
-93.0
 21
-24.0
 31
0.0
  0
ARC
  5
131
330
F2
100
AcDbEntity
  8
0
  6
Continuous
 62
     7
370
    25
100
AcDbCircle
 10
92.0
 20
-5.0
 30
0.0
 40
1.000000000000014
100
AcDbArc
 50
0.0
 51
90.0
  0
ARC
  5
132
330
F2
100
AcDbEntity
  8
0
  6
Continuous
 62
     7
370
    25
100
AcDbCircle
 10
78.0
 20
-5.0
 30
0.0
 40
1.0
100
AcDbArc
 50
90.0
 51
180.0
  0
ARC
  5
133
330
F2
100
AcDbEntity
  8
0
  6
Continuous
 62
     7
370
    25
100
AcDbCircle
 10
-92.0
 20
-5.0
 30
0.0
 40
1.000000000000014
100
AcDbArc
 50
90.0
 51
180.0
  0
ARC
  5
134
330
F2
100
AcDbEntity
  8
0
  6
Continuous
 62
     7
370
    25
100
AcDbCircle
 10
-78.0
 20
-5.0
 30
0.0
 40
1.0
100
AcDbArc
 50
0.0
 51
90.0
  0
VIEWPORT
  5
1CE
330
F2
100
AcDbEntity
  8
0
100
AcDbViewport
 10
0.0
 20
0.0
 30
0.0
 40
205.6
 41
156.0
 68
     1
 69
     1
 12
0.0
 22
-9.0
 13
0.0
 23
0.0
 14
10.0
 24
10.0
 15
10.0
 25
10.0
 16
0.0
 26
0.0
 36
1.0
 17
0.0
 27
0.0
 37
0.0
 42
50.0
 43
0.0
 44
0.0
 45
30.6
 50
0.0
 51
0.0
 72
   100
 90
   557152
  1

281
     0
 71
     1
 74
     0
110
0.0
120
0.0
130
0.0
111
1.0
121
0.0
131
0.0
112
0.0
122
1.0
132
0.0
 79
     0
146
0.0
  0
ENDBLK
  5
F5
330
F2
100
AcDbEntity
  8
0
100
AcDbBlockEnd
  0
BLOCK
  5
137
330
135
100
AcDbEntity
  8
0
100
AcDbBlockBegin
  2
*Paper_Space2
 70
     0
 10
0.0
 20
0.0
 30
0.0
  3
*Paper_Space2
  1

  0
LWPOLYLINE
  5
149
330
135
100
AcDbEntity
  8
0
  6
Continuous
 62
     7
370
    25
100
AcDbPolyline
 90
       22
 70
   128
 43
0.0
 10
60.811183182
 20
-40.0039974793
 10
60.8585699731
 20
-39.2464471089
 10
60.9996718038
 20
-38.4511075376
 10
61.2313366924
 20
-37.635745337
 10
61.548389628
 20
-36.8185743514
 10
61.943748172
 20
-36.0178488304
 10
62.4085806678
 20
-35.2514556588
 10
62.9325035256
 20
-34.5365147937
 10
63.5038131745
 20
-33.8889968326
 10
64.109747501
 20
-33.3233662568
 10
64.7367709336
 20
-32.8522583187
 10
65.3708768048
 20
-32.486196791
 10
65.9979002373
 20
-32.2333588836
 10
66.6038345638
 20
-32.0993925773
 10
67.1751442127
 20
-32.0872904582
 10
67.6990670705
 20
-32.1973228675
 10
68.1638995664
 20
-32.4270318631
 10
68.5592581104
 20
-32.7712861255
 10
68.876311046
 20
-33.2223955835
 10
69.1079759345
 20
-33.7702831971
 10
69.2490777652
 20
-34.4027100624
 10
69.2964645563
 20
-35.1055488084
  0
LWPOLYLINE
  5
14A
330
135
100
AcDbEntity
  8
0
  6
Continuous
 62
     7
370
    25
100
AcDbPolyline
 90
       12
 70
   128
 43
0.0
 10
65.0545134176
 20
-42.4536198826
 10
64.7367709336
 20
-42.6233494966
 10
64.109747501
 20
-42.8761874041
 10
63.5038131745
 20
-43.0101537104
 10
62.9325035256
 20
-43.0222558295
 10
62.4085806678
 20
-42.9122234202
 10
61.943748172
 20
-42.6825144246
 10
61.548389628
 20
-42.3382601622
 10
61.2313366924
 20
-41.8871507042
 10
60.9996718038
 20
-41.3392630906
 10
60.8585699731
 20
-40.7068362253
 10
60.811183182
 20
-40.0039974793
  0
LWPOLYLINE
  5
14B
330
135
100
AcDbEntity
  8
0
  6
Continuous
 62
     7
370
    25
100
AcDbPolyline
 90
       17
 70
   128
 43
0.0
 10
-69.2964645563
 20
35.1055488084
 10
-69.2490777652
 20
35.8630991788
 10
-69.1079759345
 20
36.6584387501
 10
-68.876311046
 20
37.4738009507
 10
-68.5592581104
 20
38.2909719363
 10
-68.1638995664
 20
39.0916974573
 10
-67.6990670705
 20
39.8580906289
 10
-67.1751442127
 20
40.573031494
 10
-66.6038345638
 20
41.2205494551
 10
-65.9979002373
 20
41.7861800309
 10
-65.3708768048
 20
42.257287969
 10
-64.7367709336
 20
42.6233494966
 10
-64.109747501
 20
42.8761874041
 10
-63.5038131745
 20
43.0101537104
 10
-62.9325035256
 20
43.0222558295
 10
-62.4085806678
 20
42.9122234202
 10
-62.0540676713
 20
42.7510663181
  0
SPLINE
  5
150
330
135
100
AcDbEntity
  8
0
  6
Continuous
 62
     7
370
    25
100
AcDbSpline
210
0.0
220
0.0
230
1.0
 70
     8
 71
     3
 72
    11
 73
     7
 74
     0
 42
0.000000001
 43
0.00000001
 40
0.0
 40
0.0
 40
0.0
 40
0.0
 40
0.0471049644975193
 40
0.4388320363041375
 40
0.7611897274683058
 40
1.0
 40
1.0
 40
1.0
 40
1.0
 10
-68.51279332619143
 20
32.62517662739899
 30
0.0
 10
-68.51460174927483
 20
32.62570534106077
 30
0.0
 10
-68.53144910268338
 20
32.63063086208161
 30
0.0
 10
-68.47890710102811
 20
32.60763943334674
 30
0.0
 10
-68.3683526512473
 20
32.54956673159325
 30
0.0
 10
-68.26155168068681
 20
32.48888818400823
 30
0.0
 10
-68.21610152933064
 20
32.46306586088384
 30
0.0
  0
SPLINE
  5
151
330
135
100
AcDbEntity
  8
0
  6
Continuous
 62
     7
370
    25
100
AcDbSpline
210
0.0
220
0.0
230
1.0
 70
     8
 71
     3
 72
    10
 73
     6
 74
     0
 42
0.000000001
 43
0.00000001
 40
0.0
 40
0.0
 40
0.0
 40
0.0
 40
0.3630288817841311
 40
0.7249323950626773
 40
1.0
 40
1.0
 40
1.0
 40
1.0
 10
-58.316606592719
 20
26.74820907812488
 30
0.0
 10
-58.24819530054086
 20
26.7081247552371
 30
0.0
 10
-58.1115847872277
 20
26.62808036854065
 30
0.0
 10
-57.89303948335728
 20
26.49416613993074
 30
0.0
 10
-57.76108337647437
 20
26.41824878341577
 30
0.0
 10
-57.70409986617206
 20
26.38546487087633
 30
0.0
  0
SPLINE
  5
163
330
135
100
AcDbEntity
  8
0
  6
Continuous
 62
     7
370
    25
100
AcDbSpline
210
0.0
220
0.0
230
1.0
 70
     8
 71
     3
 72
    10
 73
     6
 74
     0
 42
0.000000001
 43
0.00000001
 40
0.0
 40
0.0
 40
0.0
 40
0.0
 40
0.318801352909068
 40
0.6366144400902453
 40
1.0
 40
1.0
 40
1.0
 40
1.0
 10
51.99205127238223
 20
-36.93162364404652
 30
0.0
 10
51.93300295559875
 20
-36.89815377008869
 30
0.0
 10
51.81508936839353
 20
-36.83131777684359
 30
0.0
 10
51.70653442226541
 20
-36.77705881685256
 30
0.0
 10
51.69957639405294
 20
-36.77252709518082
 30
0.0
 10
51.69586463245646
 20
-36.7701096473129
 30
0.0
  0
SPLINE
  5
164
330
135
100
AcDbEntity
  8
0
  6
Continuous
 62
     7
370
    25
100
AcDbSpline
210
0.0
220
0.0
230
1.0
 70
     8
 71
     3
 72
    12
 73
     8
 74
     0
 42
0.000000001
 43
0.00000001
 40
0.0
 40
0.0
 40
0.0
 40
0.0
 40
0.0064114420689243
 40
0.1590531436209109
 40
0.3583767482134828
 40
0.6335575584659034
 40
1.0
 40
1.0
 40
1.0
 40
1.0
 10
68.37410199111751
 20
-39.14003574638524
 30
0.0
 10
68.37641938814046
 20
-39.14212565951197
 30
0.0
 10
68.43390868267879
 20
-39.193971601365
 30
0.0
 10
68.49813145747522
 20
-39.3823532576646
 30
0.0
 10
68.53779754633858
 20
-39.71952744509893
 30
0.0
 10
68.42605477595642
 20
-40.20004036424515
 30
0.0
 10
68.22243143749465
 20
-40.5130539476847
 30
0.0
 10
68.10613853026052
 20
-40.69182156782557
 30
0.0
  0
SPLINE
  5
166
330
135
100
AcDbEntity
  8
0
  6
Continuous
 62
     7
370
    25
100
AcDbSpline
210
0.0
220
0.0
230
1.0
 70
     8
 71
     3
 72
    14
 73
    10
 74
     0
 42
0.000000001
 43
0.00000001
 40
0.0
 40
0.0
 40
0.0
 40
0.0
 40
0.25
 40
0.25
 40
0.5
 40
0.5
 40
0.75
 40
0.75
 40
1.0
 40
1.0
 40
1.0
 40
1.0
 10
63.41572277043709
 20
-43.399540950544
 30
0.0
 10
63.31583580440287
 20
-43.38069273289729
 30
0.0
 10
63.21118435479239
 20
-43.35036808340094
 30
0.0
 10
62.98486715525868
 20
-43.26366055158931
 30
0.0
 10
62.86078385874354
 20
-43.2058763375743
 30
0.0
 10
62.59515916425089
 20
-43.06515534744046
 30
0.0
 10
62.45182817311872
 20
-42.98121697820903
 30
0.0
 10
62.15946679325103
 20
-42.80573421818879
 30
0.0
 10
62.01302972513209
 20
-42.71661136789303
 30
0.0
 10
61.89154620899387
 20
-42.6464804268055
 30
0.0
  0
LWPOLYLINE
  5
178
330
135
100
AcDbEntity
  8
0
  6
Continuous
 62
     7
370
    25
100
AcDbPolyline
 90
       17
 70
   128
 43
0.0
 10
-69.2964645563
 20
35.1055488084
 10
-69.2490777652
 20
35.8630991788
 10
-69.1079759345
 20
36.6584387501
 10
-68.876311046
 20
37.4738009507
 10
-68.5592581104
 20
38.2909719363
 10
-68.1638995664
 20
39.0916974573
 10
-67.6990670705
 20
39.8580906289
 10
-67.1751442127
 20
40.573031494
 10
-66.6038345638
 20
41.2205494551
 10
-65.9979002373
 20
41.7861800309
 10
-65.3708768048
 20
42.257287969
 10
-64.7367709336
 20
42.6233494966
 10
-64.109747501
 20
42.8761874041
 10
-63.5038131745
 20
43.0101537104
 10
-62.9325035256
 20
43.0222558295
 10
-62.4085806678
 20
42.9122234202
 10
-62.0540676713
 20
42.7510663181
  0
LWPOLYLINE
  5
17B
330
135
100
AcDbEntity
  8
0
  6
Continuous
 62
     7
370
    25
100
AcDbPolyline
 90
       22
 70
   128
 43
0.0
 10
60.811183182
 20
-40.0039974793
 10
60.8585699731
 20
-39.2464471089
 10
60.9996718038
 20
-38.4511075376
 10
61.2313366924
 20
-37.635745337
 10
61.548389628
 20
-36.8185743514
 10
61.943748172
 20
-36.0178488304
 10
62.4085806678
 20
-35.2514556588
 10
62.9325035256
 20
-34.5365147937
 10
63.5038131745
 20
-33.8889968326
 10
64.109747501
 20
-33.3233662568
 10
64.7367709336
 20
-32.8522583187
 10
65.3708768048
 20
-32.486196791
 10
65.9979002373
 20
-32.2333588836
 10
66.6038345638
 20
-32.0993925773
 10
67.1751442127
 20
-32.0872904582
 10
67.6990670705
 20
-32.1973228675
 10
68.1638995664
 20
-32.4270318631
 10
68.5592581104
 20
-32.7712861255
 10
68.876311046
 20
-33.2223955835
 10
69.1079759345
 20
-33.7702831971
 10
69.2490777652
 20
-34.4027100624
 10
69.2964645563
 20
-35.1055488084
  0
LWPOLYLINE
  5
17E
330
135
100
AcDbEntity
  8
0
  6
Continuous
 62
     7
370
    25
100
AcDbPolyline
 90
       40
 70
   128
 43
0.0
 10
69.2964645563
 20
-35.9219569202
 10
69.2506803208
 20
-35.2934758092
 10
69.1145134019
 20
-34.7341333821
 10
68.8914904513
 20
-34.2584163137
 10
68.5873876462
 20
-33.8786454264
 10
68.2100810896
 20
-33.6046565867
 10
67.7693428232
 20
-33.4435459614
 10
67.2765877364
 20
-33.3994862314
 10
66.7445779272
 20
-33.4736185203
 10
66.1870921703
 20
-33.6640228408
 10
65.6185690538
 20
-33.9657678211
 10
65.0537330279
 20
-34.3710384247
 10
64.507213049
 20
-34.8693383558
 10
63.9931636974
 20
-35.4477619079
 10
63.5248985813
 20
-36.091328215
 10
63.1145455212
 20
-36.7833692475
 10
62.772732446
 20
-37.5059615065
 10
62.5083121345
 20
-38.2403902318
 10
62.3281329342
 20
-38.9676341053
 10
62.2368613915
 20
-39.6688578927
 10
62.2368613915
 20
-40.3259002662
 10
62.3281329342
 20
-40.9217441735
 10
62.5083121345
 20
-41.4409575703
 10
62.772732446
 20
-41.8700931024
 10
63.1145455212
 20
-42.1980363849
 10
63.5248985813
 20
-42.4162938592
 10
63.9931636974
 20
-42.5192127711
 10
64.507213049
 20
-42.5041275751
 10
65.0537330279
 20
-42.3714289697
 10
65.6185690538
 20
-42.1245537791
 10
66.1870921703
 20
-41.769895941
 10
66.7445779272
 20
-41.3166409073
 10
67.2765877364
 20
-40.7765277451
 10
67.7693428232
 20
-40.1635451017
 10
68.2100810896
 20
-39.4935689055
 10
68.5873876462
 20
-38.7839511882
 10
68.8914904513
 20
-38.0530706758
 10
69.1145134019
 20
-37.3198567896
 10
69.2506803208
 20
-36.6032993843
 10
69.2964645563
 20
-35.9219569202
  0
LWPOLYLINE
  5
184
330
135
100
AcDbEntity
  8
0
  6
Continuous
 62
     8
370
    25
100
AcDbPolyline
 90
        3
 70
   128
 43
0.0
 10
68.7357637508
 20
-38.9345100893
 10
68.6286518637
 20
-38.8948440569
 10
68.5373456696
 20
-38.8879102182
  0
LINE
  5
188
330
135
100
AcDbEntity
  8
0
  6
Continuous
 62
     7
370
    25
100
AcDbLine
 10
68.0535800671
 20
-32.3584799696
 30
0.0
 11
-62.0540676713
 21
42.7510663181
 31
0.0
  0
LINE
  5
189
330
135
100
AcDbEntity
  8
0
  6
Continuous
 62
     7
370
    25
100
AcDbLine
 10
-57.6920629627
 20
26.3769034666
 30
0.0
 11
51.6925505669
 21
-36.7694898152
 31
0.0
  0
LINE
  5
18A
330
135
100
AcDbEntity
  8
0
  6
Continuous
 62
     7
370
    25
100
AcDbLine
 10
-50.9723484172
 20
14.0798551274
 30
0.0
 11
-50.9723484172
 21
22.4976948308
 31
0.0
  0
LINE
  5
18B
330
135
100
AcDbEntity
  8
0
  6
Continuous
 62
     7
370
    25
100
AcDbLine
 10
-68.5150927204
 20
32.6285903695
 30
0.0
 11
-68.7357637508
 21
32.5011996952
 31
0.0
  0
LINE
  5
18C
330
135
100
AcDbEntity
  8
0
  6
Continuous
 62
     7
370
    25
100
AcDbLine
 10
-69.2358043845
 20
31.6351508328
 30
0.0
 11
-69.2358043845
 21
16.120875407
 31
0.0
  0
LINE
  5
18D
330
135
100
AcDbEntity
  8
0
  6
Continuous
 62
     7
370
    25
100
AcDbLine
 10
69.2358043845
 20
-55.3148343775
 30
0.0
 11
69.2358043845
 21
-39.8005589517
 31
0.0
  0
LINE
  5
18E
330
135
100
AcDbEntity
  8
0
  6
Continuous
 62
     7
370
    25
100
AcDbLine
 10
68.7357637508
 20
-38.9345100893
 30
0.0
 11
68.5631090703
 21
-38.8348386638
 31
0.0
  0
LINE
  5
18F
330
135
100
AcDbEntity
  8
0
  6
Continuous
 62
     7
370
    25
100
AcDbLine
 10
51.6898685911
 20
-36.7679415435
 30
0.0
 11
51.4723890509
 21
-36.8934898097
 31
0.0
  0
LINE
  5
190
330
135
100
AcDbEntity
  8
0
  6
Continuous
 62
     7
370
    25
100
AcDbLine
 10
50.9723484172
 20
-37.7595386721
 30
0.0
 11
50.9723484172
 21
-53.2738140979
 31
0.0
  0
LINE
  5
191
330
135
100
AcDbEntity
  8
0
  6
Continuous
 62
     7
370
    25
100
AcDbLine
 10
-65.0545134176
 20
42.4536198826
 30
0.0
 11
-65.761505274
 21
42.0453494821
 31
0.0
  0
LINE
  5
192
330
135
100
AcDbEntity
  8
0
  6
Continuous
 62
     7
370
    25
100
AcDbLine
 10
-69.2964645563
 20
35.9219569202
 30
0.0
 11
-69.2964645563
 21
35.1055488084
 31
0.0
  0
LINE
  5
193
330
135
100
AcDbEntity
  8
0
  6
Continuous
 62
     7
370
    25
100
AcDbLine
 10
65.0545134176
 20
-42.4536198826
 30
0.0
 11
65.761505274
 21
-42.0453494821
 31
0.0
  0
LINE
  5
194
330
135
100
AcDbEntity
  8
0
  6
Continuous
 62
     7
370
    25
100
AcDbLine
 10
69.2964645563
 20
-35.9219569202
 30
0.0
 11
69.2964645563
 21
-35.1055488084
 31
0.0
  0
LINE
  5
195
330
135
100
AcDbEntity
  8
0
  6
Continuous
 62
     7
370
    25
100
AcDbLine
 10
-58.3166065927
 20
26.7482090781
 30
0.0
 11
-68.2161015293
 21
32.4630658609
 31
0.0
  0
LINE
  5
196
330
135
100
AcDbEntity
  8
0
  6
Continuous
 62
     7
370
    25
100
AcDbLine
 10
-58.3363094479
 20
26.7368348619
 30
0.0
 11
-58.3166065927
 21
26.7482090781
 31
0.0
  0
LINE
  5
197
330
135
100
AcDbEntity
  8
0
  6
Continuous
 62
     7
370
    25
100
AcDbLine
 10
-59.0434162291
 20
9.9978145683
 30
0.0
 11
-59.0434162291
 21
25.5120899941
 31
0.0
  0
LINE
  5
198
330
135
100
AcDbEntity
  8
0
  6
Continuous
 62
     7
370
    25
100
AcDbLine
 10
-57.6292026667
 20
25.5120899941
 30
0.0
 11
-57.6292026667
 21
9.9978145683
 31
0.0
  0
LINE
  5
199
330
135
100
AcDbEntity
  8
0
  6
Continuous
 62
     7
370
    25
100
AcDbLine
 10
-68.2358043845
 20
32.4516916447
 30
0.0
 11
-58.3363094479
 21
26.7368348619
 31
0.0
  0
LINE
  5
19A
330
135
100
AcDbEntity
  8
0
  6
Continuous
 62
     7
370
    25
100
AcDbLine
 10
-59.0434162291
 20
25.5120899941
 30
0.0
 11
-68.9429111657
 21
31.2269467769
 31
0.0
  0
LINE
  5
19B
330
135
100
AcDbEntity
  8
0
  6
Continuous
 62
     7
370
    25
100
AcDbLine
 10
-51.265241636
 20
13.6716510715
 30
0.0
 11
-57.6292026667
 21
9.9978145683
 31
0.0
  0
LINE
  5
19C
330
135
100
AcDbEntity
  8
0
  6
Continuous
 62
     7
370
    25
100
AcDbLine
 10
-59.0434162291
 20
9.9978145683
 30
0.0
 11
-68.9429111657
 21
15.7126713511
 31
0.0
  0
LINE
  5
19D
330
135
100
AcDbEntity
  8
0
  6
Continuous
 62
     7
370
    25
100
AcDbLine
 10
-68.9429111657
 20
31.2269467769
 30
0.0
 11
-68.9429111657
 21
15.7126713511
 31
0.0
  0
LINE
  5
19E
330
135
100
AcDbEntity
  8
0
  6
Continuous
 62
     7
370
    25
100
AcDbLine
 10
-68.2161015293
 20
32.4630658609
 30
0.0
 11
-68.2358043845
 21
32.4516916447
 31
0.0
  0
LINE
  5
19F
330
135
100
AcDbEntity
  8
0
  6
Continuous
 62
     7
370
    25
100
AcDbLine
 10
51.9920512724
 20
-36.931623644
 30
0.0
 11
61.891546209
 21
-42.6464804268
 31
0.0
  0
LINE
  5
1A0
330
135
100
AcDbEntity
  8
0
  6
Continuous
 62
     7
370
    25
100
AcDbLine
 10
62.578950135
 20
-43.8825995108
 30
0.0
 11
63.4157227704
 21
-43.3995409505
 31
0.0
  0
LINE
  5
1A1
330
135
100
AcDbEntity
  8
0
  6
Continuous
 62
     7
370
    25
100
AcDbLine
 10
61.891546209
 20
-42.6464804268
 30
0.0
 11
61.8718433538
 21
-42.657854643
 31
0.0
  0
LINE
  5
1A2
330
135
100
AcDbEntity
  8
0
  6
Continuous
 62
     7
370
    25
100
AcDbLine
 10
62.578950135
 20
-59.3968749366
 30
0.0
 11
62.578950135
 21
-43.8825995108
 31
0.0
  0
LINE
  5
1A3
330
135
100
AcDbEntity
  8
0
  6
Continuous
 62
     7
370
    25
100
AcDbLine
 10
61.1647365726
 20
-43.8825995108
 30
0.0
 11
61.1647365726
 21
-59.3968749366
 31
0.0
  0
LINE
  5
1A4
330
135
100
AcDbEntity
  8
0
  6
Continuous
 62
     7
370
    25
100
AcDbLine
 10
51.265241636
 20
-38.167742728
 30
0.0
 11
61.1647365726
 21
-43.8825995108
 31
0.0
  0
LINE
  5
1A5
330
135
100
AcDbEntity
  8
0
  6
Continuous
 62
     7
370
    25
100
AcDbLine
 10
61.8718433538
 20
-42.657854643
 30
0.0
 11
51.9723484172
 21
-36.9429978602
 31
0.0
  0
LINE
  5
1A6
330
135
100
AcDbEntity
  8
0
  6
Continuous
 62
     7
370
    25
100
AcDbLine
 10
68.1061385303
 20
-40.6918215678
 30
0.0
 11
68.9429111657
 21
-40.2087630076
 31
0.0
  0
LINE
  5
1A7
330
135
100
AcDbEntity
  8
0
  6
Continuous
 62
     7
370
    25
100
AcDbLine
 10
68.9429111657
 20
-40.2087630076
 30
0.0
 11
68.9429111657
 21
-55.7230384334
 31
0.0
  0
LINE
  5
1A8
330
135
100
AcDbEntity
  8
0
  6
Continuous
 62
     7
370
    25
100
AcDbLine
 10
68.9429111657
 20
-55.7230384334
 30
0.0
 11
62.578950135
 21
-59.3968749366
 31
0.0
  0
LINE
  5
1A9
330
135
100
AcDbEntity
  8
0
  6
Continuous
 62
     7
370
    25
100
AcDbLine
 10
51.265241636
 20
-53.6820181539
 30
0.0
 11
61.1647365726
 21
-59.3968749366
 31
0.0
  0
LINE
  5
1AA
330
135
100
AcDbEntity
  8
0
  6
Continuous
 62
     7
370
    25
100
AcDbLine
 10
51.265241636
 20
-53.6820181539
 30
0.0
 11
51.265241636
 21
-38.167742728
 31
0.0
  0
LINE
  5
1AB
330
135
100
AcDbEntity
  8
0
  6
Continuous
 62
     7
370
    25
100
AcDbLine
 10
51.9723484172
 20
-36.9429978602
 30
0.0
 11
51.9920512724
 21
-36.931623644
 31
0.0
  0
LINE
  5
1AC
330
135
100
AcDbEntity
  8
0
  6
Continuous
 62
     8
370
    25
100
AcDbLine
 10
-56.9116012188
 20
25.9263524922
 30
0.0
 11
-57.6292026667
 21
25.5120899941
 31
0.0
  0
LINE
  5
1AD
330
135
100
AcDbEntity
  8
0
  6
Continuous
 62
     8
370
    25
100
AcDbLine
 10
-51.265241636
 20
13.6716510715
 30
0.0
 11
-51.265241636
 21
22.666778487
 31
0.0
  0
ARC
  5
1AE
330
135
100
AcDbEntity
  8
0
  6
Continuous
 62
     7
370
    25
100
AcDbCircle
 10
-68.2358043845
 20
31.6351508328
 30
0.0
 40
1.000000000000128
100
AcDbArc
 50
119.9973117337
 51
180.0
  0
ARC
  5
1AF
330
135
100
AcDbEntity
  8
0
  6
Continuous
 62
     7
370
    25
100
AcDbCircle
 10
68.2358043845
 20
-39.8005589517
 30
0.0
 40
1.000000000000061
100
AcDbArc
 50
0.0
 51
60.0026882663
  0
ARC
  5
1B0
330
135
100
AcDbEntity
  8
0
  6
Continuous
 62
     7
370
    25
100
AcDbCircle
 10
51.9723484172
 20
-37.7595386721
 30
0.0
 40
1.000000000000031
100
AcDbArc
 50
119.9973117337
 51
180.0
  0
ARC
  5
1B1
330
135
100
AcDbEntity
  8
0
  6
Continuous
 62
     7
370
    25
100
AcDbCircle
 10
-66.1367445701
 20
34.8552896531
 30
0.0
 40
3.169615124258457
100
AcDbArc
 50
175.4714585909
 51
229.0023391158
  0
ARC
  5
1B2
330
135
100
AcDbEntity
  8
0
  6
Continuous
 62
     7
370
    25
100
AcDbCircle
 10
-59.1644187681
 20
25.4422291419
 30
0.0
 40
1.536804807572129
100
AcDbArc
 50
2.6054784857
 51
57.39452166
  0
ARC
  5
1B3
330
135
100
AcDbEntity
  8
0
  6
Continuous
 62
     7
370
    25
100
AcDbCircle
 10
-58.3363094479
 20
26.8768010791
 30
0.0
 40
1.537021907911727
100
AcDbArc
 50
242.6096722366
 51
297.3903277634
  0
ARC
  5
1B4
330
135
100
AcDbEntity
  8
0
  6
Continuous
 62
     7
370
    25
100
AcDbCircle
 10
-57.5082001277
 20
25.4422291419
 30
0.0
 40
1.536804807572066
100
AcDbArc
 50
122.60547834
 51
177.3945215143
  0
ARC
  5
1B5
330
135
100
AcDbEntity
  8
0
  6
Continuous
 62
     7
370
    25
100
AcDbCircle
 10
-58.3363094479
 20
11.3625256533
 30
0.0
 40
1.537021907911718
100
AcDbArc
 50
242.6096722366
 51
297.3903277634
  0
ARC
  5
1B6
330
135
100
AcDbEntity
  8
0
  6
Continuous
 62
     7
370
    25
100
AcDbCircle
 10
-67.4076950643
 20
31.1570859246
 30
0.0
 40
1.536804807572056
100
AcDbArc
 50
122.60547834
 51
177.3945215143
  0
ARC
  5
1B7
330
135
100
AcDbEntity
  8
0
  6
Continuous
 62
     7
370
    25
100
AcDbCircle
 10
-51.4728054797
 20
14.1297615043
 30
0.0
 40
0.502939278493799
100
AcDbArc
 50
294.3746582936
 51
354.3052007488
  0
ARC
  5
1B8
330
135
100
AcDbEntity
  8
0
  6
Continuous
 62
     7
370
    25
100
AcDbCircle
 10
-68.735347322
 20
16.1707817839
 30
0.0
 40
0.5029392784938244
100
AcDbArc
 50
185.6947992512
 51
245.6253417064
  0
ARC
  5
1B9
330
135
100
AcDbEntity
  8
0
  6
Continuous
 62
     7
370
    25
100
AcDbCircle
 10
61.8718433538
 20
-42.5178884258
 30
0.0
 40
1.537021907911711
100
AcDbArc
 50
242.6096722366
 51
297.3903277634
  0
ARC
  5
1BA
330
135
100
AcDbEntity
  8
0
  6
Continuous
 62
     7
370
    25
100
AcDbCircle
 10
62.699952674
 20
-43.952460363
 30
0.0
 40
1.53680480757208
100
AcDbArc
 50
122.60547834
 51
177.3945215143
  0
ARC
  5
1BB
330
135
100
AcDbEntity
  8
0
  6
Continuous
 62
     7
370
    25
100
AcDbCircle
 10
61.0437340336
 20
-43.952460363
 30
0.0
 40
1.536804807572102
100
AcDbArc
 50
2.6054784857
 51
57.39452166
  0
ARC
  5
1BC
330
135
100
AcDbEntity
  8
0
  6
Continuous
 62
     7
370
    25
100
AcDbCircle
 10
63.404450542
 20
-37.9636956929
 30
0.0
 40
5.435856945190425
100
AcDbArc
 50
270.1188132036
 51
329.8758102637
  0
ARC
  5
1BD
330
135
100
AcDbEntity
  8
0
  6
Continuous
 62
     7
370
    25
100
AcDbCircle
 10
61.8718433538
 20
-58.0321638517
 30
0.0
 40
1.537021907911759
100
AcDbArc
 50
242.6096722366
 51
297.3903277634
  0
ARC
  5
1BE
330
135
100
AcDbEntity
  8
0
  6
Continuous
 62
     7
370
    25
100
AcDbCircle
 10
52.8004577374
 20
-38.2376035803
 30
0.0
 40
1.536804807572071
100
AcDbArc
 50
122.60547834
 51
177.3945215143
  0
ARC
  5
1BF
330
135
100
AcDbEntity
  8
0
  6
Continuous
 62
     7
370
    25
100
AcDbCircle
 10
68.735347322
 20
-55.2649280006
 30
0.0
 40
0.5029392784938007
100
AcDbArc
 50
294.3746582936
 51
354.3052007488
  0
ARC
  5
1C0
330
135
100
AcDbEntity
  8
0
  6
Continuous
 62
     7
370
    25
100
AcDbCircle
 10
51.4728054797
 20
-53.223907721
 30
0.0
 40
0.5029392784937702
100
AcDbArc
 50
185.6947992512
 51
245.6253417064
  0
ARC
  5
1C1
330
135
100
AcDbEntity
  8
0
  6
Continuous
 62
     7
370
    25
100
AcDbCircle
 10
-61.6847299099
 20
35.6098366003
 30
0.0
 40
7.618131228966712
100
AcDbArc
 50
122.353483095
 51
177.6518934377
  0
ARC
  5
1C2
330
135
100
AcDbEntity
  8
0
  6
Continuous
 62
     7
370
    25
100
AcDbCircle
 10
63.2168605567
 20
-39.7134856278
 30
0.0
 40
3.299288373464456
100
AcDbArc
 50
255.8209549137
 51
303.8475191405
  0
ARC
  5
1C3
330
135
100
AcDbEntity
  8
0
  6
Continuous
 62
     7
370
    25
100
AcDbCircle
 10
63.7621654398
 20
-40.3235542523
 30
0.0
 40
2.96823395590806
100
AcDbArc
 50
173.8196216534
 51
234.8681979532
  0
ARC
  5
1C4
330
135
100
AcDbEntity
  8
0
  6
Continuous
 62
     8
370
    25
100
AcDbCircle
 10
-68.735347322
 20
31.6850572097
 30
0.0
 40
0.5029392784937857
100
AcDbArc
 50
185.6947992512
 51
245.6253417064
  0
ARC
  5
1C5
330
135
100
AcDbEntity
  8
0
  6
Continuous
 62
     8
370
    25
100
AcDbCircle
 10
-68.5287244394
 20
32.0428103156
 30
0.0
 40
0.5029772359017952
100
AcDbArc
 50
54.3824225248
 51
114.3071190461
  0
ARC
  5
1C6
330
135
100
AcDbEntity
  8
0
  6
Continuous
 62
     8
370
    25
100
AcDbCircle
 10
67.3726986704
 20
-40.291381849
 30
0.0
 40
1.572384543749973
100
AcDbArc
 50
3.0119170405
 51
48.2346649543
  0
ARC
  5
1C7
330
135
100
AcDbEntity
  8
0
  6
Continuous
 62
     8
370
    25
100
AcDbCircle
 10
68.735347322
 20
-39.7506525748
 30
0.0
 40
0.5029392784938442
100
AcDbArc
 50
294.3746582936
 51
354.3052007488
  0
ARC
  5
1C8
330
135
100
AcDbEntity
  8
0
  6
Continuous
 62
     8
370
    25
100
AcDbCircle
 10
51.4728054797
 20
-37.7096322952
 30
0.0
 40
0.5029392784937702
100
AcDbArc
 50
185.6947992512
 51
245.6253417064
  0
ARC
  5
1C9
330
135
100
AcDbEntity
  8
0
  6
Continuous
 62
     8
370
    25
100
AcDbCircle
 10
51.6794283624
 20
-37.3518791893
 30
0.0
 40
0.5029772359017493
100
AcDbArc
 50
54.3824225248
 51
114.3071190461
  0
VIEWPORT
  5
1D0
330
135
100
AcDbEntity
  8
0
100
AcDbViewport
 10
0.0
 20
0.0
 30
0.0
 40
205.6
 41
156.0
 68
     1
 69
     1
 12
0.0
 22
-9.0
 13
0.0
 23
0.0
 14
10.0
 24
10.0
 15
10.0
 25
10.0
 16
0.0
 26
0.0
 36
1.0
 17
0.0
 27
0.0
 37
0.0
 42
50.0
 43
0.0
 44
0.0
 45
30.6
 50
0.0
 51
0.0
 72
   100
 90
   557152
  1

281
     0
 71
     1
 74
     0
110
0.0
120
0.0
130
0.0
111
1.0
121
0.0
131
0.0
112
0.0
122
1.0
132
0.0
 79
     0
146
0.0
  0
ENDBLK
  5
138
330
135
100
AcDbEntity
  8
0
100
AcDbBlockEnd
  0
ENDSEC
  0
SECTION
  2
ENTITIES
  0
SPLINE
  5
76
330
1F
100
AcDbEntity
  8
0
  6
Continuous
 62
     7
370
    25
100
AcDbSpline
210
0.0
220
0.0
230
1.0
 70
     8
 71
     3
 72
    14
 73
    10
 74
     0
 42
0.000000001
 43
0.00000001
 40
0.0
 40
0.0
 40
0.0
 40
0.0
 40
0.25
 40
0.25
 40
0.5
 40
0.5
 40
0.75
 40
0.75
 40
1.0
 40
1.0
 40
1.0
 40
1.0
 10
4.472135954999581
 20
-4.0
 30
0.0
 10
4.472135954999581
 20
-3.999999999999999
 30
0.0
 10
4.432112325993009
 20
-4.045569804298052
 30
0.0
 10
4.293067980557953
 20
-4.192829835084576
 30
0.0
 10
4.196386167205397
 20
-4.291007742625137
 30
0.0
 10
3.977205718676849
 20
-4.494912566769887
 30
0.0
 10
3.853636687621363
 20
-4.601840984076675
 30
0.0
 10
3.593783251964885
 20
-4.807512672974021
 30
0.0
 10
3.457989490581292
 20
-4.906229266149932
 30
0.0
 10
3.316624790355403
 20
-5.0
 30
0.0
  0
SPLINE
  5
7E
330
1F
100
AcDbEntity
  8
0
  6
Continuous
 62
     7
370
    25
100
AcDbSpline
210
0.0
220
0.0
230
1.0
 70
     8
 71
     3
 72
    14
 73
    10
 74
     0
 42
0.000000001
 43
0.00000001
 40
0.0
 40
0.0
 40
0.0
 40
0.0
 40
0.25
 40
0.25
 40
0.5
 40
0.5
 40
0.75
 40
0.75
 40
1.0
 40
1.0
 40
1.0
 40
1.0
 10
-3.316624790355408
 20
-4.999999999999996
 30
0.0
 10
-3.457886292425299
 20
-4.906297720062426
 30
0.0
 10
-3.593045495526829
 20
-4.808010258841082
 30
0.0
 10
-3.850521395290884
 20
-4.604391769436421
 30
0.0
 10
-3.975096643848368
 20
-4.496795561338128
 30
0.0
 10
-4.195133373915956
 20
-4.292251113746884
 30
0.0
 10
-4.291876984304982
 20
-4.194059551964143
 30
0.0
 10
-4.431553873925714
 20
-4.046192511030892
 30
0.0
 10
-4.472135954999587
 20
-3.999999999999994
 30
0.0
 10
-4.472135954999585
 20
-3.999999999999996
 30
0.0
  0
CIRCLE
  5
8B
330
1F
100
AcDbEntity
  8
0
  6
Continuous
 62
     7
370
    25
100
AcDbCircle
 10
0.0
 20
0.0
 30
0.0
 40
4.999999999999989
  0
LINE
  5
8C
330
1F
100
AcDbEntity
  8
0
  6
Continuous
 62
     7
370
    25
100
AcDbLine
 10
3.3166247904
 20
-5.0
 30
0.0
 11
5.5
 21
-5.0
 31
0.0
  0
LINE
  5
8D
330
1F
100
AcDbEntity
  8
0
  6
Continuous
 62
     7
370
    25
100
AcDbLine
 10
4.5
 20
-4.0
 30
0.0
 11
4.472135955
 21
-4.0
 31
0.0
  0
LINE
  5
8E
330
1F
100
AcDbEntity
  8
0
  6
Continuous
 62
     7
370
    25
100
AcDbLine
 10
4.5
 20
-4.0
 30
0.0
 11
4.5
 21
-24.0
 31
0.0
  0
LINE
  5
8F
330
1F
100
AcDbEntity
  8
0
  6
Continuous
 62
     7
370
    25
100
AcDbLine
 10
-5.5
 20
-5.0
 30
0.0
 11
-3.3166247904
 21
-5.0
 31
0.0
  0
LINE
  5
90
330
1F
100
AcDbEntity
  8
0
  6
Continuous
 62
     7
370
    25
100
AcDbLine
 10
-4.5
 20
-24.0
 30
0.0
 11
-4.5
 21
-4.0
 31
0.0
  0
LINE
  5
91
330
1F
100
AcDbEntity
  8
0
  6
Continuous
 62
     7
370
    25
100
AcDbLine
 10
-4.472135955
 20
-4.0
 30
0.0
 11
-4.5
 21
-4.0
 31
0.0
  0
LINE
  5
92
330
1F
100
AcDbEntity
  8
0
  6
Continuous
 62
     7
370
    25
100
AcDbLine
 10
5.5
 20
-24.0
 30
0.0
 11
-5.5
 21
-24.0
 31
0.0
  0
LINE
  5
93
330
1F
100
AcDbEntity
  8
0
  6
Continuous
 62
     7
370
    25
100
AcDbLine
 10
5.5
 20
-24.0
 30
0.0
 11
5.5
 21
-5.0
 31
0.0
  0
LINE
  5
94
330
1F
100
AcDbEntity
  8
0
  6
Continuous
 62
     7
370
    25
100
AcDbLine
 10
-5.5
 20
-5.0
 30
0.0
 11
-5.5
 21
-24.0
 31
0.0
  0
ARC
  5
95
330
1F
100
AcDbEntity
  8
0
  6
Continuous
 62
     7
370
    25
100
AcDbCircle
 10
0.0
 20
0.0
 30
0.0
 40
6.000000000000003
100
AcDbArc
 50
318.1896851042
 51
221.8103148958
  0
ARC
  5
96
330
1F
100
AcDbEntity
  8
0
  6
Continuous
 62
     7
370
    25
100
AcDbCircle
 10
4.5
 20
-5.0
 30
0.0
 40
1.000000000000001
100
AcDbArc
 50
0.0
 51
90.0
  0
ARC
  5
97
330
1F
100
AcDbEntity
  8
0
  6
Continuous
 62
     7
370
    25
100
AcDbCircle
 10
-4.5
 20
-5.0
 30
0.0
 40
1.000000000000001
100
AcDbArc
 50
90.0
 51
180.0
  0
ARC
  5
98
330
1F
100
AcDbEntity
  8
0
  6
Continuous
 62
     7
370
    25
100
AcDbCircle
 10
0.0
 20
0.0
 30
0.0
 40
6.000000000000007
100
AcDbArc
 50
236.4426902381
 51
303.5573097619
  0
LINE
  5
A5
330
1B
100
AcDbEntity
 67
     1
  8
0
  6
Continuous
 62
     7
370
    25
100
AcDbLine
 10
92.0
 20
6.0
 30
0.0
 11
-92.0
 21
6.0
 31
0.0
  0
LINE
  5
A6
330
1B
100
AcDbEntity
 67
     1
  8
0
  6
Continuous
 62
     7
370
    25
100
AcDbLine
 10
-92.0
 20
-6.0
 30
0.0
 11
92.0
 21
-6.0
 31
0.0
  0
LINE
  5
A7
330
1B
100
AcDbEntity
 67
     1
  8
0
  6
Continuous
 62
     7
370
    25
100
AcDbLine
 10
-92.0
 20
6.0
 30
0.0
 11
-93.0
 21
5.0
 31
0.0
  0
LINE
  5
A8
330
1B
100
AcDbEntity
 67
     1
  8
0
  6
Continuous
 62
     7
370
    25
100
AcDbLine
 10
-93.0
 20
-5.0
 30
0.0
 11
-92.0
 21
-6.0
 31
0.0
  0
LINE
  5
A9
330
1B
100
AcDbEntity
 67
     1
  8
0
  6
Continuous
 62
     7
370
    25
100
AcDbLine
 10
92.0
 20
-6.0
 30
0.0
 11
93.0
 21
-5.0
 31
0.0
  0
LINE
  5
AA
330
1B
100
AcDbEntity
 67
     1
  8
0
  6
Continuous
 62
     7
370
    25
100
AcDbLine
 10
93.0
 20
5.0
 30
0.0
 11
92.0
 21
6.0
 31
0.0
  0
LINE
  5
AB
330
1B
100
AcDbEntity
 67
     1
  8
0
  6
Continuous
 62
     7
370
    25
100
AcDbLine
 10
92.0
 20
-6.0
 30
0.0
 11
92.0
 21
6.0
 31
0.0
  0
LINE
  5
AC
330
1B
100
AcDbEntity
 67
     1
  8
0
  6
Continuous
 62
     7
370
    25
100
AcDbLine
 10
-92.0
 20
-6.0
 30
0.0
 11
-92.0
 21
6.0
 31
0.0
  0
LINE
  5
AD
330
1B
100
AcDbEntity
 67
     1
  8
0
  6
Continuous
 62
     7
370
    25
100
AcDbLine
 10
-93.0
 20
-5.0
 30
0.0
 11
-93.0
 21
5.0
 31
0.0
  0
LINE
  5
AE
330
1B
100
AcDbEntity
 67
     1
  8
0
  6
Continuous
 62
     7
370
    25
100
AcDbLine
 10
93.0
 20
5.0
 30
0.0
 11
93.0
 21
-5.0
 31
0.0
  0
VIEWPORT
  5
1CA
330
1B
100
AcDbEntity
 67
     1
  8
0
100
AcDbViewport
 10
0.0
 20
0.0
 30
0.0
 40
205.6
 41
156.0
 68
     1
 69
     1
 12
0.0
 22
-9.0
 13
0.0
 23
0.0
 14
10.0
 24
10.0
 15
10.0
 25
10.0
 16
0.0
 26
0.0
 36
1.0
 17
0.0
 27
0.0
 37
0.0
 42
50.0
 43
0.0
 44
0.0
 45
30.6
 50
0.0
 51
0.0
 72
   100
 90
   557152
  1

281
     0
 71
     1
 74
     0
110
0.0
120
0.0
130
0.0
111
1.0
121
0.0
131
0.0
112
0.0
122
1.0
132
0.0
 79
     0
146
0.0
  0
ENDSEC
  0
SECTION
  2
OBJECTS
  0
DICTIONARY
  5
C
330
0
100
AcDbDictionary
281
     1
  3
ACAD_GROUP
350
D
  3
ACAD_LAYOUT
350
1A
  3
ACAD_MLINESTYLE
350
17
  3
ACAD_PLOTSETTINGS
350
19
  3
ACAD_PLOTSTYLENAME
350
E
  3
ACAD_SCALELIST
350
47
  0
DICTIONARY
  5
D
102
{ACAD_REACTORS
330
C
102
}
330
C
100
AcDbDictionary
281
     1
  0
DICTIONARY
  5
1A
102
{ACAD_REACTORS
330
C
102
}
330
C
100
AcDbDictionary
281
     1
  3
_Back
350
F3
  3
_Front
350
26
  3
_Isometric
350
136
  3
_Top
350
1E
  3
Model
350
22
  0
DICTIONARY
  5
17
102
{ACAD_REACTORS
330
C
102
}
330
C
100
AcDbDictionary
281
     1
  3
Standard
350
18
  0
DICTIONARY
  5
19
102
{ACAD_REACTORS
330
C
102
}
330
C
100
AcDbDictionary
281
     1
  0
ACDBDICTIONARYWDFLT
  5
E
102
{ACAD_REACTORS
330
C
102
}
330
C
100
AcDbDictionary
281
     1
  3
Normal
350
F
100
AcDbDictionaryWithDefault
340
F
  0
DICTIONARY
  5
47
102
{ACAD_REACTORS
330
C
102
}
330
C
100
AcDbDictionary
281
     1
  3
A0
350
48
  3
A1
350
49
  3
A2
350
4A
  3
A3
350
4B
  3
A4
350
4C
  3
A5
350
4D
  3
A6
350
4E
  3
A7
350
4F
  3
A8
350
50
  3
A9
350
51
  3
B0
350
52
  3
B1
350
53
  3
B2
350
54
  3
B3
350
55
  3
B4
350
56
  3
B5
350
57
  3
B6
350
58
  3
B7
350
59
  3
B8
350
5A
  3
B9
350
5B
  3
C0
350
5C
  3
C1
350
5D
  3
C2
350
5E
  3
C3
350
5F
  3
C4
350
60
  3
C5
350
61
  3
C6
350
62
  3
C7
350
63
  3
C8
350
64
  3
C9
350
65
  3
D0
350
66
  3
D1
350
67
  3
D2
350
68
  0
LAYOUT
  5
F3
102
{ACAD_REACTORS
330
1A
102
}
330
1A
100
AcDbPlotSettings
  1

  2
none_device
  4
ISO_A4_(210.00_x_297.00_MM)
  6

 40
7.5
 41
20.0
 42
7.5
 43
20.0
 44
210.0
 45
297.0
 46
0.0
 47
0.0
 48
0.0
 49
0.0
140
0.0
141
0.0
142
1.0
143
0.7237354086
 70
   688
 72
     1
 73
     1
 74
     1
  7

 75
     0
147
1.3817204301
148
93.0
149
6.0
100
AcDbLayout
  1
_Back
 70
     1
 71
     3
 10
0.0
 20
0.0
 11
0.0
 21
0.0
 12
0.0
 22
0.0
 32
0.0
 14
0.0
 24
0.0
 34
0.0
 15
0.0
 25
0.0
 35
0.0
146
0.0
 13
0.0
 23
0.0
 33
0.0
 16
1.0
 26
0.0
 36
0.0
 17
0.0
 27
1.0
 37
0.0
 76
     0
330
F2
331
1CE
  0
LAYOUT
  5
26
102
{ACAD_REACTORS
330
1A
102
}
330
1A
100
AcDbPlotSettings
  1

  2
none_device
  4
ISO_A4_(210.00_x_297.00_MM)
  6

 40
7.5
 41
20.0
 42
7.5
 43
20.0
 44
210.0
 45
297.0
 46
0.0
 47
0.0
 48
0.0
 49
0.0
140
0.0
141
0.0
142
1.0
143
0.7237354086
 70
   688
 72
     1
 73
     1
 74
     1
  7

 75
     0
147
1.3817204301
148
93.0
149
6.0
100
AcDbLayout
  1
_Front
 70
     1
 71
     2
 10
0.0
 20
0.0
 11
0.0
 21
0.0
 12
0.0
 22
0.0
 32
0.0
 14
0.0
 24
0.0
 34
0.0
 15
0.0
 25
0.0
 35
0.0
146
0.0
 13
0.0
 23
0.0
 33
0.0
 16
1.0
 26
0.0
 36
0.0
 17
0.0
 27
1.0
 37
0.0
 76
     0
330
23
331
1CC
  0
LAYOUT
  5
136
102
{ACAD_REACTORS
330
1A
102
}
330
1A
100
AcDbPlotSettings
  1

  2
none_device
  4
ISO_A4_(210.00_x_297.00_MM)
  6

 40
7.5
 41
20.0
 42
7.5
 43
20.0
 44
210.0
 45
297.0
 46
0.0
 47
0.0
 48
0.0
 49
0.0
140
0.0
141
0.0
142
1.0
143
0.7237354086
 70
   688
 72
     1
 73
     1
 74
     1
  7

 75
     0
147
1.3817204301
148
93.0
149
6.0
100
AcDbLayout
  1
_Isometric
 70
     1
 71
     4
 10
0.0
 20
0.0
 11
0.0
 21
0.0
 12
0.0
 22
0.0
 32
0.0
 14
0.0
 24
0.0
 34
0.0
 15
0.0
 25
0.0
 35
0.0
146
0.0
 13
0.0
 23
0.0
 33
0.0
 16
1.0
 26
0.0
 36
0.0
 17
0.0
 27
1.0
 37
0.0
 76
     0
330
135
331
1D0
  0
LAYOUT
  5
1E
102
{ACAD_REACTORS
330
1A
102
}
330
1A
100
AcDbPlotSettings
  1

  2
none_device
  4
ISO_A4_(210.00_x_297.00_MM)
  6

 40
7.5
 41
20.0
 42
7.5
 43
20.0
 44
210.0
 45
297.0
 46
0.0
 47
0.0
 48
0.0
 49
0.0
140
0.0
141
0.0
142
1.0
143
0.7237354086
 70
   688
 72
     1
 73
     1
 74
     1
  7

 75
     0
147
1.3817204301
148
93.0
149
6.0
100
AcDbLayout
  1
_Top
 70
     1
 71
     1
 10
-107.4747081712
 20
-11.4280155642
 11
107.4747081712
 21
140.5564202335
 12
0.0
 22
0.0
 32
0.0
 14
-93.0
 24
-6.0
 34
0.0
 15
93.0
 25
6.0
 35
0.0
146
0.0
 13
0.0
 23
0.0
 33
0.0
 16
1.0
 26
0.0
 36
0.0
 17
0.0
 27
1.0
 37
0.0
 76
     0
330
1B
331
1CA
  0
LAYOUT
  5
22
102
{ACAD_REACTORS
330
1A
102
}
330
1A
100
AcDbPlotSettings
  1

  2
none_device
  4
ANSI_A_(11.00_x_8.50_Inches)
  6

 40
6.35
 41
19.05
 42
6.35000508
 43
19.05000254
 44
279.4
 45
215.9
 46
133.34999746
 47
153.02229873
 48
0.0
 49
0.0
140
0.0
141
0.0
142
0.2805
143
1.0
 70
  1696
 72
     0
 73
     0
 74
     0
  7

 75
     0
147
0.0179189148
148
-1300.4909072572
149
0.0
100
AcDbLayout
  1
Model
 70
     1
 71
     0
 10
0.0
 20
0.0
 11
420.0
 21
297.0
 12
0.0
 22
0.0
 32
0.0
 14
-6.0
 24
-24.0
 34
0.0
 15
6.0
 25
6.0
 35
0.0
146
0.0
 13
0.0
 23
0.0
 33
0.0
 16
1.0
 26
0.0
 36
0.0
 17
0.0
 27
1.0
 37
0.0
 76
     0
330
1F
331
29
  0
MLINESTYLE
  5
18
102
{ACAD_REACTORS
330
17
102
}
330
17
100
AcDbMlineStyle
  2
Standard
 70
     0
  3

 62
   256
 51
90.0
 52
90.0
 71
     2
 49
0.5
 62
   256
  6
BYLAYER
 49
-0.5
 62
   256
  6
BYLAYER
  0
ACDBPLACEHOLDER
  5
F
102
{ACAD_REACTORS
330
E
102
}
330
E
  0
SCALE
  5
48
102
{ACAD_REACTORS
330
47
102
}
330
47
100
AcDbScale
 70
     0
300
1:1
140
1.0
141
1.0
290
     1
  0
SCALE
  5
49
102
{ACAD_REACTORS
330
47
102
}
330
47
100
AcDbScale
 70
     0
300
1:2
140
1.0
141
2.0
290
     0
  0
SCALE
  5
4A
102
{ACAD_REACTORS
330
47
102
}
330
47
100
AcDbScale
 70
     0
300
1:4
140
1.0
141
4.0
290
     0
  0
SCALE
  5
4B
102
{ACAD_REACTORS
330
47
102
}
330
47
100
AcDbScale
 70
     0
300
1:5
140
1.0
141
5.0
290
     0
  0
SCALE
  5
4C
102
{ACAD_REACTORS
330
47
102
}
330
47
100
AcDbScale
 70
     0
300
1:8
140
1.0
141
8.0
290
     0
  0
SCALE
  5
4D
102
{ACAD_REACTORS
330
47
102
}
330
47
100
AcDbScale
 70
     0
300
1:10
140
1.0
141
10.0
290
     0
  0
SCALE
  5
4E
102
{ACAD_REACTORS
330
47
102
}
330
47
100
AcDbScale
 70
     0
300
1:16
140
1.0
141
16.0
290
     0
  0
SCALE
  5
4F
102
{ACAD_REACTORS
330
47
102
}
330
47
100
AcDbScale
 70
     0
300
1:20
140
1.0
141
20.0
290
     0
  0
SCALE
  5
50
102
{ACAD_REACTORS
330
47
102
}
330
47
100
AcDbScale
 70
     0
300
1:30
140
1.0
141
30.0
290
     0
  0
SCALE
  5
51
102
{ACAD_REACTORS
330
47
102
}
330
47
100
AcDbScale
 70
     0
300
1:40
140
1.0
141
40.0
290
     0
  0
SCALE
  5
52
102
{ACAD_REACTORS
330
47
102
}
330
47
100
AcDbScale
 70
     0
300
1:50
140
1.0
141
50.0
290
     0
  0
SCALE
  5
53
102
{ACAD_REACTORS
330
47
102
}
330
47
100
AcDbScale
 70
     0
300
1:100
140
1.0
141
100.0
290
     0
  0
SCALE
  5
54
102
{ACAD_REACTORS
330
47
102
}
330
47
100
AcDbScale
 70
     0
300
2:1
140
2.0
141
1.0
290
     0
  0
SCALE
  5
55
102
{ACAD_REACTORS
330
47
102
}
330
47
100
AcDbScale
 70
     0
300
4:1
140
4.0
141
1.0
290
     0
  0
SCALE
  5
56
102
{ACAD_REACTORS
330
47
102
}
330
47
100
AcDbScale
 70
     0
300
8:1
140
8.0
141
1.0
290
     0
  0
SCALE
  5
57
102
{ACAD_REACTORS
330
47
102
}
330
47
100
AcDbScale
 70
     0
300
10:1
140
10.0
141
1.0
290
     0
  0
SCALE
  5
58
102
{ACAD_REACTORS
330
47
102
}
330
47
100
AcDbScale
 70
     0
300
100:1
140
100.0
141
1.0
290
     0
  0
SCALE
  5
59
102
{ACAD_REACTORS
330
47
102
}
330
47
100
AcDbScale
 70
     0
300
1/128" = 1'-0"
140
0.0078125
141
12.0
290
     0
  0
SCALE
  5
5A
102
{ACAD_REACTORS
330
47
102
}
330
47
100
AcDbScale
 70
     0
300
1/64" = 1'-0"
140
0.015625
141
12.0
290
     0
  0
SCALE
  5
5B
102
{ACAD_REACTORS
330
47
102
}
330
47
100
AcDbScale
 70
     0
300
1/32" = 1'-0"
140
0.03125
141
12.0
290
     0
  0
SCALE
  5
5C
102
{ACAD_REACTORS
330
47
102
}
330
47
100
AcDbScale
 70
     0
300
1/16" = 1'-0"
140
0.0625
141
12.0
290
     0
  0
SCALE
  5
5D
102
{ACAD_REACTORS
330
47
102
}
330
47
100
AcDbScale
 70
     0
300
3/32" = 1'-0"
140
0.09375
141
12.0
290
     0
  0
SCALE
  5
5E
102
{ACAD_REACTORS
330
47
102
}
330
47
100
AcDbScale
 70
     0
300
1/8" = 1'-0"
140
0.125
141
12.0
290
     0
  0
SCALE
  5
5F
102
{ACAD_REACTORS
330
47
102
}
330
47
100
AcDbScale
 70
     0
300
3/16" = 1'-0"
140
0.1875
141
12.0
290
     0
  0
SCALE
  5
60
102
{ACAD_REACTORS
330
47
102
}
330
47
100
AcDbScale
 70
     0
300
1/4" = 1'-0"
140
0.25
141
12.0
290
     0
  0
SCALE
  5
61
102
{ACAD_REACTORS
330
47
102
}
330
47
100
AcDbScale
 70
     0
300
3/8" = 1'-0"
140
0.375
141
12.0
290
     0
  0
SCALE
  5
62
102
{ACAD_REACTORS
330
47
102
}
330
47
100
AcDbScale
 70
     0
300
1/2" = 1'-0"
140
0.5
141
12.0
290
     0
  0
SCALE
  5
63
102
{ACAD_REACTORS
330
47
102
}
330
47
100
AcDbScale
 70
     0
300
3/4" = 1'-0"
140
0.75
141
12.0
290
     0
  0
SCALE
  5
64
102
{ACAD_REACTORS
330
47
102
}
330
47
100
AcDbScale
 70
     0
300
1" = 1'-0"
140
1.0
141
12.0
290
     0
  0
SCALE
  5
65
102
{ACAD_REACTORS
330
47
102
}
330
47
100
AcDbScale
 70
     0
300
1-1/2" = 1'-0"
140
1.5
141
12.0
290
     0
  0
SCALE
  5
66
102
{ACAD_REACTORS
330
47
102
}
330
47
100
AcDbScale
 70
     0
300
3" = 1'-0"
140
3.0
141
12.0
290
     0
  0
SCALE
  5
67
102
{ACAD_REACTORS
330
47
102
}
330
47
100
AcDbScale
 70
     0
300
6" = 1'-0"
140
6.0
141
12.0
290
     0
  0
SCALE
  5
68
102
{ACAD_REACTORS
330
47
102
}
330
47
100
AcDbScale
 70
     0
300
1'-0" = 1'-0"
140
12.0
141
12.0
290
     0
  0
ENDSEC
  0
EOF
