  0
SECTION
  2
HEADER
  9
$ACADVER
  1
AC1015
  9
$ACADMAINTVER
 70
     6
  9
$DWGCODEPAGE
  3
ANSI_1252
  9
$INSBASE
 10
0.0
 20
0.0
 30
0.0
  9
$EXTMIN
 10
-0.3543307087
 20
0.0
 30
0.0
  9
$EXTMAX
 10
46.8897637795
 20
27.5590551181
 30
0.0
  9
$LIMMIN
 10
0.0
 20
0.0
  9
$LIMMAX
 10
12.0
 20
9.0
  9
$ORTHOMODE
 70
     0
  9
$REGENMODE
 70
     1
  9
$FILLMODE
 70
     1
  9
$QTEXTMODE
 70
     0
  9
$MIRRTEXT
 70
     1
  9
$LTSCALE
 40
1.0
  9
$ATTMODE
 70
     1
  9
$TEXTSIZE
 40
0.1377952756
  9
$TRACEWID
 40
0.05
  9
$TEXTSTYLE
  7
Standard
  9
$CLAYER
  8
0
  9
$CELTYPE
  6
ByLayer
  9
$CECOLOR
 62
   256
  9
$CELTSCALE
 40
1.0
  9
$DISPSILH
 70
     0
  9
$DIMSCALE
 40
1.0
  9
$DIMASZ
 40
0.13
  9
$DIMEXO
 40
0.0393700787
  9
$DIMDLI
 40
0.38
  9
$DIMRND
 40
0.0
  9
$DIMDLE
 40
0.0
  9
$DIMEXE
 40
0.0393700787
  9
$DIMTP
 40
0.0
  9
$DIMTM
 40
0.0
  9
$DIMTXT
 40
0.1377952756
  9
$DIMCEN
 40
0.09
  9
$DIMTSZ
 40
0.0
  9
$DIMTOL
 70
     0
  9
$DIMLIM
 70
     0
  9
$DIMTIH
 70
     1
  9
$DIMTOH
 70
     1
  9
$DIMSE1
 70
     0
  9
$DIMSE2
 70
     0
  9
$DIMTAD
 70
     1
  9
$DIMZIN
 70
     1
  9
$DIMBLK
  1

  9
$DIMASO
 70
     1
  9
$DIMSHO
 70
     1
  9
$DIMPOST
  1

  9
$DIMAPOST
  1

  9
$DIMALT
 70
     0
  9
$DIMALTD
 70
     2
  9
$DIMALTF
 40
25.4
  9
$DIMLFAC
 40
1.0
  9
$DIMTOFL
 70
     0
  9
$DIMTVP
 40
0.0
  9
$DIMTIX
 70
     0
  9
$DIMSOXD
 70
     0
  9
$DIMSAH
 70
     0
  9
$DIMBLK1
  1

  9
$DIMBLK2
  1

  9
$DIMSTYLE
  2
Standard
  9
$DIMCLRD
 70
     0
  9
$DIMCLRE
 70
     0
  9
$DIMCLRT
 70
     0
  9
$DIMTFAC
 40
1.0
  9
$DIMGAP
 40
0.06
  9
$DIMJUST
 70
     0
  9
$DIMSD1
 70
     0
  9
$DIMSD2
 70
     0
  9
$DIMTOLJ
 70
     1
  9
$DIMTZIN
 70
     1
  9
$DIMALTZ
 70
     0
  9
$DIMALTTZ
 70
     0
  9
$DIMUPT
 70
     0
  9
$DIMDEC
 70
     2
  9
$DIMTDEC
 70
     2
  9
$DIMALTU
 70
     2
  9
$DIMALTTD
 70
     2
  9
$DIMTXSTY
  7
Standard
  9
$DIMAUNIT
 70
     0
  9
$DIMADEC
 70
     2
  9
$DIMALTRND
 40
0.0
  9
$DIMAZIN
 70
     0
  9
$DIMDSEP
 70
    46
  9
$DIMATFIT
 70
     3
  9
$DIMFRAC
 70
     0
  9
$DIMLDRBLK
  1

  9
$DIMLUNIT
 70
     2
  9
$DIMLWD
 70
    -2
  9
$DIMLWE
 70
    -2
  9
$DIMTMOVE
 70
     0
  9
$LUNITS
 70
     2
  9
$LUPREC
 70
     2
  9
$SKETCHINC
 40
0.1
  9
$FILLETRAD
 40
0.5
  9
$AUNITS
 70
     0
  9
$AUPREC
 70
     2
  9
$MENU
  1
.
  9
$ELEVATION
 40
0.0
  9
$PELEVATION
 40
0.0
  9
$THICKNESS
 40
0.0
  9
$LIMCHECK
 70
     0
  9
$CHAMFERA
 40
0.0
  9
$CHAMFERB
 40
0.0
  9
$CHAMFERC
 40
0.0
  9
$CHAMFERD
 40
0.0
  9
$SKPOLY
 70
     0
  9
$TDCREATE
 40
2460060.538356204
  9
$TDUCREATE
 40
2460060.496689537
  9
$TDUPDATE
 40
2460060.538400926
  9
$TDUUPDATE
 40
2460060.496734259
  9
$TDINDWG
 40
0.0000000116
  9
$TDUSRTIMER
 40
0.0000000116
  9
$USRTIMER
 70
     1
  9
$ANGBASE
 50
0.0
  9
$ANGDIR
 70
     0
  9
$PDMODE
 70
     0
  9
$PDSIZE
 40
-1.0
  9
$PLINEWID
 40
0.0
  9
$SPLFRAME
 70
     0
  9
$SPLINETYPE
 70
     6
  9
$SPLINESEGS
 70
     8
  9
$HANDSEED
  5
6C3
  9
$SURFTAB1
 70
     6
  9
$SURFTAB2
 70
     6
  9
$SURFTYPE
 70
     6
  9
$SURFU
 70
     6
  9
$SURFV
 70
     6
  9
$UCSBASE
  2

  9
$UCSNAME
  2

  9
$UCSORG
 10
0.0
 20
0.0
 30
0.0
  9
$UCSXDIR
 10
1.0
 20
0.0
 30
0.0
  9
$UCSYDIR
 10
0.0
 20
1.0
 30
0.0
  9
$UCSORTHOREF
  2

  9
$UCSORTHOVIEW
 70
     0
  9
$UCSORGTOP
 10
0.0
 20
0.0
 30
0.0
  9
$UCSORGBOTTOM
 10
0.0
 20
0.0
 30
0.0
  9
$UCSORGLEFT
 10
0.0
 20
0.0
 30
0.0
  9
$UCSORGRIGHT
 10
0.0
 20
0.0
 30
0.0
  9
$UCSORGFRONT
 10
0.0
 20
0.0
 30
0.0
  9
$UCSORGBACK
 10
0.0
 20
0.0
 30
0.0
  9
$PUCSBASE
  2

  9
$PUCSNAME
  2

  9
$PUCSORG
 10
0.0
 20
0.0
 30
0.0
  9
$PUCSXDIR
 10
1.0
 20
0.0
 30
0.0
  9
$PUCSYDIR
 10
0.0
 20
1.0
 30
0.0
  9
$PUCSORTHOREF
  2

  9
$PUCSORTHOVIEW
 70
     0
  9
$PUCSORGTOP
 10
0.0
 20
0.0
 30
0.0
  9
$PUCSORGBOTTOM
 10
0.0
 20
0.0
 30
0.0
  9
$PUCSORGLEFT
 10
0.0
 20
0.0
 30
0.0
  9
$PUCSORGRIGHT
 10
0.0
 20
0.0
 30
0.0
  9
$PUCSORGFRONT
 10
0.0
 20
0.0
 30
0.0
  9
$PUCSORGBACK
 10
0.0
 20
0.0
 30
0.0
  9
$USERI1
 70
     0
  9
$USERI2
 70
     0
  9
$USERI3
 70
     0
  9
$USERI4
 70
     0
  9
$USERI5
 70
     0
  9
$USERR1
 40
0.0
  9
$USERR2
 40
0.0
  9
$USERR3
 40
0.0
  9
$USERR4
 40
0.0
  9
$USERR5
 40
0.0
  9
$WORLDVIEW
 70
     1
  9
$SHADEDGE
 70
     3
  9
$SHADEDIF
 70
    70
  9
$TILEMODE
 70
     1
  9
$MAXACTVP
 70
    64
  9
$PINSBASE
 10
0.0
 20
0.0
 30
0.0
  9
$PLIMCHECK
 70
     0
  9
$PEXTMIN
 10
-46.8897637795
 20
0.0
 30
0.0
  9
$PEXTMAX
 10
0.3543307087
 20
27.5590551181
 30
0.0
  9
$PLIMMIN
 10
-48.0146249857
 20
-1.1248594348
  9
$PLIMMAX
 10
1.4791901434
 20
37.1203613468
  9
$UNITMODE
 70
     0
  9
$VISRETAIN
 70
     1
  9
$PLINEGEN
 70
     0
  9
$PSLTSCALE
 70
     1
  9
$TREEDEPTH
 70
  3020
  9
$CMLSTYLE
  2
Standard
  9
$CMLJUST
 70
     0
  9
$CMLSCALE
 40
1.0
  9
$PROXYGRAPHICS
 70
     1
  9
$MEASUREMENT
 70
     0
  9
$CELWEIGHT
370
    -1
  9
$ENDCAPS
280
     0
  9
$JOINSTYLE
280
     0
  9
$LWDISPLAY
290
     1
  9
$INSUNITS
 70
     1
  9
$HYPERLINKBASE
  1

  9
$STYLESHEET
  1

  9
$XEDIT
290
     1
  9
$CEPSNTYPE
380
     0
  9
$PSTYLEMODE
290
     1
  9
$FINGERPRINTGUID
  2
{6b0cedb4-499d-4cd7-bbf7-9286862e7cbf}
  9
$VERSIONGUID
  2
{FAEB1C32-E019-11D5-929B-00C0DF256EC4}
  9
$EXTNAMES
290
     1
  9
$PSVPSCALE
 40
0.0
  9
$OLESTARTUP
290
     0
  0
ENDSEC
  0
SECTION
  2
CLASSES
  0
CLASS
  1
ACDBDICTIONARYWDFLT
  2
AcDbDictionaryWithDefault
  3
ObjectDBX Classes
 90
        0
280
     0
281
     0
  0
CLASS
  1
VISUALSTYLE
  2
AcDbVisualStyle
  3
ObjectDBX Classes
 90
     4095
280
     0
281
     0
  0
CLASS
  1
MATERIAL
  2
AcDbMaterial
  3
ObjectDBX Classes
 90
     1153
280
     0
281
     0
  0
CLASS
  1
SCALE
  2
AcDbScale
  3
ObjectDBX Classes
 90
     1153
280
     0
281
     0
  0
CLASS
  1
TABLESTYLE
  2
AcDbTableStyle
  3
ObjectDBX Classes
 90
     4095
280
     0
281
     0
  0
CLASS
  1
MLEADERSTYLE
  2
AcDbMLeaderStyle
  3
ACDB_MLEADERSTYLE_CLASS
 90
     4095
280
     0
281
     0
  0
CLASS
  1
SUN
  2
AcDbSun
  3
SCENEOE
 90
     1153
280
     0
281
     0
  0
CLASS
  1
ACDBPLACEHOLDER
  2
AcDbPlaceHolder
  3
ObjectDBX Classes
 90
        0
280
     0
281
     0
  0
CLASS
  1
LAYOUT
  2
AcDbLayout
  3
ObjectDBX Classes
 90
        0
280
     0
281
     0
  0
ENDSEC
  0
SECTION
  2
TABLES
  0
TABLE
  2
VPORT
  5
8
330
0
100
AcDbSymbolTable
 70
     1
  0
VPORT
  5
29
330
8
100
AcDbSymbolTableRecord
100
AcDbViewportTableRecord
  2
*Active
 70
     0
 10
0.0
 20
0.0
 11
1.0
 21
1.0
 12
23.2677165354
 22
13.7795275591
 13
0.0
 23
0.0
 14
0.5
 24
0.5
 15
0.5
 25
0.5
 16
0.0
 26
0.0
 36
1.0
 17
0.0
 27
0.0
 37
0.0
 40
28.1102362205
 41
1.7142857143
 42
50.0
 43
0.0
 44
0.0
 50
0.0
 51
0.0
 71
     0
 72
   100
 73
     1
 74
     3
 75
     0
 76
     0
 77
     0
 78
     0
281
     0
 65
     1
110
0.0
120
0.0
130
0.0
111
1.0
121
0.0
131
0.0
112
0.0
122
1.0
132
0.0
 79
     0
146
0.0
  0
ENDTAB
  0
TABLE
  2
LTYPE
  5
5
330
0
100
AcDbSymbolTable
 70
     6
  0
LTYPE
  5
14
330
5
100
AcDbSymbolTableRecord
100
AcDbLinetypeTableRecord
  2
ByBlock
 70
     0
  3

 72
    65
 73
     0
 40
0.0
  0
LTYPE
  5
15
330
5
100
AcDbSymbolTableRecord
100
AcDbLinetypeTableRecord
  2
ByLayer
 70
     0
  3

 72
    65
 73
     0
 40
0.0
  0
LTYPE
  5
16
330
5
100
AcDbSymbolTableRecord
100
AcDbLinetypeTableRecord
  2
Continuous
 70
     0
  3
Solid line
 72
    65
 73
     0
 40
0.0
  0
LTYPE
  5
6E
330
5
100
AcDbSymbolTableRecord
100
AcDbLinetypeTableRecord
  2
HIDDEN
 70
     0
  3
Hidden __ __ __ __ __ __ __ __ __ __ __ __ __ __
 72
    65
 73
     2
 40
0.075
 49
0.05
 74
     0
 49
-0.025
 74
     0
  0
LTYPE
  5
6F
330
5
100
AcDbSymbolTableRecord
100
AcDbLinetypeTableRecord
  2
PHANTOM
 70
     0
  3
Phantom ______  __  __  ______  __  __  ______
 72
    65
 73
     6
 40
0.5
 49
0.25
 74
     0
 49
-0.05
 74
     0
 49
0.05
 74
     0
 49
-0.05
 74
     0
 49
0.05
 74
     0
 49
-0.05
 74
     0
  0
LTYPE
  5
70
330
5
100
AcDbSymbolTableRecord
100
AcDbLinetypeTableRecord
  2
CENTER
 70
     0
  3
Center ____ _ ____ _ ____ _ ____ _ ____ _ ____
 72
    65
 73
     4
 40
0.4
 49
0.25
 74
     0
 49
-0.05
 74
     0
 49
0.05
 74
     0
 49
-0.05
 74
     0
  0
LTYPE
  5
71
330
5
100
AcDbSymbolTableRecord
100
AcDbLinetypeTableRecord
  2
CENTERX2
 70
     0
  3
Center (2x) ________  __  ________  __  _____
 72
    65
 73
     4
 40
0.8
 49
0.5
 74
     0
 49
-0.1
 74
     0
 49
0.1
 74
     0
 49
-0.1
 74
     0
  0
LTYPE
  5
72
330
5
100
AcDbSymbolTableRecord
100
AcDbLinetypeTableRecord
  2
DOT2
 70
     0
  3
Dot (.5x) ........................................
 72
    65
 73
     2
 40
0.025
 49
0.0
 74
     0
 49
-0.025
 74
     0
  0
ENDTAB
  0
TABLE
  2
LAYER
  5
2
330
0
100
AcDbSymbolTable
 70
     1
  0
LAYER
  5
10
330
2
100
AcDbSymbolTableRecord
100
AcDbLayerTableRecord
  2
0
 70
     0
 62
     7
  6
Continuous
370
    -3
390
F
  0
ENDTAB
  0
TABLE
  2
STYLE
  5
3
330
0
100
AcDbSymbolTable
 70
     1
  0
STYLE
  5
11
330
3
100
AcDbSymbolTableRecord
100
AcDbTextStyleTableRecord
  2
Standard
 70
     0
 40
0.0
 41
1.0
 50
0.0
 71
     0
 42
0.1377952756
  3
txt
  4

  0
ENDTAB
  0
TABLE
  2
VIEW
  5
6
330
0
100
AcDbSymbolTable
 70
     0
  0
ENDTAB
  0
TABLE
  2
UCS
  5
7
330
0
100
AcDbSymbolTable
 70
     0
  0
ENDTAB
  0
TABLE
  2
APPID
  5
9
330
0
100
AcDbSymbolTable
 70
     1
  0
APPID
  5
12
330
9
100
AcDbSymbolTableRecord
100
AcDbRegAppTableRecord
  2
ACAD
 70
     0
  0
ENDTAB
  0
TABLE
  2
DIMSTYLE
  5
A
330
0
100
AcDbSymbolTable
 70
     1
100
AcDbDimStyleTable
  0
DIMSTYLE
105
27
330
A
100
AcDbSymbolTableRecord
100
AcDbDimStyleTableRecord
  2
Standard
 70
     0
178
     0
340
11
  0
ENDTAB
  0
TABLE
  2
BLOCK_RECORD
  5
1
330
0
100
AcDbSymbolTable
 70
     4
  0
BLOCK_RECORD
  5
1F
330
1
100
AcDbSymbolTableRecord
100
AcDbBlockTableRecord
  2
*Model_Space
340
22
  0
BLOCK_RECORD
  5
1B
330
1
100
AcDbSymbolTableRecord
100
AcDbBlockTableRecord
  2
*Paper_Space
340
1E
  0
BLOCK_RECORD
  5
23
330
1
100
AcDbSymbolTableRecord
100
AcDbBlockTableRecord
  2
*Paper_Space0
340
26
  0
BLOCK_RECORD
  5
34A
330
1
100
AcDbSymbolTableRecord
100
AcDbBlockTableRecord
  2
*Paper_Space1
340
34B
  0
BLOCK_RECORD
  5
3D1
330
1
100
AcDbSymbolTableRecord
100
AcDbBlockTableRecord
  2
*Paper_Space2
340
3D2
  0
BLOCK_RECORD
  5
41B
330
1
100
AcDbSymbolTableRecord
100
AcDbBlockTableRecord
  2
*Paper_Space3
340
41C
  0
ENDTAB
  0
ENDSEC
  0
SECTION
  2
BLOCKS
  0
BLOCK
  5
20
330
1F
100
AcDbEntity
  8
0
100
AcDbBlockBegin
  2
*Model_Space
 70
     0
 10
0.0
 20
0.0
 30
0.0
  3
*Model_Space
  1

  0
ENDBLK
  5
21
330
1F
100
AcDbEntity
  8
0
100
AcDbBlockEnd
  0
BLOCK
  5
1C
330
1B
100
AcDbEntity
 67
     1
  8
0
100
AcDbBlockBegin
  2
*Paper_Space
 70
     0
 10
0.0
 20
0.0
 30
0.0
  3
*Paper_Space
  1

  0
ENDBLK
  5
1D
330
1B
100
AcDbEntity
 67
     1
  8
0
100
AcDbBlockEnd
  0
BLOCK
  5
24
330
23
100
AcDbEntity
  8
0
100
AcDbBlockBegin
  2
*Paper_Space0
 70
     0
 10
0.0
 20
0.0
 30
0.0
  3
*Paper_Space0
  1

  0
SPLINE
  5
30E
330
23
100
AcDbEntity
  8
0
  6
Continuous
 62
     7
370
    25
100
AcDbSpline
210
0.0
220
0.0
230
1.0
 70
     8
 71
     3
 72
     8
 73
     4
 74
     0
 42
0.000000001
 43
0.00000001
 40
0.0
 40
0.0
 40
0.0
 40
0.0
 40
1.0
 40
1.0
 40
1.0
 40
1.0
 10
9.7633383888937
 20
16.59448818897638
 30
0.0
 10
9.78951431818504
 20
16.5749778032126
 30
0.0
 10
9.8159110266063
 20
16.55528953151575
 30
0.0
 10
9.84251968503937
 20
16.53543307086614
 30
0.0
  0
SPLINE
  5
315
330
23
100
AcDbEntity
  8
0
  6
Continuous
 62
     7
370
    25
100
AcDbSpline
210
0.0
220
0.0
230
1.0
 70
     8
 71
     3
 72
     8
 73
     4
 74
     0
 42
0.000000001
 43
0.00000001
 40
0.0
 40
0.0
 40
0.0
 40
0.0
 40
1.0
 40
1.0
 40
1.0
 40
1.0
 10
9.7633383888937
 20
16.59448818897638
 30
0.0
 10
9.78951431818504
 20
16.61399857474017
 30
0.0
 10
9.8159110266063
 20
16.63368684643701
 30
0.0
 10
9.84251968503937
 20
16.65354330708662
 30
0.0
  0
SPLINE
  5
321
330
23
100
AcDbEntity
  8
0
  6
Continuous
 62
     7
370
    25
100
AcDbSpline
210
0.0
220
0.0
230
1.0
 70
     8
 71
     3
 72
     8
 73
     4
 74
     0
 42
0.000000001
 43
0.00000001
 40
0.0
 40
0.0
 40
0.0
 40
0.0
 40
1.0
 40
1.0
 40
1.0
 40
1.0
 10
9.7633383888937
 20
25.9251968503937
 30
0.0
 10
9.78951431818504
 20
25.90568646462993
 30
0.0
 10
9.8159110266063
 20
25.88599819293307
 30
0.0
 10
9.84251968503937
 20
25.86614173228347
 30
0.0
  0
SPLINE
  5
324
330
23
100
AcDbEntity
  8
0
  6
Continuous
 62
     7
370
    25
100
AcDbSpline
210
0.0
220
0.0
230
1.0
 70
     8
 71
     3
 72
     8
 73
     4
 74
     0
 42
0.000000001
 43
0.00000001
 40
0.0
 40
0.0
 40
0.0
 40
0.0
 40
1.0
 40
1.0
 40
1.0
 40
1.0
 10
9.7633383888937
 20
25.9251968503937
 30
0.0
 10
9.78951431818504
 20
25.94470723615748
 30
0.0
 10
9.8159110266063
 20
25.96439550785433
 30
0.0
 10
9.84251968503937
 20
25.98425196850394
 30
0.0
  0
LINE
  5
330
330
23
100
AcDbEntity
  8
0
  6
Continuous
 62
     7
370
    25
100
AcDbLine
 10
-0.7874015748
 20
0.0
 30
0.0
 11
0.7874015748
 21
0.0
 31
0.0
  0
LINE
  5
331
330
23
100
AcDbEntity
  8
0
  6
Continuous
 62
     7
370
    25
100
AcDbLine
 10
-0.7874015748
 20
0.0
 30
0.0
 11
-0.7874015748
 21
4.7244094488
 31
0.0
  0
LINE
  5
332
330
23
100
AcDbEntity
  8
0
  6
Continuous
 62
     7
370
    25
100
AcDbLine
 10
0.7874015748
 20
0.0
 30
0.0
 11
0.7874015748
 21
4.7244094488
 31
0.0
  0
LINE
  5
333
330
23
100
AcDbEntity
  8
0
  6
Continuous
 62
     7
370
    25
100
AcDbLine
 10
9.842519685
 20
0.0
 30
0.0
 11
9.842519685
 21
16.5354330709
 31
0.0
  0
LINE
  5
334
330
23
100
AcDbEntity
  8
0
  6
Continuous
 62
     7
370
    25
100
AcDbLine
 10
9.842519685
 20
25.9842519685
 30
0.0
 11
9.842519685
 21
27.5590551181
 31
0.0
  0
LINE
  5
335
330
23
100
AcDbEntity
  8
0
  6
Continuous
 62
     7
370
    25
100
AcDbLine
 10
9.842519685
 20
25.9842519685
 30
0.0
 11
9.7637795276
 21
25.9251968504
 31
0.0
  0
LINE
  5
336
330
23
100
AcDbEntity
  8
0
  6
Continuous
 62
     7
370
    25
100
AcDbLine
 10
9.7637795276
 20
25.9251968504
 30
0.0
 11
9.842519685
 21
25.8661417323
 31
0.0
  0
LINE
  5
337
330
23
100
AcDbEntity
  8
0
  6
Continuous
 62
     7
370
    25
100
AcDbLine
 10
9.842519685
 20
16.6535433071
 30
0.0
 11
9.842519685
 21
25.8661417323
 31
0.0
  0
LINE
  5
338
330
23
100
AcDbEntity
  8
0
  6
Continuous
 62
     7
370
    25
100
AcDbLine
 10
9.842519685
 20
16.6535433071
 30
0.0
 11
9.7637795276
 21
16.594488189
 31
0.0
  0
LINE
  5
339
330
23
100
AcDbEntity
  8
0
  6
Continuous
 62
     7
370
    25
100
AcDbLine
 10
9.7637795276
 20
16.594488189
 30
0.0
 11
9.842519685
 21
16.5354330709
 31
0.0
  0
LINE
  5
33A
330
23
100
AcDbEntity
  8
0
  6
Continuous
 62
     7
370
    25
100
AcDbLine
 10
-9.842519685
 20
16.5354330709
 30
0.0
 11
9.842519685
 21
16.5354330709
 31
0.0
  0
LINE
  5
33B
330
23
100
AcDbEntity
  8
0
  6
Continuous
 62
     7
370
    25
100
AcDbLine
 10
8.2677165354
 20
0.0
 30
0.0
 11
9.842519685
 21
0.0
 31
0.0
  0
LINE
  5
33C
330
23
100
AcDbEntity
  8
0
  6
Continuous
 62
     7
370
    25
100
AcDbLine
 10
-8.2677165354
 20
14.9606299213
 30
0.0
 11
8.2677165354
 21
14.9606299213
 31
0.0
  0
LINE
  5
33D
330
23
100
AcDbEntity
  8
0
  6
Continuous
 62
     7
370
    25
100
AcDbLine
 10
-9.842519685
 20
0.0
 30
0.0
 11
-8.2677165354
 21
0.0
 31
0.0
  0
LINE
  5
33E
330
23
100
AcDbEntity
  8
0
  6
Continuous
 62
     7
370
    25
100
AcDbLine
 10
8.2677165354
 20
14.9606299213
 30
0.0
 11
8.2677165354
 21
0.0
 31
0.0
  0
LINE
  5
33F
330
23
100
AcDbEntity
  8
0
  6
Continuous
 62
     7
370
    25
100
AcDbLine
 10
-8.2677165354
 20
0.0
 30
0.0
 11
-8.2677165354
 21
14.9606299213
 31
0.0
  0
LINE
  5
340
330
23
100
AcDbEntity
  8
0
  6
Continuous
 62
     7
370
    25
100
AcDbLine
 10
-9.842519685
 20
16.594488189
 30
0.0
 11
9.7633383889
 21
16.594488189
 31
0.0
  0
LINE
  5
341
330
23
100
AcDbEntity
  8
0
  6
Continuous
 62
     7
370
    25
100
AcDbLine
 10
-9.842519685
 20
16.6535433071
 30
0.0
 11
9.842519685
 21
16.6535433071
 31
0.0
  0
LINE
  5
342
330
23
100
AcDbEntity
  8
0
  6
Continuous
 62
     7
370
    25
100
AcDbLine
 10
-9.842519685
 20
25.8661417323
 30
0.0
 11
9.842519685
 21
25.8661417323
 31
0.0
  0
LINE
  5
343
330
23
100
AcDbEntity
  8
0
  6
Continuous
 62
     7
370
    25
100
AcDbLine
 10
-9.842519685
 20
25.9842519685
 30
0.0
 11
9.842519685
 21
25.9842519685
 31
0.0
  0
LINE
  5
344
330
23
100
AcDbEntity
  8
0
  6
Continuous
 62
     7
370
    25
100
AcDbLine
 10
9.0590650102
 20
0.0
 30
0.0
 11
9.0590650102
 21
27.5590551181
 31
0.0
  0
LINE
  5
345
330
23
100
AcDbEntity
  8
0
  6
Continuous
 62
     7
370
    25
100
AcDbLine
 10
9.842519685
 20
27.5590551181
 30
0.0
 11
-9.842519685
 21
27.5590551181
 31
0.0
  0
LINE
  5
346
330
23
100
AcDbEntity
  8
0
  6
Continuous
 62
     7
370
    25
100
AcDbLine
 10
-9.842519685
 20
25.9251968504
 30
0.0
 11
9.7633383889
 21
25.9251968504
 31
0.0
  0
LINE
  5
347
330
23
100
AcDbEntity
  8
0
  6
Continuous
 62
     7
370
    25
100
AcDbLine
 10
-9.842519685
 20
27.5590551181
 30
0.0
 11
-9.842519685
 21
0.0
 31
0.0
  0
LINE
  5
348
330
23
100
AcDbEntity
  8
0
  6
Continuous
 62
     7
370
    25
100
AcDbLine
 10
8.2677165354
 20
5.4330708661
 30
0.0
 11
-8.2677165354
 21
5.4330708661
 31
0.0
  0
LINE
  5
349
330
23
100
AcDbEntity
  8
0
  6
Continuous
 62
     7
370
    25
100
AcDbLine
 10
8.2677165354
 20
4.7244094488
 30
0.0
 11
-8.2677165354
 21
4.7244094488
 31
0.0
  0
VIEWPORT
  5
6BB
330
23
100
AcDbEntity
  8
0
100
AcDbViewport
 10
0.0
 20
0.0
 30
0.0
 40
8.4
 41
6.4
 68
     1
 69
     1
 12
23.2677165354
 22
13.7795275591
 13
0.0
 23
0.0
 14
0.5
 24
0.5
 15
0.5
 25
0.5
 16
0.0
 26
0.0
 36
1.0
 17
0.0
 27
0.0
 37
0.0
 42
50.0
 43
0.0
 44
0.0
 45
36.7154105737
 50
0.0
 51
0.0
 72
   100
 90
   557152
  1

281
     0
 71
     1
 74
     0
110
0.0
120
0.0
130
0.0
111
1.0
121
0.0
131
0.0
112
0.0
122
1.0
132
0.0
 79
     0
146
0.0
  0
ENDBLK
  5
25
330
23
100
AcDbEntity
  8
0
100
AcDbBlockEnd
  0
BLOCK
  5
34C
330
34A
100
AcDbEntity
  8
0
100
AcDbBlockBegin
  2
*Paper_Space1
 70
     0
 10
0.0
 20
0.0
 30
0.0
  3
*Paper_Space1
  1

  0
LINE
  5
3A4
330
34A
100
AcDbEntity
  8
0
  6
Continuous
 62
     7
370
    25
100
AcDbLine
 10
1.2204724409
 20
8.2677165354
 30
0.0
 11
1.2204724409
 21
9.842519685
 31
0.0
  0
LINE
  5
3A5
330
34A
100
AcDbEntity
  8
0
  6
Continuous
 62
     7
370
    25
100
AcDbLine
 10
0.3543307087
 20
8.2677165354
 30
0.0
 11
1.2204724409
 21
8.2677165354
 31
0.0
  0
LINE
  5
3A6
330
34A
100
AcDbEntity
  8
0
  6
Continuous
 62
     7
370
    25
100
AcDbLine
 10
45.3149606299
 20
9.842519685
 30
0.0
 11
45.3149606299
 21
8.2677165354
 31
0.0
  0
LINE
  5
3A7
330
34A
100
AcDbEntity
  8
0
  6
Continuous
 62
     7
370
    25
100
AcDbLine
 10
45.3149606299
 20
9.1338582677
 30
0.0
 11
1.2204724409
 21
9.1338582677
 31
0.0
  0
LINE
  5
3A8
330
34A
100
AcDbEntity
  8
0
  6
Continuous
 62
     7
370
    25
100
AcDbLine
 10
46.8897637795
 20
-9.0590650102
 30
0.0
 11
46.8897637795
 21
9.842519685
 31
0.0
  0
LINE
  5
3A9
330
34A
100
AcDbEntity
  8
0
  6
Continuous
 62
     7
370
    25
100
AcDbLine
 10
46.8897637795
 20
9.842519685
 30
0.0
 11
-0.3543307087
 21
9.842519685
 31
0.0
  0
LINE
  5
3AA
330
34A
100
AcDbEntity
  8
0
  6
Continuous
 62
     7
370
    25
100
AcDbLine
 10
46.1811023622
 20
-9.842519685
 30
0.0
 11
46.1811023622
 21
9.842519685
 31
0.0
  0
LINE
  5
3AB
330
34A
100
AcDbEntity
  8
0
  6
Continuous
 62
     7
370
    25
100
AcDbLine
 10
2.0866141732
 20
-8.2677165354
 30
0.0
 11
2.0866141732
 21
4.9212598425
 31
0.0
  0
LINE
  5
3AC
330
34A
100
AcDbEntity
  8
0
  6
Continuous
 62
     7
370
    25
100
AcDbLine
 10
1.4566929134
 20
-8.2677165354
 30
0.0
 11
1.4566929134
 21
4.9212598425
 31
0.0
  0
LINE
  5
3AD
330
34A
100
AcDbEntity
  8
0
  6
Continuous
 62
     7
370
    25
100
AcDbLine
 10
22.0472440945
 20
4.9212598425
 30
0.0
 11
22.0472440945
 21
-8.2677165354
 31
0.0
  0
LINE
  5
3AE
330
34A
100
AcDbEntity
  8
0
  6
Continuous
 62
     7
370
    25
100
AcDbLine
 10
22.6771653543
 20
4.9212598425
 30
0.0
 11
22.6771653543
 21
-8.2677165354
 31
0.0
  0
LINE
  5
3AF
330
34A
100
AcDbEntity
  8
0
  6
Continuous
 62
     7
370
    25
100
AcDbLine
 10
2.0866141732
 20
4.2913385827
 30
0.0
 11
22.0472440945
 21
4.2913385827
 31
0.0
  0
LINE
  5
3B0
330
34A
100
AcDbEntity
  8
0
  6
Continuous
 62
     7
370
    25
100
AcDbLine
 10
8.9173228346
 20
4.9212598425
 30
0.0
 11
8.9173228346
 21
4.2913385827
 31
0.0
  0
LINE
  5
3B1
330
34A
100
AcDbEntity
  8
0
  6
Continuous
 62
     7
370
    25
100
AcDbLine
 10
15.2165354331
 20
4.9212598425
 30
0.0
 11
15.2165354331
 21
4.2913385827
 31
0.0
  0
LINE
  5
3B2
330
34A
100
AcDbEntity
  8
0
  6
Continuous
 62
     7
370
    25
100
AcDbLine
 10
1.4566929134
 20
4.9212598425
 30
0.0
 11
22.6771653543
 21
4.9212598425
 31
0.0
  0
LINE
  5
3B3
330
34A
100
AcDbEntity
  8
0
  6
Continuous
 62
     7
370
    25
100
AcDbLine
 10
24.4881889764
 20
-8.2677165354
 30
0.0
 11
24.4881889764
 21
4.9212598425
 31
0.0
  0
LINE
  5
3B4
330
34A
100
AcDbEntity
  8
0
  6
Continuous
 62
     7
370
    25
100
AcDbLine
 10
23.8582677165
 20
-8.2677165354
 30
0.0
 11
23.8582677165
 21
4.9212598425
 31
0.0
  0
LINE
  5
3B5
330
34A
100
AcDbEntity
  8
0
  6
Continuous
 62
     7
370
    25
100
AcDbLine
 10
44.4488188976
 20
4.9212598425
 30
0.0
 11
44.4488188976
 21
-8.2677165354
 31
0.0
  0
LINE
  5
3B6
330
34A
100
AcDbEntity
  8
0
  6
Continuous
 62
     7
370
    25
100
AcDbLine
 10
23.8582677165
 20
4.9212598425
 30
0.0
 11
45.0787401575
 21
4.9212598425
 31
0.0
  0
LINE
  5
3B7
330
34A
100
AcDbEntity
  8
0
  6
Continuous
 62
     7
370
    25
100
AcDbLine
 10
45.0787401575
 20
4.9212598425
 30
0.0
 11
45.0787401575
 21
-8.2677165354
 31
0.0
  0
LINE
  5
3B8
330
34A
100
AcDbEntity
  8
0
  6
Continuous
 62
     7
370
    25
100
AcDbLine
 10
31.3188976378
 20
4.9212598425
 30
0.0
 11
31.3188976378
 21
4.2913385827
 31
0.0
  0
LINE
  5
3B9
330
34A
100
AcDbEntity
  8
0
  6
Continuous
 62
     7
370
    25
100
AcDbLine
 10
24.4881889764
 20
4.2913385827
 30
0.0
 11
44.4488188976
 21
4.2913385827
 31
0.0
  0
LINE
  5
3BA
330
34A
100
AcDbEntity
  8
0
  6
Continuous
 62
     7
370
    25
100
AcDbLine
 10
37.6181102362
 20
4.9212598425
 30
0.0
 11
37.6181102362
 21
4.2913385827
 31
0.0
  0
LINE
  5
3BB
330
34A
100
AcDbEntity
  8
0
  6
Continuous
 62
     7
370
    25
100
AcDbLine
 10
1.2204724409
 20
2.3622047244
 30
0.0
 11
1.2204724409
 21
-9.842519685
 31
0.0
  0
LINE
  5
3BC
330
34A
100
AcDbEntity
  8
0
  6
Continuous
 62
     7
370
    25
100
AcDbLine
 10
0.3543307087
 20
-9.842519685
 30
0.0
 11
0.3543307087
 21
9.842519685
 31
0.0
  0
LINE
  5
3BD
330
34A
100
AcDbEntity
  8
0
  6
Continuous
 62
     7
370
    25
100
AcDbLine
 10
0.3543307087
 20
2.3622047244
 30
0.0
 11
1.2204724409
 21
2.3622047244
 31
0.0
  0
LINE
  5
3BE
330
34A
100
AcDbEntity
  8
0
  6
Continuous
 62
     7
370
    25
100
AcDbLine
 10
-0.3543307087
 20
-9.0590650102
 30
0.0
 11
-0.3543307087
 21
9.842519685
 31
0.0
  0
LINE
  5
3BF
330
34A
100
AcDbEntity
  8
0
  6
Continuous
 62
     7
370
    25
100
AcDbLine
 10
1.2952755906
 20
-9.842519685
 30
0.0
 11
1.2952755906
 21
-9.7992125984
 31
0.0
  0
LINE
  5
3C0
330
34A
100
AcDbEntity
  8
0
  6
Continuous
 62
     7
370
    25
100
AcDbLine
 10
45.2401574803
 20
-9.842519685
 30
0.0
 11
45.2401574803
 21
-9.7992125984
 31
0.0
  0
LINE
  5
3C1
330
34A
100
AcDbEntity
  8
0
  6
Continuous
 62
     7
370
    25
100
AcDbLine
 10
46.1811023622
 20
-9.842519685
 30
0.0
 11
0.3543307087
 21
-9.842519685
 31
0.0
  0
LINE
  5
3C2
330
34A
100
AcDbEntity
  8
0
  6
Continuous
 62
     7
370
    25
100
AcDbLine
 10
45.3149606299
 20
8.2677165354
 30
0.0
 11
46.1811023622
 21
8.2677165354
 31
0.0
  0
LINE
  5
3C3
330
34A
100
AcDbEntity
  8
0
  6
Continuous
 62
     7
370
    25
100
AcDbLine
 10
23.6220472441
 20
-8.2677165354
 30
0.0
 11
23.6220472441
 21
9.1338582677
 31
0.0
  0
LINE
  5
3C4
330
34A
100
AcDbEntity
  8
0
  6
Continuous
 62
     7
370
    25
100
AcDbLine
 10
23.6220472441
 20
-7.9527559055
 30
0.0
 11
22.9133858268
 21
-7.9527559055
 31
0.0
  0
LINE
  5
3C5
330
34A
100
AcDbEntity
  8
0
  6
Continuous
 62
     7
370
    25
100
AcDbLine
 10
23.6220472441
 20
-7.1653543307
 30
0.0
 11
22.9133858268
 21
-7.1653543307
 31
0.0
  0
LINE
  5
3C6
330
34A
100
AcDbEntity
  8
0
  6
Continuous
 62
     7
370
    25
100
AcDbLine
 10
22.9133858268
 20
-8.2677165354
 30
0.0
 11
22.9133858268
 21
9.1338582677
 31
0.0
  0
LINE
  5
3C7
330
34A
100
AcDbEntity
  8
0
  6
Continuous
 62
     7
370
    25
100
AcDbLine
 10
46.1811023622
 20
-8.2677165354
 30
0.0
 11
0.3543307087
 21
-8.2677165354
 31
0.0
  0
LINE
  5
3C8
330
34A
100
AcDbEntity
  8
0
  6
Continuous
 62
     7
370
    25
100
AcDbLine
 10
23.6220472441
 20
-4.0157480315
 30
0.0
 11
22.9133858268
 21
-4.0157480315
 31
0.0
  0
LINE
  5
3C9
330
34A
100
AcDbEntity
  8
0
  6
Continuous
 62
     7
370
    25
100
AcDbLine
 10
1.2204724409
 20
-9.7637795276
 30
0.0
 11
1.2598425197
 21
-9.7637795276
 31
0.0
  0
LINE
  5
3CA
330
34A
100
AcDbEntity
  8
0
  6
Continuous
 62
     7
370
    25
100
AcDbLine
 10
45.3149606299
 20
-9.842519685
 30
0.0
 11
45.3149606299
 21
2.3622047244
 31
0.0
  0
LINE
  5
3CB
330
34A
100
AcDbEntity
  8
0
  6
Continuous
 62
     7
370
    25
100
AcDbLine
 10
45.3149606299
 20
-9.7637795276
 30
0.0
 11
45.2755905512
 21
-9.7637795276
 31
0.0
  0
LINE
  5
3CC
330
34A
100
AcDbEntity
  8
0
  6
Continuous
 62
     7
370
    25
100
AcDbLine
 10
45.1968503937
 20
-9.842519685
 30
0.0
 11
45.2755905512
 21
-9.7637795276
 31
0.0
  0
LINE
  5
3CD
330
34A
100
AcDbEntity
  8
0
  6
Continuous
 62
     7
370
    25
100
AcDbLine
 10
1.2598425197
 20
-9.7637795276
 30
0.0
 11
1.3385826772
 21
-9.842519685
 31
0.0
  0
LINE
  5
3CE
330
34A
100
AcDbEntity
  8
0
  6
Continuous
 62
     7
370
    25
100
AcDbLine
 10
46.1811023622
 20
2.3622047244
 30
0.0
 11
45.3149606299
 21
2.3622047244
 31
0.0
  0
ARC
  5
3CF
330
34A
100
AcDbEntity
  8
0
  6
Continuous
 62
     7
370
    25
100
AcDbCircle
 10
46.1023622047
 20
-9.0590650102
 30
0.0
 40
0.7874015748053084
100
AcDbArc
 50
275.7391704774
 51
359.9999999998
  0
ARC
  5
3D0
330
34A
100
AcDbEntity
  8
0
  6
Continuous
 62
     7
370
    25
100
AcDbCircle
 10
0.4330708661
 20
-9.0590650102
 30
0.0
 40
0.7874015747997087
100
AcDbArc
 50
179.9999999999
 51
264.260829523
  0
VIEWPORT
  5
6BD
330
34A
100
AcDbEntity
  8
0
100
AcDbViewport
 10
0.0
 20
0.0
 30
0.0
 40
8.4
 41
6.4
 68
     1
 69
     1
 12
23.2677165354
 22
13.7795275591
 13
0.0
 23
0.0
 14
0.5
 24
0.5
 15
0.5
 25
0.5
 16
0.0
 26
0.0
 36
1.0
 17
0.0
 27
0.0
 37
0.0
 42
50.0
 43
0.0
 44
0.0
 45
36.7154105737
 50
0.0
 51
0.0
 72
   100
 90
   557152
  1

281
     0
 71
     1
 74
     0
110
0.0
120
0.0
130
0.0
111
1.0
121
0.0
131
0.0
112
0.0
122
1.0
132
0.0
 79
     0
146
0.0
  0
ENDBLK
  5
34D
330
34A
100
AcDbEntity
  8
0
100
AcDbBlockEnd
  0
BLOCK
  5
3D3
330
3D1
100
AcDbEntity
  8
0
100
AcDbBlockBegin
  2
*Paper_Space2
 70
     0
 10
0.0
 20
0.0
 30
0.0
  3
*Paper_Space2
  1

  0
LINE
  5
401
330
3D1
100
AcDbEntity
  8
0
  6
Continuous
 62
     7
370
    25
100
AcDbLine
 10
0.3543307087
 20
-9.842519685
 30
0.0
 11
0.3543307087
 21
-8.2677165354
 31
0.0
  0
LINE
  5
402
330
3D1
100
AcDbEntity
  8
0
  6
Continuous
 62
     7
370
    25
100
AcDbLine
 10
1.2204724409
 20
-8.2677165354
 30
0.0
 11
1.2204724409
 21
-9.842519685
 31
0.0
  0
LINE
  5
403
330
3D1
100
AcDbEntity
  8
0
  6
Continuous
 62
     7
370
    25
100
AcDbLine
 10
-0.3543307087
 20
-8.2677165354
 30
0.0
 11
1.2204724409
 21
-8.2677165354
 31
0.0
  0
LINE
  5
404
330
3D1
100
AcDbEntity
  8
0
  6
Continuous
 62
     7
370
    25
100
AcDbLine
 10
8.7007874016
 20
-0.7874015748
 30
0.0
 11
8.7007874016
 21
0.7874015748
 31
0.0
  0
LINE
  5
405
330
3D1
100
AcDbEntity
  8
0
  6
Continuous
 62
     7
370
    25
100
AcDbLine
 10
10.2755905512
 20
-0.7874015748
 30
0.0
 11
8.7007874016
 21
-0.7874015748
 31
0.0
  0
LINE
  5
406
330
3D1
100
AcDbEntity
  8
0
  6
Continuous
 62
     7
370
    25
100
AcDbLine
 10
10.2755905512
 20
0.7874015748
 30
0.0
 11
10.2755905512
 21
-0.7874015748
 31
0.0
  0
LINE
  5
407
330
3D1
100
AcDbEntity
  8
0
  6
Continuous
 62
     7
370
    25
100
AcDbLine
 10
8.7007874016
 20
0.7874015748
 30
0.0
 11
10.2755905512
 21
0.7874015748
 31
0.0
  0
LINE
  5
408
330
3D1
100
AcDbEntity
  8
0
  6
Continuous
 62
     7
370
    25
100
AcDbLine
 10
37.8346456693
 20
-0.7874015748
 30
0.0
 11
36.2598425197
 21
-0.7874015748
 31
0.0
  0
LINE
  5
409
330
3D1
100
AcDbEntity
  8
0
  6
Continuous
 62
     7
370
    25
100
AcDbLine
 10
36.2598425197
 20
-0.7874015748
 30
0.0
 11
36.2598425197
 21
0.7874015748
 31
0.0
  0
LINE
  5
40A
330
3D1
100
AcDbEntity
  8
0
  6
Continuous
 62
     7
370
    25
100
AcDbLine
 10
36.2598425197
 20
0.7874015748
 30
0.0
 11
37.8346456693
 21
0.7874015748
 31
0.0
  0
LINE
  5
40B
330
3D1
100
AcDbEntity
  8
0
  6
Continuous
 62
     7
370
    25
100
AcDbLine
 10
37.8346456693
 20
0.7874015748
 30
0.0
 11
37.8346456693
 21
-0.7874015748
 31
0.0
  0
LINE
  5
40C
330
3D1
100
AcDbEntity
  8
0
  6
Continuous
 62
     7
370
    25
100
AcDbLine
 10
-0.3543307087
 20
-9.842519685
 30
0.0
 11
46.8897637795
 21
-9.842519685
 31
0.0
  0
LINE
  5
40D
330
3D1
100
AcDbEntity
  8
0
  6
Continuous
 62
     7
370
    25
100
AcDbLine
 10
46.1811023622
 20
-9.842519685
 30
0.0
 11
46.1811023622
 21
-8.2677165354
 31
0.0
  0
LINE
  5
40E
330
3D1
100
AcDbEntity
  8
0
  6
Continuous
 62
     7
370
    25
100
AcDbLine
 10
45.3149606299
 20
-8.2677165354
 30
0.0
 11
46.8897637795
 21
-8.2677165354
 31
0.0
  0
LINE
  5
40F
330
3D1
100
AcDbEntity
  8
0
  6
Continuous
 62
     7
370
    25
100
AcDbLine
 10
46.8897637795
 20
8.2677165354
 30
0.0
 11
45.3149606299
 21
8.2677165354
 31
0.0
  0
LINE
  5
410
330
3D1
100
AcDbEntity
  8
0
  6
Continuous
 62
     7
370
    25
100
AcDbLine
 10
46.1811023622
 20
8.2677165354
 30
0.0
 11
46.1811023622
 21
9.842519685
 31
0.0
  0
LINE
  5
411
330
3D1
100
AcDbEntity
  8
0
  6
Continuous
 62
     7
370
    25
100
AcDbLine
 10
46.8897637795
 20
-9.842519685
 30
0.0
 11
46.8897637795
 21
9.0590650102
 31
0.0
  0
LINE
  5
412
330
3D1
100
AcDbEntity
  8
0
  6
Continuous
 62
     7
370
    25
100
AcDbLine
 10
0.3543307087
 20
8.2677165354
 30
0.0
 11
0.3543307087
 21
9.842519685
 31
0.0
  0
LINE
  5
413
330
3D1
100
AcDbEntity
  8
0
  6
Continuous
 62
     7
370
    25
100
AcDbLine
 10
46.1811023622
 20
9.842519685
 30
0.0
 11
0.3543307087
 21
9.842519685
 31
0.0
  0
LINE
  5
414
330
3D1
100
AcDbEntity
  8
0
  6
Continuous
 62
     7
370
    25
100
AcDbLine
 10
1.2204724409
 20
9.842519685
 30
0.0
 11
1.2204724409
 21
8.2677165354
 31
0.0
  0
LINE
  5
415
330
3D1
100
AcDbEntity
  8
0
  6
Continuous
 62
     7
370
    25
100
AcDbLine
 10
1.2204724409
 20
8.2677165354
 30
0.0
 11
-0.3543307087
 21
8.2677165354
 31
0.0
  0
LINE
  5
416
330
3D1
100
AcDbEntity
  8
0
  6
Continuous
 62
     7
370
    25
100
AcDbLine
 10
-0.3543307087
 20
9.0590650102
 30
0.0
 11
-0.3543307087
 21
-9.842519685
 31
0.0
  0
LINE
  5
417
330
3D1
100
AcDbEntity
  8
0
  6
Continuous
 62
     7
370
    25
100
AcDbLine
 10
45.3149606299
 20
-9.842519685
 30
0.0
 11
45.3149606299
 21
-8.2677165354
 31
0.0
  0
LINE
  5
418
330
3D1
100
AcDbEntity
  8
0
  6
Continuous
 62
     7
370
    25
100
AcDbLine
 10
45.3149606299
 20
8.2677165354
 30
0.0
 11
45.3149606299
 21
9.842519685
 31
0.0
  0
ARC
  5
419
330
3D1
100
AcDbEntity
  8
0
  6
Continuous
 62
     7
370
    25
100
AcDbCircle
 10
46.1023622047
 20
9.0590650102
 30
0.0
 40
0.7874015747997261
100
AcDbArc
 50
359.9999999999
 51
84.260829523
  0
ARC
  5
41A
330
3D1
100
AcDbEntity
  8
0
  6
Continuous
 62
     7
370
    25
100
AcDbCircle
 10
0.4330708661
 20
9.0590650102
 30
0.0
 40
0.7874015748053274
100
AcDbArc
 50
95.7391704774
 51
179.9999999998
  0
VIEWPORT
  5
6BF
330
3D1
100
AcDbEntity
  8
0
100
AcDbViewport
 10
0.0
 20
0.0
 30
0.0
 40
8.4
 41
6.4
 68
     1
 69
     1
 12
23.2677165354
 22
13.7795275591
 13
0.0
 23
0.0
 14
0.5
 24
0.5
 15
0.5
 25
0.5
 16
0.0
 26
0.0
 36
1.0
 17
0.0
 27
0.0
 37
0.0
 42
50.0
 43
0.0
 44
0.0
 45
36.7154105737
 50
0.0
 51
0.0
 72
   100
 90
   557152
  1

281
     0
 71
     1
 74
     0
110
0.0
120
0.0
130
0.0
111
1.0
121
0.0
131
0.0
112
0.0
122
1.0
132
0.0
 79
     0
146
0.0
  0
ENDBLK
  5
3D4
330
3D1
100
AcDbEntity
  8
0
100
AcDbBlockEnd
  0
BLOCK
  5
41D
330
41B
100
AcDbEntity
  8
0
100
AcDbBlockBegin
  2
*Paper_Space3
 70
     0
 10
0.0
 20
0.0
 30
0.0
  3
*Paper_Space3
  1

  0
LWPOLYLINE
  5
445
330
41B
100
AcDbEntity
  8
0
  6
Continuous
 62
     7
370
    25
100
AcDbPolyline
 90
       12
 70
   128
 43
0.0
 10
35.4249361835
 20
8.3845142008
 10
35.4192978384
 20
8.4330538195
 10
35.4028395883
 20
8.4841709417
 10
35.3768947828
 20
8.5337243621
 10
35.3435653156
 20
8.5776995572
 10
35.3055513421
 20
8.6125339184
 10
35.2659325283
 20
8.6354053728
 10
35.2279185547
 20
8.6444610112
 10
35.1945890876
 20
8.6389671997
 10
35.1686442821
 20
8.6193690142
 10
35.152186032
 20
8.5872541831
 10
35.1465476869
 20
8.545224459
  0
LWPOLYLINE
  5
446
330
41B
100
AcDbEntity
  8
0
  6
Continuous
 62
     7
370
    25
100
AcDbPolyline
 90
       12
 70
   128
 43
0.0
 10
35.1465476869
 20
8.545224459
 10
35.152186032
 20
8.4966848403
 10
35.1686442821
 20
8.4455677181
 10
35.1945890876
 20
8.3960142977
 10
35.2279185547
 20
8.3520391026
 10
35.2659325283
 20
8.3172047414
 10
35.3055513421
 20
8.294333287
 10
35.3435653156
 20
8.2852776486
 10
35.3768947828
 20
8.2907714601
 10
35.4028395883
 20
8.3103696456
 10
35.4192978384
 20
8.3424844767
 10
35.4249361835
 20
8.3845142008
  0
LWPOLYLINE
  5
447
330
41B
100
AcDbEntity
  8
0
  6
Continuous
 62
     7
370
    25
100
AcDbPolyline
 90
       12
 70
   128
 43
0.0
 10
10.6761988419
 20
22.6716561577
 10
10.6705604968
 20
22.7201957764
 10
10.6541022468
 20
22.7713128986
 10
10.6281574412
 20
22.8208663189
 10
10.5948279741
 20
22.8648415141
 10
10.5568140006
 20
22.8996758753
 10
10.5171951867
 20
22.9225473297
 10
10.4791812132
 20
22.9316029681
 10
10.4458517461
 20
22.9261091566
 10
10.4199069406
 20
22.9065109711
 10
10.4034486905
 20
22.87439614
 10
10.3978103454
 20
22.8323664159
  0
LWPOLYLINE
  5
448
330
41B
100
AcDbEntity
  8
0
  6
Continuous
 62
     7
370
    25
100
AcDbPolyline
 90
       12
 70
   128
 43
0.0
 10
10.3978103454
 20
22.8323664159
 10
10.4034486905
 20
22.7838267972
 10
10.4199069406
 20
22.732709675
 10
10.4458517461
 20
22.6831562546
 10
10.4791812132
 20
22.6391810595
 10
10.5171951867
 20
22.6043466983
 10
10.5568140006
 20
22.5814752439
 10
10.5948279741
 20
22.5724196055
 10
10.6281574412
 20
22.577913417
 10
10.6541022468
 20
22.5975116025
 10
10.6705604968
 20
22.6296264336
 10
10.6761988419
 20
22.6716561577
  0
LWPOLYLINE
  5
449
330
41B
100
AcDbEntity
  8
0
  6
Continuous
 62
     7
370
    25
100
AcDbPolyline
 90
       12
 70
   128
 43
0.0
 10
26.5165042945
 20
13.5272424642
 10
26.5108659494
 20
13.575782083
 10
26.4944076993
 20
13.6268992051
 10
26.4684628938
 20
13.6764526255
 10
26.4351334267
 20
13.7204278207
 10
26.3971194532
 20
13.7552621818
 10
26.3575006393
 20
13.7781336363
 10
26.3194866658
 20
13.7871892747
 10
26.2861571987
 20
13.7816954632
 10
26.2602123931
 20
13.7620972776
 10
26.2437541431
 20
13.7299824465
 10
26.238115798
 20
13.6879527225
  0
LWPOLYLINE
  5
44A
330
41B
100
AcDbEntity
  8
0
  6
Continuous
 62
     7
370
    25
100
AcDbPolyline
 90
       12
 70
   128
 43
0.0
 10
26.238115798
 20
13.6879527225
 10
26.2437541431
 20
13.6394131037
 10
26.2602123931
 20
13.5882959816
 10
26.2861571987
 20
13.5387425612
 10
26.3194866658
 20
13.494767366
 10
26.3575006393
 20
13.4599330048
 10
26.3971194532
 20
13.4370615504
 10
26.4351334267
 20
13.428005912
 10
26.4684628938
 20
13.4334997235
 10
26.4944076993
 20
13.4530979091
 10
26.5108659494
 20
13.4852127402
 10
26.5165042945
 20
13.5272424642
  0
LWPOLYLINE
  5
44B
330
41B
100
AcDbEntity
  8
0
  6
Continuous
 62
     7
370
    25
100
AcDbPolyline
 90
       12
 70
   128
 43
0.0
 10
19.5846307309
 20
17.5289278942
 10
19.5789923858
 20
17.577467513
 10
19.5625341357
 20
17.6285846351
 10
19.5365893302
 20
17.6781380555
 10
19.5032598631
 20
17.7221132507
 10
19.4652458896
 20
17.7569476118
 10
19.4256270757
 20
17.7798190662
 10
19.3876131022
 20
17.7888747047
 10
19.3542836351
 20
17.7833808932
 10
19.3283388295
 20
17.7637827076
 10
19.3118805795
 20
17.7316678765
 10
19.3062422344
 20
17.6896381525
  0
LWPOLYLINE
  5
44C
330
41B
100
AcDbEntity
  8
0
  6
Continuous
 62
     7
370
    25
100
AcDbPolyline
 90
       12
 70
   128
 43
0.0
 10
19.3062422344
 20
17.6896381525
 10
19.3118805795
 20
17.6410985337
 10
19.3283388295
 20
17.5899814116
 10
19.3542836351
 20
17.5404279912
 10
19.3876131022
 20
17.496452796
 10
19.4256270757
 20
17.4616184348
 10
19.4652458896
 20
17.4387469804
 10
19.5032598631
 20
17.429691342
 10
19.5365893302
 20
17.4351851535
 10
19.5625341357
 20
17.4547833391
 10
19.5789923858
 20
17.4868981702
 10
19.5846307309
 20
17.5289278942
  0
LWPOLYLINE
  5
44F
330
41B
100
AcDbEntity
  8
0
  6
Continuous
 62
     7
370
    25
100
AcDbPolyline
 90
        3
 70
   128
 43
0.0
 10
35.2383780569
 20
8.6433566928
 10
35.235702581
 20
8.6354672605
 10
35.2300642359
 20
8.5934375365
  0
LWPOLYLINE
  5
451
330
41B
100
AcDbEntity
  8
0
  6
Continuous
 62
     7
370
    25
100
AcDbPolyline
 90
        4
 70
   128
 43
0.0
 10
35.3218278934
 20
8.5992782398
 10
35.3200458857
 20
8.598321128
 10
35.3049591256
 20
8.5809572118
 10
35.29966136
 20
8.5532599719
  0
LWPOLYLINE
  5
452
330
41B
100
AcDbEntity
  8
0
  6
Continuous
 62
     7
370
    25
100
AcDbPolyline
 90
        8
 70
   128
 43
0.0
 10
35.29966136
 20
8.5532599719
 10
35.3049591256
 20
8.5194460621
 10
35.3200458857
 20
8.4846633435
 10
35.3426248178
 20
8.4542071697
 10
35.3692584842
 20
8.4327142172
 10
35.3958921505
 20
8.4234565931
 10
35.4184710826
 20
8.4278436868
 10
35.4201830704
 20
8.4289036156
  0
LWPOLYLINE
  5
453
330
41B
100
AcDbEntity
  8
0
  6
Continuous
 62
     7
370
    25
100
AcDbPolyline
 90
        8
 70
   128
 43
0.0
 10
35.2300642359
 20
8.5934375365
 10
35.235702581
 20
8.5448979177
 10
35.2521608311
 20
8.4937807956
 10
35.2781056366
 20
8.4442273752
 10
35.3114351037
 20
8.40025218
 10
35.3494490772
 20
8.3654178189
 10
35.3890678911
 20
8.3425463645
 10
35.4166223625
 20
8.3345950444
  0
LWPOLYLINE
  5
454
330
41B
100
AcDbEntity
  8
0
  6
Continuous
 62
     7
370
    25
100
AcDbPolyline
 90
        3
 70
   128
 43
0.0
 10
26.3299461679
 20
13.7860849563
 10
26.327270692
 20
13.778195524
 10
26.3216323469
 20
13.7361657999
  0
LWPOLYLINE
  5
456
330
41B
100
AcDbEntity
  8
0
  6
Continuous
 62
     7
370
    25
100
AcDbPolyline
 90
        4
 70
   128
 43
0.0
 10
26.4133960045
 20
13.7420065033
 10
26.4116139968
 20
13.7410493914
 10
26.3965272367
 20
13.7236854752
 10
26.3912294711
 20
13.6959882354
  0
LWPOLYLINE
  5
457
330
41B
100
AcDbEntity
  8
0
  6
Continuous
 62
     7
370
    25
100
AcDbPolyline
 90
        8
 70
   128
 43
0.0
 10
26.3912294711
 20
13.6959882354
 10
26.3965272367
 20
13.6621743255
 10
26.4116139968
 20
13.6273916069
 10
26.4341929288
 20
13.5969354332
 10
26.4608265952
 20
13.5754424807
 10
26.4874602615
 20
13.5661848566
 10
26.5100391936
 20
13.5705719502
 10
26.5117511815
 20
13.5716318791
  0
LWPOLYLINE
  5
458
330
41B
100
AcDbEntity
  8
0
  6
Continuous
 62
     7
370
    25
100
AcDbPolyline
 90
        8
 70
   128
 43
0.0
 10
26.3216323469
 20
13.7361657999
 10
26.327270692
 20
13.6876261812
 10
26.3437289421
 20
13.636509059
 10
26.3696737476
 20
13.5869556387
 10
26.4030032147
 20
13.5429804435
 10
26.4410171883
 20
13.5081460823
 10
26.4806360021
 20
13.4852746279
 10
26.5081904735
 20
13.4773233079
  0
LWPOLYLINE
  5
459
330
41B
100
AcDbEntity
  8
0
  6
Continuous
 62
     7
370
    25
100
AcDbPolyline
 90
        3
 70
   128
 43
0.0
 10
19.3980726043
 20
17.7877703863
 10
19.3953971284
 20
17.779880954
 10
19.3897587833
 20
17.7378512299
  0
LWPOLYLINE
  5
45B
330
41B
100
AcDbEntity
  8
0
  6
Continuous
 62
     7
370
    25
100
AcDbPolyline
 90
        4
 70
   128
 43
0.0
 10
19.4815224409
 20
17.7436919333
 10
19.4797404332
 20
17.7427348214
 10
19.4646536731
 20
17.7253709052
 10
19.4593559075
 20
17.6976736654
  0
LWPOLYLINE
  5
45C
330
41B
100
AcDbEntity
  8
0
  6
Continuous
 62
     7
370
    25
100
AcDbPolyline
 90
        8
 70
   128
 43
0.0
 10
19.4593559075
 20
17.6976736654
 10
19.4646536731
 20
17.6638597555
 10
19.4797404332
 20
17.6290770369
 10
19.5023193652
 20
17.5986208632
 10
19.5289530316
 20
17.5771279107
 10
19.5555866979
 20
17.5678702866
 10
19.57816563
 20
17.5722573802
 10
19.5798776179
 20
17.5733173091
  0
LWPOLYLINE
  5
45D
330
41B
100
AcDbEntity
  8
0
  6
Continuous
 62
     7
370
    25
100
AcDbPolyline
 90
        8
 70
   128
 43
0.0
 10
19.3897587833
 20
17.7378512299
 10
19.3953971284
 20
17.6893116112
 10
19.4118553785
 20
17.638194489
 10
19.437800184
 20
17.5886410686
 10
19.4711296511
 20
17.5446658735
 10
19.5091436247
 20
17.5098315123
 10
19.5487624385
 20
17.4869600579
 10
19.5763169099
 20
17.4790087379
  0
LWPOLYLINE
  5
45E
330
41B
100
AcDbEntity
  8
0
  6
Continuous
 62
     7
370
    25
100
AcDbPolyline
 90
        3
 70
   128
 43
0.0
 10
10.4896407153
 20
22.9304986497
 10
10.4869652394
 20
22.9226092174
 10
10.4813268944
 20
22.8805794934
  0
LWPOLYLINE
  5
460
330
41B
100
AcDbEntity
  8
0
  6
Continuous
 62
     7
370
    25
100
AcDbPolyline
 90
        4
 70
   128
 43
0.0
 10
10.5730905519
 20
22.8864201967
 10
10.5713085442
 20
22.8854630849
 10
10.5562217841
 20
22.8680991687
 10
10.5509240185
 20
22.8404019288
  0
LWPOLYLINE
  5
461
330
41B
100
AcDbEntity
  8
0
  6
Continuous
 62
     7
370
    25
100
AcDbPolyline
 90
        8
 70
   128
 43
0.0
 10
10.5509240185
 20
22.8404019288
 10
10.5562217841
 20
22.806588019
 10
10.5713085442
 20
22.7718053004
 10
10.5938874763
 20
22.7413491266
 10
10.6205211426
 20
22.7198561741
 10
10.647154809
 20
22.71059855
 10
10.669733741
 20
22.7149856437
 10
10.6714457289
 20
22.7160455725
  0
LWPOLYLINE
  5
462
330
41B
100
AcDbEntity
  8
0
  6
Continuous
 62
     7
370
    25
100
AcDbPolyline
 90
        8
 70
   128
 43
0.0
 10
10.4813268944
 20
22.8805794934
 10
10.4869652394
 20
22.8320398746
 10
10.5034234895
 20
22.7809227525
 10
10.529368295
 20
22.7313693321
 10
10.5626977622
 20
22.6873941369
 10
10.6007117357
 20
22.6525597758
 10
10.6403305496
 20
22.6296883214
 10
10.6678850209
 20
22.6217370013
  0
SPLINE
  5
46E
330
41B
100
AcDbEntity
  8
0
  6
Continuous
 62
     7
370
    25
100
AcDbSpline
210
0.0
220
0.0
230
1.0
 70
     8
 71
     3
 72
     8
 73
     4
 74
     0
 42
0.000000001
 43
0.00000001
 40
0.0
 40
0.0
 40
0.0
 40
0.0
 40
1.0
 40
1.0
 40
1.0
 40
1.0
 10
25.69525822973156
 20
-1.748309376099231
 30
0.0
 10
25.71406945500983
 20
-1.7212396695
 30
0.0
 10
25.73273467038512
 20
-1.694388254175036
 30
0.0
 10
25.7512478611793
 20
-1.667766335772511
 30
0.0
  0
SPLINE
  5
478
330
41B
100
AcDbEntity
  8
0
  6
Continuous
 62
     7
370
    25
100
AcDbSpline
210
0.0
220
0.0
230
1.0
 70
     8
 71
     3
 72
     8
 73
     4
 74
     0
 42
0.000000001
 43
0.00000001
 40
0.0
 40
0.0
 40
0.0
 40
0.0
 40
1.0
 40
1.0
 40
1.0
 40
1.0
 10
25.69525822973156
 20
-9.367213801962334
 30
0.0
 10
25.71406945496808
 20
-9.340144095425782
 30
0.0
 10
25.73273467034336
 20
-9.313292680100828
 30
0.0
 10
25.7512478611793
 20
-9.28667076163561
 30
0.0
  0
LWPOLYLINE
  5
499
330
41B
100
AcDbEntity
  8
0
  6
Continuous
 62
     7
370
    25
100
AcDbPolyline
 90
       48
 70
   128
 43
0.0
 10
9.3399340586
 20
16.0819817825
 10
9.344907461
 20
15.9073345995
 10
9.3598054558
 20
15.727725265
 10
9.384561505
 20
15.543955958
 10
9.4190650421
 20
15.3568474367
 10
9.4631619658
 20
15.1672353731
 10
9.5166553286
 20
14.9759666209
 10
9.5793062161
 20
14.7838954327
 10
9.6508348143
 20
14.591879645
 10
9.7309216591
 20
14.400776847
 10
9.8192090633
 20
14.2114405501
 10
9.9153027137
 20
14.0247163763
 10
10.0187734329
 20
13.8414382809
 10
10.1291590955
 20
13.6624248286
 10
10.2459666924
 20
13.4884755367
 10
10.3686745324
 20
13.3203673051
 10
10.4967345725
 20
13.1588509459
 10
10.6295748656
 20
13.0046478304
 10
10.7666021147
 20
12.8584466672
 10
10.9072043227
 20
12.7209004261
 10
11.050753526
 20
12.5926234221
 10
11.1966085992
 20
12.4741885714
 10
11.344118118
 20
12.3661248327
 10
11.4926232691
 20
12.268914845
 10
11.6414607925
 20
12.1829927716
 10
11.7899659436
 20
12.1087423615
 10
11.9374754624
 20
12.0464952349
 10
12.0833305356
 20
11.9965294027
 10
12.226879739
 20
11.9590680244
 10
12.367481947
 20
11.9342784115
 10
12.504509196
 20
11.9222712805
 10
12.6373494891
 20
11.9231002583
 10
12.7654095293
 20
11.9367616422
 10
12.8881173693
 20
11.9631944174
 10
13.0049249661
 20
12.0022805286
 10
13.1153106287
 20
12.0538454078
 10
13.2187813479
 20
12.1176587536
 10
13.3148749984
 20
12.1934355602
 10
13.4031624025
 20
12.28083739
 10
13.4832492473
 20
12.3794738852
 10
13.5547778455
 20
12.4889045113
 10
13.6174287331
 20
12.6086405244
 10
13.6709220959
 20
12.7381471546
 10
13.7150190196
 20
12.8768459938
 10
13.7495225566
 20
13.0241175792
 10
13.7742786058
 20
13.1793041602
 10
13.7891766006
 20
13.341712636
 10
13.7941500031
 20
13.5106176507
  0
LWPOLYLINE
  5
4A0
330
41B
100
AcDbEntity
  8
0
  6
Continuous
 62
     7
370
    25
100
AcDbPolyline
 90
       35
 70
   128
 43
0.0
 10
9.785355653
 20
16.3391181956
 10
9.7903290555
 20
16.1644710127
 10
9.8052270503
 20
15.9848616782
 10
9.8299830995
 20
15.8010923712
 10
9.8644866365
 20
15.6139838498
 10
9.9085835602
 20
15.4243717863
 10
9.962076923
 20
15.2331030341
 10
10.0247278106
 20
15.0410318459
 10
10.0962564088
 20
14.8490160582
 10
10.1763432536
 20
14.6579132602
 10
10.2646306577
 20
14.4685769633
 10
10.3607243082
 20
14.2818527895
 10
10.4641950274
 20
14.0985746941
 10
10.57458069
 20
13.9195612417
 10
10.6913882868
 20
13.7456119499
 10
10.8140961268
 20
13.5775037182
 10
10.942156167
 20
13.4159873591
 10
11.0749964601
 20
13.2617842436
 10
11.2120237091
 20
13.1155830804
 10
11.3526259171
 20
12.9780368393
 10
11.4961751205
 20
12.8497598353
 10
11.6420301937
 20
12.7313249845
 10
11.7895397125
 20
12.6232612459
 10
11.9380448636
 20
12.5260512582
 10
12.086882387
 20
12.4401291848
 10
12.2353875381
 20
12.3658787747
 10
12.3828970569
 20
12.3036316481
 10
12.5287521301
 20
12.2536658159
 10
12.6723013334
 20
12.2162044375
 10
12.8129035414
 20
12.1914148247
 10
12.9499307905
 20
12.1794076937
 10
13.0827710836
 20
12.1802366714
 10
13.2108311237
 20
12.1938980554
 10
13.3335389637
 20
12.2203308306
 10
13.3486042996
 20
12.2245653895
  0
LWPOLYLINE
  5
4A9
330
41B
100
AcDbEntity
  8
0
  6
Continuous
 62
     7
370
    25
100
AcDbPolyline
 90
       48
 70
   128
 43
0.0
 10
25.1802395112
 20
6.937568089
 10
25.1852129136
 20
6.7629209061
 10
25.2001109084
 20
6.5833115716
 10
25.2248669576
 20
6.3995422645
 10
25.2593704946
 20
6.2124337432
 10
25.3034674183
 20
6.0228216797
 10
25.3569607811
 20
5.8315529275
 10
25.4196116687
 20
5.6394817393
 10
25.4911402669
 20
5.4474659516
 10
25.5712271117
 20
5.2563631536
 10
25.6595145158
 20
5.0670268567
 10
25.7556081663
 20
4.8803026828
 10
25.8590788855
 20
4.6970245875
 10
25.9694645481
 20
4.5180111351
 10
26.0862721449
 20
4.3440618432
 10
26.2089799849
 20
4.1759536116
 10
26.3370400251
 20
4.0144372525
 10
26.4698803182
 20
3.860234137
 10
26.6069075672
 20
3.7140329738
 10
26.7475097752
 20
3.5764867327
 10
26.8910589786
 20
3.4482097287
 10
27.0369140518
 20
3.3297748779
 10
27.1844235706
 20
3.2217111392
 10
27.3329287217
 20
3.1245011515
 10
27.4817662451
 20
3.0385790782
 10
27.6302713962
 20
2.9643286681
 10
27.777780915
 20
2.9020815415
 10
27.9236359882
 20
2.8521157093
 10
28.0671851916
 20
2.8146543309
 10
28.2077873996
 20
2.789864718
 10
28.3448146486
 20
2.7778575871
 10
28.4776549417
 20
2.7786865648
 10
28.6057149818
 20
2.7923479488
 10
28.7284228219
 20
2.818780724
 10
28.8452304187
 20
2.8578668352
 10
28.9556160813
 20
2.9094317143
 10
29.0590868005
 20
2.9732450602
 10
29.155180451
 20
3.0490218668
 10
29.2434678551
 20
3.1364236966
 10
29.3235546999
 20
3.2350601918
 10
29.3950832981
 20
3.3444908178
 10
29.4577341857
 20
3.464226831
 10
29.5112275484
 20
3.5937334612
 10
29.5553244721
 20
3.7324323003
 10
29.5898280092
 20
3.8797038857
 10
29.6145840584
 20
4.0348904668
 10
29.6294820532
 20
4.1972989425
 10
29.6344554556
 20
4.3662039573
  0
LWPOLYLINE
  5
4B0
330
41B
100
AcDbEntity
  8
0
  6
Continuous
 62
     7
370
    25
100
AcDbPolyline
 90
       35
 70
   128
 43
0.0
 10
25.6256611056
 20
7.1947045022
 10
25.630634508
 20
7.0200573192
 10
25.6455325029
 20
6.8404479848
 10
25.6702885521
 20
6.6566786777
 10
25.7047920891
 20
6.4695701564
 10
25.7488890128
 20
6.2799580929
 10
25.8023823756
 20
6.0886893406
 10
25.8650332631
 20
5.8966181524
 10
25.9365618613
 20
5.7046023647
 10
26.0166487062
 20
5.5134995667
 10
26.1049361103
 20
5.3241632699
 10
26.2010297607
 20
5.137439096
 10
26.3045004799
 20
4.9541610007
 10
26.4148861425
 20
4.7751475483
 10
26.5316937394
 20
4.6011982564
 10
26.6544015794
 20
4.4330900248
 10
26.7824616196
 20
4.2715736656
 10
26.9153019126
 20
4.1173705502
 10
27.0523291617
 20
3.9711693869
 10
27.1929313697
 20
3.8336231459
 10
27.3364805731
 20
3.7053461418
 10
27.4823356462
 20
3.5869112911
 10
27.629845165
 20
3.4788475524
 10
27.7783503162
 20
3.3816375647
 10
27.9271878395
 20
3.2957154914
 10
28.0756929906
 20
3.2214650812
 10
28.2232025094
 20
3.1592179547
 10
28.3690575826
 20
3.1092521224
 10
28.512606786
 20
3.0717907441
 10
28.653208994
 20
3.0470011312
 10
28.790236243
 20
3.0349940003
 10
28.9230765361
 20
3.035822978
 10
29.0511365763
 20
3.049484362
 10
29.1738444163
 20
3.0759171371
 10
29.1889097522
 20
3.0801516961
  0
LWPOLYLINE
  5
4CC
330
41B
100
AcDbEntity
  8
0
  6
Continuous
 62
     7
370
    25
100
AcDbPolyline
 90
       12
 70
   128
 43
0.0
 10
-6.6562759468
 20
18.9497853934
 10
-6.7255233833
 20
18.9040731933
 10
-6.78359794
 20
18.8534403292
 10
-6.8294631396
 20
18.7987904636
 10
-6.8623004097
 20
18.7410989522
 10
-6.8815236917
 20
18.6813954359
 10
-6.8867899011
 20
18.6207454643
 10
-6.8780050499
 20
18.5602314791
 10
-6.8553259245
 20
18.5009334948
 10
-6.8191572872
 20
18.4439098235
 10
-6.7701446525
 20
18.390178187
 10
-6.7091627664
 20
18.3406975527
  0
LWPOLYLINE
  5
4D3
330
41B
100
AcDbEntity
  8
0
  6
Continuous
 62
     7
370
    25
100
AcDbPolyline
 90
        7
 70
   128
 43
0.0
 10
-6.882457419
 20
17.2942529206
 10
-6.8867899011
 20
17.2384125938
 10
-6.8780050499
 20
17.1778986086
 10
-6.8553259245
 20
17.1186006243
 10
-6.8191572872
 20
17.061576953
 10
-6.7701446525
 20
17.0078453165
 10
-6.7091627664
 20
16.9583646822
  0
LWPOLYLINE
  5
4D5
330
41B
100
AcDbEntity
  8
0
  6
Continuous
 62
     7
370
    25
100
AcDbPolyline
 90
        7
 70
   128
 43
0.0
 10
-6.882457419
 20
9.6753484947
 10
-6.8867899011
 20
9.6195081679
 10
-6.8780050499
 20
9.5589941827
 10
-6.8553259245
 20
9.4996961984
 10
-6.8191572872
 20
9.4426725271
 10
-6.7701446525
 20
9.3889408906
 10
-6.7091627664
 20
9.3394602563
  0
LINE
  5
58C
330
41B
100
AcDbEntity
  8
0
  6
Continuous
 62
     7
370
    25
100
AcDbLine
 10
25.9307584627
 20
-1.7284071615
 30
0.0
 11
25.9570392808
 21
-1.7337789715
 31
0.0
  0
LINE
  5
58D
330
41B
100
AcDbEntity
  8
0
  6
Continuous
 62
     7
370
    25
100
AcDbLine
 10
26.4300940067
 20
-1.7337789715
 30
0.0
 11
26.4563748248
 21
-1.7284071615
 31
0.0
  0
LINE
  5
58E
330
41B
100
AcDbEntity
  8
0
  6
Continuous
 62
     7
370
    25
100
AcDbLine
 10
25.9307584627
 20
-9.3473115873
 30
0.0
 11
25.9570392808
 21
-9.3526833973
 31
0.0
  0
LINE
  5
58F
330
41B
100
AcDbEntity
  8
0
  6
Continuous
 62
     7
370
    25
100
AcDbLine
 10
26.4300940067
 20
-9.3526833973
 30
0.0
 11
26.4563748248
 21
-9.3473115873
 31
0.0
  0
LINE
  5
590
330
41B
100
AcDbEntity
  8
0
  6
Continuous
 62
     7
370
    25
100
AcDbLine
 10
-6.8869005285
 20
18.628364877
 30
0.0
 11
-6.8869005285
 21
17.3424738346
 31
0.0
  0
LINE
  5
591
330
41B
100
AcDbEntity
  8
0
  6
Continuous
 62
     7
370
    25
100
AcDbLine
 10
-6.8869005285
 20
17.2460320065
 30
0.0
 11
-6.8869005285
 21
9.7235694088
 31
0.0
  0
LINE
  5
592
330
41B
100
AcDbEntity
  8
0
  6
Continuous
 62
     7
370
    25
100
AcDbLine
 10
-6.8869005285
 20
9.6271275806
 30
0.0
 11
-6.8869005285
 21
-3.874728364
 31
0.0
  0
LINE
  5
593
330
41B
100
AcDbEntity
  8
0
  6
Continuous
 62
     7
370
    25
100
AcDbLine
 10
6.7091627664
 20
18.1149665491
 30
0.0
 11
6.7091627664
 21
25.3798068633
 31
0.0
  0
LINE
  5
594
330
41B
100
AcDbEntity
  8
0
  6
Continuous
 62
     7
370
    25
100
AcDbLine
 10
6.7091627664
 20
25.3798068633
 30
0.0
 11
7.8227167525
 21
26.0226478962
 31
0.0
  0
LINE
  5
595
330
41B
100
AcDbEntity
  8
0
  6
Continuous
 62
     7
370
    25
100
AcDbLine
 10
7.8227167525
 20
19.271719924
 30
0.0
 11
7.8227167525
 21
23.1937816425
 31
0.0
  0
LINE
  5
596
330
41B
100
AcDbEntity
  8
0
  6
Continuous
 62
     7
370
    25
100
AcDbLine
 10
6.096708074
 20
18.4685291172
 30
0.0
 11
6.096708074
 21
25.7333694314
 31
0.0
  0
LINE
  5
597
330
41B
100
AcDbEntity
  8
0
  6
Continuous
 62
     7
370
    25
100
AcDbLine
 10
6.096708074
 20
25.7333694314
 30
0.0
 11
6.7091627664
 21
25.3798068633
 31
0.0
  0
LINE
  5
598
330
41B
100
AcDbEntity
  8
0
  6
Continuous
 62
     7
370
    25
100
AcDbLine
 10
-6.0131915251
 20
16.5565890366
 30
0.0
 11
9.465208882
 21
7.6210986789
 31
0.0
  0
LINE
  5
599
330
41B
100
AcDbEntity
  8
0
  6
Continuous
 62
     7
370
    25
100
AcDbLine
 10
-6.0131915251
 20
16.5565890366
 30
0.0
 11
-5.9296614012
 21
16.6048099507
 31
0.0
  0
LINE
  5
59A
330
41B
100
AcDbEntity
  8
0
  6
Continuous
 62
     7
370
    25
100
AcDbLine
 10
9.465208882
 20
7.6210986789
 30
0.0
 11
9.5487390059
 21
7.669319593
 31
0.0
  0
LINE
  5
59B
330
41B
100
AcDbEntity
  8
0
  6
Continuous
 62
     7
370
    25
100
AcDbLine
 10
9.465208882
 20
7.6210986789
 30
0.0
 11
9.465208882
 21
0.0986360812
 31
0.0
  0
LINE
  5
59C
330
41B
100
AcDbEntity
  8
0
  6
Continuous
 62
     7
370
    25
100
AcDbLine
 10
9.465208882
 20
0.0986360812
 30
0.0
 11
-6.0131915251
 21
9.0341264389
 31
0.0
  0
LINE
  5
59D
330
41B
100
AcDbEntity
  8
0
  6
Continuous
 62
     7
370
    25
100
AcDbLine
 10
-6.0131915251
 20
9.0341264389
 30
0.0
 11
-6.0131915251
 21
16.5565890366
 31
0.0
  0
LINE
  5
59E
330
41B
100
AcDbEntity
  8
0
  6
Continuous
 62
     7
370
    25
100
AcDbLine
 10
9.465208882
 20
0.0986360812
 30
0.0
 11
9.5208865813
 21
0.1307781328
 31
0.0
  0
LINE
  5
59F
330
41B
100
AcDbEntity
  8
0
  6
Continuous
 62
     7
370
    25
100
AcDbLine
 10
-6.0410303747
 20
9.0180397399
 30
0.0
 11
-6.0131915251
 21
9.001968714
 31
0.0
  0
LINE
  5
5A0
330
41B
100
AcDbEntity
  8
0
  6
Continuous
 62
     7
370
    25
100
AcDbLine
 10
-6.0410303747
 20
9.0180397399
 30
0.0
 11
-6.0131779502
 21
9.0341186023
 31
0.0
  0
LINE
  5
5A1
330
41B
100
AcDbEntity
  8
0
  6
Continuous
 62
     7
370
    25
100
AcDbLine
 10
25.1146171494
 20
-8.9677327379
 30
0.0
 11
25.110642387
 21
-8.9654381564
 31
0.0
  0
LINE
  5
5A2
330
41B
100
AcDbEntity
  8
0
  6
Continuous
 62
     7
370
    25
100
AcDbLine
 10
24.9992869884
 20
-8.9654381564
 30
0.0
 11
25.110642387
 21
-8.9654381564
 31
0.0
  0
LINE
  5
5A3
330
41B
100
AcDbEntity
  8
0
  6
Continuous
 62
     7
370
    25
100
AcDbLine
 10
24.9992869884
 20
-8.9654381564
 30
0.0
 11
-6.0131915251
 21
8.9376846108
 31
0.0
  0
LINE
  5
5A4
330
41B
100
AcDbEntity
  8
0
  6
Continuous
 62
     7
370
    25
100
AcDbLine
 10
-6.0131915251
 20
7.6517935684
 30
0.0
 11
-6.0131915251
 21
9.001968714
 31
0.0
  0
LINE
  5
5A5
330
41B
100
AcDbEntity
  8
0
  6
Continuous
 62
     7
370
    25
100
AcDbLine
 10
24.9992869884
 20
-10.2513291987
 30
0.0
 11
25.0828035374
 21
-10.2513291987
 31
0.0
  0
LINE
  5
5A6
330
41B
100
AcDbEntity
  8
0
  6
Continuous
 62
     7
370
    25
100
AcDbLine
 10
24.9992869884
 20
-10.2513291987
 30
0.0
 11
24.9992869884
 21
-8.9654381564
 31
0.0
  0
LINE
  5
5A7
330
41B
100
AcDbEntity
  8
0
  6
Continuous
 62
     7
370
    25
100
AcDbLine
 10
25.110642387
 20
-8.973469751
 30
0.0
 11
25.110642387
 21
-8.9654381564
 31
0.0
  0
LINE
  5
5A8
330
41B
100
AcDbEntity
  8
0
  6
Continuous
 62
     7
370
    25
100
AcDbLine
 10
24.9992869884
 20
-10.2513291987
 30
0.0
 11
-6.0131915251
 21
7.6517935684
 31
0.0
  0
LINE
  5
5A9
330
41B
100
AcDbEntity
  8
0
  6
Continuous
 62
     7
370
    25
100
AcDbLine
 10
-6.0410303747
 20
7.7321486975
 30
0.0
 11
-6.0410303747
 21
9.0180397399
 31
0.0
  0
LINE
  5
5AA
330
41B
100
AcDbEntity
  8
0
  6
Continuous
 62
     7
370
    25
100
AcDbLine
 10
-6.0410303747
 20
7.7321486975
 30
0.0
 11
-6.0131915251
 21
7.7160776717
 31
0.0
  0
LINE
  5
5AB
330
41B
100
AcDbEntity
  8
0
  6
Continuous
 62
     7
370
    25
100
AcDbLine
 10
39.0022283639
 20
8.0230989742
 30
0.0
 11
37.8886743778
 21
7.3802579412
 31
0.0
  0
LINE
  5
5AC
330
41B
100
AcDbEntity
  8
0
  6
Continuous
 62
     7
370
    25
100
AcDbLine
 10
38.5011290701
 20
7.7338205093
 30
0.0
 11
7.3216174587
 21
25.7333694314
 31
0.0
  0
LINE
  5
5AD
330
41B
100
AcDbEntity
  8
0
  6
Continuous
 62
     7
370
    25
100
AcDbLine
 10
37.1645475393
 20
6.2551032792
 30
0.0
 11
7.3216174587
 21
23.4830601073
 31
0.0
  0
LINE
  5
5AE
330
41B
100
AcDbEntity
  8
0
  6
Continuous
 62
     7
370
    25
100
AcDbLine
 10
7.3216174587
 20
23.4830601073
 30
0.0
 11
7.3216174587
 21
25.7333694314
 31
0.0
  0
LINE
  5
5AF
330
41B
100
AcDbEntity
  8
0
  6
Continuous
 62
     7
370
    25
100
AcDbLine
 10
35.1465476869
 20
8.545224459
 30
0.0
 11
35.2300642359
 21
8.5934375365
 31
0.0
  0
LINE
  5
5B0
330
41B
100
AcDbEntity
  8
0
  6
Continuous
 62
     7
370
    25
100
AcDbLine
 10
26.238115798
 20
13.6879527225
 30
0.0
 11
26.3216323469
 21
13.7361657999
 31
0.0
  0
LINE
  5
5B1
330
41B
100
AcDbEntity
  8
0
  6
Continuous
 62
     7
370
    25
100
AcDbLine
 10
19.3062422344
 20
17.6896381525
 30
0.0
 11
19.3897587833
 21
17.7378512299
 31
0.0
  0
LINE
  5
5B2
330
41B
100
AcDbEntity
  8
0
  6
Continuous
 62
     7
370
    25
100
AcDbLine
 10
10.3978103454
 20
22.8323664159
 30
0.0
 11
10.4813268944
 21
22.8805794934
 31
0.0
  0
LINE
  5
5B3
330
41B
100
AcDbEntity
  8
0
  6
Continuous
 62
     7
370
    25
100
AcDbLine
 10
25.6952582297
 20
-1.6518675479
 30
0.0
 11
25.6952582297
 21
-0.3659765056
 31
0.0
  0
LINE
  5
5B4
330
41B
100
AcDbEntity
  8
0
  6
Continuous
 62
     7
370
    25
100
AcDbLine
 10
26.7503436368
 20
-0.3354455945
 30
0.0
 11
26.7503436368
 21
-1.6213366368
 31
0.0
  0
LINE
  5
5B5
330
41B
100
AcDbEntity
  8
0
  6
Continuous
 62
     7
370
    25
100
AcDbLine
 10
26.7503436368
 20
-0.3354455945
 30
0.0
 11
40.11578235
 21
7.3802579412
 31
0.0
  0
LINE
  5
5B6
330
41B
100
AcDbEntity
  8
0
  6
Continuous
 62
     7
370
    25
100
AcDbLine
 10
25.6952582297
 20
-0.3659765056
 30
0.0
 11
39.6146830562
 21
7.6695364061
 31
0.0
  0
LINE
  5
5B7
330
41B
100
AcDbEntity
  8
0
  6
Continuous
 62
     7
370
    25
100
AcDbLine
 10
40.11578235
 20
7.3802579412
 30
0.0
 11
6.7091627664
 21
26.6654889292
 31
0.0
  0
LINE
  5
5B8
330
41B
100
AcDbEntity
  8
0
  6
Continuous
 62
     7
370
    25
100
AcDbLine
 10
40.11578235
 20
6.0943668989
 30
0.0
 11
26.7503436368
 21
-1.6213366368
 31
0.0
  0
LINE
  5
5B9
330
41B
100
AcDbEntity
  8
0
  6
Continuous
 62
     7
370
    25
100
AcDbLine
 10
40.11578235
 20
7.3802579412
 30
0.0
 11
40.11578235
 21
6.0943668989
 31
0.0
  0
LINE
  5
5BA
330
41B
100
AcDbEntity
  8
0
  6
Continuous
 62
     7
370
    25
100
AcDbLine
 10
26.7503436368
 20
-1.717778465
 30
0.0
 11
26.7503436368
 21
-9.2402410627
 31
0.0
  0
LINE
  5
5BB
330
41B
100
AcDbEntity
  8
0
  6
Continuous
 62
     7
370
    25
100
AcDbLine
 10
25.6952582297
 20
-9.2707719738
 30
0.0
 11
25.6952582297
 21
-1.7483093761
 31
0.0
  0
LINE
  5
5BC
330
41B
100
AcDbEntity
  8
0
  6
Continuous
 62
     7
370
    25
100
AcDbLine
 10
40.11578235
 20
5.9979250707
 30
0.0
 11
26.7503436368
 21
-1.717778465
 31
0.0
  0
LINE
  5
5BD
330
41B
100
AcDbEntity
  8
0
  6
Continuous
 62
     7
370
    25
100
AcDbLine
 10
40.11578235
 20
5.9979250707
 30
0.0
 11
40.0680541754
 21
6.0668140102
 31
0.0
  0
LINE
  5
5BE
330
41B
100
AcDbEntity
  8
0
  6
Continuous
 62
     7
370
    25
100
AcDbLine
 10
40.11578235
 20
-1.524537527
 30
0.0
 11
26.7503436368
 21
-9.2402410627
 31
0.0
  0
LINE
  5
5BF
330
41B
100
AcDbEntity
  8
0
  6
Continuous
 62
     7
370
    25
100
AcDbLine
 10
40.11578235
 20
5.9979250707
 30
0.0
 11
40.11578235
 21
-1.524537527
 31
0.0
  0
LINE
  5
5C0
330
41B
100
AcDbEntity
  8
0
  6
Continuous
 62
     7
370
    25
100
AcDbLine
 10
26.7503436368
 20
-9.3366828909
 30
0.0
 11
26.7503436368
 21
-22.8385388354
 31
0.0
  0
LINE
  5
5C1
330
41B
100
AcDbEntity
  8
0
  6
Continuous
 62
     7
370
    25
100
AcDbLine
 10
25.6952582297
 20
-22.8690697465
 30
0.0
 11
25.6952582297
 21
-9.367213802
 31
0.0
  0
LINE
  5
5C2
330
41B
100
AcDbEntity
  8
0
  6
Continuous
 62
     7
370
    25
100
AcDbLine
 10
40.11578235
 20
-1.6209793551
 30
0.0
 11
26.7503436368
 21
-9.3366828909
 31
0.0
  0
LINE
  5
5C3
330
41B
100
AcDbEntity
  8
0
  6
Continuous
 62
     7
370
    25
100
AcDbLine
 10
40.11578235
 20
-1.6209793551
 30
0.0
 11
40.0680541754
 21
-1.5520904157
 31
0.0
  0
LINE
  5
5C4
330
41B
100
AcDbEntity
  8
0
  6
Continuous
 62
     7
370
    25
100
AcDbLine
 10
40.11578235
 20
-1.6209793551
 30
0.0
 11
40.11578235
 21
-15.1228352997
 31
0.0
  0
LINE
  5
5C5
330
41B
100
AcDbEntity
  8
0
  6
Continuous
 62
     7
370
    25
100
AcDbLine
 10
40.11578235
 20
-15.1228352997
 30
0.0
 11
39.0022283639
 21
-15.7656763326
 31
0.0
  0
LINE
  5
5C6
330
41B
100
AcDbEntity
  8
0
  6
Continuous
 62
     7
370
    25
100
AcDbLine
 10
39.0022283639
 20
-15.7656763326
 30
0.0
 11
39.0022283639
 21
-3.5497114304
 31
0.0
  0
LINE
  5
5C7
330
41B
100
AcDbEntity
  8
0
  6
Continuous
 62
     7
370
    25
100
AcDbLine
 10
39.0022283639
 20
-3.5497114304
 30
0.0
 11
27.3099115096
 21
-10.2995422762
 31
0.0
  0
LINE
  5
5C8
330
41B
100
AcDbEntity
  8
0
  6
Continuous
 62
     7
370
    25
100
AcDbLine
 10
27.3099115096
 20
-10.2995422762
 30
0.0
 11
27.3099115096
 21
-22.5155071784
 31
0.0
  0
LINE
  5
5C9
330
41B
100
AcDbEntity
  8
0
  6
Continuous
 62
     7
370
    25
100
AcDbLine
 10
27.3099115096
 20
-22.5155071784
 30
0.0
 11
26.7503436368
 21
-22.8385388354
 31
0.0
  0
LINE
  5
5CA
330
41B
100
AcDbEntity
  8
0
  6
Continuous
 62
     7
370
    25
100
AcDbLine
 10
37.8886743778
 20
-15.1228352997
 30
0.0
 11
39.0022283639
 21
-15.7656763326
 31
0.0
  0
LINE
  5
5CB
330
41B
100
AcDbEntity
  8
0
  6
Continuous
 62
     7
370
    25
100
AcDbLine
 10
38.5011290701
 20
-15.4763978678
 30
0.0
 11
38.5011290701
 21
-12.1972816704
 31
0.0
  0
LINE
  5
5CC
330
41B
100
AcDbEntity
  8
0
  6
Continuous
 62
     7
370
    25
100
AcDbLine
 10
38.5011290701
 20
-11.0400737717
 30
0.0
 11
38.5011290701
 21
-3.8389898952
 31
0.0
  0
LINE
  5
5CD
330
41B
100
AcDbEntity
  8
0
  6
Continuous
 62
     7
370
    25
100
AcDbLine
 10
29.5893450721
 20
3.8772466078
 30
0.0
 11
25.8118022487
 21
6.0579756616
 31
0.0
  0
LINE
  5
5CE
330
41B
100
AcDbEntity
  8
0
  6
Continuous
 62
     7
370
    25
100
AcDbLine
 10
13.7490396195
 20
13.0216603012
 30
0.0
 11
9.9714967962
 21
15.2023893551
 31
0.0
  0
LINE
  5
5CF
330
41B
100
AcDbEntity
  8
0
  6
Continuous
 62
     7
370
    25
100
AcDbLine
 10
7.3216174587
 20
17.761403981
 30
0.0
 11
7.3216174587
 21
18.9824414591
 31
0.0
  0
LINE
  5
5D0
330
41B
100
AcDbEntity
  8
0
  6
Continuous
 62
     7
370
    25
100
AcDbLine
 10
33.266475093
 20
4.0047939551
 30
0.0
 11
23.1619229113
 21
9.8380277657
 31
0.0
  0
LINE
  5
5D1
330
41B
100
AcDbEntity
  8
0
  6
Continuous
 62
     7
370
    25
100
AcDbLine
 10
20.7117873944
 20
11.2524608926
 30
0.0
 11
7.3216174587
 21
18.9824414591
 31
0.0
  0
LINE
  5
5D2
330
41B
100
AcDbEntity
  8
0
  6
Continuous
 62
     7
370
    25
100
AcDbLine
 10
7.3216174587
 20
18.9824414591
 30
0.0
 11
7.8227167525
 21
19.271719924
 31
0.0
  0
LINE
  5
5D3
330
41B
100
AcDbEntity
  8
0
  6
Continuous
 62
     7
370
    25
100
AcDbLine
 10
33.7675743867
 20
4.2940724199
 30
0.0
 11
23.6630222051
 21
10.1273062305
 31
0.0
  0
LINE
  5
5D4
330
41B
100
AcDbEntity
  8
0
  6
Continuous
 62
     7
370
    25
100
AcDbLine
 10
21.2128866881
 20
11.5417393574
 30
0.0
 11
7.8227167525
 21
19.271719924
 31
0.0
  0
LINE
  5
5D5
330
41B
100
AcDbEntity
  8
0
  6
Continuous
 62
     7
370
    25
100
AcDbLine
 10
-0.4726269492
 20
16.0261041253
 30
0.0
 11
4.9553152382
 21
19.159588452
 31
0.0
  0
LINE
  5
5D6
330
41B
100
AcDbEntity
  8
0
  6
Continuous
 62
     7
370
    25
100
AcDbLine
 10
-0.9180485436
 20
16.2832405385
 30
0.0
 11
4.5098936438
 21
19.4167248652
 31
0.0
  0
LINE
  5
5D7
330
41B
100
AcDbEntity
  8
0
  6
Continuous
 62
     7
370
    25
100
AcDbLine
 10
4.9553152382
 20
19.159588452
 30
0.0
 11
4.5098936438
 21
19.4167248652
 31
0.0
  0
LINE
  5
5D8
330
41B
100
AcDbEntity
  8
0
  6
Continuous
 62
     7
370
    25
100
AcDbLine
 10
4.9553152382
 20
19.159588452
 30
0.0
 11
4.9553152382
 21
19.127441176
 31
0.0
  0
LINE
  5
5D9
330
41B
100
AcDbEntity
  8
0
  6
Continuous
 62
     7
370
    25
100
AcDbLine
 10
19.0696120123
 20
11.0115783596
 30
0.0
 11
13.6416698249
 21
7.8780940329
 31
0.0
  0
LINE
  5
5DA
330
41B
100
AcDbEntity
  8
0
  6
Continuous
 62
     7
370
    25
100
AcDbLine
 10
19.0696120123
 20
11.0115783596
 30
0.0
 11
19.5150336068
 21
10.7544419465
 31
0.0
  0
LINE
  5
5DB
330
41B
100
AcDbEntity
  8
0
  6
Continuous
 62
     7
370
    25
100
AcDbLine
 10
19.5150336068
 20
10.7544419465
 30
0.0
 11
14.0870914193
 21
7.6209576198
 31
0.0
  0
LINE
  5
5DC
330
41B
100
AcDbEntity
  8
0
  6
Continuous
 62
     7
370
    25
100
AcDbLine
 10
19.5150336068
 20
10.5615896366
 30
0.0
 11
19.5150336068
 21
10.7544419465
 31
0.0
  0
LINE
  5
5DD
330
41B
100
AcDbEntity
  8
0
  6
Continuous
 62
     7
370
    25
100
AcDbLine
 10
2.1168068902
 20
14.5312557886
 30
0.0
 11
4.5098936438
 21
15.9127553654
 31
0.0
  0
LINE
  5
5DE
330
41B
100
AcDbEntity
  8
0
  6
Continuous
 62
     7
370
    25
100
AcDbLine
 10
4.5098936438
 20
15.9127553654
 30
0.0
 11
16.0347565785
 21
9.2595936097
 31
0.0
  0
LINE
  5
5DF
330
41B
100
AcDbEntity
  8
0
  6
Continuous
 62
     7
370
    25
100
AcDbLine
 10
13.7941500031
 20
13.5106176507
 30
0.0
 11
18.5963470432
 21
10.7383683084
 31
0.0
  0
LINE
  5
5E0
330
41B
100
AcDbEntity
  8
0
  6
Continuous
 62
     7
370
    25
100
AcDbLine
 10
4.5098936438
 20
18.8703047628
 30
0.0
 11
4.5098936438
 21
15.9127553654
 31
0.0
  0
LINE
  5
5E1
330
41B
100
AcDbEntity
  8
0
  6
Continuous
 62
     7
370
    25
100
AcDbLine
 10
4.5098936438
 20
18.8703047628
 30
0.0
 11
9.3399340586
 21
16.0819817825
 31
0.0
  0
LINE
  5
5E2
330
41B
100
AcDbEntity
  8
0
  6
Continuous
 62
     7
370
    25
100
AcDbLine
 10
14.2395715975
 20
13.7677540639
 30
0.0
 11
13.7941500031
 21
13.5106176507
 31
0.0
  0
LINE
  5
5E3
330
41B
100
AcDbEntity
  8
0
  6
Continuous
 62
     7
370
    25
100
AcDbLine
 10
14.2395715975
 20
13.7677540639
 30
0.0
 11
19.0417686377
 21
10.9955047216
 31
0.0
  0
LINE
  5
5E4
330
41B
100
AcDbEntity
  8
0
  6
Continuous
 62
     7
370
    25
100
AcDbLine
 10
9.785355653
 20
16.3391181956
 30
0.0
 11
9.3399340586
 21
16.0819817825
 31
0.0
  0
LINE
  5
5E5
330
41B
100
AcDbEntity
  8
0
  6
Continuous
 62
     7
370
    25
100
AcDbLine
 10
4.9553152382
 20
19.127441176
 30
0.0
 11
4.5098936438
 21
18.8703047628
 31
0.0
  0
LINE
  5
5E6
330
41B
100
AcDbEntity
  8
0
  6
Continuous
 62
     7
370
    25
100
AcDbLine
 10
4.9553152382
 20
19.127441176
 30
0.0
 11
9.785355653
 21
16.3391181956
 31
0.0
  0
LINE
  5
5E7
330
41B
100
AcDbEntity
  8
0
  6
Continuous
 62
     7
370
    25
100
AcDbLine
 10
15.3676785034
 20
6.8816904319
 30
0.0
 11
20.7956206908
 21
10.0151747586
 31
0.0
  0
LINE
  5
5E8
330
41B
100
AcDbEntity
  8
0
  6
Continuous
 62
     7
370
    25
100
AcDbLine
 10
14.9222569089
 20
7.1388268451
 30
0.0
 11
20.3501990964
 21
10.2723111718
 31
0.0
  0
LINE
  5
5E9
330
41B
100
AcDbEntity
  8
0
  6
Continuous
 62
     7
370
    25
100
AcDbLine
 10
20.7956206908
 20
10.0151747586
 30
0.0
 11
20.3501990964
 21
10.2723111718
 31
0.0
  0
LINE
  5
5EA
330
41B
100
AcDbEntity
  8
0
  6
Continuous
 62
     7
370
    25
100
AcDbLine
 10
20.7956206908
 20
10.0151747586
 30
0.0
 11
20.7956206908
 21
9.9830274825
 31
0.0
  0
LINE
  5
5EB
330
41B
100
AcDbEntity
  8
0
  6
Continuous
 62
     7
370
    25
100
AcDbLine
 10
17.9571123427
 20
5.3868420952
 30
0.0
 11
20.3501990964
 21
6.768341672
 31
0.0
  0
LINE
  5
5EC
330
41B
100
AcDbEntity
  8
0
  6
Continuous
 62
     7
370
    25
100
AcDbLine
 10
20.3501990964
 20
6.768341672
 30
0.0
 11
29.2018989695
 21
1.6583641042
 31
0.0
  0
LINE
  5
5ED
330
41B
100
AcDbEntity
  8
0
  6
Continuous
 62
     7
370
    25
100
AcDbLine
 10
29.6344554556
 20
4.3662039573
 30
0.0
 11
31.7634894342
 21
3.1371388029
 31
0.0
  0
LINE
  5
5EE
330
41B
100
AcDbEntity
  8
0
  6
Continuous
 62
     7
370
    25
100
AcDbLine
 10
20.3501990964
 20
9.7258910694
 30
0.0
 11
20.3501990964
 21
6.768341672
 31
0.0
  0
LINE
  5
5EF
330
41B
100
AcDbEntity
  8
0
  6
Continuous
 62
     7
370
    25
100
AcDbLine
 10
20.3501990964
 20
9.7258910694
 30
0.0
 11
25.1802395112
 21
6.937568089
 31
0.0
  0
LINE
  5
5F0
330
41B
100
AcDbEntity
  8
0
  6
Continuous
 62
     7
370
    25
100
AcDbLine
 10
30.0798770501
 20
4.6233403705
 30
0.0
 11
29.6344554556
 21
4.3662039573
 31
0.0
  0
LINE
  5
5F1
330
41B
100
AcDbEntity
  8
0
  6
Continuous
 62
     7
370
    25
100
AcDbLine
 10
30.0798770501
 20
4.6233403705
 30
0.0
 11
32.2089110286
 21
3.394275216
 31
0.0
  0
LINE
  5
5F2
330
41B
100
AcDbEntity
  8
0
  6
Continuous
 62
     7
370
    25
100
AcDbLine
 10
25.6256611056
 20
7.1947045022
 30
0.0
 11
25.1802395112
 21
6.937568089
 31
0.0
  0
LINE
  5
5F3
330
41B
100
AcDbEntity
  8
0
  6
Continuous
 62
     7
370
    25
100
AcDbLine
 10
20.7956206908
 20
9.9830274825
 30
0.0
 11
20.3501990964
 21
9.7258910694
 31
0.0
  0
LINE
  5
5F4
330
41B
100
AcDbEntity
  8
0
  6
Continuous
 62
     7
370
    25
100
AcDbLine
 10
20.7956206908
 20
9.9830274825
 30
0.0
 11
25.6256611056
 21
7.1947045022
 31
0.0
  0
LINE
  5
5F5
330
41B
100
AcDbEntity
  8
0
  6
Continuous
 62
     7
370
    25
100
AcDbLine
 10
-6.096708074
 20
-4.5159582563
 30
0.0
 11
-6.096708074
 21
8.9858976882
 31
0.0
  0
LINE
  5
5F6
330
41B
100
AcDbEntity
  8
0
  6
Continuous
 62
     7
370
    25
100
AcDbLine
 10
-6.0410303747
 20
9.066260654
 30
0.0
 11
-6.096708074
 21
8.9858976882
 31
0.0
  0
LINE
  5
5F7
330
41B
100
AcDbEntity
  8
0
  6
Continuous
 62
     7
370
    25
100
AcDbLine
 10
-6.096708074
 20
9.0823395164
 30
0.0
 11
-6.0410303747
 21
9.066260654
 31
0.0
  0
LINE
  5
5F8
330
41B
100
AcDbEntity
  8
0
  6
Continuous
 62
     7
370
    25
100
AcDbLine
 10
-6.096708074
 20
9.0823395164
 30
0.0
 11
-6.096708074
 21
16.6048021141
 31
0.0
  0
LINE
  5
5F9
330
41B
100
AcDbEntity
  8
0
  6
Continuous
 62
     7
370
    25
100
AcDbLine
 10
-6.0410303747
 20
16.6851650798
 30
0.0
 11
-6.096708074
 21
16.6048021141
 31
0.0
  0
LINE
  5
5FA
330
41B
100
AcDbEntity
  8
0
  6
Continuous
 62
     7
370
    25
100
AcDbLine
 10
-6.096708074
 20
16.7012439423
 30
0.0
 11
-6.0410303747
 21
16.6851650798
 31
0.0
  0
LINE
  5
5FB
330
41B
100
AcDbEntity
  8
0
  6
Continuous
 62
     7
370
    25
100
AcDbLine
 10
-6.096708074
 20
16.7012439423
 30
0.0
 11
-6.096708074
 21
17.9871349846
 31
0.0
  0
LINE
  5
5FC
330
41B
100
AcDbEntity
  8
0
  6
Continuous
 62
     7
370
    25
100
AcDbLine
 10
-6.096708074
 20
17.9871349846
 30
0.0
 11
-4.9831540879
 21
18.6299760175
 31
0.0
  0
LINE
  5
5FD
330
41B
100
AcDbEntity
  8
0
  6
Continuous
 62
     7
370
    25
100
AcDbLine
 10
-4.9831540879
 20
-3.8731172234
 30
0.0
 11
-4.9831540879
 21
-1.3011261623
 31
0.0
  0
LINE
  5
5FE
330
41B
100
AcDbEntity
  8
0
  6
Continuous
 62
     7
370
    25
100
AcDbLine
 10
-4.9831540879
 20
0.5149859586
 30
0.0
 11
-4.9831540879
 21
7.057165613
 31
0.0
  0
LINE
  5
5FF
330
41B
100
AcDbEntity
  8
0
  6
Continuous
 62
     7
370
    25
100
AcDbLine
 10
-6.096708074
 20
-4.5159582563
 30
0.0
 11
-4.9831540879
 21
-3.8731172234
 31
0.0
  0
LINE
  5
600
330
41B
100
AcDbEntity
  8
0
  6
Continuous
 62
     7
370
    25
100
AcDbLine
 10
-6.7091627664
 20
17.0548065104
 30
0.0
 11
-6.096708074
 21
16.7012439423
 31
0.0
  0
LINE
  5
601
330
41B
100
AcDbEntity
  8
0
  6
Continuous
 62
     7
370
    25
100
AcDbLine
 10
-6.7091627664
 20
17.0548065104
 30
0.0
 11
-6.7091627664
 21
18.3406975527
 31
0.0
  0
LINE
  5
602
330
41B
100
AcDbEntity
  8
0
  6
Continuous
 62
     7
370
    25
100
AcDbLine
 10
-6.7091627664
 20
18.3406975527
 30
0.0
 11
-6.096708074
 21
17.9871349846
 31
0.0
  0
LINE
  5
603
330
41B
100
AcDbEntity
  8
0
  6
Continuous
 62
     7
370
    25
100
AcDbLine
 10
-6.7091627664
 20
18.3406975527
 30
0.0
 11
7.2102620601
 21
26.3762104644
 31
0.0
  0
LINE
  5
604
330
41B
100
AcDbEntity
  8
0
  6
Continuous
 62
     7
370
    25
100
AcDbLine
 10
-6.7091627664
 20
16.9583646822
 30
0.0
 11
-6.096708074
 21
16.6048021141
 31
0.0
  0
LINE
  5
605
330
41B
100
AcDbEntity
  8
0
  6
Continuous
 62
     7
370
    25
100
AcDbLine
 10
-6.6614345918
 20
17.0272536217
 30
0.0
 11
-6.7091627664
 21
16.9583646822
 31
0.0
  0
LINE
  5
606
330
41B
100
AcDbEntity
  8
0
  6
Continuous
 62
     7
370
    25
100
AcDbLine
 10
-6.7091627664
 20
9.4359020845
 30
0.0
 11
-6.096708074
 21
9.0823395164
 31
0.0
  0
LINE
  5
607
330
41B
100
AcDbEntity
  8
0
  6
Continuous
 62
     7
370
    25
100
AcDbLine
 10
-6.7091627664
 20
9.4359020845
 30
0.0
 11
-6.7091627664
 21
16.9583646822
 31
0.0
  0
LINE
  5
608
330
41B
100
AcDbEntity
  8
0
  6
Continuous
 62
     7
370
    25
100
AcDbLine
 10
-6.7091627664
 20
9.3394602563
 30
0.0
 11
-6.096708074
 21
8.9858976882
 31
0.0
  0
LINE
  5
609
330
41B
100
AcDbEntity
  8
0
  6
Continuous
 62
     7
370
    25
100
AcDbLine
 10
-6.6614345918
 20
9.4083491958
 30
0.0
 11
-6.7091627664
 21
9.3394602563
 31
0.0
  0
LINE
  5
60A
330
41B
100
AcDbEntity
  8
0
  6
Continuous
 62
     7
370
    25
100
AcDbLine
 10
-6.7091627664
 20
-4.1623956882
 30
0.0
 11
-6.096708074
 21
-4.5159582563
 31
0.0
  0
LINE
  5
60B
330
41B
100
AcDbEntity
  8
0
  6
Continuous
 62
     7
370
    25
100
AcDbLine
 10
-6.7091627664
 20
-4.1623956882
 30
0.0
 11
-6.7091627664
 21
9.3394602563
 31
0.0
  0
LINE
  5
60C
330
41B
100
AcDbEntity
  8
0
  6
Continuous
 62
     7
370
    25
100
AcDbLine
 10
-6.6562759468
 20
18.9497853934
 30
0.0
 11
6.7091627664
 21
26.6654889292
 31
0.0
  0
LINE
  5
60D
330
41B
100
AcDbEntity
  8
0
  6
Continuous
 62
     7
370
    25
100
AcDbLine
 10
-6.096708074
 20
-0.1278550744
 30
0.0
 11
-6.0438142597
 21
-0.1101691093
 31
0.0
  0
LINE
  5
60E
330
41B
100
AcDbEntity
  8
0
  6
Continuous
 62
     7
370
    25
100
AcDbLine
 10
-3.9224939161
 20
-1.3347812771
 30
0.0
 11
-6.0438142597
 21
-0.1101691093
 31
0.0
  0
LINE
  5
60F
330
41B
100
AcDbEntity
  8
0
  6
Continuous
 62
     7
370
    25
100
AcDbLine
 10
-3.9224939161
 20
-1.3347812771
 30
0.0
 11
-3.8696001018
 21
-1.4135371402
 31
0.0
  0
LINE
  5
610
330
41B
100
AcDbEntity
  8
0
  6
Continuous
 62
     7
370
    25
100
AcDbLine
 10
-3.8696001018
 20
-1.4135371402
 30
0.0
 11
-3.8167062874
 21
-1.3958511752
 31
0.0
  0
LINE
  5
611
330
41B
100
AcDbEntity
  8
0
  6
Continuous
 62
     7
370
    25
100
AcDbLine
 10
-1.6953859439
 20
-2.6204633429
 30
0.0
 11
-3.8167062874
 21
-1.3958511752
 31
0.0
  0
LINE
  5
612
330
41B
100
AcDbEntity
  8
0
  6
Continuous
 62
     7
370
    25
100
AcDbLine
 10
-1.6953859439
 20
-2.6204633429
 30
0.0
 11
-1.6424921295
 21
-2.6992192061
 31
0.0
  0
LINE
  5
613
330
41B
100
AcDbEntity
  8
0
  6
Continuous
 62
     7
370
    25
100
AcDbLine
 10
-1.6424921295
 20
-2.6992192061
 30
0.0
 11
-1.5895983152
 21
-2.6815332411
 31
0.0
  0
LINE
  5
614
330
41B
100
AcDbEntity
  8
0
  6
Continuous
 62
     7
370
    25
100
AcDbLine
 10
0.5317220284
 20
-3.9061454088
 30
0.0
 11
-1.5895983152
 21
-2.6815332411
 31
0.0
  0
LINE
  5
615
330
41B
100
AcDbEntity
  8
0
  6
Continuous
 62
     7
370
    25
100
AcDbLine
 10
0.5317220284
 20
-3.9061454088
 30
0.0
 11
0.5846158427
 21
-3.9849012719
 31
0.0
  0
LINE
  5
616
330
41B
100
AcDbEntity
  8
0
  6
Continuous
 62
     7
370
    25
100
AcDbLine
 10
0.5846158427
 20
-3.9849012719
 30
0.0
 11
0.6375096571
 21
-3.9672153069
 31
0.0
  0
LINE
  5
617
330
41B
100
AcDbEntity
  8
0
  6
Continuous
 62
     7
370
    25
100
AcDbLine
 10
2.7588300006
 20
-5.1918274747
 30
0.0
 11
0.6375096571
 21
-3.9672153069
 31
0.0
  0
LINE
  5
618
330
41B
100
AcDbEntity
  8
0
  6
Continuous
 62
     7
370
    25
100
AcDbLine
 10
2.7588300006
 20
-5.1918274747
 30
0.0
 11
2.811723815
 21
-5.2705833378
 31
0.0
  0
LINE
  5
619
330
41B
100
AcDbEntity
  8
0
  6
Continuous
 62
     7
370
    25
100
AcDbLine
 10
2.811723815
 20
-5.2705833378
 30
0.0
 11
2.8646176293
 21
-5.2528973728
 31
0.0
  0
LINE
  5
61A
330
41B
100
AcDbEntity
  8
0
  6
Continuous
 62
     7
370
    25
100
AcDbLine
 10
4.9859379729
 20
-6.4775095405
 30
0.0
 11
2.8646176293
 21
-5.2528973728
 31
0.0
  0
LINE
  5
61B
330
41B
100
AcDbEntity
  8
0
  6
Continuous
 62
     7
370
    25
100
AcDbLine
 10
4.9859379729
 20
-6.4775095405
 30
0.0
 11
5.0388317872
 21
-6.5562654037
 31
0.0
  0
LINE
  5
61C
330
41B
100
AcDbEntity
  8
0
  6
Continuous
 62
     7
370
    25
100
AcDbLine
 10
5.0388317872
 20
-6.5562654037
 30
0.0
 11
5.0917256015
 21
-6.5385794386
 31
0.0
  0
LINE
  5
61D
330
41B
100
AcDbEntity
  8
0
  6
Continuous
 62
     7
370
    25
100
AcDbLine
 10
7.2130459451
 20
-7.7631916064
 30
0.0
 11
5.0917256015
 21
-6.5385794386
 31
0.0
  0
LINE
  5
61E
330
41B
100
AcDbEntity
  8
0
  6
Continuous
 62
     7
370
    25
100
AcDbLine
 10
7.2130459451
 20
-7.7631916064
 30
0.0
 11
7.2659397594
 21
-7.8419474695
 31
0.0
  0
LINE
  5
61F
330
41B
100
AcDbEntity
  8
0
  6
Continuous
 62
     7
370
    25
100
AcDbLine
 10
7.2659397594
 20
-7.8419474695
 30
0.0
 11
7.3188335738
 21
-7.8242615045
 31
0.0
  0
LINE
  5
620
330
41B
100
AcDbEntity
  8
0
  6
Continuous
 62
     7
370
    25
100
AcDbLine
 10
9.4401539173
 20
-9.0488736722
 30
0.0
 11
7.3188335738
 21
-7.8242615045
 31
0.0
  0
LINE
  5
621
330
41B
100
AcDbEntity
  8
0
  6
Continuous
 62
     7
370
    25
100
AcDbLine
 10
9.4401539173
 20
-9.0488736722
 30
0.0
 11
9.4930477317
 21
-9.1276295354
 31
0.0
  0
LINE
  5
622
330
41B
100
AcDbEntity
  8
0
  6
Continuous
 62
     7
370
    25
100
AcDbLine
 10
9.4930477317
 20
-9.1276295354
 30
0.0
 11
9.545941546
 21
-9.1099435704
 31
0.0
  0
LINE
  5
623
330
41B
100
AcDbEntity
  8
0
  6
Continuous
 62
     7
370
    25
100
AcDbLine
 10
11.6672618896
 20
-10.3345557381
 30
0.0
 11
9.545941546
 21
-9.1099435704
 31
0.0
  0
LINE
  5
624
330
41B
100
AcDbEntity
  8
0
  6
Continuous
 62
     7
370
    25
100
AcDbLine
 10
11.6672618896
 20
-10.3345557381
 30
0.0
 11
11.7201557039
 21
-10.4133116013
 31
0.0
  0
LINE
  5
625
330
41B
100
AcDbEntity
  8
0
  6
Continuous
 62
     7
370
    25
100
AcDbLine
 10
11.7201557039
 20
-10.4133116013
 30
0.0
 11
11.7730495183
 21
-10.3956256362
 31
0.0
  0
LINE
  5
626
330
41B
100
AcDbEntity
  8
0
  6
Continuous
 62
     7
370
    25
100
AcDbLine
 10
13.8943698618
 20
-11.620237804
 30
0.0
 11
11.7730495183
 21
-10.3956256362
 31
0.0
  0
LINE
  5
627
330
41B
100
AcDbEntity
  8
0
  6
Continuous
 62
     7
370
    25
100
AcDbLine
 10
13.8943698618
 20
-11.620237804
 30
0.0
 11
13.9472636762
 21
-11.6989936671
 31
0.0
  0
LINE
  5
628
330
41B
100
AcDbEntity
  8
0
  6
Continuous
 62
     7
370
    25
100
AcDbLine
 10
13.9472636762
 20
-11.6989936671
 30
0.0
 11
14.0001574905
 21
-11.6813077021
 31
0.0
  0
LINE
  5
629
330
41B
100
AcDbEntity
  8
0
  6
Continuous
 62
     7
370
    25
100
AcDbLine
 10
16.1214778341
 20
-12.9059198698
 30
0.0
 11
14.0001574905
 21
-11.6813077021
 31
0.0
  0
LINE
  5
62A
330
41B
100
AcDbEntity
  8
0
  6
Continuous
 62
     7
370
    25
100
AcDbLine
 10
16.1214778341
 20
-12.9059198698
 30
0.0
 11
16.1743716484
 21
-12.984675733
 31
0.0
  0
LINE
  5
62B
330
41B
100
AcDbEntity
  8
0
  6
Continuous
 62
     7
370
    25
100
AcDbLine
 10
16.1743716484
 20
-12.984675733
 30
0.0
 11
16.2272654627
 21
-12.966989768
 31
0.0
  0
LINE
  5
62C
330
41B
100
AcDbEntity
  8
0
  6
Continuous
 62
     7
370
    25
100
AcDbLine
 10
18.3485858063
 20
-14.1916019357
 30
0.0
 11
16.2272654627
 21
-12.966989768
 31
0.0
  0
LINE
  5
62D
330
41B
100
AcDbEntity
  8
0
  6
Continuous
 62
     7
370
    25
100
AcDbLine
 10
18.3485858063
 20
-14.1916019357
 30
0.0
 11
18.4014796206
 21
-14.2703577988
 31
0.0
  0
LINE
  5
62E
330
41B
100
AcDbEntity
  8
0
  6
Continuous
 62
     7
370
    25
100
AcDbLine
 10
18.4014796206
 20
-14.2703577988
 30
0.0
 11
18.454373435
 21
-14.2526718338
 31
0.0
  0
LINE
  5
62F
330
41B
100
AcDbEntity
  8
0
  6
Continuous
 62
     7
370
    25
100
AcDbLine
 10
20.5756937785
 20
-15.4772840016
 30
0.0
 11
18.454373435
 21
-14.2526718338
 31
0.0
  0
LINE
  5
630
330
41B
100
AcDbEntity
  8
0
  6
Continuous
 62
     7
370
    25
100
AcDbLine
 10
20.5756937785
 20
-15.4772840016
 30
0.0
 11
20.6285875929
 21
-15.5560398647
 31
0.0
  0
LINE
  5
631
330
41B
100
AcDbEntity
  8
0
  6
Continuous
 62
     7
370
    25
100
AcDbLine
 10
20.6285875929
 20
-15.5560398647
 30
0.0
 11
20.6814814072
 21
-15.5383538997
 31
0.0
  0
LINE
  5
632
330
41B
100
AcDbEntity
  8
0
  6
Continuous
 62
     7
370
    25
100
AcDbLine
 10
22.8028017508
 20
-16.7629660674
 30
0.0
 11
20.6814814072
 21
-15.5383538997
 31
0.0
  0
LINE
  5
633
330
41B
100
AcDbEntity
  8
0
  6
Continuous
 62
     7
370
    25
100
AcDbLine
 10
22.8028017508
 20
-16.7629660674
 30
0.0
 11
22.8556955651
 21
-16.8417219306
 31
0.0
  0
LINE
  5
634
330
41B
100
AcDbEntity
  8
0
  6
Continuous
 62
     7
370
    25
100
AcDbLine
 10
22.8556955651
 20
-16.8417219306
 30
0.0
 11
22.9085893795
 21
-16.8240359655
 31
0.0
  0
LINE
  5
635
330
41B
100
AcDbEntity
  8
0
  6
Continuous
 62
     7
370
    25
100
AcDbLine
 10
25.029909723
 20
-18.0486481333
 30
0.0
 11
22.9085893795
 21
-16.8240359655
 31
0.0
  0
LINE
  5
636
330
41B
100
AcDbEntity
  8
0
  6
Continuous
 62
     7
370
    25
100
AcDbLine
 10
25.029909723
 20
-18.0486481333
 30
0.0
 11
25.0828035374
 21
-18.1274039964
 31
0.0
  0
LINE
  5
637
330
41B
100
AcDbEntity
  8
0
  6
Continuous
 62
     7
370
    25
100
AcDbLine
 10
25.0828035374
 20
-22.5155071784
 30
0.0
 11
25.0828035374
 21
-9.0136512339
 31
0.0
  0
LINE
  5
638
330
41B
100
AcDbEntity
  8
0
  6
Continuous
 62
     7
370
    25
100
AcDbLine
 10
25.0828035374
 20
-18.6578340514
 30
0.0
 11
-6.096708074
 21
-0.6582851293
 31
0.0
  0
LINE
  5
639
330
41B
100
AcDbEntity
  8
0
  6
Continuous
 62
     7
370
    25
100
AcDbLine
 10
25.029909723
 20
-18.0486481333
 30
0.0
 11
25.0828035374
 21
-18.0181131842
 31
0.0
  0
LINE
  5
63A
330
41B
100
AcDbEntity
  8
0
  6
Continuous
 62
     7
370
    25
100
AcDbLine
 10
27.3099115096
 20
-16.7324311184
 30
0.0
 11
37.8886743778
 21
-10.6254413055
 31
0.0
  0
LINE
  5
63B
330
41B
100
AcDbEntity
  8
0
  6
Continuous
 62
     7
370
    25
100
AcDbLine
 10
27.3099115096
 20
-16.8417219306
 30
0.0
 11
37.8886743778
 21
-10.7347321177
 31
0.0
  0
LINE
  5
63C
330
41B
100
AcDbEntity
  8
0
  6
Continuous
 62
     7
370
    25
100
AcDbLine
 10
39.0022283639
 20
-11.3293522366
 30
0.0
 11
27.3099115096
 21
-18.0791830823
 31
0.0
  0
LINE
  5
63D
330
41B
100
AcDbEntity
  8
0
  6
Continuous
 62
     7
370
    25
100
AcDbLine
 10
39.0022283639
 20
-11.9080032056
 30
0.0
 11
27.3099115096
 21
-18.6578340514
 31
0.0
  0
LINE
  5
63E
330
41B
100
AcDbEntity
  8
0
  6
Continuous
 62
     7
370
    25
100
AcDbLine
 10
39.0022283639
 20
-11.3293522366
 30
0.0
 11
37.9415681921
 21
-10.7170461527
 31
0.0
  0
LINE
  5
63F
330
41B
100
AcDbEntity
  8
0
  6
Continuous
 62
     7
370
    25
100
AcDbLine
 10
27.3099115096
 20
-16.8545709146
 30
0.0
 11
37.9415681921
 21
-10.7170461527
 31
0.0
  0
LINE
  5
640
330
41B
100
AcDbEntity
  8
0
  6
Continuous
 62
     7
370
    25
100
AcDbLine
 10
22.9085893795
 20
-16.8240359655
 30
0.0
 11
25.0828035374
 21
-15.5688888487
 31
0.0
  0
LINE
  5
641
330
41B
100
AcDbEntity
  8
0
  6
Continuous
 62
     7
370
    25
100
AcDbLine
 10
27.3099115096
 20
-14.2832067829
 30
0.0
 11
36.828014206
 21
-8.7885230539
 31
0.0
  0
LINE
  5
642
330
41B
100
AcDbEntity
  8
0
  6
Continuous
 62
     7
370
    25
100
AcDbLine
 10
36.828014206
 20
-8.7885230539
 30
0.0
 11
37.8886743778
 21
-9.4008291378
 31
0.0
  0
LINE
  5
643
330
41B
100
AcDbEntity
  8
0
  6
Continuous
 62
     7
370
    25
100
AcDbLine
 10
37.8886743778
 20
-10.7347321177
 30
0.0
 11
37.9415681921
 21
-10.7170461527
 31
0.0
  0
LINE
  5
644
330
41B
100
AcDbEntity
  8
0
  6
Continuous
 62
     7
370
    25
100
AcDbLine
 10
22.8556955651
 20
-16.8417219306
 30
0.0
 11
25.0828035374
 21
-15.5560398647
 31
0.0
  0
LINE
  5
645
330
41B
100
AcDbEntity
  8
0
  6
Continuous
 62
     7
370
    25
100
AcDbLine
 10
27.3099115096
 20
-14.2703577988
 30
0.0
 11
36.7751203916
 21
-8.8062090189
 31
0.0
  0
LINE
  5
646
330
41B
100
AcDbEntity
  8
0
  6
Continuous
 62
     7
370
    25
100
AcDbLine
 10
36.7751203916
 20
-8.8062090189
 30
0.0
 11
36.828014206
 21
-8.7885230539
 31
0.0
  0
LINE
  5
647
330
41B
100
AcDbEntity
  8
0
  6
Continuous
 62
     7
370
    25
100
AcDbLine
 10
22.8028017508
 20
-16.7629660674
 30
0.0
 11
25.0828035374
 21
-15.4467490525
 31
0.0
  0
LINE
  5
648
330
41B
100
AcDbEntity
  8
0
  6
Continuous
 62
     7
370
    25
100
AcDbLine
 10
27.3099115096
 20
-14.1610669866
 30
0.0
 11
36.7222265773
 21
-8.7274531558
 31
0.0
  0
LINE
  5
649
330
41B
100
AcDbEntity
  8
0
  6
Continuous
 62
     7
370
    25
100
AcDbLine
 10
36.7222265773
 20
-8.7274531558
 30
0.0
 11
36.7751203916
 21
-8.8062090189
 31
0.0
  0
LINE
  5
64A
330
41B
100
AcDbEntity
  8
0
  6
Continuous
 62
     7
370
    25
100
AcDbLine
 10
20.6814814072
 20
-15.5383538997
 30
0.0
 11
25.0828035374
 21
-12.997524717
 31
0.0
  0
LINE
  5
64B
330
41B
100
AcDbEntity
  8
0
  6
Continuous
 62
     7
370
    25
100
AcDbLine
 10
27.3099115096
 20
-11.7118426512
 30
0.0
 11
34.6009062337
 21
-7.502840988
 31
0.0
  0
LINE
  5
64C
330
41B
100
AcDbEntity
  8
0
  6
Continuous
 62
     7
370
    25
100
AcDbLine
 10
34.6009062337
 20
-7.502840988
 30
0.0
 11
36.7222265773
 21
-8.7274531558
 31
0.0
  0
LINE
  5
64D
330
41B
100
AcDbEntity
  8
0
  6
Continuous
 62
     7
370
    25
100
AcDbLine
 10
20.6285875929
 20
-15.5560398647
 30
0.0
 11
25.0828035374
 21
-12.984675733
 31
0.0
  0
LINE
  5
64E
330
41B
100
AcDbEntity
  8
0
  6
Continuous
 62
     7
370
    25
100
AcDbLine
 10
27.3099115096
 20
-11.6989936671
 30
0.0
 11
34.5480124194
 21
-7.5205269531
 31
0.0
  0
LINE
  5
64F
330
41B
100
AcDbEntity
  8
0
  6
Continuous
 62
     7
370
    25
100
AcDbLine
 10
34.5480124194
 20
-7.5205269531
 30
0.0
 11
34.6009062337
 21
-7.502840988
 31
0.0
  0
LINE
  5
650
330
41B
100
AcDbEntity
  8
0
  6
Continuous
 62
     7
370
    25
100
AcDbLine
 10
20.5756937785
 20
-15.4772840016
 30
0.0
 11
25.0828035374
 21
-12.8753849208
 31
0.0
  0
LINE
  5
651
330
41B
100
AcDbEntity
  8
0
  6
Continuous
 62
     7
370
    25
100
AcDbLine
 10
27.3099115096
 20
-11.5897028549
 30
0.0
 11
34.495118605
 21
-7.4417710899
 31
0.0
  0
LINE
  5
652
330
41B
100
AcDbEntity
  8
0
  6
Continuous
 62
     7
370
    25
100
AcDbLine
 10
34.495118605
 20
-7.4417710899
 30
0.0
 11
34.5480124194
 21
-7.5205269531
 31
0.0
  0
LINE
  5
653
330
41B
100
AcDbEntity
  8
0
  6
Continuous
 62
     7
370
    25
100
AcDbLine
 10
18.454373435
 20
-14.2526718338
 30
0.0
 11
25.0828035374
 21
-10.4261605853
 31
0.0
  0
LINE
  5
654
330
41B
100
AcDbEntity
  8
0
  6
Continuous
 62
     7
370
    25
100
AcDbLine
 10
33.3776856927
 20
-6.7966908006
 30
0.0
 11
34.495118605
 21
-7.4417710899
 31
0.0
  0
LINE
  5
655
330
41B
100
AcDbEntity
  8
0
  6
Continuous
 62
     7
370
    25
100
AcDbLine
 10
18.4014796206
 20
-14.2703577988
 30
0.0
 11
25.0828035374
 21
-10.4133116013
 31
0.0
  0
LINE
  5
656
330
41B
100
AcDbEntity
  8
0
  6
Continuous
 62
     7
370
    25
100
AcDbLine
 10
18.3485858063
 20
-14.1916019357
 30
0.0
 11
25.0828035374
 21
-10.304020789
 31
0.0
  0
LINE
  5
657
330
41B
100
AcDbEntity
  8
0
  6
Continuous
 62
     7
370
    25
100
AcDbLine
 10
16.2272654627
 20
-12.966989768
 30
0.0
 11
22.96536212
 21
-9.0771693649
 31
0.0
  0
LINE
  5
658
330
41B
100
AcDbEntity
  8
0
  6
Continuous
 62
     7
370
    25
100
AcDbLine
 10
16.1743716484
 20
-12.984675733
 30
0.0
 11
22.9542333676
 21
-9.0707448729
 31
0.0
  0
LINE
  5
659
330
41B
100
AcDbEntity
  8
0
  6
Continuous
 62
     7
370
    25
100
AcDbLine
 10
16.1214778341
 20
-12.9059198698
 30
0.0
 11
22.8595744913
 21
-9.0160994668
 31
0.0
  0
LINE
  5
65A
330
41B
100
AcDbEntity
  8
0
  6
Continuous
 62
     7
370
    25
100
AcDbLine
 10
14.0001574905
 20
-11.6813077021
 30
0.0
 11
20.7382541478
 21
-7.791487299
 31
0.0
  0
LINE
  5
65B
330
41B
100
AcDbEntity
  8
0
  6
Continuous
 62
     7
370
    25
100
AcDbLine
 10
13.9472636762
 20
-11.6989936671
 30
0.0
 11
20.7271253953
 21
-7.785062807
 31
0.0
  0
LINE
  5
65C
330
41B
100
AcDbEntity
  8
0
  6
Continuous
 62
     7
370
    25
100
AcDbLine
 10
13.8943698618
 20
-11.620237804
 30
0.0
 11
20.6324665191
 21
-7.7304174009
 31
0.0
  0
LINE
  5
65D
330
41B
100
AcDbEntity
  8
0
  6
Continuous
 62
     7
370
    25
100
AcDbLine
 10
11.7730495183
 20
-10.3956256362
 30
0.0
 11
18.5111461755
 21
-6.5058052332
 31
0.0
  0
LINE
  5
65E
330
41B
100
AcDbEntity
  8
0
  6
Continuous
 62
     7
370
    25
100
AcDbLine
 10
11.7201557039
 20
-10.4133116013
 30
0.0
 11
18.5000174231
 21
-6.4993807411
 31
0.0
  0
LINE
  5
65F
330
41B
100
AcDbEntity
  8
0
  6
Continuous
 62
     7
370
    25
100
AcDbLine
 10
11.6672618896
 20
-10.3345557381
 30
0.0
 11
18.4053585468
 21
-6.444735335
 31
0.0
  0
LINE
  5
660
330
41B
100
AcDbEntity
  8
0
  6
Continuous
 62
     7
370
    25
100
AcDbLine
 10
9.545941546
 20
-9.1099435704
 30
0.0
 11
16.2840382033
 21
-5.2201231673
 31
0.0
  0
LINE
  5
661
330
41B
100
AcDbEntity
  8
0
  6
Continuous
 62
     7
370
    25
100
AcDbLine
 10
9.4930477317
 20
-9.1276295354
 30
0.0
 11
16.2729094509
 21
-5.2136986753
 31
0.0
  0
LINE
  5
662
330
41B
100
AcDbEntity
  8
0
  6
Continuous
 62
     7
370
    25
100
AcDbLine
 10
9.4401539173
 20
-9.0488736722
 30
0.0
 11
16.1782505746
 21
-5.1590532692
 31
0.0
  0
LINE
  5
663
330
41B
100
AcDbEntity
  8
0
  6
Continuous
 62
     7
370
    25
100
AcDbLine
 10
7.3188335738
 20
-7.8242615045
 30
0.0
 11
14.056930231
 21
-3.9344411014
 31
0.0
  0
LINE
  5
664
330
41B
100
AcDbEntity
  8
0
  6
Continuous
 62
     7
370
    25
100
AcDbLine
 10
7.2659397594
 20
-7.8419474695
 30
0.0
 11
14.0458014786
 21
-3.9280166094
 31
0.0
  0
LINE
  5
665
330
41B
100
AcDbEntity
  8
0
  6
Continuous
 62
     7
370
    25
100
AcDbLine
 10
7.2130459451
 20
-7.7631916064
 30
0.0
 11
13.9511426024
 21
-3.8733712033
 31
0.0
  0
LINE
  5
666
330
41B
100
AcDbEntity
  8
0
  6
Continuous
 62
     7
370
    25
100
AcDbLine
 10
5.0917256015
 20
-6.5385794386
 30
0.0
 11
11.8298222588
 21
-2.6487590356
 31
0.0
  0
LINE
  5
667
330
41B
100
AcDbEntity
  8
0
  6
Continuous
 62
     7
370
    25
100
AcDbLine
 10
5.0388317872
 20
-6.5562654037
 30
0.0
 11
11.8186935064
 21
-2.6423345435
 31
0.0
  0
LINE
  5
668
330
41B
100
AcDbEntity
  8
0
  6
Continuous
 62
     7
370
    25
100
AcDbLine
 10
4.9859379729
 20
-6.4775095405
 30
0.0
 11
11.7240346301
 21
-2.5876891374
 31
0.0
  0
LINE
  5
669
330
41B
100
AcDbEntity
  8
0
  6
Continuous
 62
     7
370
    25
100
AcDbLine
 10
2.8646176293
 20
-5.2528973728
 30
0.0
 11
9.6027142865
 21
-1.3630769697
 31
0.0
  0
LINE
  5
66A
330
41B
100
AcDbEntity
  8
0
  6
Continuous
 62
     7
370
    25
100
AcDbLine
 10
2.811723815
 20
-5.2705833378
 30
0.0
 11
9.5915855341
 21
-1.3566524777
 31
0.0
  0
LINE
  5
66B
330
41B
100
AcDbEntity
  8
0
  6
Continuous
 62
     7
370
    25
100
AcDbLine
 10
2.7588300006
 20
-5.1918274747
 30
0.0
 11
9.4969266579
 21
-1.3020070716
 31
0.0
  0
LINE
  5
66C
330
41B
100
AcDbEntity
  8
0
  6
Continuous
 62
     7
370
    25
100
AcDbLine
 10
0.6375096571
 20
-3.9672153069
 30
0.0
 11
7.3756063143
 21
-0.0773949038
 31
0.0
  0
LINE
  5
66D
330
41B
100
AcDbEntity
  8
0
  6
Continuous
 62
     7
370
    25
100
AcDbLine
 10
0.5846158427
 20
-3.9849012719
 30
0.0
 11
7.3644775619
 21
-0.0709704118
 31
0.0
  0
LINE
  5
66E
330
41B
100
AcDbEntity
  8
0
  6
Continuous
 62
     7
370
    25
100
AcDbLine
 10
0.5317220284
 20
-3.9061454088
 30
0.0
 11
7.2698186856
 21
-0.0163250057
 31
0.0
  0
LINE
  5
66F
330
41B
100
AcDbEntity
  8
0
  6
Continuous
 62
     7
370
    25
100
AcDbLine
 10
-1.5895983152
 20
-2.6815332411
 30
0.0
 11
5.1484983421
 21
1.208287162
 31
0.0
  0
LINE
  5
670
330
41B
100
AcDbEntity
  8
0
  6
Continuous
 62
     7
370
    25
100
AcDbLine
 10
-1.6424921295
 20
-2.6992192061
 30
0.0
 11
5.1373695897
 21
1.214711654
 31
0.0
  0
LINE
  5
671
330
41B
100
AcDbEntity
  8
0
  6
Continuous
 62
     7
370
    25
100
AcDbLine
 10
-1.6953859439
 20
-2.6204633429
 30
0.0
 11
5.0427107134
 21
1.2693570601
 31
0.0
  0
LINE
  5
672
330
41B
100
AcDbEntity
  8
0
  6
Continuous
 62
     7
370
    25
100
AcDbLine
 10
-3.8167062874
 20
-1.3958511752
 30
0.0
 11
2.9213903698
 21
2.4939692279
 31
0.0
  0
LINE
  5
673
330
41B
100
AcDbEntity
  8
0
  6
Continuous
 62
     7
370
    25
100
AcDbLine
 10
-3.8696001018
 20
-1.4135371402
 30
0.0
 11
2.9102616174
 21
2.5003937199
 31
0.0
  0
LINE
  5
674
330
41B
100
AcDbEntity
  8
0
  6
Continuous
 62
     7
370
    25
100
AcDbLine
 10
-3.9224939161
 20
-1.3347812771
 30
0.0
 11
2.8156027411
 21
2.555039126
 31
0.0
  0
LINE
  5
675
330
41B
100
AcDbEntity
  8
0
  6
Continuous
 62
     7
370
    25
100
AcDbLine
 10
-6.0438142597
 20
-0.1101691093
 30
0.0
 11
0.6942823976
 21
3.7796512937
 31
0.0
  0
LINE
  5
676
330
41B
100
AcDbEntity
  8
0
  6
Continuous
 62
     7
370
    25
100
AcDbLine
 10
-6.096708074
 20
-0.1278550744
 30
0.0
 11
0.6831536452
 21
3.7860757858
 31
0.0
  0
LINE
  5
677
330
41B
100
AcDbEntity
  8
0
  6
Continuous
 62
     7
370
    25
100
AcDbLine
 10
-4.9831540879
 20
0.6242767708
 30
0.0
 11
0.5884947689
 21
3.8407211919
 31
0.0
  0
LINE
  5
678
330
41B
100
AcDbEntity
  8
0
  6
Continuous
 62
     7
370
    25
100
AcDbLine
 10
-4.9831540879
 20
1.8488889385
 30
0.0
 11
-0.4721654029
 21
4.4530272757
 31
0.0
  0
LINE
  5
679
330
41B
100
AcDbEntity
  8
0
  6
Continuous
 62
     7
370
    25
100
AcDbLine
 10
37.8886743778
 20
-15.1228352997
 30
0.0
 11
37.8886743778
 21
-12.5508442386
 31
0.0
  0
LINE
  5
67A
330
41B
100
AcDbEntity
  8
0
  6
Continuous
 62
     7
370
    25
100
AcDbLine
 10
37.8886743778
 20
-10.7347321177
 30
0.0
 11
37.8886743778
 21
-4.1925524633
 31
0.0
  0
LINE
  5
67B
330
41B
100
AcDbEntity
  8
0
  6
Continuous
 62
     7
370
    25
100
AcDbLine
 10
37.8886743778
 20
6.673132805
 30
0.0
 11
37.8886743778
 21
7.3802579412
 31
0.0
  0
LINE
  5
67C
330
41B
100
AcDbEntity
  8
0
  6
Continuous
 62
     7
370
    25
100
AcDbLine
 10
37.8886743778
 20
7.3802579412
 30
0.0
 11
38.5011290701
 21
7.0266953731
 31
0.0
  0
LINE
  5
67D
330
41B
100
AcDbEntity
  8
0
  6
Continuous
 62
     7
370
    25
100
AcDbLine
 10
10.8571513647
 20
9.4855623241
 30
0.0
 11
11.0798621619
 21
9.6141305307
 31
0.0
  0
LINE
  5
67E
330
41B
100
AcDbEntity
  8
0
  6
Continuous
 62
     7
370
    25
100
AcDbLine
 10
11.0798621619
 20
9.6141305307
 30
0.0
 11
11.636639155
 21
9.292605526
 31
0.0
  0
LINE
  5
67F
330
41B
100
AcDbEntity
  8
0
  6
Continuous
 62
     7
370
    25
100
AcDbLine
 10
11.636639155
 20
9.292605526
 30
0.0
 11
11.636639155
 21
9.035573601
 31
0.0
  0
LINE
  5
680
330
41B
100
AcDbEntity
  8
0
  6
Continuous
 62
     7
370
    25
100
AcDbLine
 10
14.755223811
 20
7.235253
 30
0.0
 11
23.6630222051
 21
12.3776155546
 31
0.0
  0
LINE
  5
681
330
41B
100
AcDbEntity
  8
0
  6
Continuous
 62
     7
370
    25
100
AcDbLine
 10
23.6630222051
 20
12.3776155546
 30
0.0
 11
23.6630222051
 21
10.1273062305
 31
0.0
  0
LINE
  5
682
330
41B
100
AcDbEntity
  8
0
  6
Continuous
 62
     7
370
    25
100
AcDbLine
 10
23.6630222051
 20
10.1273062305
 30
0.0
 11
23.1619229113
 21
9.8380277657
 31
0.0
  0
LINE
  5
683
330
41B
100
AcDbEntity
  8
0
  6
Continuous
 62
     7
370
    25
100
AcDbLine
 10
23.1619229113
 20
9.8380277657
 30
0.0
 11
23.1619229113
 21
8.6169902875
 31
0.0
  0
LINE
  5
684
330
41B
100
AcDbEntity
  8
0
  6
Continuous
 62
     7
370
    25
100
AcDbLine
 10
26.8088122159
 20
0.2768645273
 30
0.0
 11
-5.5956087803
 21
18.9835385856
 31
0.0
  0
LINE
  5
685
330
41B
100
AcDbEntity
  8
0
  6
Continuous
 62
     7
370
    25
100
AcDbLine
 10
11.0798621619
 20
9.6141305307
 30
0.0
 11
10.5787628681
 21
9.9034089955
 31
0.0
  0
LINE
  5
686
330
41B
100
AcDbEntity
  8
0
  6
Continuous
 62
     7
370
    25
100
AcDbLine
 10
10.3560520709
 20
9.7748407889
 30
0.0
 11
10.5787628681
 21
9.9034089955
 31
0.0
  0
LINE
  5
687
330
41B
100
AcDbEntity
  8
0
  6
Continuous
 62
     7
370
    25
100
AcDbLine
 10
23.6630222051
 20
12.3776155546
 30
0.0
 11
23.1619229113
 21
12.6668940194
 31
0.0
  0
LINE
  5
688
330
41B
100
AcDbEntity
  8
0
  6
Continuous
 62
     7
370
    25
100
AcDbLine
 10
14.2541245173
 20
7.5245314648
 30
0.0
 11
23.1619229113
 21
12.6668940194
 31
0.0
  0
LINE
  5
689
330
41B
100
AcDbEntity
  8
0
  6
Continuous
 62
     7
370
    25
100
AcDbLine
 10
-6.0410303747
 20
18.0192770363
 30
0.0
 11
-6.0131915251
 21
18.0032060104
 31
0.0
  0
LINE
  5
68A
330
41B
100
AcDbEntity
  8
0
  6
Continuous
 62
     7
370
    25
100
AcDbLine
 10
26.1963575235
 20
0.6304270955
 30
0.0
 11
25.0828035374
 21
-0.0124139375
 31
0.0
  0
LINE
  5
68B
330
41B
100
AcDbEntity
  8
0
  6
Continuous
 62
     7
370
    25
100
AcDbLine
 10
25.1384812367
 20
0.0197281142
 30
0.0
 11
25.110642387
 21
0.03579914
 31
0.0
  0
LINE
  5
68C
330
41B
100
AcDbEntity
  8
0
  6
Continuous
 62
     7
370
    25
100
AcDbLine
 10
24.9992869884
 20
0.03579914
 30
0.0
 11
25.110642387
 21
0.03579914
 31
0.0
  0
LINE
  5
68D
330
41B
100
AcDbEntity
  8
0
  6
Continuous
 62
     7
370
    25
100
AcDbLine
 10
24.9992869884
 20
0.03579914
 30
0.0
 11
-6.0131915251
 21
17.9389219071
 31
0.0
  0
LINE
  5
68E
330
41B
100
AcDbEntity
  8
0
  6
Continuous
 62
     7
370
    25
100
AcDbLine
 10
-6.0131915251
 20
16.6530308648
 30
0.0
 11
-6.0131915251
 21
18.0032060104
 31
0.0
  0
LINE
  5
68F
330
41B
100
AcDbEntity
  8
0
  6
Continuous
 62
     7
370
    25
100
AcDbLine
 10
24.9992869884
 20
-1.2500919023
 30
0.0
 11
25.0828035374
 21
-1.2500919023
 31
0.0
  0
LINE
  5
690
330
41B
100
AcDbEntity
  8
0
  6
Continuous
 62
     7
370
    25
100
AcDbLine
 10
24.9992869884
 20
-1.2500919023
 30
0.0
 11
24.9992869884
 21
0.03579914
 31
0.0
  0
LINE
  5
691
330
41B
100
AcDbEntity
  8
0
  6
Continuous
 62
     7
370
    25
100
AcDbLine
 10
25.110642387
 20
0.0036570884
 30
0.0
 11
25.110642387
 21
0.03579914
 31
0.0
  0
LINE
  5
692
330
41B
100
AcDbEntity
  8
0
  6
Continuous
 62
     7
370
    25
100
AcDbLine
 10
24.9992869884
 20
-1.2500919023
 30
0.0
 11
-6.0131915251
 21
16.6530308648
 31
0.0
  0
LINE
  5
693
330
41B
100
AcDbEntity
  8
0
  6
Continuous
 62
     7
370
    25
100
AcDbLine
 10
-6.0410303747
 20
16.7333859939
 30
0.0
 11
-6.0410303747
 21
18.0192770363
 31
0.0
  0
LINE
  5
694
330
41B
100
AcDbEntity
  8
0
  6
Continuous
 62
     7
370
    25
100
AcDbLine
 10
-6.0410303747
 20
16.7333859939
 30
0.0
 11
-6.0131915251
 21
16.7173149681
 31
0.0
  0
LINE
  5
695
330
41B
100
AcDbEntity
  8
0
  6
Continuous
 62
     7
370
    25
100
AcDbLine
 10
24.9992869884
 20
-1.3465337305
 30
0.0
 11
24.9992869884
 21
-8.8689963282
 31
0.0
  0
LINE
  5
696
330
41B
100
AcDbEntity
  8
0
  6
Continuous
 62
     7
370
    25
100
AcDbLine
 10
24.9992869884
 20
-8.8689963282
 30
0.0
 11
9.5208865813
 21
0.0664940295
 31
0.0
  0
LINE
  5
697
330
41B
100
AcDbEntity
  8
0
  6
Continuous
 62
     7
370
    25
100
AcDbLine
 10
9.5208865813
 20
0.0664940295
 30
0.0
 11
9.5208865813
 21
7.5889566272
 31
0.0
  0
LINE
  5
698
330
41B
100
AcDbEntity
  8
0
  6
Continuous
 62
     7
370
    25
100
AcDbLine
 10
9.5208865813
 20
7.5889566272
 30
0.0
 11
24.9992869884
 21
-1.3465337305
 31
0.0
  0
LINE
  5
699
330
41B
100
AcDbEntity
  8
0
  6
Continuous
 62
     7
370
    25
100
AcDbLine
 10
9.5208865813
 20
7.5889566272
 30
0.0
 11
9.6044167052
 21
7.6371775413
 31
0.0
  0
LINE
  5
69A
330
41B
100
AcDbEntity
  8
0
  6
Continuous
 62
     7
370
    25
100
AcDbLine
 10
24.9992869884
 20
-1.3465337305
 30
0.0
 11
25.0828171123
 21
-1.2983128164
 31
0.0
  0
LINE
  5
69B
330
41B
100
AcDbEntity
  8
0
  6
Continuous
 62
     7
370
    25
100
AcDbLine
 10
24.9992869884
 20
-8.8689963282
 30
0.0
 11
25.0828035374
 21
-8.8207832507
 31
0.0
  0
LINE
  5
69C
330
41B
100
AcDbEntity
  8
0
  6
Continuous
 62
     7
370
    25
100
AcDbLine
 10
25.0828035374
 20
-1.2983049798
 30
0.0
 11
25.6952582297
 21
-1.6518675479
 31
0.0
  0
LINE
  5
69D
330
41B
100
AcDbEntity
  8
0
  6
Continuous
 62
     7
370
    25
100
AcDbLine
 10
25.0828035374
 20
-1.2983049798
 30
0.0
 11
25.0828035374
 21
-0.0124139375
 31
0.0
  0
LINE
  5
69E
330
41B
100
AcDbEntity
  8
0
  6
Continuous
 62
     7
370
    25
100
AcDbLine
 10
25.0828035374
 20
-0.0124139375
 30
0.0
 11
25.6952582297
 21
-0.3659765056
 31
0.0
  0
LINE
  5
69F
330
41B
100
AcDbEntity
  8
0
  6
Continuous
 62
     7
370
    25
100
AcDbLine
 10
25.7466350337
 20
-9.2930585766
 30
0.0
 11
25.6952582297
 21
-9.367213802
 31
0.0
  0
LINE
  5
6A0
330
41B
100
AcDbEntity
  8
0
  6
Continuous
 62
     7
370
    25
100
AcDbLine
 10
25.7466350337
 20
-1.6741541508
 30
0.0
 11
25.6952582297
 21
-1.7483093761
 31
0.0
  0
LINE
  5
6A1
330
41B
100
AcDbEntity
  8
0
  6
Continuous
 62
     7
370
    25
100
AcDbLine
 10
25.0828035374
 20
-1.394746808
 30
0.0
 11
25.6952582297
 21
-1.7483093761
 31
0.0
  0
LINE
  5
6A2
330
41B
100
AcDbEntity
  8
0
  6
Continuous
 62
     7
370
    25
100
AcDbLine
 10
25.1305317119
 20
-1.3258578685
 30
0.0
 11
25.0828035374
 21
-1.394746808
 31
0.0
  0
LINE
  5
6A3
330
41B
100
AcDbEntity
  8
0
  6
Continuous
 62
     7
370
    25
100
AcDbLine
 10
25.0828035374
 20
-8.9172094057
 30
0.0
 11
25.6952582297
 21
-9.2707719738
 31
0.0
  0
LINE
  5
6A4
330
41B
100
AcDbEntity
  8
0
  6
Continuous
 62
     7
370
    25
100
AcDbLine
 10
25.0828035374
 20
-8.9172094057
 30
0.0
 11
25.0828035374
 21
-1.394746808
 31
0.0
  0
LINE
  5
6A5
330
41B
100
AcDbEntity
  8
0
  6
Continuous
 62
     7
370
    25
100
AcDbLine
 10
25.0828035374
 20
-9.0136512339
 30
0.0
 11
25.6952582297
 21
-9.367213802
 31
0.0
  0
LINE
  5
6A6
330
41B
100
AcDbEntity
  8
0
  6
Continuous
 62
     7
370
    25
100
AcDbLine
 10
25.1305317119
 20
-8.9447622944
 30
0.0
 11
25.0828035374
 21
-9.0136512339
 31
0.0
  0
LINE
  5
6A7
330
41B
100
AcDbEntity
  8
0
  6
Continuous
 62
     7
370
    25
100
AcDbLine
 10
25.0828035374
 20
-22.5155071784
 30
0.0
 11
25.6952582297
 21
-22.8690697465
 31
0.0
  0
LINE
  5
6A8
330
41B
100
AcDbEntity
  8
0
  6
Continuous
 62
     8
370
    25
100
AcDbLine
 10
35.29966136
 20
8.5532599719
 30
0.0
 11
35.3430259205
 21
8.5782937998
 31
0.0
  0
LINE
  5
6A9
330
41B
100
AcDbEntity
  8
0
  6
Continuous
 62
     8
370
    25
100
AcDbLine
 10
26.3912294711
 20
13.6959882354
 30
0.0
 11
26.4345940316
 21
13.7210220633
 31
0.0
  0
LINE
  5
6AA
330
41B
100
AcDbEntity
  8
0
  6
Continuous
 62
     8
370
    25
100
AcDbLine
 10
19.4593559075
 20
17.6976736654
 30
0.0
 11
19.502720468
 21
17.7227074933
 31
0.0
  0
LINE
  5
6AB
330
41B
100
AcDbEntity
  8
0
  6
Continuous
 62
     8
370
    25
100
AcDbLine
 10
10.5509240185
 20
22.8404019288
 30
0.0
 11
10.594288579
 21
22.8654357567
 31
0.0
  0
LINE
  5
6AC
330
41B
100
AcDbEntity
  8
0
  6
Continuous
 62
     8
370
    25
100
AcDbLine
 10
26.7503436368
 20
-1.717778465
 30
0.0
 11
26.701485716
 21
-1.647258895
 31
0.0
  0
LINE
  5
6AD
330
41B
100
AcDbEntity
  8
0
  6
Continuous
 62
     8
370
    25
100
AcDbLine
 10
26.7503436368
 20
-9.3366828909
 30
0.0
 11
26.701485716
 21
-9.2661633208
 31
0.0
  0
ARC
  5
6AE
330
41B
100
AcDbEntity
  8
0
  6
Continuous
 62
     7
370
    25
100
AcDbCircle
 10
26.190873375
 20
-0.5332514353
 30
0.0
 40
1.223493514351713
100
AcDbArc
 50
246.103737007
 51
297.2112635229
  0
ARC
  5
6AF
330
41B
100
AcDbEntity
  8
0
  6
Continuous
 62
     7
370
    25
100
AcDbCircle
 10
26.1910396461
 20
0.7468936226
 30
0.0
 40
1.218309950327035
100
AcDbArc
 50
245.9871234521
 51
297.3278770778
  0
ARC
  5
6B0
330
41B
100
AcDbEntity
  8
0
  6
Continuous
 62
     7
370
    25
100
AcDbCircle
 10
26.1935666438
 20
-0.5598978655
 30
0.0
 40
1.197473191511633
100
AcDbArc
 50
258.6079073022
 51
281.3920926978
  0
ARC
  5
6B1
330
41B
100
AcDbEntity
  8
0
  6
Continuous
 62
     7
370
    25
100
AcDbCircle
 10
26.190873375
 20
-0.6296932635
 30
0.0
 40
1.223493514351714
100
AcDbArc
 50
246.103737007
 51
297.2112635229
  0
ARC
  5
6B2
330
41B
100
AcDbEntity
  8
0
  6
Continuous
 62
     7
370
    25
100
AcDbCircle
 10
26.190873375
 20
-8.1521558612
 30
0.0
 40
1.223493514351713
100
AcDbArc
 50
246.103737007
 51
297.2112635229
  0
ARC
  5
6B3
330
41B
100
AcDbEntity
  8
0
  6
Continuous
 62
     7
370
    25
100
AcDbCircle
 10
26.1935666438
 20
-8.1788022913
 30
0.0
 40
1.197473191511687
100
AcDbArc
 50
258.6079073022
 51
281.3920926978
  0
ARC
  5
6B4
330
41B
100
AcDbEntity
  8
0
  6
Continuous
 62
     7
370
    25
100
AcDbCircle
 10
26.190873375
 20
-8.2485976893
 30
0.0
 40
1.223493514351717
100
AcDbArc
 50
246.103737007
 51
297.2112635229
  0
ARC
  5
6B5
330
41B
100
AcDbEntity
  8
0
  6
Continuous
 62
     7
370
    25
100
AcDbCircle
 10
26.190873375
 20
-21.7504536339
 30
0.0
 40
1.223493514351707
100
AcDbArc
 50
246.103737007
 51
297.2112635229
  0
ARC
  5
6B6
330
41B
100
AcDbEntity
  8
0
  6
Continuous
 62
     7
370
    25
100
AcDbCircle
 10
-6.5278706754
 20
17.3655614824
 30
0.0
 40
0.3597714203672946
100
AcDbArc
 50
183.679376207
 51
239.7410375707
  0
ARC
  5
6B7
330
41B
100
AcDbEntity
  8
0
  6
Continuous
 62
     7
370
    25
100
AcDbCircle
 10
-6.5278706754
 20
9.7466570566
 30
0.0
 40
0.3597714203672783
100
AcDbArc
 50
183.679376207
 51
239.7410375707
  0
ARC
  5
6B8
330
41B
100
AcDbEntity
  8
0
  6
Continuous
 62
     7
370
    25
100
AcDbCircle
 10
-6.5278706754
 20
-3.8516407161
 30
0.0
 40
0.3597714204060043
100
AcDbArc
 50
183.6793762103
 51
239.7410375674
  0
VIEWPORT
  5
6C1
330
41B
100
AcDbEntity
  8
0
100
AcDbViewport
 10
0.0
 20
0.0
 30
0.0
 40
8.4
 41
6.4
 68
     1
 69
     1
 12
23.2677165354
 22
13.7795275591
 13
0.0
 23
0.0
 14
0.5
 24
0.5
 15
0.5
 25
0.5
 16
0.0
 26
0.0
 36
1.0
 17
0.0
 27
0.0
 37
0.0
 42
50.0
 43
0.0
 44
0.0
 45
36.7154105737
 50
0.0
 51
0.0
 72
   100
 90
   557152
  1

281
     0
 71
     1
 74
     0
110
0.0
120
0.0
130
0.0
111
1.0
121
0.0
131
0.0
112
0.0
122
1.0
132
0.0
 79
     0
146
0.0
  0
ENDBLK
  5
41E
330
41B
100
AcDbEntity
  8
0
100
AcDbBlockEnd
  0
ENDSEC
  0
SECTION
  2
ENTITIES
  0
SPLINE
  5
95
330
1F
100
AcDbEntity
  8
0
  6
Continuous
 62
     7
370
    25
100
AcDbSpline
210
0.0
220
0.0
230
1.0
 70
    24
 71
     3
 72
     8
 73
     4
 74
     0
 42
0.000000001
 43
0.00000001
 40
0.0
 40
0.0
 40
0.0
 40
0.0
 40
1.0
 40
1.0
 40
1.0
 40
1.0
 10
46.18110236220473
 20
25.98425196850393
 30
0.0
 10
46.18110236220473
 20
25.96439966331496
 30
0.0
 10
46.18110236220473
 20
25.94471146694882
 30
0.0
 10
46.18110236220473
 20
25.9251968503937
 30
0.0
  0
SPLINE
  5
99
330
1F
100
AcDbEntity
  8
0
  6
Continuous
 62
     7
370
    25
100
AcDbSpline
210
0.0
220
0.0
230
1.0
 70
    24
 71
     3
 72
     8
 73
     4
 74
     0
 42
0.000000001
 43
0.00000001
 40
0.0
 40
0.0
 40
0.0
 40
0.0
 40
1.0
 40
1.0
 40
1.0
 40
1.0
 10
46.18110236220473
 20
25.86614173228346
 30
0.0
 10
46.18110236220473
 20
25.88599403747244
 30
0.0
 10
46.18110236220473
 20
25.90568223383859
 30
0.0
 10
46.18110236220473
 20
25.9251968503937
 30
0.0
  0
SPLINE
  5
9B
330
1F
100
AcDbEntity
  8
0
  6
Continuous
 62
     7
370
    25
100
AcDbSpline
210
0.0
220
0.0
230
1.0
 70
    24
 71
     3
 72
     8
 73
     4
 74
     0
 42
0.000000001
 43
0.00000001
 40
0.0
 40
0.0
 40
0.0
 40
0.0
 40
1.0
 40
1.0
 40
1.0
 40
1.0
 10
46.18110236220473
 20
16.65354330708661
 30
0.0
 10
46.18110236220473
 20
16.63369100194488
 30
0.0
 10
46.18110236220473
 20
16.61400280557874
 30
0.0
 10
46.18110236220473
 20
16.59448818897637
 30
0.0
  0
SPLINE
  5
A1
330
1F
100
AcDbEntity
  8
0
  6
Continuous
 62
     7
370
    25
100
AcDbSpline
210
0.0
220
0.0
230
1.0
 70
    24
 71
     3
 72
     8
 73
     4
 74
     0
 42
0.000000001
 43
0.00000001
 40
0.0
 40
0.0
 40
0.0
 40
0.0
 40
1.0
 40
1.0
 40
1.0
 40
1.0
 10
46.18110236220473
 20
16.53543307086613
 30
0.0
 10
46.18110236220473
 20
16.55528537600787
 30
0.0
 10
46.18110236220473
 20
16.57497357237401
 30
0.0
 10
46.18110236220473
 20
16.59448818897637
 30
0.0
  0
SPLINE
  5
BF
330
1F
100
AcDbEntity
  8
0
  6
Continuous
 62
     7
370
    25
100
AcDbSpline
210
0.0
220
0.0
230
1.0
 70
    24
 71
     3
 72
     8
 73
     4
 74
     0
 42
0.000000001
 43
0.00000001
 40
0.0
 40
0.0
 40
0.0
 40
0.0
 40
1.0
 40
1.0
 40
1.0
 40
1.0
 10
0.354330708661422
 20
25.9251968503937
 30
0.0
 10
0.354330708661422
 20
25.94470723615748
 30
0.0
 10
0.354330708661422
 20
25.96439550785433
 30
0.0
 10
0.354330708661422
 20
25.98425196850394
 30
0.0
  0
SPLINE
  5
C3
330
1F
100
AcDbEntity
  8
0
  6
Continuous
 62
     7
370
    25
100
AcDbSpline
210
0.0
220
0.0
230
1.0
 70
    24
 71
     3
 72
     8
 73
     4
 74
     0
 42
0.000000001
 43
0.00000001
 40
0.0
 40
0.0
 40
0.0
 40
0.0
 40
1.0
 40
1.0
 40
1.0
 40
1.0
 10
0.354330708661422
 20
25.9251968503937
 30
0.0
 10
0.354330708661422
 20
25.90568646462993
 30
0.0
 10
0.354330708661422
 20
25.88599819293307
 30
0.0
 10
0.354330708661422
 20
25.86614173228347
 30
0.0
  0
SPLINE
  5
C5
330
1F
100
AcDbEntity
  8
0
  6
Continuous
 62
     7
370
    25
100
AcDbSpline
210
0.0
220
0.0
230
1.0
 70
    24
 71
     3
 72
     8
 73
     4
 74
     0
 42
0.000000001
 43
0.00000001
 40
0.0
 40
0.0
 40
0.0
 40
0.0
 40
1.0
 40
1.0
 40
1.0
 40
1.0
 10
0.3543307086614176
 20
16.59448818897638
 30
0.0
 10
0.3543307086614176
 20
16.61399857474017
 30
0.0
 10
0.3543307086614176
 20
16.63368684643701
 30
0.0
 10
0.3543307086614176
 20
16.65354330708662
 30
0.0
  0
SPLINE
  5
D0
330
1F
100
AcDbEntity
  8
0
  6
Continuous
 62
     7
370
    25
100
AcDbSpline
210
0.0
220
0.0
230
1.0
 70
    24
 71
     3
 72
     8
 73
     4
 74
     0
 42
0.000000001
 43
0.00000001
 40
0.0
 40
0.0
 40
0.0
 40
0.0
 40
1.0
 40
1.0
 40
1.0
 40
1.0
 10
0.3543307086614176
 20
16.59448818897638
 30
0.0
 10
0.3543307086614176
 20
16.5749778032126
 30
0.0
 10
0.3543307086614176
 20
16.55528953151575
 30
0.0
 10
0.3543307086614176
 20
16.53543307086614
 30
0.0
  0
LINE
  5
12D
330
1F
100
AcDbEntity
  8
0
  6
Continuous
 62
     7
370
    25
100
AcDbLine
 10
23.2283464567
 20
25.8661417323
 30
0.0
 11
23.2283464567
 21
16.6535433071
 31
0.0
  0
LINE
  5
12E
330
1F
100
AcDbEntity
  8
0
  6
Continuous
 62
     7
370
    25
100
AcDbLine
 10
23.2283464567
 20
16.6535433071
 30
0.0
 11
1.3385826772
 21
16.6535433071
 31
0.0
  0
LINE
  5
12F
330
1F
100
AcDbEntity
  8
0
  6
Continuous
 62
     7
370
    25
100
AcDbLine
 10
1.3385826772
 20
16.6535433071
 30
0.0
 11
1.3385826772
 21
25.8661417323
 31
0.0
  0
LINE
  5
130
330
1F
100
AcDbEntity
  8
0
  6
Continuous
 62
     7
370
    25
100
AcDbLine
 10
1.3385826772
 20
25.8661417323
 30
0.0
 11
23.2283464567
 21
25.8661417323
 31
0.0
  0
LINE
  5
131
330
1F
100
AcDbEntity
  8
0
  6
Continuous
 62
     7
370
    25
100
AcDbLine
 10
45.1968503937
 20
14.9606299213
 30
0.0
 11
45.1968503937
 21
16.5354330709
 31
0.0
  0
LINE
  5
132
330
1F
100
AcDbEntity
  8
0
  6
Continuous
 62
     7
370
    25
100
AcDbLine
 10
45.2755905512
 20
14.9606299213
 30
0.0
 11
45.2755905512
 21
16.5354330709
 31
0.0
  0
LINE
  5
133
330
1F
100
AcDbEntity
  8
0
  6
Continuous
 62
     7
370
    25
100
AcDbLine
 10
45.3149606299
 20
14.9606299213
 30
0.0
 11
1.2204724409
 21
14.9606299213
 31
0.0
  0
LINE
  5
134
330
1F
100
AcDbEntity
  8
0
  6
Continuous
 62
     7
370
    25
100
AcDbLine
 10
1.3385826772
 20
14.9606299213
 30
0.0
 11
1.3385826772
 21
16.5354330709
 31
0.0
  0
LINE
  5
135
330
1F
100
AcDbEntity
  8
0
  6
Continuous
 62
     7
370
    25
100
AcDbLine
 10
1.2598425197
 20
14.9606299213
 30
0.0
 11
1.2598425197
 21
16.5354330709
 31
0.0
  0
LINE
  5
136
330
1F
100
AcDbEntity
  8
0
  6
Continuous
 62
     7
370
    25
100
AcDbLine
 10
8.7007874016
 20
0.0
 30
0.0
 11
10.2755905512
 21
0.0
 31
0.0
  0
LINE
  5
137
330
1F
100
AcDbEntity
  8
0
  6
Continuous
 62
     7
370
    25
100
AcDbLine
 10
8.7007874016
 20
0.0
 30
0.0
 11
8.7007874016
 21
4.7244094488
 31
0.0
  0
LINE
  5
138
330
1F
100
AcDbEntity
  8
0
  6
Continuous
 62
     7
370
    25
100
AcDbLine
 10
10.2755905512
 20
0.0
 30
0.0
 11
10.2755905512
 21
4.7244094488
 31
0.0
  0
LINE
  5
139
330
1F
100
AcDbEntity
  8
0
  6
Continuous
 62
     7
370
    25
100
AcDbLine
 10
45.3149606299
 20
24.8031496063
 30
0.0
 11
45.1968503937
 21
24.8031496063
 31
0.0
  0
LINE
  5
13A
330
1F
100
AcDbEntity
  8
0
  6
Continuous
 62
     7
370
    25
100
AcDbLine
 10
1.3385826772
 20
24.8031496063
 30
0.0
 11
1.2204724409
 21
24.8031496063
 31
0.0
  0
LINE
  5
13B
330
1F
100
AcDbEntity
  8
0
  6
Continuous
 62
     7
370
    25
100
AcDbLine
 10
36.2598425197
 20
0.0
 30
0.0
 11
36.2598425197
 21
4.7244094488
 31
0.0
  0
LINE
  5
13C
330
1F
100
AcDbEntity
  8
0
  6
Continuous
 62
     7
370
    25
100
AcDbLine
 10
36.2598425197
 20
0.0
 30
0.0
 11
37.8346456693
 21
0.0
 31
0.0
  0
LINE
  5
13D
330
1F
100
AcDbEntity
  8
0
  6
Continuous
 62
     7
370
    25
100
AcDbLine
 10
37.8346456693
 20
0.0
 30
0.0
 11
37.8346456693
 21
4.7244094488
 31
0.0
  0
LINE
  5
13E
330
1F
100
AcDbEntity
  8
0
  6
Continuous
 62
     7
370
    25
100
AcDbLine
 10
46.8897637795
 20
16.5354330709
 30
0.0
 11
-0.3543307087
 21
16.5354330709
 31
0.0
  0
LINE
  5
13F
330
1F
100
AcDbEntity
  8
0
  6
Continuous
 62
     7
370
    25
100
AcDbLine
 10
46.8897637795
 20
16.5354330709
 30
0.0
 11
46.8897637795
 21
0.0
 31
0.0
  0
LINE
  5
140
330
1F
100
AcDbEntity
  8
0
  6
Continuous
 62
     7
370
    25
100
AcDbLine
 10
45.3149606299
 20
0.0
 30
0.0
 11
46.8897637795
 21
0.0
 31
0.0
  0
LINE
  5
141
330
1F
100
AcDbEntity
  8
0
  6
Continuous
 62
     7
370
    25
100
AcDbLine
 10
45.3149606299
 20
16.6535433071
 30
0.0
 11
46.8897637795
 21
16.6535433071
 31
0.0
  0
LINE
  5
142
330
1F
100
AcDbEntity
  8
0
  6
Continuous
 62
     7
370
    25
100
AcDbLine
 10
45.3149606299
 20
25.8661417323
 30
0.0
 11
46.8897637795
 21
25.8661417323
 31
0.0
  0
LINE
  5
143
330
1F
100
AcDbEntity
  8
0
  6
Continuous
 62
     7
370
    25
100
AcDbLine
 10
46.8897637795
 20
25.8661417323
 30
0.0
 11
46.8897637795
 21
16.6535433071
 31
0.0
  0
LINE
  5
144
330
1F
100
AcDbEntity
  8
0
  6
Continuous
 62
     7
370
    25
100
AcDbLine
 10
46.811023622
 20
25.9251968504
 30
0.0
 11
46.8897637795
 21
25.9842519685
 31
0.0
  0
LINE
  5
145
330
1F
100
AcDbEntity
  8
0
  6
Continuous
 62
     7
370
    25
100
AcDbLine
 10
45.3149606299
 20
25.9251968504
 30
0.0
 11
46.811023622
 21
25.9251968504
 31
0.0
  0
LINE
  5
146
330
1F
100
AcDbEntity
  8
0
  6
Continuous
 62
     7
370
    25
100
AcDbLine
 10
46.8897637795
 20
25.8661417323
 30
0.0
 11
46.811023622
 21
25.9251968504
 31
0.0
  0
LINE
  5
147
330
1F
100
AcDbEntity
  8
0
  6
Continuous
 62
     7
370
    25
100
AcDbLine
 10
46.811023622
 20
16.594488189
 30
0.0
 11
46.8897637795
 21
16.6535433071
 31
0.0
  0
LINE
  5
148
330
1F
100
AcDbEntity
  8
0
  6
Continuous
 62
     7
370
    25
100
AcDbLine
 10
45.3149606299
 20
16.594488189
 30
0.0
 11
46.811023622
 21
16.594488189
 31
0.0
  0
LINE
  5
149
330
1F
100
AcDbEntity
  8
0
  6
Continuous
 62
     7
370
    25
100
AcDbLine
 10
46.1811023622
 20
27.5590551181
 30
0.0
 11
46.1811023622
 21
0.0
 31
0.0
  0
LINE
  5
14A
330
1F
100
AcDbEntity
  8
0
  6
Continuous
 62
     7
370
    25
100
AcDbLine
 10
46.8897637795
 20
27.5590551181
 30
0.0
 11
46.8897637795
 21
25.9842519685
 31
0.0
  0
LINE
  5
14B
330
1F
100
AcDbEntity
  8
0
  6
Continuous
 62
     7
370
    25
100
AcDbLine
 10
46.8897637795
 20
16.5354330709
 30
0.0
 11
46.811023622
 21
16.594488189
 31
0.0
  0
LINE
  5
14C
330
1F
100
AcDbEntity
  8
0
  6
Continuous
 62
     7
370
    25
100
AcDbLine
 10
45.3149606299
 20
19.2913385827
 30
0.0
 11
45.1968503937
 21
19.2913385827
 31
0.0
  0
LINE
  5
14D
330
1F
100
AcDbEntity
  8
0
  6
Continuous
 62
     7
370
    25
100
AcDbLine
 10
1.3385826772
 20
19.2913385827
 30
0.0
 11
1.2204724409
 21
19.2913385827
 31
0.0
  0
LINE
  5
14E
330
1F
100
AcDbEntity
  8
0
  6
Continuous
 62
     7
370
    25
100
AcDbLine
 10
-0.3543307087
 20
16.6535433071
 30
0.0
 11
1.2204724409
 21
16.6535433071
 31
0.0
  0
LINE
  5
14F
330
1F
100
AcDbEntity
  8
0
  6
Continuous
 62
     7
370
    25
100
AcDbLine
 10
-0.3543307087
 20
25.8661417323
 30
0.0
 11
1.2204724409
 21
25.8661417323
 31
0.0
  0
LINE
  5
150
330
1F
100
AcDbEntity
  8
0
  6
Continuous
 62
     7
370
    25
100
AcDbLine
 10
0.3543307087
 20
0.0
 30
0.0
 11
0.3543307087
 21
27.5590551181
 31
0.0
  0
LINE
  5
151
330
1F
100
AcDbEntity
  8
0
  6
Continuous
 62
     7
370
    25
100
AcDbLine
 10
-0.2755905512
 20
16.594488189
 30
0.0
 11
1.2204724409
 21
16.594488189
 31
0.0
  0
LINE
  5
152
330
1F
100
AcDbEntity
  8
0
  6
Continuous
 62
     7
370
    25
100
AcDbLine
 10
1.2204724409
 20
0.0
 30
0.0
 11
1.2204724409
 21
27.5590551181
 31
0.0
  0
LINE
  5
153
330
1F
100
AcDbEntity
  8
0
  6
Continuous
 62
     7
370
    25
100
AcDbLine
 10
-0.2755905512
 20
25.9251968504
 30
0.0
 11
1.2204724409
 21
25.9251968504
 31
0.0
  0
LINE
  5
154
330
1F
100
AcDbEntity
  8
0
  6
Continuous
 62
     7
370
    25
100
AcDbLine
 10
-0.3543307087
 20
0.0
 30
0.0
 11
1.2204724409
 21
0.0
 31
0.0
  0
LINE
  5
155
330
1F
100
AcDbEntity
  8
0
  6
Continuous
 62
     7
370
    25
100
AcDbLine
 10
-0.3543307087
 20
16.6535433071
 30
0.0
 11
-0.3543307087
 21
25.8661417323
 31
0.0
  0
LINE
  5
156
330
1F
100
AcDbEntity
  8
0
  6
Continuous
 62
     7
370
    25
100
AcDbLine
 10
-0.2755905512
 20
25.9251968504
 30
0.0
 11
-0.3543307087
 21
25.9842519685
 31
0.0
  0
LINE
  5
157
330
1F
100
AcDbEntity
  8
0
  6
Continuous
 62
     7
370
    25
100
AcDbLine
 10
-0.3543307087
 20
25.8661417323
 30
0.0
 11
-0.2755905512
 21
25.9251968504
 31
0.0
  0
LINE
  5
158
330
1F
100
AcDbEntity
  8
0
  6
Continuous
 62
     7
370
    25
100
AcDbLine
 10
-0.2755905512
 20
16.594488189
 30
0.0
 11
-0.3543307087
 21
16.6535433071
 31
0.0
  0
LINE
  5
159
330
1F
100
AcDbEntity
  8
0
  6
Continuous
 62
     7
370
    25
100
AcDbLine
 10
-0.3543307087
 20
0.0
 30
0.0
 11
-0.3543307087
 21
16.5354330709
 31
0.0
  0
LINE
  5
15A
330
1F
100
AcDbEntity
  8
0
  6
Continuous
 62
     7
370
    25
100
AcDbLine
 10
-0.3543307087
 20
25.9842519685
 30
0.0
 11
-0.3543307087
 21
27.5590551181
 31
0.0
  0
LINE
  5
15B
330
1F
100
AcDbEntity
  8
0
  6
Continuous
 62
     7
370
    25
100
AcDbLine
 10
-0.3543307087
 20
16.5354330709
 30
0.0
 11
-0.2755905512
 21
16.594488189
 31
0.0
  0
LINE
  5
15C
330
1F
100
AcDbEntity
  8
0
  6
Continuous
 62
     7
370
    25
100
AcDbLine
 10
4.2952755906
 20
5.4330708661
 30
0.0
 11
4.3700787402
 21
5.374015748
 31
0.0
  0
LINE
  5
15D
330
1F
100
AcDbEntity
  8
0
  6
Continuous
 62
     7
370
    25
100
AcDbLine
 10
4.3700787402
 20
5.374015748
 30
0.0
 11
4.4448818898
 21
5.4330708661
 31
0.0
  0
LINE
  5
15E
330
1F
100
AcDbEntity
  8
0
  6
Continuous
 62
     7
370
    25
100
AcDbLine
 10
7.4448818898
 20
5.4330708661
 30
0.0
 11
7.5196850394
 21
5.374015748
 31
0.0
  0
LINE
  5
15F
330
1F
100
AcDbEntity
  8
0
  6
Continuous
 62
     7
370
    25
100
AcDbLine
 10
7.5196850394
 20
5.374015748
 30
0.0
 11
7.594488189
 21
5.4330708661
 31
0.0
  0
LINE
  5
160
330
1F
100
AcDbEntity
  8
0
  6
Continuous
 62
     7
370
    25
100
AcDbLine
 10
10.594488189
 20
5.4330708661
 30
0.0
 11
10.6692913386
 21
5.374015748
 31
0.0
  0
LINE
  5
161
330
1F
100
AcDbEntity
  8
0
  6
Continuous
 62
     7
370
    25
100
AcDbLine
 10
10.6692913386
 20
5.374015748
 30
0.0
 11
10.7440944882
 21
5.4330708661
 31
0.0
  0
LINE
  5
162
330
1F
100
AcDbEntity
  8
0
  6
Continuous
 62
     7
370
    25
100
AcDbLine
 10
13.8188976378
 20
5.374015748
 30
0.0
 11
13.8937007874
 21
5.4330708661
 31
0.0
  0
LINE
  5
163
330
1F
100
AcDbEntity
  8
0
  6
Continuous
 62
     7
370
    25
100
AcDbLine
 10
16.8937007874
 20
5.4330708661
 30
0.0
 11
16.968503937
 21
5.374015748
 31
0.0
  0
LINE
  5
164
330
1F
100
AcDbEntity
  8
0
  6
Continuous
 62
     7
370
    25
100
AcDbLine
 10
23.2677165354
 20
5.374015748
 30
0.0
 11
23.342519685
 21
5.4330708661
 31
0.0
  0
LINE
  5
165
330
1F
100
AcDbEntity
  8
0
  6
Continuous
 62
     7
370
    25
100
AcDbLine
 10
26.342519685
 20
5.4330708661
 30
0.0
 11
26.4173228346
 21
5.374015748
 31
0.0
  0
LINE
  5
166
330
1F
100
AcDbEntity
  8
0
  6
Continuous
 62
     7
370
    25
100
AcDbLine
 10
29.4921259843
 20
5.4330708661
 30
0.0
 11
29.5669291339
 21
5.374015748
 31
0.0
  0
LINE
  5
167
330
1F
100
AcDbEntity
  8
0
  6
Continuous
 62
     7
370
    25
100
AcDbLine
 10
32.6417322835
 20
5.4330708661
 30
0.0
 11
32.7165354331
 21
5.374015748
 31
0.0
  0
LINE
  5
168
330
1F
100
AcDbEntity
  8
0
  6
Continuous
 62
     7
370
    25
100
AcDbLine
 10
32.7165354331
 20
5.374015748
 30
0.0
 11
32.7913385827
 21
5.4330708661
 31
0.0
  0
LINE
  5
169
330
1F
100
AcDbEntity
  8
0
  6
Continuous
 62
     7
370
    25
100
AcDbLine
 10
35.7913385827
 20
5.4330708661
 30
0.0
 11
35.8661417323
 21
5.374015748
 31
0.0
  0
LINE
  5
16A
330
1F
100
AcDbEntity
  8
0
  6
Continuous
 62
     7
370
    25
100
AcDbLine
 10
35.8661417323
 20
5.374015748
 30
0.0
 11
35.9409448819
 21
5.4330708661
 31
0.0
  0
LINE
  5
16B
330
1F
100
AcDbEntity
  8
0
  6
Continuous
 62
     7
370
    25
100
AcDbLine
 10
38.9409448819
 20
5.4330708661
 30
0.0
 11
39.0157480315
 21
5.374015748
 31
0.0
  0
LINE
  5
16C
330
1F
100
AcDbEntity
  8
0
  6
Continuous
 62
     7
370
    25
100
AcDbLine
 10
39.0157480315
 20
5.374015748
 30
0.0
 11
39.0905511811
 21
5.4330708661
 31
0.0
  0
LINE
  5
16D
330
1F
100
AcDbEntity
  8
0
  6
Continuous
 62
     7
370
    25
100
AcDbLine
 10
42.0905511811
 20
5.4330708661
 30
0.0
 11
42.1653543307
 21
5.374015748
 31
0.0
  0
LINE
  5
16E
330
1F
100
AcDbEntity
  8
0
  6
Continuous
 62
     7
370
    25
100
AcDbLine
 10
42.1653543307
 20
5.374015748
 30
0.0
 11
42.2401574803
 21
5.4330708661
 31
0.0
  0
LINE
  5
16F
330
1F
100
AcDbEntity
  8
0
  6
Continuous
 62
     7
370
    25
100
AcDbLine
 10
45.2401574803
 20
5.4330708661
 30
0.0
 11
45.3149606299
 21
5.374015748
 31
0.0
  0
LINE
  5
170
330
1F
100
AcDbEntity
  8
0
  6
Continuous
 62
     7
370
    25
100
AcDbLine
 10
1.2204724409
 20
5.374015748
 30
0.0
 11
1.2952755906
 21
5.4330708661
 31
0.0
  0
LINE
  5
171
330
1F
100
AcDbEntity
  8
0
  6
Continuous
 62
     7
370
    25
100
AcDbLine
 10
20.0433070866
 20
5.4330708661
 30
0.0
 11
20.1181102362
 21
5.374015748
 31
0.0
  0
LINE
  5
172
330
1F
100
AcDbEntity
  8
0
  6
Continuous
 62
     7
370
    25
100
AcDbLine
 10
45.3149606299
 20
4.7244094488
 30
0.0
 11
1.2204724409
 21
4.7244094488
 31
0.0
  0
LINE
  5
173
330
1F
100
AcDbEntity
  8
0
  6
Continuous
 62
     7
370
    25
100
AcDbLine
 10
26.4173228346
 20
5.374015748
 30
0.0
 11
26.4921259843
 21
5.4330708661
 31
0.0
  0
LINE
  5
174
330
1F
100
AcDbEntity
  8
0
  6
Continuous
 62
     7
370
    25
100
AcDbLine
 10
4.2952755906
 20
5.4330708661
 30
0.0
 11
1.2952755906
 21
5.4330708661
 31
0.0
  0
LINE
  5
175
330
1F
100
AcDbEntity
  8
0
  6
Continuous
 62
     7
370
    25
100
AcDbLine
 10
29.5669291339
 20
5.374015748
 30
0.0
 11
29.6417322835
 21
5.4330708661
 31
0.0
  0
LINE
  5
176
330
1F
100
AcDbEntity
  8
0
  6
Continuous
 62
     7
370
    25
100
AcDbLine
 10
7.4448818898
 20
5.4330708661
 30
0.0
 11
4.4448818898
 21
5.4330708661
 31
0.0
  0
LINE
  5
177
330
1F
100
AcDbEntity
  8
0
  6
Continuous
 62
     7
370
    25
100
AcDbLine
 10
10.594488189
 20
5.4330708661
 30
0.0
 11
7.594488189
 21
5.4330708661
 31
0.0
  0
LINE
  5
178
330
1F
100
AcDbEntity
  8
0
  6
Continuous
 62
     7
370
    25
100
AcDbLine
 10
13.7440944882
 20
5.4330708661
 30
0.0
 11
10.7440944882
 21
5.4330708661
 31
0.0
  0
LINE
  5
179
330
1F
100
AcDbEntity
  8
0
  6
Continuous
 62
     7
370
    25
100
AcDbLine
 10
16.8937007874
 20
5.4330708661
 30
0.0
 11
13.8937007874
 21
5.4330708661
 31
0.0
  0
LINE
  5
17A
330
1F
100
AcDbEntity
  8
0
  6
Continuous
 62
     7
370
    25
100
AcDbLine
 10
20.0433070866
 20
5.4330708661
 30
0.0
 11
17.0433070866
 21
5.4330708661
 31
0.0
  0
LINE
  5
17B
330
1F
100
AcDbEntity
  8
0
  6
Continuous
 62
     7
370
    25
100
AcDbLine
 10
23.1929133858
 20
5.4330708661
 30
0.0
 11
20.1929133858
 21
5.4330708661
 31
0.0
  0
LINE
  5
17C
330
1F
100
AcDbEntity
  8
0
  6
Continuous
 62
     7
370
    25
100
AcDbLine
 10
26.342519685
 20
5.4330708661
 30
0.0
 11
23.342519685
 21
5.4330708661
 31
0.0
  0
LINE
  5
17D
330
1F
100
AcDbEntity
  8
0
  6
Continuous
 62
     7
370
    25
100
AcDbLine
 10
29.4921259843
 20
5.4330708661
 30
0.0
 11
26.4921259843
 21
5.4330708661
 31
0.0
  0
LINE
  5
17E
330
1F
100
AcDbEntity
  8
0
  6
Continuous
 62
     7
370
    25
100
AcDbLine
 10
32.6417322835
 20
5.4330708661
 30
0.0
 11
29.6417322835
 21
5.4330708661
 31
0.0
  0
LINE
  5
17F
330
1F
100
AcDbEntity
  8
0
  6
Continuous
 62
     7
370
    25
100
AcDbLine
 10
35.7913385827
 20
5.4330708661
 30
0.0
 11
32.7913385827
 21
5.4330708661
 31
0.0
  0
LINE
  5
180
330
1F
100
AcDbEntity
  8
0
  6
Continuous
 62
     7
370
    25
100
AcDbLine
 10
38.9409448819
 20
5.4330708661
 30
0.0
 11
35.9409448819
 21
5.4330708661
 31
0.0
  0
LINE
  5
181
330
1F
100
AcDbEntity
  8
0
  6
Continuous
 62
     7
370
    25
100
AcDbLine
 10
42.0905511811
 20
5.4330708661
 30
0.0
 11
39.0905511811
 21
5.4330708661
 31
0.0
  0
LINE
  5
182
330
1F
100
AcDbEntity
  8
0
  6
Continuous
 62
     7
370
    25
100
AcDbLine
 10
45.2401574803
 20
5.4330708661
 30
0.0
 11
42.2401574803
 21
5.4330708661
 31
0.0
  0
LINE
  5
183
330
1F
100
AcDbEntity
  8
0
  6
Continuous
 62
     7
370
    25
100
AcDbLine
 10
13.7440944882
 20
5.4330708661
 30
0.0
 11
13.8188976378
 21
5.374015748
 31
0.0
  0
LINE
  5
184
330
1F
100
AcDbEntity
  8
0
  6
Continuous
 62
     7
370
    25
100
AcDbLine
 10
16.968503937
 20
5.374015748
 30
0.0
 11
17.0433070866
 21
5.4330708661
 31
0.0
  0
LINE
  5
185
330
1F
100
AcDbEntity
  8
0
  6
Continuous
 62
     7
370
    25
100
AcDbLine
 10
20.1181102362
 20
5.374015748
 30
0.0
 11
20.1929133858
 21
5.4330708661
 31
0.0
  0
LINE
  5
186
330
1F
100
AcDbEntity
  8
0
  6
Continuous
 62
     7
370
    25
100
AcDbLine
 10
23.1929133858
 20
5.4330708661
 30
0.0
 11
23.2677165354
 21
5.374015748
 31
0.0
  0
LINE
  5
187
330
1F
100
AcDbEntity
  8
0
  6
Continuous
 62
     7
370
    25
100
AcDbLine
 10
23.6220472441
 20
16.5354330709
 30
0.0
 11
23.6220472441
 21
16.6535433071
 31
0.0
  0
LINE
  5
188
330
1F
100
AcDbEntity
  8
0
  6
Continuous
 62
     7
370
    25
100
AcDbLine
 10
23.6220472441
 20
25.8661417323
 30
0.0
 11
23.6220472441
 21
25.9842519685
 31
0.0
  0
LINE
  5
189
330
1F
100
AcDbEntity
  8
0
  6
Continuous
 62
     7
370
    25
100
AcDbLine
 10
22.9133858268
 20
16.5354330709
 30
0.0
 11
22.9133858268
 21
16.6535433071
 31
0.0
  0
LINE
  5
18A
330
1F
100
AcDbEntity
  8
0
  6
Continuous
 62
     7
370
    25
100
AcDbLine
 10
22.9133858268
 20
25.8661417323
 30
0.0
 11
22.9133858268
 21
25.9842519685
 31
0.0
  0
LINE
  5
18B
330
1F
100
AcDbEntity
  8
0
  6
Continuous
 62
     7
370
    25
100
AcDbLine
 10
23.6220472441
 20
25.905511811
 30
0.0
 11
22.9133858268
 21
25.905511811
 31
0.0
  0
LINE
  5
18C
330
1F
100
AcDbEntity
  8
0
  6
Continuous
 62
     7
370
    25
100
AcDbLine
 10
1.2598425197
 20
25.9842519685
 30
0.0
 11
1.2598425197
 21
27.5590551181
 31
0.0
  0
LINE
  5
18D
330
1F
100
AcDbEntity
  8
0
  6
Continuous
 62
     7
370
    25
100
AcDbLine
 10
1.3385826772
 20
25.9842519685
 30
0.0
 11
1.3385826772
 21
27.5590551181
 31
0.0
  0
LINE
  5
18E
330
1F
100
AcDbEntity
  8
0
  6
Continuous
 62
     7
370
    25
100
AcDbLine
 10
46.8897637795
 20
25.9842519685
 30
0.0
 11
-0.3543307087
 21
25.9842519685
 31
0.0
  0
LINE
  5
18F
330
1F
100
AcDbEntity
  8
0
  6
Continuous
 62
     7
370
    25
100
AcDbLine
 10
45.1968503937
 20
25.9842519685
 30
0.0
 11
45.1968503937
 21
27.5590551181
 31
0.0
  0
LINE
  5
190
330
1F
100
AcDbEntity
  8
0
  6
Continuous
 62
     7
370
    25
100
AcDbLine
 10
45.2755905512
 20
25.9842519685
 30
0.0
 11
45.2755905512
 21
27.5590551181
 31
0.0
  0
LINE
  5
191
330
1F
100
AcDbEntity
  8
0
  6
Continuous
 62
     7
370
    25
100
AcDbLine
 10
46.8897637795
 20
27.5590551181
 30
0.0
 11
-0.3543307087
 21
27.5590551181
 31
0.0
  0
LINE
  5
192
330
1F
100
AcDbEntity
  8
0
  6
Continuous
 62
     7
370
    25
100
AcDbLine
 10
45.1968503937
 20
25.8661417323
 30
0.0
 11
45.1968503937
 21
16.6535433071
 31
0.0
  0
LINE
  5
193
330
1F
100
AcDbEntity
  8
0
  6
Continuous
 62
     7
370
    25
100
AcDbLine
 10
45.1968503937
 20
16.6535433071
 30
0.0
 11
23.3070866142
 21
16.6535433071
 31
0.0
  0
LINE
  5
194
330
1F
100
AcDbEntity
  8
0
  6
Continuous
 62
     7
370
    25
100
AcDbLine
 10
23.3070866142
 20
16.6535433071
 30
0.0
 11
23.3070866142
 21
25.8661417323
 31
0.0
  0
LINE
  5
195
330
1F
100
AcDbEntity
  8
0
  6
Continuous
 62
     7
370
    25
100
AcDbLine
 10
23.3070866142
 20
25.8661417323
 30
0.0
 11
45.1968503937
 21
25.8661417323
 31
0.0
  0
LINE
  5
196
330
1F
100
AcDbEntity
  8
0
  6
Continuous
 62
     7
370
    25
100
AcDbLine
 10
45.3149606299
 20
0.0
 30
0.0
 11
45.3149606299
 21
27.5590551181
 31
0.0
  0
LINE
  5
269
330
1B
100
AcDbEntity
 67
     1
  8
0
  6
Continuous
 62
     7
370
    25
100
AcDbLine
 10
-1.2204724409
 20
0.0
 30
0.0
 11
-1.2204724409
 21
27.5590551181
 31
0.0
  0
LINE
  5
26A
330
1B
100
AcDbEntity
 67
     1
  8
0
  6
Continuous
 62
     7
370
    25
100
AcDbLine
 10
-0.3543307087
 20
27.5590551181
 30
0.0
 11
-0.3543307087
 21
0.0
 31
0.0
  0
LINE
  5
26B
330
1B
100
AcDbEntity
 67
     1
  8
0
  6
Continuous
 62
     7
370
    25
100
AcDbLine
 10
-1.2204724409
 20
0.0
 30
0.0
 11
0.3543307087
 21
0.0
 31
0.0
  0
LINE
  5
26C
330
1B
100
AcDbEntity
 67
     1
  8
0
  6
Continuous
 62
     7
370
    25
100
AcDbLine
 10
-1.3385826772
 20
19.2913385827
 30
0.0
 11
-1.3385826772
 21
24.8031496063
 31
0.0
  0
LINE
  5
26D
330
1B
100
AcDbEntity
 67
     1
  8
0
  6
Continuous
 62
     7
370
    25
100
AcDbLine
 10
-45.3149606299
 20
14.9606299213
 30
0.0
 11
-1.2204724409
 21
14.9606299213
 31
0.0
  0
LINE
  5
26E
330
1B
100
AcDbEntity
 67
     1
  8
0
  6
Continuous
 62
     7
370
    25
100
AcDbLine
 10
-10.2755905512
 20
0.0
 30
0.0
 11
-8.7007874016
 21
0.0
 31
0.0
  0
LINE
  5
26F
330
1B
100
AcDbEntity
 67
     1
  8
0
  6
Continuous
 62
     7
370
    25
100
AcDbLine
 10
-8.7007874016
 20
0.0
 30
0.0
 11
-8.7007874016
 21
4.7244094488
 31
0.0
  0
LINE
  5
270
330
1B
100
AcDbEntity
 67
     1
  8
0
  6
Continuous
 62
     7
370
    25
100
AcDbLine
 10
-10.2755905512
 20
0.0
 30
0.0
 11
-10.2755905512
 21
4.7244094488
 31
0.0
  0
LINE
  5
271
330
1B
100
AcDbEntity
 67
     1
  8
0
  6
Continuous
 62
     7
370
    25
100
AcDbLine
 10
-45.3149606299
 20
24.8031496063
 30
0.0
 11
-1.2204724409
 21
24.8031496063
 31
0.0
  0
LINE
  5
272
330
1B
100
AcDbEntity
 67
     1
  8
0
  6
Continuous
 62
     7
370
    25
100
AcDbLine
 10
-37.8346456693
 20
0.0
 30
0.0
 11
-36.2598425197
 21
0.0
 31
0.0
  0
LINE
  5
273
330
1B
100
AcDbEntity
 67
     1
  8
0
  6
Continuous
 62
     7
370
    25
100
AcDbLine
 10
-37.8346456693
 20
0.0
 30
0.0
 11
-37.8346456693
 21
4.7244094488
 31
0.0
  0
LINE
  5
274
330
1B
100
AcDbEntity
 67
     1
  8
0
  6
Continuous
 62
     7
370
    25
100
AcDbLine
 10
-36.2598425197
 20
0.0
 30
0.0
 11
-36.2598425197
 21
4.7244094488
 31
0.0
  0
LINE
  5
275
330
1B
100
AcDbEntity
 67
     1
  8
0
  6
Continuous
 62
     7
370
    25
100
AcDbLine
 10
-46.8897637795
 20
16.5354330709
 30
0.0
 11
-46.811023622
 21
16.594488189
 31
0.0
  0
LINE
  5
276
330
1B
100
AcDbEntity
 67
     1
  8
0
  6
Continuous
 62
     7
370
    25
100
AcDbLine
 10
-46.811023622
 20
16.594488189
 30
0.0
 11
-46.8897637795
 21
16.6535433071
 31
0.0
  0
LINE
  5
277
330
1B
100
AcDbEntity
 67
     1
  8
0
  6
Continuous
 62
     7
370
    25
100
AcDbLine
 10
-46.8897637795
 20
25.8661417323
 30
0.0
 11
-46.8897637795
 21
16.6535433071
 31
0.0
  0
LINE
  5
278
330
1B
100
AcDbEntity
 67
     1
  8
0
  6
Continuous
 62
     7
370
    25
100
AcDbLine
 10
-46.8897637795
 20
25.8661417323
 30
0.0
 11
-46.811023622
 21
25.9251968504
 31
0.0
  0
LINE
  5
279
330
1B
100
AcDbEntity
 67
     1
  8
0
  6
Continuous
 62
     7
370
    25
100
AcDbLine
 10
-46.8897637795
 20
27.5590551181
 30
0.0
 11
-46.8897637795
 21
25.9842519685
 31
0.0
  0
LINE
  5
27A
330
1B
100
AcDbEntity
 67
     1
  8
0
  6
Continuous
 62
     7
370
    25
100
AcDbLine
 10
-46.8897637795
 20
27.5590551181
 30
0.0
 11
0.3543307087
 21
27.5590551181
 31
0.0
  0
LINE
  5
27B
330
1B
100
AcDbEntity
 67
     1
  8
0
  6
Continuous
 62
     7
370
    25
100
AcDbLine
 10
-46.1811023622
 20
0.0
 30
0.0
 11
-46.1811023622
 21
27.5590551181
 31
0.0
  0
LINE
  5
27C
330
1B
100
AcDbEntity
 67
     1
  8
0
  6
Continuous
 62
     7
370
    25
100
AcDbLine
 10
-46.8897637795
 20
0.0
 30
0.0
 11
-45.3149606299
 21
0.0
 31
0.0
  0
LINE
  5
27D
330
1B
100
AcDbEntity
 67
     1
  8
0
  6
Continuous
 62
     7
370
    25
100
AcDbLine
 10
-46.8897637795
 20
16.5354330709
 30
0.0
 11
-46.8897637795
 21
0.0
 31
0.0
  0
LINE
  5
27E
330
1B
100
AcDbEntity
 67
     1
  8
0
  6
Continuous
 62
     7
370
    25
100
AcDbLine
 10
-46.811023622
 20
25.9251968504
 30
0.0
 11
-46.8897637795
 21
25.9842519685
 31
0.0
  0
LINE
  5
27F
330
1B
100
AcDbEntity
 67
     1
  8
0
  6
Continuous
 62
     7
370
    25
100
AcDbLine
 10
-1.2204724409
 20
16.5354330709
 30
0.0
 11
-45.3149606299
 21
16.5354330709
 31
0.0
  0
LINE
  5
280
330
1B
100
AcDbEntity
 67
     1
  8
0
  6
Continuous
 62
     7
370
    25
100
AcDbLine
 10
-45.3149606299
 20
19.2913385827
 30
0.0
 11
-1.2204724409
 21
19.2913385827
 31
0.0
  0
LINE
  5
281
330
1B
100
AcDbEntity
 67
     1
  8
0
  6
Continuous
 62
     7
370
    25
100
AcDbLine
 10
-1.4566929134
 20
22.0472440945
 30
0.0
 11
-1.4566929134
 21
19.2913385827
 31
0.0
  0
LINE
  5
282
330
1B
100
AcDbEntity
 67
     1
  8
0
  6
Continuous
 62
     7
370
    25
100
AcDbLine
 10
-2.0866141732
 20
22.0472440945
 30
0.0
 11
-2.0866141732
 21
19.2913385827
 31
0.0
  0
LINE
  5
283
330
1B
100
AcDbEntity
 67
     1
  8
0
  6
Continuous
 62
     7
370
    25
100
AcDbLine
 10
-22.6771653543
 20
19.2913385827
 30
0.0
 11
-22.6771653543
 21
22.0472440945
 31
0.0
  0
LINE
  5
284
330
1B
100
AcDbEntity
 67
     1
  8
0
  6
Continuous
 62
     7
370
    25
100
AcDbLine
 10
-22.6771653543
 20
22.0472440945
 30
0.0
 11
-1.4566929134
 21
22.0472440945
 31
0.0
  0
LINE
  5
285
330
1B
100
AcDbEntity
 67
     1
  8
0
  6
Continuous
 62
     7
370
    25
100
AcDbLine
 10
-22.0472440945
 20
19.2913385827
 30
0.0
 11
-22.0472440945
 21
22.0472440945
 31
0.0
  0
LINE
  5
286
330
1B
100
AcDbEntity
 67
     1
  8
0
  6
Continuous
 62
     7
370
    25
100
AcDbLine
 10
-15.2165354331
 20
22.0078740157
 30
0.0
 11
-22.0472440945
 21
22.0078740157
 31
0.0
  0
LINE
  5
287
330
1B
100
AcDbEntity
 67
     1
  8
0
  6
Continuous
 62
     7
370
    25
100
AcDbLine
 10
-2.0866141732
 20
22.0078740157
 30
0.0
 11
-8.9173228346
 21
22.0078740157
 31
0.0
  0
LINE
  5
288
330
1B
100
AcDbEntity
 67
     1
  8
0
  6
Continuous
 62
     7
370
    25
100
AcDbLine
 10
-23.8582677165
 20
22.0472440945
 30
0.0
 11
-23.8582677165
 21
19.2913385827
 31
0.0
  0
LINE
  5
289
330
1B
100
AcDbEntity
 67
     1
  8
0
  6
Continuous
 62
     7
370
    25
100
AcDbLine
 10
-24.4881889764
 20
22.0472440945
 30
0.0
 11
-24.4881889764
 21
19.2913385827
 31
0.0
  0
LINE
  5
28A
330
1B
100
AcDbEntity
 67
     1
  8
0
  6
Continuous
 62
     7
370
    25
100
AcDbLine
 10
-44.4488188976
 20
19.2913385827
 30
0.0
 11
-44.4488188976
 21
22.0472440945
 31
0.0
  0
LINE
  5
28B
330
1B
100
AcDbEntity
 67
     1
  8
0
  6
Continuous
 62
     7
370
    25
100
AcDbLine
 10
-45.0787401575
 20
19.2913385827
 30
0.0
 11
-45.0787401575
 21
22.0472440945
 31
0.0
  0
LINE
  5
28C
330
1B
100
AcDbEntity
 67
     1
  8
0
  6
Continuous
 62
     7
370
    25
100
AcDbLine
 10
-45.0787401575
 20
22.0472440945
 30
0.0
 11
-23.8582677165
 21
22.0472440945
 31
0.0
  0
LINE
  5
28D
330
1B
100
AcDbEntity
 67
     1
  8
0
  6
Continuous
 62
     7
370
    25
100
AcDbLine
 10
-24.4881889764
 20
22.0078740157
 30
0.0
 11
-31.3188976378
 21
22.0078740157
 31
0.0
  0
LINE
  5
28E
330
1B
100
AcDbEntity
 67
     1
  8
0
  6
Continuous
 62
     7
370
    25
100
AcDbLine
 10
-37.6181102362
 20
22.0078740157
 30
0.0
 11
-44.4488188976
 21
22.0078740157
 31
0.0
  0
LINE
  5
28F
330
1B
100
AcDbEntity
 67
     1
  8
0
  6
Continuous
 62
     7
370
    25
100
AcDbLine
 10
-1.2204724409
 20
15.8267716535
 30
0.0
 11
-45.3149606299
 21
15.8267716535
 31
0.0
  0
LINE
  5
290
330
1B
100
AcDbEntity
 67
     1
  8
0
  6
Continuous
 62
     7
370
    25
100
AcDbLine
 10
0.3543307087
 20
16.5354330709
 30
0.0
 11
0.2755905512
 21
16.594488189
 31
0.0
  0
LINE
  5
291
330
1B
100
AcDbEntity
 67
     1
  8
0
  6
Continuous
 62
     7
370
    25
100
AcDbLine
 10
0.2755905512
 20
16.594488189
 30
0.0
 11
0.3543307087
 21
16.6535433071
 31
0.0
  0
LINE
  5
292
330
1B
100
AcDbEntity
 67
     1
  8
0
  6
Continuous
 62
     7
370
    25
100
AcDbLine
 10
0.2755905512
 20
25.9251968504
 30
0.0
 11
0.3543307087
 21
25.9842519685
 31
0.0
  0
LINE
  5
293
330
1B
100
AcDbEntity
 67
     1
  8
0
  6
Continuous
 62
     7
370
    25
100
AcDbLine
 10
0.3543307087
 20
25.8661417323
 30
0.0
 11
0.3543307087
 21
16.6535433071
 31
0.0
  0
LINE
  5
294
330
1B
100
AcDbEntity
 67
     1
  8
0
  6
Continuous
 62
     7
370
    25
100
AcDbLine
 10
0.3543307087
 20
16.5354330709
 30
0.0
 11
0.3543307087
 21
0.0
 31
0.0
  0
LINE
  5
295
330
1B
100
AcDbEntity
 67
     1
  8
0
  6
Continuous
 62
     7
370
    25
100
AcDbLine
 10
0.3543307087
 20
27.5590551181
 30
0.0
 11
0.3543307087
 21
25.9842519685
 31
0.0
  0
LINE
  5
296
330
1B
100
AcDbEntity
 67
     1
  8
0
  6
Continuous
 62
     7
370
    25
100
AcDbLine
 10
0.3543307087
 20
25.8661417323
 30
0.0
 11
0.2755905512
 21
25.9251968504
 31
0.0
  0
LINE
  5
297
330
1B
100
AcDbEntity
 67
     1
  8
0
  6
Continuous
 62
     7
370
    25
100
AcDbLine
 10
-45.3149606299
 20
0.0
 30
0.0
 11
-45.3149606299
 21
27.5590551181
 31
0.0
  0
LINE
  5
298
330
1B
100
AcDbEntity
 67
     1
  8
0
  6
Continuous
 62
     7
370
    25
100
AcDbLine
 10
-45.2401574803
 20
5.4330708661
 30
0.0
 11
-45.3149606299
 21
5.374015748
 31
0.0
  0
LINE
  5
299
330
1B
100
AcDbEntity
 67
     1
  8
0
  6
Continuous
 62
     7
370
    25
100
AcDbLine
 10
-42.1653543307
 20
5.374015748
 30
0.0
 11
-42.2401574803
 21
5.4330708661
 31
0.0
  0
LINE
  5
29A
330
1B
100
AcDbEntity
 67
     1
  8
0
  6
Continuous
 62
     7
370
    25
100
AcDbLine
 10
-39.0157480315
 20
5.374015748
 30
0.0
 11
-39.0905511811
 21
5.4330708661
 31
0.0
  0
LINE
  5
29B
330
1B
100
AcDbEntity
 67
     1
  8
0
  6
Continuous
 62
     7
370
    25
100
AcDbLine
 10
-35.8661417323
 20
5.374015748
 30
0.0
 11
-35.9409448819
 21
5.4330708661
 31
0.0
  0
LINE
  5
29C
330
1B
100
AcDbEntity
 67
     1
  8
0
  6
Continuous
 62
     7
370
    25
100
AcDbLine
 10
-35.7913385827
 20
5.4330708661
 30
0.0
 11
-35.8661417323
 21
5.374015748
 31
0.0
  0
LINE
  5
29D
330
1B
100
AcDbEntity
 67
     1
  8
0
  6
Continuous
 62
     7
370
    25
100
AcDbLine
 10
-32.7165354331
 20
5.374015748
 30
0.0
 11
-32.7913385827
 21
5.4330708661
 31
0.0
  0
LINE
  5
29E
330
1B
100
AcDbEntity
 67
     1
  8
0
  6
Continuous
 62
     7
370
    25
100
AcDbLine
 10
-32.6417322835
 20
5.4330708661
 30
0.0
 11
-32.7165354331
 21
5.374015748
 31
0.0
  0
LINE
  5
29F
330
1B
100
AcDbEntity
 67
     1
  8
0
  6
Continuous
 62
     7
370
    25
100
AcDbLine
 10
-29.5669291339
 20
5.374015748
 30
0.0
 11
-29.6417322835
 21
5.4330708661
 31
0.0
  0
LINE
  5
2A0
330
1B
100
AcDbEntity
 67
     1
  8
0
  6
Continuous
 62
     7
370
    25
100
AcDbLine
 10
-29.4921259843
 20
5.4330708661
 30
0.0
 11
-29.5669291339
 21
5.374015748
 31
0.0
  0
LINE
  5
2A1
330
1B
100
AcDbEntity
 67
     1
  8
0
  6
Continuous
 62
     7
370
    25
100
AcDbLine
 10
-26.4173228346
 20
5.374015748
 30
0.0
 11
-26.4921259843
 21
5.4330708661
 31
0.0
  0
LINE
  5
2A2
330
1B
100
AcDbEntity
 67
     1
  8
0
  6
Continuous
 62
     7
370
    25
100
AcDbLine
 10
-26.342519685
 20
5.4330708661
 30
0.0
 11
-26.4173228346
 21
5.374015748
 31
0.0
  0
LINE
  5
2A3
330
1B
100
AcDbEntity
 67
     1
  8
0
  6
Continuous
 62
     7
370
    25
100
AcDbLine
 10
-23.1929133858
 20
5.4330708661
 30
0.0
 11
-23.2677165354
 21
5.374015748
 31
0.0
  0
LINE
  5
2A4
330
1B
100
AcDbEntity
 67
     1
  8
0
  6
Continuous
 62
     7
370
    25
100
AcDbLine
 10
-20.1181102362
 20
5.374015748
 30
0.0
 11
-20.1929133858
 21
5.4330708661
 31
0.0
  0
LINE
  5
2A5
330
1B
100
AcDbEntity
 67
     1
  8
0
  6
Continuous
 62
     7
370
    25
100
AcDbLine
 10
-20.0433070866
 20
5.4330708661
 30
0.0
 11
-20.1181102362
 21
5.374015748
 31
0.0
  0
LINE
  5
2A6
330
1B
100
AcDbEntity
 67
     1
  8
0
  6
Continuous
 62
     7
370
    25
100
AcDbLine
 10
-16.968503937
 20
5.374015748
 30
0.0
 11
-17.0433070866
 21
5.4330708661
 31
0.0
  0
LINE
  5
2A7
330
1B
100
AcDbEntity
 67
     1
  8
0
  6
Continuous
 62
     7
370
    25
100
AcDbLine
 10
-16.8937007874
 20
5.4330708661
 30
0.0
 11
-16.968503937
 21
5.374015748
 31
0.0
  0
LINE
  5
2A8
330
1B
100
AcDbEntity
 67
     1
  8
0
  6
Continuous
 62
     7
370
    25
100
AcDbLine
 10
-13.8188976378
 20
5.374015748
 30
0.0
 11
-13.8937007874
 21
5.4330708661
 31
0.0
  0
LINE
  5
2A9
330
1B
100
AcDbEntity
 67
     1
  8
0
  6
Continuous
 62
     7
370
    25
100
AcDbLine
 10
-10.6692913386
 20
5.374015748
 30
0.0
 11
-10.7440944882
 21
5.4330708661
 31
0.0
  0
LINE
  5
2AA
330
1B
100
AcDbEntity
 67
     1
  8
0
  6
Continuous
 62
     7
370
    25
100
AcDbLine
 10
-10.594488189
 20
5.4330708661
 30
0.0
 11
-10.6692913386
 21
5.374015748
 31
0.0
  0
LINE
  5
2AB
330
1B
100
AcDbEntity
 67
     1
  8
0
  6
Continuous
 62
     7
370
    25
100
AcDbLine
 10
-7.5196850394
 20
5.374015748
 30
0.0
 11
-7.594488189
 21
5.4330708661
 31
0.0
  0
LINE
  5
2AC
330
1B
100
AcDbEntity
 67
     1
  8
0
  6
Continuous
 62
     7
370
    25
100
AcDbLine
 10
-7.4448818898
 20
5.4330708661
 30
0.0
 11
-7.5196850394
 21
5.374015748
 31
0.0
  0
LINE
  5
2AD
330
1B
100
AcDbEntity
 67
     1
  8
0
  6
Continuous
 62
     7
370
    25
100
AcDbLine
 10
-4.3700787402
 20
5.374015748
 30
0.0
 11
-4.4448818898
 21
5.4330708661
 31
0.0
  0
LINE
  5
2AE
330
1B
100
AcDbEntity
 67
     1
  8
0
  6
Continuous
 62
     7
370
    25
100
AcDbLine
 10
-13.7440944882
 20
5.4330708661
 30
0.0
 11
-13.8188976378
 21
5.374015748
 31
0.0
  0
LINE
  5
2AF
330
1B
100
AcDbEntity
 67
     1
  8
0
  6
Continuous
 62
     7
370
    25
100
AcDbLine
 10
-1.2204724409
 20
5.374015748
 30
0.0
 11
-1.2952755906
 21
5.4330708661
 31
0.0
  0
LINE
  5
2B0
330
1B
100
AcDbEntity
 67
     1
  8
0
  6
Continuous
 62
     7
370
    25
100
AcDbLine
 10
-1.2204724409
 20
4.7244094488
 30
0.0
 11
-45.3149606299
 21
4.7244094488
 31
0.0
  0
LINE
  5
2B1
330
1B
100
AcDbEntity
 67
     1
  8
0
  6
Continuous
 62
     7
370
    25
100
AcDbLine
 10
-1.2952755906
 20
5.4330708661
 30
0.0
 11
-4.2952755906
 21
5.4330708661
 31
0.0
  0
LINE
  5
2B2
330
1B
100
AcDbEntity
 67
     1
  8
0
  6
Continuous
 62
     7
370
    25
100
AcDbLine
 10
-4.4448818898
 20
5.4330708661
 30
0.0
 11
-7.4448818898
 21
5.4330708661
 31
0.0
  0
LINE
  5
2B3
330
1B
100
AcDbEntity
 67
     1
  8
0
  6
Continuous
 62
     7
370
    25
100
AcDbLine
 10
-7.594488189
 20
5.4330708661
 30
0.0
 11
-10.594488189
 21
5.4330708661
 31
0.0
  0
LINE
  5
2B4
330
1B
100
AcDbEntity
 67
     1
  8
0
  6
Continuous
 62
     7
370
    25
100
AcDbLine
 10
-10.7440944882
 20
5.4330708661
 30
0.0
 11
-13.7440944882
 21
5.4330708661
 31
0.0
  0
LINE
  5
2B5
330
1B
100
AcDbEntity
 67
     1
  8
0
  6
Continuous
 62
     7
370
    25
100
AcDbLine
 10
-13.8937007874
 20
5.4330708661
 30
0.0
 11
-16.8937007874
 21
5.4330708661
 31
0.0
  0
LINE
  5
2B6
330
1B
100
AcDbEntity
 67
     1
  8
0
  6
Continuous
 62
     7
370
    25
100
AcDbLine
 10
-17.0433070866
 20
5.4330708661
 30
0.0
 11
-20.0433070866
 21
5.4330708661
 31
0.0
  0
LINE
  5
2B7
330
1B
100
AcDbEntity
 67
     1
  8
0
  6
Continuous
 62
     7
370
    25
100
AcDbLine
 10
-20.1929133858
 20
5.4330708661
 30
0.0
 11
-23.1929133858
 21
5.4330708661
 31
0.0
  0
LINE
  5
2B8
330
1B
100
AcDbEntity
 67
     1
  8
0
  6
Continuous
 62
     7
370
    25
100
AcDbLine
 10
-23.342519685
 20
5.4330708661
 30
0.0
 11
-26.342519685
 21
5.4330708661
 31
0.0
  0
LINE
  5
2B9
330
1B
100
AcDbEntity
 67
     1
  8
0
  6
Continuous
 62
     7
370
    25
100
AcDbLine
 10
-26.4921259843
 20
5.4330708661
 30
0.0
 11
-29.4921259843
 21
5.4330708661
 31
0.0
  0
LINE
  5
2BA
330
1B
100
AcDbEntity
 67
     1
  8
0
  6
Continuous
 62
     7
370
    25
100
AcDbLine
 10
-29.6417322835
 20
5.4330708661
 30
0.0
 11
-32.6417322835
 21
5.4330708661
 31
0.0
  0
LINE
  5
2BB
330
1B
100
AcDbEntity
 67
     1
  8
0
  6
Continuous
 62
     7
370
    25
100
AcDbLine
 10
-32.7913385827
 20
5.4330708661
 30
0.0
 11
-35.7913385827
 21
5.4330708661
 31
0.0
  0
LINE
  5
2BC
330
1B
100
AcDbEntity
 67
     1
  8
0
  6
Continuous
 62
     7
370
    25
100
AcDbLine
 10
-35.9409448819
 20
5.4330708661
 30
0.0
 11
-38.9409448819
 21
5.4330708661
 31
0.0
  0
LINE
  5
2BD
330
1B
100
AcDbEntity
 67
     1
  8
0
  6
Continuous
 62
     7
370
    25
100
AcDbLine
 10
-39.0905511811
 20
5.4330708661
 30
0.0
 11
-42.0905511811
 21
5.4330708661
 31
0.0
  0
LINE
  5
2BE
330
1B
100
AcDbEntity
 67
     1
  8
0
  6
Continuous
 62
     7
370
    25
100
AcDbLine
 10
-42.2401574803
 20
5.4330708661
 30
0.0
 11
-45.2401574803
 21
5.4330708661
 31
0.0
  0
LINE
  5
2BF
330
1B
100
AcDbEntity
 67
     1
  8
0
  6
Continuous
 62
     7
370
    25
100
AcDbLine
 10
-23.2677165354
 20
5.374015748
 30
0.0
 11
-23.342519685
 21
5.4330708661
 31
0.0
  0
LINE
  5
2C0
330
1B
100
AcDbEntity
 67
     1
  8
0
  6
Continuous
 62
     7
370
    25
100
AcDbLine
 10
-38.9409448819
 20
5.4330708661
 30
0.0
 11
-39.0157480315
 21
5.374015748
 31
0.0
  0
LINE
  5
2C1
330
1B
100
AcDbEntity
 67
     1
  8
0
  6
Continuous
 62
     7
370
    25
100
AcDbLine
 10
-42.0905511811
 20
5.4330708661
 30
0.0
 11
-42.1653543307
 21
5.374015748
 31
0.0
  0
LINE
  5
2C2
330
1B
100
AcDbEntity
 67
     1
  8
0
  6
Continuous
 62
     7
370
    25
100
AcDbLine
 10
-4.2952755906
 20
5.4330708661
 30
0.0
 11
-4.3700787402
 21
5.374015748
 31
0.0
  0
LINE
  5
2C3
330
1B
100
AcDbEntity
 67
     1
  8
0
  6
Continuous
 62
     7
370
    25
100
AcDbLine
 10
-23.6220472441
 20
24.8031496063
 30
0.0
 11
-23.6220472441
 21
19.2913385827
 31
0.0
  0
LINE
  5
2C4
330
1B
100
AcDbEntity
 67
     1
  8
0
  6
Continuous
 62
     7
370
    25
100
AcDbLine
 10
-22.9133858268
 20
24.8031496063
 30
0.0
 11
-22.9133858268
 21
19.2913385827
 31
0.0
  0
LINE
  5
2C5
330
1B
100
AcDbEntity
 67
     1
  8
0
  6
Continuous
 62
     7
370
    25
100
AcDbLine
 10
-23.6220472441
 20
22.0472440945
 30
0.0
 11
-22.9133858268
 21
22.0472440945
 31
0.0
  0
LINE
  5
2C6
330
1B
100
AcDbEntity
 67
     1
  8
0
  6
Continuous
 62
     7
370
    25
100
AcDbLine
 10
-45.1968503937
 20
24.8031496063
 30
0.0
 11
-45.1968503937
 21
19.2913385827
 31
0.0
  0
ARC
  5
2C7
330
1B
100
AcDbEntity
 67
     1
  8
0
  6
Continuous
 62
     7
370
    25
100
AcDbCircle
 10
-9.7637795276
 20
23.8976377953
 30
0.0
 40
0.0984251968503962
100
AcDbArc
 50
0.0
 51
180.0
  0
ARC
  5
2C8
330
1B
100
AcDbEntity
 67
     1
  8
0
  6
Continuous
 62
     7
370
    25
100
AcDbCircle
 10
-14.8031496063
 20
23.8976377953
 30
0.0
 40
0.0984251968503962
100
AcDbArc
 50
0.0
 51
180.0
  0
ARC
  5
2C9
330
1B
100
AcDbEntity
 67
     1
  8
0
  6
Continuous
 62
     7
370
    25
100
AcDbCircle
 10
-5.9842519685
 20
23.8976377953
 30
0.0
 40
0.0984251968503944
100
AcDbArc
 50
0.0
 51
180.0
  0
ARC
  5
2CA
330
1B
100
AcDbEntity
 67
     1
  8
0
  6
Continuous
 62
     7
370
    25
100
AcDbCircle
 10
-8.5039370079
 20
23.8976377953
 30
0.0
 40
0.0984251968503944
100
AcDbArc
 50
0.0
 51
180.0
  0
ARC
  5
2CB
330
1B
100
AcDbEntity
 67
     1
  8
0
  6
Continuous
 62
     7
370
    25
100
AcDbCircle
 10
-9.1338582677
 20
23.8976377953
 30
0.0
 40
0.0984251968503944
100
AcDbArc
 50
0.0
 51
180.0
  0
ARC
  5
2CC
330
1B
100
AcDbEntity
 67
     1
  8
0
  6
Continuous
 62
     7
370
    25
100
AcDbCircle
 10
-10.3937007874
 20
23.8976377953
 30
0.0
 40
0.0984251968503944
100
AcDbArc
 50
0.0
 51
180.0
  0
ARC
  5
2CD
330
1B
100
AcDbEntity
 67
     1
  8
0
  6
Continuous
 62
     7
370
    25
100
AcDbCircle
 10
-11.6535433071
 20
23.8976377953
 30
0.0
 40
0.0984251968503944
100
AcDbArc
 50
0.0
 51
180.0
  0
ARC
  5
2CE
330
1B
100
AcDbEntity
 67
     1
  8
0
  6
Continuous
 62
     7
370
    25
100
AcDbCircle
 10
-11.968503937
 20
23.8976377953
 30
0.0
 40
0.0984251968503962
100
AcDbArc
 50
0.0
 51
180.0
  0
ARC
  5
2CF
330
1B
100
AcDbEntity
 67
     1
  8
0
  6
Continuous
 62
     7
370
    25
100
AcDbCircle
 10
-18.5826771654
 20
23.8976377953
 30
0.0
 40
0.0984251968503962
100
AcDbArc
 50
0.0
 51
180.0
  0
ARC
  5
2D0
330
1B
100
AcDbEntity
 67
     1
  8
0
  6
Continuous
 62
     7
370
    25
100
AcDbCircle
 10
-16.062992126
 20
23.8976377953
 30
0.0
 40
0.0984251968503962
100
AcDbArc
 50
360.0
 51
180.0
  0
ARC
  5
2D1
330
1B
100
AcDbEntity
 67
     1
  8
0
  6
Continuous
 62
     7
370
    25
100
AcDbCircle
 10
-15.4330708661
 20
23.8976377953
 30
0.0
 40
0.0984251968503962
100
AcDbArc
 50
0.0
 51
180.0
  0
ARC
  5
2D2
330
1B
100
AcDbEntity
 67
     1
  8
0
  6
Continuous
 62
     7
370
    25
100
AcDbCircle
 10
-14.1732283465
 20
23.8976377953
 30
0.0
 40
0.0984251968503962
100
AcDbArc
 50
0.0
 51
180.0
  0
ARC
  5
2D3
330
1B
100
AcDbEntity
 67
     1
  8
0
  6
Continuous
 62
     7
370
    25
100
AcDbCircle
 10
-12.9133858268
 20
23.8976377953
 30
0.0
 40
0.098425196850398
100
AcDbArc
 50
0.0
 51
180.0
  0
ARC
  5
2D4
330
1B
100
AcDbEntity
 67
     1
  8
0
  6
Continuous
 62
     7
370
    25
100
AcDbCircle
 10
-12.5984251969
 20
23.8976377953
 30
0.0
 40
0.0984251968503962
100
AcDbArc
 50
0.0
 51
180.0
  0
ARC
  5
2D5
330
1B
100
AcDbEntity
 67
     1
  8
0
  6
Continuous
 62
     7
370
    25
100
AcDbCircle
 10
-12.2834645669
 20
23.8976377953
 30
0.0
 40
0.0984251968503962
100
AcDbArc
 50
0.0
 51
180.0
  0
ARC
  5
2D6
330
1B
100
AcDbEntity
 67
     1
  8
0
  6
Continuous
 62
     7
370
    25
100
AcDbCircle
 10
-28.1692913386
 20
26.1811023622
 30
0.0
 40
0.0984251968503962
100
AcDbArc
 50
180.0
 51
0.0
  0
ARC
  5
2D7
330
1B
100
AcDbEntity
 67
     1
  8
0
  6
Continuous
 62
     7
370
    25
100
AcDbCircle
 10
-18.3661417323
 20
26.1811023622
 30
0.0
 40
0.0984251968503926
100
AcDbArc
 50
0.0
 51
180.0
  0
ARC
  5
2D8
330
1B
100
AcDbEntity
 67
     1
  8
0
  6
Continuous
 62
     7
370
    25
100
AcDbCircle
 10
-40.7677165354
 20
26.1811023622
 30
0.0
 40
0.0984251968503997
100
AcDbArc
 50
180.0
 51
360.0
  0
ARC
  5
2D9
330
1B
100
AcDbEntity
 67
     1
  8
0
  6
Continuous
 62
     7
370
    25
100
AcDbCircle
 10
-5.7677165354
 20
26.1811023622
 30
0.0
 40
0.0984251968503953
100
AcDbArc
 50
180.0
 51
0.0
  0
ARC
  5
2DA
330
1B
100
AcDbEntity
 67
     1
  8
0
  6
Continuous
 62
     7
370
    25
100
AcDbCircle
 10
-12.0669291339
 20
22.0078740157
 30
0.0
 40
3.149606299212605
100
AcDbArc
 50
300.4015476632
 51
0.0
  0
ARC
  5
2DB
330
1B
100
AcDbEntity
 67
     1
  8
0
  6
Continuous
 62
     7
370
    25
100
AcDbCircle
 10
-12.0669291339
 20
22.0078740157
 30
0.0
 40
3.149606299212572
100
AcDbArc
 50
180.0
 51
239.5984523368
  0
ARC
  5
2DC
330
1B
100
AcDbEntity
 67
     1
  8
0
  6
Continuous
 62
     7
370
    25
100
AcDbCircle
 10
-3.4251968504
 20
19.0551181102
 30
0.0
 40
0.2952755905511708
100
AcDbArc
 50
53.1301023542
 51
126.8698976458
  0
ARC
  5
2DD
330
1B
100
AcDbEntity
 67
     1
  8
0
  6
Continuous
 62
     7
370
    25
100
AcDbCircle
 10
-20.7086614173
 20
19.0551181102
 30
0.0
 40
0.2952755905511936
100
AcDbArc
 50
53.1301023542
 51
126.8698976458
  0
ARC
  5
2DE
330
1B
100
AcDbEntity
 67
     1
  8
0
  6
Continuous
 62
     7
370
    25
100
AcDbCircle
 10
-12.0669291339
 20
20.5511811024
 30
0.0
 40
0.1968503937007888
100
AcDbArc
 50
180.0
 51
0.0
  0
ARC
  5
2DF
330
1B
100
AcDbEntity
 67
     1
  8
0
  6
Continuous
 62
     7
370
    25
100
AcDbCircle
 10
-12.0669291339
 20
19.2913385827
 30
0.0
 40
0.1968503937007888
100
AcDbArc
 50
0.0
 51
180.0
  0
ARC
  5
2E0
330
1B
100
AcDbEntity
 67
     1
  8
0
  6
Continuous
 62
     7
370
    25
100
AcDbCircle
 10
-12.0669291339
 20
20.5511811024
 30
0.0
 40
0.0984251968503962
100
AcDbArc
 50
180.0
 51
0.0
  0
ARC
  5
2E1
330
1B
100
AcDbEntity
 67
     1
  8
0
  6
Continuous
 62
     7
370
    25
100
AcDbCircle
 10
-12.0669291339
 20
19.2913385827
 30
0.0
 40
0.0984251968503962
100
AcDbArc
 50
0.0
 51
180.0
  0
ARC
  5
2E2
330
1B
100
AcDbEntity
 67
     1
  8
0
  6
Continuous
 62
     7
370
    25
100
AcDbCircle
 10
-34.468503937
 20
22.0078740157
 30
0.0
 40
3.149606299212593
100
AcDbArc
 50
300.4015476632
 51
0.0
  0
ARC
  5
2E3
330
1B
100
AcDbEntity
 67
     1
  8
0
  6
Continuous
 62
     7
370
    25
100
AcDbCircle
 10
-34.468503937
 20
22.0078740157
 30
0.0
 40
3.149606299212603
100
AcDbArc
 50
180.0
 51
239.5984523368
  0
ARC
  5
2E4
330
1B
100
AcDbEntity
 67
     1
  8
0
  6
Continuous
 62
     7
370
    25
100
AcDbCircle
 10
-25.8267716535
 20
19.0551181102
 30
0.0
 40
0.2952755905511857
100
AcDbArc
 50
53.1301023542
 51
126.8698976458
  0
ARC
  5
2E5
330
1B
100
AcDbEntity
 67
     1
  8
0
  6
Continuous
 62
     7
370
    25
100
AcDbCircle
 10
-43.1102362205
 20
19.0551181102
 30
0.0
 40
0.2952755905511495
100
AcDbArc
 50
53.1301023542
 51
126.8698976459
  0
ARC
  5
2E6
330
1B
100
AcDbEntity
 67
     1
  8
0
  6
Continuous
 62
     7
370
    25
100
AcDbCircle
 10
-34.468503937
 20
20.5511811024
 30
0.0
 40
0.1968503937007924
100
AcDbArc
 50
180.0
 51
0.0
  0
ARC
  5
2E7
330
1B
100
AcDbEntity
 67
     1
  8
0
  6
Continuous
 62
     7
370
    25
100
AcDbCircle
 10
-34.468503937
 20
19.2913385827
 30
0.0
 40
0.1968503937007853
100
AcDbArc
 50
0.0
 51
180.0
  0
ARC
  5
2E8
330
1B
100
AcDbEntity
 67
     1
  8
0
  6
Continuous
 62
     7
370
    25
100
AcDbCircle
 10
-34.468503937
 20
19.2913385827
 30
0.0
 40
0.0984251968503926
100
AcDbArc
 50
0.0
 51
180.0
  0
ARC
  5
2E9
330
1B
100
AcDbEntity
 67
     1
  8
0
  6
Continuous
 62
     7
370
    25
100
AcDbCircle
 10
-34.468503937
 20
20.5511811024
 30
0.0
 40
0.0984251968503926
100
AcDbArc
 50
360.0
 51
180.0
  0
ARC
  5
2EA
330
1B
100
AcDbEntity
 67
     1
  8
0
  6
Continuous
 62
     7
370
    25
100
AcDbCircle
 10
-31.7322834646
 20
23.8976377953
 30
0.0
 40
0.0984251968503962
100
AcDbArc
 50
360.0
 51
180.0
  0
ARC
  5
2EB
330
1B
100
AcDbEntity
 67
     1
  8
0
  6
Continuous
 62
     7
370
    25
100
AcDbCircle
 10
-27.9527559055
 20
23.8976377953
 30
0.0
 40
0.0984251968503997
100
AcDbArc
 50
0.0
 51
180.0
  0
ARC
  5
2EC
330
1B
100
AcDbEntity
 67
     1
  8
0
  6
Continuous
 62
     7
370
    25
100
AcDbCircle
 10
-30.4724409449
 20
23.8976377953
 30
0.0
 40
0.0984251968503962
100
AcDbArc
 50
360.0
 51
180.0
  0
ARC
  5
2ED
330
1B
100
AcDbEntity
 67
     1
  8
0
  6
Continuous
 62
     7
370
    25
100
AcDbCircle
 10
-31.1023622047
 20
23.8976377953
 30
0.0
 40
0.0984251968503962
100
AcDbArc
 50
360.0
 51
180.0
  0
ARC
  5
2EE
330
1B
100
AcDbEntity
 67
     1
  8
0
  6
Continuous
 62
     7
370
    25
100
AcDbCircle
 10
-32.3622047244
 20
23.8976377953
 30
0.0
 40
0.0984251968503997
100
AcDbArc
 50
0.0
 51
180.0
  0
ARC
  5
2EF
330
1B
100
AcDbEntity
 67
     1
  8
0
  6
Continuous
 62
     7
370
    25
100
AcDbCircle
 10
-33.6220472441
 20
23.8976377953
 30
0.0
 40
0.0984251968503926
100
AcDbArc
 50
0.0
 51
180.0
  0
ARC
  5
2F0
330
1B
100
AcDbEntity
 67
     1
  8
0
  6
Continuous
 62
     7
370
    25
100
AcDbCircle
 10
-33.937007874
 20
23.8976377953
 30
0.0
 40
0.0984251968503926
100
AcDbArc
 50
180.0
 51
0.0
  0
ARC
  5
2F1
330
1B
100
AcDbEntity
 67
     1
  8
0
  6
Continuous
 62
     7
370
    25
100
AcDbCircle
 10
-40.5511811024
 20
23.8976377953
 30
0.0
 40
0.0984251968503926
100
AcDbArc
 50
0.0
 51
180.0
  0
ARC
  5
2F2
330
1B
100
AcDbEntity
 67
     1
  8
0
  6
Continuous
 62
     7
370
    25
100
AcDbCircle
 10
-38.031496063
 20
23.8976377953
 30
0.0
 40
0.0984251968503926
100
AcDbArc
 50
0.0
 51
180.0
  0
ARC
  5
2F3
330
1B
100
AcDbEntity
 67
     1
  8
0
  6
Continuous
 62
     7
370
    25
100
AcDbCircle
 10
-37.4015748031
 20
23.8976377953
 30
0.0
 40
0.0984251968503926
100
AcDbArc
 50
0.0
 51
180.0
  0
ARC
  5
2F4
330
1B
100
AcDbEntity
 67
     1
  8
0
  6
Continuous
 62
     7
370
    25
100
AcDbCircle
 10
-36.1417322835
 20
23.8976377953
 30
0.0
 40
0.0984251968503926
100
AcDbArc
 50
360.0
 51
180.0
  0
ARC
  5
2F5
330
1B
100
AcDbEntity
 67
     1
  8
0
  6
Continuous
 62
     7
370
    25
100
AcDbCircle
 10
-34.8818897638
 20
23.8976377953
 30
0.0
 40
0.0984251968503926
100
AcDbArc
 50
360.0
 51
180.0
  0
ARC
  5
2F6
330
1B
100
AcDbEntity
 67
     1
  8
0
  6
Continuous
 62
     7
370
    25
100
AcDbCircle
 10
-34.5669291339
 20
23.8976377953
 30
0.0
 40
0.0984251968503997
100
AcDbArc
 50
360.0
 51
180.0
  0
ARC
  5
2F7
330
1B
100
AcDbEntity
 67
     1
  8
0
  6
Continuous
 62
     7
370
    25
100
AcDbCircle
 10
-34.2519685039
 20
23.8976377953
 30
0.0
 40
0.0984251968503926
100
AcDbArc
 50
360.0
 51
180.0
  0
ARC
  5
2F8
330
1B
100
AcDbEntity
 67
     1
  8
0
  6
Continuous
 62
     7
370
    25
100
AcDbCircle
 10
-36.7716535433
 20
23.8976377953
 30
0.0
 40
0.0984251968503997
100
AcDbArc
 50
180.0
 51
0.0
  0
VIEWPORT
  5
6B9
330
1B
100
AcDbEntity
 67
     1
  8
0
100
AcDbViewport
 10
0.0
 20
0.0
 30
0.0
 40
8.4
 41
6.4
 68
     1
 69
     1
 12
23.2677165354
 22
13.7795275591
 13
0.0
 23
0.0
 14
0.5
 24
0.5
 15
0.5
 25
0.5
 16
0.0
 26
0.0
 36
1.0
 17
0.0
 27
0.0
 37
0.0
 42
50.0
 43
0.0
 44
0.0
 45
36.7154105737
 50
0.0
 51
0.0
 72
   100
 90
   557152
  1

281
     0
 71
     1
 74
     0
110
0.0
120
0.0
130
0.0
111
1.0
121
0.0
131
0.0
112
0.0
122
1.0
132
0.0
 79
     0
146
0.0
  0
ENDSEC
  0
SECTION
  2
OBJECTS
  0
DICTIONARY
  5
C
330
0
100
AcDbDictionary
281
     1
  3
ACAD_GROUP
350
D
  3
ACAD_LAYOUT
350
1A
  3
ACAD_MLINESTYLE
350
17
  3
ACAD_PLOTSETTINGS
350
19
  3
ACAD_PLOTSTYLENAME
350
E
  3
ACAD_SCALELIST
350
47
  0
DICTIONARY
  5
D
102
{ACAD_REACTORS
330
C
102
}
330
C
100
AcDbDictionary
281
     1
  0
DICTIONARY
  5
1A
102
{ACAD_REACTORS
330
C
102
}
330
C
100
AcDbDictionary
281
     1
  3
_Back
350
1E
  3
_Bottom
350
3D2
  3
_Isometric
350
41C
  3
_Left
350
26
  3
_Top
350
34B
  3
Model
350
22
  0
DICTIONARY
  5
17
102
{ACAD_REACTORS
330
C
102
}
330
C
100
AcDbDictionary
281
     1
  3
Standard
350
18
  0
DICTIONARY
  5
19
102
{ACAD_REACTORS
330
C
102
}
330
C
100
AcDbDictionary
281
     1
  0
ACDBDICTIONARYWDFLT
  5
E
102
{ACAD_REACTORS
330
C
102
}
330
C
100
AcDbDictionary
281
     1
  3
Normal
350
F
100
AcDbDictionaryWithDefault
340
F
  0
DICTIONARY
  5
47
102
{ACAD_REACTORS
330
C
102
}
330
C
100
AcDbDictionary
281
     1
  3
A0
350
48
  3
A1
350
49
  3
A2
350
4A
  3
A3
350
4B
  3
A4
350
4C
  3
A5
350
4D
  3
A6
350
4E
  3
A7
350
4F
  3
A8
350
50
  3
A9
350
51
  3
B0
350
52
  3
B1
350
53
  3
B2
350
54
  3
B3
350
55
  3
B4
350
56
  3
B5
350
57
  3
B6
350
58
  3
B7
350
59
  3
B8
350
5A
  3
B9
350
5B
  3
C0
350
5C
  3
C1
350
5D
  3
C2
350
5E
  3
C3
350
5F
  3
C4
350
60
  3
C5
350
61
  3
C6
350
62
  3
C7
350
63
  3
C8
350
64
  3
C9
350
65
  3
D0
350
66
  3
D1
350
67
  3
D2
350
68
  0
LAYOUT
  5
1E
102
{ACAD_REACTORS
330
1A
102
}
330
1A
100
AcDbPlotSettings
  1

  2
none_device
  4
Letter_(8.50_x_11.00_Inches)
  6

 40
6.35
 41
6.35
 42
6.35001
 43
6.35001
 44
215.9
 45
279.4
 46
0.0
 47
0.0
 48
0.0
 49
0.0
140
0.0
141
0.0
142
1.0
143
4.499437739
 70
   688
 72
     0
 73
     1
 74
     1
  7

 75
     0
147
0.2222499917
148
1191.0
149
0.0
100
AcDbLayout
  1
_Back
 70
     1
 71
     1
 10
-48.0146249857
 20
-1.1248594348
 11
1.4791901434
 21
37.1203613468
 12
0.0
 22
0.0
 32
0.0
 14
-46.8897637795
 24
0.0
 34
0.0
 15
0.3543307087
 25
27.5590551181
 35
0.0
146
0.0
 13
0.0
 23
0.0
 33
0.0
 16
1.0
 26
0.0
 36
0.0
 17
0.0
 27
1.0
 37
0.0
 76
     0
330
1B
331
6B9
  0
LAYOUT
  5
3D2
102
{ACAD_REACTORS
330
1A
102
}
330
1A
100
AcDbPlotSettings
  1

  2
none_device
  4
Letter_(8.50_x_11.00_Inches)
  6

 40
6.35
 41
6.35
 42
6.35001
 43
6.35001
 44
215.9
 45
279.4
 46
0.0
 47
0.0
 48
0.0
 49
0.0
140
0.0
141
0.0
142
1.0
143
4.499437739
 70
   688
 72
     0
 73
     1
 74
     1
  7

 75
     0
147
0.2222499917
148
1191.0
149
0.0
100
AcDbLayout
  1
_Bottom
 70
     1
 71
     4
 10
0.0
 20
0.0
 11
0.0
 21
0.0
 12
0.0
 22
0.0
 32
0.0
 14
0.0
 24
0.0
 34
0.0
 15
0.0
 25
0.0
 35
0.0
146
0.0
 13
0.0
 23
0.0
 33
0.0
 16
1.0
 26
0.0
 36
0.0
 17
0.0
 27
1.0
 37
0.0
 76
     0
330
3D1
331
6BF
  0
LAYOUT
  5
41C
102
{ACAD_REACTORS
330
1A
102
}
330
1A
100
AcDbPlotSettings
  1

  2
none_device
  4
Letter_(8.50_x_11.00_Inches)
  6

 40
6.35
 41
6.35
 42
6.35001
 43
6.35001
 44
215.9
 45
279.4
 46
0.0
 47
0.0
 48
0.0
 49
0.0
140
0.0
141
0.0
142
1.0
143
4.499437739
 70
   688
 72
     0
 73
     1
 74
     1
  7

 75
     0
147
0.2222499917
148
1191.0
149
0.0
100
AcDbLayout
  1
_Isometric
 70
     1
 71
     5
 10
0.0
 20
0.0
 11
0.0
 21
0.0
 12
0.0
 22
0.0
 32
0.0
 14
0.0
 24
0.0
 34
0.0
 15
0.0
 25
0.0
 35
0.0
146
0.0
 13
0.0
 23
0.0
 33
0.0
 16
1.0
 26
0.0
 36
0.0
 17
0.0
 27
1.0
 37
0.0
 76
     0
330
41B
331
6C1
  0
LAYOUT
  5
26
102
{ACAD_REACTORS
330
1A
102
}
330
1A
100
AcDbPlotSettings
  1

  2
none_device
  4
Letter_(8.50_x_11.00_Inches)
  6

 40
6.35
 41
6.35
 42
6.35001
 43
6.35001
 44
215.9
 45
279.4
 46
0.0
 47
0.0
 48
0.0
 49
0.0
140
0.0
141
0.0
142
1.0
143
4.499437739
 70
   688
 72
     0
 73
     1
 74
     1
  7

 75
     0
147
0.2222499917
148
1191.0
149
0.0
100
AcDbLayout
  1
_Left
 70
     1
 71
     2
 10
0.0
 20
0.0
 11
0.0
 21
0.0
 12
0.0
 22
0.0
 32
0.0
 14
0.0
 24
0.0
 34
0.0
 15
0.0
 25
0.0
 35
0.0
146
0.0
 13
0.0
 23
0.0
 33
0.0
 16
1.0
 26
0.0
 36
0.0
 17
0.0
 27
1.0
 37
0.0
 76
     0
330
23
331
6BB
  0
LAYOUT
  5
34B
102
{ACAD_REACTORS
330
1A
102
}
330
1A
100
AcDbPlotSettings
  1

  2
none_device
  4
Letter_(8.50_x_11.00_Inches)
  6

 40
6.35
 41
6.35
 42
6.35001
 43
6.35001
 44
215.9
 45
279.4
 46
0.0
 47
0.0
 48
0.0
 49
0.0
140
0.0
141
0.0
142
1.0
143
4.499437739
 70
   688
 72
     0
 73
     1
 74
     1
  7

 75
     0
147
0.2222499917
148
1191.0
149
0.0
100
AcDbLayout
  1
_Top
 70
     1
 71
     3
 10
0.0
 20
0.0
 11
0.0
 21
0.0
 12
0.0
 22
0.0
 32
0.0
 14
0.0
 24
0.0
 34
0.0
 15
0.0
 25
0.0
 35
0.0
146
0.0
 13
0.0
 23
0.0
 33
0.0
 16
1.0
 26
0.0
 36
0.0
 17
0.0
 27
1.0
 37
0.0
 76
     0
330
34A
331
6BD
  0
LAYOUT
  5
22
102
{ACAD_REACTORS
330
1A
102
}
330
1A
100
AcDbPlotSettings
  1

  2
none_device
  4
ANSI_A_(11.00_x_8.50_Inches)
  6

 40
6.35
 41
19.05
 42
6.35000508
 43
19.05000254
 44
279.4
 45
215.9
 46
-2.87845754
 47
8.22324873
 48
0.0
 49
0.0
140
0.0
141
0.0
142
0.230505
143
1.0
 70
  1696
 72
     0
 73
     0
 74
     0
  7

 75
     0
147
0.5913241897
148
-39.4088153714
149
0.0
100
AcDbLayout
  1
Model
 70
     1
 71
     0
 10
0.0
 20
0.0
 11
12.0
 21
9.0
 12
0.0
 22
0.0
 32
0.0
 14
-0.3543307087
 24
0.0
 34
0.0
 15
46.8897637795
 25
27.5590551181
 35
0.0
146
0.0
 13
0.0
 23
0.0
 33
0.0
 16
1.0
 26
0.0
 36
0.0
 17
0.0
 27
1.0
 37
0.0
 76
     0
330
1F
331
29
  0
MLINESTYLE
  5
18
102
{ACAD_REACTORS
330
17
102
}
330
17
100
AcDbMlineStyle
  2
Standard
 70
     0
  3

 62
   256
 51
90.0
 52
90.0
 71
     2
 49
0.5
 62
   256
  6
BYLAYER
 49
-0.5
 62
   256
  6
BYLAYER
  0
ACDBPLACEHOLDER
  5
F
102
{ACAD_REACTORS
330
E
102
}
330
E
  0
SCALE
  5
48
102
{ACAD_REACTORS
330
47
102
}
330
47
100
AcDbScale
 70
     0
300
1:1
140
1.0
141
1.0
290
     1
  0
SCALE
  5
49
102
{ACAD_REACTORS
330
47
102
}
330
47
100
AcDbScale
 70
     0
300
1:2
140
1.0
141
2.0
290
     0
  0
SCALE
  5
4A
102
{ACAD_REACTORS
330
47
102
}
330
47
100
AcDbScale
 70
     0
300
1:4
140
1.0
141
4.0
290
     0
  0
SCALE
  5
4B
102
{ACAD_REACTORS
330
47
102
}
330
47
100
AcDbScale
 70
     0
300
1:5
140
1.0
141
5.0
290
     0
  0
SCALE
  5
4C
102
{ACAD_REACTORS
330
47
102
}
330
47
100
AcDbScale
 70
     0
300
1:8
140
1.0
141
8.0
290
     0
  0
SCALE
  5
4D
102
{ACAD_REACTORS
330
47
102
}
330
47
100
AcDbScale
 70
     0
300
1:10
140
1.0
141
10.0
290
     0
  0
SCALE
  5
4E
102
{ACAD_REACTORS
330
47
102
}
330
47
100
AcDbScale
 70
     0
300
1:16
140
1.0
141
16.0
290
     0
  0
SCALE
  5
4F
102
{ACAD_REACTORS
330
47
102
}
330
47
100
AcDbScale
 70
     0
300
1:20
140
1.0
141
20.0
290
     0
  0
SCALE
  5
50
102
{ACAD_REACTORS
330
47
102
}
330
47
100
AcDbScale
 70
     0
300
1:30
140
1.0
141
30.0
290
     0
  0
SCALE
  5
51
102
{ACAD_REACTORS
330
47
102
}
330
47
100
AcDbScale
 70
     0
300
1:40
140
1.0
141
40.0
290
     0
  0
SCALE
  5
52
102
{ACAD_REACTORS
330
47
102
}
330
47
100
AcDbScale
 70
     0
300
1:50
140
1.0
141
50.0
290
     0
  0
SCALE
  5
53
102
{ACAD_REACTORS
330
47
102
}
330
47
100
AcDbScale
 70
     0
300
1:100
140
1.0
141
100.0
290
     0
  0
SCALE
  5
54
102
{ACAD_REACTORS
330
47
102
}
330
47
100
AcDbScale
 70
     0
300
2:1
140
2.0
141
1.0
290
     0
  0
SCALE
  5
55
102
{ACAD_REACTORS
330
47
102
}
330
47
100
AcDbScale
 70
     0
300
4:1
140
4.0
141
1.0
290
     0
  0
SCALE
  5
56
102
{ACAD_REACTORS
330
47
102
}
330
47
100
AcDbScale
 70
     0
300
8:1
140
8.0
141
1.0
290
     0
  0
SCALE
  5
57
102
{ACAD_REACTORS
330
47
102
}
330
47
100
AcDbScale
 70
     0
300
10:1
140
10.0
141
1.0
290
     0
  0
SCALE
  5
58
102
{ACAD_REACTORS
330
47
102
}
330
47
100
AcDbScale
 70
     0
300
100:1
140
100.0
141
1.0
290
     0
  0
SCALE
  5
59
102
{ACAD_REACTORS
330
47
102
}
330
47
100
AcDbScale
 70
     0
300
1/128" = 1'-0"
140
0.0078125
141
12.0
290
     0
  0
SCALE
  5
5A
102
{ACAD_REACTORS
330
47
102
}
330
47
100
AcDbScale
 70
     0
300
1/64" = 1'-0"
140
0.015625
141
12.0
290
     0
  0
SCALE
  5
5B
102
{ACAD_REACTORS
330
47
102
}
330
47
100
AcDbScale
 70
     0
300
1/32" = 1'-0"
140
0.03125
141
12.0
290
     0
  0
SCALE
  5
5C
102
{ACAD_REACTORS
330
47
102
}
330
47
100
AcDbScale
 70
     0
300
1/16" = 1'-0"
140
0.0625
141
12.0
290
     0
  0
SCALE
  5
5D
102
{ACAD_REACTORS
330
47
102
}
330
47
100
AcDbScale
 70
     0
300
3/32" = 1'-0"
140
0.09375
141
12.0
290
     0
  0
SCALE
  5
5E
102
{ACAD_REACTORS
330
47
102
}
330
47
100
AcDbScale
 70
     0
300
1/8" = 1'-0"
140
0.125
141
12.0
290
     0
  0
SCALE
  5
5F
102
{ACAD_REACTORS
330
47
102
}
330
47
100
AcDbScale
 70
     0
300
3/16" = 1'-0"
140
0.1875
141
12.0
290
     0
  0
SCALE
  5
60
102
{ACAD_REACTORS
330
47
102
}
330
47
100
AcDbScale
 70
     0
300
1/4" = 1'-0"
140
0.25
141
12.0
290
     0
  0
SCALE
  5
61
102
{ACAD_REACTORS
330
47
102
}
330
47
100
AcDbScale
 70
     0
300
3/8" = 1'-0"
140
0.375
141
12.0
290
     0
  0
SCALE
  5
62
102
{ACAD_REACTORS
330
47
102
}
330
47
100
AcDbScale
 70
     0
300
1/2" = 1'-0"
140
0.5
141
12.0
290
     0
  0
SCALE
  5
63
102
{ACAD_REACTORS
330
47
102
}
330
47
100
AcDbScale
 70
     0
300
3/4" = 1'-0"
140
0.75
141
12.0
290
     0
  0
SCALE
  5
64
102
{ACAD_REACTORS
330
47
102
}
330
47
100
AcDbScale
 70
     0
300
1" = 1'-0"
140
1.0
141
12.0
290
     0
  0
SCALE
  5
65
102
{ACAD_REACTORS
330
47
102
}
330
47
100
AcDbScale
 70
     0
300
1-1/2" = 1'-0"
140
1.5
141
12.0
290
     0
  0
SCALE
  5
66
102
{ACAD_REACTORS
330
47
102
}
330
47
100
AcDbScale
 70
     0
300
3" = 1'-0"
140
3.0
141
12.0
290
     0
  0
SCALE
  5
67
102
{ACAD_REACTORS
330
47
102
}
330
47
100
AcDbScale
 70
     0
300
6" = 1'-0"
140
6.0
141
12.0
290
     0
  0
SCALE
  5
68
102
{ACAD_REACTORS
330
47
102
}
330
47
100
AcDbScale
 70
     0
300
1'-0" = 1'-0"
140
12.0
141
12.0
290
     0
  0
ENDSEC
  0
EOF
