  0
SECTION
  2
HEADER
  9
$ACADVER
  1
AC1015
  9
$ACADMAINTVER
 70
     6
  9
$DWGCODEPAGE
  3
ANSI_1252
  9
$INSBASE
 10
0.0
 20
0.0
 30
0.0
  9
$EXTMIN
 10
-5.388388771
 20
-0.0295275591
 30
0.0
  9
$EXTMAX
 10
5.388388771
 20
8.6023622047
 30
0.0
  9
$LIMMIN
 10
0.0
 20
0.0
  9
$LIMMAX
 10
12.0
 20
9.0
  9
$ORTHOMODE
 70
     0
  9
$REGENMODE
 70
     1
  9
$FILLMODE
 70
     1
  9
$QTEXTMODE
 70
     0
  9
$MIRRTEXT
 70
     1
  9
$LTSCALE
 40
1.0
  9
$ATTMODE
 70
     1
  9
$TEXTSIZE
 40
0.1377952756
  9
$TRACEWID
 40
0.05
  9
$TEXTSTYLE
  7
Standard
  9
$CLAYER
  8
0
  9
$CELTYPE
  6
ByLayer
  9
$CECOLOR
 62
   256
  9
$CELTSCALE
 40
1.0
  9
$DISPSILH
 70
     0
  9
$DIMSCALE
 40
1.0
  9
$DIMASZ
 40
0.13
  9
$DIMEXO
 40
0.0393700787
  9
$DIMDLI
 40
0.38
  9
$DIMRND
 40
0.0
  9
$DIMDLE
 40
0.0
  9
$DIMEXE
 40
0.0393700787
  9
$DIMTP
 40
0.0
  9
$DIMTM
 40
0.0
  9
$DIMTXT
 40
0.1377952756
  9
$DIMCEN
 40
0.09
  9
$DIMTSZ
 40
0.0
  9
$DIMTOL
 70
     0
  9
$DIMLIM
 70
     0
  9
$DIMTIH
 70
     1
  9
$DIMTOH
 70
     1
  9
$DIMSE1
 70
     0
  9
$DIMSE2
 70
     0
  9
$DIMTAD
 70
     1
  9
$DIMZIN
 70
     1
  9
$DIMBLK
  1

  9
$DIMASO
 70
     1
  9
$DIMSHO
 70
     1
  9
$DIMPOST
  1

  9
$DIMAPOST
  1

  9
$DIMALT
 70
     0
  9
$DIMALTD
 70
     2
  9
$DIMALTF
 40
25.4
  9
$DIMLFAC
 40
1.0
  9
$DIMTOFL
 70
     0
  9
$DIMTVP
 40
0.0
  9
$DIMTIX
 70
     0
  9
$DIMSOXD
 70
     0
  9
$DIMSAH
 70
     0
  9
$DIMBLK1
  1

  9
$DIMBLK2
  1

  9
$DIMSTYLE
  2
Standard
  9
$DIMCLRD
 70
     0
  9
$DIMCLRE
 70
     0
  9
$DIMCLRT
 70
     0
  9
$DIMTFAC
 40
1.0
  9
$DIMGAP
 40
0.06
  9
$DIMJUST
 70
     0
  9
$DIMSD1
 70
     0
  9
$DIMSD2
 70
     0
  9
$DIMTOLJ
 70
     1
  9
$DIMTZIN
 70
     1
  9
$DIMALTZ
 70
     0
  9
$DIMALTTZ
 70
     0
  9
$DIMUPT
 70
     0
  9
$DIMDEC
 70
     2
  9
$DIMTDEC
 70
     2
  9
$DIMALTU
 70
     2
  9
$DIMALTTD
 70
     2
  9
$DIMTXSTY
  7
Standard
  9
$DIMAUNIT
 70
     0
  9
$DIMADEC
 70
     2
  9
$DIMALTRND
 40
0.0
  9
$DIMAZIN
 70
     0
  9
$DIMDSEP
 70
    46
  9
$DIMATFIT
 70
     3
  9
$DIMFRAC
 70
     0
  9
$DIMLDRBLK
  1

  9
$DIMLUNIT
 70
     2
  9
$DIMLWD
 70
    -2
  9
$DIMLWE
 70
    -2
  9
$DIMTMOVE
 70
     0
  9
$LUNITS
 70
     2
  9
$LUPREC
 70
     2
  9
$SKETCHINC
 40
0.1
  9
$FILLETRAD
 40
0.5
  9
$AUNITS
 70
     0
  9
$AUPREC
 70
     2
  9
$MENU
  1
.
  9
$ELEVATION
 40
0.0
  9
$PELEVATION
 40
0.0
  9
$THICKNESS
 40
0.0
  9
$LIMCHECK
 70
     0
  9
$CHAMFERA
 40
0.0
  9
$CHAMFERB
 40
0.0
  9
$CHAMFERC
 40
0.0
  9
$CHAMFERD
 40
0.0
  9
$SKPOLY
 70
     0
  9
$TDCREATE
 40
2460468.527794942
  9
$TDUCREATE
 40
2460468.486128275
  9
$TDUPDATE
 40
2460468.527898437
  9
$TDUUPDATE
 40
2460468.486231771
  9
$TDINDWG
 40
0.0000000116
  9
$TDUSRTIMER
 40
0.0000000116
  9
$USRTIMER
 70
     1
  9
$ANGBASE
 50
0.0
  9
$ANGDIR
 70
     0
  9
$PDMODE
 70
     0
  9
$PDSIZE
 40
-1.0
  9
$PLINEWID
 40
0.0
  9
$SPLFRAME
 70
     0
  9
$SPLINETYPE
 70
     6
  9
$SPLINESEGS
 70
     8
  9
$HANDSEED
  5
9B1
  9
$SURFTAB1
 70
     6
  9
$SURFTAB2
 70
     6
  9
$SURFTYPE
 70
     6
  9
$SURFU
 70
     6
  9
$SURFV
 70
     6
  9
$UCSBASE
  2

  9
$UCSNAME
  2

  9
$UCSORG
 10
0.0
 20
0.0
 30
0.0
  9
$UCSXDIR
 10
1.0
 20
0.0
 30
0.0
  9
$UCSYDIR
 10
0.0
 20
1.0
 30
0.0
  9
$UCSORTHOREF
  2

  9
$UCSORTHOVIEW
 70
     0
  9
$UCSORGTOP
 10
0.0
 20
0.0
 30
0.0
  9
$UCSORGBOTTOM
 10
0.0
 20
0.0
 30
0.0
  9
$UCSORGLEFT
 10
0.0
 20
0.0
 30
0.0
  9
$UCSORGRIGHT
 10
0.0
 20
0.0
 30
0.0
  9
$UCSORGFRONT
 10
0.0
 20
0.0
 30
0.0
  9
$UCSORGBACK
 10
0.0
 20
0.0
 30
0.0
  9
$PUCSBASE
  2

  9
$PUCSNAME
  2

  9
$PUCSORG
 10
0.0
 20
0.0
 30
0.0
  9
$PUCSXDIR
 10
1.0
 20
0.0
 30
0.0
  9
$PUCSYDIR
 10
0.0
 20
1.0
 30
0.0
  9
$PUCSORTHOREF
  2

  9
$PUCSORTHOVIEW
 70
     0
  9
$PUCSORGTOP
 10
0.0
 20
0.0
 30
0.0
  9
$PUCSORGBOTTOM
 10
0.0
 20
0.0
 30
0.0
  9
$PUCSORGLEFT
 10
0.0
 20
0.0
 30
0.0
  9
$PUCSORGRIGHT
 10
0.0
 20
0.0
 30
0.0
  9
$PUCSORGFRONT
 10
0.0
 20
0.0
 30
0.0
  9
$PUCSORGBACK
 10
0.0
 20
0.0
 30
0.0
  9
$USERI1
 70
     0
  9
$USERI2
 70
     0
  9
$USERI3
 70
     0
  9
$USERI4
 70
     0
  9
$USERI5
 70
     0
  9
$USERR1
 40
0.0
  9
$USERR2
 40
0.0
  9
$USERR3
 40
0.0
  9
$USERR4
 40
0.0
  9
$USERR5
 40
0.0
  9
$WORLDVIEW
 70
     1
  9
$SHADEDGE
 70
     3
  9
$SHADEDIF
 70
    70
  9
$TILEMODE
 70
     1
  9
$MAXACTVP
 70
    64
  9
$PINSBASE
 10
0.0
 20
0.0
 30
0.0
  9
$PLIMCHECK
 70
     0
  9
$PEXTMIN
 10
-5.1587473462
 20
-0.0295275591
 30
0.0
  9
$PEXTMAX
 10
0.8858267717
 20
8.6023622047
 30
0.0
  9
$PLIMMIN
 10
-5.4284943394
 20
-0.2992741274
  9
$PLIMMAX
 10
6.4403546699
 20
8.8721091979
  9
$UNITMODE
 70
     0
  9
$VISRETAIN
 70
     1
  9
$PLINEGEN
 70
     0
  9
$PSLTSCALE
 70
     1
  9
$TREEDEPTH
 70
  3020
  9
$CMLSTYLE
  2
Standard
  9
$CMLJUST
 70
     0
  9
$CMLSCALE
 40
1.0
  9
$PROXYGRAPHICS
 70
     1
  9
$MEASUREMENT
 70
     0
  9
$CELWEIGHT
370
    -1
  9
$ENDCAPS
280
     0
  9
$JOINSTYLE
280
     0
  9
$LWDISPLAY
290
     1
  9
$INSUNITS
 70
     1
  9
$HYPERLINKBASE
  1

  9
$STYLESHEET
  1

  9
$XEDIT
290
     1
  9
$CEPSNTYPE
380
     0
  9
$PSTYLEMODE
290
     1
  9
$FINGERPRINTGUID
  2
{867b06ea-1000-492d-9e43-6061b2ad20f3}
  9
$VERSIONGUID
  2
{FAEB1C32-E019-11D5-929B-00C0DF256EC4}
  9
$EXTNAMES
290
     1
  9
$PSVPSCALE
 40
0.0
  9
$OLESTARTUP
290
     0
  0
ENDSEC
  0
SECTION
  2
CLASSES
  0
CLASS
  1
ACDBDICTIONARYWDFLT
  2
AcDbDictionaryWithDefault
  3
ObjectDBX Classes
 90
        0
280
     0
281
     0
  0
CLASS
  1
VISUALSTYLE
  2
AcDbVisualStyle
  3
ObjectDBX Classes
 90
     4095
280
     0
281
     0
  0
CLASS
  1
MATERIAL
  2
AcDbMaterial
  3
ObjectDBX Classes
 90
     1153
280
     0
281
     0
  0
CLASS
  1
SCALE
  2
AcDbScale
  3
ObjectDBX Classes
 90
     1153
280
     0
281
     0
  0
CLASS
  1
TABLESTYLE
  2
AcDbTableStyle
  3
ObjectDBX Classes
 90
     4095
280
     0
281
     0
  0
CLASS
  1
MLEADERSTYLE
  2
AcDbMLeaderStyle
  3
ACDB_MLEADERSTYLE_CLASS
 90
     4095
280
     0
281
     0
  0
CLASS
  1
SUN
  2
AcDbSun
  3
SCENEOE
 90
     1153
280
     0
281
     0
  0
CLASS
  1
ACDBPLACEHOLDER
  2
AcDbPlaceHolder
  3
ObjectDBX Classes
 90
        0
280
     0
281
     0
  0
CLASS
  1
LAYOUT
  2
AcDbLayout
  3
ObjectDBX Classes
 90
        0
280
     0
281
     0
  0
ENDSEC
  0
SECTION
  2
TABLES
  0
TABLE
  2
VPORT
  5
8
330
0
100
AcDbSymbolTable
 70
     1
  0
VPORT
  5
29
330
8
100
AcDbSymbolTableRecord
100
AcDbViewportTableRecord
  2
*Active
 70
     0
 10
0.0
 20
0.0
 11
1.0
 21
1.0
 12
0.0
 22
4.2864173228
 13
0.0
 23
0.0
 14
0.5
 24
0.5
 15
0.5
 25
0.5
 16
0.0
 26
0.0
 36
1.0
 17
0.0
 27
0.0
 37
0.0
 40
8.8045275591
 41
1.2484841485
 42
50.0
 43
0.0
 44
0.0
 50
0.0
 51
0.0
 71
     0
 72
   100
 73
     1
 74
     3
 75
     0
 76
     0
 77
     0
 78
     0
281
     0
 65
     1
110
0.0
120
0.0
130
0.0
111
1.0
121
0.0
131
0.0
112
0.0
122
1.0
132
0.0
 79
     0
146
0.0
  0
ENDTAB
  0
TABLE
  2
LTYPE
  5
5
330
0
100
AcDbSymbolTable
 70
     6
  0
LTYPE
  5
14
330
5
100
AcDbSymbolTableRecord
100
AcDbLinetypeTableRecord
  2
ByBlock
 70
     0
  3

 72
    65
 73
     0
 40
0.0
  0
LTYPE
  5
15
330
5
100
AcDbSymbolTableRecord
100
AcDbLinetypeTableRecord
  2
ByLayer
 70
     0
  3

 72
    65
 73
     0
 40
0.0
  0
LTYPE
  5
16
330
5
100
AcDbSymbolTableRecord
100
AcDbLinetypeTableRecord
  2
Continuous
 70
     0
  3
Solid line
 72
    65
 73
     0
 40
0.0
  0
LTYPE
  5
6E
330
5
100
AcDbSymbolTableRecord
100
AcDbLinetypeTableRecord
  2
HIDDEN
 70
     0
  3
Hidden __ __ __ __ __ __ __ __ __ __ __ __ __ __
 72
    65
 73
     2
 40
0.075
 49
0.05
 74
     0
 49
-0.025
 74
     0
  0
LTYPE
  5
6F
330
5
100
AcDbSymbolTableRecord
100
AcDbLinetypeTableRecord
  2
PHANTOM
 70
     0
  3
Phantom ______  __  __  ______  __  __  ______
 72
    65
 73
     6
 40
0.5
 49
0.25
 74
     0
 49
-0.05
 74
     0
 49
0.05
 74
     0
 49
-0.05
 74
     0
 49
0.05
 74
     0
 49
-0.05
 74
     0
  0
LTYPE
  5
70
330
5
100
AcDbSymbolTableRecord
100
AcDbLinetypeTableRecord
  2
CENTER
 70
     0
  3
Center ____ _ ____ _ ____ _ ____ _ ____ _ ____
 72
    65
 73
     4
 40
0.4
 49
0.25
 74
     0
 49
-0.05
 74
     0
 49
0.05
 74
     0
 49
-0.05
 74
     0
  0
LTYPE
  5
71
330
5
100
AcDbSymbolTableRecord
100
AcDbLinetypeTableRecord
  2
CENTERX2
 70
     0
  3
Center (2x) ________  __  ________  __  _____
 72
    65
 73
     4
 40
0.8
 49
0.5
 74
     0
 49
-0.1
 74
     0
 49
0.1
 74
     0
 49
-0.1
 74
     0
  0
LTYPE
  5
72
330
5
100
AcDbSymbolTableRecord
100
AcDbLinetypeTableRecord
  2
DOT2
 70
     0
  3
Dot (.5x) ........................................
 72
    65
 73
     2
 40
0.025
 49
0.0
 74
     0
 49
-0.025
 74
     0
  0
ENDTAB
  0
TABLE
  2
LAYER
  5
2
330
0
100
AcDbSymbolTable
 70
     1
  0
LAYER
  5
10
330
2
100
AcDbSymbolTableRecord
100
AcDbLayerTableRecord
  2
0
 70
     0
 62
     7
  6
Continuous
370
    -3
390
F
  0
ENDTAB
  0
TABLE
  2
STYLE
  5
3
330
0
100
AcDbSymbolTable
 70
     1
  0
STYLE
  5
11
330
3
100
AcDbSymbolTableRecord
100
AcDbTextStyleTableRecord
  2
Standard
 70
     0
 40
0.0
 41
1.0
 50
0.0
 71
     0
 42
0.1377952756
  3
txt
  4

  0
ENDTAB
  0
TABLE
  2
VIEW
  5
6
330
0
100
AcDbSymbolTable
 70
     0
  0
ENDTAB
  0
TABLE
  2
UCS
  5
7
330
0
100
AcDbSymbolTable
 70
     0
  0
ENDTAB
  0
TABLE
  2
APPID
  5
9
330
0
100
AcDbSymbolTable
 70
     1
  0
APPID
  5
12
330
9
100
AcDbSymbolTableRecord
100
AcDbRegAppTableRecord
  2
ACAD
 70
     0
  0
ENDTAB
  0
TABLE
  2
DIMSTYLE
  5
A
330
0
100
AcDbSymbolTable
 70
     1
100
AcDbDimStyleTable
  0
DIMSTYLE
105
27
330
A
100
AcDbSymbolTableRecord
100
AcDbDimStyleTableRecord
  2
Standard
 70
     0
178
     0
340
11
  0
ENDTAB
  0
TABLE
  2
BLOCK_RECORD
  5
1
330
0
100
AcDbSymbolTable
 70
     2
  0
BLOCK_RECORD
  5
1F
330
1
100
AcDbSymbolTableRecord
100
AcDbBlockTableRecord
  2
*Model_Space
340
22
  0
BLOCK_RECORD
  5
1B
330
1
100
AcDbSymbolTableRecord
100
AcDbBlockTableRecord
  2
*Paper_Space
340
1E
  0
BLOCK_RECORD
  5
23
330
1
100
AcDbSymbolTableRecord
100
AcDbBlockTableRecord
  2
*Paper_Space0
340
26
  0
BLOCK_RECORD
  5
907
330
1
100
AcDbSymbolTableRecord
100
AcDbBlockTableRecord
  2
*Paper_Space1
340
908
  0
ENDTAB
  0
ENDSEC
  0
SECTION
  2
BLOCKS
  0
BLOCK
  5
20
330
1F
100
AcDbEntity
  8
0
100
AcDbBlockBegin
  2
*Model_Space
 70
     0
 10
0.0
 20
0.0
 30
0.0
  3
*Model_Space
  1

  0
ENDBLK
  5
21
330
1F
100
AcDbEntity
  8
0
100
AcDbBlockEnd
  0
BLOCK
  5
1C
330
1B
100
AcDbEntity
 67
     1
  8
0
100
AcDbBlockBegin
  2
*Paper_Space
 70
     0
 10
0.0
 20
0.0
 30
0.0
  3
*Paper_Space
  1

  0
ENDBLK
  5
1D
330
1B
100
AcDbEntity
 67
     1
  8
0
100
AcDbBlockEnd
  0
BLOCK
  5
24
330
23
100
AcDbEntity
  8
0
100
AcDbBlockBegin
  2
*Paper_Space0
 70
     0
 10
0.0
 20
0.0
 30
0.0
  3
*Paper_Space0
  1

  0
CIRCLE
  5
8DF
330
23
100
AcDbEntity
  8
0
  6
Continuous
 62
     7
370
    25
100
AcDbCircle
 10
3.937007874
 20
0.0
 30
0.0
 40
0.8661417322834648
  0
CIRCLE
  5
8E0
330
23
100
AcDbEntity
  8
0
  6
Continuous
 62
     7
370
    25
100
AcDbCircle
 10
3.937007874
 20
0.0
 30
0.0
 40
0.8858267716535434
  0
CIRCLE
  5
8E3
330
23
100
AcDbEntity
  8
0
  6
Continuous
 62
     7
370
    25
100
AcDbCircle
 10
-3.937007874
 20
0.0
 30
0.0
 40
0.8661417322834648
  0
CIRCLE
  5
8E4
330
23
100
AcDbEntity
  8
0
  6
Continuous
 62
     7
370
    25
100
AcDbCircle
 10
-3.937007874
 20
0.0
 30
0.0
 40
0.8858267716535434
  0
LINE
  5
8F5
330
23
100
AcDbEntity
  8
0
  6
Continuous
 62
     7
370
    25
100
AcDbLine
 10
4.7973340152
 20
-0.2110165875
 30
0.0
 11
5.281267299
 21
-0.2180488647
 31
0.0
  0
LINE
  5
8F6
330
23
100
AcDbEntity
  8
0
  6
Continuous
 62
     7
370
    25
100
AcDbLine
 10
5.2986598493
 20
-0.0219683284
 30
0.0
 11
4.821044372
 21
0.0562897829
 31
0.0
  0
LINE
  5
8F7
330
23
100
AcDbEntity
  8
0
  6
Continuous
 62
     7
370
    25
100
AcDbLine
 10
-4.7973340152
 20
0.2110165875
 30
0.0
 11
-5.281267299
 21
0.2180488647
 31
0.0
  0
LINE
  5
8F8
330
23
100
AcDbEntity
  8
0
  6
Continuous
 62
     7
370
    25
100
AcDbLine
 10
-5.2986598493
 20
0.0219683284
 30
0.0
 11
-4.821044372
 21
-0.0562897829
 31
0.0
  0
LINE
  5
8F9
330
23
100
AcDbEntity
  8
0
  6
Continuous
 62
     7
370
    25
100
AcDbLine
 10
0.4330708661
 20
-4.759164593
 30
0.0
 11
0.4330708661
 21
0.0
 31
0.0
  0
LINE
  5
8FA
330
23
100
AcDbEntity
  8
0
  6
Continuous
 62
     7
370
    25
100
AcDbLine
 10
-0.4330708661
 20
0.0
 30
0.0
 11
-0.4330708661
 21
-4.759164593
 31
0.0
  0
LINE
  5
8FB
330
23
100
AcDbEntity
  8
0
  6
Continuous
 62
     7
370
    25
100
AcDbLine
 10
5.2986598493
 20
-0.0219683284
 30
0.0
 11
5.281267299
 21
-0.2180488647
 31
0.0
  0
LINE
  5
8FC
330
23
100
AcDbEntity
  8
0
  6
Continuous
 62
     7
370
    25
100
AcDbLine
 10
-5.2986598493
 20
0.0219683284
 30
0.0
 11
-5.281267299
 21
0.2180488647
 31
0.0
  0
LINE
  5
8FD
330
23
100
AcDbEntity
  8
0
  6
Continuous
 62
     7
370
    25
100
AcDbLine
 10
0.0
 20
0.8858267717
 30
0.0
 11
0.0
 21
-5.1578084271
 31
0.0
  0
ARC
  5
8FE
330
23
100
AcDbEntity
  8
0
  6
Continuous
 62
     7
370
    25
100
AcDbCircle
 10
5.2899635742
 20
-0.1200085966
 30
0.0
 40
0.0984251968503936
100
AcDbArc
 50
264.931070098
 51
84.931070098
  0
ARC
  5
8FF
330
23
100
AcDbEntity
  8
0
  6
Continuous
 62
     7
370
    25
100
AcDbCircle
 10
-5.2899635742
 20
0.1200085966
 30
0.0
 40
0.0984251968503938
100
AcDbArc
 50
84.931070098
 51
264.931070098
  0
ARC
  5
900
330
23
100
AcDbEntity
  8
0
  6
Continuous
 62
     7
370
    25
100
AcDbCircle
 10
0.0
 20
0.0
 30
0.0
 40
0.4330708661417317
100
AcDbArc
 50
0.0
 51
180.0
  0
ARC
  5
901
330
23
100
AcDbEntity
  8
0
  6
Continuous
 62
     7
370
    25
100
AcDbCircle
 10
0.0165293205
 20
-4.7412077941
 30
0.0
 40
0.4169284181562963
100
AcDbArc
 50
267.7278867789
 51
357.5315495715
  0
ARC
  5
902
330
23
100
AcDbEntity
  8
0
  6
Continuous
 62
     7
370
    25
100
AcDbCircle
 10
-0.0165293205
 20
-4.7412077941
 30
0.0
 40
0.4169284181619707
100
AcDbArc
 50
182.4684504292
 51
272.27211322
  0
ARC
  5
903
330
23
100
AcDbEntity
  8
0
  6
Continuous
 62
     7
370
    25
100
AcDbCircle
 10
0.0
 20
0.0
 30
0.0
 40
0.8858267716534529
100
AcDbArc
 50
299.2675775975
 51
240.7324224025
  0
ARC
  5
904
330
23
100
AcDbEntity
  8
0
  6
Continuous
 62
     8
370
    25
100
AcDbCircle
 10
0.0165293205
 20
-4.5186688392
 30
0.0
 40
0.4169284181705367
100
AcDbArc
 50
267.7278867812
 51
357.5315495701
  0
ARC
  5
905
330
23
100
AcDbEntity
  8
0
  6
Continuous
 62
     8
370
    25
100
AcDbCircle
 10
-0.0165293205
 20
-4.5186688392
 30
0.0
 40
0.4169284181648588
100
AcDbArc
 50
182.4684504291
 51
272.2721132199
  0
ARC
  5
906
330
23
100
AcDbEntity
  8
0
  6
Continuous
 62
     8
370
    25
100
AcDbCircle
 10
0.0
 20
0.0
 30
0.0
 40
0.6783136482939471
100
AcDbArc
 50
309.6765032948
 51
230.3234967052
  0
VIEWPORT
  5
9AD
330
23
100
AcDbEntity
  8
0
100
AcDbViewport
 10
0.0
 20
0.0
 30
0.0
 40
8.4
 41
6.4
 68
     1
 69
     1
 12
0.0
 22
4.2864173228
 13
0.0
 23
0.0
 14
0.5
 24
0.5
 15
0.5
 25
0.5
 16
0.0
 26
0.0
 36
1.0
 17
0.0
 27
0.0
 37
0.0
 42
50.0
 43
0.0
 44
0.0
 45
8.8045275591
 50
0.0
 51
0.0
 72
   100
 90
   557152
  1

281
     0
 71
     1
 74
     0
110
0.0
120
0.0
130
0.0
111
1.0
121
0.0
131
0.0
112
0.0
122
1.0
132
0.0
 79
     0
146
0.0
  0
ENDBLK
  5
25
330
23
100
AcDbEntity
  8
0
100
AcDbBlockEnd
  0
BLOCK
  5
909
330
907
100
AcDbEntity
  8
0
100
AcDbBlockBegin
  2
*Paper_Space1
 70
     0
 10
0.0
 20
0.0
 30
0.0
  3
*Paper_Space1
  1

  0
SPLINE
  5
90B
330
907
100
AcDbEntity
  8
0
  6
Continuous
 62
     7
370
    25
100
AcDbSpline
210
0.0
220
0.0
230
1.0
 70
     8
 71
     3
 72
    30
 73
    26
 74
     0
 42
0.000000001
 43
0.00000001
 40
0.0
 40
0.0
 40
0.0
 40
0.0
 40
0.0312605838290552
 40
0.0767216458667115
 40
0.1223159677727404
 40
0.1679760943742598
 40
0.213653349117239
 40
0.2593184602227248
 40
0.3049629052641941
 40
0.3505854242866084
 40
0.3961886903658491
 40
0.4417773603042529
 40
0.4873570295146352
 40
0.532933720101119
 40
0.5785133034248472
 40
0.6241003817121618
 40
0.6697013495247658
 40
0.7153225335655604
 40
0.7609698757569603
 40
0.8066482358422985
 40
0.8523600009571487
 40
0.8981025375854054
 40
0.9438632778061397
 40
0.9896021419305422
 40
1.0
 40
1.0
 40
1.0
 40
1.0
 10
3.584256720905517
 20
-0.0989828864825166
 30
0.0
 10
3.575306161496492
 20
-0.0878783728566423
 30
0.0
 10
3.553339148562782
 20
-0.0606249931185917
 30
0.0
 10
3.508967971352444
 20
-0.0203916230384206
 30
0.0
 10
3.452996184003636
 20
0.0216386383240791
 30
0.0
 10
3.389649787762575
 20
0.0599392524433228
 30
0.0
 10
3.320025617180633
 20
0.0942259020161048
 30
0.0
 10
3.244777980366619
 20
0.1241143221525824
 30
0.0
 10
3.164740180290442
 20
0.1493172410477965
 30
0.0
 10
3.08074618948949
 20
0.1695872287547529
 30
0.0
 10
2.993674763079707
 20
0.1847288376987472
 30
0.0
 10
2.904430466480322
 20
0.1945956437369224
 30
0.0
 10
2.813939137499971
 20
0.1990924640382646
 30
0.0
 10
2.723138541885295
 20
0.1981760499276657
 30
0.0
 10
2.632970294334561
 20
0.1918557247989885
 30
0.0
 10
2.544368887983287
 20
0.1801933774756468
 30
0.0
 10
2.458252388022352
 20
0.1633022000934526
 30
0.0
 10
2.375510506804468
 20
0.1413451104926575
 30
0.0
 10
2.297004818688993
 20
0.1145300988131101
 30
0.0
 10
2.223533829650065
 20
0.0831157876540679
 30
0.0
 10
2.15593084671565
 20
0.0473769779819735
 30
0.0
 10
2.094673801022315
 20
0.0077211970581584
 30
0.0
 10
2.041332094423172
 20
-0.0357477084536365
 30
0.0
 10
2.00555088850347
 20
-0.06979519129055
 30
0.0
 10
1.990402390941591
 20
-0.0900060987337477
 30
0.0
 10
1.987596528371454
 20
-0.0937496401953173
 30
0.0
  0
SPLINE
  5
912
330
907
100
AcDbEntity
  8
0
  6
Continuous
 62
     7
370
    25
100
AcDbSpline
210
0.0
220
0.0
230
1.0
 70
     8
 71
     3
 72
    20
 73
    16
 74
     0
 42
0.000000001
 43
0.00000001
 40
0.0
 40
0.0
 40
0.0
 40
0.0
 40
0.00618645584615
 40
0.0929522770531892
 40
0.1800612003247515
 40
0.2673692923126539
 40
0.3547626111558476
 40
0.4421594166882833
 40
0.5295242391093565
 40
0.6168473097539193
 40
0.7041298294427538
 40
0.7913787662601955
 40
0.878603920582309
 40
0.9658164048153892
 40
1.0
 40
1.0
 40
1.0
 40
1.0
 10
-1.9836684779766
 20
3.116361234454378
 30
0.0
 10
-1.984503019196793
 20
3.117535813543633
 30
0.0
 10
-1.997042105976167
 20
3.135184012066421
 30
0.0
 10
-2.02914081269301
 20
3.167017646303631
 30
0.0
 10
-2.08009452273071
 20
3.211140617413687
 30
0.0
 10
-2.139418054516218
 20
3.251633902809876
 30
0.0
 10
-2.20528336872147
 20
3.288397021802858
 30
0.0
 10
-2.277278163944639
 20
3.320953492224227
 30
0.0
 10
-2.354537890849184
 20
3.348997079215005
 30
0.0
 10
-2.436266494873474
 20
3.372254408854965
 30
0.0
 10
-2.521598649752171
 20
3.3904706309003
 30
0.0
 10
-2.609657670138708
 20
3.403585165571671
 30
0.0
 10
-2.699489005930971
 20
3.411038925204325
 30
0.0
 10
-2.771903158787533
 20
3.41369803663329
 30
0.0
 10
-2.813878227270322
 20
3.411960193143423
 30
0.0
 10
-2.825697873800463
 20
3.411470838473676
 30
0.0
  0
SPLINE
  5
91C
330
907
100
AcDbEntity
  8
0
  6
Continuous
 62
     7
370
    25
100
AcDbSpline
210
0.0
220
0.0
230
1.0
 70
     8
 71
     3
 72
    22
 73
    18
 74
     0
 42
0.000000001
 43
0.00000001
 40
0.0
 40
0.0
 40
0.0
 40
0.0
 40
0.0405276731797473
 40
0.1158775483645254
 40
0.191258482815633
 40
0.2664354949569147
 40
0.3412234996346621
 40
0.4154147583455411
 40
0.4888016962544971
 40
0.561206303822942
 40
0.6325080572682231
 40
0.7026622426544911
 40
0.7717046063184394
 40
0.8397438242616783
 40
0.9069467876465391
 40
0.9735219108192502
 40
1.0
 40
1.0
 40
1.0
 40
1.0
 10
0.4330708661417324
 20
4.741723218627879
 30
0.0
 10
0.4328523876089658
 20
4.766995849314942
 30
0.0
 10
0.4322277093395029
 20
4.839255869567042
 30
0.0
 10
0.4253225294265937
 20
4.95621922786628
 30
0.0
 10
0.4098311766517896
 20
5.09112151069337
 30
0.0
 10
0.3864370042762464
 20
5.221912367735808
 30
0.0
 10
0.3552743574279616
 20
5.347941953772913
 30
0.0
 10
0.3163938979192268
 20
5.468539299341587
 30
0.0
 10
0.2699882730126482
 20
5.583068443083704
 30
0.0
 10
0.2163344477303849
 20
5.690947067406618
 30
0.0
 10
0.1557887929386723
 20
5.79167664017606
 30
0.0
 10
0.0887702124249249
 20
5.884879122586104
 30
0.0
 10
0.0156878201466837
 20
5.970216108715388
 30
0.0
 10
-0.0629160706047652
 20
6.047665763175152
 30
0.0
 10
-0.1469924399480614
 20
6.11643458433088
 30
0.0
 10
-0.2173317675507511
 20
6.166457340322958
 30
0.0
 10
-0.2611068874656969
 20
6.190586666252914
 30
0.0
 10
-0.2735630026248726
 20
6.197452613464042
 30
0.0
  0
SPLINE
  5
91D
330
907
100
AcDbEntity
  8
0
  6
Continuous
 62
     7
370
    25
100
AcDbSpline
210
0.0
220
0.0
230
1.0
 70
     8
 71
     3
 72
    38
 73
    34
 74
     0
 42
0.000000001
 43
0.00000001
 40
0.0
 40
0.0
 40
0.0
 40
0.0
 40
0.0170945683308212
 40
0.0500719978499274
 40
0.0831185429423011
 40
0.1162315353135264
 40
0.1493950754187133
 40
0.182592992502749
 40
0.2158089789141108
 40
0.2490266611209444
 40
0.2822242329134571
 40
0.3153852216433022
 40
0.3484932586882282
 40
0.3815321078664395
 40
0.4144858405296356
 40
0.4473391363432047
 40
0.4800777643004441
 40
0.5126893157326942
 40
0.5451642841221527
 40
0.5774976172307057
 40
0.6096909084732465
 40
0.6417554521763421
 40
0.6737164721816582
 40
0.7056189665550638
 40
0.7375227747868423
 40
0.7695121856398622
 40
0.8017343954463174
 40
0.8344067342322974
 40
0.8678482558236531
 40
0.9025285165282647
 40
0.9391391867365213
 40
0.9786575074237445
 40
1.0
 40
1.0
 40
1.0
 40
1.0
 10
-2.793443269276585
 20
3.517838108019964
 30
0.0
 10
-2.786993439553253
 20
3.53863327072559
 30
0.0
 10
-2.768101130967909
 20
3.599544744015478
 30
0.0
 10
-2.732502782493856
 20
3.701298678446233
 30
0.0
 10
-2.684918109084549
 20
3.822750695735706
 30
0.0
 10
-2.631943215813421
 20
3.943999154767945
 30
0.0
 10
-2.573907189858887
 20
4.064384995206963
 30
0.0
 10
-2.511060410202397
 20
4.18327108118599
 30
0.0
 10
-2.443723588557974
 20
4.300025728470951
 30
0.0
 10
-2.372247445964998
 20
4.414029539313163
 30
0.0
 10
-2.297019357829776
 20
4.524683113878027
 30
0.0
 10
-2.218458292327534
 20
4.63141167130968
 30
0.0
 10
-2.137009088497113
 20
4.733673911680754
 30
0.0
 10
-2.053144394397486
 20
4.830959742549283
 30
0.0
 10
-1.967363029585355
 20
4.922794315639343
 30
0.0
 10
-1.88018801535999
 20
5.008742569755588
 30
0.0
 10
-1.792164258013239
 20
5.08841425797099
 30
0.0
 10
-1.703855652699963
 20
5.161469515082073
 30
0.0
 10
-1.615841345209652
 20
5.227624972572656
 30
0.0
 10
-1.528710802260089
 20
5.286660361793692
 30
0.0
 10
-1.443057249244586
 20
5.338425432234723
 30
0.0
 10
-1.359468911687602
 20
5.382846847065464
 30
0.0
 10
-1.278517367206406
 20
5.419934429984798
 30
0.0
 10
-1.200752655158347
 20
5.449781773229193
 30
0.0
 10
-1.126691684833504
 20
5.47256919300623
 30
0.0
 10
-1.056777454106294
 20
5.488571689990434
 30
0.0
 10
-0.9913346415478134
 20
5.49814632387142
 30
0.0
 10
-0.9305099834730455
 20
5.501710128678042
 30
0.0
 10
-0.874239089076313
 20
5.499641258198223
 30
0.0
 10
-0.8220783434085236
 20
5.492311070183239
 30
0.0
 10
-0.7734321980375802
 20
5.479308577816803
 30
0.0
 10
-0.7349292445628326
 20
5.464754173722389
 30
0.0
 10
-0.713620044345165
 20
5.451754629881918
 30
0.0
 10
-0.706147396132552
 20
5.447195987743687
 30
0.0
  0
SPLINE
  5
91E
330
907
100
AcDbEntity
  8
0
  6
Continuous
 62
     7
370
    25
100
AcDbSpline
210
0.0
220
0.0
230
1.0
 70
     8
 71
     3
 72
    41
 73
    37
 74
     0
 42
0.000000001
 43
0.00000001
 40
0.0
 40
0.0
 40
0.0
 40
0.0
 40
0.0164873399719232
 40
0.043906082306741
 40
0.0713347166277527
 40
0.0988760844798596
 40
0.1266266384200109
 40
0.1546718709744936
 40
0.1830812615148891
 40
0.2119030078903805
 40
0.2411594006424532
 40
0.2708441878806149
 40
0.3009233483581745
 40
0.3313400117660163
 40
0.362022904213375
 40
0.3928963214342288
 40
0.4238891206203658
 40
0.4549408882711344
 40
0.4859964082405929
 40
0.5170226315774845
 40
0.5480017261996107
 40
0.5789246236286183
 40
0.6097887493229526
 40
0.640596132477179
 40
0.6713519535031358
 40
0.7020634869530187
 40
0.7327393639958182
 40
0.7633890762025052
 40
0.7940226527006508
 40
0.824650455908715
 40
0.8552829847324
 40
0.8859274460782437
 40
0.916594581649613
 40
0.9472951080828117
 40
0.9780395890443989
 40
1.0
 40
1.0
 40
1.0
 40
1.0
 10
-0.2735630026248726
 20
6.197452613464042
 30
0.0
 10
-0.2919796916761157
 20
6.208211808885514
 30
0.0
 10
-0.3410236652145108
 20
6.236863739429428
 30
0.0
 10
-0.4256327670786646
 20
6.274263202459823
 30
0.0
 10
-0.5262063687063945
 20
6.310312570311725
 30
0.0
 10
-0.6303600461807057
 20
6.337521885050079
 30
0.0
 10
-0.7375995766067066
 20
6.35630008475691
 30
0.0
 10
-0.8477802323713766
 20
6.366460280337968
 30
0.0
 10
-0.9606700051939553
 20
6.367949892569343
 30
0.0
 10
-1.076039172887543
 20
6.360662032901431
 30
0.0
 10
-1.193605907660055
 20
6.344506125977807
 30
0.0
 10
-1.313026401695192
 20
6.319416796087499
 30
0.0
 10
-1.433885550828306
 20
6.285383279913638
 30
0.0
 10
-1.555705097639076
 20
6.242469124374888
 30
0.0
 10
-1.677964195011943
 20
6.190822784038873
 30
0.0
 10
-1.800127436958929
 20
6.130674859094772
 30
0.0
 10
-1.921672014115622
 20
6.062324532897821
 30
0.0
 10
-2.042096747845469
 20
5.986127195054148
 30
0.0
 10
-2.160943595659097
 20
5.902471350937324
 30
0.0
 10
-2.277802962846509
 20
5.811759888862552
 30
0.0
 10
-2.392317545187733
 20
5.714389878207906
 30
0.0
 10
-2.504162446162918
 20
5.610754719574858
 30
0.0
 10
-2.613032814914289
 20
5.501247145078895
 30
0.0
 10
-2.718638181922277
 20
5.386260054661847
 30
0.0
 10
-2.82069849679789
 20
5.266187869578359
 30
0.0
 10
-2.918941654735864
 20
5.141427827438142
 30
0.0
 10
-3.01310220255891
 20
5.01238093149723
 30
0.0
 10
-3.102920751880069
 20
4.879452452318101
 30
0.0
 10
-3.188144269741607
 20
4.743051969819611
 30
0.0
 10
-3.268525204713352
 20
4.60359315510625
 30
0.0
 10
-3.343823129102532
 20
4.461498291246082
 30
0.0
 10
-3.413793709009594
 20
4.317192714058416
 30
0.0
 10
-3.478245536275243
 20
4.171102083469712
 30
0.0
 10
-3.536830995814311
 20
4.02365054442266
 30
0.0
 10
-3.584753707075705
 20
3.889465990006448
 30
0.0
 10
-3.61126700729372
 20
3.804560629265006
 30
0.0
 10
-3.622314235499627
 20
3.769183332274336
 30
0.0
  0
SPLINE
  5
91F
330
907
100
AcDbEntity
  8
0
  6
Continuous
 62
     7
370
    25
100
AcDbSpline
210
0.0
220
0.0
230
1.0
 70
     8
 71
     3
 72
    19
 73
    15
 74
     0
 42
0.000000001
 43
0.00000001
 40
0.0
 40
0.0
 40
0.0
 40
0.0
 40
0.056068839462322
 40
0.1589927474811322
 40
0.2525227126600731
 40
0.3396894383838394
 40
0.4226901066860705
 40
0.5106970829235162
 40
0.5956696086231495
 40
0.678793853811511
 40
0.7609077083142896
 40
0.8425424637312808
 40
0.9240376689300388
 40
1.0
 40
1.0
 40
1.0
 40
1.0
 10
-0.7061473961325518
 20
5.447195987743685
 30
0.0
 10
-0.6982104897638466
 20
5.442830229453655
 30
0.0
 10
-0.6757040394402414
 20
5.430450377970611
 30
0.0
 10
-0.6432362179301475
 20
5.403615756445889
 30
0.0
 10
-0.6074175957661545
 20
5.367206283568721
 30
0.0
 10
-0.5753141125676648
 20
5.325524412417426
 30
0.0
 10
-0.5451912360788278
 20
5.276974599898967
 30
0.0
 10
-0.5173071570487594
 20
5.220536788990299
 30
0.0
 10
-0.4922148089463256
 20
5.155526444372484
 30
0.0
 10
-0.4711265735303172
 20
5.084024117722301
 30
0.0
 10
-0.4542540540249818
 20
5.00610548455464
 30
0.0
 10
-0.4420237791699824
 20
4.92180346670493
 30
0.0
 10
-0.4344512134787145
 20
4.833891716720707
 30
0.0
 10
-0.4335200755539337
 20
4.771717811830991
 30
0.0
 10
-0.4330708661417324
 20
4.741723218627878
 30
0.0
  0
SPLINE
  5
922
330
907
100
AcDbEntity
  8
0
  6
Continuous
 62
     7
370
    25
100
AcDbSpline
210
0.0
220
0.0
230
1.0
 70
     8
 71
     3
 72
    10
 73
     6
 74
     0
 42
0.000000001
 43
0.00000001
 40
0.0
 40
0.0
 40
0.0
 40
0.0
 40
0.2326335535501291
 40
0.621712194901216
 40
1.0
 40
1.0
 40
1.0
 40
1.0
 10
-3.738826610739317
 20
3.1588340359048
 30
0.0
 10
-3.733526149789319
 20
3.153574905158645
 30
0.0
 10
-3.719360690160118
 20
3.139519900325642
 30
0.0
 10
-3.68822072403738
 20
3.116486779966577
 30
0.0
 10
-3.659498012084137
 20
3.09905763010369
 30
0.0
 10
-3.645338607914794
 20
3.090465600993124
 30
0.0
  0
SPLINE
  5
924
330
907
100
AcDbEntity
  8
0
  6
Continuous
 62
     7
370
    25
100
AcDbSpline
210
0.0
220
0.0
230
1.0
 70
     8
 71
     3
 72
    15
 73
    11
 74
     0
 42
0.000000001
 43
0.00000001
 40
0.0
 40
0.0
 40
0.0
 40
0.0
 40
0.0914461190217675
 40
0.2292466186251605
 40
0.3674361123307302
 40
0.5058979383805248
 40
0.6445262691422298
 40
0.7832244323804721
 40
0.9219031312340874
 40
1.0
 40
1.0
 40
1.0
 40
1.0
 10
0.6728009628647093
 20
2.304576777685635
 30
0.0
 10
0.6584334982322803
 20
2.364616366632895
 30
0.0
 10
0.622415647278793
 20
2.515129837265013
 30
0.0
 10
0.57441597048479
 20
2.760416661675686
 30
0.0
 10
0.5278214509294565
 20
3.039449971626196
 30
0.0
 10
0.4904708668691086
 20
3.321575956752566
 30
0.0
 10
0.4619856447351881
 20
3.605872457147321
 30
0.0
 10
0.4431642938614481
 20
3.891668803641447
 30
0.0
 10
0.4336081023519335
 20
4.136572532039763
 30
0.0
 10
0.434053482829816
 20
4.286044243085241
 30
0.0
 10
0.4342139382774203
 20
4.339893819999847
 30
0.0
  0
SPLINE
  5
926
330
907
100
AcDbEntity
  8
0
  6
Continuous
 62
     7
370
    25
100
AcDbSpline
210
0.0
220
0.0
230
1.0
 70
     8
 71
     3
 72
    15
 73
    11
 74
     0
 42
0.000000001
 43
0.00000001
 40
0.0
 40
0.0
 40
0.0
 40
0.0
 40
0.0604712785072109
 40
0.1988432292482879
 40
0.3369294592375703
 40
0.4746503529981164
 40
0.6119260438728455
 40
0.7486731305127234
 40
0.8848031580971143
 40
1.0
 40
1.0
 40
1.0
 40
1.0
 10
-0.4342139448816963
 20
4.339873921241501
 30
0.0
 10
-0.4339492592581043
 20
4.298173352442417
 30
0.0
 10
-0.4330789131131265
 20
4.161052458586806
 30
0.0
 10
-0.4414301331411407
 20
3.928832504126581
 30
0.0
 10
-0.4588799677194243
 20
3.644115217976927
 30
0.0
 10
-0.4859550991004323
 20
3.361412520047372
 30
0.0
 10
-0.5217142946256607
 20
3.081360319444609
 30
0.0
 10
-0.5663994593196741
 20
2.804749625477742
 30
0.0
 10
-0.6160387656505629
 20
2.545292535128441
 30
0.0
 10
-0.654727446781658
 20
2.379896957922041
 30
0.0
 10
-0.6724605840812315
 20
2.30408712430675
 30
0.0
  0
SPLINE
  5
927
330
907
100
AcDbEntity
  8
0
  6
Continuous
 62
     7
370
    25
100
AcDbSpline
210
0.0
220
0.0
230
1.0
 70
     8
 71
     3
 72
    15
 73
    11
 74
     0
 42
0.000000001
 43
0.00000001
 40
0.0
 40
0.0
 40
0.0
 40
0.0
 40
0.0497024658149587
 40
0.196130435486214
 40
0.3422364565266266
 40
0.4879466236237106
 40
0.633188806327499
 40
0.7778871314387079
 40
0.9219603391080061
 40
0.9999999999999999
 40
0.9999999999999999
 40
0.9999999999999999
 40
0.9999999999999999
 10
0.8847848491059183
 20
0.4822126626479467
 30
0.0
 10
0.8850707514759468
 20
0.5128267548438782
 30
0.0
 10
0.886198948144278
 20
0.6336327377252352
 30
0.0
 10
0.8786604105760557
 20
0.8443679186179875
 30
0.0
 10
0.8621863188629105
 20
1.113561654092625
 30
0.0
 10
0.8359607220003397
 20
1.380887248068401
 30
0.0
 10
0.8010978499204328
 20
1.64578757094902
 30
0.0
 10
0.7570672695254149
 20
1.907457174000218
 30
0.0
 10
0.7138112584136053
 20
2.126957576061684
 30
0.0
 10
0.6820087431378044
 20
2.257799615269117
 30
0.0
 10
0.6708348857935096
 20
2.303771145132762
 30
0.0
  0
SPLINE
  5
928
330
907
100
AcDbEntity
  8
0
  6
Continuous
 62
     7
370
    25
100
AcDbSpline
210
0.0
220
0.0
230
1.0
 70
     8
 71
     3
 72
    15
 73
    11
 74
     0
 42
0.000000001
 43
0.00000001
 40
0.0
 40
0.0
 40
0.0
 40
0.0
 40
0.0224459776021969
 40
0.1688104958520009
 40
0.3154715222967964
 40
0.4623178656092284
 40
0.6092504827254305
 40
0.75618022528503
 40
0.9030256760272739
 40
1.0
 40
1.0
 40
1.0
 40
1.0
 10
-0.671380828678812
 20
2.303644146931848
 30
0.0
 10
-0.674724861921162
 20
2.290478471356289
 30
0.0
 10
-0.6998744864904827
 20
2.191462769678001
 30
0.0
 10
-0.7385706216442821
 20
2.003144794930274
 30
0.0
 10
-0.7866989948128771
 20
1.738998575144556
 30
0.0
 10
-0.8250036550422888
 20
1.471871955559909
 30
0.0
 10
-0.8544873981949045
 20
1.202862908458734
 30
0.0
 10
-0.8742996585290409
 20
0.9325176267701534
 30
0.0
 10
-0.8848539325915304
 20
0.6921041773677463
 30
0.0
 10
-0.8848045070880873
 20
0.5419330934633213
 30
0.0
 10
-0.8847848491059199
 20
0.4822056191068739
 30
0.0
  0
SPLINE
  5
92E
330
907
100
AcDbEntity
  8
0
  6
Continuous
 62
     7
370
    25
100
AcDbSpline
210
0.0
220
0.0
230
1.0
 70
     8
 71
     3
 72
    11
 73
     7
 74
     0
 42
0.000000001
 43
0.00000001
 40
0.0
 40
0.0
 40
0.0
 40
0.0
 40
0.3032636305531773
 40
0.6064326270516528
 40
0.9120518612013042
 40
1.0
 40
1.0
 40
1.0
 40
1.0
 10
3.236458873128601
 20
-1.066209068204724
 30
0.0
 10
3.237794002306138
 20
-1.07872934338393
 30
0.0
 10
3.240463844031339
 20
-1.103765986764102
 30
0.0
 10
3.261470240825774
 20
-1.129994323570555
 30
0.0
 10
3.283483641089448
 20
-1.143959548113678
 30
0.0
 10
3.298878727639596
 20
-1.14328009006936
 30
0.0
 10
3.302318975235802
 20
-1.143128255658032
 30
0.0
  0
SPLINE
  5
92F
330
907
100
AcDbEntity
  8
0
  6
Continuous
 62
     7
370
    25
100
AcDbSpline
210
0.0
220
0.0
230
1.0
 70
     8
 71
     3
 72
    16
 73
    12
 74
     0
 42
0.000000001
 43
0.00000001
 40
0.0
 40
0.0
 40
0.0
 40
0.0
 40
0.057455255834813
 40
0.1794671664456379
 40
0.3026328647426691
 40
0.4252784311532029
 40
0.5465601302069897
 40
0.6677395581923604
 40
0.7902156474048229
 40
0.9134219340672233
 40
1.0
 40
1.0
 40
1.0
 40
1.0
 10
3.445408052005203
 20
-0.9230441547500744
 30
0.0
 10
3.443752584977879
 20
-0.9183721682662775
 30
0.0
 10
3.438581570207839
 20
-0.9037787570328479
 30
0.0
 10
3.419299385957923
 20
-0.8919529183262311
 30
0.0
 10
3.389680036624171
 20
-0.8890723431763583
 30
0.0
 10
3.353891489910144
 20
-0.9004782572380383
 30
0.0
 10
3.316643884557398
 20
-0.9237075296382775
 30
0.0
 10
3.281969315108281
 20
-0.9564632139422535
 30
0.0
 10
3.254471757729788
 20
-0.9956789424672385
 30
0.0
 10
3.2388236509304
 20
-1.033994855898911
 30
0.0
 10
3.237149709333333
 20
-1.056798144205525
 30
0.0
 10
3.236458873128601
 20
-1.066209068204724
 30
0.0
  0
LWPOLYLINE
  5
932
330
907
100
AcDbEntity
  8
0
  6
Continuous
 62
     7
370
    25
100
AcDbPolyline
 90
       22
 70
   128
 43
0.0
 10
1.8980581936
 20
-0.9480834231
 10
1.9025822857
 20
-0.999700358
 10
1.9174157484
 20
-1.0544049721
 10
1.9424077705
 20
-1.1078630633
 10
1.9772653434
 20
-1.1594478844
 10
2.0215797938
 20
-1.2085546503
 10
2.0748315753
 20
-1.2546076293
 10
2.1363963596
 20
-1.2970668922
 10
2.2055523557
 20
-1.3354346431
 10
2.281488773
 20
-1.369261055
 10
2.3633153262
 20
-1.3981495443
 10
2.4500726739
 20
-1.4217614198
 10
2.5407436656
 20
-1.4398198539
 10
2.6342652666
 20
-1.4521131279
 10
2.7295410219
 20
-1.4584971145
 10
2.8254539102
 20
-1.4588969672
 10
2.9208794406
 20
-1.4533079982
 10
3.014698836
 20
-1.4417957329
 10
3.1058121499
 20
-1.4244951423
 10
3.1931511618
 20
-1.4016090598
 10
3.2756919018
 20
-1.3734058039
 10
3.3524666552
 20
-1.3402160319
  0
LWPOLYLINE
  5
934
330
907
100
AcDbEntity
  8
0
  6
Continuous
 62
     7
370
    25
100
AcDbPolyline
 90
       11
 70
   128
 43
0.0
 10
3.7115901565
 20
-1.1468562687
 10
3.6929251696
 20
-1.1399787309
 10
3.6695886059
 20
-1.1421765878
 10
3.644748104
 20
-1.1536618111
 10
3.6210955178
 20
-1.1731897986
 10
3.6011939721
 20
-1.1986443898
 10
3.587200108
 20
-1.2272671848
 10
3.580630378
 20
-1.2559564597
 10
3.5821967141
 20
-1.2816032863
 10
3.5917293797
 20
-1.3014284331
 10
3.5998302897
 20
-1.3089050566
  0
LWPOLYLINE
  5
938
330
907
100
AcDbEntity
  8
0
  6
Continuous
 62
     7
370
    25
100
AcDbPolyline
 90
       31
 70
   128
 43
0.0
 10
-3.669711737
 20
2.2661217415
 10
-3.6651876449
 20
2.2145048067
 10
-3.6503541822
 20
2.1598001925
 10
-3.6253621601
 20
2.1063421013
 10
-3.5905045872
 20
2.0547572803
 10
-3.5461901368
 20
2.0056505143
 10
-3.4929383553
 20
1.9595975353
 10
-3.431373571
 20
1.9171382724
 10
-3.3622175749
 20
1.8787705216
 10
-3.2862811576
 20
1.8449441097
 10
-3.2044546044
 20
1.8160556204
 10
-3.1176972567
 20
1.7924437449
 10
-3.027026265
 20
1.7743853108
 10
-2.933504664
 20
1.7620920368
 10
-2.8382289087
 20
1.7557080502
 10
-2.7423160204
 20
1.7553081974
 10
-2.64689049
 20
1.7608971665
 10
-2.5530710946
 20
1.7724094317
 10
-2.4619577807
 20
1.7897100224
 10
-2.3746187688
 20
1.8125961049
 10
-2.2920780288
 20
1.8407993608
 10
-2.2153032754
 20
1.8739891328
 10
-2.1451946226
 20
1.911776301
 10
-2.08257403
 20
1.9537178456
 10
-2.0281756669
 20
1.9993220402
 10
-1.9826373045
 20
2.0480542174
 10
-1.9464928382
 20
2.0993430369
 10
-1.920166029
 20
2.1525871842
 10
-1.9039655346
 20
2.2071624205
 10
-1.8980812911
 20
2.2624289008
 10
-1.8980581936
 20
2.2661217415
  0
LWPOLYLINE
  5
93D
330
907
100
AcDbEntity
  8
0
  6
Continuous
 62
     7
370
    25
100
AcDbPolyline
 90
       31
 70
   128
 43
0.0
 10
-3.669711737
 20
1.6071025823
 10
-3.6667895624
 20
1.565599884
 10
-3.6538409835
 20
1.5107359948
 10
-3.6306929657
 20
1.4570019158
 10
-3.5976168984
 20
1.4050276298
 10
-3.5550005681
 20
1.3554224879
 10
-3.5033436124
 20
1.308768065
 10
-3.443251662
 20
1.2656113415
 10
-3.3754292398
 20
1.2264582906
 10
-3.3006715019
 20
1.191767946
 10
-3.2198549144
 20
1.1619470202
 10
-3.1339269778
 20
1.1373451364
 10
-3.0438951186
 20
1.1182507292
 10
-2.9508148782
 20
1.104887663
 10
-2.8557775371
 20
1.0974126075
 10
-2.7598973214
 20
1.095913201
 10
-2.6642983389
 20
1.1004070226
 10
-2.5701014002
 20
1.1108413863
 10
-2.4784108783
 20
1.1270939588
 10
-2.3903017609
 20
1.1489741936
 10
-2.3068070466
 20
1.1762255648
 10
-2.2289056347
 20
1.2085285752
 10
-2.1575108481
 20
1.2455045013
 10
-2.0934597253
 20
1.2867198343
 10
-2.0375032072
 20
1.3316913622
 10
-1.9902973327
 20
1.3798918347
 10
-1.9523955477
 20
1.4307561456
 10
-1.9242422159
 20
1.4836879571
 10
-1.9061674093
 20
1.5380666924
 10
-1.8983830385
 20
1.5932548103
 10
-1.8980581936
 20
1.6071025823
  0
LWPOLYLINE
  5
941
330
907
100
AcDbEntity
  8
0
  6
Continuous
 62
     7
370
    25
100
AcDbPolyline
 90
        9
 70
   128
 43
0.0
 10
3.4102590825
 20
-1.9687006634
 10
3.4743102053
 20
-1.9274853303
 10
3.5302667234
 20
-1.8825138025
 10
3.5774725979
 20
-1.8343133299
 10
3.6153743829
 20
-1.7834490191
 10
3.6435277147
 20
-1.7305172075
 10
3.6616025213
 20
-1.6761384723
 10
3.6693868921
 20
-1.6209503544
 10
3.669711737
 20
-1.6071025823
  0
LWPOLYLINE
  5
942
330
907
100
AcDbEntity
  8
0
  6
Continuous
 62
     7
370
    25
100
AcDbPolyline
 90
       23
 70
   128
 43
0.0
 10
1.8980581936
 20
-1.6071025823
 10
1.9009803682
 20
-1.6486052806
 10
1.9139289471
 20
-1.7034691698
 10
1.9370769649
 20
-1.7572032489
 10
1.9701530322
 20
-1.8091775348
 10
2.0127693625
 20
-1.8587826768
 10
2.0644263182
 20
-1.9054370997
 10
2.1245182686
 20
-1.9485938232
 10
2.1923406908
 20
-1.9877468741
 10
2.2670984287
 20
-2.0224372187
 10
2.3479150162
 20
-2.0522581444
 10
2.4338429528
 20
-2.0768600282
 10
2.523874812
 20
-2.0959544355
 10
2.6169550524
 20
-2.1093175017
 10
2.7119923935
 20
-2.1167925571
 10
2.8078726092
 20
-2.1182919637
 10
2.9034715917
 20
-2.1137981421
 10
2.9976685304
 20
-2.1033637784
 10
3.0893590523
 20
-2.0871112058
 10
3.1774681697
 20
-2.0652309711
 10
3.260962884
 20
-2.0379795998
 10
3.3388642959
 20
-2.0056765895
 10
3.4102590825
 20
-1.9687006634
  0
LWPOLYLINE
  5
947
330
907
100
AcDbEntity
  8
0
  6
Continuous
 62
     7
370
    25
100
AcDbPolyline
 90
       14
 70
   128
 43
0.0
 10
-2.9946493122
 20
2.9604850236
 10
-3.0004729609
 20
2.9576592087
 10
-3.0313987531
 20
2.9477151219
 10
-3.0706251167
 20
2.9418611154
 10
-3.1171861684
 20
2.9402413342
 10
-3.1699354206
 20
2.9428956627
 10
-3.2275740116
 20
2.9497587425
 10
-3.2886826881
 20
2.9606615819
 10
-3.3517567516
 20
2.9753357167
 10
-3.4152431093
 20
2.993419821
 10
-3.4775785164
 20
3.0144686042
 10
-3.5372280683
 20
3.0379637754
 10
-3.5927229952
 20
3.0633268055
 10
-3.6426968276
 20
3.0899331725
  0
LWPOLYLINE
  5
948
330
907
100
AcDbEntity
  8
0
  6
Continuous
 62
     7
370
    25
100
AcDbPolyline
 90
        9
 70
   128
 43
0.0
 10
-3.6426968276
 20
3.0899331725
 10
-3.6441339286
 20
3.0900092862
 10
-3.6453903976
 20
3.0904960276
 10
-3.6464179494
 20
3.0913746915
 10
-3.6471770956
 20
3.0926115114
 10
-3.6476386627
 20
3.0941589569
 10
-3.6477849129
 20
3.0959575607
 10
-3.6476102259
 20
3.0979382033
 10
-3.6471213149
 20
3.1000247698
  0
LWPOLYLINE
  5
951
330
907
100
AcDbEntity
  8
0
  6
Continuous
 62
     7
370
    25
100
AcDbPolyline
 90
       23
 70
   128
 43
0.0
 10
-0.6263741172
 20
-0.361598081
 10
-0.5549793306
 20
-0.3985740072
 10
-0.4770779187
 20
-0.4308770175
 10
-0.3935832044
 20
-0.4581283887
 10
-0.305474087
 20
-0.4800086235
 10
-0.2137835651
 20
-0.496261196
 10
-0.1195866264
 20
-0.5066955598
 10
-0.0239876439
 20
-0.5111893814
 10
0.0718925718
 20
-0.5096899748
 10
0.1669299129
 20
-0.5022149193
 10
0.2600101533
 20
-0.4888518531
 10
0.3500420125
 20
-0.4697574459
 10
0.4359699491
 20
-0.4451555621
 10
0.5167865366
 20
-0.4153346364
 10
0.5915442745
 20
-0.3806442917
 10
0.6593666967
 20
-0.3414912408
 10
0.7194586471
 20
-0.2983345174
 10
0.7711156028
 20
-0.2516800944
 10
0.8137319331
 20
-0.2020749525
 10
0.8468080004
 20
-0.1501006665
 10
0.8699560182
 20
-0.0963665875
 10
0.8829045971
 20
-0.0415026983
 10
0.8858267717
 20
0.0
  0
LWPOLYLINE
  5
952
330
907
100
AcDbEntity
  8
0
  6
Continuous
 62
     7
370
    25
100
AcDbPolyline
 90
        9
 70
   128
 43
0.0
 10
-0.8858267717
 20
0.0
 10
-0.8855019268
 20
-0.0138477721
 10
-0.877717556
 20
-0.06903589
 10
-0.8596427494
 20
-0.1234146252
 10
-0.8314894176
 20
-0.1763464368
 10
-0.7935876326
 20
-0.2272107476
 10
-0.7463817581
 20
-0.2754112202
 10
-0.69042524
 20
-0.320382748
 10
-0.6263741172
 20
-0.361598081
  0
LWPOLYLINE
  5
953
330
907
100
AcDbEntity
  8
0
  6
Continuous
 62
     8
370
    25
100
AcDbPolyline
 90
       46
 70
   128
 43
0.0
 10
3.3398315065
 20
-0.6885564528
 10
3.409521709
 20
-0.6509232017
 10
3.4716175289
 20
-0.6090925854
 10
3.5253652071
 20
-0.5635723711
 10
3.5701123196
 20
-0.5149151124
 10
3.605315697
 20
-0.4637114425
 10
3.6305480182
 20
-0.4105829046
 10
3.6455029968
 20
-0.3561744073
 10
3.6499990996
 20
-0.3011463959
 10
3.6439817502
 20
-0.246166836
 10
3.6275239909
 20
-0.1919031049
 10
3.6008255966
 20
-0.1390138909
 10
3.5642106498
 20
-0.0881411974
 10
3.5181236062
 20
-0.0399025499
 10
3.4631239001
 20
0.0051164997
 10
3.3998791534
 20
0.0463694812
 10
3.3291570718
 20
0.0833556392
 10
3.2518161255
 20
0.1156260119
 10
3.1687951287
 20
0.1427888807
 10
3.081101844
 20
0.1645145251
 10
2.9898007489
 20
0.1805392252
 10
2.8960001152
 20
0.1906684629
 10
2.8008385555
 20
0.194779283
 10
2.7054712022
 20
0.1928217857
 10
2.6110556857
 20
0.1848197323
 10
2.5187380825
 20
0.170870257
 10
2.4296390033
 20
0.1511426874
 10
2.3448399902
 20
0.1258764895
 10
2.2653703884
 20
0.0953783609
 10
2.1921948512
 20
0.0600185073
 10
2.1262016304
 20
0.0202261496
 10
2.0681917943
 20
-0.023515687
 10
2.0188695039
 20
-0.0706760357
 10
1.9788334648
 20
-0.1206824339
 10
1.9485696604
 20
-0.1729278716
 10
1.9284454523
 20
-0.22677816
 10
1.918705121
 20
-0.2815796295
 10
1.9194669011
 20
-0.3366670645
 10
1.9307215454
 20
-0.3913717782
 10
1.952332438
 20
-0.4450297294
 10
1.9840372518
 20
-0.4969895834
 10
2.0254511333
 20
-0.5466206178
 10
2.0760713742
 20
-0.5933203792
 10
2.1352835132
 20
-0.6365219957
 10
2.2023687952
 20
-0.6757010582
 10
2.2195910078
 20
-0.6844707671
  0
LWPOLYLINE
  5
955
330
907
100
AcDbEntity
  8
0
  6
Continuous
 62
     8
370
    25
100
AcDbPolyline
 90
       18
 70
   128
 43
0.0
 10
3.3524666552
 20
-0.7133441488
 10
3.2756919018
 20
-0.7465339207
 10
3.1931511618
 20
-0.7747371766
 10
3.1058121499
 20
-0.7976232591
 10
3.014698836
 20
-0.8149238498
 10
2.9208794406
 20
-0.826436115
 10
2.8254539102
 20
-0.8320250841
 10
2.7295410219
 20
-0.8316252313
 10
2.6342652666
 20
-0.8252412448
 10
2.5407436656
 20
-0.8129479707
 10
2.4500726739
 20
-0.7948895366
 10
2.3633153262
 20
-0.7712776611
 10
2.281488773
 20
-0.7423891718
 10
2.2055523557
 20
-0.7085627599
 10
2.1363963596
 20
-0.6701950091
 10
2.0748315753
 20
-0.6277357462
 10
2.0215797938
 20
-0.5816827672
 10
1.9808687502
 20
-0.5371001859
  0
LWPOLYLINE
  5
957
330
907
100
AcDbEntity
  8
0
  6
Continuous
 62
     8
370
    25
100
AcDbPolyline
 90
       14
 70
   128
 43
0.0
 10
-3.6044150683
 20
3.0691871968
 10
-3.605315697
 20
3.0676408032
 10
-3.6305480182
 20
3.0145122654
 10
-3.6455029968
 20
2.960103768
 10
-3.6499990996
 20
2.9050757566
 10
-3.6439817502
 20
2.8500961967
 10
-3.6275239909
 20
2.7958324657
 10
-3.6008255966
 20
2.7429432517
 10
-3.5642106498
 20
2.6920705581
 10
-3.5181236062
 20
2.6438319106
 10
-3.4631239001
 20
2.598812861
 10
-3.3998791534
 20
2.5575598795
 10
-3.3291570718
 20
2.5205737215
 10
-3.2878626258
 20
2.5024140552
  0
LWPOLYLINE
  5
958
330
907
100
AcDbEntity
  8
0
  6
Continuous
 62
     8
370
    25
100
AcDbPolyline
 90
       26
 70
   128
 43
0.0
 10
-2.326834492
 20
2.4843363407
 10
-2.2653703884
 20
2.5085509999
 10
-2.1921948512
 20
2.5439108534
 10
-2.1262016304
 20
2.5837032112
 10
-2.0681917943
 20
2.6274450477
 10
-2.0188695039
 20
2.6746053965
 10
-1.9788334648
 20
2.7246117946
 10
-1.9485696604
 20
2.7768572323
 10
-1.9284454523
 20
2.8307075207
 10
-1.918705121
 20
2.8855089902
 10
-1.9194669011
 20
2.9405964252
 10
-1.9307215454
 20
2.9953011389
 10
-1.952332438
 20
3.0489590902
 10
-1.9840372518
 20
3.1009189441
 10
-2.0254511333
 20
3.1505499786
 10
-2.0760713742
 20
3.1972497399
 10
-2.1352835132
 20
3.2404513564
 10
-2.2023687952
 20
3.2796304189
 10
-2.2765128958
 20
3.3143113467
 10
-2.356815806
 20
3.3440731603
 10
-2.4423027573
 20
3.3685545915
 10
-2.5319360539
 20
3.387458469
 10
-2.6246276689
 20
3.4005553253
 10
-2.7192524518
 20
3.4076861823
 10
-2.8146617859
 20
3.408764481
 10
-2.8266073516
 20
3.4084716181
  0
LWPOLYLINE
  5
959
330
907
100
AcDbEntity
  8
0
  6
Continuous
 62
     8
370
    25
100
AcDbPolyline
 90
       22
 70
   128
 43
0.0
 10
-1.9842490959
 20
2.6729632733
 10
-2.0281756669
 20
2.6261939233
 10
-2.08257403
 20
2.5805897287
 10
-2.1451946226
 20
2.5386481842
 10
-2.2153032754
 20
2.5008610159
 10
-2.2920780288
 20
2.4676712439
 10
-2.3746187688
 20
2.439467988
 10
-2.4619577807
 20
2.4165819055
 10
-2.5530710946
 20
2.3992813149
 10
-2.64689049
 20
2.3877690496
 10
-2.7423160204
 20
2.3821800806
 10
-2.8382289087
 20
2.3825799333
 10
-2.933504664
 20
2.3889639199
 10
-3.027026265
 20
2.4012571939
 10
-3.1176972567
 20
2.419315628
 10
-3.2044546044
 20
2.4429275035
 10
-3.2862811576
 20
2.4718159928
 10
-3.3622175749
 20
2.5056424047
 10
-3.431373571
 20
2.5440101556
 10
-3.4929383553
 20
2.5864694185
 10
-3.5461901368
 20
2.6325223975
 10
-3.5877802963
 20
2.6781980886
  0
LWPOLYLINE
  5
95B
330
907
100
AcDbEntity
  8
0
  6
Continuous
 62
     8
370
    25
100
AcDbPolyline
 90
        3
 70
   128
 43
0.0
 10
-2.2683212606
 20
1.84826433
 10
-2.2060990326
 20
1.8775454443
 10
-2.164448155
 20
1.90056271
  0
LWPOLYLINE
  5
95C
330
907
100
AcDbEntity
  8
0
  6
Continuous
 62
     8
370
    25
100
AcDbPolyline
 90
       23
 70
   128
 43
0.0
 10
-1.9790849168
 20
2.0203109703
 10
-1.9902973327
 20
2.0067637179
 10
-2.0375032072
 20
1.9585632453
 10
-2.0934597253
 20
1.9135917175
 10
-2.1575108481
 20
1.8723763844
 10
-2.2289056347
 20
1.8354004583
 10
-2.3068070466
 20
1.803097448
 10
-2.3903017609
 20
1.7758460767
 10
-2.4784108783
 20
1.753965842
 10
-2.5701014002
 20
1.7377132694
 10
-2.6642983389
 20
1.7272789057
 10
-2.7598973214
 20
1.7227850841
 10
-2.8557775371
 20
1.7242844906
 10
-2.9508148782
 20
1.7317595461
 10
-3.0438951186
 20
1.7451226123
 10
-3.1339269778
 20
1.7642170196
 10
-3.2198549144
 20
1.7888189034
 10
-3.3006715019
 20
1.8186398291
 10
-3.3754292398
 20
1.8533301737
 10
-3.443251662
 20
1.8924832246
 10
-3.5033436124
 20
1.9356399481
 10
-3.5550005681
 20
1.982294371
 10
-3.5823888422
 20
2.0125783222
  0
LWPOLYLINE
  5
960
330
907
100
AcDbEntity
  8
0
  6
Continuous
 62
     8
370
    25
100
AcDbPolyline
 90
       19
 70
   128
 43
0.0
 10
3.4102590825
 20
-1.3418287802
 10
3.3388642959
 20
-1.3788047064
 10
3.260962884
 20
-1.4111077167
 10
3.1774681697
 20
-1.4383590879
 10
3.0893590523
 20
-1.4602393227
 10
2.9976685304
 20
-1.4764918952
 10
2.9034715917
 20
-1.486926259
 10
2.8078726092
 20
-1.4914200805
 10
2.7119923935
 20
-1.489920674
 10
2.6169550524
 20
-1.4824456185
 10
2.523874812
 20
-1.4690825523
 10
2.4338429528
 20
-1.4499881451
 10
2.3479150162
 20
-1.4253862613
 10
2.2670984287
 20
-1.3955653355
 10
2.1923406908
 20
-1.3608749909
 10
2.1245182686
 20
-1.32172194
 10
2.0644263182
 20
-1.2785652165
 10
2.0127693625
 20
-1.2319107936
 10
1.9850358443
 20
-1.2012113918
  0
LWPOLYLINE
  5
961
330
907
100
AcDbEntity
  8
0
  6
Continuous
 62
     8
370
    25
100
AcDbPolyline
 90
        3
 70
   128
 43
0.0
 10
3.5200938528
 20
-1.2646206634
 10
3.4743102053
 20
-1.3006134472
 10
3.4102590825
 20
-1.3418287802
  0
LWPOLYLINE
  5
963
330
907
100
AcDbEntity
  8
0
  6
Continuous
 62
     8
370
    25
100
AcDbPolyline
 90
       12
 70
   128
 43
0.0
 10
-0.3062273462
 20
4.5649419346
 10
-0.3099664666
 20
4.6793350532
 10
-0.3211633295
 20
4.7887839534
 10
-0.3397565518
 20
4.8926886181
 10
-0.3656442023
 20
4.9904794249
 10
-0.3986843608
 20
5.0816202685
 10
-0.4386958956
 20
5.1656114998
 10
-0.4854594568
 20
5.2419926649
 10
-0.538718679
 20
5.3103450297
 10
-0.5981815863
 20
5.3702938754
 10
-0.6635221933
 20
5.4215105524
 10
-0.705478892
 20
5.4479758238
  0
LWPOLYLINE
  5
964
330
907
100
AcDbEntity
  8
0
  6
Continuous
 62
     8
370
    25
100
AcDbPolyline
 90
       16
 70
   128
 43
0.0
 10
-2.7934571563
 20
3.5177924093
 10
-2.7944485091
 20
3.5149262957
 10
-2.8070556407
 20
3.4971463934
 10
-2.8295323675
 20
3.4829704666
 10
-2.861325238
 20
3.4727475736
 10
-2.9016514062
 20
3.4667294361
 10
-2.9495179079
 20
3.4650642405
 10
-3.0037461111
 20
3.4677929894
 10
-3.0630007374
 20
3.474848492
 10
-3.1258227412
 20
3.4860570185
 10
-3.1906652364
 20
3.5011425776
 10
-3.2559315855
 20
3.5197337129
 10
-3.3200147143
 20
3.5413726489
 10
-3.3813366836
 20
3.5655265632
 10
-3.4383875429
 20
3.5916007063
 10
-3.4897625108
 20
3.6189530461
  0
LWPOLYLINE
  5
965
330
907
100
AcDbEntity
  8
0
  6
Continuous
 62
     8
370
    25
100
AcDbPolyline
 90
       34
 70
   128
 43
0.0
 10
-0.2729583056
 20
6.1983943773
 10
-0.2813932417
 20
6.2032032512
 10
-0.3695468521
 20
6.2469084335
 10
-0.462522161
 20
6.281459962
 10
-0.5599745309
 20
6.3067297624
 10
-0.661542729
 20
6.3226241655
 10
-0.7668502659
 20
6.3290842546
 10
-0.8755067918
 20
6.3260860836
 10
-0.9871095424
 20
6.3136407659
 10
-1.101244833
 20
6.2917944336
 10
-1.217489591
 20
6.2606280657
 10
-1.3354129247
 20
6.2202571886
 10
-1.4545777203
 20
6.1708314475
 10
-1.574542262
 20
6.112534052
 10
-1.6948618698
 20
6.0455810966
 10
-1.8150905474
 20
5.9702207602
 10
-1.9347826357
 20
5.8867323856
 10
-2.0534944643
 20
5.7954254445
 10
-2.1707859966
 20
5.69663839
 10
-2.2862224609
 20
5.5907374022
 10
-2.3993759614
 20
5.4781150312
 10
-2.509827065
 20
5.3591887413
 10
-2.6171663556
 20
5.234399364
 10
-2.7209959519
 20
5.1042094641
 10
-2.8209309822
 20
4.9691016246
 10
-2.9166010111
 20
4.8295766582
 10
-3.0076514123
 20
4.686151751
 10
-3.0937446837
 20
4.539358545
 10
-3.1745616979
 20
4.3897411679
 10
-3.2498028853
 20
4.2378542159
 10
-3.3191893449
 20
4.0842606978
 10
-3.3824638773
 20
3.9295299484
 10
-3.4393919389
 20
3.774235518
 10
-3.4897625108
 20
3.6189530461
  0
LWPOLYLINE
  5
967
330
907
100
AcDbEntity
  8
0
  6
Continuous
 62
     8
370
    25
100
AcDbPolyline
 90
        7
 70
   128
 43
0.0
 10
-3.4897625108
 20
3.6189530461
 10
-3.5341965651
 20
3.6469100775
 10
-3.5705955918
 20
3.6747834053
 10
-3.5980633261
 20
3.7018866959
 10
-3.6159234213
 20
3.7275525762
 10
-3.6237361025
 20
3.7511490671
 10
-3.6223123601
 20
3.7691895151
  0
LWPOLYLINE
  5
96B
330
907
100
AcDbEntity
  8
0
  6
Continuous
 62
     8
370
    25
100
AcDbPolyline
 90
       21
 70
   128
 43
0.0
 10
-0.4796401805
 20
1.9734189417
 10
-0.4157432196
 20
1.9408987381
 10
-0.3452897399
 20
1.9132581243
 10
-0.2693908346
 20
1.8909330092
 10
-0.189243475
 20
1.8742754733
 10
-0.1061116327
 20
1.8635482159
 10
-0.0213063466
 20
1.8589204121
 10
0.0638349533
 20
1.8604650454
 10
0.1479695379
 20
1.8681577558
 10
0.2297705545
 20
1.8818772247
 10
0.3079479522
 20
1.9014070879
 10
0.3812688267
 20
1.9264393477
 10
0.448576864
 20
1.9565792306
 10
0.5088105763
 20
1.9913514126
 10
0.5610200418
 20
2.0302075155
 10
0.6043818861
 20
2.0725347553
 10
0.638212267
 20
2.1176656064
 10
0.6619776592
 20
2.1648883281
 10
0.6753032683
 20
2.2134581899
 10
0.6779789415
 20
2.2626092162
 10
0.6719219297
 20
2.3039390911
  0
LWPOLYLINE
  5
96D
330
907
100
AcDbEntity
  8
0
  6
Continuous
 62
     8
370
    25
100
AcDbPolyline
 90
        9
 70
   128
 43
0.0
 10
-0.6719082905
 20
2.3039960092
 10
-0.6753032683
 20
2.2871604583
 10
-0.6779789415
 20
2.238009432
 10
-0.6699624817
 20
2.1890523824
 10
-0.6513803134
 20
2.1410613914
 10
-0.6225254884
 20
2.0947933055
 10
-0.5838530646
 20
2.0509778002
 10
-0.5359729292
 20
2.010305872
 10
-0.4796401805
 20
1.9734189417
  0
LWPOLYLINE
  5
96E
330
907
100
AcDbEntity
  8
0
  6
Continuous
 62
     8
370
    25
100
AcDbPolyline
 90
       23
 70
   128
 43
0.0
 10
-0.6263741172
 20
0.1206110599
 10
-0.5549793306
 20
0.0836351337
 10
-0.4770779187
 20
0.0513321234
 10
-0.3935832044
 20
0.0240807521
 10
-0.305474087
 20
0.0022005174
 10
-0.2137835651
 20
-0.0140520552
 10
-0.1195866264
 20
-0.0244864189
 10
-0.0239876439
 20
-0.0289802405
 10
0.0718925718
 20
-0.0274808339
 10
0.1669299129
 20
-0.0200057785
 10
0.2600101533
 20
-0.0066427122
 10
0.3500420125
 20
0.012451695
 10
0.4359699491
 20
0.0370535788
 10
0.5167865366
 20
0.0668745045
 10
0.5915442745
 20
0.1015648491
 10
0.6593666967
 20
0.1407179
 10
0.7194586471
 20
0.1838746235
 10
0.7711156028
 20
0.2305290464
 10
0.8137319331
 20
0.2801341884
 10
0.8468080004
 20
0.3321084743
 10
0.8699560182
 20
0.3858425534
 10
0.8829045971
 20
0.4407064426
 10
0.8858267704
 20
0.4821818722
  0
LWPOLYLINE
  5
96F
330
907
100
AcDbEntity
  8
0
  6
Continuous
 62
     8
370
    25
100
AcDbPolyline
 90
        9
 70
   128
 43
0.0
 10
-0.8858267704
 20
0.4822364095
 10
-0.8855019268
 20
0.4683613688
 10
-0.877717556
 20
0.4131732509
 10
-0.8596427494
 20
0.3587945157
 10
-0.8314894176
 20
0.3058627041
 10
-0.7935876326
 20
0.2549983933
 10
-0.7463817581
 20
0.2067979207
 10
-0.69042524
 20
0.1618263929
 10
-0.6263741172
 20
0.1206110599
  0
LINE
  5
970
330
907
100
AcDbEntity
  8
0
  6
Continuous
 62
     7
370
    25
100
AcDbLine
 10
3.669711737
 20
-0.9480834231
 30
0.0
 11
3.669711737
 21
-0.32121154
 31
0.0
  0
LINE
  5
971
330
907
100
AcDbEntity
  8
0
  6
Continuous
 62
     7
370
    25
100
AcDbLine
 10
1.8980581936
 20
-0.32121154
 30
0.0
 11
1.8980581936
 21
-0.9480834231
 31
0.0
  0
LINE
  5
972
330
907
100
AcDbEntity
  8
0
  6
Continuous
 62
     7
370
    25
100
AcDbLine
 10
3.2534545092
 20
-1.1158677117
 30
0.0
 11
3.6015395166
 21
-1.3100576298
 31
0.0
  0
LINE
  5
973
330
907
100
AcDbEntity
  8
0
  6
Continuous
 62
     7
370
    25
100
AcDbLine
 10
3.7132748691
 20
-1.148044387
 30
0.0
 11
3.4098838037
 21
-0.8932048331
 31
0.0
  0
LINE
  5
974
330
907
100
AcDbEntity
  8
0
  6
Continuous
 62
     7
370
    25
100
AcDbLine
 10
-1.8980581936
 20
2.2661217415
 30
0.0
 11
-1.8980581936
 21
2.8929936247
 31
0.0
  0
LINE
  5
975
330
907
100
AcDbEntity
  8
0
  6
Continuous
 62
     7
370
    25
100
AcDbLine
 10
-3.669711737
 20
2.8929936247
 30
0.0
 11
-3.669711737
 21
2.2661217415
 31
0.0
  0
LINE
  5
976
330
907
100
AcDbEntity
  8
0
  6
Continuous
 62
     7
370
    25
100
AcDbLine
 10
-3.7145089826
 20
3.1100648456
 30
0.0
 11
-3.6319472715
 21
3.0407154413
 31
0.0
  0
LINE
  5
977
330
907
100
AcDbEntity
  8
0
  6
Continuous
 62
     7
370
    25
100
AcDbLine
 10
-1.8980581936
 20
1.6071025823
 30
0.0
 11
-1.8980581936
 21
2.2339744655
 31
0.0
  0
LINE
  5
978
330
907
100
AcDbEntity
  8
0
  6
Continuous
 62
     7
370
    25
100
AcDbLine
 10
-3.669711737
 20
2.2339744655
 30
0.0
 11
-3.669711737
 21
1.6071025823
 31
0.0
  0
LINE
  5
979
330
907
100
AcDbEntity
  8
0
  6
Continuous
 62
     7
370
    25
100
AcDbLine
 10
3.669711737
 20
-1.6071025823
 30
0.0
 11
3.669711737
 21
-1.3253048742
 31
0.0
  0
LINE
  5
97A
330
907
100
AcDbEntity
  8
0
  6
Continuous
 62
     7
370
    25
100
AcDbLine
 10
3.669711737
 20
-1.1114526399
 30
0.0
 11
3.669711737
 21
-0.9802306992
 31
0.0
  0
LINE
  5
97B
330
907
100
AcDbEntity
  8
0
  6
Continuous
 62
     7
370
    25
100
AcDbLine
 10
1.8980581936
 20
-0.9802306992
 30
0.0
 11
1.8980581936
 21
-1.6071025823
 31
0.0
  0
LINE
  5
97C
330
907
100
AcDbEntity
  8
0
  6
Continuous
 62
     7
370
    25
100
AcDbLine
 10
-2.9508020734
 20
2.9989098317
 30
0.0
 11
-2.7934432693
 21
3.517838108
 31
0.0
  0
LINE
  5
97D
330
907
100
AcDbEntity
  8
0
  6
Continuous
 62
     7
370
    25
100
AcDbLine
 10
-3.6223142355
 20
3.7691833323
 30
0.0
 11
-3.7796730396
 21
3.2502550559
 31
0.0
  0
LINE
  5
97E
330
907
100
AcDbEntity
  8
0
  6
Continuous
 62
     7
370
    25
100
AcDbLine
 10
-0.4330708661
 20
4.7417232186
 30
0.0
 11
-0.4330708661
 21
4.3398822679
 31
0.0
  0
LINE
  5
97F
330
907
100
AcDbEntity
  8
0
  6
Continuous
 62
     7
370
    25
100
AcDbLine
 10
0.4330708661
 20
4.3398822679
 30
0.0
 11
0.4330708661
 21
4.7417232186
 31
0.0
  0
LINE
  5
980
330
907
100
AcDbEntity
  8
0
  6
Continuous
 62
     7
370
    25
100
AcDbLine
 10
0.8858267717
 20
0.0
 30
0.0
 11
0.8858267717
 21
0.4822091409
 31
0.0
  0
LINE
  5
981
330
907
100
AcDbEntity
  8
0
  6
Continuous
 62
     7
370
    25
100
AcDbLine
 10
-0.8858267717
 20
0.4822091409
 30
0.0
 11
-0.8858267717
 21
0.0
 31
0.0
  0
LINE
  5
982
330
907
100
AcDbEntity
  8
0
  6
Continuous
 62
     7
370
    25
100
AcDbLine
 10
3.4128280198
 20
-0.8956778878
 30
0.0
 11
3.4103590008
 21
-0.8916517447
 31
0.0
  0
LINE
  5
983
330
907
100
AcDbEntity
  8
0
  6
Continuous
 62
     7
370
    25
100
AcDbLine
 10
-3.4897625108
 20
3.6189530461
 30
0.0
 11
-3.6471213149
 21
3.1000247698
 31
0.0
  0
LINE
  5
984
330
907
100
AcDbEntity
  8
0
  6
Continuous
 62
     7
370
    25
100
AcDbLine
 10
-0.3062273462
 20
4.3238373641
 30
0.0
 11
-0.3062273462
 21
4.5649419346
 31
0.0
  0
LINE
  5
985
330
907
100
AcDbEntity
  8
0
  6
Continuous
 62
     7
370
    25
100
AcDbLine
 10
0.3062273462
 20
4.5649419346
 30
0.0
 11
0.3062273462
 21
4.1631009838
 31
0.0
  0
LINE
  5
986
330
907
100
AcDbEntity
  8
0
  6
Continuous
 62
     7
370
    25
100
AcDbLine
 10
-0.6263741172
 20
-0.361598081
 30
0.0
 11
-0.6263741172
 21
0.1206110599
 31
0.0
  0
LINE
  5
987
330
907
100
AcDbEntity
  8
0
  6
Continuous
 62
     8
370
    25
100
AcDbLine
 10
-3.4033217754
 20
1.9005627099
 30
0.0
 11
-3.3569229513
 21
1.875109193
 31
0.0
  0
LINE
  5
988
330
907
100
AcDbEntity
  8
0
  6
Continuous
 62
     8
370
    25
100
AcDbLine
 10
3.3963396577
 20
-1.3177196293
 30
0.0
 11
3.403321775
 21
-1.313642455
 31
0.0
  0
ARC
  5
989
330
907
100
AcDbEntity
  8
0
  6
Continuous
 62
     7
370
    25
100
AcDbCircle
 10
3.6557102231
 20
-1.2278806627
 30
0.0
 40
0.0984251968503939
100
AcDbArc
 50
235.4072124316
 51
55.4072124316
  0
ARC
  5
98A
330
907
100
AcDbEntity
  8
0
  6
Continuous
 62
     7
370
    25
100
AcDbCircle
 10
-3.6557102231
 20
3.1888645022
 30
0.0
 40
0.0984251968503983
100
AcDbArc
 50
184.5075250801
 51
234.2071255224
  0
ARC
  5
98B
330
907
100
AcDbEntity
  8
0
  6
Continuous
 62
     7
370
    25
100
AcDbCircle
 10
2.7878560595
 20
0.5773628774
 30
0.0
 40
1.383889199110422
100
AcDbArc
 50
245.7556456527
 51
286.1435079551
  0
ARC
  5
98C
330
907
100
AcDbEntity
  8
0
  6
Continuous
 62
     7
370
    25
100
AcDbCircle
 10
2.2317677276
 20
-0.3210731837
 30
0.0
 40
0.3310860349669957
100
AcDbArc
 50
138.3825723596
 51
220.7288420905
  0
ARC
  5
98D
330
907
100
AcDbEntity
  8
0
  6
Continuous
 62
     7
370
    25
100
AcDbCircle
 10
3.3360813241
 20
-0.3213996561
 30
0.0
 40
0.3310141134954404
100
AcDbArc
 50
318.2836983282
 51
40.5016349011
  0
ARC
  5
98E
330
907
100
AcDbEntity
  8
0
  6
Continuous
 62
     7
370
    25
100
AcDbCircle
 10
3.0199496552
 20
-0.6367241042
 30
0.0
 40
0.7781185305838997
100
AcDbArc
 50
295.2985280629
 51
307.7928154697
  0
ARC
  5
98F
330
907
100
AcDbEntity
  8
0
  6
Continuous
 62
     7
370
    25
100
AcDbCircle
 10
3.356217466
 20
-0.9462992553
 30
0.0
 40
0.3134993479281551
100
AcDbArc
 50
333.8445556058
 51
359.673920097
  0
ARC
  5
990
330
907
100
AcDbEntity
  8
0
  6
Continuous
 62
     7
370
    25
100
AcDbCircle
 10
-2.7826552974
 20
3.8060919747
 30
0.0
 40
1.39814540110337
100
AcDbArc
 50
248.8174225927
 51
289.0272719303
  0
ARC
  5
991
330
907
100
AcDbEntity
  8
0
  6
Continuous
 62
     7
370
    25
100
AcDbCircle
 10
-2.2317677276
 20
2.8928552684
 30
0.0
 40
0.3310860349669942
100
AcDbArc
 50
318.3825723596
 51
40.7288420905
  0
ARC
  5
992
330
907
100
AcDbEntity
  8
0
  6
Continuous
 62
     7
370
    25
100
AcDbCircle
 10
-3.3432756437
 20
2.8920417921
 30
0.0
 40
0.3248255757937347
100
AcDbArc
 50
146.0449442319
 51
221.1729335944
  0
ARC
  5
993
330
907
100
AcDbEntity
  8
0
  6
Continuous
 62
     7
370
    25
100
AcDbCircle
 10
-3.680073342
 20
3.1477912604
 30
0.0
 40
0.0510793081270045
100
AcDbArc
 50
178.257819917
 51
227.6110251365
  0
ARC
  5
994
330
907
100
AcDbEntity
  8
0
  6
Continuous
 62
     7
370
    25
100
AcDbCircle
 10
-2.781968433
 20
3.1047417253
 30
0.0
 40
1.357412561723134
100
AcDbArc
 50
244.9400373627
 51
292.2347131518
  0
ARC
  5
995
330
907
100
AcDbEntity
  8
0
  6
Continuous
 62
     7
370
    25
100
AcDbCircle
 10
-2.238854843
 20
2.240438539
 30
0.0
 40
0.3404945829920842
100
AcDbArc
 50
319.7222469451
 51
1.6172374881
  0
ARC
  5
996
330
907
100
AcDbEntity
  8
0
  6
Continuous
 62
     7
370
    25
100
AcDbCircle
 10
-3.326791086
 20
2.2407257904
 30
0.0
 40
0.342609807487907
100
AcDbArc
 50
178.4408060759
 51
221.7522144227
  0
ARC
  5
997
330
907
100
AcDbEntity
  8
0
  6
Continuous
 62
     7
370
    25
100
AcDbCircle
 10
2.7854886907
 20
-0.0671302459
 30
0.0
 40
1.398109035927018
100
AcDbArc
 50
248.4905811274
 51
288.7233742497
  0
ARC
  5
998
330
907
100
AcDbEntity
  8
0
  6
Continuous
 62
     7
370
    25
100
AcDbCircle
 10
2.2408467579
 20
-0.9735006195
 30
0.0
 40
0.3424783487053192
100
AcDbArc
 50
178.4366518471
 51
221.6739638629
  0
ARC
  5
999
330
907
100
AcDbEntity
  8
0
  6
Continuous
 62
     7
370
    25
100
AcDbCircle
 10
3.3644312934
 20
-0.9797923995
 30
0.0
 40
0.3052434516422481
100
AcDbArc
 50
338.2097370634
 51
2.9361190175
  0
ARC
  5
99A
330
907
100
AcDbEntity
  8
0
  6
Continuous
 62
     7
370
    25
100
AcDbCircle
 10
0.0
 20
5.150477788
 30
0.0
 40
0.660777892453661
100
AcDbArc
 50
242.3910402158
 51
297.6089597842
  0
ARC
  5
99B
330
907
100
AcDbEntity
  8
0
  6
Continuous
 62
     7
370
    25
100
AcDbCircle
 10
-3.0336343754
 20
3.0475016424
 30
0.0
 40
0.0960330897437646
100
AcDbArc
 50
272.112097191
 51
329.6028880289
  0
ARC
  5
99C
330
907
100
AcDbEntity
  8
0
  6
Continuous
 62
     7
370
    25
100
AcDbCircle
 10
-3.6867510099
 20
3.2437085044
 30
0.0
 40
0.0931523533717676
100
AcDbArc
 50
175.9700511315
 51
233.6196082242
  0
ARC
  5
99D
330
907
100
AcDbEntity
  8
0
  6
Continuous
 62
     7
370
    25
100
AcDbCircle
 10
0.0
 20
4.9093732175
 30
0.0
 40
0.660777892453658
100
AcDbArc
 50
242.3910402158
 51
297.6089597842
  0
ARC
  5
99E
330
907
100
AcDbEntity
  8
0
  6
Continuous
 62
     7
370
    25
100
AcDbCircle
 10
0.0
 20
4.7486368372
 30
0.0
 40
0.660777892453051
100
AcDbArc
 50
242.3910402157
 51
297.6089597843
  0
ARC
  5
99F
330
907
100
AcDbEntity
  8
0
  6
Continuous
 62
     7
370
    25
100
AcDbCircle
 10
-14.8427806726
 20
4.2126219566
 30
0.0
 40
14.53663767648692
100
AcDbArc
 50
351.13895873
 51
359.8048139956
  0
ARC
  5
9A0
330
907
100
AcDbEntity
  8
0
  6
Continuous
 62
     7
370
    25
100
AcDbCircle
 10
11.6737863897
 20
0.0787086983
 30
0.0
 40
12.30023188008465
100
AcDbArc
 50
171.13895873
 51
179.8048139956
  0
ARC
  5
9A1
330
907
100
AcDbEntity
  8
0
  6
Continuous
 62
     8
370
    25
100
AcDbCircle
 10
2.8713617532
 20
0.2946862072
 30
0.0
 40
1.089141881525027
100
AcDbArc
 50
286.0584788053
 51
295.4756448148
  0
ARC
  5
9A2
330
907
100
AcDbEntity
  8
0
  6
Continuous
 62
     8
370
    25
100
AcDbCircle
 10
3.0702418656
 20
-0.093235238
 30
0.0
 40
0.6813118912240469
100
AcDbArc
 50
294.4712940093
 51
318.8377219995
  0
ARC
  5
9A3
330
907
100
AcDbEntity
  8
0
  6
Continuous
 62
     8
370
    25
100
AcDbCircle
 10
2.6244356461
 20
-0.5294952312
 30
0.0
 40
0.9091069024355919
100
AcDbArc
 50
239.6037482106
 51
247.2494625695
  0
ARC
  5
9A4
330
907
100
AcDbEntity
  8
0
  6
Continuous
 62
     8
370
    25
100
AcDbCircle
 10
2.9110206876
 20
-0.4634487535
 30
0.0
 40
0.9825035531478031
100
AcDbArc
 50
289.2091082432
 51
299.6012965276
  0
ARC
  5
9A5
330
907
100
AcDbEntity
  8
0
  6
Continuous
 62
     8
370
    25
100
AcDbCircle
 10
0.2213496098
 20
4.7597382397
 30
0.0
 40
0.2124848950926546
100
AcDbArc
 50
293.5439895559
 51
355.1409876815
  0
ARC
  5
9A6
330
907
100
AcDbEntity
  8
0
  6
Continuous
 62
     8
370
    25
100
AcDbCircle
 10
-0.2131416415
 20
4.76568187
 30
0.0
 40
0.2212723889098486
100
AcDbArc
 50
186.3174758813
 51
245.1222351657
  0
ARC
  5
9A7
330
907
100
AcDbEntity
  8
0
  6
Continuous
 62
     8
370
    25
100
AcDbCircle
 10
-3.0896428343
 20
4.0603078889
 30
0.0
 40
1.110371976067384
100
AcDbArc
 50
239.8633117904
 51
273.0741690291
  0
ARC
  5
9A8
330
907
100
AcDbEntity
  8
0
  6
Continuous
 62
     8
370
    25
100
AcDbCircle
 10
-3.4243593946
 20
3.5076193406
 30
0.0
 40
0.4644956483129293
100
AcDbArc
 50
226.8549410972
 51
241.342152145
  0
ARC
  5
9A9
330
907
100
AcDbEntity
  8
0
  6
Continuous
 62
     8
370
    25
100
AcDbCircle
 10
-0.2132447948
 20
4.363714328
 30
0.0
 40
0.2211141531652318
100
AcDbArc
 50
186.1874562376
 51
245.13268472
  0
ARC
  5
9AA
330
907
100
AcDbEntity
  8
0
  6
Continuous
 62
     8
370
    25
100
AcDbCircle
 10
0.2132390758
 20
4.3637213469
 30
0.0
 40
0.2211229262114874
100
AcDbArc
 50
294.8678949822
 51
353.8053249622
  0
VIEWPORT
  5
9AF
330
907
100
AcDbEntity
  8
0
100
AcDbViewport
 10
0.0
 20
0.0
 30
0.0
 40
8.4
 41
6.4
 68
     1
 69
     1
 12
0.0
 22
4.2864173228
 13
0.0
 23
0.0
 14
0.5
 24
0.5
 15
0.5
 25
0.5
 16
0.0
 26
0.0
 36
1.0
 17
0.0
 27
0.0
 37
0.0
 42
50.0
 43
0.0
 44
0.0
 45
8.8045275591
 50
0.0
 51
0.0
 72
   100
 90
   557152
  1

281
     0
 71
     1
 74
     0
110
0.0
120
0.0
130
0.0
111
1.0
121
0.0
131
0.0
112
0.0
122
1.0
132
0.0
 79
     0
146
0.0
  0
ENDBLK
  5
90A
330
907
100
AcDbEntity
  8
0
100
AcDbBlockEnd
  0
ENDSEC
  0
SECTION
  2
ENTITIES
  0
SPLINE
  5
9E
330
1F
100
AcDbEntity
  8
0
  6
Continuous
 62
     7
370
    25
100
AcDbSpline
210
0.0
220
0.0
230
1.0
 70
     8
 71
     3
 72
    10
 73
     6
 74
     0
 42
0.000000001
 43
0.00000001
 40
0.0
 40
0.0
 40
0.0
 40
0.0
 40
0.192469489018615
 40
0.6091723125799636
 40
1.0
 40
1.0
 40
1.0
 40
1.0
 10
-0.2940175237487104
 20
6.274117363839773
 30
0.0
 10
-0.2942843058318689
 20
6.269394524748122
 30
0.0
 10
-0.2951286799681602
 20
6.254446582473869
 30
0.0
 10
-0.2871459391338496
 20
6.23057577032693
 30
0.0
 10
-0.2766310448040714
 20
6.214729355839958
 30
0.0
 10
-0.2715420583466073
 20
6.207060026392186
 30
0.0
  0
SPLINE
  5
9F
330
1F
100
AcDbEntity
  8
0
  6
Continuous
 62
     7
370
    25
100
AcDbSpline
210
0.0
220
0.0
230
1.0
 70
     8
 71
     3
 72
    10
 73
     6
 74
     0
 42
0.000000001
 43
0.00000001
 40
0.0
 40
0.0
 40
0.0
 40
0.0
 40
0.38480982784336
 40
0.7744250086334884
 40
1.0
 40
1.0
 40
1.0
 40
1.0
 10
0.2692868954127917
 20
6.204273079225975
 30
0.0
 10
0.2747705515325545
 20
6.212006430424002
 30
0.0
 10
0.2858063415010453
 20
6.227569703851454
 30
0.0
 10
0.2946288142615663
 20
6.252270750895577
 30
0.0
 10
0.2941664429968168
 20
6.268127595568186
 30
0.0
 10
0.2939969029118568
 20
6.273941907567976
 30
0.0
  0
SPLINE
  5
AE
330
1F
100
AcDbEntity
  8
0
  6
Continuous
 62
     7
370
    25
100
AcDbSpline
210
0.0
220
0.0
230
1.0
 70
     8
 71
     3
 72
    12
 73
     8
 74
     0
 42
0.000000001
 43
0.00000001
 40
0.0
 40
0.0
 40
0.0
 40
0.0
 40
0.1318994226895673
 40
0.2621738182120983
 40
0.5156990787990742
 40
0.7611003411972551
 40
0.9999999999999999
 40
0.9999999999999999
 40
0.9999999999999999
 40
0.9999999999999999
 10
-0.3213297504812733
 20
6.244201706039009
 30
0.0
 10
-0.3213363647562413
 20
6.244984262933833
 30
0.0
 10
-0.321349511816992
 20
6.246539735466627
 30
0.0
 10
-0.3212657310853435
 20
6.249758828224699
 30
0.0
 10
-0.3210102823898713
 20
6.253622030800605
 30
0.0
 10
-0.3204767899479216
 20
6.257494658509856
 30
0.0
 10
-0.3199742053546555
 20
6.258853253696095
 30
0.0
 10
-0.3197262865863968
 20
6.259523431910168
 30
0.0
  0
SPLINE
  5
AF
330
1F
100
AcDbEntity
  8
0
  6
Continuous
 62
     7
370
    25
100
AcDbSpline
210
0.0
220
0.0
230
1.0
 70
     8
 71
     3
 72
    12
 73
     8
 74
     0
 42
0.000000001
 43
0.00000001
 40
0.0
 40
0.0
 40
0.0
 40
0.0
 40
0.2388981248396179
 40
0.4842979942923763
 40
0.7378262093308299
 40
0.8680996413561758
 40
1.0
 40
1.0
 40
1.0
 40
1.0
 10
0.3197263192249703
 20
6.259523379920729
 30
0.0
 10
0.3199742429090759
 20
6.258853201291845
 30
0.0
 10
0.3204768376574881
 20
6.25749460475198
 30
0.0
 10
0.3210102944528934
 20
6.253622020604422
 30
0.0
 10
0.3212657658731296
 20
6.24975883318049
 30
0.0
 10
0.3213495032851814
 20
6.246539735106412
 30
0.0
 10
0.3213363686604382
 20
6.244984269198269
 30
0.0
 10
0.3213297605944302
 20
6.244201710001108
 30
0.0
  0
SPLINE
  5
BC
330
1F
100
AcDbEntity
  8
0
  6
Continuous
 62
     7
370
    25
100
AcDbSpline
210
0.0
220
0.0
230
1.0
 70
     8
 71
     3
 72
    13
 73
     9
 74
     0
 42
0.000000001
 43
0.00000001
 40
0.0
 40
0.0
 40
0.0
 40
0.0
 40
0.1215677294821719
 40
0.2444301705850846
 40
0.3684197582635366
 40
0.4933416586619552
 40
0.74450310078374
 40
1.0
 40
1.0
 40
1.0
 40
1.0
 10
-0.3006126545894968
 20
6.154517601826567
 30
0.0
 10
-0.3002863210117174
 20
6.154303182377793
 30
0.0
 10
-0.2996301783624795
 20
6.153872059886128
 30
0.0
 10
-0.2986270994883742
 20
6.152771833363227
 30
0.0
 10
-0.2976665921905112
 20
6.151375308427921
 30
0.0
 10
-0.2965147442565336
 20
6.149150646621771
 30
0.0
 10
-0.2953640209620005
 20
6.145797654520439
 30
0.0
 10
-0.2952092552298138
 20
6.143068071714964
 30
0.0
 10
-0.2951312102013351
 20
6.141691601841575
 30
0.0
  0
SPLINE
  5
BD
330
1F
100
AcDbEntity
  8
0
  6
Continuous
 62
     7
370
    25
100
AcDbSpline
210
0.0
220
0.0
230
1.0
 70
     8
 71
     3
 72
    13
 73
     9
 74
     0
 42
0.000000001
 43
0.00000001
 40
0.0
 40
0.0
 40
0.0
 40
0.0
 40
0.2554978886382641
 40
0.5066559957859235
 40
0.6315788088211952
 40
0.7555672806731965
 40
0.8784269072984104
 40
0.9999999999999999
 40
0.9999999999999999
 40
0.9999999999999999
 40
0.9999999999999999
 10
0.2951312158666102
 20
6.141691595395979
 30
0.0
 10
0.2952092611539001
 20
6.143068072849036
 30
0.0
 10
0.2953640260835007
 20
6.145797647478288
 30
0.0
 10
0.2965147404134477
 20
6.149150649422646
 30
0.0
 10
0.2976665926569279
 20
6.151375281930421
 30
0.0
 10
0.2986270886903483
 20
6.152771813578689
 30
0.0
 10
0.2996301890429728
 20
6.153872084227105
 30
0.0
 10
0.3002863159929267
 20
6.154303181731033
 30
0.0
 10
0.3006126527563946
 20
6.154517595975381
 30
0.0
  0
SPLINE
  5
C4
330
1F
100
AcDbEntity
  8
0
  6
Continuous
 62
     7
370
    25
100
AcDbSpline
210
0.0
220
0.0
230
1.0
 70
     8
 71
     3
 72
     9
 73
     5
 74
     0
 42
0.000000001
 43
0.00000001
 40
0.0
 40
0.0
 40
0.0
 40
0.0
 40
0.4761382070850618
 40
1.0
 40
1.0
 40
1.0
 40
1.0
 10
0.1885510962562235
 20
6.122345157554584
 30
0.0
 10
0.1887346083802056
 20
6.122095272469712
 30
0.0
 10
0.1891200261459959
 20
6.121570456184959
 30
0.0
 10
0.1892776569599026
 20
6.120137404178087
 30
0.0
 10
0.1893602337206945
 20
6.119386682984425
 30
0.0
  0
SPLINE
  5
C5
330
1F
100
AcDbEntity
  8
0
  6
Continuous
 62
     7
370
    25
100
AcDbSpline
210
0.0
220
0.0
230
1.0
 70
     8
 71
     3
 72
     9
 73
     5
 74
     0
 42
0.000000001
 43
0.00000001
 40
0.0
 40
0.0
 40
0.0
 40
0.0
 40
0.5238600476169645
 40
0.9999999999999999
 40
0.9999999999999999
 40
0.9999999999999999
 40
0.9999999999999999
 10
-0.18936023694715
 20
6.119386674359082
 30
0.0
 10
-0.1892776630859886
 20
6.12013738243074
 30
0.0
 10
-0.1891200372820417
 20
6.121570414163306
 30
0.0
 10
-0.1887346210452205
 20
6.122095248975859
 30
0.0
 10
-0.1885511089765728
 20
6.122345143798517
 30
0.0
  0
SPLINE
  5
CC
330
1F
100
AcDbEntity
  8
0
  6
Continuous
 62
     7
370
    25
100
AcDbSpline
210
0.0
220
0.0
230
1.0
 70
     8
 71
     3
 72
    13
 73
     9
 74
     0
 42
0.000000001
 43
0.00000001
 40
0.0
 40
0.0
 40
0.0
 40
0.0
 40
0.1387037496254807
 40
0.2763402691771611
 40
0.4127778903562591
 40
0.5478533039119515
 40
0.8125138528898738
 40
1.0
 40
1.0
 40
1.0
 40
1.0
 10
-0.0705324851246219
 20
6.09416922558795
 30
0.0
 10
-0.0699261767417224
 20
6.094090908057597
 30
0.0
 10
-0.0687182251024393
 20
6.093934875596486
 30
0.0
 10
-0.0669885558402486
 20
6.093299809792963
 30
0.0
 10
-0.0654117981618672
 20
6.092405818230475
 30
0.0
 10
-0.0636367404453437
 20
6.090902258714072
 30
0.0
 10
-0.0621027945666646
 20
6.088805065423452
 30
0.0
 10
-0.061904901717412
 20
6.086994962072423
 30
0.0
 10
-0.061822843907042
 20
6.086244388627806
 30
0.0
  0
SPLINE
  5
CD
330
1F
100
AcDbEntity
  8
0
  6
Continuous
 62
     7
370
    25
100
AcDbSpline
210
0.0
220
0.0
230
1.0
 70
     8
 71
     3
 72
    13
 73
     9
 74
     0
 42
0.000000001
 43
0.00000001
 40
0.0
 40
0.0
 40
0.0
 40
0.0
 40
0.1874725986340134
 40
0.452134598149684
 40
0.5872132686842739
 40
0.7236523425846965
 40
0.8612883089633452
 40
1.0
 40
1.0
 40
1.0
 40
1.0
 10
0.0618228637589613
 20
6.086244578825044
 30
0.0
 10
0.0619049154674849
 20
6.086995087898168
 30
0.0
 10
0.0621028026068917
 20
6.088805118380799
 30
0.0
 10
0.0636367104024096
 20
6.090902257061646
 30
0.0
 10
0.0654117825701425
 20
6.092405795312552
 30
0.0
 10
0.0669885189114418
 20
6.093299797248744
 30
0.0
 10
0.0687181930965463
 20
6.093934900276228
 30
0.0
 10
0.0699261593138269
 20
6.094090908399785
 30
0.0
 10
0.0705324935172045
 20
6.094169216104061
 30
0.0
  0
SPLINE
  5
DD
330
1F
100
AcDbEntity
  8
0
  6
Continuous
 62
     7
370
    25
100
AcDbSpline
210
0.0
220
0.0
230
1.0
 70
     8
 71
     3
 72
    13
 73
     9
 74
     0
 42
0.000000001
 43
0.00000001
 40
0.0
 40
0.0
 40
0.0
 40
0.0
 40
0.1780043328672672
 40
0.355953119107519
 40
0.5353401025943981
 40
0.7156924998510493
 40
0.8944967820745507
 40
1.0
 40
1.0
 40
1.0
 40
1.0
 10
4.795480188671071
 20
1.200787401574803
 30
0.0
 10
4.795874145784061
 20
1.184961474707568
 30
0.0
 10
4.796661937074895
 20
1.153314559486913
 30
0.0
 10
4.802345526018247
 20
1.111161348020943
 30
0.0
 10
4.809492664851703
 20
1.078670247511784
 30
0.0
 10
4.816250801288152
 20
1.060481150428771
 30
0.0
 10
4.820630901067656
 20
1.056321165365794
 30
0.0
 10
4.821505444578624
 20
1.064508421778833
 30
0.0
 10
4.821829977538797
 20
1.06754661773604
 30
0.0
  0
SPLINE
  5
DE
330
1F
100
AcDbEntity
  8
0
  6
Continuous
 62
     7
370
    25
100
AcDbSpline
210
0.0
220
0.0
230
1.0
 70
     8
 71
     3
 72
    14
 73
    10
 74
     0
 42
0.000000001
 43
0.00000001
 40
0.0
 40
0.0
 40
0.0
 40
0.0
 40
0.0005802713459819
 40
0.1763476577132841
 40
0.35016044101043
 40
0.5238266562829617
 40
0.6993511593155812
 40
0.8759221322782922
 40
1.0
 40
1.0
 40
1.0
 40
1.0
 10
4.822323506448269
 20
1.333991483390374
 30
0.0
 10
4.822323030696006
 20
1.334017340656372
 30
0.0
 10
4.822178446963344
 20
1.341875506194267
 30
0.0
 10
4.81977711842304
 20
1.344110652966618
 30
0.0
 10
4.814544923577428
 20
1.337920576866419
 30
0.0
 10
4.807405172921553
 20
1.314872411826764
 30
0.0
 10
4.800554925609338
 20
1.279521063954027
 30
0.0
 10
4.79616214741476
 20
1.239246442077548
 30
0.0
 10
4.795679413219742
 20
1.212022663322553
 30
0.0
 10
4.795480188671071
 20
1.200787401574803
 30
0.0
  0
SPLINE
  5
E4
330
1F
100
AcDbEntity
  8
0
  6
Continuous
 62
     7
370
    25
100
AcDbSpline
210
0.0
220
0.0
230
1.0
 70
     8
 71
     3
 72
    14
 73
    10
 74
     0
 42
0.000000001
 43
0.00000001
 40
0.0
 40
0.0
 40
0.0
 40
0.0
 40
0.0934832927408428
 40
0.2663302151667467
 40
0.4393233977669669
 40
0.6104081025300581
 40
0.7805244119360936
 40
0.9521027547045998
 40
1.0
 40
1.0
 40
1.0
 40
1.0
 10
-4.822624362606255
 20
1.084962161516318
 30
0.0
 10
-4.822646092082467
 20
1.089547938347059
 30
0.0
 10
-4.822707998503445
 20
1.102612635730192
 30
0.0
 10
-4.821354903956461
 20
1.137542204459511
 30
0.0
 10
-4.820405322211722
 20
1.18349283122952
 30
0.0
 10
-4.820611997815925
 20
1.23206896149654
 30
0.0
 10
-4.821717963266868
 20
1.275751390028905
 30
0.0
 10
-4.822947792384985
 20
1.305535060020885
 30
0.0
 10
-4.822694070544484
 20
1.314957565485665
 30
0.0
 10
-4.822638699569796
 20
1.317013885550804
 30
0.0
  0
LWPOLYLINE
  5
F7
330
1F
100
AcDbEntity
  8
0
  6
Continuous
 62
     7
370
    25
100
AcDbPolyline
 90
        4
 70
   128
 43
0.0
 10
-0.0495313319
 20
6.3228313245
 10
-0.0495453448
 20
6.3228311435
 10
-0.0497673405
 20
6.3229892846
 10
-0.0499982083
 20
6.323443417
  0
LWPOLYLINE
  5
F8
330
1F
100
AcDbEntity
  8
0
  6
Continuous
 62
     7
370
    25
100
AcDbPolyline
 90
        4
 70
   128
 43
0.0
 10
0.0495313319
 20
6.3228313245
 10
0.0495453448
 20
6.3228311435
 10
0.0497673405
 20
6.3229892846
 10
0.0499982083
 20
6.323443417
  0
SPLINE
  5
FC
330
1F
100
AcDbEntity
  8
0
  6
Continuous
 62
     7
370
    25
100
AcDbSpline
210
0.0
220
0.0
230
1.0
 70
     8
 71
     3
 72
    10
 73
     6
 74
     0
 42
0.000000001
 43
0.00000001
 40
0.0
 40
0.0
 40
0.0
 40
0.0
 40
0.5
 40
0.5
 40
1.0
 40
1.0
 40
1.0
 40
1.0
 10
-0.0639565304935433
 20
6.113994897569311
 30
0.0
 10
-0.0599939480325992
 20
6.113685692877362
 30
0.0
 10
-0.056180663813189
 20
6.111914205368882
 30
0.0
 10
-0.050530161742126
 20
6.106237483593667
 30
0.0
 10
-0.0488147630057087
 20
6.1024289272226
 30
0.0
 10
-0.0488148166582284
 20
6.09845555356624
 30
0.0
  0
SPLINE
  5
FE
330
1F
100
AcDbEntity
  8
0
  6
Continuous
 62
     7
370
    25
100
AcDbSpline
210
0.0
220
0.0
230
1.0
 70
     8
 71
     3
 72
    10
 73
     6
 74
     0
 42
0.000000001
 43
0.00000001
 40
0.0
 40
0.0
 40
0.0
 40
0.0
 40
0.5
 40
0.5
 40
1.0
 40
1.0
 40
1.0
 40
1.0
 10
-0.1925445849375984
 20
6.121717662478267
 30
0.0
 10
-0.1925447501643701
 20
6.125682298487224
 30
0.0
 10
-0.1911520513613385
 20
6.128996859790106
 30
0.0
 10
-0.1864933259962598
 20
6.133004240815599
 30
0.0
 10
-0.1833150347575583
 20
6.133644850164192
 30
0.0
 10
-0.1799499458611024
 20
6.132767941355119
 30
0.0
  0
SPLINE
  5
102
330
1F
100
AcDbEntity
  8
0
  6
Continuous
 62
     7
370
    25
100
AcDbSpline
210
0.0
220
0.0
230
1.0
 70
     8
 71
     3
 72
    10
 73
     6
 74
     0
 42
0.000000001
 43
0.00000001
 40
0.0
 40
0.0
 40
0.0
 40
0.0
 40
0.5
 40
0.5
 40
1.0
 40
1.0
 40
1.0
 40
1.0
 10
-0.2703980827008662
 20
6.168108898652382
 30
0.0
 10
-0.2681584879879138
 20
6.16679589556998
 30
0.0
 10
-0.2659435790959448
 20
6.164048768320273
 30
0.0
 10
-0.2626134306815355
 20
6.156918562995217
 30
0.0
 10
-0.2615792125462598
 20
6.152664991767145
 30
0.0
 10
-0.2615791632529528
 20
6.148691618816319
 30
0.0
  0
SPLINE
  5
104
330
1F
100
AcDbEntity
  8
0
  6
Continuous
 62
     7
370
    25
100
AcDbSpline
210
0.0
220
0.0
230
1.0
 70
     8
 71
     3
 72
    10
 73
     6
 74
     0
 42
0.000000001
 43
0.00000001
 40
0.0
 40
0.0
 40
0.0
 40
0.0
 40
0.5
 40
0.5
 40
1.0
 40
1.0
 40
1.0
 40
1.0
 10
-0.3211139793914567
 20
6.204851314623445
 30
0.0
 10
-0.3211140487464961
 20
6.208815988598579
 30
0.0
 10
-0.3208611064353016
 20
6.211864209251292
 30
0.0
 10
-0.3199206130903019
 20
6.214965378382769
 30
0.0
 10
-0.3192394377995669
 20
6.214981347996437
 30
0.0
 10
-0.318444204322441
 20
6.213431107106397
 30
0.0
  0
SPLINE
  5
10B
330
1F
100
AcDbEntity
  8
0
  6
Continuous
 62
     7
370
    25
100
AcDbSpline
210
0.0
220
0.0
230
1.0
 70
     8
 71
     3
 72
    10
 73
     6
 74
     0
 42
0.000000001
 43
0.00000001
 40
0.0
 40
0.0
 40
0.0
 40
0.0
 40
0.5
 40
0.5
 40
1.0
 40
1.0
 40
1.0
 40
1.0
 10
0.3184441053016929
 20
6.21343111486059
 30
0.0
 10
0.319239422548622
 20
6.214980969691794
 30
0.0
 10
0.3199203525704069
 20
6.214965511584456
 30
0.0
 10
0.3208613135889896
 20
6.211864279620598
 30
0.0
 10
0.3211141070119685
 20
6.208824757193089
 30
0.0
 10
0.3211139836483071
 20
6.204851314370964
 30
0.0
  0
SPLINE
  5
10D
330
1F
100
AcDbEntity
  8
0
  6
Continuous
 62
     7
370
    25
100
AcDbSpline
210
0.0
220
0.0
230
1.0
 70
     8
 71
     3
 72
    10
 73
     6
 74
     0
 42
0.000000001
 43
0.00000001
 40
0.0
 40
0.0
 40
0.0
 40
0.0
 40
0.5
 40
0.5
 40
1.0
 40
1.0
 40
1.0
 40
1.0
 10
0.2615791597853937
 20
6.148691619813327
 30
0.0
 10
0.2615790926413779
 20
6.152656165027815
 30
0.0
 10
0.2626140769979134
 20
6.15691929771137
 30
0.0
 10
0.2659427439183858
 20
6.164047601537987
 30
0.0
 10
0.2681577078161421
 20
6.166795523545493
 30
0.0
 10
0.2703981667437008
 20
6.168108876769469
 30
0.0
  0
SPLINE
  5
111
330
1F
100
AcDbEntity
  8
0
  6
Continuous
 62
     7
370
    25
100
AcDbSpline
210
0.0
220
0.0
230
1.0
 70
     8
 71
     3
 72
    10
 73
     6
 74
     0
 42
0.000000001
 43
0.00000001
 40
0.0
 40
0.0
 40
0.0
 40
0.0
 40
0.5
 40
0.5
 40
1.0
 40
1.0
 40
1.0
 40
1.0
 10
0.1799499530850394
 20
6.132767937115847
 30
0.0
 10
0.1833141066007474
 20
6.133644678249018
 30
0.0
 10
0.1864921223882677
 20
6.133004610980771
 30
0.0
 10
0.1911529906368898
 20
6.128996744614228
 30
0.0
 10
0.1925447126594489
 20
6.125691063721691
 30
0.0
 10
0.1925445874901181
 20
6.121717661123721
 30
0.0
  0
SPLINE
  5
113
330
1F
100
AcDbEntity
  8
0
  6
Continuous
 62
     7
370
    25
100
AcDbSpline
210
0.0
220
0.0
230
1.0
 70
     8
 71
     3
 72
    10
 73
     6
 74
     0
 42
0.000000001
 43
0.00000001
 40
0.0
 40
0.0
 40
0.0
 40
0.0
 40
0.5
 40
0.5
 40
1.0
 40
1.0
 40
1.0
 40
1.0
 10
0.0488148160111811
 20
6.098455555229173
 30
0.0
 10
0.0488146517002362
 20
6.102420137903739
 30
0.0
 10
0.0505312829247638
 20
6.106237932246779
 30
0.0
 10
0.056179222174252
 20
6.111913407080772
 30
0.0
 10
0.0599928294569693
 20
6.113685628164747
 30
0.0
 10
0.0639565503354724
 20
6.11399485887502
 30
0.0
  0
LWPOLYLINE
  5
128
330
1F
100
AcDbEntity
  8
0
  6
Continuous
 62
     7
370
    25
100
AcDbPolyline
 90
        7
 70
   128
 43
0.0
 10
0.2776940526
 20
6.2433462328
 10
0.2790885527
 20
6.232458684
 10
0.2737259444
 20
6.2111843605
 10
0.2578442016
 20
6.1907275972
 10
0.2320536507
 20
6.1718745362
 10
0.1973454082
 20
6.15534969
 10
0.1694470889
 20
6.1458096145
  0
LWPOLYLINE
  5
129
330
1F
100
AcDbEntity
  8
0
  6
Continuous
 62
     7
370
    25
100
AcDbPolyline
 90
        7
 70
   128
 43
0.0
 10
-0.1694470889
 20
6.1458096145
 10
-0.2036768534
 20
6.1579056287
 10
-0.238181474
 20
6.1756210618
 10
-0.262759491
 20
6.1957052959
 10
-0.2763865753
 20
6.2173212878
 10
-0.2784947956
 20
6.2395681555
 10
-0.2770791709
 20
6.2455207578
  0
LWPOLYLINE
  5
12C
330
1F
100
AcDbEntity
  8
0
  6
Continuous
 62
     7
370
    25
100
AcDbPolyline
 90
        7
 70
   128
 43
0.0
 10
0.0584290327
 20
6.3302309445
 10
0.1063124247
 20
6.3241888394
 10
0.1531010803
 20
6.31407185
 10
0.1938489357
 20
6.300540983
 10
0.2269482319
 20
6.2841301162
 10
0.2510929935
 20
6.2654867614
 10
0.2650966389
 20
6.2458709631
  0
LWPOLYLINE
  5
12D
330
1F
100
AcDbEntity
  8
0
  6
Continuous
 62
     7
370
    25
100
AcDbPolyline
 90
       14
 70
   128
 43
0.0
 10
0.2523178601
 20
6.1908725439
 10
0.2450536516
 20
6.1839971208
 10
0.2181882804
 20
6.1659309307
 10
0.1827140098
 20
6.1502959535
 10
0.1400305228
 20
6.1377090876
 10
0.0918219513
 20
6.1286669638
 10
0.0399904265
 20
6.1235263508
 10
-0.013418972
 20
6.1224900781
 10
-0.0662989077
 20
6.1255990332
 10
-0.1165629347
 20
6.1327305483
 10
-0.1622278211
 20
6.1436032402
 10
-0.2014918
 20
6.157788113
 10
-0.2328056606
 20
6.1747254841
 10
-0.2492584566
 20
6.187806823
  0
LWPOLYLINE
  5
12F
330
1F
100
AcDbEntity
  8
0
  6
Continuous
 62
     7
370
    25
100
AcDbPolyline
 90
       15
 70
   128
 43
0.0
 10
0.0
 20
6.1260202567
 10
0.0540242976
 20
6.1282388993
 10
0.1056874742
 20
6.134797862
 10
0.152731601
 20
6.1454104864
 10
0.1931006239
 20
6.1596129501
 10
0.225030223
 20
6.1767845372
 10
0.2471249216
 20
6.1961747669
 10
0.2584190752
 20
6.2169361932
 10
0.2584190752
 20
6.2381614421
 10
0.2471249216
 20
6.2589228684
 10
0.225030223
 20
6.2783130981
 10
0.1931006239
 20
6.2954846852
 10
0.152731601
 20
6.3096871488
 10
0.1056874742
 20
6.3202997733
 10
0.055325035
 20
6.3267493457
  0
LWPOLYLINE
  5
130
330
1F
100
AcDbEntity
  8
0
  6
Continuous
 62
     7
370
    25
100
AcDbPolyline
 90
       15
 70
   128
 43
0.0
 10
-0.056691792
 20
6.3266314645
 10
-0.1032820565
 20
6.3207125506
 10
-0.1495259979
 20
6.310582732
 10
-0.1895455199
 20
6.2969964048
 10
-0.2216747028
 20
6.2805191361
 10
-0.2445760837
 20
6.2618368363
 10
-0.2572963312
 20
6.241727206
 10
-0.2593059311
 20
6.2210273625
 10
-0.2505212284
 20
6.2005989919
 10
-0.2313079098
 20
6.1812924799
 10
-0.2024657811
 20
6.1639115116
 10
-0.165195473
 20
6.1491796162
 10
-0.1210484617
 20
6.1377100484
 10
-0.0718624845
 20
6.1299802596
 10
-0.0196850394
 20
6.1263120228
  0
LWPOLYLINE
  5
362
330
1F
100
AcDbEntity
  8
0
  6
Continuous
 62
     7
370
    25
100
AcDbPolyline
 90
        3
 70
   128
 43
0.0
 10
-0.2705127383
 20
6.2642403306
 10
-0.2696629087
 20
6.2627150085
 10
-0.2689962885
 20
6.2615187244
  0
LWPOLYLINE
  5
378
330
1F
100
AcDbEntity
  8
0
  6
Continuous
 62
     7
370
    25
100
AcDbPolyline
 90
        3
 70
   128
 43
0.0
 10
-0.3599505558
 20
6.1805743872
 10
-0.3598010131
 20
6.1791693353
 10
-0.359495815
 20
6.1781604159
  0
LWPOLYLINE
  5
379
330
1F
100
AcDbEntity
  8
0
  6
Continuous
 62
     7
370
    25
100
AcDbPolyline
 90
        3
 70
   128
 43
0.0
 10
0.3599505558
 20
6.1805743872
 10
0.3598010131
 20
6.1791693353
 10
0.359495815
 20
6.1781604159
  0
SPLINE
  5
37F
330
1F
100
AcDbEntity
  8
0
  6
Continuous
 62
     7
370
    25
100
AcDbSpline
210
0.0
220
0.0
230
1.0
 70
     8
 71
     3
 72
    10
 73
     6
 74
     0
 42
0.000000001
 43
0.00000001
 40
0.0
 40
0.0
 40
0.0
 40
0.0
 40
0.5
 40
0.5
 40
1.0
 40
1.0
 40
1.0
 40
1.0
 10
-0.3261639623999212
 20
6.25676847332752
 30
0.0
 10
-0.3266112840494094
 20
6.255994465267029
 30
0.0
 10
-0.3269729754891599
 20
6.254460794547656
 30
0.0
 10
-0.3274275831714044
 20
6.250666360717482
 30
0.0
 10
-0.3275314154706298
 20
6.248427969705512
 30
0.0
 10
-0.3275312724802362
 20
6.246490517839823
 30
0.0
  0
SPLINE
  5
380
330
1F
100
AcDbEntity
  8
0
  6
Continuous
 62
     7
370
    25
100
AcDbSpline
210
0.0
220
0.0
230
1.0
 70
     8
 71
     3
 72
    10
 73
     6
 74
     0
 42
0.000000001
 43
0.00000001
 40
0.0
 40
0.0
 40
0.0
 40
0.0
 40
0.5
 40
0.5
 40
1.0
 40
1.0
 40
1.0
 40
1.0
 10
0.3275312726946851
 20
6.246490517364016
 30
0.0
 10
0.3275314092814961
 20
6.248423087727558
 30
0.0
 10
0.3274274570445012
 20
6.250667063897295
 30
0.0
 10
0.3269730434355643
 20
6.254460551356728
 30
0.0
 10
0.3266111879229527
 20
6.255994649107579
 30
0.0
 10
0.326163962404685
 20
6.256768430519607
 30
0.0
  0
SPLINE
  5
3DC
330
1F
100
AcDbEntity
  8
0
  6
Continuous
 62
     7
370
    25
100
AcDbSpline
210
0.0
220
0.0
230
1.0
 70
     8
 71
     3
 72
    10
 73
     6
 74
     0
 42
0.000000001
 43
0.00000001
 40
0.0
 40
0.0
 40
0.0
 40
0.0
 40
0.5
 40
0.5
 40
1.0
 40
1.0
 40
1.0
 40
1.0
 10
-0.2769531877360236
 20
6.159156295036103
 30
0.0
 10
-0.2758681613306301
 20
6.158485497024192
 30
0.0
 10
-0.2747124973547244
 20
6.157080327689183
 30
0.0
 10
-0.2729834074279527
 20
6.15349216388145
 30
0.0
 10
-0.2724369473122834
 20
6.151325410469686
 30
0.0
 10
-0.2724368325759843
 20
6.149388000316161
 30
0.0
  0
SPLINE
  5
3DD
330
1F
100
AcDbEntity
  8
0
  6
Continuous
 62
     7
370
    25
100
AcDbSpline
210
0.0
220
0.0
230
1.0
 70
     8
 71
     3
 72
    10
 73
     6
 74
     0
 42
0.000000001
 43
0.00000001
 40
0.0
 40
0.0
 40
0.0
 40
0.0
 40
0.5
 40
0.5
 40
1.0
 40
1.0
 40
1.0
 40
1.0
 10
0.2724368318677166
 20
6.149387999920255
 30
0.0
 10
0.272436917617874
 20
6.151320534299453
 30
0.0
 10
0.2729838134133727
 20
6.15349282176723
 30
0.0
 10
0.2747122985927822
 20
6.15708010567024
 30
0.0
 10
0.27586827646315
 20
6.158485677788624
 30
0.0
 10
0.2769531877233464
 20
6.159156252229488
 30
0.0
  0
SPLINE
  5
3DE
330
1F
100
AcDbEntity
  8
0
  6
Continuous
 62
     7
370
    25
100
AcDbSpline
210
0.0
220
0.0
230
1.0
 70
     8
 71
     3
 72
    10
 73
     6
 74
     0
 42
0.000000001
 43
0.00000001
 40
0.0
 40
0.0
 40
0.0
 40
0.0
 40
0.5
 40
0.5
 40
1.0
 40
1.0
 40
1.0
 40
1.0
 10
-0.2917919441201181
 20
6.144092580082756
 30
0.0
 10
-0.2917920745484252
 20
6.145966225610275
 30
0.0
 10
-0.2923008467974935
 20
6.148088703160584
 30
0.0
 10
-0.2940047273852494
 20
6.151701999516018
 30
0.0
 10
-0.2951854255457482
 20
6.153171535734904
 30
0.0
 10
-0.2963082986561811
 20
6.153860822901477
 30
0.0
  0
SPLINE
  5
3DF
330
1F
100
AcDbEntity
  8
0
  6
Continuous
 62
     7
370
    25
100
AcDbSpline
210
0.0
220
0.0
230
1.0
 70
     8
 71
     3
 72
    10
 73
     6
 74
     0
 42
0.000000001
 43
0.00000001
 40
0.0
 40
0.0
 40
0.0
 40
0.0
 40
0.5
 40
0.5
 40
1.0
 40
1.0
 40
1.0
 40
1.0
 10
0.2963082986709453
 20
6.153860874462119
 30
0.0
 10
0.2952053670033433
 20
6.153181784960104
 30
0.0
 10
0.2940414811561867
 20
6.151756702643863
 30
0.0
 10
0.2923221808979777
 20
6.148155958736478
 30
0.0
 10
0.2917922663565856
 20
6.146000060188282
 30
0.0
 10
0.2917919454098428
 20
6.14409258080227
 30
0.0
  0
LWPOLYLINE
  5
3F9
330
1F
100
AcDbEntity
  8
0
  6
Continuous
 62
     7
370
    25
100
AcDbPolyline
 90
        4
 70
   128
 43
0.0
 10
0.0704453344
 20
6.0941615036
 10
0.0701987021
 20
6.0940351391
 10
0.0699101165
 20
6.0941886919
 10
0.0696099904
 20
6.0946383578
  0
SPLINE
  5
413
330
1F
100
AcDbEntity
  8
0
  6
Continuous
 62
     7
370
    25
100
AcDbSpline
210
0.0
220
0.0
230
1.0
 70
     8
 71
     3
 72
    10
 73
     6
 74
     0
 42
0.000000001
 43
0.00000001
 40
0.0
 40
0.0
 40
0.0
 40
0.0
 40
0.5
 40
0.5
 40
1.0
 40
1.0
 40
1.0
 40
1.0
 10
-0.0655069918388583
 20
6.103730439381319
 30
0.0
 10
-0.0635252111324019
 20
6.103555992238466
 30
0.0
 10
-0.061529164023294
 20
6.102660915155414
 30
0.0
 10
-0.0586292539160105
 20
6.099821937101337
 30
0.0
 10
-0.05775261031
 20
6.097885507523305
 30
0.0
 10
-0.0577525910386614
 20
6.095948119058367
 30
0.0
  0
SPLINE
  5
414
330
1F
100
AcDbEntity
  8
0
  6
Continuous
 62
     7
370
    25
100
AcDbSpline
210
0.0
220
0.0
230
1.0
 70
     8
 71
     3
 72
    10
 73
     6
 74
     0
 42
0.000000001
 43
0.00000001
 40
0.0
 40
0.0
 40
0.0
 40
0.0
 40
0.5
 40
0.5
 40
1.0
 40
1.0
 40
1.0
 40
1.0
 10
0.0577525898225984
 20
6.095948118973918
 30
0.0
 10
0.0577525745047638
 20
6.097880641953877
 30
0.0
 10
0.058629954192979
 20
6.099822415942795
 30
0.0
 10
0.0615288149850263
 20
6.102660781795857
 30
0.0
 10
0.0635254700800398
 20
6.103556112461203
 30
0.0
 10
0.0655069918163386
 20
6.103730396580453
 30
0.0
  0
SPLINE
  5
415
330
1F
100
AcDbEntity
  8
0
  6
Continuous
 62
     7
370
    25
100
AcDbSpline
210
0.0
220
0.0
230
1.0
 70
     8
 71
     3
 72
    10
 73
     6
 74
     0
 42
0.000000001
 43
0.00000001
 40
0.0
 40
0.0
 40
0.0
 40
0.0
 40
0.5
 40
0.5
 40
1.0
 40
1.0
 40
1.0
 40
1.0
 10
-0.0618555907475984
 20
6.086856094239115
 30
0.0
 10
-0.0618556521834646
 20
6.088729708714152
 30
0.0
 10
-0.0626745721865223
 20
6.090637304408077
 30
0.0
 10
-0.0655334849341601
 20
6.093512130308079
 30
0.0
 10
-0.0675677539363784
 20
6.094461336524964
 30
0.0
 10
-0.0696099904752362
 20
6.094638362935413
 30
0.0
  0
SPLINE
  5
416
330
1F
100
AcDbEntity
  8
0
  6
Continuous
 62
     7
370
    25
100
AcDbSpline
210
0.0
220
0.0
230
1.0
 70
     8
 71
     3
 72
    10
 73
     6
 74
     0
 42
0.000000001
 43
0.00000001
 40
0.0
 40
0.0
 40
0.0
 40
0.0
 40
0.5
 40
0.5
 40
1.0
 40
1.0
 40
1.0
 40
1.0
 10
0.0696099904418111
 20
6.094638357840859
 30
0.0
 10
0.0676041462730154
 20
6.094463060436111
 30
0.0
 10
0.0655959947310212
 20
6.093550768010995
 30
0.0
 10
0.0627094673334177
 20
6.090695459497393
 30
0.0
 10
0.0618557414557621
 20
6.088763497799365
 30
0.0
 10
0.0618555929619685
 20
6.086856094391487
 30
0.0
  0
LWPOLYLINE
  5
417
330
1F
100
AcDbEntity
  8
0
  6
Continuous
 62
     7
370
    25
100
AcDbPolyline
 90
        4
 70
   128
 43
0.0
 10
0.054572999
 20
6.0567177669
 10
0.0545587459
 20
6.0567175716
 10
0.0543344583
 20
6.0568755759
 10
0.054101207
 20
6.057329566
  0
LWPOLYLINE
  5
418
330
1F
100
AcDbEntity
  8
0
  6
Continuous
 62
     7
370
    25
100
AcDbPolyline
 90
        4
 70
   128
 43
0.0
 10
-0.054572999
 20
6.0567177669
 10
-0.0545587459
 20
6.0567175716
 10
-0.0543344583
 20
6.0568755759
 10
-0.054101207
 20
6.057329566
  0
LWPOLYLINE
  5
419
330
1F
100
AcDbEntity
  8
0
  6
Continuous
 62
     7
370
    25
100
AcDbPolyline
 90
       11
 70
   128
 43
0.0
 10
0.0
 20
6.3595318376
 10
-0.0658995581
 20
6.3575053466
 10
-0.1301764504
 20
6.3514757728
 10
-0.1912479664
 20
6.3415915841
 10
-0.2476103228
 20
6.3280961621
 10
-0.2978756913
 20
6.3113218089
 10
-0.3408063716
 20
6.2916815648
 10
-0.3753452681
 20
6.2696590377
 10
-0.4006419183
 20
6.2457964953
 10
-0.4160734348
 20
6.2206815126
 10
-0.4169650881
 20
6.2183762747
  0
LWPOLYLINE
  5
41A
330
1F
100
AcDbEntity
  8
0
  6
Continuous
 62
     7
370
    25
100
AcDbPolyline
 90
       10
 70
   128
 43
0.0
 10
-0.4016728827
 20
6.1453254204
 10
-0.4006419183
 20
6.1440685126
 10
-0.3753452681
 20
6.1202059702
 10
-0.3408063716
 20
6.0981834431
 10
-0.2978756913
 20
6.0785431989
 10
-0.2476103228
 20
6.0617688457
 10
-0.1912479664
 20
6.0482734238
 10
-0.1301764504
 20
6.0383892351
 10
-0.0658995581
 20
6.0323596612
 10
0.0
 20
6.0303331703
  0
LWPOLYLINE
  5
41B
330
1F
100
AcDbEntity
  8
0
  6
Continuous
 62
     7
370
    25
100
AcDbPolyline
 90
       10
 70
   128
 43
0.0
 10
-0.3015479045
 20
6.3272580462
 10
-0.3062273462
 20
6.325457165
 10
-0.3503616905
 20
6.3052662598
 10
-0.3858689672
 20
6.2826262787
 10
-0.4118748693
 20
6.2580946931
 10
-0.4277390451
 20
6.232275552
 10
-0.4330708661
 20
6.2058046085
 10
-0.4277390451
 20
6.179333665
 10
-0.4118748693
 20
6.1535145239
 10
-0.3865672974
 20
6.1295208225
  0
LWPOLYLINE
  5
41D
330
1F
100
AcDbEntity
  8
0
  6
Continuous
 62
     7
370
    25
100
AcDbPolyline
 90
        9
 70
   128
 43
0.0
 10
0.0
 20
6.0303331703
 10
0.0658995581
 20
6.0323596612
 10
0.1301764504
 20
6.0383892351
 10
0.1912479664
 20
6.0482734238
 10
0.2476103228
 20
6.0617688457
 10
0.2978756913
 20
6.0785431989
 10
0.3408063716
 20
6.0981834431
 10
0.3753452681
 20
6.1202059702
 10
0.3999577683
 20
6.1432530299
  0
LWPOLYLINE
  5
41E
330
1F
100
AcDbEntity
  8
0
  6
Continuous
 62
     7
370
    25
100
AcDbPolyline
 90
       11
 70
   128
 43
0.0
 10
0.416827818
 20
6.2187460358
 10
0.4160734348
 20
6.2206815126
 10
0.4006419183
 20
6.2457964953
 10
0.3753452681
 20
6.2696590377
 10
0.3408063716
 20
6.2916815648
 10
0.2978756913
 20
6.3113218089
 10
0.2476103228
 20
6.3280961621
 10
0.1912479664
 20
6.3415915841
 10
0.1301764504
 20
6.3514757728
 10
0.0658995581
 20
6.3575053466
 10
0.0
 20
6.3595318376
  0
LWPOLYLINE
  5
41F
330
1F
100
AcDbEntity
  8
0
  6
Continuous
 62
     7
370
    25
100
AcDbPolyline
 90
        9
 70
   128
 43
0.0
 10
0.3865672974
 20
6.1295208225
 10
0.4118748693
 20
6.1535145239
 10
0.4277390451
 20
6.179333665
 10
0.4330708661
 20
6.2058046085
 10
0.4277390451
 20
6.232275552
 10
0.4118748693
 20
6.2580946931
 10
0.3858689672
 20
6.2826262787
 10
0.3503616905
 20
6.3052662598
 10
0.3079532583
 20
6.3247789751
  0
LWPOLYLINE
  5
421
330
1F
100
AcDbEntity
  8
0
  6
Continuous
 62
     7
370
    25
100
AcDbPolyline
 90
       11
 70
   128
 43
0.0
 10
0.0
 20
6.3429949886
 10
0.0623709816
 20
6.3409756093
 10
0.1230406453
 20
6.3349725548
 10
0.180354081
 20
6.3251495728
 10
0.2327479275
 20
6.3117746085
 10
0.2787930173
 20
6.2952124963
 10
0.3172333604
 20
6.2759150072
 10
0.3470204043
 20
6.2544085266
 10
0.3673416362
 20
6.2312796951
 10
0.3776427459
 20
6.207159407
 10
0.3784308802
 20
6.2025825047
  0
LWPOLYLINE
  5
422
330
1F
100
AcDbEntity
  8
0
  6
Continuous
 62
     7
370
    25
100
AcDbPolyline
 90
        9
 70
   128
 43
0.0
 10
0.3552169763
 20
6.143370567
 10
0.3470204043
 20
6.1354564812
 10
0.3172333604
 20
6.1139500006
 10
0.2787930173
 20
6.0946525116
 10
0.2327479275
 20
6.0780903993
 10
0.180354081
 20
6.0647154351
 10
0.1230406453
 20
6.054892453
 10
0.0623709816
 20
6.0488893985
 10
0.0
 20
6.0468700192
  0
LWPOLYLINE
  5
423
330
1F
100
AcDbEntity
  8
0
  6
Continuous
 62
     7
370
    25
100
AcDbPolyline
 90
       10
 70
   128
 43
0.0
 10
0.0
 20
6.0468700192
 10
-0.0623709816
 20
6.0488893985
 10
-0.1230406453
 20
6.054892453
 10
-0.180354081
 20
6.0647154351
 10
-0.2327479275
 20
6.0780903993
 10
-0.2787930173
 20
6.0946525116
 10
-0.3172333604
 20
6.1139500006
 10
-0.3470204043
 20
6.1354564812
 10
-0.3673416362
 20
6.1585853127
 10
-0.3681355359
 20
6.1598330087
  0
LWPOLYLINE
  5
424
330
1F
100
AcDbEntity
  8
0
  6
Continuous
 62
     7
370
    25
100
AcDbPolyline
 90
       10
 70
   128
 43
0.0
 10
-0.3755437145
 20
6.2147027825
 10
-0.3673416362
 20
6.2312796951
 10
-0.3470204043
 20
6.2544085266
 10
-0.3172333604
 20
6.2759150072
 10
-0.2787930173
 20
6.2952124963
 10
-0.2327479275
 20
6.3117746085
 10
-0.180354081
 20
6.3251495728
 10
-0.1230406453
 20
6.3349725548
 10
-0.0623709816
 20
6.3409756093
 10
0.0
 20
6.3429949886
  0
LWPOLYLINE
  5
425
330
1F
100
AcDbEntity
  8
0
  6
Continuous
 62
     7
370
    25
100
AcDbPolyline
 90
        8
 70
   128
 43
0.0
 10
0.3385826131
 20
6.2614082075
 10
0.3468353669
 20
6.2533176095
 10
0.3634871136
 20
6.2290355592
 10
0.3690944882
 20
6.2039925911
 10
0.3634871136
 20
6.1789496229
 10
0.3468353669
 20
6.1546675726
 10
0.3196452032
 20
6.1318842381
 10
0.2946816043
 20
6.1171539771
  0
LWPOLYLINE
  5
427
330
1F
100
AcDbEntity
  8
0
  6
Continuous
 62
     7
370
    25
100
AcDbPolyline
 90
        8
 70
   128
 43
0.0
 10
-0.3385826131
 20
6.2614082075
 10
-0.3468353669
 20
6.2533176095
 10
-0.3634871136
 20
6.2290355592
 10
-0.3690944882
 20
6.2039925911
 10
-0.3634871136
 20
6.1789496229
 10
-0.3468353669
 20
6.1546675726
 10
-0.3196452032
 20
6.1318842381
 10
-0.2946816043
 20
6.1171539771
  0
SPLINE
  5
43F
330
1F
100
AcDbEntity
  8
0
  6
Continuous
 62
     8
370
    25
100
AcDbSpline
210
0.0
220
0.0
230
1.0
 70
     8
 71
     3
 72
    10
 73
     6
 74
     0
 42
0.000000001
 43
0.00000001
 40
0.0
 40
0.0
 40
0.0
 40
0.0
 40
0.111506761474919
 40
0.6905102452038762
 40
1.0
 40
1.0
 40
1.0
 40
1.0
 10
-0.294338936045515
 20
6.145058782998379
 30
0.0
 10
-0.2943890560140655
 20
6.145487130985238
 30
0.0
 10
-0.2946994259980525
 20
6.148139693659707
 30
0.0
 10
-0.2964237442852323
 20
6.152079789154039
 30
0.0
 10
-0.2982188837615649
 20
6.154540200145364
 30
0.0
 10
-0.2988441865238879
 20
6.155397237612149
 30
0.0
  0
LWPOLYLINE
  5
452
330
1F
100
AcDbEntity
  8
0
  6
Continuous
 62
     8
370
    25
100
AcDbPolyline
 90
        3
 70
   128
 43
0.0
 10
-0.2952750483
 20
6.2744401537
 10
-0.2952755906
 20
6.2746612708
 10
-0.2946946183
 20
6.2818951415
  0
LWPOLYLINE
  5
454
330
1F
100
AcDbEntity
  8
0
  6
Continuous
 62
     8
370
    25
100
AcDbPolyline
 90
        3
 70
   128
 43
0.0
 10
0.295274533
 20
6.2743524923
 10
0.2952755906
 20
6.2746612708
 10
0.2946946183
 20
6.2818951415
  0
LWPOLYLINE
  5
465
330
1F
100
AcDbEntity
  8
0
  6
Continuous
 62
     8
370
    25
100
AcDbPolyline
 90
        7
 70
   128
 43
0.0
 10
0.3197516911
 20
6.2594773343
 10
0.3197452181
 20
6.2594860738
 10
0.3207052691
 20
6.2584630802
 10
0.3218750946
 20
6.257653503
 10
0.3232097389
 20
6.2570884538
 10
0.3246579123
 20
6.2567896473
 10
0.3261639624
 20
6.2567684305
  0
SPLINE
  5
466
330
1F
100
AcDbEntity
  8
0
  6
Continuous
 62
     8
370
    25
100
AcDbSpline
210
0.0
220
0.0
230
1.0
 70
     8
 71
     3
 72
     9
 73
     5
 74
     0
 42
0.000000001
 43
0.00000001
 40
0.0
 40
0.0
 40
0.0
 40
0.0
 40
0.5196274841655173
 40
1.0
 40
1.0
 40
1.0
 40
1.0
 10
-0.270512729956697
 20
6.271487672173873
 30
0.0
 10
-0.2705127077830161
 20
6.270213561572401
 30
0.0
 10
-0.2705126651107527
 20
6.267761592343875
 30
0.0
 10
-0.2705127145633481
 20
6.265382960169184
 30
0.0
 10
-0.2705127383190158
 20
6.264240330647185
 30
0.0
  0
LWPOLYLINE
  5
468
330
1F
100
AcDbEntity
  8
0
  6
Continuous
 62
     8
370
    25
100
AcDbPolyline
 90
        9
 70
   128
 43
0.0
 10
0.3210245636
 20
6.22171643
 10
0.3210316833
 20
6.2218472351
 10
0.3212426748
 20
6.2224355504
 10
0.3217391055
 20
6.2229970543
 10
0.3225024667
 20
6.2235108121
 10
0.3235042976
 20
6.2239576689
 10
0.3247072464
 20
6.2243209645
 10
0.326066463
 20
6.2245871537
 10
0.3275312709
 20
6.2247463122
  0
LWPOLYLINE
  5
469
330
1F
100
AcDbEntity
  8
0
  6
Continuous
 62
     8
370
    25
100
AcDbPolyline
 90
        9
 70
   128
 43
0.0
 10
-0.3210245636
 20
6.22171643
 10
-0.3210316833
 20
6.2218472351
 10
-0.3212426748
 20
6.2224355504
 10
-0.3217391055
 20
6.2229970543
 10
-0.3225024667
 20
6.2235108121
 10
-0.3235042976
 20
6.2239576689
 10
-0.3247072464
 20
6.2243209645
 10
-0.326066463
 20
6.2245871537
 10
-0.3275312709
 20
6.2247463122
  0
LWPOLYLINE
  5
46F
330
1F
100
AcDbEntity
  8
0
  6
Continuous
 62
     8
370
    25
100
AcDbPolyline
 90
        4
 70
   128
 43
0.0
 10
-0.3288985794
 20
6.1753966476
 10
-0.3286318307
 20
6.1749448165
 10
-0.3283753331
 20
6.1747888883
 10
-0.3283573707
 20
6.1747893231
  0
LWPOLYLINE
  5
471
330
1F
100
AcDbEntity
  8
0
  6
Continuous
 62
     8
370
    25
100
AcDbPolyline
 90
        4
 70
   128
 43
0.0
 10
0.3283573707
 20
6.1747893231
 10
0.3283753331
 20
6.1747888883
 10
0.3286318307
 20
6.1749448165
 10
0.3288985794
 20
6.1753966476
  0
LWPOLYLINE
  5
473
330
1F
100
AcDbEntity
  8
0
  6
Continuous
 62
     8
370
    25
100
AcDbPolyline
 90
        4
 70
   128
 43
0.0
 10
0.3521678411
 20
6.1737934783
 10
0.3519010924
 20
6.1733416472
 10
0.3516445948
 20
6.173185719
 10
0.3516266324
 20
6.1731861538
  0
LWPOLYLINE
  5
474
330
1F
100
AcDbEntity
  8
0
  6
Continuous
 62
     8
370
    25
100
AcDbPolyline
 90
        4
 70
   128
 43
0.0
 10
-0.3516266324
 20
6.1731861538
 10
-0.3516445948
 20
6.173185719
 10
-0.3519010924
 20
6.1733416472
 10
-0.3521678411
 20
6.1737934783
  0
LWPOLYLINE
  5
481
330
1F
100
AcDbEntity
  8
0
  6
Continuous
 62
     8
370
    25
100
AcDbPolyline
 90
        6
 70
   128
 43
0.0
 10
0.1925445959
 20
6.0999734475
 10
0.19141289
 20
6.0995767398
 10
0.1904974083
 20
6.0991024435
 10
0.1898322831
 20
6.0985682421
 10
0.1894423127
 20
6.0979940525
 10
0.1893383279
 20
6.097495699
  0
LWPOLYLINE
  5
483
330
1F
100
AcDbEntity
  8
0
  6
Continuous
 62
     8
370
    25
100
AcDbPolyline
 90
        6
 70
   128
 43
0.0
 10
-0.1925445959
 20
6.0999734475
 10
-0.19141289
 20
6.0995767398
 10
-0.1904974083
 20
6.0991024435
 10
-0.1898322831
 20
6.0985682421
 10
-0.1894423127
 20
6.0979940525
 10
-0.1893383279
 20
6.097495699
  0
LWPOLYLINE
  5
484
330
1F
100
AcDbEntity
  8
0
  6
Continuous
 62
     8
370
    25
100
AcDbPolyline
 90
        6
 70
   128
 43
0.0
 10
-0.1925445849
 20
6.1217176625
 10
-0.1914128933
 20
6.1213209511
 10
-0.1904974252
 20
6.1208466531
 10
-0.1898323119
 20
6.1203124517
 10
-0.1894423509
 20
6.1197382634
 10
-0.1893558012
 20
6.1194445819
  0
LWPOLYLINE
  5
485
330
1F
100
AcDbEntity
  8
0
  6
Continuous
 62
     8
370
    25
100
AcDbPolyline
 90
        6
 70
   128
 43
0.0
 10
0.1925445875
 20
6.1217176611
 10
0.1914128796
 20
6.1213209527
 10
0.1904973962
 20
6.1208466555
 10
0.1898322698
 20
6.1203124532
 10
0.1894422988
 20
6.1197382625
 10
0.1893557723
 20
6.1194445897
  0
SPLINE
  5
488
330
1F
100
AcDbEntity
  8
0
  6
Continuous
 62
     8
370
    25
100
AcDbSpline
210
0.0
220
0.0
230
1.0
 70
     8
 71
     3
 72
     9
 73
     5
 74
     0
 42
0.000000001
 43
0.00000001
 40
0.0
 40
0.0
 40
0.0
 40
0.0
 40
0.604667960441971
 40
1.0
 40
1.0
 40
1.0
 40
1.0
 10
0.1843123114919685
 20
6.122958572831674
 30
0.0
 10
0.1852917119387545
 20
6.123105935566501
 30
0.0
 10
0.1869114446033895
 20
6.123349644088311
 30
0.0
 10
0.1880585058711588
 20
6.122495719188357
 30
0.0
 10
0.1885119759416441
 20
6.122158135316027
 30
0.0
  0
SPLINE
  5
489
330
1F
100
AcDbEntity
  8
0
  6
Continuous
 62
     8
370
    25
100
AcDbSpline
210
0.0
220
0.0
230
1.0
 70
     8
 71
     3
 72
    10
 73
     6
 74
     0
 42
0.000000001
 43
0.00000001
 40
0.0
 40
0.0
 40
0.0
 40
0.0
 40
0.0367224968896852
 40
0.5194721604772339
 40
1.0
 40
1.0
 40
1.0
 40
1.0
 10
-0.1885383823716934
 20
6.12229775753184
 30
0.0
 10
-0.1885050287340347
 20
6.122337923205665
 30
0.0
 10
-0.1880332120635512
 20
6.122906102145719
 30
0.0
 10
-0.1865270795656764
 20
6.123226469240008
 30
0.0
 10
-0.1850494314219051
 20
6.12304773773405
 30
0.0
 10
-0.1843123114665355
 20
6.122958578105454
 30
0.0
  0
LWPOLYLINE
  5
494
330
1F
100
AcDbEntity
  8
0
  6
Continuous
 62
     8
370
    25
100
AcDbPolyline
 90
       11
 70
   128
 43
0.0
 10
0.0
 20
6.8992878001
 10
-0.0677472093
 20
6.8972044917
 10
-0.1338262574
 20
6.8910058643
 10
-0.1966100589
 20
6.8808445489
 10
-0.2545526683
 20
6.8669707506
 10
-0.3062273462
 20
6.8497260884
 10
-0.3503616905
 20
6.8295351832
 10
-0.3858689672
 20
6.8068952021
 10
-0.4118748693
 20
6.7823636164
 10
-0.4277390451
 20
6.7565444754
 10
-0.4330708661
 20
6.7300735319
  0
LWPOLYLINE
  5
495
330
1F
100
AcDbEntity
  8
0
  6
Continuous
 62
     8
370
    25
100
AcDbPolyline
 90
       11
 70
   128
 43
0.0
 10
0.4330708661
 20
6.7300735319
 10
0.4277390451
 20
6.7565444754
 10
0.4118748693
 20
6.7823636164
 10
0.3858689672
 20
6.8068952021
 10
0.3503616905
 20
6.8295351832
 10
0.3062273462
 20
6.8497260884
 10
0.2545526683
 20
6.8669707506
 10
0.1966100589
 20
6.8808445489
 10
0.1338262574
 20
6.8910058643
 10
0.0677472093
 20
6.8972044917
 10
0.0
 20
6.8992878001
  0
LINE
  5
4A0
330
1F
100
AcDbEntity
  8
0
  6
Continuous
 62
     7
370
    25
100
AcDbLine
 10
4.8228346457
 20
1.3339534717
 30
0.0
 11
4.8228346457
 21
1.5748031496
 31
0.0
  0
LINE
  5
4A1
330
1F
100
AcDbEntity
  8
0
  6
Continuous
 62
     7
370
    25
100
AcDbLine
 10
4.8228346457
 20
0.8070866142
 30
0.0
 11
4.8228346457
 21
1.0676213314
 31
0.0
  0
LINE
  5
4A2
330
1F
100
AcDbEntity
  8
0
  6
Continuous
 62
     7
370
    25
100
AcDbLine
 10
3.0511811024
 20
1.5748031496
 30
0.0
 11
3.0511811024
 21
0.8070866142
 31
0.0
  0
LINE
  5
4A3
330
1F
100
AcDbEntity
  8
0
  6
Continuous
 62
     7
370
    25
100
AcDbLine
 10
4.8144467131
 20
1.0669975501
 30
0.0
 11
5.2900207126
 21
1.1023643293
 31
0.0
  0
LINE
  5
4A4
330
1F
100
AcDbEntity
  8
0
  6
Continuous
 62
     7
370
    25
100
AcDbLine
 10
5.2900207126
 20
1.2992104739
 30
0.0
 11
4.8140706008
 21
1.3346052232
 31
0.0
  0
LINE
  5
4A5
330
1F
100
AcDbEntity
  8
0
  6
Continuous
 62
     7
370
    25
100
AcDbLine
 10
-3.0511811024
 20
0.8070866142
 30
0.0
 11
-3.0511811024
 21
1.5748031496
 31
0.0
  0
LINE
  5
4A6
330
1F
100
AcDbEntity
  8
0
  6
Continuous
 62
     7
370
    25
100
AcDbLine
 10
-4.8228346457
 20
1.0849621615
 30
0.0
 11
-4.8228346457
 21
0.8070866142
 31
0.0
  0
LINE
  5
4A7
330
1F
100
AcDbEntity
  8
0
  6
Continuous
 62
     7
370
    25
100
AcDbLine
 10
-4.8228346457
 20
1.5748031496
 30
0.0
 11
-4.8228346457
 21
1.3170138856
 31
0.0
  0
LINE
  5
4A8
330
1F
100
AcDbEntity
  8
0
  6
Continuous
 62
     7
370
    25
100
AcDbLine
 10
-4.8228346457
 20
1.3339534717
 30
0.0
 11
-5.2900207126
 21
1.2992104739
 31
0.0
  0
LINE
  5
4A9
330
1F
100
AcDbEntity
  8
0
  6
Continuous
 62
     7
370
    25
100
AcDbLine
 10
-5.2900207126
 20
1.1023643293
 30
0.0
 11
-4.8228346457
 21
1.0676213314
 31
0.0
  0
LINE
  5
4AA
330
1F
100
AcDbEntity
  8
0
  6
Continuous
 62
     7
370
    25
100
AcDbLine
 10
-4.7244094488
 20
-0.0295275591
 30
0.0
 11
-3.1496062992
 21
-0.0295275591
 31
0.0
  0
LINE
  5
4AB
330
1F
100
AcDbEntity
  8
0
  6
Continuous
 62
     7
370
    25
100
AcDbLine
 10
3.1496062992
 20
-0.0295275591
 30
0.0
 11
4.7244094488
 21
-0.0295275591
 31
0.0
  0
LINE
  5
4AC
330
1F
100
AcDbEntity
  8
0
  6
Continuous
 62
     7
370
    25
100
AcDbLine
 10
-3.0511811024
 20
0.0
 30
0.0
 11
-3.0511811024
 21
0.7677165354
 31
0.0
  0
LINE
  5
4AD
330
1F
100
AcDbEntity
  8
0
  6
Continuous
 62
     7
370
    25
100
AcDbLine
 10
-4.8228346457
 20
0.7677165354
 30
0.0
 11
-4.8228346457
 21
0.0
 31
0.0
  0
LINE
  5
4AE
330
1F
100
AcDbEntity
  8
0
  6
Continuous
 62
     7
370
    25
100
AcDbLine
 10
4.8228346457
 20
0.0
 30
0.0
 11
4.8228346457
 21
0.7677165354
 31
0.0
  0
LINE
  5
4AF
330
1F
100
AcDbEntity
  8
0
  6
Continuous
 62
     7
370
    25
100
AcDbLine
 10
3.0511811024
 20
0.7677165354
 30
0.0
 11
3.0511811024
 21
0.0
 31
0.0
  0
LINE
  5
4B0
330
1F
100
AcDbEntity
  8
0
  6
Continuous
 62
     7
370
    25
100
AcDbLine
 10
0.3641732283
 20
6.2021805736
 30
0.0
 11
0.3641732283
 21
6.2274644476
 31
0.0
  0
LINE
  5
4B1
330
1F
100
AcDbEntity
  8
0
  6
Continuous
 62
     7
370
    25
100
AcDbLine
 10
-0.3641732283
 20
6.2274644476
 30
0.0
 11
-0.3641732283
 21
6.2021805736
 31
0.0
  0
LINE
  5
4B2
330
1F
100
AcDbEntity
  8
0
  6
Continuous
 62
     7
370
    25
100
AcDbLine
 10
-0.0612782643
 20
6.3365446889
 30
0.0
 11
-0.0571752656
 21
6.327452664
 31
0.0
  0
LINE
  5
4B3
330
1F
100
AcDbEntity
  8
0
  6
Continuous
 62
     7
370
    25
100
AcDbLine
 10
0.0571752656
 20
6.327452664
 30
0.0
 11
0.0612782643
 21
6.3365446889
 31
0.0
  0
LINE
  5
4B4
330
1F
100
AcDbEntity
  8
0
  6
Continuous
 62
     7
370
    25
100
AcDbLine
 10
-0.1893383279
 20
6.3068654482
 30
0.0
 11
-0.1893383279
 21
6.3231877298
 31
0.0
  0
LINE
  5
4B5
330
1F
100
AcDbEntity
  8
0
  6
Continuous
 62
     7
370
    25
100
AcDbLine
 10
0.1893383279
 20
6.3231877298
 30
0.0
 11
0.1893383279
 21
6.3068654482
 31
0.0
  0
LINE
  5
4B6
330
1F
100
AcDbEntity
  8
0
  6
Continuous
 62
     7
370
    25
100
AcDbLine
 10
0.2680569693
 20
6.2021024171
 30
0.0
 11
0.2724563291
 21
6.2080333669
 31
0.0
  0
LINE
  5
4B7
330
1F
100
AcDbEntity
  8
0
  6
Continuous
 62
     7
370
    25
100
AcDbLine
 10
-0.2952755906
 20
6.2877305971
 30
0.0
 11
-0.2952755906
 21
6.2746612708
 31
0.0
  0
LINE
  5
4B8
330
1F
100
AcDbEntity
  8
0
  6
Continuous
 62
     7
370
    25
100
AcDbLine
 10
0.2952755906
 20
6.2746612708
 30
0.0
 11
0.2952755906
 21
6.2877305971
 31
0.0
  0
LINE
  5
4B9
330
1F
100
AcDbEntity
  8
0
  6
Continuous
 62
     7
370
    25
100
AcDbLine
 10
-0.2893535079
 20
6.2769381016
 30
0.0
 11
-0.2699983969
 21
6.271642681
 31
0.0
  0
LINE
  5
4BA
330
1F
100
AcDbEntity
  8
0
  6
Continuous
 62
     7
370
    25
100
AcDbLine
 10
0.2699983969
 20
6.271642681
 30
0.0
 11
0.2893535079
 21
6.2769381016
 31
0.0
  0
LINE
  5
4BB
330
1F
100
AcDbEntity
  8
0
  6
Continuous
 62
     7
370
    25
100
AcDbLine
 10
-0.2724563291
 20
6.2080333669
 30
0.0
 11
-0.2680569693
 21
6.2021024171
 31
0.0
  0
LINE
  5
4BC
330
1F
100
AcDbEntity
  8
0
  6
Continuous
 62
     7
370
    25
100
AcDbLine
 10
-0.3210245636
 20
6.22171643
 30
0.0
 11
-0.3210245636
 21
6.2434606391
 31
0.0
  0
LINE
  5
4BD
330
1F
100
AcDbEntity
  8
0
  6
Continuous
 62
     7
370
    25
100
AcDbLine
 10
0.3210245636
 20
6.2434606328
 30
0.0
 11
0.3210245636
 21
6.22171643
 31
0.0
  0
LINE
  5
4BE
330
1F
100
AcDbEntity
  8
0
  6
Continuous
 62
     7
370
    25
100
AcDbLine
 10
0.3283573707
 20
6.1747893231
 30
0.0
 11
0.3516266324
 21
6.1731861538
 31
0.0
  0
LINE
  5
4BF
330
1F
100
AcDbEntity
  8
0
  6
Continuous
 62
     7
370
    25
100
AcDbLine
 10
-0.3516266324
 20
6.1731861538
 30
0.0
 11
-0.3283573707
 21
6.1747893231
 31
0.0
  0
LINE
  5
4C0
330
1F
100
AcDbEntity
  8
0
  6
Continuous
 62
     7
370
    25
100
AcDbLine
 10
0.3210245636
 20
6.2043889264
 30
0.0
 11
0.3210245636
 21
6.1826447173
 31
0.0
  0
LINE
  5
4C1
330
1F
100
AcDbEntity
  8
0
  6
Continuous
 62
     7
370
    25
100
AcDbLine
 10
-0.3210245636
 20
6.1826447173
 30
0.0
 11
-0.3210245636
 21
6.2043889201
 31
0.0
  0
LINE
  5
4C2
330
1F
100
AcDbEntity
  8
0
  6
Continuous
 62
     7
370
    25
100
AcDbLine
 10
0.2951496146
 20
6.1198281515
 30
0.0
 11
0.2951496146
 21
6.1415723606
 31
0.0
  0
LINE
  5
4C3
330
1F
100
AcDbEntity
  8
0
  6
Continuous
 62
     7
370
    25
100
AcDbLine
 10
-0.2951496146
 20
6.1415723648
 30
0.0
 11
-0.2951496146
 21
6.1198281515
 31
0.0
  0
LINE
  5
4C4
330
1F
100
AcDbEntity
  8
0
  6
Continuous
 62
     7
370
    25
100
AcDbLine
 10
-0.1893383279
 20
6.097495699
 30
0.0
 11
-0.1893383279
 21
6.1192399033
 31
0.0
  0
LINE
  5
4C5
330
1F
100
AcDbEntity
  8
0
  6
Continuous
 62
     7
370
    25
100
AcDbLine
 10
0.1893383279
 20
6.1192399082
 30
0.0
 11
0.1893383279
 21
6.097495699
 31
0.0
  0
LINE
  5
4C6
330
1F
100
AcDbEntity
  8
0
  6
Continuous
 62
     7
370
    25
100
AcDbLine
 10
0.1933754317
 20
6.0906197823
 30
0.0
 11
0.2069280262
 21
6.083057138
 31
0.0
  0
LINE
  5
4C7
330
1F
100
AcDbEntity
  8
0
  6
Continuous
 62
     7
370
    25
100
AcDbLine
 10
-0.2069280262
 20
6.083057138
 30
0.0
 11
-0.1933754317
 21
6.0906197823
 31
0.0
  0
LINE
  5
4C8
330
1F
100
AcDbEntity
  8
0
  6
Continuous
 62
     7
370
    25
100
AcDbLine
 10
0.0619752227
 20
6.0645776357
 30
0.0
 11
0.0619752227
 21
6.0863218448
 31
0.0
  0
LINE
  5
4C9
330
1F
100
AcDbEntity
  8
0
  6
Continuous
 62
     7
370
    25
100
AcDbLine
 10
-0.0619752227
 20
6.0863218414
 30
0.0
 11
-0.0619752227
 21
6.0645776357
 31
0.0
  0
LINE
  5
4CA
330
1F
100
AcDbEntity
  8
0
  6
Continuous
 62
     7
370
    25
100
AcDbLine
 10
-0.4330708661
 20
8.1692913386
 30
0.0
 11
-0.4330708661
 21
5.3149606299
 31
0.0
  0
LINE
  5
4CB
330
1F
100
AcDbEntity
  8
0
  6
Continuous
 62
     7
370
    25
100
AcDbLine
 10
0.4330708661
 20
5.3149606299
 30
0.0
 11
0.4330708661
 21
8.1692913386
 31
0.0
  0
LINE
  5
4CC
330
1F
100
AcDbEntity
  8
0
  6
Continuous
 62
     7
370
    25
100
AcDbLine
 10
-0.8858267717
 20
0.5905511811
 30
0.0
 11
-0.8858267717
 21
0.0
 31
0.0
  0
LINE
  5
4CD
330
1F
100
AcDbEntity
  8
0
  6
Continuous
 62
     7
370
    25
100
AcDbLine
 10
0.8858267717
 20
0.0
 30
0.0
 11
0.8858267717
 21
0.5905511811
 31
0.0
  0
LINE
  5
4CE
330
1F
100
AcDbEntity
  8
0
  6
Continuous
 62
     7
370
    25
100
AcDbLine
 10
3.0511811024
 20
0.8070866142
 30
0.0
 11
4.8228346457
 21
0.8070866142
 31
0.0
  0
LINE
  5
4CF
330
1F
100
AcDbEntity
  8
0
  6
Continuous
 62
     7
370
    25
100
AcDbLine
 10
3.0708661417
 20
1.594488189
 30
0.0
 11
4.8031496063
 21
1.594488189
 31
0.0
  0
LINE
  5
4D0
330
1F
100
AcDbEntity
  8
0
  6
Continuous
 62
     7
370
    25
100
AcDbLine
 10
-4.8228346457
 20
0.8070866142
 30
0.0
 11
-3.0511811024
 21
0.8070866142
 31
0.0
  0
LINE
  5
4D1
330
1F
100
AcDbEntity
  8
0
  6
Continuous
 62
     7
370
    25
100
AcDbLine
 10
-4.8031496063
 20
1.594488189
 30
0.0
 11
-3.0708661417
 21
1.594488189
 31
0.0
  0
LINE
  5
4D2
330
1F
100
AcDbEntity
  8
0
  6
Continuous
 62
     7
370
    25
100
AcDbLine
 10
-4.8228346457
 20
0.0
 30
0.0
 11
-3.0511811024
 21
0.0
 31
0.0
  0
LINE
  5
4D3
330
1F
100
AcDbEntity
  8
0
  6
Continuous
 62
     7
370
    25
100
AcDbLine
 10
-4.8031496063
 20
0.7874015748
 30
0.0
 11
-3.0708661424
 21
0.7874015748
 31
0.0
  0
LINE
  5
4D4
330
1F
100
AcDbEntity
  8
0
  6
Continuous
 62
     7
370
    25
100
AcDbLine
 10
3.0511811024
 20
0.0
 30
0.0
 11
4.8228346457
 21
0.0
 31
0.0
  0
LINE
  5
4D5
330
1F
100
AcDbEntity
  8
0
  6
Continuous
 62
     7
370
    25
100
AcDbLine
 10
3.0708661424
 20
0.7874015748
 30
0.0
 11
4.8031496063
 21
0.7874015748
 31
0.0
  0
LINE
  5
4D6
330
1F
100
AcDbEntity
  8
0
  6
Continuous
 62
     7
370
    25
100
AcDbLine
 10
0.3599505639
 20
6.2358948551
 30
0.0
 11
0.3599505558
 21
6.2237867601
 31
0.0
  0
LINE
  5
4D7
330
1F
100
AcDbEntity
  8
0
  6
Continuous
 62
     7
370
    25
100
AcDbLine
 10
-0.054101207
 20
6.3325354419
 30
0.0
 11
-0.0499982083
 21
6.323443417
 31
0.0
  0
LINE
  5
4D8
330
1F
100
AcDbEntity
  8
0
  6
Continuous
 62
     7
370
    25
100
AcDbLine
 10
0.0499982083
 20
6.323443417
 30
0.0
 11
0.054101207
 21
6.3325354419
 31
0.0
  0
LINE
  5
4D9
330
1F
100
AcDbEntity
  8
0
  6
Continuous
 62
     7
370
    25
100
AcDbLine
 10
-0.0020254726
 20
6.0752723401
 30
0.0
 11
0.0
 21
6.0752698725
 31
0.0
  0
LINE
  5
4DA
330
1F
100
AcDbEntity
  8
0
  6
Continuous
 62
     7
370
    25
100
AcDbLine
 10
-0.0488148167
 20
6.0984555536
 30
0.0
 11
-0.0488148188
 21
6.076711339
 31
0.0
  0
LINE
  5
4DB
330
1F
100
AcDbEntity
  8
0
  6
Continuous
 62
     7
370
    25
100
AcDbLine
 10
-0.1925445959
 20
6.0999734475
 30
0.0
 11
-0.1925445849
 21
6.1217176625
 31
0.0
  0
LINE
  5
4DC
330
1F
100
AcDbEntity
  8
0
  6
Continuous
 62
     7
370
    25
100
AcDbLine
 10
-0.2615791633
 20
6.1486916188
 30
0.0
 11
-0.2615791746
 21
6.1269474064
 31
0.0
  0
LINE
  5
4DD
330
1F
100
AcDbEntity
  8
0
  6
Continuous
 62
     7
370
    25
100
AcDbLine
 10
-0.3211139976
 20
6.1831071044
 30
0.0
 11
-0.3211139794
 21
6.2048513146
 31
0.0
  0
LINE
  5
4DE
330
1F
100
AcDbEntity
  8
0
  6
Continuous
 62
     7
370
    25
100
AcDbLine
 10
0.3211139836
 20
6.2048513144
 30
0.0
 11
0.3211139976
 21
6.1831071044
 31
0.0
  0
LINE
  5
4DF
330
1F
100
AcDbEntity
  8
0
  6
Continuous
 62
     7
370
    25
100
AcDbLine
 10
0.2615791746
 20
6.1269474064
 30
0.0
 11
0.2615791598
 21
6.1486916198
 31
0.0
  0
LINE
  5
4E0
330
1F
100
AcDbEntity
  8
0
  6
Continuous
 62
     7
370
    25
100
AcDbLine
 10
0.1925445875
 20
6.1217176611
 30
0.0
 11
0.1925445959
 21
6.0999734475
 31
0.0
  0
LINE
  5
4E1
330
1F
100
AcDbEntity
  8
0
  6
Continuous
 62
     7
370
    25
100
AcDbLine
 10
0.0488148188
 20
6.076711339
 30
0.0
 11
0.048814816
 21
6.0984555552
 31
0.0
  0
LINE
  5
4E2
330
1F
100
AcDbEntity
  8
0
  6
Continuous
 62
     7
370
    25
100
AcDbLine
 10
0.2043149221
 20
6.3161927711
 30
0.0
 11
0.1907623275
 21
6.3086301267
 31
0.0
  0
LINE
  5
4E3
330
1F
100
AcDbEntity
  8
0
  6
Continuous
 62
     7
370
    25
100
AcDbLine
 10
0.2107649382
 20
6.3071800229
 30
0.0
 11
0.1972123436
 21
6.2996173785
 31
0.0
  0
LINE
  5
4E4
330
1F
100
AcDbEntity
  8
0
  6
Continuous
 62
     7
370
    25
100
AcDbLine
 10
-0.1972123436
 20
6.2996173785
 30
0.0
 11
-0.2107649382
 21
6.3071800229
 31
0.0
  0
LINE
  5
4E5
330
1F
100
AcDbEntity
  8
0
  6
Continuous
 62
     7
370
    25
100
AcDbLine
 10
-0.1907623275
 20
6.3086301267
 30
0.0
 11
-0.2043149221
 21
6.3161927711
 31
0.0
  0
LINE
  5
4E6
330
1F
100
AcDbEntity
  8
0
  6
Continuous
 62
     7
370
    25
100
AcDbLine
 10
0.267920488
 20
6.2719895055
 30
0.0
 11
0.2872755989
 21
6.2772849261
 31
0.0
  0
LINE
  5
4E7
330
1F
100
AcDbEntity
  8
0
  6
Continuous
 62
     7
370
    25
100
AcDbLine
 10
-0.2872755989
 20
6.2772849261
 30
0.0
 11
-0.267920488
 21
6.2719895055
 31
0.0
  0
LINE
  5
4E8
330
1F
100
AcDbEntity
  8
0
  6
Continuous
 62
     7
370
    25
100
AcDbLine
 10
0.2706989312
 20
6.2057558481
 30
0.0
 11
0.2724563291
 21
6.2080333669
 31
0.0
  0
LINE
  5
4E9
330
1F
100
AcDbEntity
  8
0
  6
Continuous
 62
     7
370
    25
100
AcDbLine
 10
0.1141276447
 20
6.1676659791
 30
0.0
 11
0.1141276447
 21
6.1544577365
 31
0.0
  0
LINE
  5
4EA
330
1F
100
AcDbEntity
  8
0
  6
Continuous
 62
     7
370
    25
100
AcDbLine
 10
0.1816449322
 20
6.1828971177
 30
0.0
 11
0.1816449322
 21
6.1730694515
 31
0.0
  0
LINE
  5
4EB
330
1F
100
AcDbEntity
  8
0
  6
Continuous
 62
     7
370
    25
100
AcDbLine
 10
0.2145410263
 20
6.2014199127
 30
0.0
 11
0.2145410263
 21
6.1883895102
 31
0.0
  0
LINE
  5
4EC
330
1F
100
AcDbEntity
  8
0
  6
Continuous
 62
     7
370
    25
100
AcDbLine
 10
0.2387704525
 20
6.2180342851
 30
0.0
 11
0.2387704525
 21
6.2056179914
 31
0.0
  0
LINE
  5
4ED
330
1F
100
AcDbEntity
  8
0
  6
Continuous
 62
     7
370
    25
100
AcDbLine
 10
-0.2388115344
 20
6.2179968728
 30
0.0
 11
-0.2388115344
 21
6.2056554037
 31
0.0
  0
LINE
  5
4EE
330
1F
100
AcDbEntity
  8
0
  6
Continuous
 62
     7
370
    25
100
AcDbLine
 10
-0.2145410263
 20
6.2014199127
 30
0.0
 11
-0.2145410263
 21
6.1883895102
 31
0.0
  0
LINE
  5
4EF
330
1F
100
AcDbEntity
  8
0
  6
Continuous
 62
     7
370
    25
100
AcDbLine
 10
-0.1817217423
 20
6.1828677653
 30
0.0
 11
-0.1817217423
 21
6.1730988039
 31
0.0
  0
LINE
  5
4F0
330
1F
100
AcDbEntity
  8
0
  6
Continuous
 62
     7
370
    25
100
AcDbLine
 10
-0.1142396585
 20
6.1676445682
 30
0.0
 11
-0.1142396585
 21
6.1544791473
 31
0.0
  0
LINE
  5
4F1
330
1F
100
AcDbEntity
  8
0
  6
Continuous
 62
     7
370
    25
100
AcDbLine
 10
-0.0196850394
 20
6.1485811538
 30
0.0
 11
-0.0196850394
 21
6.1263120228
 31
0.0
  0
LINE
  5
4F2
330
1F
100
AcDbEntity
  8
0
  6
Continuous
 62
     7
370
    25
100
AcDbLine
 10
-0.0196850394
 20
6.2162668611
 30
0.0
 11
-0.0196850394
 21
6.2073854154
 31
0.0
  0
LINE
  5
4F3
330
1F
100
AcDbEntity
  8
0
  6
Continuous
 62
     7
370
    25
100
AcDbLine
 10
-0.0196850394
 20
6.2073854154
 30
0.0
 11
0.0
 21
6.2029446925
 31
0.0
  0
LINE
  5
4F4
330
1F
100
AcDbEntity
  8
0
  6
Continuous
 62
     7
370
    25
100
AcDbLine
 10
0.0
 20
6.2029446925
 30
0.0
 11
0.0196850394
 21
6.2073854154
 31
0.0
  0
LINE
  5
4F5
330
1F
100
AcDbEntity
  8
0
  6
Continuous
 62
     7
370
    25
100
AcDbLine
 10
0.0196850394
 20
6.2073854154
 30
0.0
 11
0.0196850394
 21
6.2162668611
 31
0.0
  0
LINE
  5
4F6
330
1F
100
AcDbEntity
  8
0
  6
Continuous
 62
     7
370
    25
100
AcDbLine
 10
0.0196850394
 20
6.2162668611
 30
0.0
 11
0.0
 21
6.220707584
 31
0.0
  0
LINE
  5
4F7
330
1F
100
AcDbEntity
  8
0
  6
Continuous
 62
     7
370
    25
100
AcDbLine
 10
0.0
 20
6.220707584
 30
0.0
 11
-0.0196850394
 21
6.2162668611
 31
0.0
  0
LINE
  5
4F8
330
1F
100
AcDbEntity
  8
0
  6
Continuous
 62
     7
370
    25
100
AcDbLine
 10
-0.2191247112
 20
6.2162668611
 30
0.0
 11
-0.2191247112
 21
6.2073854154
 31
0.0
  0
LINE
  5
4F9
330
1F
100
AcDbEntity
  8
0
  6
Continuous
 62
     7
370
    25
100
AcDbLine
 10
-0.2191247112
 20
6.2073854154
 30
0.0
 11
-0.1994396718
 21
6.2029446925
 31
0.0
  0
LINE
  5
4FA
330
1F
100
AcDbEntity
  8
0
  6
Continuous
 62
     7
370
    25
100
AcDbLine
 10
-0.1994396718
 20
6.2029446925
 30
0.0
 11
-0.1797546325
 21
6.2073854154
 31
0.0
  0
LINE
  5
4FB
330
1F
100
AcDbEntity
  8
0
  6
Continuous
 62
     7
370
    25
100
AcDbLine
 10
-0.1797546325
 20
6.2073854154
 30
0.0
 11
-0.1797546325
 21
6.2162668611
 31
0.0
  0
LINE
  5
4FC
330
1F
100
AcDbEntity
  8
0
  6
Continuous
 62
     7
370
    25
100
AcDbLine
 10
-0.1797546325
 20
6.2162668611
 30
0.0
 11
-0.1994396718
 21
6.220707584
 31
0.0
  0
LINE
  5
4FD
330
1F
100
AcDbEntity
  8
0
  6
Continuous
 62
     7
370
    25
100
AcDbLine
 10
-0.1994396718
 20
6.220707584
 30
0.0
 11
-0.2191247112
 21
6.2162668611
 31
0.0
  0
LINE
  5
4FE
330
1F
100
AcDbEntity
  8
0
  6
Continuous
 62
     7
370
    25
100
AcDbLine
 10
-0.2191247112
 20
6.2501097148
 30
0.0
 11
-0.2191247112
 21
6.241228269
 31
0.0
  0
LINE
  5
4FF
330
1F
100
AcDbEntity
  8
0
  6
Continuous
 62
     7
370
    25
100
AcDbLine
 10
-0.2191247112
 20
6.241228269
 30
0.0
 11
-0.1994396718
 21
6.2367875462
 31
0.0
  0
LINE
  5
500
330
1F
100
AcDbEntity
  8
0
  6
Continuous
 62
     7
370
    25
100
AcDbLine
 10
-0.1994396718
 20
6.2367875462
 30
0.0
 11
-0.1797546325
 21
6.241228269
 31
0.0
  0
LINE
  5
501
330
1F
100
AcDbEntity
  8
0
  6
Continuous
 62
     7
370
    25
100
AcDbLine
 10
-0.1797546325
 20
6.241228269
 30
0.0
 11
-0.1797546325
 21
6.2501097148
 31
0.0
  0
LINE
  5
502
330
1F
100
AcDbEntity
  8
0
  6
Continuous
 62
     7
370
    25
100
AcDbLine
 10
-0.1797546325
 20
6.2501097148
 30
0.0
 11
-0.1994396718
 21
6.2545504377
 31
0.0
  0
LINE
  5
503
330
1F
100
AcDbEntity
  8
0
  6
Continuous
 62
     7
370
    25
100
AcDbLine
 10
-0.1994396718
 20
6.2545504377
 30
0.0
 11
-0.2191247112
 21
6.2501097148
 31
0.0
  0
LINE
  5
504
330
1F
100
AcDbEntity
  8
0
  6
Continuous
 62
     7
370
    25
100
AcDbLine
 10
-0.2191247112
 20
6.2821149422
 30
0.0
 11
-0.2191247112
 21
6.2750711227
 31
0.0
  0
LINE
  5
505
330
1F
100
AcDbEntity
  8
0
  6
Continuous
 62
     7
370
    25
100
AcDbLine
 10
-0.2191247112
 20
6.2750711227
 30
0.0
 11
-0.1994396718
 21
6.2706303998
 31
0.0
  0
LINE
  5
506
330
1F
100
AcDbEntity
  8
0
  6
Continuous
 62
     7
370
    25
100
AcDbLine
 10
-0.1994396718
 20
6.2706303998
 30
0.0
 11
-0.1797546325
 21
6.2750711227
 31
0.0
  0
LINE
  5
507
330
1F
100
AcDbEntity
  8
0
  6
Continuous
 62
     7
370
    25
100
AcDbLine
 10
-0.1797546325
 20
6.2750711227
 30
0.0
 11
-0.1797546325
 21
6.2839525684
 31
0.0
  0
LINE
  5
508
330
1F
100
AcDbEntity
  8
0
  6
Continuous
 62
     7
370
    25
100
AcDbLine
 10
-0.1797546325
 20
6.2839525684
 30
0.0
 11
-0.1994396718
 21
6.2883932913
 31
0.0
  0
LINE
  5
509
330
1F
100
AcDbEntity
  8
0
  6
Continuous
 62
     7
370
    25
100
AcDbLine
 10
-0.1994396718
 20
6.2883932913
 30
0.0
 11
-0.2140812966
 21
6.2850903059
 31
0.0
  0
LINE
  5
50A
330
1F
100
AcDbEntity
  8
0
  6
Continuous
 62
     7
370
    25
100
AcDbLine
 10
-0.1441146369
 20
6.3008739953
 30
0.0
 11
-0.1441146369
 21
6.2919925495
 31
0.0
  0
LINE
  5
50B
330
1F
100
AcDbEntity
  8
0
  6
Continuous
 62
     7
370
    25
100
AcDbLine
 10
-0.1441146369
 20
6.2919925495
 30
0.0
 11
-0.1244295975
 21
6.2875518266
 31
0.0
  0
LINE
  5
50C
330
1F
100
AcDbEntity
  8
0
  6
Continuous
 62
     7
370
    25
100
AcDbLine
 10
-0.1244295975
 20
6.2875518266
 30
0.0
 11
-0.1047445581
 21
6.2919925495
 31
0.0
  0
LINE
  5
50D
330
1F
100
AcDbEntity
  8
0
  6
Continuous
 62
     7
370
    25
100
AcDbLine
 10
-0.1047445581
 20
6.2919925495
 30
0.0
 11
-0.1047445581
 21
6.3008739953
 31
0.0
  0
LINE
  5
50E
330
1F
100
AcDbEntity
  8
0
  6
Continuous
 62
     7
370
    25
100
AcDbLine
 10
-0.1047445581
 20
6.3008739953
 30
0.0
 11
-0.1244295975
 21
6.3053147181
 31
0.0
  0
LINE
  5
50F
330
1F
100
AcDbEntity
  8
0
  6
Continuous
 62
     7
370
    25
100
AcDbLine
 10
-0.1244295975
 20
6.3053147181
 30
0.0
 11
-0.1441146369
 21
6.3008739953
 31
0.0
  0
LINE
  5
510
330
1F
100
AcDbEntity
  8
0
  6
Continuous
 62
     7
370
    25
100
AcDbLine
 10
-0.0691045625
 20
6.3177954221
 30
0.0
 11
-0.0691045625
 21
6.3089139763
 31
0.0
  0
LINE
  5
511
330
1F
100
AcDbEntity
  8
0
  6
Continuous
 62
     7
370
    25
100
AcDbLine
 10
-0.0691045625
 20
6.3089139763
 30
0.0
 11
-0.0494195232
 21
6.3044732534
 31
0.0
  0
LINE
  5
512
330
1F
100
AcDbEntity
  8
0
  6
Continuous
 62
     7
370
    25
100
AcDbLine
 10
-0.0494195232
 20
6.3044732534
 30
0.0
 11
-0.0297344838
 21
6.3089139763
 31
0.0
  0
LINE
  5
513
330
1F
100
AcDbEntity
  8
0
  6
Continuous
 62
     7
370
    25
100
AcDbLine
 10
-0.0297344838
 20
6.3089139763
 30
0.0
 11
-0.0297344838
 21
6.3177954221
 31
0.0
  0
LINE
  5
514
330
1F
100
AcDbEntity
  8
0
  6
Continuous
 62
     7
370
    25
100
AcDbLine
 10
-0.0297344838
 20
6.3177954221
 30
0.0
 11
-0.0494195232
 21
6.322236145
 31
0.0
  0
LINE
  5
515
330
1F
100
AcDbEntity
  8
0
  6
Continuous
 62
     7
370
    25
100
AcDbLine
 10
-0.0494195232
 20
6.322236145
 30
0.0
 11
-0.0691045625
 21
6.3177954221
 31
0.0
  0
LINE
  5
516
330
1F
100
AcDbEntity
  8
0
  6
Continuous
 62
     7
370
    25
100
AcDbLine
 10
0.0102369837
 20
6.324858272
 30
0.0
 11
0.0255905512
 21
6.3213946803
 31
0.0
  0
LINE
  5
517
330
1F
100
AcDbEntity
  8
0
  6
Continuous
 62
     7
370
    25
100
AcDbLine
 10
0.0255905512
 20
6.3213946803
 30
0.0
 11
0.0375372174
 21
6.3240897134
 31
0.0
  0
LINE
  5
518
330
1F
100
AcDbEntity
  8
0
  6
Continuous
 62
     7
370
    25
100
AcDbLine
 10
0.0809155862
 20
6.3177954221
 30
0.0
 11
0.0809155862
 21
6.3089139763
 31
0.0
  0
LINE
  5
519
330
1F
100
AcDbEntity
  8
0
  6
Continuous
 62
     7
370
    25
100
AcDbLine
 10
0.0809155862
 20
6.3089139763
 30
0.0
 11
0.1006006255
 21
6.3044732534
 31
0.0
  0
LINE
  5
51A
330
1F
100
AcDbEntity
  8
0
  6
Continuous
 62
     7
370
    25
100
AcDbLine
 10
0.1006006255
 20
6.3044732534
 30
0.0
 11
0.1202856649
 21
6.3089139763
 31
0.0
  0
LINE
  5
51B
330
1F
100
AcDbEntity
  8
0
  6
Continuous
 62
     7
370
    25
100
AcDbLine
 10
0.1202856649
 20
6.3089139763
 30
0.0
 11
0.1202856649
 21
6.31754387
 31
0.0
  0
LINE
  5
51C
330
1F
100
AcDbEntity
  8
0
  6
Continuous
 62
     7
370
    25
100
AcDbLine
 10
0.0978184308
 20
6.3216085132
 30
0.0
 11
0.0809155862
 21
6.3177954221
 31
0.0
  0
LINE
  5
51D
330
1F
100
AcDbEntity
  8
0
  6
Continuous
 62
     7
370
    25
100
AcDbLine
 10
0.1559256605
 20
6.3008739953
 30
0.0
 11
0.1559256605
 21
6.2919925495
 31
0.0
  0
LINE
  5
51E
330
1F
100
AcDbEntity
  8
0
  6
Continuous
 62
     7
370
    25
100
AcDbLine
 10
0.1559256605
 20
6.2919925495
 30
0.0
 11
0.1756106999
 21
6.2875518266
 31
0.0
  0
LINE
  5
51F
330
1F
100
AcDbEntity
  8
0
  6
Continuous
 62
     7
370
    25
100
AcDbLine
 10
0.1756106999
 20
6.2875518266
 30
0.0
 11
0.1952957392
 21
6.2919925495
 31
0.0
  0
LINE
  5
520
330
1F
100
AcDbEntity
  8
0
  6
Continuous
 62
     7
370
    25
100
AcDbLine
 10
0.1952957392
 20
6.2919925495
 30
0.0
 11
0.1952957392
 21
6.2945198473
 31
0.0
  0
LINE
  5
521
330
1F
100
AcDbEntity
  8
0
  6
Continuous
 62
     7
370
    25
100
AcDbLine
 10
0.1705037006
 20
6.3041626367
 30
0.0
 11
0.1559256605
 21
6.3008739953
 31
0.0
  0
LINE
  5
522
330
1F
100
AcDbEntity
  8
0
  6
Continuous
 62
     7
370
    25
100
AcDbLine
 10
-0.0691045625
 20
6.1824240075
 30
0.0
 11
-0.0691045625
 21
6.1735425617
 31
0.0
  0
LINE
  5
523
330
1F
100
AcDbEntity
  8
0
  6
Continuous
 62
     7
370
    25
100
AcDbLine
 10
-0.0691045625
 20
6.1735425617
 30
0.0
 11
-0.0494195232
 21
6.1691018389
 31
0.0
  0
LINE
  5
524
330
1F
100
AcDbEntity
  8
0
  6
Continuous
 62
     7
370
    25
100
AcDbLine
 10
-0.0494195232
 20
6.1691018389
 30
0.0
 11
-0.0297344838
 21
6.1735425617
 31
0.0
  0
LINE
  5
525
330
1F
100
AcDbEntity
  8
0
  6
Continuous
 62
     7
370
    25
100
AcDbLine
 10
-0.0297344838
 20
6.1735425617
 30
0.0
 11
-0.0297344838
 21
6.1824240075
 31
0.0
  0
LINE
  5
526
330
1F
100
AcDbEntity
  8
0
  6
Continuous
 62
     7
370
    25
100
AcDbLine
 10
-0.0297344838
 20
6.1824240075
 30
0.0
 11
-0.0494195232
 21
6.1868647304
 31
0.0
  0
LINE
  5
527
330
1F
100
AcDbEntity
  8
0
  6
Continuous
 62
     7
370
    25
100
AcDbLine
 10
-0.0494195232
 20
6.1868647304
 30
0.0
 11
-0.0691045625
 21
6.1824240075
 31
0.0
  0
LINE
  5
528
330
1F
100
AcDbEntity
  8
0
  6
Continuous
 62
     7
370
    25
100
AcDbLine
 10
-0.1441146369
 20
6.1993454343
 30
0.0
 11
-0.1441146369
 21
6.1904639886
 31
0.0
  0
LINE
  5
529
330
1F
100
AcDbEntity
  8
0
  6
Continuous
 62
     7
370
    25
100
AcDbLine
 10
-0.1441146369
 20
6.1904639886
 30
0.0
 11
-0.1244295975
 21
6.1860232657
 31
0.0
  0
LINE
  5
52A
330
1F
100
AcDbEntity
  8
0
  6
Continuous
 62
     7
370
    25
100
AcDbLine
 10
-0.1244295975
 20
6.1860232657
 30
0.0
 11
-0.1047445581
 21
6.1904639886
 31
0.0
  0
LINE
  5
52B
330
1F
100
AcDbEntity
  8
0
  6
Continuous
 62
     7
370
    25
100
AcDbLine
 10
-0.1047445581
 20
6.1904639886
 30
0.0
 11
-0.1047445581
 21
6.1993454343
 31
0.0
  0
LINE
  5
52C
330
1F
100
AcDbEntity
  8
0
  6
Continuous
 62
     7
370
    25
100
AcDbLine
 10
-0.1047445581
 20
6.1993454343
 30
0.0
 11
-0.1244295975
 21
6.2037861572
 31
0.0
  0
LINE
  5
52D
330
1F
100
AcDbEntity
  8
0
  6
Continuous
 62
     7
370
    25
100
AcDbLine
 10
-0.1244295975
 20
6.2037861572
 30
0.0
 11
-0.1441146369
 21
6.1993454343
 31
0.0
  0
LINE
  5
52E
330
1F
100
AcDbEntity
  8
0
  6
Continuous
 62
     7
370
    25
100
AcDbLine
 10
-0.1441146369
 20
6.233188288
 30
0.0
 11
-0.1441146369
 21
6.2243068422
 31
0.0
  0
LINE
  5
52F
330
1F
100
AcDbEntity
  8
0
  6
Continuous
 62
     7
370
    25
100
AcDbLine
 10
-0.1441146369
 20
6.2243068422
 30
0.0
 11
-0.1244295975
 21
6.2198661193
 31
0.0
  0
LINE
  5
530
330
1F
100
AcDbEntity
  8
0
  6
Continuous
 62
     7
370
    25
100
AcDbLine
 10
-0.1244295975
 20
6.2198661193
 30
0.0
 11
-0.1047445581
 21
6.2243068422
 31
0.0
  0
LINE
  5
531
330
1F
100
AcDbEntity
  8
0
  6
Continuous
 62
     7
370
    25
100
AcDbLine
 10
-0.1047445581
 20
6.2243068422
 30
0.0
 11
-0.1047445581
 21
6.233188288
 31
0.0
  0
LINE
  5
532
330
1F
100
AcDbEntity
  8
0
  6
Continuous
 62
     7
370
    25
100
AcDbLine
 10
-0.1047445581
 20
6.233188288
 30
0.0
 11
-0.1244295975
 21
6.2376290108
 31
0.0
  0
LINE
  5
533
330
1F
100
AcDbEntity
  8
0
  6
Continuous
 62
     7
370
    25
100
AcDbLine
 10
-0.1244295975
 20
6.2376290108
 30
0.0
 11
-0.1441146369
 21
6.233188288
 31
0.0
  0
LINE
  5
534
330
1F
100
AcDbEntity
  8
0
  6
Continuous
 62
     7
370
    25
100
AcDbLine
 10
-0.1441146369
 20
6.2670311416
 30
0.0
 11
-0.1441146369
 21
6.2581496959
 31
0.0
  0
LINE
  5
535
330
1F
100
AcDbEntity
  8
0
  6
Continuous
 62
     7
370
    25
100
AcDbLine
 10
-0.1441146369
 20
6.2581496959
 30
0.0
 11
-0.1244295975
 21
6.253708973
 31
0.0
  0
LINE
  5
536
330
1F
100
AcDbEntity
  8
0
  6
Continuous
 62
     7
370
    25
100
AcDbLine
 10
-0.1244295975
 20
6.253708973
 30
0.0
 11
-0.1047445581
 21
6.2581496959
 31
0.0
  0
LINE
  5
537
330
1F
100
AcDbEntity
  8
0
  6
Continuous
 62
     7
370
    25
100
AcDbLine
 10
-0.1047445581
 20
6.2581496959
 30
0.0
 11
-0.1047445581
 21
6.2670311416
 31
0.0
  0
LINE
  5
538
330
1F
100
AcDbEntity
  8
0
  6
Continuous
 62
     7
370
    25
100
AcDbLine
 10
-0.1047445581
 20
6.2670311416
 30
0.0
 11
-0.1244295975
 21
6.2714718645
 31
0.0
  0
LINE
  5
539
330
1F
100
AcDbEntity
  8
0
  6
Continuous
 62
     7
370
    25
100
AcDbLine
 10
-0.1244295975
 20
6.2714718645
 30
0.0
 11
-0.1441146369
 21
6.2670311416
 31
0.0
  0
LINE
  5
53A
330
1F
100
AcDbEntity
  8
0
  6
Continuous
 62
     7
370
    25
100
AcDbLine
 10
-0.0691045625
 20
6.2839525684
 30
0.0
 11
-0.0691045625
 21
6.2750711227
 31
0.0
  0
LINE
  5
53B
330
1F
100
AcDbEntity
  8
0
  6
Continuous
 62
     7
370
    25
100
AcDbLine
 10
-0.0691045625
 20
6.2750711227
 30
0.0
 11
-0.0494195232
 21
6.2706303998
 31
0.0
  0
LINE
  5
53C
330
1F
100
AcDbEntity
  8
0
  6
Continuous
 62
     7
370
    25
100
AcDbLine
 10
-0.0494195232
 20
6.2706303998
 30
0.0
 11
-0.0297344838
 21
6.2750711227
 31
0.0
  0
LINE
  5
53D
330
1F
100
AcDbEntity
  8
0
  6
Continuous
 62
     7
370
    25
100
AcDbLine
 10
-0.0297344838
 20
6.2750711227
 30
0.0
 11
-0.0297344838
 21
6.2839525684
 31
0.0
  0
LINE
  5
53E
330
1F
100
AcDbEntity
  8
0
  6
Continuous
 62
     7
370
    25
100
AcDbLine
 10
-0.0297344838
 20
6.2839525684
 30
0.0
 11
-0.0494195232
 21
6.2883932913
 31
0.0
  0
LINE
  5
53F
330
1F
100
AcDbEntity
  8
0
  6
Continuous
 62
     7
370
    25
100
AcDbLine
 10
-0.0494195232
 20
6.2883932913
 30
0.0
 11
-0.0691045625
 21
6.2839525684
 31
0.0
  0
LINE
  5
540
330
1F
100
AcDbEntity
  8
0
  6
Continuous
 62
     7
370
    25
100
AcDbLine
 10
0.0059055118
 20
6.3008739953
 30
0.0
 11
0.0059055118
 21
6.2919925495
 31
0.0
  0
LINE
  5
541
330
1F
100
AcDbEntity
  8
0
  6
Continuous
 62
     7
370
    25
100
AcDbLine
 10
0.0059055118
 20
6.2919925495
 30
0.0
 11
0.0255905512
 21
6.2875518266
 31
0.0
  0
LINE
  5
542
330
1F
100
AcDbEntity
  8
0
  6
Continuous
 62
     7
370
    25
100
AcDbLine
 10
0.0255905512
 20
6.2875518266
 30
0.0
 11
0.0452755906
 21
6.2919925495
 31
0.0
  0
LINE
  5
543
330
1F
100
AcDbEntity
  8
0
  6
Continuous
 62
     7
370
    25
100
AcDbLine
 10
0.0452755906
 20
6.2919925495
 30
0.0
 11
0.0452755906
 21
6.3008739953
 31
0.0
  0
LINE
  5
544
330
1F
100
AcDbEntity
  8
0
  6
Continuous
 62
     7
370
    25
100
AcDbLine
 10
0.0452755906
 20
6.3008739953
 30
0.0
 11
0.0255905512
 21
6.3053147181
 31
0.0
  0
LINE
  5
545
330
1F
100
AcDbEntity
  8
0
  6
Continuous
 62
     7
370
    25
100
AcDbLine
 10
0.0255905512
 20
6.3053147181
 30
0.0
 11
0.0059055118
 21
6.3008739953
 31
0.0
  0
LINE
  5
546
330
1F
100
AcDbEntity
  8
0
  6
Continuous
 62
     7
370
    25
100
AcDbLine
 10
0.0809155862
 20
6.2839525684
 30
0.0
 11
0.0809155862
 21
6.2750711227
 31
0.0
  0
LINE
  5
547
330
1F
100
AcDbEntity
  8
0
  6
Continuous
 62
     7
370
    25
100
AcDbLine
 10
0.0809155862
 20
6.2750711227
 30
0.0
 11
0.1006006255
 21
6.2706303998
 31
0.0
  0
LINE
  5
548
330
1F
100
AcDbEntity
  8
0
  6
Continuous
 62
     7
370
    25
100
AcDbLine
 10
0.1006006255
 20
6.2706303998
 30
0.0
 11
0.1202856649
 21
6.2750711227
 31
0.0
  0
LINE
  5
549
330
1F
100
AcDbEntity
  8
0
  6
Continuous
 62
     7
370
    25
100
AcDbLine
 10
0.1202856649
 20
6.2750711227
 30
0.0
 11
0.1202856649
 21
6.2839525684
 31
0.0
  0
LINE
  5
54A
330
1F
100
AcDbEntity
  8
0
  6
Continuous
 62
     7
370
    25
100
AcDbLine
 10
0.1202856649
 20
6.2839525684
 30
0.0
 11
0.1006006255
 21
6.2883932913
 31
0.0
  0
LINE
  5
54B
330
1F
100
AcDbEntity
  8
0
  6
Continuous
 62
     7
370
    25
100
AcDbLine
 10
0.1006006255
 20
6.2883932913
 30
0.0
 11
0.0809155862
 21
6.2839525684
 31
0.0
  0
LINE
  5
54C
330
1F
100
AcDbEntity
  8
0
  6
Continuous
 62
     7
370
    25
100
AcDbLine
 10
0.1559256605
 20
6.2670311416
 30
0.0
 11
0.1559256605
 21
6.2581496959
 31
0.0
  0
LINE
  5
54D
330
1F
100
AcDbEntity
  8
0
  6
Continuous
 62
     7
370
    25
100
AcDbLine
 10
0.1559256605
 20
6.2581496959
 30
0.0
 11
0.1756106999
 21
6.253708973
 31
0.0
  0
LINE
  5
54E
330
1F
100
AcDbEntity
  8
0
  6
Continuous
 62
     7
370
    25
100
AcDbLine
 10
0.1756106999
 20
6.253708973
 30
0.0
 11
0.1952957392
 21
6.2581496959
 31
0.0
  0
LINE
  5
54F
330
1F
100
AcDbEntity
  8
0
  6
Continuous
 62
     7
370
    25
100
AcDbLine
 10
0.1952957392
 20
6.2581496959
 30
0.0
 11
0.1952957392
 21
6.2670311416
 31
0.0
  0
LINE
  5
550
330
1F
100
AcDbEntity
  8
0
  6
Continuous
 62
     7
370
    25
100
AcDbLine
 10
0.1952957392
 20
6.2670311416
 30
0.0
 11
0.1756106999
 21
6.2714718645
 31
0.0
  0
LINE
  5
551
330
1F
100
AcDbEntity
  8
0
  6
Continuous
 62
     7
370
    25
100
AcDbLine
 10
0.1756106999
 20
6.2714718645
 30
0.0
 11
0.1559256605
 21
6.2670311416
 31
0.0
  0
LINE
  5
552
330
1F
100
AcDbEntity
  8
0
  6
Continuous
 62
     7
370
    25
100
AcDbLine
 10
0.1559256605
 20
6.233188288
 30
0.0
 11
0.1559256605
 21
6.2243068422
 31
0.0
  0
LINE
  5
553
330
1F
100
AcDbEntity
  8
0
  6
Continuous
 62
     7
370
    25
100
AcDbLine
 10
0.1559256605
 20
6.2243068422
 30
0.0
 11
0.1756106999
 21
6.2198661193
 31
0.0
  0
LINE
  5
554
330
1F
100
AcDbEntity
  8
0
  6
Continuous
 62
     7
370
    25
100
AcDbLine
 10
0.1756106999
 20
6.2198661193
 30
0.0
 11
0.1952957392
 21
6.2243068422
 31
0.0
  0
LINE
  5
555
330
1F
100
AcDbEntity
  8
0
  6
Continuous
 62
     7
370
    25
100
AcDbLine
 10
0.1952957392
 20
6.2243068422
 30
0.0
 11
0.1952957392
 21
6.233188288
 31
0.0
  0
LINE
  5
556
330
1F
100
AcDbEntity
  8
0
  6
Continuous
 62
     7
370
    25
100
AcDbLine
 10
0.1952957392
 20
6.233188288
 30
0.0
 11
0.1756106999
 21
6.2376290108
 31
0.0
  0
LINE
  5
557
330
1F
100
AcDbEntity
  8
0
  6
Continuous
 62
     7
370
    25
100
AcDbLine
 10
0.1756106999
 20
6.2376290108
 30
0.0
 11
0.1559256605
 21
6.233188288
 31
0.0
  0
LINE
  5
558
330
1F
100
AcDbEntity
  8
0
  6
Continuous
 62
     7
370
    25
100
AcDbLine
 10
0.1559256605
 20
6.1993454343
 30
0.0
 11
0.1559256605
 21
6.1904639886
 31
0.0
  0
LINE
  5
559
330
1F
100
AcDbEntity
  8
0
  6
Continuous
 62
     7
370
    25
100
AcDbLine
 10
0.1559256605
 20
6.1904639886
 30
0.0
 11
0.1756106999
 21
6.1860232657
 31
0.0
  0
LINE
  5
55A
330
1F
100
AcDbEntity
  8
0
  6
Continuous
 62
     7
370
    25
100
AcDbLine
 10
0.1756106999
 20
6.1860232657
 30
0.0
 11
0.1952957392
 21
6.1904639886
 31
0.0
  0
LINE
  5
55B
330
1F
100
AcDbEntity
  8
0
  6
Continuous
 62
     7
370
    25
100
AcDbLine
 10
0.1952957392
 20
6.1904639886
 30
0.0
 11
0.1952957392
 21
6.1993454343
 31
0.0
  0
LINE
  5
55C
330
1F
100
AcDbEntity
  8
0
  6
Continuous
 62
     7
370
    25
100
AcDbLine
 10
0.1952957392
 20
6.1993454343
 30
0.0
 11
0.1756106999
 21
6.2037861572
 31
0.0
  0
LINE
  5
55D
330
1F
100
AcDbEntity
  8
0
  6
Continuous
 62
     7
370
    25
100
AcDbLine
 10
0.1756106999
 20
6.2037861572
 30
0.0
 11
0.1559256605
 21
6.1993454343
 31
0.0
  0
LINE
  5
55E
330
1F
100
AcDbEntity
  8
0
  6
Continuous
 62
     7
370
    25
100
AcDbLine
 10
0.0809155862
 20
6.1824240075
 30
0.0
 11
0.0809155862
 21
6.1735425617
 31
0.0
  0
LINE
  5
55F
330
1F
100
AcDbEntity
  8
0
  6
Continuous
 62
     7
370
    25
100
AcDbLine
 10
0.0809155862
 20
6.1735425617
 30
0.0
 11
0.1006006255
 21
6.1691018389
 31
0.0
  0
LINE
  5
560
330
1F
100
AcDbEntity
  8
0
  6
Continuous
 62
     7
370
    25
100
AcDbLine
 10
0.1006006255
 20
6.1691018389
 30
0.0
 11
0.1202856649
 21
6.1735425617
 31
0.0
  0
LINE
  5
561
330
1F
100
AcDbEntity
  8
0
  6
Continuous
 62
     7
370
    25
100
AcDbLine
 10
0.1202856649
 20
6.1735425617
 30
0.0
 11
0.1202856649
 21
6.1824240075
 31
0.0
  0
LINE
  5
562
330
1F
100
AcDbEntity
  8
0
  6
Continuous
 62
     7
370
    25
100
AcDbLine
 10
0.1202856649
 20
6.1824240075
 30
0.0
 11
0.1006006255
 21
6.1868647304
 31
0.0
  0
LINE
  5
563
330
1F
100
AcDbEntity
  8
0
  6
Continuous
 62
     7
370
    25
100
AcDbLine
 10
0.1006006255
 20
6.1868647304
 30
0.0
 11
0.0809155862
 21
6.1824240075
 31
0.0
  0
LINE
  5
564
330
1F
100
AcDbEntity
  8
0
  6
Continuous
 62
     7
370
    25
100
AcDbLine
 10
0.0059055118
 20
6.1655025807
 30
0.0
 11
0.0059055118
 21
6.1566211349
 31
0.0
  0
LINE
  5
565
330
1F
100
AcDbEntity
  8
0
  6
Continuous
 62
     7
370
    25
100
AcDbLine
 10
0.0059055118
 20
6.1566211349
 30
0.0
 11
0.0255905512
 21
6.152180412
 31
0.0
  0
LINE
  5
566
330
1F
100
AcDbEntity
  8
0
  6
Continuous
 62
     7
370
    25
100
AcDbLine
 10
0.0255905512
 20
6.152180412
 30
0.0
 11
0.0452755906
 21
6.1566211349
 31
0.0
  0
LINE
  5
567
330
1F
100
AcDbEntity
  8
0
  6
Continuous
 62
     7
370
    25
100
AcDbLine
 10
0.0452755906
 20
6.1566211349
 30
0.0
 11
0.0452755906
 21
6.1655025807
 31
0.0
  0
LINE
  5
568
330
1F
100
AcDbEntity
  8
0
  6
Continuous
 62
     7
370
    25
100
AcDbLine
 10
0.0452755906
 20
6.1655025807
 30
0.0
 11
0.0255905512
 21
6.1699433035
 31
0.0
  0
LINE
  5
569
330
1F
100
AcDbEntity
  8
0
  6
Continuous
 62
     7
370
    25
100
AcDbLine
 10
0.0255905512
 20
6.1699433035
 30
0.0
 11
0.0059055118
 21
6.1655025807
 31
0.0
  0
LINE
  5
56A
330
1F
100
AcDbEntity
  8
0
  6
Continuous
 62
     7
370
    25
100
AcDbLine
 10
-0.0691045625
 20
6.2162668611
 30
0.0
 11
-0.0691045625
 21
6.2073854154
 31
0.0
  0
LINE
  5
56B
330
1F
100
AcDbEntity
  8
0
  6
Continuous
 62
     7
370
    25
100
AcDbLine
 10
-0.0691045625
 20
6.2073854154
 30
0.0
 11
-0.0494195232
 21
6.2029446925
 31
0.0
  0
LINE
  5
56C
330
1F
100
AcDbEntity
  8
0
  6
Continuous
 62
     7
370
    25
100
AcDbLine
 10
-0.0494195232
 20
6.2029446925
 30
0.0
 11
-0.0297344838
 21
6.2073854154
 31
0.0
  0
LINE
  5
56D
330
1F
100
AcDbEntity
  8
0
  6
Continuous
 62
     7
370
    25
100
AcDbLine
 10
-0.0297344838
 20
6.2073854154
 30
0.0
 11
-0.0297344838
 21
6.2162668611
 31
0.0
  0
LINE
  5
56E
330
1F
100
AcDbEntity
  8
0
  6
Continuous
 62
     7
370
    25
100
AcDbLine
 10
-0.0297344838
 20
6.2162668611
 30
0.0
 11
-0.0494195232
 21
6.220707584
 31
0.0
  0
LINE
  5
56F
330
1F
100
AcDbEntity
  8
0
  6
Continuous
 62
     7
370
    25
100
AcDbLine
 10
-0.0494195232
 20
6.220707584
 30
0.0
 11
-0.0691045625
 21
6.2162668611
 31
0.0
  0
LINE
  5
570
330
1F
100
AcDbEntity
  8
0
  6
Continuous
 62
     7
370
    25
100
AcDbLine
 10
-0.0691045625
 20
6.2501097148
 30
0.0
 11
-0.0691045625
 21
6.241228269
 31
0.0
  0
LINE
  5
571
330
1F
100
AcDbEntity
  8
0
  6
Continuous
 62
     7
370
    25
100
AcDbLine
 10
-0.0691045625
 20
6.241228269
 30
0.0
 11
-0.0494195232
 21
6.2367875462
 31
0.0
  0
LINE
  5
572
330
1F
100
AcDbEntity
  8
0
  6
Continuous
 62
     7
370
    25
100
AcDbLine
 10
-0.0494195232
 20
6.2367875462
 30
0.0
 11
-0.0297344838
 21
6.241228269
 31
0.0
  0
LINE
  5
573
330
1F
100
AcDbEntity
  8
0
  6
Continuous
 62
     7
370
    25
100
AcDbLine
 10
-0.0297344838
 20
6.241228269
 30
0.0
 11
-0.0297344838
 21
6.2501097148
 31
0.0
  0
LINE
  5
574
330
1F
100
AcDbEntity
  8
0
  6
Continuous
 62
     7
370
    25
100
AcDbLine
 10
-0.0297344838
 20
6.2501097148
 30
0.0
 11
-0.0494195232
 21
6.2545504377
 31
0.0
  0
LINE
  5
575
330
1F
100
AcDbEntity
  8
0
  6
Continuous
 62
     7
370
    25
100
AcDbLine
 10
-0.0494195232
 20
6.2545504377
 30
0.0
 11
-0.0691045625
 21
6.2501097148
 31
0.0
  0
LINE
  5
576
330
1F
100
AcDbEntity
  8
0
  6
Continuous
 62
     7
370
    25
100
AcDbLine
 10
0.0059055118
 20
6.2670311416
 30
0.0
 11
0.0059055118
 21
6.2581496959
 31
0.0
  0
LINE
  5
577
330
1F
100
AcDbEntity
  8
0
  6
Continuous
 62
     7
370
    25
100
AcDbLine
 10
0.0059055118
 20
6.2581496959
 30
0.0
 11
0.0255905512
 21
6.253708973
 31
0.0
  0
LINE
  5
578
330
1F
100
AcDbEntity
  8
0
  6
Continuous
 62
     7
370
    25
100
AcDbLine
 10
0.0255905512
 20
6.253708973
 30
0.0
 11
0.0452755906
 21
6.2581496959
 31
0.0
  0
LINE
  5
579
330
1F
100
AcDbEntity
  8
0
  6
Continuous
 62
     7
370
    25
100
AcDbLine
 10
0.0452755906
 20
6.2581496959
 30
0.0
 11
0.0452755906
 21
6.2670311416
 31
0.0
  0
LINE
  5
57A
330
1F
100
AcDbEntity
  8
0
  6
Continuous
 62
     7
370
    25
100
AcDbLine
 10
0.0452755906
 20
6.2670311416
 30
0.0
 11
0.0255905512
 21
6.2714718645
 31
0.0
  0
LINE
  5
57B
330
1F
100
AcDbEntity
  8
0
  6
Continuous
 62
     7
370
    25
100
AcDbLine
 10
0.0255905512
 20
6.2714718645
 30
0.0
 11
0.0059055118
 21
6.2670311416
 31
0.0
  0
LINE
  5
57C
330
1F
100
AcDbEntity
  8
0
  6
Continuous
 62
     7
370
    25
100
AcDbLine
 10
0.0809155862
 20
6.2501097148
 30
0.0
 11
0.0809155862
 21
6.241228269
 31
0.0
  0
LINE
  5
57D
330
1F
100
AcDbEntity
  8
0
  6
Continuous
 62
     7
370
    25
100
AcDbLine
 10
0.0809155862
 20
6.241228269
 30
0.0
 11
0.1006006255
 21
6.2367875462
 31
0.0
  0
LINE
  5
57E
330
1F
100
AcDbEntity
  8
0
  6
Continuous
 62
     7
370
    25
100
AcDbLine
 10
0.1006006255
 20
6.2367875462
 30
0.0
 11
0.1202856649
 21
6.241228269
 31
0.0
  0
LINE
  5
57F
330
1F
100
AcDbEntity
  8
0
  6
Continuous
 62
     7
370
    25
100
AcDbLine
 10
0.1202856649
 20
6.241228269
 30
0.0
 11
0.1202856649
 21
6.2501097148
 31
0.0
  0
LINE
  5
580
330
1F
100
AcDbEntity
  8
0
  6
Continuous
 62
     7
370
    25
100
AcDbLine
 10
0.1202856649
 20
6.2501097148
 30
0.0
 11
0.1006006255
 21
6.2545504377
 31
0.0
  0
LINE
  5
581
330
1F
100
AcDbEntity
  8
0
  6
Continuous
 62
     7
370
    25
100
AcDbLine
 10
0.1006006255
 20
6.2545504377
 30
0.0
 11
0.0809155862
 21
6.2501097148
 31
0.0
  0
LINE
  5
582
330
1F
100
AcDbEntity
  8
0
  6
Continuous
 62
     7
370
    25
100
AcDbLine
 10
0.0809155862
 20
6.2162668611
 30
0.0
 11
0.0809155862
 21
6.2073854154
 31
0.0
  0
LINE
  5
583
330
1F
100
AcDbEntity
  8
0
  6
Continuous
 62
     7
370
    25
100
AcDbLine
 10
0.0809155862
 20
6.2073854154
 30
0.0
 11
0.1006006255
 21
6.2029446925
 31
0.0
  0
LINE
  5
584
330
1F
100
AcDbEntity
  8
0
  6
Continuous
 62
     7
370
    25
100
AcDbLine
 10
0.1006006255
 20
6.2029446925
 30
0.0
 11
0.1202856649
 21
6.2073854154
 31
0.0
  0
LINE
  5
585
330
1F
100
AcDbEntity
  8
0
  6
Continuous
 62
     7
370
    25
100
AcDbLine
 10
0.1202856649
 20
6.2073854154
 30
0.0
 11
0.1202856649
 21
6.2162668611
 31
0.0
  0
LINE
  5
586
330
1F
100
AcDbEntity
  8
0
  6
Continuous
 62
     7
370
    25
100
AcDbLine
 10
0.1202856649
 20
6.2162668611
 30
0.0
 11
0.1006006255
 21
6.220707584
 31
0.0
  0
LINE
  5
587
330
1F
100
AcDbEntity
  8
0
  6
Continuous
 62
     7
370
    25
100
AcDbLine
 10
0.1006006255
 20
6.220707584
 30
0.0
 11
0.0809155862
 21
6.2162668611
 31
0.0
  0
LINE
  5
588
330
1F
100
AcDbEntity
  8
0
  6
Continuous
 62
     7
370
    25
100
AcDbLine
 10
0.0059055118
 20
6.1993454343
 30
0.0
 11
0.0059055118
 21
6.1904639886
 31
0.0
  0
LINE
  5
589
330
1F
100
AcDbEntity
  8
0
  6
Continuous
 62
     7
370
    25
100
AcDbLine
 10
0.0059055118
 20
6.1904639886
 30
0.0
 11
0.0255905512
 21
6.1860232657
 31
0.0
  0
LINE
  5
58A
330
1F
100
AcDbEntity
  8
0
  6
Continuous
 62
     7
370
    25
100
AcDbLine
 10
0.0255905512
 20
6.1860232657
 30
0.0
 11
0.0452755906
 21
6.1904639886
 31
0.0
  0
LINE
  5
58B
330
1F
100
AcDbEntity
  8
0
  6
Continuous
 62
     7
370
    25
100
AcDbLine
 10
0.0452755906
 20
6.1904639886
 30
0.0
 11
0.0452755906
 21
6.1993454343
 31
0.0
  0
LINE
  5
58C
330
1F
100
AcDbEntity
  8
0
  6
Continuous
 62
     7
370
    25
100
AcDbLine
 10
0.0452755906
 20
6.1993454343
 30
0.0
 11
0.0255905512
 21
6.2037861572
 31
0.0
  0
LINE
  5
58D
330
1F
100
AcDbEntity
  8
0
  6
Continuous
 62
     7
370
    25
100
AcDbLine
 10
0.0255905512
 20
6.2037861572
 30
0.0
 11
0.0059055118
 21
6.1993454343
 31
0.0
  0
LINE
  5
58E
330
1F
100
AcDbEntity
  8
0
  6
Continuous
 62
     7
370
    25
100
AcDbLine
 10
0.0059055118
 20
6.233188288
 30
0.0
 11
0.0059055118
 21
6.2243068422
 31
0.0
  0
LINE
  5
58F
330
1F
100
AcDbEntity
  8
0
  6
Continuous
 62
     7
370
    25
100
AcDbLine
 10
0.0059055118
 20
6.2243068422
 30
0.0
 11
0.0255905512
 21
6.2198661193
 31
0.0
  0
LINE
  5
590
330
1F
100
AcDbEntity
  8
0
  6
Continuous
 62
     7
370
    25
100
AcDbLine
 10
0.0255905512
 20
6.2198661193
 30
0.0
 11
0.0452755906
 21
6.2243068422
 31
0.0
  0
LINE
  5
591
330
1F
100
AcDbEntity
  8
0
  6
Continuous
 62
     7
370
    25
100
AcDbLine
 10
0.0452755906
 20
6.2243068422
 30
0.0
 11
0.0452755906
 21
6.233188288
 31
0.0
  0
LINE
  5
592
330
1F
100
AcDbEntity
  8
0
  6
Continuous
 62
     7
370
    25
100
AcDbLine
 10
0.0452755906
 20
6.233188288
 30
0.0
 11
0.0255905512
 21
6.2376290108
 31
0.0
  0
LINE
  5
593
330
1F
100
AcDbEntity
  8
0
  6
Continuous
 62
     7
370
    25
100
AcDbLine
 10
0.0255905512
 20
6.2376290108
 30
0.0
 11
0.0059055118
 21
6.233188288
 31
0.0
  0
LINE
  5
594
330
1F
100
AcDbEntity
  8
0
  6
Continuous
 62
     7
370
    25
100
AcDbLine
 10
-0.0454825153
 20
6.1655025807
 30
0.0
 11
-0.0454825153
 21
6.1566211349
 31
0.0
  0
LINE
  5
595
330
1F
100
AcDbEntity
  8
0
  6
Continuous
 62
     7
370
    25
100
AcDbLine
 10
-0.0454825153
 20
6.1566211349
 30
0.0
 11
-0.0257974759
 21
6.152180412
 31
0.0
  0
LINE
  5
596
330
1F
100
AcDbEntity
  8
0
  6
Continuous
 62
     7
370
    25
100
AcDbLine
 10
-0.0257974759
 20
6.152180412
 30
0.0
 11
-0.0061124365
 21
6.1566211349
 31
0.0
  0
LINE
  5
597
330
1F
100
AcDbEntity
  8
0
  6
Continuous
 62
     7
370
    25
100
AcDbLine
 10
-0.0061124365
 20
6.1566211349
 30
0.0
 11
-0.0061124365
 21
6.1655025807
 31
0.0
  0
LINE
  5
598
330
1F
100
AcDbEntity
  8
0
  6
Continuous
 62
     7
370
    25
100
AcDbLine
 10
-0.0061124365
 20
6.1655025807
 30
0.0
 11
-0.0257974759
 21
6.1699433035
 31
0.0
  0
LINE
  5
599
330
1F
100
AcDbEntity
  8
0
  6
Continuous
 62
     7
370
    25
100
AcDbLine
 10
-0.0257974759
 20
6.1699433035
 30
0.0
 11
-0.0454825153
 21
6.1655025807
 31
0.0
  0
LINE
  5
59A
330
1F
100
AcDbEntity
  8
0
  6
Continuous
 62
     7
370
    25
100
AcDbLine
 10
-0.1204925896
 20
6.1824240075
 30
0.0
 11
-0.1204925896
 21
6.1735425617
 31
0.0
  0
LINE
  5
59B
330
1F
100
AcDbEntity
  8
0
  6
Continuous
 62
     7
370
    25
100
AcDbLine
 10
-0.1204925896
 20
6.1735425617
 30
0.0
 11
-0.1008075503
 21
6.1691018389
 31
0.0
  0
LINE
  5
59C
330
1F
100
AcDbEntity
  8
0
  6
Continuous
 62
     7
370
    25
100
AcDbLine
 10
-0.1008075503
 20
6.1691018389
 30
0.0
 11
-0.0811225109
 21
6.1735425617
 31
0.0
  0
LINE
  5
59D
330
1F
100
AcDbEntity
  8
0
  6
Continuous
 62
     7
370
    25
100
AcDbLine
 10
-0.0811225109
 20
6.1735425617
 30
0.0
 11
-0.0811225109
 21
6.1824240075
 31
0.0
  0
LINE
  5
59E
330
1F
100
AcDbEntity
  8
0
  6
Continuous
 62
     7
370
    25
100
AcDbLine
 10
-0.0811225109
 20
6.1824240075
 30
0.0
 11
-0.1008075503
 21
6.1868647304
 31
0.0
  0
LINE
  5
59F
330
1F
100
AcDbEntity
  8
0
  6
Continuous
 62
     7
370
    25
100
AcDbLine
 10
-0.1008075503
 20
6.1868647304
 30
0.0
 11
-0.1204925896
 21
6.1824240075
 31
0.0
  0
LINE
  5
5A0
330
1F
100
AcDbEntity
  8
0
  6
Continuous
 62
     7
370
    25
100
AcDbLine
 10
-0.195502664
 20
6.1993454343
 30
0.0
 11
-0.195502664
 21
6.1904639886
 31
0.0
  0
LINE
  5
5A1
330
1F
100
AcDbEntity
  8
0
  6
Continuous
 62
     7
370
    25
100
AcDbLine
 10
-0.195502664
 20
6.1904639886
 30
0.0
 11
-0.1758176246
 21
6.1860232657
 31
0.0
  0
LINE
  5
5A2
330
1F
100
AcDbEntity
  8
0
  6
Continuous
 62
     7
370
    25
100
AcDbLine
 10
-0.1758176246
 20
6.1860232657
 30
0.0
 11
-0.1561325852
 21
6.1904639886
 31
0.0
  0
LINE
  5
5A3
330
1F
100
AcDbEntity
  8
0
  6
Continuous
 62
     7
370
    25
100
AcDbLine
 10
-0.1561325852
 20
6.1904639886
 30
0.0
 11
-0.1561325852
 21
6.1993454343
 31
0.0
  0
LINE
  5
5A4
330
1F
100
AcDbEntity
  8
0
  6
Continuous
 62
     7
370
    25
100
AcDbLine
 10
-0.1561325852
 20
6.1993454343
 30
0.0
 11
-0.1758176246
 21
6.2037861572
 31
0.0
  0
LINE
  5
5A5
330
1F
100
AcDbEntity
  8
0
  6
Continuous
 62
     7
370
    25
100
AcDbLine
 10
-0.1758176246
 20
6.2037861572
 30
0.0
 11
-0.195502664
 21
6.1993454343
 31
0.0
  0
LINE
  5
5A6
330
1F
100
AcDbEntity
  8
0
  6
Continuous
 62
     7
370
    25
100
AcDbLine
 10
-0.195502664
 20
6.233188288
 30
0.0
 11
-0.195502664
 21
6.2243068422
 31
0.0
  0
LINE
  5
5A7
330
1F
100
AcDbEntity
  8
0
  6
Continuous
 62
     7
370
    25
100
AcDbLine
 10
-0.195502664
 20
6.2243068422
 30
0.0
 11
-0.1758176246
 21
6.2198661193
 31
0.0
  0
LINE
  5
5A8
330
1F
100
AcDbEntity
  8
0
  6
Continuous
 62
     7
370
    25
100
AcDbLine
 10
-0.1758176246
 20
6.2198661193
 30
0.0
 11
-0.1561325852
 21
6.2243068422
 31
0.0
  0
LINE
  5
5A9
330
1F
100
AcDbEntity
  8
0
  6
Continuous
 62
     7
370
    25
100
AcDbLine
 10
-0.1561325852
 20
6.2243068422
 30
0.0
 11
-0.1561325852
 21
6.233188288
 31
0.0
  0
LINE
  5
5AA
330
1F
100
AcDbEntity
  8
0
  6
Continuous
 62
     7
370
    25
100
AcDbLine
 10
-0.1561325852
 20
6.233188288
 30
0.0
 11
-0.1758176246
 21
6.2376290108
 31
0.0
  0
LINE
  5
5AB
330
1F
100
AcDbEntity
  8
0
  6
Continuous
 62
     7
370
    25
100
AcDbLine
 10
-0.1758176246
 20
6.2376290108
 30
0.0
 11
-0.195502664
 21
6.233188288
 31
0.0
  0
LINE
  5
5AC
330
1F
100
AcDbEntity
  8
0
  6
Continuous
 62
     7
370
    25
100
AcDbLine
 10
-0.195502664
 20
6.2670311416
 30
0.0
 11
-0.195502664
 21
6.2581496959
 31
0.0
  0
LINE
  5
5AD
330
1F
100
AcDbEntity
  8
0
  6
Continuous
 62
     7
370
    25
100
AcDbLine
 10
-0.195502664
 20
6.2581496959
 30
0.0
 11
-0.1758176246
 21
6.253708973
 31
0.0
  0
LINE
  5
5AE
330
1F
100
AcDbEntity
  8
0
  6
Continuous
 62
     7
370
    25
100
AcDbLine
 10
-0.1758176246
 20
6.253708973
 30
0.0
 11
-0.1561325852
 21
6.2581496959
 31
0.0
  0
LINE
  5
5AF
330
1F
100
AcDbEntity
  8
0
  6
Continuous
 62
     7
370
    25
100
AcDbLine
 10
-0.1561325852
 20
6.2581496959
 30
0.0
 11
-0.1561325852
 21
6.2670311416
 31
0.0
  0
LINE
  5
5B0
330
1F
100
AcDbEntity
  8
0
  6
Continuous
 62
     7
370
    25
100
AcDbLine
 10
-0.1561325852
 20
6.2670311416
 30
0.0
 11
-0.1758176246
 21
6.2714718645
 31
0.0
  0
LINE
  5
5B1
330
1F
100
AcDbEntity
  8
0
  6
Continuous
 62
     7
370
    25
100
AcDbLine
 10
-0.1758176246
 20
6.2714718645
 30
0.0
 11
-0.195502664
 21
6.2670311416
 31
0.0
  0
LINE
  5
5B2
330
1F
100
AcDbEntity
  8
0
  6
Continuous
 62
     7
370
    25
100
AcDbLine
 10
-0.195502664
 20
6.2944276106
 30
0.0
 11
-0.195502664
 21
6.2919925495
 31
0.0
  0
LINE
  5
5B3
330
1F
100
AcDbEntity
  8
0
  6
Continuous
 62
     7
370
    25
100
AcDbLine
 10
-0.195502664
 20
6.2919925495
 30
0.0
 11
-0.1758176246
 21
6.2875518266
 31
0.0
  0
LINE
  5
5B4
330
1F
100
AcDbEntity
  8
0
  6
Continuous
 62
     7
370
    25
100
AcDbLine
 10
-0.1758176246
 20
6.2875518266
 30
0.0
 11
-0.1561325852
 21
6.2919925495
 31
0.0
  0
LINE
  5
5B5
330
1F
100
AcDbEntity
  8
0
  6
Continuous
 62
     7
370
    25
100
AcDbLine
 10
-0.1561325852
 20
6.2919925495
 30
0.0
 11
-0.1561325852
 21
6.3008739953
 31
0.0
  0
LINE
  5
5B6
330
1F
100
AcDbEntity
  8
0
  6
Continuous
 62
     7
370
    25
100
AcDbLine
 10
-0.1561325852
 20
6.3008739953
 30
0.0
 11
-0.1705862467
 21
6.3041345783
 31
0.0
  0
LINE
  5
5B7
330
1F
100
AcDbEntity
  8
0
  6
Continuous
 62
     7
370
    25
100
AcDbLine
 10
-0.1204925896
 20
6.3175015993
 30
0.0
 11
-0.1204925896
 21
6.3089139763
 31
0.0
  0
LINE
  5
5B8
330
1F
100
AcDbEntity
  8
0
  6
Continuous
 62
     7
370
    25
100
AcDbLine
 10
-0.1204925896
 20
6.3089139763
 30
0.0
 11
-0.1008075503
 21
6.3044732534
 31
0.0
  0
LINE
  5
5B9
330
1F
100
AcDbEntity
  8
0
  6
Continuous
 62
     7
370
    25
100
AcDbLine
 10
-0.1008075503
 20
6.3044732534
 30
0.0
 11
-0.0811225109
 21
6.3089139763
 31
0.0
  0
LINE
  5
5BA
330
1F
100
AcDbEntity
  8
0
  6
Continuous
 62
     7
370
    25
100
AcDbLine
 10
-0.0811225109
 20
6.3089139763
 30
0.0
 11
-0.0811225109
 21
6.3177954221
 31
0.0
  0
LINE
  5
5BB
330
1F
100
AcDbEntity
  8
0
  6
Continuous
 62
     7
370
    25
100
AcDbLine
 10
-0.0811225109
 20
6.3177954221
 30
0.0
 11
-0.0979398427
 21
6.3215892225
 31
0.0
  0
LINE
  5
5BC
330
1F
100
AcDbEntity
  8
0
  6
Continuous
 62
     7
370
    25
100
AcDbLine
 10
-0.0377100654
 20
6.3240820261
 30
0.0
 11
-0.0257974759
 21
6.3213946803
 31
0.0
  0
LINE
  5
5BD
330
1F
100
AcDbEntity
  8
0
  6
Continuous
 62
     7
370
    25
100
AcDbLine
 10
-0.0257974759
 20
6.3213946803
 30
0.0
 11
-0.0104556955
 21
6.3248556129
 31
0.0
  0
LINE
  5
5BE
330
1F
100
AcDbEntity
  8
0
  6
Continuous
 62
     7
370
    25
100
AcDbLine
 10
-0.0454825153
 20
6.1993454343
 30
0.0
 11
-0.0454825153
 21
6.1904639886
 31
0.0
  0
LINE
  5
5BF
330
1F
100
AcDbEntity
  8
0
  6
Continuous
 62
     7
370
    25
100
AcDbLine
 10
-0.0454825153
 20
6.1904639886
 30
0.0
 11
-0.0257974759
 21
6.1860232657
 31
0.0
  0
LINE
  5
5C0
330
1F
100
AcDbEntity
  8
0
  6
Continuous
 62
     7
370
    25
100
AcDbLine
 10
-0.0257974759
 20
6.1860232657
 30
0.0
 11
-0.0061124365
 21
6.1904639886
 31
0.0
  0
LINE
  5
5C1
330
1F
100
AcDbEntity
  8
0
  6
Continuous
 62
     7
370
    25
100
AcDbLine
 10
-0.0061124365
 20
6.1904639886
 30
0.0
 11
-0.0061124365
 21
6.1993454343
 31
0.0
  0
LINE
  5
5C2
330
1F
100
AcDbEntity
  8
0
  6
Continuous
 62
     7
370
    25
100
AcDbLine
 10
-0.0061124365
 20
6.1993454343
 30
0.0
 11
-0.0257974759
 21
6.2037861572
 31
0.0
  0
LINE
  5
5C3
330
1F
100
AcDbEntity
  8
0
  6
Continuous
 62
     7
370
    25
100
AcDbLine
 10
-0.0257974759
 20
6.2037861572
 30
0.0
 11
-0.0454825153
 21
6.1993454343
 31
0.0
  0
LINE
  5
5C4
330
1F
100
AcDbEntity
  8
0
  6
Continuous
 62
     7
370
    25
100
AcDbLine
 10
-0.1204925896
 20
6.2162668611
 30
0.0
 11
-0.1204925896
 21
6.2073854154
 31
0.0
  0
LINE
  5
5C5
330
1F
100
AcDbEntity
  8
0
  6
Continuous
 62
     7
370
    25
100
AcDbLine
 10
-0.1204925896
 20
6.2073854154
 30
0.0
 11
-0.1008075503
 21
6.2029446925
 31
0.0
  0
LINE
  5
5C6
330
1F
100
AcDbEntity
  8
0
  6
Continuous
 62
     7
370
    25
100
AcDbLine
 10
-0.1008075503
 20
6.2029446925
 30
0.0
 11
-0.0811225109
 21
6.2073854154
 31
0.0
  0
LINE
  5
5C7
330
1F
100
AcDbEntity
  8
0
  6
Continuous
 62
     7
370
    25
100
AcDbLine
 10
-0.0811225109
 20
6.2073854154
 30
0.0
 11
-0.0811225109
 21
6.2162668611
 31
0.0
  0
LINE
  5
5C8
330
1F
100
AcDbEntity
  8
0
  6
Continuous
 62
     7
370
    25
100
AcDbLine
 10
-0.0811225109
 20
6.2162668611
 30
0.0
 11
-0.1008075503
 21
6.220707584
 31
0.0
  0
LINE
  5
5C9
330
1F
100
AcDbEntity
  8
0
  6
Continuous
 62
     7
370
    25
100
AcDbLine
 10
-0.1008075503
 20
6.220707584
 30
0.0
 11
-0.1204925896
 21
6.2162668611
 31
0.0
  0
LINE
  5
5CA
330
1F
100
AcDbEntity
  8
0
  6
Continuous
 62
     7
370
    25
100
AcDbLine
 10
-0.1204925896
 20
6.2839525684
 30
0.0
 11
-0.1204925896
 21
6.2750711227
 31
0.0
  0
LINE
  5
5CB
330
1F
100
AcDbEntity
  8
0
  6
Continuous
 62
     7
370
    25
100
AcDbLine
 10
-0.1204925896
 20
6.2750711227
 30
0.0
 11
-0.1008075503
 21
6.2706303998
 31
0.0
  0
LINE
  5
5CC
330
1F
100
AcDbEntity
  8
0
  6
Continuous
 62
     7
370
    25
100
AcDbLine
 10
-0.1008075503
 20
6.2706303998
 30
0.0
 11
-0.0811225109
 21
6.2750711227
 31
0.0
  0
LINE
  5
5CD
330
1F
100
AcDbEntity
  8
0
  6
Continuous
 62
     7
370
    25
100
AcDbLine
 10
-0.0811225109
 20
6.2750711227
 30
0.0
 11
-0.0811225109
 21
6.2839525684
 31
0.0
  0
LINE
  5
5CE
330
1F
100
AcDbEntity
  8
0
  6
Continuous
 62
     7
370
    25
100
AcDbLine
 10
-0.0811225109
 20
6.2839525684
 30
0.0
 11
-0.1008075503
 21
6.2883932913
 31
0.0
  0
LINE
  5
5CF
330
1F
100
AcDbEntity
  8
0
  6
Continuous
 62
     7
370
    25
100
AcDbLine
 10
-0.1008075503
 20
6.2883932913
 30
0.0
 11
-0.1204925896
 21
6.2839525684
 31
0.0
  0
LINE
  5
5D0
330
1F
100
AcDbEntity
  8
0
  6
Continuous
 62
     7
370
    25
100
AcDbLine
 10
-0.0454825153
 20
6.2919925495
 30
0.0
 11
-0.0257974759
 21
6.2875518266
 31
0.0
  0
LINE
  5
5D1
330
1F
100
AcDbEntity
  8
0
  6
Continuous
 62
     7
370
    25
100
AcDbLine
 10
-0.0257974759
 20
6.2875518266
 30
0.0
 11
-0.0061124365
 21
6.2919925495
 31
0.0
  0
LINE
  5
5D2
330
1F
100
AcDbEntity
  8
0
  6
Continuous
 62
     7
370
    25
100
AcDbLine
 10
-0.0061124365
 20
6.2919925495
 30
0.0
 11
-0.0061124365
 21
6.3008739953
 31
0.0
  0
LINE
  5
5D3
330
1F
100
AcDbEntity
  8
0
  6
Continuous
 62
     7
370
    25
100
AcDbLine
 10
-0.0061124365
 20
6.3008739953
 30
0.0
 11
-0.0257974759
 21
6.3053147181
 31
0.0
  0
LINE
  5
5D4
330
1F
100
AcDbEntity
  8
0
  6
Continuous
 62
     7
370
    25
100
AcDbLine
 10
-0.0257974759
 20
6.3053147181
 30
0.0
 11
-0.0454825153
 21
6.3008739953
 31
0.0
  0
LINE
  5
5D5
330
1F
100
AcDbEntity
  8
0
  6
Continuous
 62
     7
370
    25
100
AcDbLine
 10
-0.0454825153
 20
6.3008739953
 30
0.0
 11
-0.0454825153
 21
6.2919925495
 31
0.0
  0
LINE
  5
5D6
330
1F
100
AcDbEntity
  8
0
  6
Continuous
 62
     7
370
    25
100
AcDbLine
 10
0.0295275591
 20
6.3177954221
 30
0.0
 11
0.0295275591
 21
6.3089139763
 31
0.0
  0
LINE
  5
5D7
330
1F
100
AcDbEntity
  8
0
  6
Continuous
 62
     7
370
    25
100
AcDbLine
 10
0.0295275591
 20
6.3089139763
 30
0.0
 11
0.0492125984
 21
6.3044732534
 31
0.0
  0
LINE
  5
5D8
330
1F
100
AcDbEntity
  8
0
  6
Continuous
 62
     7
370
    25
100
AcDbLine
 10
0.0492125984
 20
6.3044732534
 30
0.0
 11
0.0688976378
 21
6.3089139763
 31
0.0
  0
LINE
  5
5D9
330
1F
100
AcDbEntity
  8
0
  6
Continuous
 62
     7
370
    25
100
AcDbLine
 10
0.0688976378
 20
6.3089139763
 30
0.0
 11
0.0688976378
 21
6.3177954221
 31
0.0
  0
LINE
  5
5DA
330
1F
100
AcDbEntity
  8
0
  6
Continuous
 62
     7
370
    25
100
AcDbLine
 10
0.0688976378
 20
6.3177954221
 30
0.0
 11
0.0492125984
 21
6.322236145
 31
0.0
  0
LINE
  5
5DB
330
1F
100
AcDbEntity
  8
0
  6
Continuous
 62
     7
370
    25
100
AcDbLine
 10
0.0492125984
 20
6.322236145
 30
0.0
 11
0.0295275591
 21
6.3177954221
 31
0.0
  0
LINE
  5
5DC
330
1F
100
AcDbEntity
  8
0
  6
Continuous
 62
     7
370
    25
100
AcDbLine
 10
0.1045376334
 20
6.3008739953
 30
0.0
 11
0.1045376334
 21
6.2919925495
 31
0.0
  0
LINE
  5
5DD
330
1F
100
AcDbEntity
  8
0
  6
Continuous
 62
     7
370
    25
100
AcDbLine
 10
0.1045376334
 20
6.2919925495
 30
0.0
 11
0.1242226728
 21
6.2875518266
 31
0.0
  0
LINE
  5
5DE
330
1F
100
AcDbEntity
  8
0
  6
Continuous
 62
     7
370
    25
100
AcDbLine
 10
0.1242226728
 20
6.2875518266
 30
0.0
 11
0.1439077121
 21
6.2919925495
 31
0.0
  0
LINE
  5
5DF
330
1F
100
AcDbEntity
  8
0
  6
Continuous
 62
     7
370
    25
100
AcDbLine
 10
0.1439077121
 20
6.2919925495
 30
0.0
 11
0.1439077121
 21
6.3008739953
 31
0.0
  0
LINE
  5
5E0
330
1F
100
AcDbEntity
  8
0
  6
Continuous
 62
     7
370
    25
100
AcDbLine
 10
0.1439077121
 20
6.3008739953
 30
0.0
 11
0.1242226728
 21
6.3053147181
 31
0.0
  0
LINE
  5
5E1
330
1F
100
AcDbEntity
  8
0
  6
Continuous
 62
     7
370
    25
100
AcDbLine
 10
0.1242226728
 20
6.3053147181
 30
0.0
 11
0.1045376334
 21
6.3008739953
 31
0.0
  0
LINE
  5
5E2
330
1F
100
AcDbEntity
  8
0
  6
Continuous
 62
     7
370
    25
100
AcDbLine
 10
0.1795477077
 20
6.2839525684
 30
0.0
 11
0.1795477077
 21
6.2750711227
 31
0.0
  0
LINE
  5
5E3
330
1F
100
AcDbEntity
  8
0
  6
Continuous
 62
     7
370
    25
100
AcDbLine
 10
0.1795477077
 20
6.2750711227
 30
0.0
 11
0.1992327471
 21
6.2706303998
 31
0.0
  0
LINE
  5
5E4
330
1F
100
AcDbEntity
  8
0
  6
Continuous
 62
     7
370
    25
100
AcDbLine
 10
0.1992327471
 20
6.2706303998
 30
0.0
 11
0.2189177865
 21
6.2750711227
 31
0.0
  0
LINE
  5
5E5
330
1F
100
AcDbEntity
  8
0
  6
Continuous
 62
     7
370
    25
100
AcDbLine
 10
0.2189177865
 20
6.2750711227
 30
0.0
 11
0.2189177865
 21
6.2822415988
 31
0.0
  0
LINE
  5
5E6
330
1F
100
AcDbEntity
  8
0
  6
Continuous
 62
     7
370
    25
100
AcDbLine
 10
0.2142173971
 20
6.2850129233
 30
0.0
 11
0.1992327471
 21
6.2883932913
 31
0.0
  0
LINE
  5
5E7
330
1F
100
AcDbEntity
  8
0
  6
Continuous
 62
     7
370
    25
100
AcDbLine
 10
0.1992327471
 20
6.2883932913
 30
0.0
 11
0.1795477077
 21
6.2839525684
 31
0.0
  0
LINE
  5
5E8
330
1F
100
AcDbEntity
  8
0
  6
Continuous
 62
     7
370
    25
100
AcDbLine
 10
0.1795477077
 20
6.2501097148
 30
0.0
 11
0.1795477077
 21
6.241228269
 31
0.0
  0
LINE
  5
5E9
330
1F
100
AcDbEntity
  8
0
  6
Continuous
 62
     7
370
    25
100
AcDbLine
 10
0.1795477077
 20
6.241228269
 30
0.0
 11
0.1992327471
 21
6.2367875462
 31
0.0
  0
LINE
  5
5EA
330
1F
100
AcDbEntity
  8
0
  6
Continuous
 62
     7
370
    25
100
AcDbLine
 10
0.1992327471
 20
6.2367875462
 30
0.0
 11
0.2189177865
 21
6.241228269
 31
0.0
  0
LINE
  5
5EB
330
1F
100
AcDbEntity
  8
0
  6
Continuous
 62
     7
370
    25
100
AcDbLine
 10
0.2189177865
 20
6.241228269
 30
0.0
 11
0.2189177865
 21
6.2501097148
 31
0.0
  0
LINE
  5
5EC
330
1F
100
AcDbEntity
  8
0
  6
Continuous
 62
     7
370
    25
100
AcDbLine
 10
0.2189177865
 20
6.2501097148
 30
0.0
 11
0.1992327471
 21
6.2545504377
 31
0.0
  0
LINE
  5
5ED
330
1F
100
AcDbEntity
  8
0
  6
Continuous
 62
     7
370
    25
100
AcDbLine
 10
0.1992327471
 20
6.2545504377
 30
0.0
 11
0.1795477077
 21
6.2501097148
 31
0.0
  0
LINE
  5
5EE
330
1F
100
AcDbEntity
  8
0
  6
Continuous
 62
     7
370
    25
100
AcDbLine
 10
0.1795477077
 20
6.2162668611
 30
0.0
 11
0.1795477077
 21
6.2073854154
 31
0.0
  0
LINE
  5
5EF
330
1F
100
AcDbEntity
  8
0
  6
Continuous
 62
     7
370
    25
100
AcDbLine
 10
0.1795477077
 20
6.2073854154
 30
0.0
 11
0.1992327471
 21
6.2029446925
 31
0.0
  0
LINE
  5
5F0
330
1F
100
AcDbEntity
  8
0
  6
Continuous
 62
     7
370
    25
100
AcDbLine
 10
0.1992327471
 20
6.2029446925
 30
0.0
 11
0.2189177865
 21
6.2073854154
 31
0.0
  0
LINE
  5
5F1
330
1F
100
AcDbEntity
  8
0
  6
Continuous
 62
     7
370
    25
100
AcDbLine
 10
0.2189177865
 20
6.2073854154
 30
0.0
 11
0.2189177865
 21
6.2162668611
 31
0.0
  0
LINE
  5
5F2
330
1F
100
AcDbEntity
  8
0
  6
Continuous
 62
     7
370
    25
100
AcDbLine
 10
0.2189177865
 20
6.2162668611
 30
0.0
 11
0.1992327471
 21
6.220707584
 31
0.0
  0
LINE
  5
5F3
330
1F
100
AcDbEntity
  8
0
  6
Continuous
 62
     7
370
    25
100
AcDbLine
 10
0.1992327471
 20
6.220707584
 30
0.0
 11
0.1795477077
 21
6.2162668611
 31
0.0
  0
LINE
  5
5F4
330
1F
100
AcDbEntity
  8
0
  6
Continuous
 62
     7
370
    25
100
AcDbLine
 10
0.1045376334
 20
6.1993454343
 30
0.0
 11
0.1045376334
 21
6.1904639886
 31
0.0
  0
LINE
  5
5F5
330
1F
100
AcDbEntity
  8
0
  6
Continuous
 62
     7
370
    25
100
AcDbLine
 10
0.1045376334
 20
6.1904639886
 30
0.0
 11
0.1242226728
 21
6.1860232657
 31
0.0
  0
LINE
  5
5F6
330
1F
100
AcDbEntity
  8
0
  6
Continuous
 62
     7
370
    25
100
AcDbLine
 10
0.1242226728
 20
6.1860232657
 30
0.0
 11
0.1439077121
 21
6.1904639886
 31
0.0
  0
LINE
  5
5F7
330
1F
100
AcDbEntity
  8
0
  6
Continuous
 62
     7
370
    25
100
AcDbLine
 10
0.1439077121
 20
6.1904639886
 30
0.0
 11
0.1439077121
 21
6.1993454343
 31
0.0
  0
LINE
  5
5F8
330
1F
100
AcDbEntity
  8
0
  6
Continuous
 62
     7
370
    25
100
AcDbLine
 10
0.1439077121
 20
6.1993454343
 30
0.0
 11
0.1242226728
 21
6.2037861572
 31
0.0
  0
LINE
  5
5F9
330
1F
100
AcDbEntity
  8
0
  6
Continuous
 62
     7
370
    25
100
AcDbLine
 10
0.1242226728
 20
6.2037861572
 30
0.0
 11
0.1045376334
 21
6.1993454343
 31
0.0
  0
LINE
  5
5FA
330
1F
100
AcDbEntity
  8
0
  6
Continuous
 62
     7
370
    25
100
AcDbLine
 10
0.0295275591
 20
6.1824240075
 30
0.0
 11
0.0295275591
 21
6.1735425617
 31
0.0
  0
LINE
  5
5FB
330
1F
100
AcDbEntity
  8
0
  6
Continuous
 62
     7
370
    25
100
AcDbLine
 10
0.0295275591
 20
6.1735425617
 30
0.0
 11
0.0492125984
 21
6.1691018389
 31
0.0
  0
LINE
  5
5FC
330
1F
100
AcDbEntity
  8
0
  6
Continuous
 62
     7
370
    25
100
AcDbLine
 10
0.0492125984
 20
6.1691018389
 30
0.0
 11
0.0688976378
 21
6.1735425617
 31
0.0
  0
LINE
  5
5FD
330
1F
100
AcDbEntity
  8
0
  6
Continuous
 62
     7
370
    25
100
AcDbLine
 10
0.0688976378
 20
6.1735425617
 30
0.0
 11
0.0688976378
 21
6.1824240075
 31
0.0
  0
LINE
  5
5FE
330
1F
100
AcDbEntity
  8
0
  6
Continuous
 62
     7
370
    25
100
AcDbLine
 10
0.0688976378
 20
6.1824240075
 30
0.0
 11
0.0492125984
 21
6.1868647304
 31
0.0
  0
LINE
  5
5FF
330
1F
100
AcDbEntity
  8
0
  6
Continuous
 62
     7
370
    25
100
AcDbLine
 10
0.0492125984
 20
6.1868647304
 30
0.0
 11
0.0295275591
 21
6.1824240075
 31
0.0
  0
LINE
  5
600
330
1F
100
AcDbEntity
  8
0
  6
Continuous
 62
     7
370
    25
100
AcDbLine
 10
-0.0454825153
 20
6.233188288
 30
0.0
 11
-0.0454825153
 21
6.2243068422
 31
0.0
  0
LINE
  5
601
330
1F
100
AcDbEntity
  8
0
  6
Continuous
 62
     7
370
    25
100
AcDbLine
 10
-0.0454825153
 20
6.2243068422
 30
0.0
 11
-0.0257974759
 21
6.2198661193
 31
0.0
  0
LINE
  5
602
330
1F
100
AcDbEntity
  8
0
  6
Continuous
 62
     7
370
    25
100
AcDbLine
 10
-0.0257974759
 20
6.2198661193
 30
0.0
 11
-0.0061124365
 21
6.2243068422
 31
0.0
  0
LINE
  5
603
330
1F
100
AcDbEntity
  8
0
  6
Continuous
 62
     7
370
    25
100
AcDbLine
 10
-0.0061124365
 20
6.2243068422
 30
0.0
 11
-0.0061124365
 21
6.233188288
 31
0.0
  0
LINE
  5
604
330
1F
100
AcDbEntity
  8
0
  6
Continuous
 62
     7
370
    25
100
AcDbLine
 10
-0.0061124365
 20
6.233188288
 30
0.0
 11
-0.0257974759
 21
6.2376290108
 31
0.0
  0
LINE
  5
605
330
1F
100
AcDbEntity
  8
0
  6
Continuous
 62
     7
370
    25
100
AcDbLine
 10
-0.0257974759
 20
6.2376290108
 30
0.0
 11
-0.0454825153
 21
6.233188288
 31
0.0
  0
LINE
  5
606
330
1F
100
AcDbEntity
  8
0
  6
Continuous
 62
     7
370
    25
100
AcDbLine
 10
-0.0454825153
 20
6.2670311416
 30
0.0
 11
-0.0454825153
 21
6.2581496959
 31
0.0
  0
LINE
  5
607
330
1F
100
AcDbEntity
  8
0
  6
Continuous
 62
     7
370
    25
100
AcDbLine
 10
-0.0454825153
 20
6.2581496959
 30
0.0
 11
-0.0257974759
 21
6.253708973
 31
0.0
  0
LINE
  5
608
330
1F
100
AcDbEntity
  8
0
  6
Continuous
 62
     7
370
    25
100
AcDbLine
 10
-0.0257974759
 20
6.253708973
 30
0.0
 11
-0.0061124365
 21
6.2581496959
 31
0.0
  0
LINE
  5
609
330
1F
100
AcDbEntity
  8
0
  6
Continuous
 62
     7
370
    25
100
AcDbLine
 10
-0.0061124365
 20
6.2581496959
 30
0.0
 11
-0.0061124365
 21
6.2670311416
 31
0.0
  0
LINE
  5
60A
330
1F
100
AcDbEntity
  8
0
  6
Continuous
 62
     7
370
    25
100
AcDbLine
 10
-0.0061124365
 20
6.2670311416
 30
0.0
 11
-0.0257974759
 21
6.2714718645
 31
0.0
  0
LINE
  5
60B
330
1F
100
AcDbEntity
  8
0
  6
Continuous
 62
     7
370
    25
100
AcDbLine
 10
-0.0257974759
 20
6.2714718645
 30
0.0
 11
-0.0454825153
 21
6.2670311416
 31
0.0
  0
LINE
  5
60C
330
1F
100
AcDbEntity
  8
0
  6
Continuous
 62
     7
370
    25
100
AcDbLine
 10
0.1045376334
 20
6.2581496959
 30
0.0
 11
0.1242226728
 21
6.253708973
 31
0.0
  0
LINE
  5
60D
330
1F
100
AcDbEntity
  8
0
  6
Continuous
 62
     7
370
    25
100
AcDbLine
 10
0.1242226728
 20
6.253708973
 30
0.0
 11
0.1439077121
 21
6.2581496959
 31
0.0
  0
LINE
  5
60E
330
1F
100
AcDbEntity
  8
0
  6
Continuous
 62
     7
370
    25
100
AcDbLine
 10
0.1439077121
 20
6.2581496959
 30
0.0
 11
0.1439077121
 21
6.2670311416
 31
0.0
  0
LINE
  5
60F
330
1F
100
AcDbEntity
  8
0
  6
Continuous
 62
     7
370
    25
100
AcDbLine
 10
0.1439077121
 20
6.2670311416
 30
0.0
 11
0.1242226728
 21
6.2714718645
 31
0.0
  0
LINE
  5
610
330
1F
100
AcDbEntity
  8
0
  6
Continuous
 62
     7
370
    25
100
AcDbLine
 10
0.1242226728
 20
6.2714718645
 30
0.0
 11
0.1045376334
 21
6.2670311416
 31
0.0
  0
LINE
  5
611
330
1F
100
AcDbEntity
  8
0
  6
Continuous
 62
     7
370
    25
100
AcDbLine
 10
0.1045376334
 20
6.2670311416
 30
0.0
 11
0.1045376334
 21
6.2581496959
 31
0.0
  0
LINE
  5
612
330
1F
100
AcDbEntity
  8
0
  6
Continuous
 62
     7
370
    25
100
AcDbLine
 10
0.1045376334
 20
6.233188288
 30
0.0
 11
0.1045376334
 21
6.2243068422
 31
0.0
  0
LINE
  5
613
330
1F
100
AcDbEntity
  8
0
  6
Continuous
 62
     7
370
    25
100
AcDbLine
 10
0.1045376334
 20
6.2243068422
 30
0.0
 11
0.1242226728
 21
6.2198661193
 31
0.0
  0
LINE
  5
614
330
1F
100
AcDbEntity
  8
0
  6
Continuous
 62
     7
370
    25
100
AcDbLine
 10
0.1242226728
 20
6.2198661193
 30
0.0
 11
0.1439077121
 21
6.2243068422
 31
0.0
  0
LINE
  5
615
330
1F
100
AcDbEntity
  8
0
  6
Continuous
 62
     7
370
    25
100
AcDbLine
 10
0.1439077121
 20
6.2243068422
 30
0.0
 11
0.1439077121
 21
6.233188288
 31
0.0
  0
LINE
  5
616
330
1F
100
AcDbEntity
  8
0
  6
Continuous
 62
     7
370
    25
100
AcDbLine
 10
0.1439077121
 20
6.233188288
 30
0.0
 11
0.1242226728
 21
6.2376290108
 31
0.0
  0
LINE
  5
617
330
1F
100
AcDbEntity
  8
0
  6
Continuous
 62
     7
370
    25
100
AcDbLine
 10
0.1242226728
 20
6.2376290108
 30
0.0
 11
0.1045376334
 21
6.233188288
 31
0.0
  0
LINE
  5
618
330
1F
100
AcDbEntity
  8
0
  6
Continuous
 62
     7
370
    25
100
AcDbLine
 10
0.0295275591
 20
6.2501097148
 30
0.0
 11
0.0295275591
 21
6.241228269
 31
0.0
  0
LINE
  5
619
330
1F
100
AcDbEntity
  8
0
  6
Continuous
 62
     7
370
    25
100
AcDbLine
 10
0.0295275591
 20
6.241228269
 30
0.0
 11
0.0492125984
 21
6.2367875462
 31
0.0
  0
LINE
  5
61A
330
1F
100
AcDbEntity
  8
0
  6
Continuous
 62
     7
370
    25
100
AcDbLine
 10
0.0492125984
 20
6.2367875462
 30
0.0
 11
0.0688976378
 21
6.241228269
 31
0.0
  0
LINE
  5
61B
330
1F
100
AcDbEntity
  8
0
  6
Continuous
 62
     7
370
    25
100
AcDbLine
 10
0.0688976378
 20
6.241228269
 30
0.0
 11
0.0688976378
 21
6.2501097148
 31
0.0
  0
LINE
  5
61C
330
1F
100
AcDbEntity
  8
0
  6
Continuous
 62
     7
370
    25
100
AcDbLine
 10
0.0688976378
 20
6.2501097148
 30
0.0
 11
0.0492125984
 21
6.2545504377
 31
0.0
  0
LINE
  5
61D
330
1F
100
AcDbEntity
  8
0
  6
Continuous
 62
     7
370
    25
100
AcDbLine
 10
0.0492125984
 20
6.2545504377
 30
0.0
 11
0.0295275591
 21
6.2501097148
 31
0.0
  0
LINE
  5
61E
330
1F
100
AcDbEntity
  8
0
  6
Continuous
 62
     7
370
    25
100
AcDbLine
 10
-0.0946951137
 20
6.1655025807
 30
0.0
 11
-0.0946951137
 21
6.1566211349
 31
0.0
  0
LINE
  5
61F
330
1F
100
AcDbEntity
  8
0
  6
Continuous
 62
     7
370
    25
100
AcDbLine
 10
-0.0946951137
 20
6.1566211349
 30
0.0
 11
-0.0750100743
 21
6.152180412
 31
0.0
  0
LINE
  5
620
330
1F
100
AcDbEntity
  8
0
  6
Continuous
 62
     7
370
    25
100
AcDbLine
 10
-0.0750100743
 20
6.152180412
 30
0.0
 11
-0.055325035
 21
6.1566211349
 31
0.0
  0
LINE
  5
621
330
1F
100
AcDbEntity
  8
0
  6
Continuous
 62
     7
370
    25
100
AcDbLine
 10
-0.055325035
 20
6.1566211349
 30
0.0
 11
-0.055325035
 21
6.1655025807
 31
0.0
  0
LINE
  5
622
330
1F
100
AcDbEntity
  8
0
  6
Continuous
 62
     7
370
    25
100
AcDbLine
 10
-0.055325035
 20
6.1655025807
 30
0.0
 11
-0.0750100743
 21
6.1699433035
 31
0.0
  0
LINE
  5
623
330
1F
100
AcDbEntity
  8
0
  6
Continuous
 62
     7
370
    25
100
AcDbLine
 10
-0.0750100743
 20
6.1699433035
 30
0.0
 11
-0.0946951137
 21
6.1655025807
 31
0.0
  0
LINE
  5
624
330
1F
100
AcDbEntity
  8
0
  6
Continuous
 62
     7
370
    25
100
AcDbLine
 10
-0.1697051881
 20
6.1824240075
 30
0.0
 11
-0.1697051881
 21
6.1735425617
 31
0.0
  0
LINE
  5
625
330
1F
100
AcDbEntity
  8
0
  6
Continuous
 62
     7
370
    25
100
AcDbLine
 10
-0.1697051881
 20
6.1735425617
 30
0.0
 11
-0.1500201487
 21
6.1691018389
 31
0.0
  0
LINE
  5
626
330
1F
100
AcDbEntity
  8
0
  6
Continuous
 62
     7
370
    25
100
AcDbLine
 10
-0.1500201487
 20
6.1691018389
 30
0.0
 11
-0.1303351093
 21
6.1735425617
 31
0.0
  0
LINE
  5
627
330
1F
100
AcDbEntity
  8
0
  6
Continuous
 62
     7
370
    25
100
AcDbLine
 10
-0.1303351093
 20
6.1735425617
 30
0.0
 11
-0.1303351093
 21
6.1824240075
 31
0.0
  0
LINE
  5
628
330
1F
100
AcDbEntity
  8
0
  6
Continuous
 62
     7
370
    25
100
AcDbLine
 10
-0.1303351093
 20
6.1824240075
 30
0.0
 11
-0.1500201487
 21
6.1868647304
 31
0.0
  0
LINE
  5
629
330
1F
100
AcDbEntity
  8
0
  6
Continuous
 62
     7
370
    25
100
AcDbLine
 10
-0.1500201487
 20
6.1868647304
 30
0.0
 11
-0.1697051881
 21
6.1824240075
 31
0.0
  0
LINE
  5
62A
330
1F
100
AcDbEntity
  8
0
  6
Continuous
 62
     7
370
    25
100
AcDbLine
 10
-0.2447152624
 20
6.233188288
 30
0.0
 11
-0.2447152624
 21
6.2243068422
 31
0.0
  0
LINE
  5
62B
330
1F
100
AcDbEntity
  8
0
  6
Continuous
 62
     7
370
    25
100
AcDbLine
 10
-0.2447152624
 20
6.2243068422
 30
0.0
 11
-0.225030223
 21
6.2198661193
 31
0.0
  0
LINE
  5
62C
330
1F
100
AcDbEntity
  8
0
  6
Continuous
 62
     7
370
    25
100
AcDbLine
 10
-0.225030223
 20
6.2198661193
 30
0.0
 11
-0.2053451837
 21
6.2243068422
 31
0.0
  0
LINE
  5
62D
330
1F
100
AcDbEntity
  8
0
  6
Continuous
 62
     7
370
    25
100
AcDbLine
 10
-0.2053451837
 20
6.2243068422
 30
0.0
 11
-0.2053451837
 21
6.233188288
 31
0.0
  0
LINE
  5
62E
330
1F
100
AcDbEntity
  8
0
  6
Continuous
 62
     7
370
    25
100
AcDbLine
 10
-0.2053451837
 20
6.233188288
 30
0.0
 11
-0.225030223
 21
6.2376290108
 31
0.0
  0
LINE
  5
62F
330
1F
100
AcDbEntity
  8
0
  6
Continuous
 62
     7
370
    25
100
AcDbLine
 10
-0.225030223
 20
6.2376290108
 30
0.0
 11
-0.2447152624
 21
6.233188288
 31
0.0
  0
LINE
  5
630
330
1F
100
AcDbEntity
  8
0
  6
Continuous
 62
     7
370
    25
100
AcDbLine
 10
-0.2447152624
 20
6.261684891
 30
0.0
 11
-0.2447152624
 21
6.2581496959
 31
0.0
  0
LINE
  5
631
330
1F
100
AcDbEntity
  8
0
  6
Continuous
 62
     7
370
    25
100
AcDbLine
 10
-0.2447152624
 20
6.2581496959
 30
0.0
 11
-0.225030223
 21
6.253708973
 31
0.0
  0
LINE
  5
632
330
1F
100
AcDbEntity
  8
0
  6
Continuous
 62
     7
370
    25
100
AcDbLine
 10
-0.225030223
 20
6.253708973
 30
0.0
 11
-0.2053451837
 21
6.2581496959
 31
0.0
  0
LINE
  5
633
330
1F
100
AcDbEntity
  8
0
  6
Continuous
 62
     7
370
    25
100
AcDbLine
 10
-0.2053451837
 20
6.2581496959
 30
0.0
 11
-0.2053451837
 21
6.2670311416
 31
0.0
  0
LINE
  5
634
330
1F
100
AcDbEntity
  8
0
  6
Continuous
 62
     7
370
    25
100
AcDbLine
 10
-0.2053451837
 20
6.2670311416
 30
0.0
 11
-0.225030223
 21
6.2714718645
 31
0.0
  0
LINE
  5
635
330
1F
100
AcDbEntity
  8
0
  6
Continuous
 62
     7
370
    25
100
AcDbLine
 10
-0.225030223
 20
6.2714718645
 30
0.0
 11
-0.2376190475
 21
6.2686319677
 31
0.0
  0
LINE
  5
636
330
1F
100
AcDbEntity
  8
0
  6
Continuous
 62
     7
370
    25
100
AcDbLine
 10
-0.1615416516
 20
6.3070723746
 30
0.0
 11
-0.1500201487
 21
6.3044732534
 31
0.0
  0
LINE
  5
637
330
1F
100
AcDbEntity
  8
0
  6
Continuous
 62
     7
370
    25
100
AcDbLine
 10
-0.1500201487
 20
6.3044732534
 30
0.0
 11
-0.1303351093
 21
6.3089139763
 31
0.0
  0
LINE
  5
638
330
1F
100
AcDbEntity
  8
0
  6
Continuous
 62
     7
370
    25
100
AcDbLine
 10
-0.1303351093
 20
6.3089139763
 30
0.0
 11
-0.1303351093
 21
6.3153815724
 31
0.0
  0
LINE
  5
639
330
1F
100
AcDbEntity
  8
0
  6
Continuous
 62
     7
370
    25
100
AcDbLine
 10
-0.0845650682
 20
6.3235501791
 30
0.0
 11
-0.0750100743
 21
6.3213946803
 31
0.0
  0
LINE
  5
63A
330
1F
100
AcDbEntity
  8
0
  6
Continuous
 62
     7
370
    25
100
AcDbLine
 10
-0.0750100743
 20
6.3213946803
 30
0.0
 11
-0.0560624662
 21
6.325669047
 31
0.0
  0
LINE
  5
63B
330
1F
100
AcDbEntity
  8
0
  6
Continuous
 62
     7
370
    25
100
AcDbLine
 10
0.0560624662
 20
6.325669047
 30
0.0
 11
0.0750100743
 21
6.3213946803
 31
0.0
  0
LINE
  5
63C
330
1F
100
AcDbEntity
  8
0
  6
Continuous
 62
     7
370
    25
100
AcDbLine
 10
0.0750100743
 20
6.3213946803
 30
0.0
 11
0.0845650682
 21
6.3235501791
 31
0.0
  0
LINE
  5
63D
330
1F
100
AcDbEntity
  8
0
  6
Continuous
 62
     7
370
    25
100
AcDbLine
 10
0.1303351093
 20
6.3153815724
 30
0.0
 11
0.1303351093
 21
6.3089139763
 31
0.0
  0
LINE
  5
63E
330
1F
100
AcDbEntity
  8
0
  6
Continuous
 62
     7
370
    25
100
AcDbLine
 10
0.1303351093
 20
6.3089139763
 30
0.0
 11
0.1500201487
 21
6.3044732534
 31
0.0
  0
LINE
  5
63F
330
1F
100
AcDbEntity
  8
0
  6
Continuous
 62
     7
370
    25
100
AcDbLine
 10
0.1500201487
 20
6.3044732534
 30
0.0
 11
0.1615416516
 21
6.3070723746
 31
0.0
  0
LINE
  5
640
330
1F
100
AcDbEntity
  8
0
  6
Continuous
 62
     7
370
    25
100
AcDbLine
 10
0.2053451837
 20
6.2670311416
 30
0.0
 11
0.2053451837
 21
6.2581496959
 31
0.0
  0
LINE
  5
641
330
1F
100
AcDbEntity
  8
0
  6
Continuous
 62
     7
370
    25
100
AcDbLine
 10
0.2053451837
 20
6.2581496959
 30
0.0
 11
0.225030223
 21
6.253708973
 31
0.0
  0
LINE
  5
642
330
1F
100
AcDbEntity
  8
0
  6
Continuous
 62
     7
370
    25
100
AcDbLine
 10
0.225030223
 20
6.253708973
 30
0.0
 11
0.2447152624
 21
6.2581496959
 31
0.0
  0
LINE
  5
643
330
1F
100
AcDbEntity
  8
0
  6
Continuous
 62
     7
370
    25
100
AcDbLine
 10
0.2447152624
 20
6.2581496959
 30
0.0
 11
0.2447152624
 21
6.261684891
 31
0.0
  0
LINE
  5
644
330
1F
100
AcDbEntity
  8
0
  6
Continuous
 62
     7
370
    25
100
AcDbLine
 10
0.2376190475
 20
6.2686319677
 30
0.0
 11
0.225030223
 21
6.2714718645
 31
0.0
  0
LINE
  5
645
330
1F
100
AcDbEntity
  8
0
  6
Continuous
 62
     7
370
    25
100
AcDbLine
 10
0.225030223
 20
6.2714718645
 30
0.0
 11
0.2053451837
 21
6.2670311416
 31
0.0
  0
LINE
  5
646
330
1F
100
AcDbEntity
  8
0
  6
Continuous
 62
     7
370
    25
100
AcDbLine
 10
0.2053451837
 20
6.233188288
 30
0.0
 11
0.2053451837
 21
6.2243068422
 31
0.0
  0
LINE
  5
647
330
1F
100
AcDbEntity
  8
0
  6
Continuous
 62
     7
370
    25
100
AcDbLine
 10
0.2053451837
 20
6.2243068422
 30
0.0
 11
0.225030223
 21
6.2198661193
 31
0.0
  0
LINE
  5
648
330
1F
100
AcDbEntity
  8
0
  6
Continuous
 62
     7
370
    25
100
AcDbLine
 10
0.225030223
 20
6.2198661193
 30
0.0
 11
0.2447152624
 21
6.2243068422
 31
0.0
  0
LINE
  5
649
330
1F
100
AcDbEntity
  8
0
  6
Continuous
 62
     7
370
    25
100
AcDbLine
 10
0.2447152624
 20
6.2243068422
 30
0.0
 11
0.2447152624
 21
6.233188288
 31
0.0
  0
LINE
  5
64A
330
1F
100
AcDbEntity
  8
0
  6
Continuous
 62
     7
370
    25
100
AcDbLine
 10
0.2447152624
 20
6.233188288
 30
0.0
 11
0.225030223
 21
6.2376290108
 31
0.0
  0
LINE
  5
64B
330
1F
100
AcDbEntity
  8
0
  6
Continuous
 62
     7
370
    25
100
AcDbLine
 10
0.225030223
 20
6.2376290108
 30
0.0
 11
0.2053451837
 21
6.233188288
 31
0.0
  0
LINE
  5
64C
330
1F
100
AcDbEntity
  8
0
  6
Continuous
 62
     7
370
    25
100
AcDbLine
 10
0.1303351093
 20
6.1824240075
 30
0.0
 11
0.1303351093
 21
6.1735425617
 31
0.0
  0
LINE
  5
64D
330
1F
100
AcDbEntity
  8
0
  6
Continuous
 62
     7
370
    25
100
AcDbLine
 10
0.1303351093
 20
6.1735425617
 30
0.0
 11
0.1500201487
 21
6.1691018389
 31
0.0
  0
LINE
  5
64E
330
1F
100
AcDbEntity
  8
0
  6
Continuous
 62
     7
370
    25
100
AcDbLine
 10
0.1500201487
 20
6.1691018389
 30
0.0
 11
0.1697051881
 21
6.1735425617
 31
0.0
  0
LINE
  5
64F
330
1F
100
AcDbEntity
  8
0
  6
Continuous
 62
     7
370
    25
100
AcDbLine
 10
0.1697051881
 20
6.1735425617
 30
0.0
 11
0.1697051881
 21
6.1824240075
 31
0.0
  0
LINE
  5
650
330
1F
100
AcDbEntity
  8
0
  6
Continuous
 62
     7
370
    25
100
AcDbLine
 10
0.1697051881
 20
6.1824240075
 30
0.0
 11
0.1500201487
 21
6.1868647304
 31
0.0
  0
LINE
  5
651
330
1F
100
AcDbEntity
  8
0
  6
Continuous
 62
     7
370
    25
100
AcDbLine
 10
0.1500201487
 20
6.1868647304
 30
0.0
 11
0.1303351093
 21
6.1824240075
 31
0.0
  0
LINE
  5
652
330
1F
100
AcDbEntity
  8
0
  6
Continuous
 62
     7
370
    25
100
AcDbLine
 10
0.055325035
 20
6.1655025807
 30
0.0
 11
0.055325035
 21
6.1566211349
 31
0.0
  0
LINE
  5
653
330
1F
100
AcDbEntity
  8
0
  6
Continuous
 62
     7
370
    25
100
AcDbLine
 10
0.055325035
 20
6.1566211349
 30
0.0
 11
0.0750100743
 21
6.152180412
 31
0.0
  0
LINE
  5
654
330
1F
100
AcDbEntity
  8
0
  6
Continuous
 62
     7
370
    25
100
AcDbLine
 10
0.0750100743
 20
6.152180412
 30
0.0
 11
0.0946951137
 21
6.1566211349
 31
0.0
  0
LINE
  5
655
330
1F
100
AcDbEntity
  8
0
  6
Continuous
 62
     7
370
    25
100
AcDbLine
 10
0.0946951137
 20
6.1566211349
 30
0.0
 11
0.0946951137
 21
6.1655025807
 31
0.0
  0
LINE
  5
656
330
1F
100
AcDbEntity
  8
0
  6
Continuous
 62
     7
370
    25
100
AcDbLine
 10
0.0946951137
 20
6.1655025807
 30
0.0
 11
0.0750100743
 21
6.1699433035
 31
0.0
  0
LINE
  5
657
330
1F
100
AcDbEntity
  8
0
  6
Continuous
 62
     7
370
    25
100
AcDbLine
 10
0.0750100743
 20
6.1699433035
 30
0.0
 11
0.055325035
 21
6.1655025807
 31
0.0
  0
LINE
  5
658
330
1F
100
AcDbEntity
  8
0
  6
Continuous
 62
     7
370
    25
100
AcDbLine
 10
-0.0946951137
 20
6.1993454343
 30
0.0
 11
-0.0946951137
 21
6.1904639886
 31
0.0
  0
LINE
  5
659
330
1F
100
AcDbEntity
  8
0
  6
Continuous
 62
     7
370
    25
100
AcDbLine
 10
-0.0946951137
 20
6.1904639886
 30
0.0
 11
-0.0750100743
 21
6.1860232657
 31
0.0
  0
LINE
  5
65A
330
1F
100
AcDbEntity
  8
0
  6
Continuous
 62
     7
370
    25
100
AcDbLine
 10
-0.0750100743
 20
6.1860232657
 30
0.0
 11
-0.055325035
 21
6.1904639886
 31
0.0
  0
LINE
  5
65B
330
1F
100
AcDbEntity
  8
0
  6
Continuous
 62
     7
370
    25
100
AcDbLine
 10
-0.055325035
 20
6.1904639886
 30
0.0
 11
-0.055325035
 21
6.1993454343
 31
0.0
  0
LINE
  5
65C
330
1F
100
AcDbEntity
  8
0
  6
Continuous
 62
     7
370
    25
100
AcDbLine
 10
-0.055325035
 20
6.1993454343
 30
0.0
 11
-0.0750100743
 21
6.2037861572
 31
0.0
  0
LINE
  5
65D
330
1F
100
AcDbEntity
  8
0
  6
Continuous
 62
     7
370
    25
100
AcDbLine
 10
-0.0750100743
 20
6.2037861572
 30
0.0
 11
-0.0946951137
 21
6.1993454343
 31
0.0
  0
LINE
  5
65E
330
1F
100
AcDbEntity
  8
0
  6
Continuous
 62
     7
370
    25
100
AcDbLine
 10
-0.1697051881
 20
6.2162668611
 30
0.0
 11
-0.1697051881
 21
6.2073854154
 31
0.0
  0
LINE
  5
65F
330
1F
100
AcDbEntity
  8
0
  6
Continuous
 62
     7
370
    25
100
AcDbLine
 10
-0.1697051881
 20
6.2073854154
 30
0.0
 11
-0.1500201487
 21
6.2029446925
 31
0.0
  0
LINE
  5
660
330
1F
100
AcDbEntity
  8
0
  6
Continuous
 62
     7
370
    25
100
AcDbLine
 10
-0.1500201487
 20
6.2029446925
 30
0.0
 11
-0.1303351093
 21
6.2073854154
 31
0.0
  0
LINE
  5
661
330
1F
100
AcDbEntity
  8
0
  6
Continuous
 62
     7
370
    25
100
AcDbLine
 10
-0.1303351093
 20
6.2073854154
 30
0.0
 11
-0.1303351093
 21
6.2162668611
 31
0.0
  0
LINE
  5
662
330
1F
100
AcDbEntity
  8
0
  6
Continuous
 62
     7
370
    25
100
AcDbLine
 10
-0.1303351093
 20
6.2162668611
 30
0.0
 11
-0.1500201487
 21
6.220707584
 31
0.0
  0
LINE
  5
663
330
1F
100
AcDbEntity
  8
0
  6
Continuous
 62
     7
370
    25
100
AcDbLine
 10
-0.1500201487
 20
6.220707584
 30
0.0
 11
-0.1697051881
 21
6.2162668611
 31
0.0
  0
LINE
  5
664
330
1F
100
AcDbEntity
  8
0
  6
Continuous
 62
     7
370
    25
100
AcDbLine
 10
-0.1697051881
 20
6.2501097148
 30
0.0
 11
-0.1697051881
 21
6.241228269
 31
0.0
  0
LINE
  5
665
330
1F
100
AcDbEntity
  8
0
  6
Continuous
 62
     7
370
    25
100
AcDbLine
 10
-0.1697051881
 20
6.241228269
 30
0.0
 11
-0.1500201487
 21
6.2367875462
 31
0.0
  0
LINE
  5
666
330
1F
100
AcDbEntity
  8
0
  6
Continuous
 62
     7
370
    25
100
AcDbLine
 10
-0.1500201487
 20
6.2367875462
 30
0.0
 11
-0.1303351093
 21
6.241228269
 31
0.0
  0
LINE
  5
667
330
1F
100
AcDbEntity
  8
0
  6
Continuous
 62
     7
370
    25
100
AcDbLine
 10
-0.1303351093
 20
6.241228269
 30
0.0
 11
-0.1303351093
 21
6.2501097148
 31
0.0
  0
LINE
  5
668
330
1F
100
AcDbEntity
  8
0
  6
Continuous
 62
     7
370
    25
100
AcDbLine
 10
-0.1303351093
 20
6.2501097148
 30
0.0
 11
-0.1500201487
 21
6.2545504377
 31
0.0
  0
LINE
  5
669
330
1F
100
AcDbEntity
  8
0
  6
Continuous
 62
     7
370
    25
100
AcDbLine
 10
-0.1500201487
 20
6.2545504377
 30
0.0
 11
-0.1697051881
 21
6.2501097148
 31
0.0
  0
LINE
  5
66A
330
1F
100
AcDbEntity
  8
0
  6
Continuous
 62
     7
370
    25
100
AcDbLine
 10
-0.1697051881
 20
6.2839525684
 30
0.0
 11
-0.1697051881
 21
6.2750711227
 31
0.0
  0
LINE
  5
66B
330
1F
100
AcDbEntity
  8
0
  6
Continuous
 62
     7
370
    25
100
AcDbLine
 10
-0.1697051881
 20
6.2750711227
 30
0.0
 11
-0.1500201487
 21
6.2706303998
 31
0.0
  0
LINE
  5
66C
330
1F
100
AcDbEntity
  8
0
  6
Continuous
 62
     7
370
    25
100
AcDbLine
 10
-0.1500201487
 20
6.2706303998
 30
0.0
 11
-0.1303351093
 21
6.2750711227
 31
0.0
  0
LINE
  5
66D
330
1F
100
AcDbEntity
  8
0
  6
Continuous
 62
     7
370
    25
100
AcDbLine
 10
-0.1303351093
 20
6.2750711227
 30
0.0
 11
-0.1303351093
 21
6.2839525684
 31
0.0
  0
LINE
  5
66E
330
1F
100
AcDbEntity
  8
0
  6
Continuous
 62
     7
370
    25
100
AcDbLine
 10
-0.1303351093
 20
6.2839525684
 30
0.0
 11
-0.1500201487
 21
6.2883932913
 31
0.0
  0
LINE
  5
66F
330
1F
100
AcDbEntity
  8
0
  6
Continuous
 62
     7
370
    25
100
AcDbLine
 10
-0.1500201487
 20
6.2883932913
 30
0.0
 11
-0.1697051881
 21
6.2839525684
 31
0.0
  0
LINE
  5
670
330
1F
100
AcDbEntity
  8
0
  6
Continuous
 62
     7
370
    25
100
AcDbLine
 10
-0.0946951137
 20
6.3008739953
 30
0.0
 11
-0.0946951137
 21
6.2919925495
 31
0.0
  0
LINE
  5
671
330
1F
100
AcDbEntity
  8
0
  6
Continuous
 62
     7
370
    25
100
AcDbLine
 10
-0.0946951137
 20
6.2919925495
 30
0.0
 11
-0.0750100743
 21
6.2875518266
 31
0.0
  0
LINE
  5
672
330
1F
100
AcDbEntity
  8
0
  6
Continuous
 62
     7
370
    25
100
AcDbLine
 10
-0.0750100743
 20
6.2875518266
 30
0.0
 11
-0.055325035
 21
6.2919925495
 31
0.0
  0
LINE
  5
673
330
1F
100
AcDbEntity
  8
0
  6
Continuous
 62
     7
370
    25
100
AcDbLine
 10
-0.055325035
 20
6.2919925495
 30
0.0
 11
-0.055325035
 21
6.3008739953
 31
0.0
  0
LINE
  5
674
330
1F
100
AcDbEntity
  8
0
  6
Continuous
 62
     7
370
    25
100
AcDbLine
 10
-0.055325035
 20
6.3008739953
 30
0.0
 11
-0.0750100743
 21
6.3053147181
 31
0.0
  0
LINE
  5
675
330
1F
100
AcDbEntity
  8
0
  6
Continuous
 62
     7
370
    25
100
AcDbLine
 10
-0.0750100743
 20
6.3053147181
 30
0.0
 11
-0.0946951137
 21
6.3008739953
 31
0.0
  0
LINE
  5
676
330
1F
100
AcDbEntity
  8
0
  6
Continuous
 62
     7
370
    25
100
AcDbLine
 10
-0.0196850394
 20
6.3177954221
 30
0.0
 11
-0.0196850394
 21
6.3089139763
 31
0.0
  0
LINE
  5
677
330
1F
100
AcDbEntity
  8
0
  6
Continuous
 62
     7
370
    25
100
AcDbLine
 10
-0.0196850394
 20
6.3089139763
 30
0.0
 11
0.0
 21
6.3044732534
 31
0.0
  0
LINE
  5
678
330
1F
100
AcDbEntity
  8
0
  6
Continuous
 62
     7
370
    25
100
AcDbLine
 10
0.0
 20
6.3044732534
 30
0.0
 11
0.0196850394
 21
6.3089139763
 31
0.0
  0
LINE
  5
679
330
1F
100
AcDbEntity
  8
0
  6
Continuous
 62
     7
370
    25
100
AcDbLine
 10
0.0196850394
 20
6.3089139763
 30
0.0
 11
0.0196850394
 21
6.3177954221
 31
0.0
  0
LINE
  5
67A
330
1F
100
AcDbEntity
  8
0
  6
Continuous
 62
     7
370
    25
100
AcDbLine
 10
0.0196850394
 20
6.3177954221
 30
0.0
 11
0.0
 21
6.322236145
 31
0.0
  0
LINE
  5
67B
330
1F
100
AcDbEntity
  8
0
  6
Continuous
 62
     7
370
    25
100
AcDbLine
 10
0.0
 20
6.322236145
 30
0.0
 11
-0.0196850394
 21
6.3177954221
 31
0.0
  0
LINE
  5
67C
330
1F
100
AcDbEntity
  8
0
  6
Continuous
 62
     7
370
    25
100
AcDbLine
 10
0.055325035
 20
6.3008739953
 30
0.0
 11
0.055325035
 21
6.2919925495
 31
0.0
  0
LINE
  5
67D
330
1F
100
AcDbEntity
  8
0
  6
Continuous
 62
     7
370
    25
100
AcDbLine
 10
0.055325035
 20
6.2919925495
 30
0.0
 11
0.0750100743
 21
6.2875518266
 31
0.0
  0
LINE
  5
67E
330
1F
100
AcDbEntity
  8
0
  6
Continuous
 62
     7
370
    25
100
AcDbLine
 10
0.0750100743
 20
6.2875518266
 30
0.0
 11
0.0946951137
 21
6.2919925495
 31
0.0
  0
LINE
  5
67F
330
1F
100
AcDbEntity
  8
0
  6
Continuous
 62
     7
370
    25
100
AcDbLine
 10
0.0946951137
 20
6.2919925495
 30
0.0
 11
0.0946951137
 21
6.3008739953
 31
0.0
  0
LINE
  5
680
330
1F
100
AcDbEntity
  8
0
  6
Continuous
 62
     7
370
    25
100
AcDbLine
 10
0.0946951137
 20
6.3008739953
 30
0.0
 11
0.0750100743
 21
6.3053147181
 31
0.0
  0
LINE
  5
681
330
1F
100
AcDbEntity
  8
0
  6
Continuous
 62
     7
370
    25
100
AcDbLine
 10
0.0750100743
 20
6.3053147181
 30
0.0
 11
0.055325035
 21
6.3008739953
 31
0.0
  0
LINE
  5
682
330
1F
100
AcDbEntity
  8
0
  6
Continuous
 62
     7
370
    25
100
AcDbLine
 10
0.1303351093
 20
6.2839525684
 30
0.0
 11
0.1303351093
 21
6.2750711227
 31
0.0
  0
LINE
  5
683
330
1F
100
AcDbEntity
  8
0
  6
Continuous
 62
     7
370
    25
100
AcDbLine
 10
0.1303351093
 20
6.2750711227
 30
0.0
 11
0.1500201487
 21
6.2706303998
 31
0.0
  0
LINE
  5
684
330
1F
100
AcDbEntity
  8
0
  6
Continuous
 62
     7
370
    25
100
AcDbLine
 10
0.1500201487
 20
6.2706303998
 30
0.0
 11
0.1697051881
 21
6.2750711227
 31
0.0
  0
LINE
  5
685
330
1F
100
AcDbEntity
  8
0
  6
Continuous
 62
     7
370
    25
100
AcDbLine
 10
0.1697051881
 20
6.2750711227
 30
0.0
 11
0.1697051881
 21
6.2839525684
 31
0.0
  0
LINE
  5
686
330
1F
100
AcDbEntity
  8
0
  6
Continuous
 62
     7
370
    25
100
AcDbLine
 10
0.1697051881
 20
6.2839525684
 30
0.0
 11
0.1500201487
 21
6.2883932913
 31
0.0
  0
LINE
  5
687
330
1F
100
AcDbEntity
  8
0
  6
Continuous
 62
     7
370
    25
100
AcDbLine
 10
0.1500201487
 20
6.2883932913
 30
0.0
 11
0.1303351093
 21
6.2839525684
 31
0.0
  0
LINE
  5
688
330
1F
100
AcDbEntity
  8
0
  6
Continuous
 62
     7
370
    25
100
AcDbLine
 10
0.1303351093
 20
6.2501097148
 30
0.0
 11
0.1303351093
 21
6.241228269
 31
0.0
  0
LINE
  5
689
330
1F
100
AcDbEntity
  8
0
  6
Continuous
 62
     7
370
    25
100
AcDbLine
 10
0.1303351093
 20
6.241228269
 30
0.0
 11
0.1500201487
 21
6.2367875462
 31
0.0
  0
LINE
  5
68A
330
1F
100
AcDbEntity
  8
0
  6
Continuous
 62
     7
370
    25
100
AcDbLine
 10
0.1500201487
 20
6.2367875462
 30
0.0
 11
0.1697051881
 21
6.241228269
 31
0.0
  0
LINE
  5
68B
330
1F
100
AcDbEntity
  8
0
  6
Continuous
 62
     7
370
    25
100
AcDbLine
 10
0.1697051881
 20
6.241228269
 30
0.0
 11
0.1697051881
 21
6.2501097148
 31
0.0
  0
LINE
  5
68C
330
1F
100
AcDbEntity
  8
0
  6
Continuous
 62
     7
370
    25
100
AcDbLine
 10
0.1697051881
 20
6.2501097148
 30
0.0
 11
0.1500201487
 21
6.2545504377
 31
0.0
  0
LINE
  5
68D
330
1F
100
AcDbEntity
  8
0
  6
Continuous
 62
     7
370
    25
100
AcDbLine
 10
0.1500201487
 20
6.2545504377
 30
0.0
 11
0.1303351093
 21
6.2501097148
 31
0.0
  0
LINE
  5
68E
330
1F
100
AcDbEntity
  8
0
  6
Continuous
 62
     7
370
    25
100
AcDbLine
 10
0.1303351093
 20
6.2162668611
 30
0.0
 11
0.1303351093
 21
6.2073854154
 31
0.0
  0
LINE
  5
68F
330
1F
100
AcDbEntity
  8
0
  6
Continuous
 62
     7
370
    25
100
AcDbLine
 10
0.1303351093
 20
6.2073854154
 30
0.0
 11
0.1500201487
 21
6.2029446925
 31
0.0
  0
LINE
  5
690
330
1F
100
AcDbEntity
  8
0
  6
Continuous
 62
     7
370
    25
100
AcDbLine
 10
0.1500201487
 20
6.2029446925
 30
0.0
 11
0.1697051881
 21
6.2073854154
 31
0.0
  0
LINE
  5
691
330
1F
100
AcDbEntity
  8
0
  6
Continuous
 62
     7
370
    25
100
AcDbLine
 10
0.1697051881
 20
6.2073854154
 30
0.0
 11
0.1697051881
 21
6.2162668611
 31
0.0
  0
LINE
  5
692
330
1F
100
AcDbEntity
  8
0
  6
Continuous
 62
     7
370
    25
100
AcDbLine
 10
0.1697051881
 20
6.2162668611
 30
0.0
 11
0.1500201487
 21
6.220707584
 31
0.0
  0
LINE
  5
693
330
1F
100
AcDbEntity
  8
0
  6
Continuous
 62
     7
370
    25
100
AcDbLine
 10
0.1500201487
 20
6.220707584
 30
0.0
 11
0.1303351093
 21
6.2162668611
 31
0.0
  0
LINE
  5
694
330
1F
100
AcDbEntity
  8
0
  6
Continuous
 62
     7
370
    25
100
AcDbLine
 10
0.055325035
 20
6.1993454343
 30
0.0
 11
0.055325035
 21
6.1904639886
 31
0.0
  0
LINE
  5
695
330
1F
100
AcDbEntity
  8
0
  6
Continuous
 62
     7
370
    25
100
AcDbLine
 10
0.055325035
 20
6.1904639886
 30
0.0
 11
0.0750100743
 21
6.1860232657
 31
0.0
  0
LINE
  5
696
330
1F
100
AcDbEntity
  8
0
  6
Continuous
 62
     7
370
    25
100
AcDbLine
 10
0.0750100743
 20
6.1860232657
 30
0.0
 11
0.0946951137
 21
6.1904639886
 31
0.0
  0
LINE
  5
697
330
1F
100
AcDbEntity
  8
0
  6
Continuous
 62
     7
370
    25
100
AcDbLine
 10
0.0946951137
 20
6.1904639886
 30
0.0
 11
0.0946951137
 21
6.1993454343
 31
0.0
  0
LINE
  5
698
330
1F
100
AcDbEntity
  8
0
  6
Continuous
 62
     7
370
    25
100
AcDbLine
 10
0.0946951137
 20
6.1993454343
 30
0.0
 11
0.0750100743
 21
6.2037861572
 31
0.0
  0
LINE
  5
699
330
1F
100
AcDbEntity
  8
0
  6
Continuous
 62
     7
370
    25
100
AcDbLine
 10
0.0750100743
 20
6.2037861572
 30
0.0
 11
0.055325035
 21
6.1993454343
 31
0.0
  0
LINE
  5
69A
330
1F
100
AcDbEntity
  8
0
  6
Continuous
 62
     7
370
    25
100
AcDbLine
 10
-0.0196850394
 20
6.1824240075
 30
0.0
 11
-0.0196850394
 21
6.1735425617
 31
0.0
  0
LINE
  5
69B
330
1F
100
AcDbEntity
  8
0
  6
Continuous
 62
     7
370
    25
100
AcDbLine
 10
-0.0196850394
 20
6.1735425617
 30
0.0
 11
0.0
 21
6.1691018389
 31
0.0
  0
LINE
  5
69C
330
1F
100
AcDbEntity
  8
0
  6
Continuous
 62
     7
370
    25
100
AcDbLine
 10
0.0
 20
6.1691018389
 30
0.0
 11
0.0196850394
 21
6.1735425617
 31
0.0
  0
LINE
  5
69D
330
1F
100
AcDbEntity
  8
0
  6
Continuous
 62
     7
370
    25
100
AcDbLine
 10
0.0196850394
 20
6.1735425617
 30
0.0
 11
0.0196850394
 21
6.1824240075
 31
0.0
  0
LINE
  5
69E
330
1F
100
AcDbEntity
  8
0
  6
Continuous
 62
     7
370
    25
100
AcDbLine
 10
0.0196850394
 20
6.1824240075
 30
0.0
 11
0.0
 21
6.1868647304
 31
0.0
  0
LINE
  5
69F
330
1F
100
AcDbEntity
  8
0
  6
Continuous
 62
     7
370
    25
100
AcDbLine
 10
0.0
 20
6.1868647304
 30
0.0
 11
-0.0196850394
 21
6.1824240075
 31
0.0
  0
LINE
  5
6A0
330
1F
100
AcDbEntity
  8
0
  6
Continuous
 62
     7
370
    25
100
AcDbLine
 10
-0.0946951137
 20
6.233188288
 30
0.0
 11
-0.0946951137
 21
6.2243068422
 31
0.0
  0
LINE
  5
6A1
330
1F
100
AcDbEntity
  8
0
  6
Continuous
 62
     7
370
    25
100
AcDbLine
 10
-0.0946951137
 20
6.2243068422
 30
0.0
 11
-0.0750100743
 21
6.2198661193
 31
0.0
  0
LINE
  5
6A2
330
1F
100
AcDbEntity
  8
0
  6
Continuous
 62
     7
370
    25
100
AcDbLine
 10
-0.0750100743
 20
6.2198661193
 30
0.0
 11
-0.055325035
 21
6.2243068422
 31
0.0
  0
LINE
  5
6A3
330
1F
100
AcDbEntity
  8
0
  6
Continuous
 62
     7
370
    25
100
AcDbLine
 10
-0.055325035
 20
6.2243068422
 30
0.0
 11
-0.055325035
 21
6.233188288
 31
0.0
  0
LINE
  5
6A4
330
1F
100
AcDbEntity
  8
0
  6
Continuous
 62
     7
370
    25
100
AcDbLine
 10
-0.055325035
 20
6.233188288
 30
0.0
 11
-0.0750100743
 21
6.2376290108
 31
0.0
  0
LINE
  5
6A5
330
1F
100
AcDbEntity
  8
0
  6
Continuous
 62
     7
370
    25
100
AcDbLine
 10
-0.0750100743
 20
6.2376290108
 30
0.0
 11
-0.0946951137
 21
6.233188288
 31
0.0
  0
LINE
  5
6A6
330
1F
100
AcDbEntity
  8
0
  6
Continuous
 62
     7
370
    25
100
AcDbLine
 10
-0.0946951137
 20
6.2670311416
 30
0.0
 11
-0.0946951137
 21
6.2581496959
 31
0.0
  0
LINE
  5
6A7
330
1F
100
AcDbEntity
  8
0
  6
Continuous
 62
     7
370
    25
100
AcDbLine
 10
-0.0946951137
 20
6.2581496959
 30
0.0
 11
-0.0750100743
 21
6.253708973
 31
0.0
  0
LINE
  5
6A8
330
1F
100
AcDbEntity
  8
0
  6
Continuous
 62
     7
370
    25
100
AcDbLine
 10
-0.0750100743
 20
6.253708973
 30
0.0
 11
-0.055325035
 21
6.2581496959
 31
0.0
  0
LINE
  5
6A9
330
1F
100
AcDbEntity
  8
0
  6
Continuous
 62
     7
370
    25
100
AcDbLine
 10
-0.055325035
 20
6.2581496959
 30
0.0
 11
-0.055325035
 21
6.2670311416
 31
0.0
  0
LINE
  5
6AA
330
1F
100
AcDbEntity
  8
0
  6
Continuous
 62
     7
370
    25
100
AcDbLine
 10
-0.055325035
 20
6.2670311416
 30
0.0
 11
-0.0750100743
 21
6.2714718645
 31
0.0
  0
LINE
  5
6AB
330
1F
100
AcDbEntity
  8
0
  6
Continuous
 62
     7
370
    25
100
AcDbLine
 10
-0.0750100743
 20
6.2714718645
 30
0.0
 11
-0.0946951137
 21
6.2670311416
 31
0.0
  0
LINE
  5
6AC
330
1F
100
AcDbEntity
  8
0
  6
Continuous
 62
     7
370
    25
100
AcDbLine
 10
-0.0196850394
 20
6.2839525684
 30
0.0
 11
-0.0196850394
 21
6.2750711227
 31
0.0
  0
LINE
  5
6AD
330
1F
100
AcDbEntity
  8
0
  6
Continuous
 62
     7
370
    25
100
AcDbLine
 10
-0.0196850394
 20
6.2750711227
 30
0.0
 11
0.0
 21
6.2706303998
 31
0.0
  0
LINE
  5
6AE
330
1F
100
AcDbEntity
  8
0
  6
Continuous
 62
     7
370
    25
100
AcDbLine
 10
0.0
 20
6.2706303998
 30
0.0
 11
0.0196850394
 21
6.2750711227
 31
0.0
  0
LINE
  5
6AF
330
1F
100
AcDbEntity
  8
0
  6
Continuous
 62
     7
370
    25
100
AcDbLine
 10
0.0196850394
 20
6.2750711227
 30
0.0
 11
0.0196850394
 21
6.2839525684
 31
0.0
  0
LINE
  5
6B0
330
1F
100
AcDbEntity
  8
0
  6
Continuous
 62
     7
370
    25
100
AcDbLine
 10
0.0196850394
 20
6.2839525684
 30
0.0
 11
0.0
 21
6.2883932913
 31
0.0
  0
LINE
  5
6B1
330
1F
100
AcDbEntity
  8
0
  6
Continuous
 62
     7
370
    25
100
AcDbLine
 10
0.0
 20
6.2883932913
 30
0.0
 11
-0.0196850394
 21
6.2839525684
 31
0.0
  0
LINE
  5
6B2
330
1F
100
AcDbEntity
  8
0
  6
Continuous
 62
     7
370
    25
100
AcDbLine
 10
0.055325035
 20
6.2670311416
 30
0.0
 11
0.055325035
 21
6.2581496959
 31
0.0
  0
LINE
  5
6B3
330
1F
100
AcDbEntity
  8
0
  6
Continuous
 62
     7
370
    25
100
AcDbLine
 10
0.055325035
 20
6.2581496959
 30
0.0
 11
0.0750100743
 21
6.253708973
 31
0.0
  0
LINE
  5
6B4
330
1F
100
AcDbEntity
  8
0
  6
Continuous
 62
     7
370
    25
100
AcDbLine
 10
0.0750100743
 20
6.253708973
 30
0.0
 11
0.0946951137
 21
6.2581496959
 31
0.0
  0
LINE
  5
6B5
330
1F
100
AcDbEntity
  8
0
  6
Continuous
 62
     7
370
    25
100
AcDbLine
 10
0.0946951137
 20
6.2581496959
 30
0.0
 11
0.0946951137
 21
6.2670311416
 31
0.0
  0
LINE
  5
6B6
330
1F
100
AcDbEntity
  8
0
  6
Continuous
 62
     7
370
    25
100
AcDbLine
 10
0.0946951137
 20
6.2670311416
 30
0.0
 11
0.0750100743
 21
6.2714718645
 31
0.0
  0
LINE
  5
6B7
330
1F
100
AcDbEntity
  8
0
  6
Continuous
 62
     7
370
    25
100
AcDbLine
 10
0.0750100743
 20
6.2714718645
 30
0.0
 11
0.055325035
 21
6.2670311416
 31
0.0
  0
LINE
  5
6B8
330
1F
100
AcDbEntity
  8
0
  6
Continuous
 62
     7
370
    25
100
AcDbLine
 10
0.055325035
 20
6.233188288
 30
0.0
 11
0.055325035
 21
6.2243068422
 31
0.0
  0
LINE
  5
6B9
330
1F
100
AcDbEntity
  8
0
  6
Continuous
 62
     7
370
    25
100
AcDbLine
 10
0.055325035
 20
6.2243068422
 30
0.0
 11
0.0750100743
 21
6.2198661193
 31
0.0
  0
LINE
  5
6BA
330
1F
100
AcDbEntity
  8
0
  6
Continuous
 62
     7
370
    25
100
AcDbLine
 10
0.0750100743
 20
6.2198661193
 30
0.0
 11
0.0946951137
 21
6.2243068422
 31
0.0
  0
LINE
  5
6BB
330
1F
100
AcDbEntity
  8
0
  6
Continuous
 62
     7
370
    25
100
AcDbLine
 10
0.0946951137
 20
6.2243068422
 30
0.0
 11
0.0946951137
 21
6.233188288
 31
0.0
  0
LINE
  5
6BC
330
1F
100
AcDbEntity
  8
0
  6
Continuous
 62
     7
370
    25
100
AcDbLine
 10
0.0946951137
 20
6.233188288
 30
0.0
 11
0.0750100743
 21
6.2376290108
 31
0.0
  0
LINE
  5
6BD
330
1F
100
AcDbEntity
  8
0
  6
Continuous
 62
     7
370
    25
100
AcDbLine
 10
0.0750100743
 20
6.2376290108
 30
0.0
 11
0.055325035
 21
6.233188288
 31
0.0
  0
LINE
  5
6BE
330
1F
100
AcDbEntity
  8
0
  6
Continuous
 62
     7
370
    25
100
AcDbLine
 10
-0.0297344838
 20
6.1448073719
 30
0.0
 11
-0.0297344838
 21
6.1485811538
 31
0.0
  0
LINE
  5
6BF
330
1F
100
AcDbEntity
  8
0
  6
Continuous
 62
     7
370
    25
100
AcDbLine
 10
-0.0297344838
 20
6.1485811538
 30
0.0
 11
-0.0494195232
 21
6.1530218767
 31
0.0
  0
LINE
  5
6C0
330
1F
100
AcDbEntity
  8
0
  6
Continuous
 62
     7
370
    25
100
AcDbLine
 10
-0.0494195232
 20
6.1530218767
 30
0.0
 11
-0.0691045625
 21
6.1485811538
 31
0.0
  0
LINE
  5
6C1
330
1F
100
AcDbEntity
  8
0
  6
Continuous
 62
     7
370
    25
100
AcDbLine
 10
-0.0691045625
 20
6.147796737
 30
0.0
 11
-0.0691045625
 21
6.1485811538
 31
0.0
  0
LINE
  5
6C2
330
1F
100
AcDbEntity
  8
0
  6
Continuous
 62
     7
370
    25
100
AcDbLine
 10
-0.1142396585
 20
6.1544791473
 30
0.0
 11
-0.1047445581
 21
6.1566211349
 31
0.0
  0
LINE
  5
6C3
330
1F
100
AcDbEntity
  8
0
  6
Continuous
 62
     7
370
    25
100
AcDbLine
 10
-0.1047445581
 20
6.1566211349
 30
0.0
 11
-0.1047445581
 21
6.1655025807
 31
0.0
  0
LINE
  5
6C4
330
1F
100
AcDbEntity
  8
0
  6
Continuous
 62
     7
370
    25
100
AcDbLine
 10
-0.1047445581
 20
6.1655025807
 30
0.0
 11
-0.1244295975
 21
6.1699433035
 31
0.0
  0
LINE
  5
6C5
330
1F
100
AcDbEntity
  8
0
  6
Continuous
 62
     7
370
    25
100
AcDbLine
 10
-0.1244295975
 20
6.1699433035
 30
0.0
 11
-0.1441146369
 21
6.1655025807
 31
0.0
  0
LINE
  5
6C6
330
1F
100
AcDbEntity
  8
0
  6
Continuous
 62
     7
370
    25
100
AcDbLine
 10
-0.1441146369
 20
6.1655025807
 30
0.0
 11
-0.1441146369
 21
6.1611868981
 31
0.0
  0
LINE
  5
6C7
330
1F
100
AcDbEntity
  8
0
  6
Continuous
 62
     7
370
    25
100
AcDbLine
 10
-0.1817217423
 20
6.1730988039
 30
0.0
 11
-0.1797546325
 21
6.1735425617
 31
0.0
  0
LINE
  5
6C8
330
1F
100
AcDbEntity
  8
0
  6
Continuous
 62
     7
370
    25
100
AcDbLine
 10
-0.1797546325
 20
6.1735425617
 30
0.0
 11
-0.1797546325
 21
6.1824240075
 31
0.0
  0
LINE
  5
6C9
330
1F
100
AcDbEntity
  8
0
  6
Continuous
 62
     7
370
    25
100
AcDbLine
 10
-0.1797546325
 20
6.1824240075
 30
0.0
 11
-0.1994396718
 21
6.1868647304
 31
0.0
  0
LINE
  5
6CA
330
1F
100
AcDbEntity
  8
0
  6
Continuous
 62
     7
370
    25
100
AcDbLine
 10
-0.1994396718
 20
6.1868647304
 30
0.0
 11
-0.2081551791
 21
6.1848986102
 31
0.0
  0
LINE
  5
6CB
330
1F
100
AcDbEntity
  8
0
  6
Continuous
 62
     7
370
    25
100
AcDbLine
 10
-0.2145410263
 20
6.1883895102
 30
0.0
 11
-0.2053451837
 21
6.1904639886
 31
0.0
  0
LINE
  5
6CC
330
1F
100
AcDbEntity
  8
0
  6
Continuous
 62
     7
370
    25
100
AcDbLine
 10
-0.2053451837
 20
6.1904639886
 30
0.0
 11
-0.2053451837
 21
6.1993454343
 31
0.0
  0
LINE
  5
6CD
330
1F
100
AcDbEntity
  8
0
  6
Continuous
 62
     7
370
    25
100
AcDbLine
 10
-0.2053451837
 20
6.1993454343
 30
0.0
 11
-0.225030223
 21
6.2037861572
 31
0.0
  0
LINE
  5
6CE
330
1F
100
AcDbEntity
  8
0
  6
Continuous
 62
     7
370
    25
100
AcDbLine
 10
-0.225030223
 20
6.2037861572
 30
0.0
 11
-0.2342260656
 21
6.2017116788
 31
0.0
  0
LINE
  5
6CF
330
1F
100
AcDbEntity
  8
0
  6
Continuous
 62
     7
370
    25
100
AcDbLine
 10
-0.2388115344
 20
6.2056554037
 30
0.0
 11
-0.2311426596
 21
6.2073854154
 31
0.0
  0
LINE
  5
6D0
330
1F
100
AcDbEntity
  8
0
  6
Continuous
 62
     7
370
    25
100
AcDbLine
 10
-0.2311426596
 20
6.2073854154
 30
0.0
 11
-0.2311426596
 21
6.2162668611
 31
0.0
  0
LINE
  5
6D1
330
1F
100
AcDbEntity
  8
0
  6
Continuous
 62
     7
370
    25
100
AcDbLine
 10
-0.2311426596
 20
6.2162668611
 30
0.0
 11
-0.2508276989
 21
6.220707584
 31
0.0
  0
LINE
  5
6D2
330
1F
100
AcDbEntity
  8
0
  6
Continuous
 62
     7
370
    25
100
AcDbLine
 10
-0.2517337467
 20
6.2205031899
 30
0.0
 11
-0.2508276989
 21
6.220707584
 31
0.0
  0
LINE
  5
6D3
330
1F
100
AcDbEntity
  8
0
  6
Continuous
 62
     7
370
    25
100
AcDbLine
 10
-0.2583319668
 20
6.2384804243
 30
0.0
 11
-0.2508276989
 21
6.2367875462
 31
0.0
  0
LINE
  5
6D4
330
1F
100
AcDbEntity
  8
0
  6
Continuous
 62
     7
370
    25
100
AcDbLine
 10
-0.2508276989
 20
6.2367875462
 30
0.0
 11
-0.2311426596
 21
6.241228269
 31
0.0
  0
LINE
  5
6D5
330
1F
100
AcDbEntity
  8
0
  6
Continuous
 62
     7
370
    25
100
AcDbLine
 10
-0.2311426596
 20
6.241228269
 30
0.0
 11
-0.2311426596
 21
6.2501097148
 31
0.0
  0
LINE
  5
6D6
330
1F
100
AcDbEntity
  8
0
  6
Continuous
 62
     7
370
    25
100
AcDbLine
 10
-0.2311426596
 20
6.2501097148
 30
0.0
 11
-0.2505317692
 21
6.2544836793
 31
0.0
  0
LINE
  5
6D7
330
1F
100
AcDbEntity
  8
0
  6
Continuous
 62
     7
370
    25
100
AcDbLine
 10
0.2505033838
 20
6.2545239557
 30
0.0
 11
0.2309357348
 21
6.2501097148
 31
0.0
  0
LINE
  5
6D8
330
1F
100
AcDbEntity
  8
0
  6
Continuous
 62
     7
370
    25
100
AcDbLine
 10
0.2309357348
 20
6.2501097148
 30
0.0
 11
0.2309357348
 21
6.241228269
 31
0.0
  0
LINE
  5
6D9
330
1F
100
AcDbEntity
  8
0
  6
Continuous
 62
     7
370
    25
100
AcDbLine
 10
0.2309357348
 20
6.241228269
 30
0.0
 11
0.2506207742
 21
6.2367875462
 31
0.0
  0
LINE
  5
6DA
330
1F
100
AcDbEntity
  8
0
  6
Continuous
 62
     7
370
    25
100
AcDbLine
 10
0.2583197665
 20
6.238524352
 30
0.0
 11
0.2506207742
 21
6.2367875462
 31
0.0
  0
LINE
  5
6DB
330
1F
100
AcDbEntity
  8
0
  6
Continuous
 62
     7
370
    25
100
AcDbLine
 10
0.2517070945
 20
6.2204625224
 30
0.0
 11
0.2506207742
 21
6.220707584
 31
0.0
  0
LINE
  5
6DC
330
1F
100
AcDbEntity
  8
0
  6
Continuous
 62
     7
370
    25
100
AcDbLine
 10
0.2506207742
 20
6.220707584
 30
0.0
 11
0.2309357348
 21
6.2162668611
 31
0.0
  0
LINE
  5
6DD
330
1F
100
AcDbEntity
  8
0
  6
Continuous
 62
     7
370
    25
100
AcDbLine
 10
0.2309357348
 20
6.2162668611
 30
0.0
 11
0.2309357348
 21
6.2073854154
 31
0.0
  0
LINE
  5
6DE
330
1F
100
AcDbEntity
  8
0
  6
Continuous
 62
     7
370
    25
100
AcDbLine
 10
0.2309357348
 20
6.2073854154
 30
0.0
 11
0.2387704525
 21
6.2056179914
 31
0.0
  0
LINE
  5
6DF
330
1F
100
AcDbEntity
  8
0
  6
Continuous
 62
     7
370
    25
100
AcDbLine
 10
0.2342260656
 20
6.2017116788
 30
0.0
 11
0.225030223
 21
6.2037861572
 31
0.0
  0
LINE
  5
6E0
330
1F
100
AcDbEntity
  8
0
  6
Continuous
 62
     7
370
    25
100
AcDbLine
 10
0.225030223
 20
6.2037861572
 30
0.0
 11
0.2053451837
 21
6.1993454343
 31
0.0
  0
LINE
  5
6E1
330
1F
100
AcDbEntity
  8
0
  6
Continuous
 62
     7
370
    25
100
AcDbLine
 10
0.2053451837
 20
6.1993454343
 30
0.0
 11
0.2053451837
 21
6.1904639886
 31
0.0
  0
LINE
  5
6E2
330
1F
100
AcDbEntity
  8
0
  6
Continuous
 62
     7
370
    25
100
AcDbLine
 10
0.2053451837
 20
6.1904639886
 30
0.0
 11
0.2145410263
 21
6.1883895102
 31
0.0
  0
LINE
  5
6E3
330
1F
100
AcDbEntity
  8
0
  6
Continuous
 62
     7
370
    25
100
AcDbLine
 10
0.2080927987
 20
6.1848660027
 30
0.0
 11
0.1992327471
 21
6.1868647304
 31
0.0
  0
LINE
  5
6E4
330
1F
100
AcDbEntity
  8
0
  6
Continuous
 62
     7
370
    25
100
AcDbLine
 10
0.1992327471
 20
6.1868647304
 30
0.0
 11
0.1795477077
 21
6.1824240075
 31
0.0
  0
LINE
  5
6E5
330
1F
100
AcDbEntity
  8
0
  6
Continuous
 62
     7
370
    25
100
AcDbLine
 10
0.1795477077
 20
6.1824240075
 30
0.0
 11
0.1795477077
 21
6.1735425617
 31
0.0
  0
LINE
  5
6E6
330
1F
100
AcDbEntity
  8
0
  6
Continuous
 62
     7
370
    25
100
AcDbLine
 10
0.1795477077
 20
6.1735425617
 30
0.0
 11
0.1816449322
 21
6.1730694515
 31
0.0
  0
LINE
  5
6E7
330
1F
100
AcDbEntity
  8
0
  6
Continuous
 62
     7
370
    25
100
AcDbLine
 10
0.1439077121
 20
6.1611330635
 30
0.0
 11
0.1439077121
 21
6.1655025807
 31
0.0
  0
LINE
  5
6E8
330
1F
100
AcDbEntity
  8
0
  6
Continuous
 62
     7
370
    25
100
AcDbLine
 10
0.1439077121
 20
6.1655025807
 30
0.0
 11
0.1242226728
 21
6.1699433035
 31
0.0
  0
LINE
  5
6E9
330
1F
100
AcDbEntity
  8
0
  6
Continuous
 62
     7
370
    25
100
AcDbLine
 10
0.1242226728
 20
6.1699433035
 30
0.0
 11
0.1045376334
 21
6.1655025807
 31
0.0
  0
LINE
  5
6EA
330
1F
100
AcDbEntity
  8
0
  6
Continuous
 62
     7
370
    25
100
AcDbLine
 10
0.1045376334
 20
6.1655025807
 30
0.0
 11
0.1045376334
 21
6.1566211349
 31
0.0
  0
LINE
  5
6EB
330
1F
100
AcDbEntity
  8
0
  6
Continuous
 62
     7
370
    25
100
AcDbLine
 10
0.1045376334
 20
6.1566211349
 30
0.0
 11
0.1141276447
 21
6.1544577365
 31
0.0
  0
LINE
  5
6EC
330
1F
100
AcDbEntity
  8
0
  6
Continuous
 62
     7
370
    25
100
AcDbLine
 10
0.0688976378
 20
6.1477744672
 30
0.0
 11
0.0688976378
 21
6.1485811538
 31
0.0
  0
LINE
  5
6ED
330
1F
100
AcDbEntity
  8
0
  6
Continuous
 62
     7
370
    25
100
AcDbLine
 10
0.0688976378
 20
6.1485811538
 30
0.0
 11
0.0492125984
 21
6.1530218767
 31
0.0
  0
LINE
  5
6EE
330
1F
100
AcDbEntity
  8
0
  6
Continuous
 62
     7
370
    25
100
AcDbLine
 10
0.0492125984
 20
6.1530218767
 30
0.0
 11
0.0295275591
 21
6.1485811538
 31
0.0
  0
LINE
  5
6EF
330
1F
100
AcDbEntity
  8
0
  6
Continuous
 62
     7
370
    25
100
AcDbLine
 10
0.0295275591
 20
6.1485811538
 30
0.0
 11
0.0295275591
 21
6.1447980915
 31
0.0
  0
LINE
  5
6F0
330
1F
100
AcDbEntity
  8
0
  6
Continuous
 62
     7
370
    25
100
AcDbLine
 10
0.0196850394
 20
6.1444321971
 30
0.0
 11
0.0196850394
 21
6.1485811538
 31
0.0
  0
LINE
  5
6F1
330
1F
100
AcDbEntity
  8
0
  6
Continuous
 62
     7
370
    25
100
AcDbLine
 10
0.0196850394
 20
6.1485811538
 30
0.0
 11
0.0
 21
6.1530218767
 31
0.0
  0
LINE
  5
6F2
330
1F
100
AcDbEntity
  8
0
  6
Continuous
 62
     7
370
    25
100
AcDbLine
 10
0.0
 20
6.1530218767
 30
0.0
 11
-0.0196850394
 21
6.1485811538
 31
0.0
  0
LINE
  5
6F3
330
1F
100
AcDbEntity
  8
0
  6
Continuous
 62
     7
370
    25
100
AcDbLine
 10
-0.0750100743
 20
6.3213946803
 30
0.0
 11
-0.0750100743
 21
6.3247550141
 31
0.0
  0
LINE
  5
6F4
330
1F
100
AcDbEntity
  8
0
  6
Continuous
 62
     7
370
    25
100
AcDbLine
 10
0.0750100743
 20
6.3213946803
 30
0.0
 11
0.0750100743
 21
6.3247550141
 31
0.0
  0
LINE
  5
6F5
330
1F
100
AcDbEntity
  8
0
  6
Continuous
 62
     7
370
    25
100
AcDbLine
 10
0.0255905512
 20
6.3213946803
 30
0.0
 11
0.0255905512
 21
6.3245346797
 31
0.0
  0
LINE
  5
6F6
330
1F
100
AcDbEntity
  8
0
  6
Continuous
 62
     7
370
    25
100
AcDbLine
 10
-0.0257974759
 20
6.3213946803
 30
0.0
 11
-0.0257974759
 21
6.3245284165
 31
0.0
  0
LINE
  5
6F7
330
1F
100
AcDbEntity
  8
0
  6
Continuous
 62
     7
370
    25
100
AcDbLine
 10
-0.1500201487
 20
6.3044732534
 30
0.0
 11
-0.1500201487
 21
6.3104465405
 31
0.0
  0
LINE
  5
6F8
330
1F
100
AcDbEntity
  8
0
  6
Continuous
 62
     7
370
    25
100
AcDbLine
 10
0.0492125984
 20
6.3044732534
 30
0.0
 11
0.0492125984
 21
6.322236145
 31
0.0
  0
LINE
  5
6F9
330
1F
100
AcDbEntity
  8
0
  6
Continuous
 62
     7
370
    25
100
AcDbLine
 10
0.1006006255
 20
6.3044732534
 30
0.0
 11
0.1006006255
 21
6.3211594253
 31
0.0
  0
LINE
  5
6FA
330
1F
100
AcDbEntity
  8
0
  6
Continuous
 62
     7
370
    25
100
AcDbLine
 10
-0.1008075503
 20
6.3044732534
 30
0.0
 11
-0.1008075503
 21
6.3211254339
 31
0.0
  0
LINE
  5
6FB
330
1F
100
AcDbEntity
  8
0
  6
Continuous
 62
     7
370
    25
100
AcDbLine
 10
-0.0494195232
 20
6.3044732534
 30
0.0
 11
-0.0494195232
 21
6.322236145
 31
0.0
  0
LINE
  5
6FC
330
1F
100
AcDbEntity
  8
0
  6
Continuous
 62
     7
370
    25
100
AcDbLine
 10
0.1500201487
 20
6.3044732534
 30
0.0
 11
0.1500201487
 21
6.3104465405
 31
0.0
  0
LINE
  5
6FD
330
1F
100
AcDbEntity
  8
0
  6
Continuous
 62
     7
370
    25
100
AcDbLine
 10
0.0
 20
6.3044732534
 30
0.0
 11
0.0
 21
6.322236145
 31
0.0
  0
LINE
  5
6FE
330
1F
100
AcDbEntity
  8
0
  6
Continuous
 62
     7
370
    25
100
AcDbLine
 10
0.0750100743
 20
6.2875518266
 30
0.0
 11
0.0750100743
 21
6.3053147181
 31
0.0
  0
LINE
  5
6FF
330
1F
100
AcDbEntity
  8
0
  6
Continuous
 62
     7
370
    25
100
AcDbLine
 10
-0.1244295975
 20
6.2875518266
 30
0.0
 11
-0.1244295975
 21
6.3053147181
 31
0.0
  0
LINE
  5
700
330
1F
100
AcDbEntity
  8
0
  6
Continuous
 62
     7
370
    25
100
AcDbLine
 10
-0.0257974759
 20
6.2875518266
 30
0.0
 11
-0.0257974759
 21
6.3053147181
 31
0.0
  0
LINE
  5
701
330
1F
100
AcDbEntity
  8
0
  6
Continuous
 62
     7
370
    25
100
AcDbLine
 10
-0.0750100743
 20
6.2875518266
 30
0.0
 11
-0.0750100743
 21
6.3053147181
 31
0.0
  0
LINE
  5
702
330
1F
100
AcDbEntity
  8
0
  6
Continuous
 62
     7
370
    25
100
AcDbLine
 10
0.0255905512
 20
6.2875518266
 30
0.0
 11
0.0255905512
 21
6.3053147181
 31
0.0
  0
LINE
  5
703
330
1F
100
AcDbEntity
  8
0
  6
Continuous
 62
     7
370
    25
100
AcDbLine
 10
0.1756106999
 20
6.2875518266
 30
0.0
 11
0.1756106999
 21
6.3023807321
 31
0.0
  0
LINE
  5
704
330
1F
100
AcDbEntity
  8
0
  6
Continuous
 62
     7
370
    25
100
AcDbLine
 10
0.1242226728
 20
6.2875518266
 30
0.0
 11
0.1242226728
 21
6.3053147181
 31
0.0
  0
LINE
  5
705
330
1F
100
AcDbEntity
  8
0
  6
Continuous
 62
     7
370
    25
100
AcDbLine
 10
-0.1758176246
 20
6.2875518266
 30
0.0
 11
-0.1758176246
 21
6.3023065151
 31
0.0
  0
LINE
  5
706
330
1F
100
AcDbEntity
  8
0
  6
Continuous
 62
     7
370
    25
100
AcDbLine
 10
-0.3288985794
 20
6.2144683603
 30
0.0
 11
-0.3521678411
 21
6.2160715296
 31
0.0
  0
LINE
  5
707
330
1F
100
AcDbEntity
  8
0
  6
Continuous
 62
     7
370
    25
100
AcDbLine
 10
-0.3275312709
 20
6.2247463122
 30
0.0
 11
-0.3508005326
 21
6.2263494815
 31
0.0
  0
LINE
  5
708
330
1F
100
AcDbEntity
  8
0
  6
Continuous
 62
     7
370
    25
100
AcDbLine
 10
0.3508005326
 20
6.2263494815
 30
0.0
 11
0.3275312709
 21
6.2247463122
 31
0.0
  0
LINE
  5
709
330
1F
100
AcDbEntity
  8
0
  6
Continuous
 62
     7
370
    25
100
AcDbLine
 10
0.3521678411
 20
6.2160715296
 30
0.0
 11
0.3288985794
 21
6.2144683603
 31
0.0
  0
LINE
  5
70A
330
1F
100
AcDbEntity
  8
0
  6
Continuous
 62
     7
370
    25
100
AcDbLine
 10
0.3508005336
 20
6.2480936884
 30
0.0
 11
0.3508005326
 21
6.2263494815
 31
0.0
  0
LINE
  5
70B
330
1F
100
AcDbEntity
  8
0
  6
Continuous
 62
     7
370
    25
100
AcDbLine
 10
-0.3508005326
 20
6.2263494815
 30
0.0
 11
-0.350800534
 21
6.2480936875
 31
0.0
  0
LINE
  5
70C
330
1F
100
AcDbEntity
  8
0
  6
Continuous
 62
     7
370
    25
100
AcDbLine
 10
0.3275312709
 20
6.2247463122
 30
0.0
 11
0.3275312727
 21
6.2464905174
 31
0.0
  0
LINE
  5
70D
330
1F
100
AcDbEntity
  8
0
  6
Continuous
 62
     7
370
    25
100
AcDbLine
 10
0.3508005336
 20
6.2480936884
 30
0.0
 11
0.3275312727
 21
6.2464905174
 31
0.0
  0
LINE
  5
70E
330
1F
100
AcDbEntity
  8
0
  6
Continuous
 62
     7
370
    25
100
AcDbLine
 10
-0.3275312725
 20
6.2464905178
 30
0.0
 11
-0.3275312709
 21
6.2247463122
 31
0.0
  0
LINE
  5
70F
330
1F
100
AcDbEntity
  8
0
  6
Continuous
 62
     7
370
    25
100
AcDbLine
 10
-0.3275312725
 20
6.2464905178
 30
0.0
 11
-0.350800534
 21
6.2480936875
 31
0.0
  0
LINE
  5
710
330
1F
100
AcDbEntity
  8
0
  6
Continuous
 62
     7
370
    25
100
AcDbLine
 10
0.3288985794
 20
6.1753966476
 30
0.0
 11
0.3521678411
 21
6.1737934783
 31
0.0
  0
LINE
  5
711
330
1F
100
AcDbEntity
  8
0
  6
Continuous
 62
     7
370
    25
100
AcDbLine
 10
-0.3521678411
 20
6.1737934783
 30
0.0
 11
-0.3288985794
 21
6.1753966476
 31
0.0
  0
LINE
  5
712
330
1F
100
AcDbEntity
  8
0
  6
Continuous
 62
     7
370
    25
100
AcDbLine
 10
0.1500201487
 20
6.2706303998
 30
0.0
 11
0.1500201487
 21
6.2883932913
 31
0.0
  0
LINE
  5
713
330
1F
100
AcDbEntity
  8
0
  6
Continuous
 62
     7
370
    25
100
AcDbLine
 10
0.0
 20
6.2706303998
 30
0.0
 11
0.0
 21
6.2883932913
 31
0.0
  0
LINE
  5
714
330
1F
100
AcDbEntity
  8
0
  6
Continuous
 62
     7
370
    25
100
AcDbLine
 10
0.1992327471
 20
6.2706303998
 30
0.0
 11
0.1992327471
 21
6.2883932913
 31
0.0
  0
LINE
  5
715
330
1F
100
AcDbEntity
  8
0
  6
Continuous
 62
     7
370
    25
100
AcDbLine
 10
-0.1008075503
 20
6.2706303998
 30
0.0
 11
-0.1008075503
 21
6.2883932913
 31
0.0
  0
LINE
  5
716
330
1F
100
AcDbEntity
  8
0
  6
Continuous
 62
     7
370
    25
100
AcDbLine
 10
-0.1994396718
 20
6.2706303998
 30
0.0
 11
-0.1994396718
 21
6.2883932913
 31
0.0
  0
LINE
  5
717
330
1F
100
AcDbEntity
  8
0
  6
Continuous
 62
     7
370
    25
100
AcDbLine
 10
-0.0494195232
 20
6.2706303998
 30
0.0
 11
-0.0494195232
 21
6.2883932913
 31
0.0
  0
LINE
  5
718
330
1F
100
AcDbEntity
  8
0
  6
Continuous
 62
     7
370
    25
100
AcDbLine
 10
-0.1500201487
 20
6.2706303998
 30
0.0
 11
-0.1500201487
 21
6.2883932913
 31
0.0
  0
LINE
  5
719
330
1F
100
AcDbEntity
  8
0
  6
Continuous
 62
     7
370
    25
100
AcDbLine
 10
0.1006006255
 20
6.2706303998
 30
0.0
 11
0.1006006255
 21
6.2883932913
 31
0.0
  0
LINE
  5
71A
330
1F
100
AcDbEntity
  8
0
  6
Continuous
 62
     7
370
    25
100
AcDbLine
 10
0.0750100743
 20
6.253708973
 30
0.0
 11
0.0750100743
 21
6.2714718645
 31
0.0
  0
LINE
  5
71B
330
1F
100
AcDbEntity
  8
0
  6
Continuous
 62
     7
370
    25
100
AcDbLine
 10
-0.0750100743
 20
6.253708973
 30
0.0
 11
-0.0750100743
 21
6.2714718645
 31
0.0
  0
LINE
  5
71C
330
1F
100
AcDbEntity
  8
0
  6
Continuous
 62
     7
370
    25
100
AcDbLine
 10
-0.1758176246
 20
6.253708973
 30
0.0
 11
-0.1758176246
 21
6.2714718645
 31
0.0
  0
LINE
  5
71D
330
1F
100
AcDbEntity
  8
0
  6
Continuous
 62
     7
370
    25
100
AcDbLine
 10
0.1242226728
 20
6.253708973
 30
0.0
 11
0.1242226728
 21
6.2714718645
 31
0.0
  0
LINE
  5
71E
330
1F
100
AcDbEntity
  8
0
  6
Continuous
 62
     7
370
    25
100
AcDbLine
 10
-0.0257974759
 20
6.253708973
 30
0.0
 11
-0.0257974759
 21
6.2714718645
 31
0.0
  0
LINE
  5
71F
330
1F
100
AcDbEntity
  8
0
  6
Continuous
 62
     7
370
    25
100
AcDbLine
 10
0.1756106999
 20
6.253708973
 30
0.0
 11
0.1756106999
 21
6.2714718645
 31
0.0
  0
LINE
  5
720
330
1F
100
AcDbEntity
  8
0
  6
Continuous
 62
     7
370
    25
100
AcDbLine
 10
0.225030223
 20
6.253708973
 30
0.0
 11
0.225030223
 21
6.2714718645
 31
0.0
  0
LINE
  5
721
330
1F
100
AcDbEntity
  8
0
  6
Continuous
 62
     7
370
    25
100
AcDbLine
 10
-0.1244295975
 20
6.253708973
 30
0.0
 11
-0.1244295975
 21
6.2714718645
 31
0.0
  0
LINE
  5
722
330
1F
100
AcDbEntity
  8
0
  6
Continuous
 62
     7
370
    25
100
AcDbLine
 10
-0.225030223
 20
6.253708973
 30
0.0
 11
-0.225030223
 21
6.2714718645
 31
0.0
  0
LINE
  5
723
330
1F
100
AcDbEntity
  8
0
  6
Continuous
 62
     7
370
    25
100
AcDbLine
 10
0.0255905512
 20
6.253708973
 30
0.0
 11
0.0255905512
 21
6.2714718645
 31
0.0
  0
LINE
  5
724
330
1F
100
AcDbEntity
  8
0
  6
Continuous
 62
     7
370
    25
100
AcDbLine
 10
0.0492125984
 20
6.2367875462
 30
0.0
 11
0.0492125984
 21
6.2545504377
 31
0.0
  0
LINE
  5
725
330
1F
100
AcDbEntity
  8
0
  6
Continuous
 62
     7
370
    25
100
AcDbLine
 10
0.1500201487
 20
6.2367875462
 30
0.0
 11
0.1500201487
 21
6.2545504377
 31
0.0
  0
LINE
  5
726
330
1F
100
AcDbEntity
  8
0
  6
Continuous
 62
     7
370
    25
100
AcDbLine
 10
-0.1500201487
 20
6.2367875462
 30
0.0
 11
-0.1500201487
 21
6.2545504377
 31
0.0
  0
LINE
  5
727
330
1F
100
AcDbEntity
  8
0
  6
Continuous
 62
     7
370
    25
100
AcDbLine
 10
0.2506207742
 20
6.2367875462
 30
0.0
 11
0.2506207742
 21
6.2543569671
 31
0.0
  0
LINE
  5
728
330
1F
100
AcDbEntity
  8
0
  6
Continuous
 62
     7
370
    25
100
AcDbLine
 10
0.1992327471
 20
6.2367875462
 30
0.0
 11
0.1992327471
 21
6.2545504377
 31
0.0
  0
LINE
  5
729
330
1F
100
AcDbEntity
  8
0
  6
Continuous
 62
     7
370
    25
100
AcDbLine
 10
-0.1994396718
 20
6.2367875462
 30
0.0
 11
-0.1994396718
 21
6.2545504377
 31
0.0
  0
LINE
  5
72A
330
1F
100
AcDbEntity
  8
0
  6
Continuous
 62
     7
370
    25
100
AcDbLine
 10
-0.0494195232
 20
6.2367875462
 30
0.0
 11
-0.0494195232
 21
6.2545504377
 31
0.0
  0
LINE
  5
72B
330
1F
100
AcDbEntity
  8
0
  6
Continuous
 62
     7
370
    25
100
AcDbLine
 10
0.1006006255
 20
6.2367875462
 30
0.0
 11
0.1006006255
 21
6.2545504377
 31
0.0
  0
LINE
  5
72C
330
1F
100
AcDbEntity
  8
0
  6
Continuous
 62
     7
370
    25
100
AcDbLine
 10
-0.2508276989
 20
6.2367875462
 30
0.0
 11
-0.2508276989
 21
6.2540598613
 31
0.0
  0
LINE
  5
72D
330
1F
100
AcDbEntity
  8
0
  6
Continuous
 62
     7
370
    25
100
AcDbLine
 10
0.0255905512
 20
6.2198661193
 30
0.0
 11
0.0255905512
 21
6.2376290108
 31
0.0
  0
LINE
  5
72E
330
1F
100
AcDbEntity
  8
0
  6
Continuous
 62
     7
370
    25
100
AcDbLine
 10
-0.1244295975
 20
6.2198661193
 30
0.0
 11
-0.1244295975
 21
6.2376290108
 31
0.0
  0
LINE
  5
72F
330
1F
100
AcDbEntity
  8
0
  6
Continuous
 62
     7
370
    25
100
AcDbLine
 10
0.225030223
 20
6.2198661193
 30
0.0
 11
0.225030223
 21
6.2376290108
 31
0.0
  0
LINE
  5
730
330
1F
100
AcDbEntity
  8
0
  6
Continuous
 62
     7
370
    25
100
AcDbLine
 10
0.1756106999
 20
6.2198661193
 30
0.0
 11
0.1756106999
 21
6.2376290108
 31
0.0
  0
LINE
  5
731
330
1F
100
AcDbEntity
  8
0
  6
Continuous
 62
     7
370
    25
100
AcDbLine
 10
0.1242226728
 20
6.2198661193
 30
0.0
 11
0.1242226728
 21
6.2376290108
 31
0.0
  0
LINE
  5
732
330
1F
100
AcDbEntity
  8
0
  6
Continuous
 62
     7
370
    25
100
AcDbLine
 10
-0.1758176246
 20
6.2198661193
 30
0.0
 11
-0.1758176246
 21
6.2376290108
 31
0.0
  0
LINE
  5
733
330
1F
100
AcDbEntity
  8
0
  6
Continuous
 62
     7
370
    25
100
AcDbLine
 10
-0.225030223
 20
6.2198661193
 30
0.0
 11
-0.225030223
 21
6.2376290108
 31
0.0
  0
LINE
  5
734
330
1F
100
AcDbEntity
  8
0
  6
Continuous
 62
     7
370
    25
100
AcDbLine
 10
0.0750100743
 20
6.2198661193
 30
0.0
 11
0.0750100743
 21
6.2376290108
 31
0.0
  0
LINE
  5
735
330
1F
100
AcDbEntity
  8
0
  6
Continuous
 62
     7
370
    25
100
AcDbLine
 10
-0.0750100743
 20
6.2198661193
 30
0.0
 11
-0.0750100743
 21
6.2376290108
 31
0.0
  0
LINE
  5
736
330
1F
100
AcDbEntity
  8
0
  6
Continuous
 62
     7
370
    25
100
AcDbLine
 10
-0.0257974759
 20
6.2198661193
 30
0.0
 11
-0.0257974759
 21
6.2376290108
 31
0.0
  0
LINE
  5
737
330
1F
100
AcDbEntity
  8
0
  6
Continuous
 62
     7
370
    25
100
AcDbLine
 10
0.2963082987
 20
6.1538608745
 30
0.0
 11
0.2769531877
 21
6.1591562522
 31
0.0
  0
LINE
  5
738
330
1F
100
AcDbEntity
  8
0
  6
Continuous
 62
     7
370
    25
100
AcDbLine
 10
-0.2769531877
 20
6.1591562469
 30
0.0
 11
-0.2963082987
 21
6.1538608229
 31
0.0
  0
LINE
  5
739
330
1F
100
AcDbEntity
  8
0
  6
Continuous
 62
     7
370
    25
100
AcDbLine
 10
0.1500201487
 20
6.2029446925
 30
0.0
 11
0.1500201487
 21
6.220707584
 31
0.0
  0
LINE
  5
73A
330
1F
100
AcDbEntity
  8
0
  6
Continuous
 62
     7
370
    25
100
AcDbLine
 10
-0.1008075503
 20
6.2029446925
 30
0.0
 11
-0.1008075503
 21
6.220707584
 31
0.0
  0
LINE
  5
73B
330
1F
100
AcDbEntity
  8
0
  6
Continuous
 62
     7
370
    25
100
AcDbLine
 10
0.1992327471
 20
6.2029446925
 30
0.0
 11
0.1992327471
 21
6.220707584
 31
0.0
  0
LINE
  5
73C
330
1F
100
AcDbEntity
  8
0
  6
Continuous
 62
     7
370
    25
100
AcDbLine
 10
-0.0494195232
 20
6.2029446925
 30
0.0
 11
-0.0494195232
 21
6.220707584
 31
0.0
  0
LINE
  5
73D
330
1F
100
AcDbEntity
  8
0
  6
Continuous
 62
     7
370
    25
100
AcDbLine
 10
-0.1500201487
 20
6.2029446925
 30
0.0
 11
-0.1500201487
 21
6.220707584
 31
0.0
  0
LINE
  5
73E
330
1F
100
AcDbEntity
  8
0
  6
Continuous
 62
     7
370
    25
100
AcDbLine
 10
0.0
 20
6.2029446925
 30
0.0
 11
0.0
 21
6.220707584
 31
0.0
  0
LINE
  5
73F
330
1F
100
AcDbEntity
  8
0
  6
Continuous
 62
     7
370
    25
100
AcDbLine
 10
-0.1994396718
 20
6.2029446925
 30
0.0
 11
-0.1994396718
 21
6.220707584
 31
0.0
  0
LINE
  5
740
330
1F
100
AcDbEntity
  8
0
  6
Continuous
 62
     7
370
    25
100
AcDbLine
 10
0.1006006255
 20
6.2029446925
 30
0.0
 11
0.1006006255
 21
6.220707584
 31
0.0
  0
LINE
  5
741
330
1F
100
AcDbEntity
  8
0
  6
Continuous
 62
     7
370
    25
100
AcDbLine
 10
0.0750100743
 20
6.1860232657
 30
0.0
 11
0.0750100743
 21
6.2037861572
 31
0.0
  0
LINE
  5
742
330
1F
100
AcDbEntity
  8
0
  6
Continuous
 62
     7
370
    25
100
AcDbLine
 10
-0.1758176246
 20
6.1860232657
 30
0.0
 11
-0.1758176246
 21
6.2037861572
 31
0.0
  0
LINE
  5
743
330
1F
100
AcDbEntity
  8
0
  6
Continuous
 62
     7
370
    25
100
AcDbLine
 10
-0.1244295975
 20
6.1860232657
 30
0.0
 11
-0.1244295975
 21
6.2037861572
 31
0.0
  0
LINE
  5
744
330
1F
100
AcDbEntity
  8
0
  6
Continuous
 62
     7
370
    25
100
AcDbLine
 10
0.1756106999
 20
6.1860232657
 30
0.0
 11
0.1756106999
 21
6.2037861572
 31
0.0
  0
LINE
  5
745
330
1F
100
AcDbEntity
  8
0
  6
Continuous
 62
     7
370
    25
100
AcDbLine
 10
-0.0257974759
 20
6.1860232657
 30
0.0
 11
-0.0257974759
 21
6.2037861572
 31
0.0
  0
LINE
  5
746
330
1F
100
AcDbEntity
  8
0
  6
Continuous
 62
     7
370
    25
100
AcDbLine
 10
-0.0750100743
 20
6.1860232657
 30
0.0
 11
-0.0750100743
 21
6.2037861572
 31
0.0
  0
LINE
  5
747
330
1F
100
AcDbEntity
  8
0
  6
Continuous
 62
     7
370
    25
100
AcDbLine
 10
0.1242226728
 20
6.1860232657
 30
0.0
 11
0.1242226728
 21
6.2037861572
 31
0.0
  0
LINE
  5
748
330
1F
100
AcDbEntity
  8
0
  6
Continuous
 62
     7
370
    25
100
AcDbLine
 10
0.0255905512
 20
6.1860232657
 30
0.0
 11
0.0255905512
 21
6.2037861572
 31
0.0
  0
LINE
  5
749
330
1F
100
AcDbEntity
  8
0
  6
Continuous
 62
     7
370
    25
100
AcDbLine
 10
0.2724368378
 20
6.1276437941
 30
0.0
 11
0.2724368319
 21
6.1493879999
 31
0.0
  0
LINE
  5
74A
330
1F
100
AcDbEntity
  8
0
  6
Continuous
 62
     7
370
    25
100
AcDbLine
 10
-0.2724368326
 20
6.1493880003
 30
0.0
 11
-0.2724368378
 21
6.1276437941
 31
0.0
  0
LINE
  5
74B
330
1F
100
AcDbEntity
  8
0
  6
Continuous
 62
     7
370
    25
100
AcDbLine
 10
0.2917919488
 20
6.1223483735
 30
0.0
 11
0.2724368378
 21
6.1276437941
 31
0.0
  0
LINE
  5
74C
330
1F
100
AcDbEntity
  8
0
  6
Continuous
 62
     7
370
    25
100
AcDbLine
 10
0.2872755989
 20
6.1125800818
 30
0.0
 11
0.267920488
 21
6.1178755023
 31
0.0
  0
LINE
  5
74D
330
1F
100
AcDbEntity
  8
0
  6
Continuous
 62
     7
370
    25
100
AcDbLine
 10
-0.267920488
 20
6.1178755023
 30
0.0
 11
-0.2872755989
 21
6.1125800818
 31
0.0
  0
LINE
  5
74E
330
1F
100
AcDbEntity
  8
0
  6
Continuous
 62
     7
370
    25
100
AcDbLine
 10
-0.2724368378
 20
6.1276437941
 30
0.0
 11
-0.2917919488
 21
6.1223483735
 31
0.0
  0
LINE
  5
74F
330
1F
100
AcDbEntity
  8
0
  6
Continuous
 62
     7
370
    25
100
AcDbLine
 10
-0.2917919488
 20
6.1223483735
 30
0.0
 11
-0.2917919441
 21
6.1440925801
 31
0.0
  0
LINE
  5
750
330
1F
100
AcDbEntity
  8
0
  6
Continuous
 62
     7
370
    25
100
AcDbLine
 10
-0.2724368326
 20
6.1493880003
 30
0.0
 11
-0.2917919441
 21
6.1440925801
 31
0.0
  0
LINE
  5
751
330
1F
100
AcDbEntity
  8
0
  6
Continuous
 62
     7
370
    25
100
AcDbLine
 10
0.2917919454
 20
6.1440925808
 30
0.0
 11
0.2724368319
 21
6.1493879999
 31
0.0
  0
LINE
  5
752
330
1F
100
AcDbEntity
  8
0
  6
Continuous
 62
     7
370
    25
100
AcDbLine
 10
0.2917919454
 20
6.1440925808
 30
0.0
 11
0.2917919488
 21
6.1223483735
 31
0.0
  0
LINE
  5
753
330
1F
100
AcDbEntity
  8
0
  6
Continuous
 62
     7
370
    25
100
AcDbLine
 10
-0.2107649382
 20
6.082684985
 30
0.0
 11
-0.1972123436
 21
6.0902476293
 31
0.0
  0
LINE
  5
754
330
1F
100
AcDbEntity
  8
0
  6
Continuous
 62
     7
370
    25
100
AcDbLine
 10
0.1972123436
 20
6.0902476293
 30
0.0
 11
0.2107649382
 21
6.082684985
 31
0.0
  0
LINE
  5
755
330
1F
100
AcDbEntity
  8
0
  6
Continuous
 62
     7
370
    25
100
AcDbLine
 10
0.1006006255
 20
6.1691018389
 30
0.0
 11
0.1006006255
 21
6.1868647304
 31
0.0
  0
LINE
  5
756
330
1F
100
AcDbEntity
  8
0
  6
Continuous
 62
     7
370
    25
100
AcDbLine
 10
0.1500201487
 20
6.1691018389
 30
0.0
 11
0.1500201487
 21
6.1868647304
 31
0.0
  0
LINE
  5
757
330
1F
100
AcDbEntity
  8
0
  6
Continuous
 62
     7
370
    25
100
AcDbLine
 10
-0.0494195232
 20
6.1691018389
 30
0.0
 11
-0.0494195232
 21
6.1868647304
 31
0.0
  0
LINE
  5
758
330
1F
100
AcDbEntity
  8
0
  6
Continuous
 62
     7
370
    25
100
AcDbLine
 10
-0.1500201487
 20
6.1691018389
 30
0.0
 11
-0.1500201487
 21
6.1868647304
 31
0.0
  0
LINE
  5
759
330
1F
100
AcDbEntity
  8
0
  6
Continuous
 62
     7
370
    25
100
AcDbLine
 10
0.0492125984
 20
6.1691018389
 30
0.0
 11
0.0492125984
 21
6.1868647304
 31
0.0
  0
LINE
  5
75A
330
1F
100
AcDbEntity
  8
0
  6
Continuous
 62
     7
370
    25
100
AcDbLine
 10
-0.1008075503
 20
6.1691018389
 30
0.0
 11
-0.1008075503
 21
6.1868647304
 31
0.0
  0
LINE
  5
75B
330
1F
100
AcDbEntity
  8
0
  6
Continuous
 62
     7
370
    25
100
AcDbLine
 10
0.0
 20
6.1691018389
 30
0.0
 11
0.0
 21
6.1868647304
 31
0.0
  0
LINE
  5
75C
330
1F
100
AcDbEntity
  8
0
  6
Continuous
 62
     7
370
    25
100
AcDbLine
 10
0.0750100743
 20
6.152180412
 30
0.0
 11
0.0750100743
 21
6.1699433035
 31
0.0
  0
LINE
  5
75D
330
1F
100
AcDbEntity
  8
0
  6
Continuous
 62
     7
370
    25
100
AcDbLine
 10
-0.0750100743
 20
6.152180412
 30
0.0
 11
-0.0750100743
 21
6.1699433035
 31
0.0
  0
LINE
  5
75E
330
1F
100
AcDbEntity
  8
0
  6
Continuous
 62
     7
370
    25
100
AcDbLine
 10
-0.0257974759
 20
6.152180412
 30
0.0
 11
-0.0257974759
 21
6.1699433035
 31
0.0
  0
LINE
  5
75F
330
1F
100
AcDbEntity
  8
0
  6
Continuous
 62
     7
370
    25
100
AcDbLine
 10
0.0255905512
 20
6.152180412
 30
0.0
 11
0.0255905512
 21
6.1699433035
 31
0.0
  0
LINE
  5
760
330
1F
100
AcDbEntity
  8
0
  6
Continuous
 62
     7
370
    25
100
AcDbLine
 10
-0.1893558012
 20
6.1194445819
 30
0.0
 11
-0.1893383279
 21
6.1192399033
 31
0.0
  0
LINE
  5
761
330
1F
100
AcDbEntity
  8
0
  6
Continuous
 62
     7
370
    25
100
AcDbLine
 10
0.1893557723
 20
6.1194445897
 30
0.0
 11
0.1893383279
 21
6.1192399082
 31
0.0
  0
LINE
  5
762
330
1F
100
AcDbEntity
  8
0
  6
Continuous
 62
     7
370
    25
100
AcDbLine
 10
0.0696099904
 20
6.0946383578
 30
0.0
 11
0.0655069918
 21
6.1037303966
 31
0.0
  0
LINE
  5
763
330
1F
100
AcDbEntity
  8
0
  6
Continuous
 62
     7
370
    25
100
AcDbLine
 10
-0.0655069918
 20
6.1037303913
 30
0.0
 11
-0.0696099905
 21
6.0946383629
 31
0.0
  0
LINE
  5
764
330
1F
100
AcDbEntity
  8
0
  6
Continuous
 62
     7
370
    25
100
AcDbLine
 10
0.0577526001
 20
6.0742039105
 30
0.0
 11
0.0577525898
 21
6.095948119
 31
0.0
  0
LINE
  5
765
330
1F
100
AcDbEntity
  8
0
  6
Continuous
 62
     7
370
    25
100
AcDbLine
 10
-0.057752591
 20
6.0959481191
 30
0.0
 11
-0.0577526001
 21
6.0742039105
 31
0.0
  0
LINE
  5
766
330
1F
100
AcDbEntity
  8
0
  6
Continuous
 62
     7
370
    25
100
AcDbLine
 10
0.0618555987
 20
6.0651118856
 30
0.0
 11
0.0577526001
 21
6.0742039105
 31
0.0
  0
LINE
  5
767
330
1F
100
AcDbEntity
  8
0
  6
Continuous
 62
     7
370
    25
100
AcDbLine
 10
0.054101207
 20
6.057329566
 30
0.0
 11
0.0499982083
 21
6.0664215908
 31
0.0
  0
LINE
  5
768
330
1F
100
AcDbEntity
  8
0
  6
Continuous
 62
     7
370
    25
100
AcDbLine
 10
-0.0499982083
 20
6.0664215908
 30
0.0
 11
-0.054101207
 21
6.057329566
 31
0.0
  0
LINE
  5
769
330
1F
100
AcDbEntity
  8
0
  6
Continuous
 62
     7
370
    25
100
AcDbLine
 10
-0.0577526001
 20
6.0742039105
 30
0.0
 11
-0.0618555987
 21
6.0651118857
 31
0.0
  0
LINE
  5
76A
330
1F
100
AcDbEntity
  8
0
  6
Continuous
 62
     7
370
    25
100
AcDbLine
 10
-0.0618555987
 20
6.0651118857
 30
0.0
 11
-0.0618555907
 21
6.0868560942
 31
0.0
  0
LINE
  5
76B
330
1F
100
AcDbEntity
  8
0
  6
Continuous
 62
     7
370
    25
100
AcDbLine
 10
-0.057752591
 20
6.0959481191
 30
0.0
 11
-0.0618555907
 21
6.0868560942
 31
0.0
  0
LINE
  5
76C
330
1F
100
AcDbEntity
  8
0
  6
Continuous
 62
     7
370
    25
100
AcDbLine
 10
0.061855593
 20
6.0868560944
 30
0.0
 11
0.0577525898
 21
6.095948119
 31
0.0
  0
LINE
  5
76D
330
1F
100
AcDbEntity
  8
0
  6
Continuous
 62
     7
370
    25
100
AcDbLine
 10
0.061855593
 20
6.0868560944
 30
0.0
 11
0.0618555987
 21
6.0651118856
 31
0.0
  0
LINE
  5
76E
330
1F
100
AcDbEntity
  8
0
  6
Continuous
 62
     7
370
    25
100
AcDbLine
 10
0.0
 20
8.6023622047
 30
0.0
 11
0.0
 21
6.3595318376
 31
0.0
  0
LINE
  5
76F
330
1F
100
AcDbEntity
  8
0
  6
Continuous
 62
     7
370
    25
100
AcDbLine
 10
-0.4330708661
 20
5.8070866142
 30
0.0
 11
0.4330708661
 21
5.8070866142
 31
0.0
  0
LINE
  5
770
330
1F
100
AcDbEntity
  8
0
  6
Continuous
 62
     7
370
    25
100
AcDbLine
 10
0.0
 20
0.0
 30
0.0
 11
0.0
 21
5.3149606299
 31
0.0
  0
LINE
  5
771
330
1F
100
AcDbEntity
  8
0
  6
Continuous
 62
     7
370
    25
100
AcDbLine
 10
-0.8858267717
 20
0.0
 30
0.0
 11
0.8858267717
 21
0.0
 31
0.0
  0
LINE
  5
772
330
1F
100
AcDbEntity
  8
0
  6
Continuous
 62
     7
370
    25
100
AcDbLine
 10
-0.4330708661
 20
5.3149606299
 30
0.0
 11
0.4330708661
 21
5.3149606299
 31
0.0
  0
LINE
  5
773
330
1F
100
AcDbEntity
  8
0
  6
Continuous
 62
     7
370
    25
100
AcDbLine
 10
0.4330708661
 20
5.5118110236
 30
0.0
 11
0.0
 21
5.5118110236
 31
0.0
  0
LINE
  5
774
330
1F
100
AcDbEntity
  8
0
  6
Continuous
 62
     7
370
    25
100
AcDbLine
 10
0.0
 20
5.5118110236
 30
0.0
 11
0.0
 21
6.0303331703
 31
0.0
  0
LINE
  5
775
330
1F
100
AcDbEntity
  8
0
  6
Continuous
 62
     8
370
    25
100
AcDbLine
 10
4.8228346457
 20
1.5748031496
 30
0.0
 11
3.0511811024
 21
1.5748031496
 31
0.0
  0
LINE
  5
776
330
1F
100
AcDbEntity
  8
0
  6
Continuous
 62
     8
370
    25
100
AcDbLine
 10
-3.0511811024
 20
1.5748031496
 30
0.0
 11
-4.8228346457
 21
1.5748031496
 31
0.0
  0
LINE
  5
777
330
1F
100
AcDbEntity
  8
0
  6
Continuous
 62
     8
370
    25
100
AcDbLine
 10
-3.0511811024
 20
0.7677165354
 30
0.0
 11
-4.8228346457
 21
0.7677165354
 31
0.0
  0
LINE
  5
778
330
1F
100
AcDbEntity
  8
0
  6
Continuous
 62
     8
370
    25
100
AcDbLine
 10
4.8228346457
 20
0.7677165354
 30
0.0
 11
3.0511811024
 21
0.7677165354
 31
0.0
  0
LINE
  5
779
330
1F
100
AcDbEntity
  8
0
  6
Continuous
 62
     8
370
    25
100
AcDbLine
 10
-0.0018571656
 20
6.3429932104
 30
0.0
 11
-0.001817772
 21
6.3341478855
 31
0.0
  0
LINE
  5
77A
330
1F
100
AcDbEntity
  8
0
  6
Continuous
 62
     8
370
    25
100
AcDbLine
 10
-0.2936242321
 20
6.2885271412
 30
0.0
 11
-0.2936242309
 21
6.2863529388
 31
0.0
  0
LINE
  5
77B
330
1F
100
AcDbEntity
  8
0
  6
Continuous
 62
     8
370
    25
100
AcDbLine
 10
-0.3599505558
 20
6.2237867601
 30
0.0
 11
-0.359950567
 21
6.2358948498
 31
0.0
  0
LINE
  5
77C
330
1F
100
AcDbEntity
  8
0
  6
Continuous
 62
     8
370
    25
100
AcDbLine
 10
0.0
 20
6.0752698725
 30
0.0
 11
0.0
 21
6.122359322
 31
0.0
  0
LINE
  5
77D
330
1F
100
AcDbEntity
  8
0
  6
Continuous
 62
     8
370
    25
100
AcDbLine
 10
-0.2043149221
 20
6.3161927711
 30
0.0
 11
-0.2043149232
 21
6.319629413
 31
0.0
  0
LINE
  5
77E
330
1F
100
AcDbEntity
  8
0
  6
Continuous
 62
     8
370
    25
100
AcDbLine
 10
0.2043149229
 20
6.3196294131
 30
0.0
 11
0.2043149221
 21
6.3161927711
 31
0.0
  0
LINE
  5
77F
330
1F
100
AcDbEntity
  8
0
  6
Continuous
 62
     8
370
    25
100
AcDbLine
 10
0.1907623275
 20
6.3086301267
 30
0.0
 11
0.1907623331
 21
6.322865172
 31
0.0
  0
LINE
  5
780
330
1F
100
AcDbEntity
  8
0
  6
Continuous
 62
     8
370
    25
100
AcDbLine
 10
-0.1907623325
 20
6.3228651721
 30
0.0
 11
-0.1907623275
 21
6.3086301267
 31
0.0
  0
LINE
  5
781
330
1F
100
AcDbEntity
  8
0
  6
Continuous
 62
     8
370
    25
100
AcDbLine
 10
-0.2586541005
 20
6.2734174397
 30
0.0
 11
-0.250691345
 21
6.2803838437
 31
0.0
  0
LINE
  5
782
330
1F
100
AcDbEntity
  8
0
  6
Continuous
 62
     8
370
    25
100
AcDbLine
 10
-0.2770791709
 20
6.2455207578
 30
0.0
 11
-0.2689962885
 21
6.2615187244
 31
0.0
  0
LINE
  5
783
330
1F
100
AcDbEntity
  8
0
  6
Continuous
 62
     8
370
    25
100
AcDbLine
 10
0.0
 20
6.1530218767
 30
0.0
 11
0.0
 21
6.1260202567
 31
0.0
  0
LINE
  5
784
330
1F
100
AcDbEntity
  8
0
  6
Continuous
 62
     8
370
    25
100
AcDbLine
 10
0.3423559142
 20
6.2578839887
 30
0.0
 11
0.3261639624
 21
6.2567684305
 31
0.0
  0
LINE
  5
785
330
1F
100
AcDbEntity
  8
0
  6
Continuous
 62
     8
370
    25
100
AcDbLine
 10
-0.3261639624
 20
6.2567684252
 30
0.0
 11
-0.3423559124
 21
6.2578839905
 31
0.0
  0
LINE
  5
786
330
1F
100
AcDbEntity
  8
0
  6
Continuous
 62
     8
370
    25
100
AcDbLine
 10
-0.3211139976
 20
6.1831071044
 30
0.0
 11
-0.3210245636
 21
6.1826447173
 31
0.0
  0
LINE
  5
787
330
1F
100
AcDbEntity
  8
0
  6
Continuous
 62
     8
370
    25
100
AcDbLine
 10
0.3211139976
 20
6.1831071044
 30
0.0
 11
0.3210245636
 21
6.1826447173
 31
0.0
  0
LINE
  5
788
330
1F
100
AcDbEntity
  8
0
  6
Continuous
 62
     8
370
    25
100
AcDbLine
 10
0.3211139836
 20
6.2048513144
 30
0.0
 11
0.3210245636
 21
6.2043889264
 31
0.0
  0
LINE
  5
789
330
1F
100
AcDbEntity
  8
0
  6
Continuous
 62
     8
370
    25
100
AcDbLine
 10
-0.3211139794
 20
6.2048513146
 30
0.0
 11
-0.3210245636
 21
6.2043889201
 31
0.0
  0
LINE
  5
78A
330
1F
100
AcDbEntity
  8
0
  6
Continuous
 62
     8
370
    25
100
AcDbLine
 10
-0.189232217
 20
6.1202131581
 30
0.0
 11
-0.1843123115
 21
6.1229585781
 31
0.0
  0
LINE
  5
78B
330
1F
100
AcDbEntity
  8
0
  6
Continuous
 62
     8
370
    25
100
AcDbLine
 10
0.1843123115
 20
6.1229585728
 30
0.0
 11
0.1892322168
 21
6.1202131567
 31
0.0
  0
LINE
  5
78C
330
1F
100
AcDbEntity
  8
0
  6
Continuous
 62
     8
370
    25
100
AcDbLine
 10
0.0619752227
 20
6.0645776357
 30
0.0
 11
0.0618555987
 21
6.0651118856
 31
0.0
  0
LINE
  5
78D
330
1F
100
AcDbEntity
  8
0
  6
Continuous
 62
     8
370
    25
100
AcDbLine
 10
-0.0619752227
 20
6.0645776357
 30
0.0
 11
-0.0618555987
 21
6.0651118857
 31
0.0
  0
LINE
  5
78E
330
1F
100
AcDbEntity
  8
0
  6
Continuous
 62
     8
370
    25
100
AcDbLine
 10
0.0619752227
 20
6.0863218448
 30
0.0
 11
0.061855593
 21
6.0868560944
 31
0.0
  0
LINE
  5
78F
330
1F
100
AcDbEntity
  8
0
  6
Continuous
 62
     8
370
    25
100
AcDbLine
 10
-0.0619752227
 20
6.0863218414
 30
0.0
 11
-0.0618555907
 21
6.0868560942
 31
0.0
  0
LINE
  5
790
330
1F
100
AcDbEntity
  8
0
  6
Continuous
 62
     8
370
    25
100
AcDbLine
 10
0.0
 20
6.0468700192
 30
0.0
 11
0.0
 21
6.0557153105
 31
0.0
  0
LINE
  5
791
330
1F
100
AcDbEntity
  8
0
  6
Continuous
 62
     8
370
    25
100
AcDbLine
 10
-0.8858267717
 20
0.5905511811
 30
0.0
 11
0.8858267717
 21
0.5905511811
 31
0.0
  0
LINE
  5
792
330
1F
100
AcDbEntity
  8
0
  6
Continuous
 62
     8
370
    25
100
AcDbLine
 10
-0.6783136483
 20
2.7559055118
 30
0.0
 11
0.6783136483
 21
2.7559055118
 31
0.0
  0
ARC
  5
793
330
1F
100
AcDbEntity
  8
0
  6
Continuous
 62
     7
370
    25
100
AcDbCircle
 10
3.0708661417
 20
1.5748031496
 30
0.0
 40
0.019685039370078
100
AcDbArc
 50
90.0
 51
180.0
  0
ARC
  5
794
330
1F
100
AcDbEntity
  8
0
  6
Continuous
 62
     7
370
    25
100
AcDbCircle
 10
4.8031496063
 20
1.5748031496
 30
0.0
 40
0.0196850393700772
100
AcDbArc
 50
360.0
 51
90.0
  0
ARC
  5
795
330
1F
100
AcDbEntity
  8
0
  6
Continuous
 62
     7
370
    25
100
AcDbCircle
 10
5.2899635742
 20
1.2007874016
 30
0.0
 40
0.0984251968503953
100
AcDbArc
 50
270.0
 51
90.0
  0
ARC
  5
796
330
1F
100
AcDbEntity
  8
0
  6
Continuous
 62
     7
370
    25
100
AcDbCircle
 10
-4.8031496063
 20
1.5748031496
 30
0.0
 40
0.0196850393700772
100
AcDbArc
 50
90.0
 51
180.0
  0
ARC
  5
797
330
1F
100
AcDbEntity
  8
0
  6
Continuous
 62
     7
370
    25
100
AcDbCircle
 10
-3.0708661417
 20
1.5748031496
 30
0.0
 40
0.0196850393700785
100
AcDbArc
 50
0.0
 51
90.0
  0
ARC
  5
798
330
1F
100
AcDbEntity
  8
0
  6
Continuous
 62
     7
370
    25
100
AcDbCircle
 10
-5.2899635742
 20
1.2007874016
 30
0.0
 40
0.0984251968503937
100
AcDbArc
 50
90.0
 51
270.0
  0
ARC
  5
799
330
1F
100
AcDbEntity
  8
0
  6
Continuous
 62
     7
370
    25
100
AcDbCircle
 10
-3.1496062992
 20
0.0
 30
0.0
 40
0.0295275590551181
100
AcDbArc
 50
270.0
 51
0.0
  0
ARC
  5
79A
330
1F
100
AcDbEntity
  8
0
  6
Continuous
 62
     7
370
    25
100
AcDbCircle
 10
-4.7244094488
 20
0.0
 30
0.0
 40
0.0295275590551185
100
AcDbArc
 50
180.0
 51
270.0
  0
ARC
  5
79B
330
1F
100
AcDbEntity
  8
0
  6
Continuous
 62
     7
370
    25
100
AcDbCircle
 10
4.7244094488
 20
0.0
 30
0.0
 40
0.0295275590551194
100
AcDbArc
 50
270.0
 51
0.0
  0
ARC
  5
79C
330
1F
100
AcDbEntity
  8
0
  6
Continuous
 62
     7
370
    25
100
AcDbCircle
 10
3.1496062992
 20
0.0
 30
0.0
 40
0.0295275590551176
100
AcDbArc
 50
180.0
 51
270.0
  0
ARC
  5
79D
330
1F
100
AcDbEntity
  8
0
  6
Continuous
 62
     7
370
    25
100
AcDbCircle
 10
-4.8031496063
 20
0.7677165354
 30
0.0
 40
0.0196850393700797
100
AcDbArc
 50
90.0
 51
180.0
  0
ARC
  5
79E
330
1F
100
AcDbEntity
  8
0
  6
Continuous
 62
     7
370
    25
100
AcDbCircle
 10
-3.0708661417
 20
0.7677165354
 30
0.0
 40
0.0196850393700791
100
AcDbArc
 50
0.0
 51
90.0
  0
ARC
  5
79F
330
1F
100
AcDbEntity
  8
0
  6
Continuous
 62
     7
370
    25
100
AcDbCircle
 10
3.0708661417
 20
0.7677165354
 30
0.0
 40
0.0196850393700791
100
AcDbArc
 50
90.0
 51
180.0
  0
ARC
  5
7A0
330
1F
100
AcDbEntity
  8
0
  6
Continuous
 62
     7
370
    25
100
AcDbCircle
 10
4.8031496063
 20
0.7677165354
 30
0.0
 40
0.0196850393700797
100
AcDbArc
 50
0.0
 51
90.0
  0
ARC
  5
7A1
330
1F
100
AcDbEntity
  8
0
  6
Continuous
 62
     7
370
    25
100
AcDbCircle
 10
-0.054101207
 20
6.3397835116
 30
0.0
 40
0.0078740157480349
100
AcDbArc
 50
180.0
 51
204.2884410275
  0
ARC
  5
7A2
330
1F
100
AcDbEntity
  8
0
  6
Continuous
 62
     7
370
    25
100
AcDbCircle
 10
0.054101207
 20
6.3397835116
 30
0.0
 40
0.0078740157480398
100
AcDbArc
 50
335.7115589725
 51
360.0
  0
ARC
  5
7A3
330
1F
100
AcDbEntity
  8
0
  6
Continuous
 62
     7
370
    25
100
AcDbCircle
 10
-0.0499982083
 20
6.3306914867
 30
0.0
 40
0.0078740157480343
100
AcDbArc
 50
204.2884410275
 51
273.3992501281
  0
ARC
  5
7A4
330
1F
100
AcDbEntity
  8
0
  6
Continuous
 62
     7
370
    25
100
AcDbCircle
 10
0.0499982083
 20
6.3306914867
 30
0.0
 40
0.0078740157480312
100
AcDbArc
 50
266.6007498719
 51
335.7115589725
  0
ARC
  5
7A5
330
1F
100
AcDbEntity
  8
0
  6
Continuous
 62
     7
370
    25
100
AcDbCircle
 10
-0.1972123436
 20
6.3068654482
 30
0.0
 40
0.007874015748028
100
AcDbArc
 50
286.0458415391
 51
0.0
  0
ARC
  5
7A6
330
1F
100
AcDbEntity
  8
0
  6
Continuous
 62
     7
370
    25
100
AcDbCircle
 10
0.1972123436
 20
6.3068654482
 30
0.0
 40
0.0078740157480325
100
AcDbArc
 50
180.0
 51
253.9541584609
  0
ARC
  5
7A7
330
1F
100
AcDbEntity
  8
0
  6
Continuous
 62
     7
370
    25
100
AcDbCircle
 10
-0.2872755989
 20
6.2845329958
 30
0.0
 40
0.0078740157480333
100
AcDbArc
 50
180.0
 51
254.6987292647
  0
ARC
  5
7A8
330
1F
100
AcDbEntity
  8
0
  6
Continuous
 62
     7
370
    25
100
AcDbCircle
 10
0.2872755989
 20
6.2845329958
 30
0.0
 40
0.0078740157480328
100
AcDbArc
 50
285.3012707353
 51
360.0
  0
ARC
  5
7A9
330
1F
100
AcDbEntity
  8
0
  6
Continuous
 62
     7
370
    25
100
AcDbCircle
 10
0.267920488
 20
6.2792375752
 30
0.0
 40
0.0078740157480334
100
AcDbArc
 50
242.0396032556
 51
285.3012707352
  0
ARC
  5
7AA
330
1F
100
AcDbEntity
  8
0
  6
Continuous
 62
     7
370
    25
100
AcDbCircle
 10
-0.267920488
 20
6.2792375752
 30
0.0
 40
0.0078740157480408
100
AcDbArc
 50
254.6987292648
 51
297.9603967443
  0
ARC
  5
7AB
330
1F
100
AcDbEntity
  8
0
  6
Continuous
 62
     7
370
    25
100
AcDbCircle
 10
0.3288985794
 20
6.22171643
 30
0.0
 40
0.0078740157480306
100
AcDbArc
 50
180.0
 51
201.2589251967
  0
ARC
  5
7AC
330
1F
100
AcDbEntity
  8
0
  6
Continuous
 62
     7
370
    25
100
AcDbCircle
 10
-0.3288985794
 20
6.22171643
 30
0.0
 40
0.0078740157480265
100
AcDbArc
 50
338.7410748033
 51
0.0
  0
ARC
  5
7AD
330
1F
100
AcDbEntity
  8
0
  6
Continuous
 62
     7
370
    25
100
AcDbCircle
 10
-0.3288985794
 20
6.1826447173
 30
0.0
 40
0.0078740157480318
100
AcDbArc
 50
273.9412471201
 51
0.0
  0
ARC
  5
7AE
330
1F
100
AcDbEntity
  8
0
  6
Continuous
 62
     7
370
    25
100
AcDbCircle
 10
0.3288985794
 20
6.1826447173
 30
0.0
 40
0.0078740157480315
100
AcDbArc
 50
180.0
 51
266.0587528799
  0
ARC
  5
7AF
330
1F
100
AcDbEntity
  8
0
  6
Continuous
 62
     7
370
    25
100
AcDbCircle
 10
0.3521678411
 20
6.181041548
 30
0.0
 40
0.0078740157480324
100
AcDbArc
 50
266.0587528799
 51
338.536787124
  0
ARC
  5
7B0
330
1F
100
AcDbEntity
  8
0
  6
Continuous
 62
     7
370
    25
100
AcDbCircle
 10
-0.3521678411
 20
6.181041548
 30
0.0
 40
0.0078740157480315
100
AcDbArc
 50
201.463212876
 51
273.9412471201
  0
ARC
  5
7B1
330
1F
100
AcDbEntity
  8
0
  6
Continuous
 62
     7
370
    25
100
AcDbCircle
 10
-0.2872755989
 20
6.1198281515
 30
0.0
 40
0.0078740157480289
100
AcDbArc
 50
180.0
 51
241.9614819107
  0
ARC
  5
7B2
330
1F
100
AcDbEntity
  8
0
  6
Continuous
 62
     7
370
    25
100
AcDbCircle
 10
0.2872755989
 20
6.1198281515
 30
0.0
 40
0.0078740157480327
100
AcDbArc
 50
298.0385180894
 51
360.0
  0
ARC
  5
7B3
330
1F
100
AcDbEntity
  8
0
  6
Continuous
 62
     7
370
    25
100
AcDbCircle
 10
0.1972123436
 20
6.097495699
 30
0.0
 40
0.0078740157480372
100
AcDbArc
 50
180.0
 51
240.8375267128
  0
ARC
  5
7B4
330
1F
100
AcDbEntity
  8
0
  6
Continuous
 62
     7
370
    25
100
AcDbCircle
 10
-0.1972123436
 20
6.097495699
 30
0.0
 40
0.0078740157480296
100
AcDbArc
 50
299.1624732872
 51
0.0
  0
ARC
  5
7B5
330
1F
100
AcDbEntity
  8
0
  6
Continuous
 62
     7
370
    25
100
AcDbCircle
 10
0.2107649382
 20
6.0899330547
 30
0.0
 40
0.0078740157480255
100
AcDbArc
 50
240.8375267128
 51
285.9958477596
  0
ARC
  5
7B6
330
1F
100
AcDbEntity
  8
0
  6
Continuous
 62
     7
370
    25
100
AcDbCircle
 10
-0.2107649382
 20
6.0899330547
 30
0.0
 40
0.0078740157480304
100
AcDbArc
 50
254.0041522404
 51
299.1624732872
  0
ARC
  5
7B7
330
1F
100
AcDbEntity
  8
0
  6
Continuous
 62
     7
370
    25
100
AcDbCircle
 10
0.054101207
 20
6.0645776357
 30
0.0
 40
0.0078740157480307
100
AcDbArc
 50
273.435082095
 51
0.0
  0
ARC
  5
7B8
330
1F
100
AcDbEntity
  8
0
  6
Continuous
 62
     7
370
    25
100
AcDbCircle
 10
-0.054101207
 20
6.0645776357
 30
0.0
 40
0.0078740157480304
100
AcDbArc
 50
180.0
 51
266.564917905
  0
ARC
  5
7B9
330
1F
100
AcDbEntity
  8
0
  6
Continuous
 62
     7
370
    25
100
AcDbCircle
 10
0.0
 20
8.1692913386
 30
0.0
 40
0.4330708661417333
100
AcDbArc
 50
0.0
 51
180.0
  0
ARC
  5
7BA
330
1F
100
AcDbEntity
  8
0
  6
Continuous
 62
     7
370
    25
100
AcDbCircle
 10
10.5154306459
 20
0.5905511811
 30
0.0
 40
11.40125741755369
100
AcDbArc
 50
169.0517435988
 51
180.0
  0
ARC
  5
7BB
330
1F
100
AcDbEntity
  8
0
  6
Continuous
 62
     7
370
    25
100
AcDbCircle
 10
-10.5154306459
 20
0.5905511811
 30
0.0
 40
11.40125741755005
100
AcDbArc
 50
0.0
 51
10.9482564012
  0
ARC
  5
7BC
330
1F
100
AcDbEntity
  8
0
  6
Continuous
 62
     7
370
    25
100
AcDbCircle
 10
13.9072841778
 20
5.3149606299
 30
0.0
 40
13.47421331165078
100
AcDbArc
 50
180.0
 51
190.9482564012
  0
ARC
  5
7BD
330
1F
100
AcDbEntity
  8
0
  6
Continuous
 62
     7
370
    25
100
AcDbCircle
 10
-13.9072841778
 20
5.3149606299
 30
0.0
 40
13.47421331165075
100
AcDbArc
 50
349.0517435988
 51
0.0
  0
ARC
  5
7BE
330
1F
100
AcDbEntity
  8
0
  6
Continuous
 62
     7
370
    25
100
AcDbCircle
 10
5.6656700232
 20
1.2007874016
 30
0.0
 40
0.3883849317590532
100
AcDbArc
 50
165.3199122805
 51
194.6800877195
  0
ARC
  5
7BF
330
1F
100
AcDbEntity
  8
0
  6
Continuous
 62
     7
370
    25
100
AcDbCircle
 10
-5.1657937838
 20
1.252027358
 30
0.0
 40
0.1328855758326081
100
AcDbArc
 50
159.2025262707
 51
185.8204222233
  0
ARC
  5
7C0
330
1F
100
AcDbEntity
  8
0
  6
Continuous
 62
     7
370
    25
100
AcDbCircle
 10
-4.8834501178
 20
1.1944954256
 30
0.0
 40
0.4168786243882039
100
AcDbArc
 50
173.9336331233
 51
192.767904278
  0
ARC
  5
7C1
330
1F
100
AcDbEntity
  8
0
  6
Continuous
 62
     7
370
    25
100
AcDbCircle
 10
0.000091592
 20
5.4299324573
 30
0.0
 40
0.9042174441387704
100
AcDbArc
 50
86.5756400046
 51
90.1209870283
  0
ARC
  5
7C2
330
1F
100
AcDbEntity
  8
0
  6
Continuous
 62
     7
370
    25
100
AcDbCircle
 10
-0.0001201697
 20
5.4306525789
 30
0.0
 40
0.9034969014412034
100
AcDbArc
 50
90.1076544987
 51
93.4252786789
  0
ARC
  5
7C3
330
1F
100
AcDbEntity
  8
0
  6
Continuous
 62
     7
370
    25
100
AcDbCircle
 10
0.3064870085
 20
6.2021805736
 30
0.0
 40
0.0576643580437983
100
AcDbArc
 50
337.9949227748
 51
22.0050772252
  0
ARC
  5
7C4
330
1F
100
AcDbEntity
  8
0
  6
Continuous
 62
     7
370
    25
100
AcDbCircle
 10
-0.1116415153
 20
5.9345681663
 30
0.0
 40
0.3960684725470341
100
AcDbArc
 50
106.6137203218
 51
117.3530976433
  0
ARC
  5
7C5
330
1F
100
AcDbEntity
  8
0
  6
Continuous
 62
     7
370
    25
100
AcDbCircle
 10
-0.3064870085
 20
6.2021805736
 30
0.0
 40
0.0576643580438978
100
AcDbArc
 50
157.9949227748
 51
202.0050772252
  0
ARC
  5
7C6
330
1F
100
AcDbEntity
  8
0
  6
Continuous
 62
     7
370
    25
100
AcDbCircle
 10
0.0001120499
 20
5.4812450156
 30
0.0
 40
0.8436745676672008
100
AcDbArc
 50
86.6101449095
 51
89.8667205214
  0
ARC
  5
7C7
330
1F
100
AcDbEntity
  8
0
  6
Continuous
 62
     7
370
    25
100
AcDbCircle
 10
-0.0000800954
 20
5.4804314875
 30
0.0
 40
0.8444885619849262
100
AcDbArc
 50
89.8538125247
 51
93.38875563
  0
ARC
  5
7C8
330
1F
100
AcDbEntity
  8
0
  6
Continuous
 62
     7
370
    25
100
AcDbCircle
 10
-0.0001093978
 20
6.8989760504
 30
0.0
 40
0.8237059388827598
100
AcDbArc
 50
266.6101449096
 51
269.8667205213
  0
ARC
  5
7C9
330
1F
100
AcDbEntity
  8
0
  6
Continuous
 62
     7
370
    25
100
AcDbCircle
 10
-0.0145494495
 20
6.7869995526
 30
0.0
 40
0.6748157714410253
100
AcDbArc
 50
255.8119805718
 51
265.801294852
  0
ARC
  5
7CA
330
1F
100
AcDbEntity
  8
0
  6
Continuous
 62
     7
370
    25
100
AcDbCircle
 10
-0.0961980811
 20
6.4483807714
 30
0.0
 40
0.3614834909482966
100
AcDbArc
 50
242.7736684811
 51
254.5420619034
  0
ARC
  5
7CB
330
1F
100
AcDbEntity
  8
0
  6
Continuous
 62
     7
370
    25
100
AcDbCircle
 10
-0.2143498939
 20
6.2756536202
 30
0.0
 40
0.121273519819473
100
AcDbArc
 50
210.8689280001
 51
242.4732003929
  0
ARC
  5
7CC
330
1F
100
AcDbEntity
  8
0
  6
Continuous
 62
     7
370
    25
100
AcDbCircle
 10
-0.2733913603
 20
6.2021805736
 30
0.0
 40
0.0513930670467238
100
AcDbArc
 50
158.2147235198
 51
201.7852764802
  0
ARC
  5
7CD
330
1F
100
AcDbEntity
  8
0
  6
Continuous
 62
     7
370
    25
100
AcDbCircle
 10
-0.2425457887
 20
6.2229288061
 30
0.0
 40
0.0860194197962019
100
AcDbArc
 50
135.1943188467
 51
151.9258549426
  0
ARC
  5
7CE
330
1F
100
AcDbEntity
  8
0
  6
Continuous
 62
     7
370
    25
100
AcDbCircle
 10
0.2428154079
 20
6.2231024512
 30
0.0
 40
0.0856998994847602
100
AcDbArc
 50
28.0565169301
 51
44.4565190453
  0
ARC
  5
7CF
330
1F
100
AcDbEntity
  8
0
  6
Continuous
 62
     7
370
    25
100
AcDbCircle
 10
0.2733913603
 20
6.2021805736
 30
0.0
 40
0.0513930670467398
100
AcDbArc
 50
338.2147235199
 51
21.7852764801
  0
ARC
  5
7D0
330
1F
100
AcDbEntity
  8
0
  6
Continuous
 62
     7
370
    25
100
AcDbCircle
 10
0.21435012
 20
6.2756529865
 30
0.0
 40
0.1212729115779788
100
AcDbArc
 50
297.5268736485
 51
329.1312532971
  0
ARC
  5
7D1
330
1F
100
AcDbEntity
  8
0
  6
Continuous
 62
     7
370
    25
100
AcDbCircle
 10
0.0961980811
 20
6.4483807714
 30
0.0
 40
0.3614834909468415
100
AcDbArc
 50
285.4579380966
 51
297.2263315189
  0
ARC
  5
7D2
330
1F
100
AcDbEntity
  8
0
  6
Continuous
 62
     7
370
    25
100
AcDbCircle
 10
0.0145480845
 20
6.7870067587
 30
0.0
 40
0.6748230981394995
100
AcDbArc
 50
274.1987773779
 51
284.1879823341
  0
ARC
  5
7D3
330
1F
100
AcDbEntity
  8
0
  6
Continuous
 62
     7
370
    25
100
AcDbCircle
 10
0.0000931568
 20
6.8993852649
 30
0.0
 40
0.8241153977033044
100
AcDbArc
 50
269.9935233716
 51
273.3893000048
  0
ARC
  5
7D4
330
1F
100
AcDbEntity
  8
0
  6
Continuous
 62
     7
370
    25
100
AcDbCircle
 10
0.213882206
 20
6.3162252768
 30
0.0
 40
0.0095673391058564
100
AcDbArc
 50
180.1946671336
 51
250.9845015071
  0
ARC
  5
7D5
330
1F
100
AcDbEntity
  8
0
  6
Continuous
 62
     7
370
    25
100
AcDbCircle
 10
-0.213882206
 20
6.3162252768
 30
0.0
 40
0.0095673391058332
100
AcDbArc
 50
289.015498493
 51
359.8053329179
  0
ARC
  5
7D6
330
1F
100
AcDbEntity
  8
0
  6
Continuous
 62
     7
370
    25
100
AcDbCircle
 10
-0.1055010706
 20
5.9249231217
 30
0.0
 40
0.396485586532196
100
AcDbArc
 50
105.3962069846
 51
117.2880626309
  0
ARC
  5
7D7
330
1F
100
AcDbEntity
  8
0
  6
Continuous
 62
     7
370
    25
100
AcDbCircle
 10
-0.2839680288
 20
6.2863569841
 30
0.0
 40
0.0096562029903833
100
AcDbArc
 50
180.0240027308
 51
249.9687142546
  0
ARC
  5
7D8
330
1F
100
AcDbEntity
  8
0
  6
Continuous
 62
     7
370
    25
100
AcDbCircle
 10
0.1055010706
 20
5.9249231217
 30
0.0
 40
0.3964855865326313
100
AcDbArc
 50
62.7119373691
 51
74.6037930154
  0
ARC
  5
7D9
330
1F
100
AcDbEntity
  8
0
  6
Continuous
 62
     7
370
    25
100
AcDbCircle
 10
0.2003296114
 20
6.3086626325
 30
0.0
 40
0.0095673391057079
100
AcDbArc
 50
180.1946670814
 51
250.9845015073
  0
ARC
  5
7DA
330
1F
100
AcDbEntity
  8
0
  6
Continuous
 62
     7
370
    25
100
AcDbCircle
 10
-0.2003296114
 20
6.3086626325
 30
0.0
 40
0.009567339105918
100
AcDbArc
 50
289.0154984934
 51
359.8053328662
  0
ARC
  5
7DB
330
1F
100
AcDbEntity
  8
0
  6
Continuous
 62
     7
370
    25
100
AcDbCircle
 10
0.0985301558
 20
5.9427638165
 30
0.0
 40
0.3702467270913195
100
AcDbArc
 50
62.7736684811
 51
74.5420619034
  0
ARC
  5
7DC
330
1F
100
AcDbEntity
  8
0
  6
Continuous
 62
     7
370
    25
100
AcDbCircle
 10
-0.0985301558
 20
5.9427638165
 30
0.0
 40
0.370246727091804
100
AcDbArc
 50
105.4579380966
 51
117.2263315189
  0
ARC
  5
7DD
330
1F
100
AcDbEntity
  8
0
  6
Continuous
 62
     7
370
    25
100
AcDbCircle
 10
0.266428305
 20
6.2765904477
 30
0.0
 40
0.0048368666963313
100
AcDbArc
 50
242.9501923617
 51
287.9689760089
  0
ARC
  5
7DE
330
1F
100
AcDbEntity
  8
0
  6
Continuous
 62
     7
370
    25
100
AcDbCircle
 10
-0.266428305
 20
6.2765904477
 30
0.0
 40
0.0048368666963313
100
AcDbArc
 50
252.0310239911
 51
297.0498076383
  0
ARC
  5
7DF
330
1F
100
AcDbEntity
  8
0
  6
Continuous
 62
     7
370
    25
100
AcDbCircle
 10
-0.2579713353
 20
6.2685931845
 30
0.0
 40
0.0130995258741092
100
AcDbArc
 50
212.6873606796
 51
263.4004512601
  0
ARC
  5
7E0
330
1F
100
AcDbEntity
  8
0
  6
Continuous
 62
     7
370
    25
100
AcDbCircle
 10
-0.050037129
 20
5.9843063328
 30
0.0
 40
0.3460263878226761
100
AcDbArc
 50
91.3896853791
 51
125.200555756
  0
ARC
  5
7E1
330
1F
100
AcDbEntity
  8
0
  6
Continuous
 62
     7
370
    25
100
AcDbCircle
 10
-0.2471773611
 20
6.2801694373
 30
0.0
 40
0.0133155930521108
100
AcDbArc
 50
210.4691586295
 51
259.9516097774
  0
ARC
  5
7E2
330
1F
100
AcDbEntity
  8
0
  6
Continuous
 62
     7
370
    25
100
AcDbCircle
 10
-0.0000094913
 20
6.7895864094
 30
0.0
 40
0.6635661527940933
100
AcDbArc
 50
268.3008610137
 51
270.0008195272
  0
ARC
  5
7E3
330
1F
100
AcDbEntity
  8
0
  6
Continuous
 62
     7
370
    25
100
AcDbCircle
 10
-0.1934548863
 20
6.2082695351
 30
0.0
 40
0.0812232972205979
100
AcDbArc
 50
133.6317680193
 51
144.3748557357
  0
ARC
  5
7E4
330
1F
100
AcDbEntity
  8
0
  6
Continuous
 62
     7
370
    25
100
AcDbCircle
 10
0.0001854928
 20
6.8015321907
 30
0.0
 40
0.6573892560751364
100
AcDbArc
 50
271.6997625233
 51
272.5582031611
  0
ARC
  5
7E5
330
1F
100
AcDbEntity
  8
0
  6
Continuous
 62
     7
370
    25
100
AcDbCircle
 10
0.0095962409
 20
6.7054973787
 30
0.0
 40
0.5608667414351809
100
AcDbArc
 50
276.0693248521
 51
280.741294414
  0
ARC
  5
7E6
330
1F
100
AcDbEntity
  8
0
  6
Continuous
 62
     7
370
    25
100
AcDbCircle
 10
0.0545499707
 20
6.5092618527
 30
0.0
 40
0.3594140506949678
100
AcDbArc
 50
284.395902153
 51
290.708714649
  0
ARC
  5
7E7
330
1F
100
AcDbEntity
  8
0
  6
Continuous
 62
     7
370
    25
100
AcDbCircle
 10
0.1184819789
 20
6.3565211878
 30
0.0
 40
0.1936378103839448
100
AcDbArc
 50
297.566346052
 51
299.7407202014
  0
ARC
  5
7E8
330
1F
100
AcDbEntity
  8
0
  6
Continuous
 62
     7
370
    25
100
AcDbCircle
 10
0.1660892839
 20
6.2855747213
 30
0.0
 40
0.1080538333880666
100
AcDbArc
 50
309.0930603843
 51
312.271033691
  0
ARC
  5
7E9
330
1F
100
AcDbEntity
  8
0
  6
Continuous
 62
     7
370
    25
100
AcDbCircle
 10
0.2107227164
 20
6.2481150087
 30
0.0
 40
0.0494406639126298
100
AcDbArc
 50
325.9921465866
 51
346.5424125191
  0
ARC
  5
7EA
330
1F
100
AcDbEntity
  8
0
  6
Continuous
 62
     7
370
    25
100
AcDbCircle
 10
-0.2107387895
 20
6.2481098786
 30
0.0
 40
0.0494238381649888
100
AcDbArc
 50
193.4561400312
 51
213.9569829552
  0
ARC
  5
7EB
330
1F
100
AcDbEntity
  8
0
  6
Continuous
 62
     7
370
    25
100
AcDbCircle
 10
-0.1661342165
 20
6.2855214784
 30
0.0
 40
0.1079841767023735
100
AcDbArc
 50
227.6981235362
 51
230.90762898
  0
ARC
  5
7EC
330
1F
100
AcDbEntity
  8
0
  6
Continuous
 62
     7
370
    25
100
AcDbCircle
 10
-0.1185333429
 20
6.3564286078
 30
0.0
 40
0.1935319446732981
100
AcDbArc
 50
240.2588865094
 51
242.4136112617
  0
ARC
  5
7ED
330
1F
100
AcDbEntity
  8
0
  6
Continuous
 62
     7
370
    25
100
AcDbCircle
 10
-0.0546906718
 20
6.5088281978
 30
0.0
 40
0.3589583802723758
100
AcDbArc
 50
249.274690896
 51
255.5745137914
  0
ARC
  5
7EE
330
1F
100
AcDbEntity
  8
0
  6
Continuous
 62
     7
370
    25
100
AcDbCircle
 10
-0.0096470642
 20
6.7051608365
 30
0.0
 40
0.5605264788786477
100
AcDbArc
 50
259.245741128
 51
263.9109303272
  0
ARC
  5
7EF
330
1F
100
AcDbEntity
  8
0
  6
Continuous
 62
     7
370
    25
100
AcDbCircle
 10
-0.0001877926
 20
6.8014659532
 30
0.0
 40
0.6573229794333378
100
AcDbArc
 50
267.4236846128
 51
268.3002666013
  0
ARC
  5
7F0
330
1F
100
AcDbEntity
  8
0
  6
Continuous
 62
     7
370
    25
100
AcDbCircle
 10
0.2416803248
 20
6.2105157905
 30
0.0
 40
0.0963161031969112
100
AcDbArc
 50
28.6995823135
 51
49.2400731156
  0
ARC
  5
7F1
330
1F
100
AcDbEntity
  8
0
  6
Continuous
 62
     7
370
    25
100
AcDbCircle
 10
-0.2437142971
 20
6.2120556731
 30
0.0
 40
0.093793293022027
100
AcDbArc
 50
131.4171891396
 51
151.5288369251
  0
ARC
  5
7F2
330
1F
100
AcDbEntity
  8
0
  6
Continuous
 62
     7
370
    25
100
AcDbCircle
 10
-0.3248253314
 20
6.2633479242
 30
0.0
 40
0.0063815351272465
100
AcDbArc
 50
322.6611775097
 51
0.5638983568
  0
ARC
  5
7F3
330
1F
100
AcDbEntity
  8
0
  6
Continuous
 62
     7
370
    25
100
AcDbCircle
 10
0.3249340373
 20
6.263383987
 30
0.0
 40
0.0064898880712613
100
AcDbArc
 50
179.7638349899
 51
217.0103976035
  0
ARC
  5
7F4
330
1F
100
AcDbEntity
  8
0
  6
Continuous
 62
     7
370
    25
100
AcDbCircle
 10
-0.2005521702
 20
6.212472102
 30
0.0
 40
0.0842031382296816
100
AcDbArc
 50
133.6317680196
 51
144.3748557356
  0
ARC
  5
7F5
330
1F
100
AcDbEntity
  8
0
  6
Continuous
 62
     7
370
    25
100
AcDbCircle
 10
-0.3832572494
 20
6.2254373767
 30
0.0
 40
0.0324695303104436
100
AcDbArc
 50
343.2347971151
 51
1.6097133351
  0
ARC
  5
7F6
330
1F
100
AcDbEntity
  8
0
  6
Continuous
 62
     7
370
    25
100
AcDbCircle
 10
-0.3518734969
 20
6.2241514582
 30
0.0
 40
0.0080852882082887
100
AcDbArc
 50
182.5852828142
 51
267.9136912754
  0
ARC
  5
7F7
330
1F
100
AcDbEntity
  8
0
  6
Continuous
 62
     7
370
    25
100
AcDbCircle
 10
-0.3529352
 20
6.2163550373
 30
0.0
 40
0.0102198688631454
100
AcDbArc
 50
77.9436115565
 51
133.3491840893
  0
ARC
  5
7F8
330
1F
100
AcDbEntity
  8
0
  6
Continuous
 62
     7
370
    25
100
AcDbCircle
 10
0.3832572494
 20
6.2254373766
 30
0.0
 40
0.0324695302973566
100
AcDbArc
 50
178.390286675
 51
196.7652028873
  0
ARC
  5
7F9
330
1F
100
AcDbEntity
  8
0
  6
Continuous
 62
     7
370
    25
100
AcDbCircle
 10
0.3529352
 20
6.2163550374
 30
0.0
 40
0.0102198688201713
100
AcDbArc
 50
46.6508158414
 51
102.0563886125
  0
ARC
  5
7FA
330
1F
100
AcDbEntity
  8
0
  6
Continuous
 62
     7
370
    25
100
AcDbCircle
 10
0.3518734969
 20
6.2241514582
 30
0.0
 40
0.0080852882082976
100
AcDbArc
 50
272.0863087247
 51
357.4147171857
  0
ARC
  5
7FB
330
1F
100
AcDbEntity
  8
0
  6
Continuous
 62
     7
370
    25
100
AcDbCircle
 10
-0.3599879876
 20
6.2238342073
 30
0.0
 40
0.0324695302967032
100
AcDbArc
 50
343.2347971123
 51
1.6097133249
  0
ARC
  5
7FC
330
1F
100
AcDbEntity
  8
0
  6
Continuous
 62
     7
370
    25
100
AcDbCircle
 10
0.3599879877
 20
6.2238342074
 30
0.0
 40
0.0324695303123047
100
AcDbArc
 50
178.3902866657
 51
196.7652028846
  0
ARC
  5
7FD
330
1F
100
AcDbEntity
  8
0
  6
Continuous
 62
     7
370
    25
100
AcDbCircle
 10
-0.3224677673
 20
6.2434207436
 30
0.0
 40
0.001443754997265
100
AcDbArc
 50
1.5834650416
 51
38.2168319111
  0
ARC
  5
7FE
330
1F
100
AcDbEntity
  8
0
  6
Continuous
 62
     7
370
    25
100
AcDbCircle
 10
0.322468266
 20
6.243420552
 30
0.0
 40
0.0014442586246726
100
AcDbArc
 50
141.7891386958
 51
178.4097330289
  0
ARC
  5
7FF
330
1F
100
AcDbEntity
  8
0
  6
Continuous
 62
     7
370
    25
100
AcDbCircle
 10
-0.2998602623
 20
6.1949325039
 30
0.0
 40
0.0564175611131293
100
AcDbArc
 50
157.9949227748
 51
202.0050772252
  0
ARC
  5
800
330
1F
100
AcDbEntity
  8
0
  6
Continuous
 62
     7
370
    25
100
AcDbCircle
 10
0.2998602623
 20
6.1949325039
 30
0.0
 40
0.0564175611131279
100
AcDbArc
 50
337.9949227748
 51
22.0050772252
  0
ARC
  5
801
330
1F
100
AcDbEntity
  8
0
  6
Continuous
 62
     7
370
    25
100
AcDbCircle
 10
0.2800190296
 20
6.1949325039
 30
0.0
 40
0.0526389595811833
100
AcDbArc
 50
338.2147235198
 51
21.7852764802
  0
ARC
  5
802
330
1F
100
AcDbEntity
  8
0
  6
Continuous
 62
     7
370
    25
100
AcDbCircle
 10
-0.2800190296
 20
6.1949325039
 30
0.0
 40
0.0526389595812018
100
AcDbArc
 50
158.2147235198
 51
201.7852764802
  0
ARC
  5
803
330
1F
100
AcDbEntity
  8
0
  6
Continuous
 62
     7
370
    25
100
AcDbCircle
 10
-0.3291860646
 20
6.1834718346
 30
0.0
 40
0.0080803028468326
100
AcDbArc
 50
272.0389296464
 51
357.4128932874
  0
ARC
  5
804
330
1F
100
AcDbEntity
  8
0
  6
Continuous
 62
     7
370
    25
100
AcDbCircle
 10
0.3291860646
 20
6.1834718346
 30
0.0
 40
0.0080803028468326
100
AcDbArc
 50
182.5871067126
 51
267.9610703536
  0
ARC
  5
805
330
1F
100
AcDbEntity
  8
0
  6
Continuous
 62
     7
370
    25
100
AcDbCircle
 10
0.2140352991
 20
6.2768622511
 30
0.0
 40
0.1334667107378785
100
AcDbArc
 50
298.126030359
 51
323.2848507511
  0
ARC
  5
806
330
1F
100
AcDbEntity
  8
0
  6
Continuous
 62
     7
370
    25
100
AcDbCircle
 10
0.2798743805
 20
6.1681711922
 30
0.0
 40
0.0094764186550647
100
AcDbArc
 50
180.3767708916
 51
252.0456497763
  0
ARC
  5
807
330
1F
100
AcDbEntity
  8
0
  6
Continuous
 62
     7
370
    25
100
AcDbCircle
 10
-0.2798728903
 20
6.168170233
 30
0.0
 40
0.0094750061062116
100
AcDbArc
 50
287.9476454026
 51
359.6291058713
  0
ARC
  5
808
330
1F
100
AcDbEntity
  8
0
  6
Continuous
 62
     7
370
    25
100
AcDbCircle
 10
-0.2093907567
 20
6.2822611317
 30
0.0
 40
0.1404260763240162
100
AcDbArc
 50
217.3480559799
 51
241.2411268566
  0
ARC
  5
809
330
1F
100
AcDbEntity
  8
0
  6
Continuous
 62
     7
370
    25
100
AcDbCircle
 10
0.204107223
 20
6.3148276282
 30
0.0
 40
0.185502922265706
100
AcDbArc
 50
299.803898827
 51
311.1048408073
  0
ARC
  5
80A
330
1F
100
AcDbEntity
  8
0
  6
Continuous
 62
     7
370
    25
100
AcDbCircle
 10
-0.204107223
 20
6.3148276283
 30
0.0
 40
0.185502922293445
100
AcDbArc
 50
228.8951591932
 51
240.1961011773
  0
ARC
  5
80B
330
1F
100
AcDbEntity
  8
0
  6
Continuous
 62
     7
370
    25
100
AcDbCircle
 10
-0.2606051986
 20
6.12718592
 30
0.0
 40
0.0118404956048127
100
AcDbArc
 50
177.7838094189
 51
231.842921145
  0
ARC
  5
80C
330
1F
100
AcDbEntity
  8
0
  6
Continuous
 62
     7
370
    25
100
AcDbCircle
 10
-0.2680206891
 20
6.1115064502
 30
0.0
 40
0.0167306974903797
100
AcDbArc
 50
67.3555325217
 51
105.3048589083
  0
ARC
  5
80D
330
1F
100
AcDbEntity
  8
0
  6
Continuous
 62
     7
370
    25
100
AcDbCircle
 10
-0.2712418366
 20
6.1269494036
 30
0.0
 40
0.0096626622238597
100
AcDbArc
 50
290.1043009246
 51
359.9881574341
  0
ARC
  5
80E
330
1F
100
AcDbEntity
  8
0
  6
Continuous
 62
     7
370
    25
100
AcDbCircle
 10
0.2606051986
 20
6.12718592
 30
0.0
 40
0.0118404956071275
100
AcDbArc
 50
308.1570788588
 51
2.2161906157
  0
ARC
  5
80F
330
1F
100
AcDbEntity
  8
0
  6
Continuous
 62
     7
370
    25
100
AcDbCircle
 10
0.2712418366
 20
6.1269494036
 30
0.0
 40
0.0096626622238597
100
AcDbArc
 50
180.0118425659
 51
249.8956990754
  0
ARC
  5
810
330
1F
100
AcDbEntity
  8
0
  6
Continuous
 62
     7
370
    25
100
AcDbCircle
 10
0.2680206892
 20
6.1115064501
 30
0.0
 40
0.0167306975836504
100
AcDbArc
 50
74.6951412456
 51
112.6444674146
  0
ARC
  5
811
330
1F
100
AcDbEntity
  8
0
  6
Continuous
 62
     7
370
    25
100
AcDbCircle
 10
0.2680206928
 20
6.133250256
 30
0.0
 40
0.016731080726215
100
AcDbArc
 50
74.6955342901
 51
112.6439884661
  0
ARC
  5
812
330
1F
100
AcDbEntity
  8
0
  6
Continuous
 62
     7
370
    25
100
AcDbCircle
 10
-0.2680206651
 20
6.1332507544
 30
0.0
 40
0.0167306078492543
100
AcDbArc
 50
67.3554513114
 51
105.3050094317
  0
ARC
  5
813
330
1F
100
AcDbEntity
  8
0
  6
Continuous
 62
     7
370
    25
100
AcDbCircle
 10
0.2799603095
 20
6.1218904995
 30
0.0
 40
0.0118404956048591
100
AcDbArc
 50
308.1570788551
 51
2.2161905812
  0
ARC
  5
814
330
1F
100
AcDbEntity
  8
0
  6
Continuous
 62
     7
370
    25
100
AcDbCircle
 10
-0.2799603095
 20
6.1218904995
 30
0.0
 40
0.0118404956070862
100
AcDbArc
 50
177.7838093841
 51
231.8429211414
  0
ARC
  5
815
330
1F
100
AcDbEntity
  8
0
  6
Continuous
 62
     7
370
    25
100
AcDbCircle
 10
0.0985301558
 20
6.4471011913
 30
0.0
 40
0.3702467270900537
100
AcDbArc
 50
285.4579380966
 51
297.226331519
  0
ARC
  5
816
330
1F
100
AcDbEntity
  8
0
  6
Continuous
 62
     7
370
    25
100
AcDbCircle
 10
0.2041264141
 20
6.0995489384
 30
0.0
 40
0.0115895953633003
100
AcDbArc
 50
177.9008738102
 51
233.3749615138
  0
ARC
  5
817
330
1F
100
AcDbEntity
  8
0
  6
Continuous
 62
     7
370
    25
100
AcDbCircle
 10
-0.2041264141
 20
6.0995489384
 30
0.0
 40
0.0115895953633003
100
AcDbArc
 50
306.6250384862
 51
2.0991261898
  0
ARC
  5
818
330
1F
100
AcDbEntity
  8
0
  6
Continuous
 62
     7
370
    25
100
AcDbCircle
 10
-0.0985301558
 20
6.4471011913
 30
0.0
 40
0.3702467270931895
100
AcDbArc
 50
242.7736684811
 51
254.5420619034
  0
ARC
  5
819
330
1F
100
AcDbEntity
  8
0
  6
Continuous
 62
     7
370
    25
100
AcDbCircle
 10
-0.1055010706
 20
6.4649418862
 30
0.0
 40
0.3964855865326288
100
AcDbArc
 50
242.7119373691
 51
254.6037930154
  0
ARC
  5
81A
330
1F
100
AcDbEntity
  8
0
  6
Continuous
 62
     7
370
    25
100
AcDbCircle
 10
0.1055010706
 20
6.4649418862
 30
0.0
 40
0.3964855865322263
100
AcDbArc
 50
285.3962069846
 51
297.2880626309
  0
ARC
  5
81B
330
1F
100
AcDbEntity
  8
0
  6
Continuous
 62
     7
370
    25
100
AcDbCircle
 10
0.2122325811
 20
6.0851109217
 30
0.0
 40
0.0028353385318513
100
AcDbArc
 50
238.8269052667
 51
284.3387000572
  0
ARC
  5
81C
330
1F
100
AcDbEntity
  8
0
  6
Continuous
 62
     7
370
    25
100
AcDbCircle
 10
-0.2122325811
 20
6.0851109217
 30
0.0
 40
0.0028353385318513
100
AcDbArc
 50
255.6612999428
 51
301.1730947333
  0
ARC
  5
81D
330
1F
100
AcDbEntity
  8
0
  6
Continuous
 62
     7
370
    25
100
AcDbCircle
 10
0.1920551094
 20
6.1322765833
 30
0.0
 40
0.0121151243689238
100
AcDbArc
 50
177.6756140707
 51
230.2751236131
  0
ARC
  5
81E
330
1F
100
AcDbEntity
  8
0
  6
Continuous
 62
     7
370
    25
100
AcDbCircle
 10
-0.1920567526
 20
6.1322773281
 30
0.0
 40
0.0121167433883024
100
AcDbArc
 50
309.7286174324
 51
2.3205701898
  0
ARC
  5
81F
330
1F
100
AcDbEntity
  8
0
  6
Continuous
 62
     7
370
    25
100
AcDbCircle
 10
0.0149007323
 20
6.7930576651
 30
0.0
 40
0.6911823758340985
100
AcDbArc
 50
274.1987788604
 51
284.1879810976
  0
ARC
  5
820
330
1F
100
AcDbEntity
  8
0
  6
Continuous
 62
     7
370
    25
100
AcDbCircle
 10
0.0927597472
 20
6.1130962384
 30
0.0
 40
0.0288172113450345
100
AcDbArc
 50
178.2130293736
 51
198.9660966019
  0
ARC
  5
821
330
1F
100
AcDbEntity
  8
0
  6
Continuous
 62
     7
370
    25
100
AcDbCircle
 10
-0.0927536564
 20
6.1130954165
 30
0.0
 40
0.0288111701939882
100
AcDbArc
 50
341.0315928373
 51
1.7890575986
  0
ARC
  5
822
330
1F
100
AcDbEntity
  8
0
  6
Continuous
 62
     7
370
    25
100
AcDbCircle
 10
-0.0149021606
 20
6.7930501905
 30
0.0
 40
0.691174774001863
100
AcDbArc
 50
255.811981714
 51
265.8012935929
  0
ARC
  5
823
330
1F
100
AcDbEntity
  8
0
  6
Continuous
 62
     7
370
    25
100
AcDbCircle
 10
0.0152588139
 20
6.8385773236
 30
0.0
 40
0.7459216788068824
100
AcDbArc
 50
274.1785287819
 51
283.6907068184
  0
ARC
  5
824
330
1F
100
AcDbEntity
  8
0
  6
Continuous
 62
     7
370
    25
100
AcDbCircle
 10
-0.0152295573
 20
6.8388228192
 30
0.0
 40
0.7461686537197836
100
AcDbArc
 50
256.332394264
 51
265.820604222
  0
ARC
  5
825
330
1F
100
AcDbEntity
  8
0
  6
Continuous
 62
     7
370
    25
100
AcDbCircle
 10
-0.0496055973
 20
6.0745672348
 30
0.0
 40
0.0081551001800337
100
AcDbArc
 50
182.5534744341
 51
267.240542324
  0
ARC
  5
826
330
1F
100
AcDbEntity
  8
0
  6
Continuous
 62
     7
370
    25
100
AcDbCircle
 10
-0.0507988069
 20
6.0666001377
 30
0.0
 40
0.0103040089563649
100
AcDbArc
 50
78.8986394652
 51
132.4435027719
  0
ARC
  5
827
330
1F
100
AcDbEntity
  8
0
  6
Continuous
 62
     7
370
    25
100
AcDbCircle
 10
-0.0861094181
 20
6.0757875433
 30
0.0
 40
0.0373060388441867
100
AcDbArc
 50
345.4599149052
 51
1.4189392763
  0
ARC
  5
828
330
1F
100
AcDbEntity
  8
0
  6
Continuous
 62
     7
370
    25
100
AcDbCircle
 10
0.0496055973
 20
6.0745672348
 30
0.0
 40
0.0081551001789453
100
AcDbArc
 50
272.7594576717
 51
357.4465256332
  0
ARC
  5
829
330
1F
100
AcDbEntity
  8
0
  6
Continuous
 62
     7
370
    25
100
AcDbCircle
 10
0.0861094181
 20
6.0757875433
 30
0.0
 40
0.0373060388441867
100
AcDbArc
 50
178.5810607237
 51
194.5400850948
  0
ARC
  5
82A
330
1F
100
AcDbEntity
  8
0
  6
Continuous
 62
     7
370
    25
100
AcDbCircle
 10
0.0507988069
 20
6.0666001376
 30
0.0
 40
0.0103040089960314
100
AcDbArc
 50
47.5564973974
 51
101.1013604672
  0
ARC
  5
82B
330
1F
100
AcDbEntity
  8
0
  6
Continuous
 62
     7
370
    25
100
AcDbCircle
 10
-0.8859381492
 20
6.0743136595
 30
0.0
 40
0.8839131965383884
100
AcDbArc
 50
359.3928820303
 51
0.0621422566
  0
ARC
  5
82C
330
1F
100
AcDbEntity
  8
0
  6
Continuous
 62
     7
370
    25
100
AcDbCircle
 10
-0.0001120499
 20
6.9086199922
 30
0.0
 40
0.843674567664442
100
AcDbArc
 50
266.6101449095
 51
269.8667205214
  0
ARC
  5
82D
330
1F
100
AcDbEntity
  8
0
  6
Continuous
 62
     7
370
    25
100
AcDbCircle
 10
0.0000800954
 20
6.9094335204
 30
0.0
 40
0.844488561985545
100
AcDbArc
 50
269.8538125247
 51
273.38875563
  0
ARC
  5
82E
330
1F
100
AcDbEntity
  8
0
  6
Continuous
 62
     7
370
    25
100
AcDbCircle
 10
0.0507987298
 20
6.0883441333
 30
0.0
 40
0.0103042111786565
100
AcDbArc
 50
47.5570214762
 51
101.1007183848
  0
ARC
  5
82F
330
1F
100
AcDbEntity
  8
0
  6
Continuous
 62
     7
370
    25
100
AcDbCircle
 10
-0.050798822
 20
6.0883444511
 30
0.0
 40
0.0103039153054765
100
AcDbArc
 50
78.8984399931
 51
132.44379748
  0
ARC
  5
830
330
1F
100
AcDbEntity
  8
0
  6
Continuous
 62
     7
370
    25
100
AcDbCircle
 10
0.053708596
 20
6.0654752099
 30
0.0
 40
0.008155100179979
100
AcDbArc
 50
272.7594576754
 51
357.4465255662
  0
ARC
  5
831
330
1F
100
AcDbEntity
  8
0
  6
Continuous
 62
     7
370
    25
100
AcDbCircle
 10
-0.053708596
 20
6.0654752099
 30
0.0
 40
0.0081551001790353
100
AcDbArc
 50
182.5534743674
 51
267.240542328
  0
ARC
  5
832
330
1F
100
AcDbEntity
  8
0
  6
Continuous
 62
     7
370
    25
100
AcDbCircle
 10
0.0001201697
 20
6.9592124289
 30
0.0
 40
0.9034969014395575
100
AcDbArc
 50
270.1076544987
 51
273.4252786789
  0
ARC
  5
833
330
1F
100
AcDbEntity
  8
0
  6
Continuous
 62
     7
370
    25
100
AcDbCircle
 10
-0.000091592
 20
6.9599325505
 30
0.0
 40
0.9042174441373282
100
AcDbArc
 50
266.5756400046
 51
270.1209870283
  0
ARC
  5
834
330
1F
100
AcDbEntity
  8
0
  6
Continuous
 62
     7
370
    25
100
AcDbCircle
 10
0.0137672735
 20
6.8426742238
 30
0.0
 40
0.782339944054713
100
AcDbArc
 50
273.4953879272
 51
284.1547676492
  0
ARC
  5
835
330
1F
100
AcDbEntity
  8
0
  6
Continuous
 62
     7
370
    25
100
AcDbCircle
 10
-0.0137672735
 20
6.8426742238
 30
0.0
 40
0.7823399440551084
100
AcDbArc
 50
255.8452323508
 51
266.5046120728
  0
ARC
  5
836
330
1F
100
AcDbEntity
  8
0
  6
Continuous
 62
     8
370
    25
100
AcDbCircle
 10
0.0198873016
 20
6.3415780246
 30
0.0
 40
0.0353886934961311
100
AcDbArc
 50
345.195493416
 51
359.7300231645
  0
ARC
  5
837
330
1F
100
AcDbEntity
  8
0
  6
Continuous
 62
     8
370
    25
100
AcDbCircle
 10
-0.0198873016
 20
6.3415780246
 30
0.0
 40
0.035388693490637
100
AcDbArc
 50
180.2699768344
 51
194.8045065852
  0
ARC
  5
838
330
1F
100
AcDbEntity
  8
0
  6
Continuous
 62
     8
370
    25
100
AcDbCircle
 10
-0.0548157784
 20
6.339684811
 30
0.0
 40
0.00718499068048
100
AcDbArc
 50
205.9151182387
 51
275.7076927548
  0
ARC
  5
839
330
1F
100
AcDbEntity
  8
0
  6
Continuous
 62
     8
370
    25
100
AcDbCircle
 10
0.0548739997
 20
6.3395805876
 30
0.0
 40
0.0070874033282971
100
AcDbArc
 50
263.7401658282
 51
334.6370231783
  0
ARC
  5
83A
330
1F
100
AcDbEntity
  8
0
  6
Continuous
 62
     8
370
    25
100
AcDbCircle
 10
-0.050771001
 20
6.3304885627
 30
0.0
 40
0.0070874033264545
100
AcDbArc
 50
205.3629768103
 51
276.2598341823
  0
ARC
  5
83B
330
1F
100
AcDbEntity
  8
0
  6
Continuous
 62
     8
370
    25
100
AcDbCircle
 10
0.0507127797
 20
6.3305927861
 30
0.0
 40
0.0071849906807384
100
AcDbArc
 50
264.2923072467
 51
334.0848817598
  0
ARC
  5
83C
330
1F
100
AcDbEntity
  8
0
  6
Continuous
 62
     8
370
    25
100
AcDbCircle
 10
0.2106791966
 20
6.3020117102
 30
0.0
 40
0.0155436956839739
100
AcDbArc
 50
81.0998291657
 51
114.1699186571
  0
ARC
  5
83D
330
1F
100
AcDbEntity
  8
0
  6
Continuous
 62
     8
370
    25
100
AcDbCircle
 10
0.2038389017
 20
6.3164677597
 30
0.0
 40
0.011585855039121
100
AcDbArc
 50
306.7125725995
 51
1.3571300633
  0
ARC
  5
83E
330
1F
100
AcDbEntity
  8
0
  6
Continuous
 62
     8
370
    25
100
AcDbCircle
 10
-0.2038389017
 20
6.3164677597
 30
0.0
 40
0.0115858550391207
100
AcDbArc
 50
178.6428699367
 51
233.2874274006
  0
ARC
  5
83F
330
1F
100
AcDbEntity
  8
0
  6
Continuous
 62
     8
370
    25
100
AcDbCircle
 10
-0.2106791966
 20
6.3020117101
 30
0.0
 40
0.0155436958389559
100
AcDbArc
 50
65.8300815697
 51
98.900170718
  0
ARC
  5
840
330
1F
100
AcDbEntity
  8
0
  6
Continuous
 62
     8
370
    25
100
AcDbCircle
 10
-0.1914663398
 20
6.3066051427
 30
0.0
 40
0.0021438734936679
100
AcDbArc
 50
6.9739658217
 51
70.8293228481
  0
ARC
  5
841
330
1F
100
AcDbEntity
  8
0
  6
Continuous
 62
     8
370
    25
100
AcDbCircle
 10
-0.1957433051
 20
6.3020545493
 30
0.0
 40
0.0028456766941412
100
AcDbArc
 50
238.919945136
 51
284.3937319584
  0
ARC
  5
842
330
1F
100
AcDbEntity
  8
0
  6
Continuous
 62
     8
370
    25
100
AcDbCircle
 10
0.1957433051
 20
6.3020545493
 30
0.0
 40
0.0028456766941412
100
AcDbArc
 50
255.6062680416
 51
301.080054864
  0
ARC
  5
843
330
1F
100
AcDbEntity
  8
0
  6
Continuous
 62
     8
370
    25
100
AcDbCircle
 10
0.1914663398
 20
6.3066051427
 30
0.0
 40
0.0021438735186784
100
AcDbArc
 50
109.1706775994
 51
173.0260340032
  0
ARC
  5
844
330
1F
100
AcDbEntity
  8
0
  6
Continuous
 62
     8
370
    25
100
AcDbCircle
 10
-0.2345366297
 20
6.2390240328
 30
0.0
 40
0.0489726961978734
100
AcDbArc
 50
137.2747482076
 51
219.2581286929
  0
ARC
  5
845
330
1F
100
AcDbEntity
  8
0
  6
Continuous
 62
     8
370
    25
100
AcDbCircle
 10
0.2337127216
 20
6.2389786921
 30
0.0
 40
0.0495850811262942
100
AcDbArc
 50
321.3849103255
 51
41.5507463734
  0
ARC
  5
846
330
1F
100
AcDbEntity
  8
0
  6
Continuous
 62
     8
370
    25
100
AcDbCircle
 10
-0.0229837376
 20
5.826779807
 30
0.0
 40
0.5134881223478209
100
AcDbArc
 50
94.3478810846
 51
108.9031659473
  0
ARC
  5
847
330
1F
100
AcDbEntity
  8
0
  6
Continuous
 62
     8
370
    25
100
AcDbCircle
 10
0.0224820754
 20
5.8243414144
 30
0.0
 40
0.5159576259590714
100
AcDbArc
 50
71.1318538685
 51
85.6170990995
  0
ARC
  5
848
330
1F
100
AcDbEntity
  8
0
  6
Continuous
 62
     8
370
    25
100
AcDbCircle
 10
0.2070808379
 20
6.2202269616
 30
0.0
 40
0.0743015934809409
100
AcDbArc
 50
18.1288165483
 51
54.0599061883
  0
ARC
  5
849
330
1F
100
AcDbEntity
  8
0
  6
Continuous
 62
     8
370
    25
100
AcDbCircle
 10
0.2209003696
 20
6.2271561106
 30
0.0
 40
0.047995373954025
100
AcDbArc
 50
310.8888826085
 51
22.9501650469
  0
ARC
  5
84A
330
1F
100
AcDbEntity
  8
0
  6
Continuous
 62
     8
370
    25
100
AcDbCircle
 10
-0.2181678907
 20
6.2271515695
 30
0.0
 40
0.0501461102073076
100
AcDbArc
 50
145.4641934018
 51
231.6838982008
  0
ARC
  5
84B
330
1F
100
AcDbEntity
  8
0
  6
Continuous
 62
     8
370
    25
100
AcDbCircle
 10
-0.2887222277
 20
6.2795539888
 30
0.0
 40
0.0026909813325103
100
AcDbArc
 50
256.4324816854
 51
302.5193304648
  0
ARC
  5
84C
330
1F
100
AcDbEntity
  8
0
  6
Continuous
 62
     8
370
    25
100
AcDbCircle
 10
-0.2929535385
 20
6.2842415775
 30
0.0
 40
0.0022153273058101
100
AcDbArc
 50
107.6229059103
 51
172.4410383153
  0
ARC
  5
84D
330
1F
100
AcDbEntity
  8
0
  6
Continuous
 62
     8
370
    25
100
AcDbCircle
 10
0.2887222277
 20
6.2795539888
 30
0.0
 40
0.0026909813324307
100
AcDbArc
 50
237.4806695345
 51
283.5675183153
  0
ARC
  5
84E
330
1F
100
AcDbEntity
  8
0
  6
Continuous
 62
     8
370
    25
100
AcDbCircle
 10
-0.2693671168
 20
6.2742585682
 30
0.0
 40
0.0026909813324471
100
AcDbArc
 50
256.4324816857
 51
302.5193304654
  0
ARC
  5
84F
330
1F
100
AcDbEntity
  8
0
  6
Continuous
 62
     8
370
    25
100
AcDbCircle
 10
0.2693671168
 20
6.2742585682
 30
0.0
 40
0.0026909813330668
100
AcDbArc
 50
237.4806695403
 51
283.5675183107
  0
ARC
  5
850
330
1F
100
AcDbEntity
  8
0
  6
Continuous
 62
     8
370
    25
100
AcDbCircle
 10
-0.3254387927
 20
6.2639958578
 30
0.0
 40
0.0072636738364311
100
AcDbArc
 50
264.2703246327
 51
321.532595286
  0
ARC
  5
851
330
1F
100
AcDbEntity
  8
0
  6
Continuous
 62
     8
370
    25
100
AcDbCircle
 10
0.3282458097
 20
6.2217033754
 30
0.0
 40
0.0072644030823593
100
AcDbArc
 50
203.0300178496
 51
275.1554773405
  0
ARC
  5
852
330
1F
100
AcDbEntity
  8
0
  6
Continuous
 62
     8
370
    25
100
AcDbCircle
 10
-0.3282458097
 20
6.2217033754
 30
0.0
 40
0.0072644030823592
100
AcDbArc
 50
264.8445226595
 51
336.9699821504
  0
ARC
  5
853
330
1F
100
AcDbEntity
  8
0
  6
Continuous
 62
     8
370
    25
100
AcDbCircle
 10
-0.3271840721
 20
6.2375667987
 30
0.0
 40
0.0089304709696579
100
AcDbArc
 50
49.0704254032
 51
92.2281166256
  0
ARC
  5
854
330
1F
100
AcDbEntity
  8
0
  6
Continuous
 62
     8
370
    25
100
AcDbCircle
 10
0.3271842939
 20
6.2375661866
 30
0.0
 40
0.008931073522786
100
AcDbArc
 50
87.7734566169
 51
130.9280222652
  0
ARC
  5
855
330
1F
100
AcDbEntity
  8
0
  6
Continuous
 62
     8
370
    25
100
AcDbCircle
 10
-0.3528247593
 20
6.1810229824
 30
0.0
 40
0.0072592886068562
100
AcDbArc
 50
203.2242903106
 51
275.1919967151
  0
ARC
  5
856
330
1F
100
AcDbEntity
  8
0
  6
Continuous
 62
     8
370
    25
100
AcDbCircle
 10
0.3528247593
 20
6.1810229824
 30
0.0
 40
0.0072592886068562
100
AcDbArc
 50
264.8080032849
 51
336.7757096894
  0
ARC
  5
857
330
1F
100
AcDbEntity
  8
0
  6
Continuous
 62
     8
370
    25
100
AcDbCircle
 10
0.326610183
 20
6.2137708335
 30
0.0
 40
0.0081731409992716
100
AcDbArc
 50
182.3821995035
 51
256.2584380178
  0
ARC
  5
858
330
1F
100
AcDbEntity
  8
0
  6
Continuous
 62
     8
370
    25
100
AcDbCircle
 10
-0.3266112373
 20
6.2137717959
 30
0.0
 40
0.0081741357827953
100
AcDbArc
 50
283.7475704221
 51
357.6112844884
  0
ARC
  5
859
330
1F
100
AcDbEntity
  8
0
  6
Continuous
 62
     8
370
    25
100
AcDbCircle
 10
0.2977592454
 20
6.1587538915
 30
0.0
 40
0.0051038270678395
100
AcDbArc
 50
253.483863296
 51
303.3602273146
  0
ARC
  5
85A
330
1F
100
AcDbEntity
  8
0
  6
Continuous
 62
     8
370
    25
100
AcDbCircle
 10
-0.2887666363
 20
6.1171925495
 30
0.0
 40
0.0048474788673274
100
AcDbArc
 50
242.8732059108
 51
287.914069461
  0
ARC
  5
85B
330
1F
100
AcDbEntity
  8
0
  6
Continuous
 62
     8
370
    25
100
AcDbCircle
 10
-0.2915068899
 20
6.1184717897
 30
0.0
 40
0.0038870503859053
100
AcDbArc
 50
94.2055914886
 51
159.5772791269
  0
ARC
  5
85C
330
1F
100
AcDbEntity
  8
0
  6
Continuous
 62
     8
370
    25
100
AcDbCircle
 10
0.2915068899
 20
6.1184717897
 30
0.0
 40
0.0038870503514385
100
AcDbArc
 50
20.4227206856
 51
85.7944088859
  0
ARC
  5
85D
330
1F
100
AcDbEntity
  8
0
  6
Continuous
 62
     8
370
    25
100
AcDbCircle
 10
0.2887666363
 20
6.1171925495
 30
0.0
 40
0.0048474788679793
100
AcDbArc
 50
252.0859305422
 51
297.126794086
  0
ARC
  5
85E
330
1F
100
AcDbEntity
  8
0
  6
Continuous
 62
     8
370
    25
100
AcDbCircle
 10
0.2915068899
 20
6.1402159989
 30
0.0
 40
0.0038870503858916
100
AcDbArc
 50
20.422720873
 51
85.7944085116
  0
ARC
  5
85F
330
1F
100
AcDbEntity
  8
0
  6
Continuous
 62
     8
370
    25
100
AcDbCircle
 10
-0.2915067154
 20
6.1402157596
 30
0.0
 40
0.0038872988759959
100
AcDbArc
 50
94.2078325969
 51
159.5748146546
  0
ARC
  5
860
330
1F
100
AcDbEntity
  8
0
  6
Continuous
 62
     8
370
    25
100
AcDbCircle
 10
0.1957388637
 20
6.0950214261
 30
0.0
 40
0.0049960263190394
100
AcDbArc
 50
241.7667342536
 51
287.1533627222
  0
ARC
  5
861
330
1F
100
AcDbEntity
  8
0
  6
Continuous
 62
     8
370
    25
100
AcDbCircle
 10
-0.1957388637
 20
6.0950214261
 30
0.0
 40
0.0049960263180993
100
AcDbArc
 50
252.8466372733
 51
298.2332657509
  0
ARC
  5
862
330
1F
100
AcDbEntity
  8
0
  6
Continuous
 62
     8
370
    25
100
AcDbCircle
 10
0.2092914583
 20
6.0874587818
 30
0.0
 40
0.0049960263180607
100
AcDbArc
 50
241.7667342485
 51
287.1533627269
  0
ARC
  5
863
330
1F
100
AcDbEntity
  8
0
  6
Continuous
 62
     8
370
    25
100
AcDbCircle
 10
-0.2092914583
 20
6.0874587818
 30
0.0
 40
0.0049960263183095
100
AcDbArc
 50
252.8466372743
 51
298.2332657492
  0
ARC
  5
864
330
1F
100
AcDbEntity
  8
0
  6
Continuous
 62
     8
370
    25
100
AcDbCircle
 10
-0.3484751603
 20
6.194587677
 30
0.0
 40
0.0725035694998699
100
AcDbArc
 50
160.8463585638
 51
222.8003626846
  0
ARC
  5
865
330
1F
100
AcDbEntity
  8
0
  6
Continuous
 62
     8
370
    25
100
AcDbCircle
 10
-0.0169912437
 20
5.5064735966
 30
0.0
 40
0.8687114630695755
100
AcDbArc
 50
88.8792727225
 51
109.120851247
  0
ARC
  5
866
330
1F
100
AcDbEntity
  8
0
  6
Continuous
 62
     8
370
    25
100
AcDbCircle
 10
0.3441280663
 20
6.1953604544
 30
0.0
 40
0.0763684445458778
100
AcDbArc
 50
316.9750971597
 51
17.8316057557
  0
ARC
  5
867
330
1F
100
AcDbEntity
  8
0
  6
Continuous
 62
     8
370
    25
100
AcDbCircle
 10
0.0209686383
 20
5.5346058459
 30
0.0
 40
0.840674578011134
100
AcDbArc
 50
70.0393794972
 51
91.4292558824
  0
ARC
  5
868
330
1F
100
AcDbEntity
  8
0
  6
Continuous
 62
     8
370
    25
100
AcDbCircle
 10
0.3056622928
 20
6.1969548143
 30
0.0
 40
0.0729858768257509
100
AcDbArc
 50
312.7626330125
 51
4.4222703135
  0
ARC
  5
869
330
1F
100
AcDbEntity
  8
0
  6
Continuous
 62
     8
370
    25
100
AcDbCircle
 10
-0.3170851169
 20
6.1946605118
 30
0.0
 40
0.0617988693396631
100
AcDbArc
 50
161.0759493017
 51
214.3025031816
  0
SPLINE
  5
87A
330
1B
100
AcDbEntity
 67
     1
  8
0
  6
Continuous
 62
     7
370
    25
100
AcDbSpline
210
0.0
220
0.0
230
1.0
 70
    11
 71
     3
 72
    70
 73
    66
 74
     0
 42
0.000000001
 43
0.00000001
 40
0.0
 40
0.0
 40
0.0
 40
0.0
 40
0.0312499999999998
 40
0.0312499999999998
 40
0.0624999999999995
 40
0.0624999999999995
 40
0.0937499999999993
 40
0.0937499999999993
 40
0.1249999999999991
 40
0.1249999999999991
 40
0.1562499999999989
 40
0.1562499999999989
 40
0.1874999999999987
 40
0.1874999999999987
 40
0.2187499999999985
 40
0.2187499999999985
 40
0.2499999999999983
 40
0.2499999999999983
 40
0.2812499999999982
 40
0.2812499999999982
 40
0.312499999999998
 40
0.312499999999998
 40
0.3437499999999978
 40
0.3437499999999978
 40
0.3749999999999976
 40
0.3749999999999976
 40
0.4062499999999974
 40
0.4062499999999974
 40
0.4374999999999973
 40
0.4374999999999973
 40
0.4687499999999971
 40
0.4687499999999971
 40
0.499999999999997
 40
0.499999999999997
 40
0.5312499999999968
 40
0.5312499999999968
 40
0.562499999999997
 40
0.562499999999997
 40
0.5937499999999972
 40
0.5937499999999972
 40
0.6249999999999974
 40
0.6249999999999974
 40
0.6562499999999977
 40
0.6562499999999977
 40
0.6874999999999979
 40
0.6874999999999979
 40
0.7187499999999981
 40
0.7187499999999981
 40
0.7499999999999982
 40
0.7499999999999982
 40
0.7812499999999984
 40
0.7812499999999984
 40
0.8124999999999987
 40
0.8124999999999987
 40
0.8437499999999989
 40
0.8437499999999989
 40
0.8749999999999991
 40
0.8749999999999991
 40
0.9062499999999993
 40
0.9062499999999993
 40
0.9374999999999996
 40
0.9374999999999996
 40
0.9687499999999998
 40
0.9687499999999998
 40
1.0
 40
1.0
 40
1.0
 40
1.0
 10
-0.2184361562298505
 20
1.200787401574803
 30
0.0
 10
-0.2184361562298504
 20
1.191407723340383
 30
0.0
 10
-0.2175311940611165
 20
1.182187850652539
 30
0.0
 10
-0.2139866955807236
 20
1.164053690142849
 30
0.0
 10
-0.2113030431670318
 20
1.155044311290572
 30
0.0
 10
-0.2043058548061454
 20
1.137888106598178
 30
0.0
 10
-0.2000243176046333
 20
1.12975352871474
 30
0.0
 10
-0.1899019807616749
 20
1.114358555598915
 30
0.0
 10
-0.1840160562389696
 20
1.107081288155908
 30
0.0
 10
-0.1711455109477294
 20
1.094031315756476
 30
0.0
 10
-0.1641135244151822
 20
1.08816982079257
 30
0.0
 10
-0.1488090535837882
 20
1.077808015569375
 30
0.0
 10
-0.1406705790736008
 20
1.073414300307715
 30
0.0
 10
-0.123782249687368
 20
1.066340609353457
 30
0.0
 10
-0.1149071653181809
 20
1.063611226796154
 30
0.0
 10
-0.096727480219985
 20
1.059964351699657
 30
0.0
 10
-0.0875704714812854
 20
1.059060424843359
 30
0.0
 10
-0.0691235940035724
 20
1.059049857523955
 30
0.0
 10
-0.0597394959201085
 20
1.059973455459947
 30
0.0
 10
-0.0415716116756258
 20
1.063595557748696
 30
0.0
 10
-0.0327271606791316
 20
1.066275356039085
 30
0.0
 10
-0.0155230657417686
 20
1.073385905435065
 30
0.0
 10
-0.0072216098150118
 20
1.077817083202038
 30
0.0
 10
0.0081794890243898
 20
1.088067274789994
 30
0.0
 10
0.0153898783498037
 20
1.093938259190461
 30
0.0
 10
0.0286767714775127
 20
1.107135961114872
 30
0.0
 10
0.034572678289994
 20
1.114276683999165
 30
0.0
 10
0.0449181558346087
 20
1.129608939102774
 30
0.0
 10
0.0494037986122103
 20
1.137901365508114
 30
0.0
 10
0.05658306074833
 20
1.155046301563204
 30
0.0
 10
0.0592974457394774
 20
1.163880148706353
 30
0.0
 10
0.0629747382571989
 20
1.182071813944152
 30
0.0
 10
0.0639161662528864
 20
1.191475320168387
 30
0.0
 10
0.063923444016954
 20
1.209989201782578
 30
0.0
 10
0.0630194890210243
 20
1.219200131078507
 30
0.0
 10
0.0593472793528784
 20
1.237527537933714
 30
0.0
 10
0.0566045467641199
 20
1.246456279538689
 30
0.0
 10
0.0494769220915172
 20
1.263519445459152
 30
0.0
 10
0.0450308394781226
 20
1.271782093566084
 30
0.0
 10
0.0346187254630078
 20
1.287246393070417
 30
0.0
 10
0.0287250115979373
 20
1.294374629808204
 30
0.0
 10
0.0155920766445841
 20
1.307451691262042
 30
0.0
 10
0.0082747424010623
 20
1.313436339106538
 30
0.0
 10
-0.0071510038901053
 20
1.323718438318906
 30
0.0
 10
-0.0153034965155434
 20
1.328080920631813
 30
0.0
 10
-0.0325015303798203
 20
1.335222980595621
 30
0.0
 10
-0.0414925471948773
 20
1.337955846676143
 30
0.0
 10
-0.0595943242326803
 20
1.341579946806023
 30
0.0
 10
-0.0688208260886788
 20
1.342511954448582
 30
0.0
 10
-0.0874805177797596
 20
1.342527320267669
 30
0.0
 10
-0.0966479744542241
 20
1.341615532309062
 30
0.0
 10
-0.1146719905384943
 20
1.33802143280893
 30
0.0
 10
-0.1236231911193147
 20
1.335292222940489
 30
0.0
 10
-0.1406102021874961
 20
1.328194274115785
 30
0.0
 10
-0.1486630133959203
 20
1.323848195995788
 30
0.0
 10
-0.163900877858118
 20
1.313566014177709
 30
0.0
 10
-0.1710804688652213
 20
1.307600941341492
 30
0.0
 10
-0.183953624962721
 20
1.294565227767602
 30
0.0
 10
-0.1897369842730155
 20
1.287442333558523
 30
0.0
 10
-0.199963124996861
 20
1.271938653085854
 30
0.0
 10
-0.2042737836220727
 20
1.263744119600176
 30
0.0
 10
-0.2112417692693607
 20
1.246701656371316
 30
0.0
 10
-0.2139339623756427
 20
1.237744127442405
 30
0.0
 10
-0.2175310742566235
 20
1.21943365768272
 30
0.0
 10
-0.2184361562298504
 20
1.210167079809223
 30
0.0
 10
-0.2184361562298504
 20
1.200787401574803
 30
0.0
  0
LINE
  5
8A6
330
1B
100
AcDbEntity
 67
     1
  8
0
  6
Continuous
 62
     7
370
    25
100
AcDbLine
 10
0.8858267717
 20
0.8070866142
 30
0.0
 11
0.8858267717
 21
1.5748031496
 31
0.0
  0
LINE
  5
8A7
330
1B
100
AcDbEntity
 67
     1
  8
0
  6
Continuous
 62
     7
370
    25
100
AcDbLine
 10
-0.8858267717
 20
1.5748031496
 30
0.0
 11
-0.8858267717
 21
0.8070866142
 31
0.0
  0
LINE
  5
8A8
330
1B
100
AcDbEntity
 67
     1
  8
0
  6
Continuous
 62
     7
370
    25
100
AcDbLine
 10
-0.1876712376
 20
1.2765887449
 30
0.0
 11
-0.2018818298
 21
1.2549312183
 31
0.0
  0
LINE
  5
8A9
330
1B
100
AcDbEntity
 67
     1
  8
0
  6
Continuous
 62
     7
370
    25
100
AcDbLine
 10
-0.2018818298
 20
1.1466435849
 30
0.0
 11
-0.1876712376
 21
1.1249860582
 31
0.0
  0
LINE
  5
8AA
330
1B
100
AcDbEntity
 67
     1
  8
0
  6
Continuous
 62
     7
370
    25
100
AcDbLine
 10
-0.7874015748
 20
-0.0295275591
 30
0.0
 11
0.7874015748
 21
-0.0295275591
 31
0.0
  0
LINE
  5
8AB
330
1B
100
AcDbEntity
 67
     1
  8
0
  6
Continuous
 62
     7
370
    25
100
AcDbLine
 10
0.8858267717
 20
0.0
 30
0.0
 11
0.8858267717
 21
0.7677165354
 31
0.0
  0
LINE
  5
8AC
330
1B
100
AcDbEntity
 67
     1
  8
0
  6
Continuous
 62
     7
370
    25
100
AcDbLine
 10
-0.8858267717
 20
0.7677165354
 30
0.0
 11
-0.8858267717
 21
0.0
 31
0.0
  0
LINE
  5
8AD
330
1B
100
AcDbEntity
 67
     1
  8
0
  6
Continuous
 62
     7
370
    25
100
AcDbLine
 10
-0.4330708661
 20
5.3149606299
 30
0.0
 11
-0.4330708661
 21
5.8070866142
 31
0.0
  0
LINE
  5
8AE
330
1B
100
AcDbEntity
 67
     1
  8
0
  6
Continuous
 62
     7
370
    25
100
AcDbLine
 10
0.4330708661
 20
5.3149606299
 30
0.0
 11
0.4330708661
 21
5.8070866142
 31
0.0
  0
LINE
  5
8AF
330
1B
100
AcDbEntity
 67
     1
  8
0
  6
Continuous
 62
     7
370
    25
100
AcDbLine
 10
-0.8858267717
 20
0.8070866142
 30
0.0
 11
0.8858267717
 21
0.8070866142
 31
0.0
  0
LINE
  5
8B0
330
1B
100
AcDbEntity
 67
     1
  8
0
  6
Continuous
 62
     7
370
    25
100
AcDbLine
 10
-0.8661417323
 20
1.594488189
 30
0.0
 11
0.8661417323
 21
1.594488189
 31
0.0
  0
LINE
  5
8B1
330
1B
100
AcDbEntity
 67
     1
  8
0
  6
Continuous
 62
     7
370
    25
100
AcDbLine
 10
-0.8858267717
 20
0.0
 30
0.0
 11
0.8858267717
 21
0.0
 31
0.0
  0
LINE
  5
8B2
330
1B
100
AcDbEntity
 67
     1
  8
0
  6
Continuous
 62
     7
370
    25
100
AcDbLine
 10
-0.8661417323
 20
0.7874015748
 30
0.0
 11
0.8661417323
 21
0.7874015748
 31
0.0
  0
LINE
  5
8B3
330
1B
100
AcDbEntity
 67
     1
  8
0
  6
Continuous
 62
     7
370
    25
100
AcDbLine
 10
-0.8843307243
 20
0.7752439084
 30
0.0
 11
-0.8837703396
 21
0.8070866142
 31
0.0
  0
LINE
  5
8B4
330
1B
100
AcDbEntity
 67
     1
  8
0
  6
Continuous
 62
     7
370
    25
100
AcDbLine
 10
-0.6783136483
 20
2.7559055118
 30
0.0
 11
0.6783136483
 21
2.7559055118
 31
0.0
  0
LINE
  5
8B5
330
1B
100
AcDbEntity
 67
     1
  8
0
  6
Continuous
 62
     7
370
    25
100
AcDbLine
 10
0.8843307243
 20
0.7752439084
 30
0.0
 11
0.8837703396
 21
0.8070866142
 31
0.0
  0
LINE
  5
8B6
330
1B
100
AcDbEntity
 67
     1
  8
0
  6
Continuous
 62
     7
370
    25
100
AcDbLine
 10
0.4330708661
 20
5.3149606299
 30
0.0
 11
-0.4330708661
 21
5.3149606299
 31
0.0
  0
LINE
  5
8B7
330
1B
100
AcDbEntity
 67
     1
  8
0
  6
Continuous
 62
     7
370
    25
100
AcDbLine
 10
-4.376007798
 20
6.0303331703
 30
0.0
 11
-5.1515512572
 21
6.3595318376
 31
0.0
  0
LINE
  5
8B8
330
1B
100
AcDbEntity
 67
     1
  8
0
  6
Continuous
 62
     7
370
    25
100
AcDbLine
 10
-4.3605207588
 20
6.0365903402
 30
0.0
 11
-5.1578084271
 21
6.3750188767
 31
0.0
  0
LINE
  5
8B9
330
1B
100
AcDbEntity
 67
     1
  8
0
  6
Continuous
 62
     7
370
    25
100
AcDbLine
 10
-0.4330708661
 20
5.8070866142
 30
0.0
 11
0.4330708661
 21
5.8070866142
 31
0.0
  0
LINE
  5
8BA
330
1B
100
AcDbEntity
 67
     1
  8
0
  6
Continuous
 62
     7
370
    25
100
AcDbLine
 10
-4.1379818039
 20
6.5608592636
 30
0.0
 11
-4.9352694722
 21
6.8992878001
 31
0.0
  0
LINE
  5
8BB
330
1B
100
AcDbEntity
 67
     1
  8
0
  6
Continuous
 62
     7
370
    25
100
AcDbLine
 10
-4.9352694722
 20
6.8992878001
 30
0.0
 11
-5.1578084271
 21
6.3750188767
 31
0.0
  0
LINE
  5
8BC
330
1B
100
AcDbEntity
 67
     1
  8
0
  6
Continuous
 62
     7
370
    25
100
AcDbLine
 10
-4.1379818039
 20
6.5608592636
 30
0.0
 11
-4.3605207588
 21
6.0365903402
 31
0.0
  0
LINE
  5
8BD
330
1B
100
AcDbEntity
 67
     1
  8
0
  6
Continuous
 62
     7
370
    25
100
AcDbLine
 10
0.0
 20
5.5118110236
 30
0.0
 11
-0.4330708661
 21
5.5118110236
 31
0.0
  0
LINE
  5
8BE
330
1B
100
AcDbEntity
 67
     1
  8
0
  6
Continuous
 62
     7
370
    25
100
AcDbLine
 10
0.0
 20
5.8070866142
 30
0.0
 11
0.0
 21
5.3149606299
 31
0.0
  0
LINE
  5
8BF
330
1B
100
AcDbEntity
 67
     1
  8
0
  6
Continuous
 62
     8
370
    25
100
AcDbLine
 10
0.8858267717
 20
1.5748031496
 30
0.0
 11
-0.8858267717
 21
1.5748031496
 31
0.0
  0
LINE
  5
8C0
330
1B
100
AcDbEntity
 67
     1
  8
0
  6
Continuous
 62
     8
370
    25
100
AcDbLine
 10
0.8858267717
 20
0.7677165354
 30
0.0
 11
-0.8858267717
 21
0.7677165354
 31
0.0
  0
ARC
  5
8C1
330
1B
100
AcDbEntity
 67
     1
  8
0
  6
Continuous
 62
     7
370
    25
100
AcDbCircle
 10
-0.8661417323
 20
1.5748031496
 30
0.0
 40
0.0196850393700785
100
AcDbArc
 50
90.0
 51
180.0
  0
ARC
  5
8C2
330
1B
100
AcDbEntity
 67
     1
  8
0
  6
Continuous
 62
     7
370
    25
100
AcDbCircle
 10
0.8661417323
 20
1.5748031496
 30
0.0
 40
0.0196850393700785
100
AcDbArc
 50
0.0
 51
90.0
  0
ARC
  5
8C3
330
1B
100
AcDbEntity
 67
     1
  8
0
  6
Continuous
 62
     7
370
    25
100
AcDbCircle
 10
-0.1200085966
 20
1.2007874016
 30
0.0
 40
0.0984251968503937
100
AcDbArc
 50
90.0
 51
270.0
  0
ARC
  5
8C4
330
1B
100
AcDbEntity
 67
     1
  8
0
  6
Continuous
 62
     7
370
    25
100
AcDbCircle
 10
0.7874015748
 20
0.0
 30
0.0
 40
0.0295275590551178
100
AcDbArc
 50
270.0
 51
0.0
  0
ARC
  5
8C5
330
1B
100
AcDbEntity
 67
     1
  8
0
  6
Continuous
 62
     7
370
    25
100
AcDbCircle
 10
-0.7874015748
 20
0.0
 30
0.0
 40
0.0295275590551183
100
AcDbArc
 50
180.0
 51
270.0
  0
ARC
  5
8C6
330
1B
100
AcDbEntity
 67
     1
  8
0
  6
Continuous
 62
     7
370
    25
100
AcDbCircle
 10
-0.8661417323
 20
0.7677165354
 30
0.0
 40
0.019685039370079
100
AcDbArc
 50
90.0
 51
180.0
  0
ARC
  5
8C7
330
1B
100
AcDbEntity
 67
     1
  8
0
  6
Continuous
 62
     7
370
    25
100
AcDbCircle
 10
0.8661417323
 20
0.7677165354
 30
0.0
 40
0.019685039370079
100
AcDbArc
 50
0.0
 51
90.0
  0
ARC
  5
8C8
330
1B
100
AcDbEntity
 67
     1
  8
0
  6
Continuous
 62
     7
370
    25
100
AcDbCircle
 10
-0.072884856
 20
1.2012962889
 30
0.0
 40
0.1412234911731659
100
AcDbArc
 50
90.0664776099
 51
160.2378523127
  0
ARC
  5
8C9
330
1B
100
AcDbEntity
 67
     1
  8
0
  6
Continuous
 62
     7
370
    25
100
AcDbCircle
 10
-0.072884856
 20
1.2002785142
 30
0.0
 40
0.1412234911731667
100
AcDbArc
 50
199.7621476873
 51
269.9335223901
  0
ARC
  5
8CA
330
1B
100
AcDbEntity
 67
     1
  8
0
  6
Continuous
 62
     7
370
    25
100
AcDbCircle
 10
-0.1200938338
 20
1.2011917624
 30
0.0
 40
0.098020873081892
100
AcDbArc
 50
22.4042351385
 51
89.9501765839
  0
ARC
  5
8CB
330
1B
100
AcDbEntity
 67
     1
  8
0
  6
Continuous
 62
     7
370
    25
100
AcDbCircle
 10
-0.1202899638
 20
1.2007376761
 30
0.0
 40
0.0983758737737047
100
AcDbArc
 50
270.1638732738
 51
22.6052032746
  0
ARC
  5
8CC
330
1B
100
AcDbEntity
 67
     1
  8
0
  6
Continuous
 62
     7
370
    25
100
AcDbCircle
 10
10.5154306459
 20
0.5905511811
 30
0.0
 40
11.40125741753894
100
AcDbArc
 50
169.0517435988
 51
174.9482810955
  0
ARC
  5
8CD
330
1B
100
AcDbEntity
 67
     1
  8
0
  6
Continuous
 62
     7
370
    25
100
AcDbCircle
 10
-10.5154306459
 20
0.5905511811
 30
0.0
 40
11.40125741753894
100
AcDbArc
 50
5.0517189045
 51
10.9482564012
  0
ARC
  5
8CE
330
1B
100
AcDbEntity
 67
     1
  8
0
  6
Continuous
 62
     7
370
    25
100
AcDbCircle
 10
-13.9072841778
 20
5.3149606299
 30
0.0
 40
13.47421331167017
100
AcDbArc
 50
349.0517435988
 51
360.0
  0
ARC
  5
8CF
330
1B
100
AcDbEntity
 67
     1
  8
0
  6
Continuous
 62
     7
370
    25
100
AcDbCircle
 10
13.9072841778
 20
5.3149606299
 30
0.0
 40
13.47421331167017
100
AcDbArc
 50
180.0
 51
190.9482564012
  0
ARC
  5
8D0
330
1B
100
AcDbEntity
 67
     1
  8
0
  6
Continuous
 62
     7
370
    25
100
AcDbCircle
 10
-5.1469363226
 20
6.3704039421
 30
0.0
 40
0.011811023616449
100
AcDbArc
 50
156.9999999706
 51
247.0000000304
  0
ARC
  5
8D1
330
1B
100
AcDbEntity
 67
     1
  8
0
  6
Continuous
 62
     7
370
    25
100
AcDbCircle
 10
-4.3713928634
 20
6.0412052748
 30
0.0
 40
0.0118110236185096
100
AcDbArc
 50
246.9999999806
 51
337.0000000204
  0
ARC
  5
8D2
330
1B
100
AcDbEntity
 67
     1
  8
0
  6
Continuous
 62
     7
370
    25
100
AcDbCircle
 10
-2.3622047244
 20
5.8070866142
 30
0.0
 40
1.929133858268705
100
AcDbArc
 50
0.0
 51
156.9999999999
  0
ARC
  5
8D3
330
1B
100
AcDbEntity
 67
     1
  8
0
  6
Continuous
 62
     7
370
    25
100
AcDbCircle
 10
-2.3622047244
 20
5.8070866142
 30
0.0
 40
2.795275590550235
100
AcDbArc
 50
360.0
 51
157.0
  0
VIEWPORT
  5
9AB
330
1B
100
AcDbEntity
 67
     1
  8
0
100
AcDbViewport
 10
0.0
 20
0.0
 30
0.0
 40
8.4
 41
6.4
 68
     1
 69
     1
 12
0.0
 22
4.2864173228
 13
0.0
 23
0.0
 14
0.5
 24
0.5
 15
0.5
 25
0.5
 16
0.0
 26
0.0
 36
1.0
 17
0.0
 27
0.0
 37
0.0
 42
50.0
 43
0.0
 44
0.0
 45
8.8045275591
 50
0.0
 51
0.0
 72
   100
 90
   557152
  1

281
     0
 71
     1
 74
     0
110
0.0
120
0.0
130
0.0
111
1.0
121
0.0
131
0.0
112
0.0
122
1.0
132
0.0
 79
     0
146
0.0
  0
ENDSEC
  0
SECTION
  2
OBJECTS
  0
DICTIONARY
  5
C
330
0
100
AcDbDictionary
281
     1
  3
ACAD_GROUP
350
D
  3
ACAD_LAYOUT
350
1A
  3
ACAD_MLINESTYLE
350
17
  3
ACAD_PLOTSETTINGS
350
19
  3
ACAD_PLOTSTYLENAME
350
E
  3
ACAD_SCALELIST
350
47
  0
DICTIONARY
  5
D
102
{ACAD_REACTORS
330
C
102
}
330
C
100
AcDbDictionary
281
     1
  0
DICTIONARY
  5
1A
102
{ACAD_REACTORS
330
C
102
}
330
C
100
AcDbDictionary
281
     1
  3
_Isometric
350
908
  3
_Right
350
1E
  3
_Top
350
26
  3
Model
350
22
  0
DICTIONARY
  5
17
102
{ACAD_REACTORS
330
C
102
}
330
C
100
AcDbDictionary
281
     1
  3
Standard
350
18
  0
DICTIONARY
  5
19
102
{ACAD_REACTORS
330
C
102
}
330
C
100
AcDbDictionary
281
     1
  0
ACDBDICTIONARYWDFLT
  5
E
102
{ACAD_REACTORS
330
C
102
}
330
C
100
AcDbDictionary
281
     1
  3
Normal
350
F
100
AcDbDictionaryWithDefault
340
F
  0
DICTIONARY
  5
47
102
{ACAD_REACTORS
330
C
102
}
330
C
100
AcDbDictionary
281
     1
  3
A0
350
48
  3
A1
350
49
  3
A2
350
4A
  3
A3
350
4B
  3
A4
350
4C
  3
A5
350
4D
  3
A6
350
4E
  3
A7
350
4F
  3
A8
350
50
  3
A9
350
51
  3
B0
350
52
  3
B1
350
53
  3
B2
350
54
  3
B3
350
55
  3
B4
350
56
  3
B5
350
57
  3
B6
350
58
  3
B7
350
59
  3
B8
350
5A
  3
B9
350
5B
  3
C0
350
5C
  3
C1
350
5D
  3
C2
350
5E
  3
C3
350
5F
  3
C4
350
60
  3
C5
350
61
  3
C6
350
62
  3
C7
350
63
  3
C8
350
64
  3
C9
350
65
  3
D0
350
66
  3
D1
350
67
  3
D2
350
68
  0
LAYOUT
  5
908
102
{ACAD_REACTORS
330
1A
102
}
330
1A
100
AcDbPlotSettings
  1

  2
none_device
  4
Letter_(8.50_x_11.00_Inches)
  6

 40
6.35
 41
6.35
 42
6.35001
 43
6.35001
 44
215.9
 45
279.4
 46
0.0
 47
0.0
 48
0.0
 49
0.0
140
0.0
141
0.0
142
1.0
143
1.0789862736
 70
   688
 72
     0
 73
     1
 74
     1
  7

 75
     0
147
0.9267958495
148
131.0321825934
149
0.75
100
AcDbLayout
  1
_Isometric
 70
     1
 71
     3
 10
0.0
 20
0.0
 11
0.0
 21
0.0
 12
0.0
 22
0.0
 32
0.0
 14
0.0
 24
0.0
 34
0.0
 15
0.0
 25
0.0
 35
0.0
146
0.0
 13
0.0
 23
0.0
 33
0.0
 16
1.0
 26
0.0
 36
0.0
 17
0.0
 27
1.0
 37
0.0
 76
     0
330
907
331
9AF
  0
LAYOUT
  5
1E
102
{ACAD_REACTORS
330
1A
102
}
330
1A
100
AcDbPlotSettings
  1

  2
none_device
  4
Letter_(8.50_x_11.00_Inches)
  6

 40
6.35
 41
6.35
 42
6.35001
 43
6.35001
 44
215.9
 45
279.4
 46
0.0
 47
0.0
 48
0.0
 49
0.0
140
0.0
141
0.0
142
1.0
143
1.0789862736
 70
   688
 72
     0
 73
     1
 74
     1
  7

 75
     0
147
0.9267958495
148
131.0321825934
149
0.75
100
AcDbLayout
  1
_Right
 70
     1
 71
     1
 10
-5.4284943394
 20
-0.2992741274
 11
6.4403546699
 21
8.8721091979
 12
0.0
 22
0.0
 32
0.0
 14
-5.1587473462
 24
-0.0295275591
 34
0.0
 15
0.8858267717
 25
8.6023622047
 35
0.0
146
0.0
 13
0.0
 23
0.0
 33
0.0
 16
1.0
 26
0.0
 36
0.0
 17
0.0
 27
1.0
 37
0.0
 76
     0
330
1B
331
9AB
  0
LAYOUT
  5
26
102
{ACAD_REACTORS
330
1A
102
}
330
1A
100
AcDbPlotSettings
  1

  2
none_device
  4
Letter_(8.50_x_11.00_Inches)
  6

 40
6.35
 41
6.35
 42
6.35001
 43
6.35001
 44
215.9
 45
279.4
 46
0.0
 47
0.0
 48
0.0
 49
0.0
140
0.0
141
0.0
142
1.0
143
1.0789862736
 70
   688
 72
     0
 73
     1
 74
     1
  7

 75
     0
147
0.9267958495
148
131.0321825934
149
0.75
100
AcDbLayout
  1
_Top
 70
     1
 71
     2
 10
0.0
 20
0.0
 11
0.0
 21
0.0
 12
0.0
 22
0.0
 32
0.0
 14
0.0
 24
0.0
 34
0.0
 15
0.0
 25
0.0
 35
0.0
146
0.0
 13
0.0
 23
0.0
 33
0.0
 16
1.0
 26
0.0
 36
0.0
 17
0.0
 27
1.0
 37
0.0
 76
     0
330
23
331
9AD
  0
LAYOUT
  5
22
102
{ACAD_REACTORS
330
1A
102
}
330
1A
100
AcDbPlotSettings
  1

  2
none_device
  4
ANSI_A_(11.00_x_8.50_Inches)
  6

 40
6.35
 41
19.05
 42
6.35000508
 43
19.05000254
 44
279.4
 45
215.9
 46
133.34999746
 47
-17.2393461959
 48
0.0
 49
0.0
140
0.0
141
0.0
142
0.9748734322
143
1.0
 70
  1696
 72
     0
 73
     0
 74
     0
  7

 75
     0
147
0.5913241897
148
-39.4088153714
149
0.0
100
AcDbLayout
  1
Model
 70
     1
 71
     0
 10
0.0
 20
0.0
 11
12.0
 21
9.0
 12
0.0
 22
0.0
 32
0.0
 14
-5.388388771
 24
-0.0295275591
 34
0.0
 15
5.388388771
 25
8.6023622047
 35
0.0
146
0.0
 13
0.0
 23
0.0
 33
0.0
 16
1.0
 26
0.0
 36
0.0
 17
0.0
 27
1.0
 37
0.0
 76
     0
330
1F
331
29
  0
MLINESTYLE
  5
18
102
{ACAD_REACTORS
330
17
102
}
330
17
100
AcDbMlineStyle
  2
Standard
 70
     0
  3

 62
   256
 51
90.0
 52
90.0
 71
     2
 49
0.5
 62
   256
  6
BYLAYER
 49
-0.5
 62
   256
  6
BYLAYER
  0
ACDBPLACEHOLDER
  5
F
102
{ACAD_REACTORS
330
E
102
}
330
E
  0
SCALE
  5
48
102
{ACAD_REACTORS
330
47
102
}
330
47
100
AcDbScale
 70
     0
300
1:1
140
1.0
141
1.0
290
     1
  0
SCALE
  5
49
102
{ACAD_REACTORS
330
47
102
}
330
47
100
AcDbScale
 70
     0
300
1:2
140
1.0
141
2.0
290
     0
  0
SCALE
  5
4A
102
{ACAD_REACTORS
330
47
102
}
330
47
100
AcDbScale
 70
     0
300
1:4
140
1.0
141
4.0
290
     0
  0
SCALE
  5
4B
102
{ACAD_REACTORS
330
47
102
}
330
47
100
AcDbScale
 70
     0
300
1:5
140
1.0
141
5.0
290
     0
  0
SCALE
  5
4C
102
{ACAD_REACTORS
330
47
102
}
330
47
100
AcDbScale
 70
     0
300
1:8
140
1.0
141
8.0
290
     0
  0
SCALE
  5
4D
102
{ACAD_REACTORS
330
47
102
}
330
47
100
AcDbScale
 70
     0
300
1:10
140
1.0
141
10.0
290
     0
  0
SCALE
  5
4E
102
{ACAD_REACTORS
330
47
102
}
330
47
100
AcDbScale
 70
     0
300
1:16
140
1.0
141
16.0
290
     0
  0
SCALE
  5
4F
102
{ACAD_REACTORS
330
47
102
}
330
47
100
AcDbScale
 70
     0
300
1:20
140
1.0
141
20.0
290
     0
  0
SCALE
  5
50
102
{ACAD_REACTORS
330
47
102
}
330
47
100
AcDbScale
 70
     0
300
1:30
140
1.0
141
30.0
290
     0
  0
SCALE
  5
51
102
{ACAD_REACTORS
330
47
102
}
330
47
100
AcDbScale
 70
     0
300
1:40
140
1.0
141
40.0
290
     0
  0
SCALE
  5
52
102
{ACAD_REACTORS
330
47
102
}
330
47
100
AcDbScale
 70
     0
300
1:50
140
1.0
141
50.0
290
     0
  0
SCALE
  5
53
102
{ACAD_REACTORS
330
47
102
}
330
47
100
AcDbScale
 70
     0
300
1:100
140
1.0
141
100.0
290
     0
  0
SCALE
  5
54
102
{ACAD_REACTORS
330
47
102
}
330
47
100
AcDbScale
 70
     0
300
2:1
140
2.0
141
1.0
290
     0
  0
SCALE
  5
55
102
{ACAD_REACTORS
330
47
102
}
330
47
100
AcDbScale
 70
     0
300
4:1
140
4.0
141
1.0
290
     0
  0
SCALE
  5
56
102
{ACAD_REACTORS
330
47
102
}
330
47
100
AcDbScale
 70
     0
300
8:1
140
8.0
141
1.0
290
     0
  0
SCALE
  5
57
102
{ACAD_REACTORS
330
47
102
}
330
47
100
AcDbScale
 70
     0
300
10:1
140
10.0
141
1.0
290
     0
  0
SCALE
  5
58
102
{ACAD_REACTORS
330
47
102
}
330
47
100
AcDbScale
 70
     0
300
100:1
140
100.0
141
1.0
290
     0
  0
SCALE
  5
59
102
{ACAD_REACTORS
330
47
102
}
330
47
100
AcDbScale
 70
     0
300
1/128" = 1'-0"
140
0.0078125
141
12.0
290
     0
  0
SCALE
  5
5A
102
{ACAD_REACTORS
330
47
102
}
330
47
100
AcDbScale
 70
     0
300
1/64" = 1'-0"
140
0.015625
141
12.0
290
     0
  0
SCALE
  5
5B
102
{ACAD_REACTORS
330
47
102
}
330
47
100
AcDbScale
 70
     0
300
1/32" = 1'-0"
140
0.03125
141
12.0
290
     0
  0
SCALE
  5
5C
102
{ACAD_REACTORS
330
47
102
}
330
47
100
AcDbScale
 70
     0
300
1/16" = 1'-0"
140
0.0625
141
12.0
290
     0
  0
SCALE
  5
5D
102
{ACAD_REACTORS
330
47
102
}
330
47
100
AcDbScale
 70
     0
300
3/32" = 1'-0"
140
0.09375
141
12.0
290
     0
  0
SCALE
  5
5E
102
{ACAD_REACTORS
330
47
102
}
330
47
100
AcDbScale
 70
     0
300
1/8" = 1'-0"
140
0.125
141
12.0
290
     0
  0
SCALE
  5
5F
102
{ACAD_REACTORS
330
47
102
}
330
47
100
AcDbScale
 70
     0
300
3/16" = 1'-0"
140
0.1875
141
12.0
290
     0
  0
SCALE
  5
60
102
{ACAD_REACTORS
330
47
102
}
330
47
100
AcDbScale
 70
     0
300
1/4" = 1'-0"
140
0.25
141
12.0
290
     0
  0
SCALE
  5
61
102
{ACAD_REACTORS
330
47
102
}
330
47
100
AcDbScale
 70
     0
300
3/8" = 1'-0"
140
0.375
141
12.0
290
     0
  0
SCALE
  5
62
102
{ACAD_REACTORS
330
47
102
}
330
47
100
AcDbScale
 70
     0
300
1/2" = 1'-0"
140
0.5
141
12.0
290
     0
  0
SCALE
  5
63
102
{ACAD_REACTORS
330
47
102
}
330
47
100
AcDbScale
 70
     0
300
3/4" = 1'-0"
140
0.75
141
12.0
290
     0
  0
SCALE
  5
64
102
{ACAD_REACTORS
330
47
102
}
330
47
100
AcDbScale
 70
     0
300
1" = 1'-0"
140
1.0
141
12.0
290
     0
  0
SCALE
  5
65
102
{ACAD_REACTORS
330
47
102
}
330
47
100
AcDbScale
 70
     0
300
1-1/2" = 1'-0"
140
1.5
141
12.0
290
     0
  0
SCALE
  5
66
102
{ACAD_REACTORS
330
47
102
}
330
47
100
AcDbScale
 70
     0
300
3" = 1'-0"
140
3.0
141
12.0
290
     0
  0
SCALE
  5
67
102
{ACAD_REACTORS
330
47
102
}
330
47
100
AcDbScale
 70
     0
300
6" = 1'-0"
140
6.0
141
12.0
290
     0
  0
SCALE
  5
68
102
{ACAD_REACTORS
330
47
102
}
330
47
100
AcDbScale
 70
     0
300
1'-0" = 1'-0"
140
12.0
141
12.0
290
     0
  0
ENDSEC
  0
EOF
