  0
SECTION
  2
HEADER
  9
$ACADVER
  1
AC1015
  9
$ACADMAINTVER
 70
     6
  9
$DWGCODEPAGE
  3
ANSI_1252
  9
$INSBASE
 10
0.0
 20
0.0
 30
0.0
  9
$EXTMIN
 10
-38.4154208987
 20
-157.7802623794
 30
0.0
  9
$EXTMAX
 10
74.5104522976
 20
222.7125325298
 30
0.0
  9
$LIMMIN
 10
0.0
 20
0.0
  9
$LIMMAX
 10
420.0
 20
297.0
  9
$ORTHOMODE
 70
     0
  9
$REGENMODE
 70
     1
  9
$FILLMODE
 70
     1
  9
$QTEXTMODE
 70
     0
  9
$MIRRTEXT
 70
     1
  9
$LTSCALE
 40
1.0
  9
$ATTMODE
 70
     1
  9
$TEXTSIZE
 40
3.5
  9
$TRACEWID
 40
1.0
  9
$TEXTSTYLE
  7
Standard
  9
$CLAYER
  8
0
  9
$CELTYPE
  6
ByLayer
  9
$CECOLOR
 62
   256
  9
$CELTSCALE
 40
1.0
  9
$DISPSILH
 70
     0
  9
$DIMSCALE
 40
1.0
  9
$DIMASZ
 40
3.302
  9
$DIMEXO
 40
1.0
  9
$DIMDLI
 40
3.75
  9
$DIMRND
 40
0.0
  9
$DIMDLE
 40
0.0
  9
$DIMEXE
 40
1.0
  9
$DIMTP
 40
0.0
  9
$DIMTM
 40
0.0
  9
$DIMTXT
 40
3.5
  9
$DIMCEN
 40
2.5
  9
$DIMTSZ
 40
0.0
  9
$DIMTOL
 70
     0
  9
$DIMLIM
 70
     0
  9
$DIMTIH
 70
     1
  9
$DIMTOH
 70
     1
  9
$DIMSE1
 70
     0
  9
$DIMSE2
 70
     0
  9
$DIMTAD
 70
     1
  9
$DIMZIN
 70
     1
  9
$DIMBLK
  1

  9
$DIMASO
 70
     1
  9
$DIMSHO
 70
     1
  9
$DIMPOST
  1

  9
$DIMAPOST
  1

  9
$DIMALT
 70
     0
  9
$DIMALTD
 70
     3
  9
$DIMALTF
 40
0.0393700787
  9
$DIMLFAC
 40
1.0
  9
$DIMTOFL
 70
     1
  9
$DIMTVP
 40
0.0
  9
$DIMTIX
 70
     0
  9
$DIMSOXD
 70
     0
  9
$DIMSAH
 70
     0
  9
$DIMBLK1
  1

  9
$DIMBLK2
  1

  9
$DIMSTYLE
  2
ISO-25
  9
$DIMCLRD
 70
     0
  9
$DIMCLRE
 70
     0
  9
$DIMCLRT
 70
     0
  9
$DIMTFAC
 40
1.0
  9
$DIMGAP
 40
1.524
  9
$DIMJUST
 70
     0
  9
$DIMSD1
 70
     0
  9
$DIMSD2
 70
     0
  9
$DIMTOLJ
 70
     0
  9
$DIMTZIN
 70
     1
  9
$DIMALTZ
 70
     0
  9
$DIMALTTZ
 70
     0
  9
$DIMUPT
 70
     0
  9
$DIMDEC
 70
     2
  9
$DIMTDEC
 70
     2
  9
$DIMALTU
 70
     2
  9
$DIMALTTD
 70
     3
  9
$DIMTXSTY
  7
Standard
  9
$DIMAUNIT
 70
     0
  9
$DIMADEC
 70
     2
  9
$DIMALTRND
 40
0.0
  9
$DIMAZIN
 70
     0
  9
$DIMDSEP
 70
    44
  9
$DIMATFIT
 70
     3
  9
$DIMFRAC
 70
     0
  9
$DIMLDRBLK
  1

  9
$DIMLUNIT
 70
     2
  9
$DIMLWD
 70
    -2
  9
$DIMLWE
 70
    -2
  9
$DIMTMOVE
 70
     0
  9
$LUNITS
 70
     2
  9
$LUPREC
 70
     2
  9
$SKETCHINC
 40
1.0
  9
$FILLETRAD
 40
10.0
  9
$AUNITS
 70
     0
  9
$AUPREC
 70
     2
  9
$MENU
  1
.
  9
$ELEVATION
 40
0.0
  9
$PELEVATION
 40
0.0
  9
$THICKNESS
 40
0.0
  9
$LIMCHECK
 70
     0
  9
$CHAMFERA
 40
0.0
  9
$CHAMFERB
 40
0.0
  9
$CHAMFERC
 40
0.0
  9
$CHAMFERD
 40
0.0
  9
$SKPOLY
 70
     0
  9
$TDCREATE
 40
2458915.614887813
  9
$TDUCREATE
 40
2458915.614887813
  9
$TDUPDATE
 40
2458915.61496419
  9
$TDUUPDATE
 40
2458915.61496419
  9
$TDINDWG
 40
0.0000000116
  9
$TDUSRTIMER
 40
0.0000000116
  9
$USRTIMER
 70
     1
  9
$ANGBASE
 50
0.0
  9
$ANGDIR
 70
     0
  9
$PDMODE
 70
     0
  9
$PDSIZE
 40
-1.0
  9
$PLINEWID
 40
0.0
  9
$SPLFRAME
 70
     0
  9
$SPLINETYPE
 70
     6
  9
$SPLINESEGS
 70
     8
  9
$HANDSEED
  5
15A
  9
$SURFTAB1
 70
     6
  9
$SURFTAB2
 70
     6
  9
$SURFTYPE
 70
     6
  9
$SURFU
 70
     6
  9
$SURFV
 70
     6
  9
$UCSBASE
  2

  9
$UCSNAME
  2

  9
$UCSORG
 10
0.0
 20
0.0
 30
0.0
  9
$UCSXDIR
 10
1.0
 20
0.0
 30
0.0
  9
$UCSYDIR
 10
0.0
 20
1.0
 30
0.0
  9
$UCSORTHOREF
  2

  9
$UCSORTHOVIEW
 70
     0
  9
$UCSORGTOP
 10
0.0
 20
0.0
 30
0.0
  9
$UCSORGBOTTOM
 10
0.0
 20
0.0
 30
0.0
  9
$UCSORGLEFT
 10
0.0
 20
0.0
 30
0.0
  9
$UCSORGRIGHT
 10
0.0
 20
0.0
 30
0.0
  9
$UCSORGFRONT
 10
0.0
 20
0.0
 30
0.0
  9
$UCSORGBACK
 10
0.0
 20
0.0
 30
0.0
  9
$PUCSBASE
  2

  9
$PUCSNAME
  2

  9
$PUCSORG
 10
0.0
 20
0.0
 30
0.0
  9
$PUCSXDIR
 10
1.0
 20
0.0
 30
0.0
  9
$PUCSYDIR
 10
0.0
 20
1.0
 30
0.0
  9
$PUCSORTHOREF
  2

  9
$PUCSORTHOVIEW
 70
     0
  9
$PUCSORGTOP
 10
0.0
 20
0.0
 30
0.0
  9
$PUCSORGBOTTOM
 10
0.0
 20
0.0
 30
0.0
  9
$PUCSORGLEFT
 10
0.0
 20
0.0
 30
0.0
  9
$PUCSORGRIGHT
 10
0.0
 20
0.0
 30
0.0
  9
$PUCSORGFRONT
 10
0.0
 20
0.0
 30
0.0
  9
$PUCSORGBACK
 10
0.0
 20
0.0
 30
0.0
  9
$USERI1
 70
     0
  9
$USERI2
 70
     0
  9
$USERI3
 70
     0
  9
$USERI4
 70
     0
  9
$USERI5
 70
     0
  9
$USERR1
 40
0.0
  9
$USERR2
 40
0.0
  9
$USERR3
 40
0.0
  9
$USERR4
 40
0.0
  9
$USERR5
 40
0.0
  9
$WORLDVIEW
 70
     1
  9
$SHADEDGE
 70
     3
  9
$SHADEDIF
 70
    70
  9
$TILEMODE
 70
     0
  9
$MAXACTVP
 70
    64
  9
$PINSBASE
 10
0.0
 20
0.0
 30
0.0
  9
$PLIMCHECK
 70
     0
  9
$PEXTMIN
 10
-38.4154208987
 20
-157.7802623794
 30
0.0
  9
$PEXTMAX
 10
74.5104522976
 20
222.7125325298
 30
0.0
  9
$PLIMMIN
 10
0.0
 20
0.0
  9
$PLIMMAX
 10
0.0
 20
0.0
  9
$UNITMODE
 70
     0
  9
$VISRETAIN
 70
     1
  9
$PLINEGEN
 70
     0
  9
$PSLTSCALE
 70
     1
  9
$TREEDEPTH
 70
  3020
  9
$CMLSTYLE
  2
Standard
  9
$CMLJUST
 70
     0
  9
$CMLSCALE
 40
20.0
  9
$PROXYGRAPHICS
 70
     1
  9
$MEASUREMENT
 70
     1
  9
$CELWEIGHT
370
    -1
  9
$ENDCAPS
280
     0
  9
$JOINSTYLE
280
     0
  9
$LWDISPLAY
290
     1
  9
$INSUNITS
 70
     4
  9
$HYPERLINKBASE
  1

  9
$STYLESHEET
  1

  9
$XEDIT
290
     1
  9
$CEPSNTYPE
380
     0
  9
$PSTYLEMODE
290
     1
  9
$FINGERPRINTGUID
  2
{15de68dd-7ea3-4a7b-af07-9f65c128c189}
  9
$VERSIONGUID
  2
{FAEB1C32-E019-11D5-929B-00C0DF256EC4}
  9
$EXTNAMES
290
     1
  9
$PSVPSCALE
 40
0.0
  9
$OLESTARTUP
290
     0
  0
ENDSEC
  0
SECTION
  2
CLASSES
  0
CLASS
  1
ACDBDICTIONARYWDFLT
  2
AcDbDictionaryWithDefault
  3
ObjectDBX Classes
 90
        0
280
     0
281
     0
  0
CLASS
  1
VISUALSTYLE
  2
AcDbVisualStyle
  3
ObjectDBX Classes
 90
     4095
280
     0
281
     0
  0
CLASS
  1
MATERIAL
  2
AcDbMaterial
  3
ObjectDBX Classes
 90
     1153
280
     0
281
     0
  0
CLASS
  1
SCALE
  2
AcDbScale
  3
ObjectDBX Classes
 90
     1153
280
     0
281
     0
  0
CLASS
  1
TABLESTYLE
  2
AcDbTableStyle
  3
ObjectDBX Classes
 90
     4095
280
     0
281
     0
  0
CLASS
  1
MLEADERSTYLE
  2
AcDbMLeaderStyle
  3
ACDB_MLEADERSTYLE_CLASS
 90
     4095
280
     0
281
     0
  0
CLASS
  1
SUN
  2
AcDbSun
  3
SCENEOE
 90
     1153
280
     0
281
     0
  0
CLASS
  1
ACDBPLACEHOLDER
  2
AcDbPlaceHolder
  3
ObjectDBX Classes
 90
        0
280
     0
281
     0
  0
CLASS
  1
LAYOUT
  2
AcDbLayout
  3
ObjectDBX Classes
 90
        0
280
     0
281
     0
  0
ENDSEC
  0
SECTION
  2
TABLES
  0
TABLE
  2
VPORT
  5
8
330
0
100
AcDbSymbolTable
 70
     1
  0
VPORT
  5
29
330
8
100
AcDbSymbolTableRecord
100
AcDbViewportTableRecord
  2
*Active
 70
     0
 10
0.0
 20
0.0
 11
1.0
 21
1.0
 12
18.0475156994
 22
32.4661350752
 13
0.0
 23
0.0
 14
10.0
 24
10.0
 15
10.0
 25
10.0
 16
0.0
 26
0.0
 36
1.0
 17
0.0
 27
0.0
 37
0.0
 40
388.1026508074
 41
0.2967884667
 42
50.0
 43
0.0
 44
0.0
 50
0.0
 51
0.0
 71
     0
 72
   100
 73
     1
 74
     3
 75
     0
 76
     0
 77
     0
 78
     0
281
     0
 65
     1
110
0.0
120
0.0
130
0.0
111
1.0
121
0.0
131
0.0
112
0.0
122
1.0
132
0.0
 79
     0
146
0.0
  0
ENDTAB
  0
TABLE
  2
LTYPE
  5
5
330
0
100
AcDbSymbolTable
 70
     6
  0
LTYPE
  5
14
330
5
100
AcDbSymbolTableRecord
100
AcDbLinetypeTableRecord
  2
ByBlock
 70
     0
  3

 72
    65
 73
     0
 40
0.0
  0
LTYPE
  5
15
330
5
100
AcDbSymbolTableRecord
100
AcDbLinetypeTableRecord
  2
ByLayer
 70
     0
  3

 72
    65
 73
     0
 40
0.0
  0
LTYPE
  5
16
330
5
100
AcDbSymbolTableRecord
100
AcDbLinetypeTableRecord
  2
Continuous
 70
     0
  3
Solid line
 72
    65
 73
     0
 40
0.0
  0
LTYPE
  5
6E
330
5
100
AcDbSymbolTableRecord
100
AcDbLinetypeTableRecord
  2
HIDDEN
 70
     0
  3
Hidden __ __ __ __ __ __ __ __ __ __ __ __ __ __
 72
    65
 73
     2
 40
1.905
 49
1.27
 74
     0
 49
-0.635
 74
     0
  0
LTYPE
  5
6F
330
5
100
AcDbSymbolTableRecord
100
AcDbLinetypeTableRecord
  2
PHANTOM
 70
     0
  3
Phantom ______  __  __  ______  __  __  ______
 72
    65
 73
     6
 40
12.7
 49
6.35
 74
     0
 49
-1.27
 74
     0
 49
1.27
 74
     0
 49
-1.27
 74
     0
 49
1.27
 74
     0
 49
-1.27
 74
     0
  0
LTYPE
  5
70
330
5
100
AcDbSymbolTableRecord
100
AcDbLinetypeTableRecord
  2
CENTER
 70
     0
  3
Center ____ _ ____ _ ____ _ ____ _ ____ _ ____
 72
    65
 73
     4
 40
10.16
 49
6.35
 74
     0
 49
-1.27
 74
     0
 49
1.27
 74
     0
 49
-1.27
 74
     0
  0
LTYPE
  5
71
330
5
100
AcDbSymbolTableRecord
100
AcDbLinetypeTableRecord
  2
CENTERX2
 70
     0
  3
Center (2x) ________  __  ________  __  _____
 72
    65
 73
     4
 40
20.32
 49
12.7
 74
     0
 49
-2.54
 74
     0
 49
2.54
 74
     0
 49
-2.54
 74
     0
  0
LTYPE
  5
72
330
5
100
AcDbSymbolTableRecord
100
AcDbLinetypeTableRecord
  2
DOT2
 70
     0
  3
Dot (.5x) ........................................
 72
    65
 73
     2
 40
0.635
 49
0.0
 74
     0
 49
-0.635
 74
     0
  0
ENDTAB
  0
TABLE
  2
LAYER
  5
2
330
0
100
AcDbSymbolTable
 70
     1
  0
LAYER
  5
10
330
2
100
AcDbSymbolTableRecord
100
AcDbLayerTableRecord
  2
0
 70
     0
 62
     7
  6
Continuous
370
    -3
390
F
  0
ENDTAB
  0
TABLE
  2
STYLE
  5
3
330
0
100
AcDbSymbolTable
 70
     1
  0
STYLE
  5
11
330
3
100
AcDbSymbolTableRecord
100
AcDbTextStyleTableRecord
  2
Standard
 70
     0
 40
0.0
 41
1.0
 50
0.0
 71
     0
 42
3.5
  3
txt
  4

  0
ENDTAB
  0
TABLE
  2
VIEW
  5
6
330
0
100
AcDbSymbolTable
 70
     0
  0
ENDTAB
  0
TABLE
  2
UCS
  5
7
330
0
100
AcDbSymbolTable
 70
     0
  0
ENDTAB
  0
TABLE
  2
APPID
  5
9
330
0
100
AcDbSymbolTable
 70
     1
  0
APPID
  5
12
330
9
100
AcDbSymbolTableRecord
100
AcDbRegAppTableRecord
  2
ACAD
 70
     0
  0
ENDTAB
  0
TABLE
  2
DIMSTYLE
  5
A
330
0
100
AcDbSymbolTable
 70
     1
100
AcDbDimStyleTable
  0
DIMSTYLE
105
27
330
A
100
AcDbSymbolTableRecord
100
AcDbDimStyleTableRecord
  2
ISO-25
 70
     0
 41
2.5
 42
0.625
 43
3.75
 44
1.25
 73
     0
 74
     0
 77
     1
 78
     8
140
2.5
141
2.5
143
0.0393700787
147
0.625
171
     3
172
     1
178
     0
271
     2
272
     2
274
     3
278
    44
283
     0
284
     8
340
11
  0
ENDTAB
  0
TABLE
  2
BLOCK_RECORD
  5
1
330
0
100
AcDbSymbolTable
 70
     1
  0
BLOCK_RECORD
  5
1F
330
1
100
AcDbSymbolTableRecord
100
AcDbBlockTableRecord
  2
*Model_Space
340
22
  0
BLOCK_RECORD
  5
23
330
1
100
AcDbSymbolTableRecord
100
AcDbBlockTableRecord
  2
*Paper_Space
340
26
  0
BLOCK_RECORD
  5
1B
330
1
100
AcDbSymbolTableRecord
100
AcDbBlockTableRecord
  2
*Paper_Space0
340
1E
  0
ENDTAB
  0
ENDSEC
  0
SECTION
  2
BLOCKS
  0
BLOCK
  5
20
330
1F
100
AcDbEntity
  8
0
100
AcDbBlockBegin
  2
*Model_Space
 70
     0
 10
0.0
 20
0.0
 30
0.0
  3
*Model_Space
  1

  0
ENDBLK
  5
21
330
1F
100
AcDbEntity
  8
0
100
AcDbBlockEnd
  0
BLOCK
  5
24
330
23
100
AcDbEntity
 67
     1
  8
0
100
AcDbBlockBegin
  2
*Paper_Space
 70
     0
 10
0.0
 20
0.0
 30
0.0
  3
*Paper_Space
  1

  0
ENDBLK
  5
25
330
23
100
AcDbEntity
 67
     1
  8
0
100
AcDbBlockEnd
  0
BLOCK
  5
1C
330
1B
100
AcDbEntity
  8
0
100
AcDbBlockBegin
  2
*Paper_Space0
 70
     0
 10
0.0
 20
0.0
 30
0.0
  3
*Paper_Space0
  1

  0
LWPOLYLINE
  5
C7
330
1B
100
AcDbEntity
  8
0
  6
Continuous
 62
     7
370
    25
100
AcDbPolyline
 90
       26
 70
   128
 43
0.0
 10
25.2435832925
 20
-78.9737593813
 10
25.2431815185
 20
-76.2707839207
 10
25.2419809067
 20
-73.599498376
 10
25.2399955334
 20
-70.9912211279
 10
25.2372486751
 20
-68.4765318423
 10
25.2337725363
 20
-66.0849129519
 10
25.2296078716
 20
-63.8444040015
 10
25.2248035077
 20
-61.78127291
 10
25.2194157716
 20
-59.9197080031
 10
25.2135078294
 20
-58.2815344274
 10
25.2071489464
 20
-56.8859582702
 10
25.2004136747
 20
-55.7493413859
 10
25.1933809792
 20
-54.8850095683
 10
25.1861333118
 20
-54.3030963178
 10
25.1787556448
 20
-54.010424035
 10
25.1713344745
 20
-54.010424035
 10
25.1639568075
 20
-54.3030963178
 10
25.1567091401
 20
-54.8850095683
 10
25.1496764446
 20
-55.7493413859
 10
25.1429411729
 20
-56.8859582702
 10
25.1365822899
 20
-58.2815344274
 10
25.1306743477
 20
-59.9197080031
 10
25.1252866116
 20
-61.78127291
 10
25.1204822477
 20
-63.8444040015
 10
25.116317583
 20
-66.0849129519
 10
25.1156892089
 20
-66.4737593813
  0
LWPOLYLINE
  5
C8
330
1B
100
AcDbEntity
  8
0
  6
Continuous
 62
     7
370
    25
100
AcDbPolyline
 90
       26
 70
   128
 43
0.0
 10
25.1156892089
 20
-91.4737593813
 10
25.116317583
 20
-91.8626058107
 10
25.1204822477
 20
-94.1031147612
 10
25.1252866116
 20
-96.1662458527
 10
25.1306743477
 20
-98.0278107595
 10
25.1365822899
 20
-99.6659843352
 10
25.1429411729
 20
-101.0615604925
 10
25.1496764446
 20
-102.1981773767
 10
25.1567091401
 20
-103.0625091943
 10
25.1639568075
 20
-103.6444224449
 10
25.1713344745
 20
-103.9370947276
 10
25.1787556448
 20
-103.9370947276
 10
25.1861333118
 20
-103.6444224449
 10
25.1933809792
 20
-103.0625091943
 10
25.2004136747
 20
-102.1981773767
 10
25.2071489464
 20
-101.0615604925
 10
25.2135078294
 20
-99.6659843352
 10
25.2194157716
 20
-98.0278107595
 10
25.2248035077
 20
-96.1662458527
 10
25.2296078716
 20
-94.1031147612
 10
25.2337725363
 20
-91.8626058107
 10
25.2372486751
 20
-89.4709869203
 10
25.2399955334
 20
-86.9562976347
 10
25.2419809067
 20
-84.3480203866
 10
25.2431815185
 20
-81.6767348419
 10
25.2435832925
 20
-78.9737593813
  0
LWPOLYLINE
  5
CC
330
1B
100
AcDbEntity
  8
0
  6
Continuous
 62
     7
370
    25
100
AcDbPolyline
 90
       25
 70
   128
 43
0.0
 10
25.1873819416
 20
-60.9737593813
 10
25.1869615725
 20
-62.1384450843
 10
25.1857291128
 20
-63.2237593813
 10
25.1837685525
 20
-64.1557398967
 10
25.1812135006
 20
-64.8708736983
 10
25.1782380797
 20
-65.3204255996
 10
25.1750450597
 20
-65.4737593813
 10
25.1718520397
 20
-65.3204255996
 10
25.1688766187
 20
-64.8708736983
 10
25.1663215668
 20
-64.1557398967
 10
25.1643610065
 20
-63.2237593813
 10
25.1631285468
 20
-62.1384450843
 10
25.1627081777
 20
-60.9737593813
 10
25.1631285468
 20
-59.8090736784
 10
25.1643610065
 20
-58.7237593813
 10
25.1663215668
 20
-57.791778866
 10
25.1688766187
 20
-57.0766450643
 10
25.1718520397
 20
-56.627093163
 10
25.1750450597
 20
-56.4737593813
 10
25.1782380797
 20
-56.627093163
 10
25.1812135006
 20
-57.0766450643
 10
25.1837685525
 20
-57.791778866
 10
25.1857291128
 20
-58.7237593813
 10
25.1869615725
 20
-59.8090736784
 10
25.1873819416
 20
-60.9737593813
  0
LWPOLYLINE
  5
CD
330
1B
100
AcDbEntity
  8
0
  6
Continuous
 62
     7
370
    25
100
AcDbPolyline
 90
       25
 70
   128
 43
0.0
 10
25.1873819416
 20
-96.9737593813
 10
25.1869615725
 20
-98.1384450843
 10
25.1857291128
 20
-99.2237593813
 10
25.1837685525
 20
-100.1557398967
 10
25.1812135006
 20
-100.8708736983
 10
25.1782380797
 20
-101.3204255996
 10
25.1750450597
 20
-101.4737593813
 10
25.1718520397
 20
-101.3204255996
 10
25.1688766187
 20
-100.8708736983
 10
25.1663215668
 20
-100.1557398967
 10
25.1643610065
 20
-99.2237593813
 10
25.1631285468
 20
-98.1384450843
 10
25.1627081777
 20
-96.9737593813
 10
25.1631285468
 20
-95.8090736784
 10
25.1643610065
 20
-94.7237593813
 10
25.1663215668
 20
-93.791778866
 10
25.1688766187
 20
-93.0766450643
 10
25.1718520397
 20
-92.627093163
 10
25.1750450597
 20
-92.4737593813
 10
25.1782380797
 20
-92.627093163
 10
25.1812135006
 20
-93.0766450643
 10
25.1837685525
 20
-93.791778866
 10
25.1857291128
 20
-94.7237593813
 10
25.1869615725
 20
-95.8090736784
 10
25.1873819416
 20
-96.9737593813
  0
LINE
  5
D9
330
1B
100
AcDbEntity
  8
0
  6
Continuous
 62
     7
370
    25
100
AcDbLine
 10
-4.8246543005
 20
-66.4737593813
 30
0.0
 11
-4.8246543005
 21
-63.9737593813
 31
0.0
  0
LINE
  5
DA
330
1B
100
AcDbEntity
  8
0
  6
Continuous
 62
     7
370
    25
100
AcDbLine
 10
-4.8246543005
 20
-93.9737593813
 30
0.0
 11
-4.8246543005
 21
-91.4737593813
 31
0.0
  0
LINE
  5
DB
330
1B
100
AcDbEntity
  8
0
  6
Continuous
 62
     7
370
    25
100
AcDbLine
 10
-104.8246543005
 20
-63.9737593813
 30
0.0
 11
-104.8246543005
 21
-93.9737593813
 31
0.0
  0
LINE
  5
DC
330
1B
100
AcDbEntity
  8
0
  6
Continuous
 62
     7
370
    25
100
AcDbLine
 10
30.1750262697
 20
-53.9737593813
 30
0.0
 11
25.1750450597
 21
-53.9737593813
 31
0.0
  0
LINE
  5
DD
330
1B
100
AcDbEntity
  8
0
  6
Continuous
 62
     7
370
    25
100
AcDbLine
 10
25.1750450597
 20
-103.9737593813
 30
0.0
 11
30.1750262697
 21
-103.9737593813
 31
0.0
  0
LINE
  5
DE
330
1B
100
AcDbEntity
  8
0
  6
Continuous
 62
     7
370
    25
100
AcDbLine
 10
-100.912754987
 20
-63.6987163004
 30
0.0
 11
-100.190103623
 21
-63.9737593813
 31
0.0
  0
LINE
  5
DF
330
1B
100
AcDbEntity
  8
0
  6
Continuous
 62
     7
370
    25
100
AcDbLine
 10
-9.4592049779
 20
-63.9737593813
 30
0.0
 11
-8.736553614
 21
-63.6987163004
 31
0.0
  0
LINE
  5
E0
330
1B
100
AcDbEntity
  8
0
  6
Continuous
 62
     7
370
    25
100
AcDbLine
 10
-97.3246543005
 20
-93.9737593813
 30
0.0
 11
-97.3246543005
 21
-144.2277093673
 31
0.0
  0
LINE
  5
E1
330
1B
100
AcDbEntity
  8
0
  6
Continuous
 62
     7
370
    25
100
AcDbLine
 10
-12.3246543005
 20
-144.2277093673
 30
0.0
 11
-12.3246543005
 21
-93.9737593813
 31
0.0
  0
LINE
  5
E2
330
1B
100
AcDbEntity
  8
0
  6
Continuous
 62
     7
370
    25
100
AcDbLine
 10
-93.9348512303
 20
-150.5011678392
 30
0.0
 11
-82.8246543005
 21
-157.7802623794
 31
0.0
  0
LINE
  5
E3
330
1B
100
AcDbEntity
  8
0
  6
Continuous
 62
     7
370
    25
100
AcDbLine
 10
-26.8246543005
 20
-157.7802623794
 30
0.0
 11
-15.7144573706
 21
-150.5011678392
 31
0.0
  0
LINE
  5
E4
330
1B
100
AcDbEntity
  8
0
  6
Continuous
 62
     7
370
    25
100
AcDbLine
 10
-46.8246543005
 20
-49.7802623794
 30
0.0
 11
-46.8246543005
 21
222.7125325298
 31
0.0
  0
LINE
  5
E5
330
1B
100
AcDbEntity
  8
0
  6
Continuous
 62
     7
370
    25
100
AcDbLine
 10
-62.8246543005
 20
222.7125325298
 30
0.0
 11
-62.8246543005
 21
-49.7802623794
 31
0.0
  0
LINE
  5
E6
330
1B
100
AcDbEntity
  8
0
  6
Continuous
 62
     7
370
    25
100
AcDbLine
 10
-6.3782752898
 20
-84.151428911
 30
0.0
 11
-6.3782752898
 21
-73.7960898517
 31
0.0
  0
LINE
  5
E7
330
1B
100
AcDbEntity
  8
0
  6
Continuous
 62
     7
370
    25
100
AcDbLine
 10
-104.8246543005
 20
-93.9737593813
 30
0.0
 11
-4.8246543005
 21
-93.9737593813
 31
0.0
  0
LINE
  5
E8
330
1B
100
AcDbEntity
  8
0
  6
Continuous
 62
     7
370
    25
100
AcDbLine
 10
-104.8246543005
 20
-63.9737593813
 30
0.0
 11
-4.8246543005
 21
-63.9737593813
 31
0.0
  0
LINE
  5
E9
330
1B
100
AcDbEntity
  8
0
  6
Continuous
 62
     7
370
    25
100
AcDbLine
 10
25.2093141761
 20
-73.7960898517
 30
0.0
 11
25.1892397925
 21
-66.4737593813
 31
0.0
  0
LINE
  5
EA
330
1B
100
AcDbEntity
  8
0
  6
Continuous
 62
     7
370
    25
100
AcDbLine
 10
25.1892397925
 20
-91.4737593813
 30
0.0
 11
25.2093141761
 21
-84.151428911
 31
0.0
  0
LINE
  5
EB
330
1B
100
AcDbEntity
  8
0
  6
Continuous
 62
     7
370
    25
100
AcDbLine
 10
25.2093141761
 20
-84.151428911
 30
0.0
 11
25.2093141761
 21
-73.7960898517
 31
0.0
  0
LINE
  5
EC
330
1B
100
AcDbEntity
  8
0
  6
Continuous
 62
     7
370
    25
100
AcDbLine
 10
-5.0794516372
 20
-66.4737593813
 30
0.0
 11
25.1892397925
 21
-66.4737593813
 31
0.0
  0
LINE
  5
ED
330
1B
100
AcDbEntity
  8
0
  6
Continuous
 62
     7
370
    25
100
AcDbLine
 10
-6.3782752898
 20
-73.7960898517
 30
0.0
 11
25.2093141761
 21
-73.7960898517
 31
0.0
  0
LINE
  5
EE
330
1B
100
AcDbEntity
  8
0
  6
Continuous
 62
     7
370
    25
100
AcDbLine
 10
-6.3782752898
 20
-84.151428911
 30
0.0
 11
25.2093141761
 21
-84.151428911
 31
0.0
  0
LINE
  5
EF
330
1B
100
AcDbEntity
  8
0
  6
Continuous
 62
     7
370
    25
100
AcDbLine
 10
-5.0794516372
 20
-91.4737593813
 30
0.0
 11
25.1892397925
 21
-91.4737593813
 31
0.0
  0
LINE
  5
F0
330
1B
100
AcDbEntity
  8
0
  6
Continuous
 62
     7
370
    25
100
AcDbLine
 10
-110.2875908986
 20
-49.7802623794
 30
0.0
 11
0.638282282
 21
-49.7802623794
 31
0.0
  0
LINE
  5
F1
330
1B
100
AcDbEntity
  8
0
  6
Continuous
 62
     7
370
    25
100
AcDbLine
 10
-82.8246543005
 20
-157.7802623794
 30
0.0
 11
-26.8246543005
 21
-157.7802623794
 31
0.0
  0
LINE
  5
F2
330
1B
100
AcDbEntity
  8
0
  6
Continuous
 62
     7
370
    25
100
AcDbLine
 10
-46.8246543005
 20
222.7125325298
 30
0.0
 11
-62.8246543005
 21
222.7125325298
 31
0.0
  0
LINE
  5
F3
330
1B
100
AcDbEntity
  8
0
  6
Continuous
 62
     8
370
    25
100
AcDbLine
 10
1.6355386751
 20
-50.8542874951
 30
0.0
 11
-111.284847276
 21
-50.8542874951
 31
0.0
  0
LINE
  5
F4
330
1B
100
AcDbEntity
  8
0
  6
Continuous
 62
     8
370
    25
100
AcDbLine
 10
-100.912754987
 20
-63.6987163004
 30
0.0
 11
-8.736553614
 21
-63.6987163004
 31
0.0
  0
LINE
  5
F5
330
1B
100
AcDbEntity
  8
0
  6
Continuous
 62
     8
370
    25
100
AcDbLine
 10
-97.3246543005
 20
-144.2277093673
 30
0.0
 11
-12.3246543005
 21
-144.2277093673
 31
0.0
  0
LINE
  5
F6
330
1B
100
AcDbEntity
  8
0
  6
Continuous
 62
     8
370
    25
100
AcDbLine
 10
-93.9348512303
 20
-150.5011678392
 30
0.0
 11
-15.7144573706
 21
-150.5011678392
 31
0.0
  0
ARC
  5
F7
330
1B
100
AcDbEntity
  8
0
  6
Continuous
 62
     7
370
    25
100
AcDbCircle
 10
-110.2875908986
 20
-50.7802623794
 30
0.0
 40
0.9999999999999858
100
AcDbArc
 50
90.0
 51
184.245209834
  0
ARC
  5
F8
330
1B
100
AcDbEntity
  8
0
  6
Continuous
 62
     7
370
    25
100
AcDbCircle
 10
0.6382822977
 20
-50.7802623794
 30
0.0
 40
1.000000000000014
100
AcDbArc
 50
355.754790166
 51
90.0
  0
ARC
  5
F9
330
1B
100
AcDbEntity
  8
0
  6
Continuous
 62
     7
370
    25
100
AcDbCircle
 10
-96.815725729
 20
-49.7802623794
 30
0.0
 40
14.50892857142853
100
AcDbArc
 50
184.245209834
 51
253.5977061665
  0
ARC
  5
FA
330
1B
100
AcDbEntity
  8
0
  6
Continuous
 62
     7
370
    25
100
AcDbCircle
 10
-12.8335828719
 20
-49.7802623794
 30
0.0
 40
14.50892857142861
100
AcDbArc
 50
286.4022938335
 51
355.754790166
  0
ARC
  5
FB
330
1B
100
AcDbEntity
  8
0
  6
Continuous
 62
     7
370
    25
100
AcDbCircle
 10
-89.8246543005
 20
-144.2277093673
 30
0.0
 40
7.499999999999929
100
AcDbArc
 50
180.0
 51
236.768288932
  0
ARC
  5
FC
330
1B
100
AcDbEntity
  8
0
  6
Continuous
 62
     7
370
    25
100
AcDbCircle
 10
-19.8246543005
 20
-144.2277093673
 30
0.0
 40
7.49999999999991
100
AcDbArc
 50
303.231711068
 51
0.0
  0
ARC
  5
FD
330
1B
100
AcDbEntity
  8
0
  6
Continuous
 62
     7
370
    25
100
AcDbCircle
 10
-54.7540808108
 20
-61.4389073966
 30
0.0
 40
49.92913496188974
100
AcDbArc
 50
345.6707055563
 51
354.212458837
  0
ARC
  5
FE
330
1B
100
AcDbEntity
  8
0
  6
Continuous
 62
     7
370
    25
100
AcDbCircle
 10
-54.7540808108
 20
-96.508611366
 30
0.0
 40
49.92913496189082
100
AcDbArc
 50
5.787541163
 51
14.3292944437
  0
ARC
  5
FF
330
1B
100
AcDbEntity
  8
0
  6
Continuous
 62
     7
370
    25
100
AcDbCircle
 10
-2004.0216959887
 20
-72.0506632776
 30
0.0
 40
2034.277040941319
100
AcDbArc
 50
359.805009374
 51
0.5091459572
  0
ARC
  5
100
330
1B
100
AcDbEntity
  8
0
  6
Continuous
 62
     7
370
    25
100
AcDbCircle
 10
-2331.4826125421
 20
-84.9991117828
 30
0.0
 40
2361.733863120388
100
AcDbArc
 50
359.539669165
 51
0.1461755038
  0
VIEWPORT
  5
156
330
1B
100
AcDbEntity
  8
0
100
AcDbViewport
 10
0.0
 20
0.0
 30
0.0
 40
205.6
 41
156.0
 68
     1
 69
     1
 12
18.0475156994
 22
32.4661350752
 13
0.0
 23
0.0
 14
10.0
 24
10.0
 15
10.0
 25
10.0
 16
0.0
 26
0.0
 36
1.0
 17
0.0
 27
0.0
 37
0.0
 42
50.0
 43
0.0
 44
0.0
 45
388.1026508074
 50
0.0
 51
0.0
 72
   100
 90
   557152
  1

281
     0
 71
     1
 74
     0
110
0.0
120
0.0
130
0.0
111
1.0
121
0.0
131
0.0
112
0.0
122
1.0
132
0.0
 79
     0
146
0.0
  0
ENDBLK
  5
1D
330
1B
100
AcDbEntity
  8
0
100
AcDbBlockEnd
  0
ENDSEC
  0
SECTION
  2
ENTITIES
  0
LINE
  5
92
330
1F
100
AcDbEntity
  8
0
  6
Continuous
 62
     7
370
    25
100
AcDbLine
 10
68.0475156994
 20
-93.9737593813
 30
0.0
 11
68.0475156994
 21
-63.9737593813
 31
0.0
  0
LINE
  5
93
330
1F
100
AcDbEntity
  8
0
  6
Continuous
 62
     7
370
    25
100
AcDbLine
 10
-31.9524843006
 20
-63.9737593813
 30
0.0
 11
-31.9524843006
 21
-93.9737593813
 31
0.0
  0
LINE
  5
94
330
1F
100
AcDbEntity
  8
0
  6
Continuous
 62
     7
370
    25
100
AcDbLine
 10
-28.0405849871
 20
-63.6987163004
 30
0.0
 11
-27.3179336231
 21
-63.9737593813
 31
0.0
  0
LINE
  5
95
330
1F
100
AcDbEntity
  8
0
  6
Continuous
 62
     7
370
    25
100
AcDbLine
 10
63.412965022
 20
-63.9737593813
 30
0.0
 11
64.1356163859
 21
-63.6987163004
 31
0.0
  0
LINE
  5
96
330
1F
100
AcDbEntity
  8
0
  6
Continuous
 62
     7
370
    25
100
AcDbLine
 10
-24.4524843006
 20
-93.9737593813
 30
0.0
 11
-24.4524843006
 21
-144.2277093673
 31
0.0
  0
LINE
  5
97
330
1F
100
AcDbEntity
  8
0
  6
Continuous
 62
     7
370
    25
100
AcDbLine
 10
60.5475156994
 20
-144.2277093673
 30
0.0
 11
60.5475156994
 21
-93.9737593813
 31
0.0
  0
LINE
  5
98
330
1F
100
AcDbEntity
  8
0
  6
Continuous
 62
     7
370
    25
100
AcDbLine
 10
-21.0626812304
 20
-150.5011678392
 30
0.0
 11
-9.9524843006
 21
-157.7802623794
 31
0.0
  0
LINE
  5
99
330
1F
100
AcDbEntity
  8
0
  6
Continuous
 62
     7
370
    25
100
AcDbLine
 10
46.0475156994
 20
-157.7802623794
 30
0.0
 11
57.1577126293
 21
-150.5011678392
 31
0.0
  0
LINE
  5
9A
330
1F
100
AcDbEntity
  8
0
  6
Continuous
 62
     7
370
    25
100
AcDbLine
 10
26.0475156994
 20
-49.7802623794
 30
0.0
 11
26.0475156994
 21
222.7125325298
 31
0.0
  0
LINE
  5
9B
330
1F
100
AcDbEntity
  8
0
  6
Continuous
 62
     7
370
    25
100
AcDbLine
 10
10.0475156994
 20
222.7125325298
 30
0.0
 11
10.0475156994
 21
-49.7802623794
 31
0.0
  0
LINE
  5
9C
330
1F
100
AcDbEntity
  8
0
  6
Continuous
 62
     7
370
    25
100
AcDbLine
 10
-31.9524843006
 20
-93.9737593813
 30
0.0
 11
68.0473277995
 21
-93.9737593813
 31
0.0
  0
LINE
  5
9D
330
1F
100
AcDbEntity
  8
0
  6
Continuous
 62
     7
370
    25
100
AcDbLine
 10
-31.9524843006
 20
-63.9737593813
 30
0.0
 11
68.0473277995
 21
-63.9737593813
 31
0.0
  0
LINE
  5
9E
330
1F
100
AcDbEntity
  8
0
  6
Continuous
 62
     7
370
    25
100
AcDbLine
 10
-37.4154208987
 20
-49.7802623794
 30
0.0
 11
73.5104522976
 21
-49.7802623794
 31
0.0
  0
LINE
  5
9F
330
1F
100
AcDbEntity
  8
0
  6
Continuous
 62
     7
370
    25
100
AcDbLine
 10
-9.9524843006
 20
-157.7802623794
 30
0.0
 11
46.0475156994
 21
-157.7802623794
 31
0.0
  0
LINE
  5
A0
330
1F
100
AcDbEntity
  8
0
  6
Continuous
 62
     7
370
    25
100
AcDbLine
 10
26.0475156994
 20
222.7125325298
 30
0.0
 11
10.0475156994
 21
222.7125325298
 31
0.0
  0
LINE
  5
A1
330
1F
100
AcDbEntity
  8
0
  6
Continuous
 62
     8
370
    25
100
AcDbLine
 10
74.507708675
 20
-50.8542874951
 30
0.0
 11
-38.4126772761
 21
-50.8542874951
 31
0.0
  0
LINE
  5
A2
330
1F
100
AcDbEntity
  8
0
  6
Continuous
 62
     8
370
    25
100
AcDbLine
 10
-28.0405849871
 20
-63.6987163004
 30
0.0
 11
64.1356163859
 21
-63.6987163004
 31
0.0
  0
LINE
  5
A3
330
1F
100
AcDbEntity
  8
0
  6
Continuous
 62
     8
370
    25
100
AcDbLine
 10
-24.4524843006
 20
-144.2277093673
 30
0.0
 11
60.5475156994
 21
-144.2277093673
 31
0.0
  0
LINE
  5
A4
330
1F
100
AcDbEntity
  8
0
  6
Continuous
 62
     8
370
    25
100
AcDbLine
 10
-21.0626812304
 20
-150.5011678392
 30
0.0
 11
57.1577126293
 21
-150.5011678392
 31
0.0
  0
ARC
  5
A5
330
1F
100
AcDbEntity
  8
0
  6
Continuous
 62
     7
370
    25
100
AcDbCircle
 10
-37.4154208987
 20
-50.7802623794
 30
0.0
 40
1.000000000000014
100
AcDbArc
 50
90.0
 51
184.245209834
  0
ARC
  5
A6
330
1F
100
AcDbEntity
  8
0
  6
Continuous
 62
     7
370
    25
100
AcDbCircle
 10
73.5104522976
 20
-50.7802623794
 30
0.0
 40
1.000000000000014
100
AcDbArc
 50
355.754790166
 51
90.0
  0
ARC
  5
A7
330
1F
100
AcDbEntity
  8
0
  6
Continuous
 62
     7
370
    25
100
AcDbCircle
 10
-23.9435557291
 20
-49.7802623794
 30
0.0
 40
14.5089285714286
100
AcDbArc
 50
184.245209834
 51
253.5977061665
  0
ARC
  5
A8
330
1F
100
AcDbEntity
  8
0
  6
Continuous
 62
     7
370
    25
100
AcDbCircle
 10
60.038587128
 20
-49.7802623794
 30
0.0
 40
14.5089285714286
100
AcDbArc
 50
286.4022938335
 51
355.754790166
  0
ARC
  5
A9
330
1F
100
AcDbEntity
  8
0
  6
Continuous
 62
     7
370
    25
100
AcDbCircle
 10
-16.9524843006
 20
-144.2277093673
 30
0.0
 40
7.499999999999986
100
AcDbArc
 50
180.0
 51
236.768288932
  0
ARC
  5
AA
330
1F
100
AcDbEntity
  8
0
  6
Continuous
 62
     7
370
    25
100
AcDbCircle
 10
53.0475156994
 20
-144.2277093673
 30
0.0
 40
7.499999999999915
100
AcDbArc
 50
303.231711068
 51
0.0
  0
CIRCLE
  5
103
330
23
100
AcDbEntity
 67
     1
  8
0
  6
Continuous
 62
     7
370
    25
100
AcDbCircle
 10
18.0475156994
 20
-54.8246543005
 30
0.0
 40
56.46293659817429
  0
LWPOLYLINE
  5
104
330
23
100
AcDbEntity
 67
     1
  8
0
  6
Continuous
 62
     7
370
    25
100
AcDbPolyline
 90
        3
 70
   128
 43
0.0
 10
-9.7461492403
 20
-78.4839484233
 10
-0.9892410575
 20
-71.0296503249
 10
7.7676670616
 20
-63.5753521612
  0
LWPOLYLINE
  5
105
330
23
100
AcDbEntity
 67
     1
  8
0
  6
Continuous
 62
     7
370
    25
100
AcDbPolyline
 90
        3
 70
   128
 43
0.0
 10
5.6606508453
 20
-60.1926687889
 10
-4.8911229188
 20
-64.7654218799
 10
-15.4428966706
 20
-69.3381750059
  0
LWPOLYLINE
  5
106
330
23
100
AcDbEntity
 67
     1
  8
0
  6
Continuous
 62
     7
370
    25
100
AcDbPolyline
 90
        3
 70
   128
 43
0.0
 10
45.1072096447
 20
-30.3292879476
 10
36.5815525956
 20
-38.0470060652
 10
28.0558956122
 20
-45.7647242462
  0
LWPOLYLINE
  5
107
330
23
100
AcDbEntity
 67
     1
  8
0
  6
Continuous
 62
     7
370
    25
100
AcDbPolyline
 90
        3
 70
   128
 43
0.0
 10
30.265026505
 20
-49.0816211141
 10
40.6725357088
 20
-44.1894076507
 10
51.0800448994
 20
-39.2971941528
  0
LWPOLYLINE
  5
108
330
23
100
AcDbEntity
 67
     1
  8
0
  6
Continuous
 62
     7
370
    25
100
AcDbPolyline
 90
        3
 70
   128
 43
0.0
 10
42.9524318415
 20
-81.5078917564
 10
35.1056774881
 20
-73.1008442854
 10
27.2589230724
 20
-64.6937968811
  0
LWPOLYLINE
  5
109
330
23
100
AcDbEntity
 67
     1
  8
0
  6
Continuous
 62
     7
370
    25
100
AcDbPolyline
 90
        3
 70
   128
 43
0.0
 10
23.9760789784
 20
-66.9532213185
 10
29.0263365947
 20
-77.2849635921
 10
34.0765942454
 20
-87.6167058519
  0
LWPOLYLINE
  5
10A
330
23
100
AcDbEntity
 67
     1
  8
0
  6
Continuous
 62
     7
370
    25
100
AcDbPolyline
 90
        3
 70
   128
 43
0.0
 10
53.6900854714
 20
-46.9597176051
 10
42.4602346996
 20
-49.4377112903
 10
31.2303839534
 20
-51.9157050632
  0
LWPOLYLINE
  5
10B
330
23
100
AcDbEntity
 67
     1
  8
0
  6
Continuous
 62
     7
370
    25
100
AcDbPolyline
 90
        3
 70
   128
 43
0.0
 10
31.50530022
 20
-55.8914421244
 10
42.969338889
 20
-56.8001873001
 10
54.4333775637
 20
-57.7089324392
  0
LWPOLYLINE
  5
10C
330
23
100
AcDbEntity
 67
     1
  8
0
  6
Continuous
 62
     7
370
    25
100
AcDbPolyline
 90
        3
 70
   128
 43
0.0
 10
52.9028394955
 20
-65.657770761
 10
41.9210251636
 20
-62.2445970118
 10
30.9392108107
 20
-58.8314233513
  0
LWPOLYLINE
  5
10D
330
23
100
AcDbEntity
 67
     1
  8
0
  6
Continuous
 62
     7
370
    25
100
AcDbPolyline
 90
        3
 70
   128
 43
0.0
 10
29.207639354
 20
-62.4208138879
 10
38.7144113628
 20
-68.8916164944
 10
48.2211833946
 20
-75.3624190719
  0
LWPOLYLINE
  5
10E
330
23
100
AcDbEntity
 67
     1
  8
0
  6
Continuous
 62
     7
370
    25
100
AcDbPolyline
 90
        3
 70
   128
 43
0.0
 10
24.2751398769
 20
-90.7894524547
 10
22.3130117804
 20
-79.4580776752
 10
20.3508835952
 20
-68.1267029173
  0
LWPOLYLINE
  5
10F
330
23
100
AcDbEntity
 67
     1
  8
0
  6
Continuous
 62
     7
370
    25
100
AcDbPolyline
 90
        3
 70
   128
 43
0.0
 10
16.3667360802
 20
-68.2196153058
 10
14.9349608564
 20
-79.6301376474
 10
13.503185669
 20
-91.0406599963
  0
LWPOLYLINE
  5
110
330
23
100
AcDbEntity
 67
     1
  8
0
  6
Continuous
 62
     7
370
    25
100
AcDbPolyline
 90
        3
 70
   128
 43
0.0
 10
-17.818195443
 20
-61.5996652537
 10
-6.5180398579
 20
-59.4650728303
 10
4.7821157042
 20
-57.3304803186
  0
LWPOLYLINE
  5
111
330
23
100
AcDbEntity
 67
     1
  8
0
  6
Continuous
 62
     7
370
    25
100
AcDbPolyline
 90
        3
 70
   128
 43
0.0
 10
4.6284949762
 20
-53.3482115173
 10
-6.8025226806
 20
-52.0905010058
 10
-18.233540344
 20
-50.8327905308
  0
LWPOLYLINE
  5
112
330
23
100
AcDbEntity
 67
     1
  8
0
  6
Continuous
 62
     7
370
    25
100
AcDbPolyline
 90
        3
 70
   128
 43
0.0
 10
5.6326099041
 20
-89.1484088047
 10
9.5441556348
 20
-78.3340752118
 10
13.4557012778
 20
-67.5197415937
  0
LWPOLYLINE
  5
113
330
23
100
AcDbEntity
 67
     1
  8
0
  6
Continuous
 62
     7
370
    25
100
AcDbPolyline
 90
        3
 70
   128
 43
0.0
 10
9.9492058231
 20
-65.625921708
 10
3.0506455626
 20
-74.8270013584
 10
-3.8479146698
 20
-84.0280810331
  0
LWPOLYLINE
  5
114
330
23
100
AcDbEntity
 67
     1
  8
0
  6
Continuous
 62
     7
370
    25
100
AcDbPolyline
 90
        3
 70
   128
 43
0.0
 10
-16.4614579162
 20
-42.9342905901
 10
-5.5887676159
 20
-46.6805696368
 10
5.2839227082
 20
-50.4268485953
  0
LWPOLYLINE
  5
115
330
23
100
AcDbEntity
 67
     1
  8
0
  6
Continuous
 62
     7
370
    25
100
AcDbPolyline
 90
        3
 70
   128
 43
0.0
 10
7.1240830227
 20
-46.8918982208
 10
-2.1810633384
 20
-40.1343652688
 10
-11.4862097234
 20
-33.3768323451
  0
LWPOLYLINE
  5
116
330
23
100
AcDbEntity
 67
     1
  8
0
  6
Continuous
 62
     7
370
    25
100
AcDbPolyline
 90
        3
 70
   128
 43
0.0
 10
29.4105754714
 20
-20.1384772008
 10
25.8304332818
 20
-31.0669987368
 10
22.2502911806
 20
-41.9955202953
  0
LWPOLYLINE
  5
117
330
23
100
AcDbEntity
 67
     1
  8
0
  6
Continuous
 62
     7
370
    25
100
AcDbPolyline
 90
        3
 70
   128
 43
0.0
 10
25.8128753887
 20
-43.7815936124
 10
32.4278114154
 20
-34.3745419084
 10
39.0427474135
 20
-24.967490181
  0
LWPOLYLINE
  5
118
330
23
100
AcDbEntity
 67
     1
  8
0
  6
Continuous
 62
     7
370
    25
100
AcDbPolyline
 90
        3
 70
   128
 43
0.0
 10
10.726691647
 20
-19.0663609356
 10
13.0332525815
 20
-30.3326725644
 10
15.3398136038
 20
-41.5989841689
  0
LWPOLYLINE
  5
119
330
23
100
AcDbEntity
 67
     1
  8
0
  6
Continuous
 62
     7
370
    25
100
AcDbPolyline
 90
        3
 70
   128
 43
0.0
 10
19.3192787034
 20
-41.3846907839
 10
20.4026323659
 20
-29.9358329701
 10
21.4859859918
 20
-18.4869751501
  0
LWPOLYLINE
  5
11A
330
23
100
AcDbEntity
 67
     1
  8
0
  6
Continuous
 62
     7
370
    25
100
AcDbPolyline
 90
        3
 70
   128
 43
0.0
 10
-6.0326110449
 20
-27.3947892215
 10
1.5542781488
 20
-36.0370755293
 10
9.141167412
 20
-44.6793617741
  0
LWPOLYLINE
  5
11B
330
23
100
AcDbEntity
 67
     1
  8
0
  6
Continuous
 62
     7
370
    25
100
AcDbPolyline
 90
        3
 70
   128
 43
0.0
 10
12.491346578
 20
-42.5210375494
 10
7.7583136144
 20
-32.0401788363
 10
3.025280616
 20
-21.5593201359
  0
CIRCLE
  5
122
330
23
100
AcDbEntity
 67
     1
  8
0
  6
Continuous
 62
     7
370
    25
100
AcDbCircle
 10
18.0475156994
 20
-54.8246543005
 30
0.0
 40
55.46293659817447
  0
CIRCLE
  5
123
330
23
100
AcDbEntity
 67
     1
  8
0
  6
Continuous
 62
     7
370
    25
100
AcDbCircle
 10
18.0475156994
 20
-54.8246543005
 30
0.0
 40
52.46025516623658
  0
CIRCLE
  5
124
330
23
100
AcDbEntity
 67
     1
  8
0
  6
Continuous
 62
     7
370
    25
100
AcDbCircle
 10
18.0475156994
 20
-54.8246543005
 30
0.0
 40
53.45647315996513
  0
CIRCLE
  5
125
330
23
100
AcDbEntity
 67
     1
  8
0
  6
Continuous
 62
     7
370
    25
100
AcDbCircle
 10
18.0475156994
 20
-54.8246543005
 30
0.0
 40
44.95858123569798
  0
CIRCLE
  5
126
330
23
100
AcDbEntity
 67
     1
  8
0
  6
Continuous
 62
     7
370
    25
100
AcDbCircle
 10
18.0475156994
 20
-54.8246543005
 30
0.0
 40
38.50000000000001
  0
CIRCLE
  5
127
330
23
100
AcDbEntity
 67
     1
  8
0
  6
Continuous
 62
     7
370
    25
100
AcDbCircle
 10
18.0475156994
 20
-54.8246543005
 30
0.0
 40
36.91809190058805
  0
CIRCLE
  5
134
330
23
100
AcDbEntity
 67
     1
  8
0
  6
Continuous
 62
     7
370
    25
100
AcDbCircle
 10
18.0475156994
 20
-54.8246543005
 30
0.0
 40
8.000000000000004
  0
CIRCLE
  5
135
330
23
100
AcDbEntity
 67
     1
  8
0
  6
Continuous
 62
     7
370
    25
100
AcDbCircle
 10
18.0475156994
 20
-54.8246543005
 30
0.0
 40
13.5
  0
SPLINE
  5
136
330
23
100
AcDbEntity
 67
     1
  8
0
  6
Continuous
 62
     7
370
    25
100
AcDbSpline
210
0.0
220
0.0
230
1.0
 70
     8
 71
     3
 72
    21
 73
    17
 74
     0
 42
0.000000001
 43
0.00000001
 40
0.0
 40
0.0
 40
0.0
 40
0.0
 40
0.0160866120769973
 40
0.0332086723879042
 40
0.0728742865886958
 40
0.1223526661422056
 40
0.1828777399877503
 40
0.3306078050786777
 40
0.5002290666605557
 40
0.6698715271482649
 40
0.8175088991177207
 40
0.8777784362221048
 40
0.9273839940105455
 40
0.967144700159108
 40
0.9841240874200889
 40
1.0
 40
1.0
 40
1.0
 40
1.0
 10
-9.746161411689005
 20
-78.48393393112643
 30
0.0
 10
-9.749860495896884
 20
-78.47959088296105
 30
0.0
 10
-9.757496763558883
 20
-78.47062523730503
 30
0.0
 10
-9.835139776589925
 20
-78.37921091412618
 30
0.0
 10
-10.02170382053271
 20
-78.15760832349535
 30
0.0
 10
-10.34760322827261
 20
-77.76121493230295
 30
0.0
 10
-10.94984023653866
 20
-77.00368319846993
 30
0.0
 10
-11.85345680494542
 20
-75.78740965502409
 30
0.0
 10
-12.95204823803783
 20
-74.13056646832092
 30
0.0
 10
-13.9543759836641
 20
-72.41394163508072
 30
0.0
 10
-14.64653270251405
 20
-71.06823864991266
 30
0.0
 10
-15.06055381213925
 20
-70.19422018113406
 30
0.0
 10
-15.27214143451316
 20
-69.72798089906757
 30
0.0
 10
-15.38999797644763
 20
-69.45996100374167
 30
0.0
 10
-15.43686984143353
 20
-69.35209336044029
 30
0.0
 10
-15.44080340339044
 20
-69.3430085850408
 30
0.0
 10
-15.44270412826765
 20
-69.33861875750162
 30
0.0
  0
SPLINE
  5
137
330
23
100
AcDbEntity
 67
     1
  8
0
  6
Continuous
 62
     7
370
    25
100
AcDbSpline
210
0.0
220
0.0
230
1.0
 70
     8
 71
     3
 72
    21
 73
    17
 74
     0
 42
0.000000001
 43
0.00000001
 40
0.0
 40
0.0
 40
0.0
 40
0.0
 40
0.0160866120784173
 40
0.0332086723879795
 40
0.0728742865887919
 40
0.1223526661459845
 40
0.1828777399877266
 40
0.3306078050787305
 40
0.5002290666606964
 40
0.6698715271484934
 40
0.8175088991180227
 40
0.8777784362242457
 40
0.9273839940106683
 40
0.967144700158559
 40
0.9841240874197695
 40
1.0
 40
1.0
 40
1.0
 40
1.0
 10
45.10722225209985
 20
-30.329302062042
 30
0.0
 10
45.11105198029374
 20
-30.33353035641426
 30
0.0
 10
45.11895794509888
 20
-30.34225910811685
 30
0.0
 10
45.19935090902096
 20
-30.43126465462324
 30
0.0
 10
45.39258203189011
 20
-30.6470784257806
 30
0.0
 10
45.73041086183888
 20
-31.0333553034472
 30
0.0
 10
46.35545527539167
 20
-31.77218087348664
 30
0.0
 10
47.29572024308558
 20
-32.9603500641735
 30
0.0
 10
48.44429666734321
 20
-34.58294202761267
 30
0.0
 10
49.49847607577563
 20
-36.26822167876055
 30
0.0
 10
50.23132402069709
 20
-37.59220481212003
 30
0.0
 10
50.67179011238126
 20
-38.45319922848889
 30
0.0
 10
50.89748893859959
 20
-38.91277341176617
 30
0.0
 10
51.02345912785611
 20
-39.17707691190822
 30
0.0
 10
51.07359668264814
 20
-39.28346594234531
 30
0.0
 10
51.07780529244904
 20
-39.29242661515723
 30
0.0
 10
51.07983892238412
 20
-39.29675647545096
 30
0.0
  0
SPLINE
  5
138
330
23
100
AcDbEntity
 67
     1
  8
0
  6
Continuous
 62
     7
370
    25
100
AcDbSpline
210
0.0
220
0.0
230
1.0
 70
     8
 71
     3
 72
    21
 73
    17
 74
     0
 42
0.000000001
 43
0.00000001
 40
0.0
 40
0.0
 40
0.0
 40
0.0
 40
0.0160866120780819
 40
0.0332086723879376
 40
0.0728742865887603
 40
0.1223526661431179
 40
0.1828777399879296
 40
0.3306078050789734
 40
0.5002290666609824
 40
0.6698715271488219
 40
0.8175088991183921
 40
0.8777784362235141
 40
0.9273839940111184
 40
0.9671447001592235
 40
0.9841240874203879
 40
1.0
 40
1.0
 40
1.0
 40
1.0
 10
42.95241792083478
 20
-81.50790457742028
 30
0.0
 10
42.94824848328039
 20
-81.51179830080923
 30
0.0
 10
42.93964123365484
 20
-81.51983637518849
 30
0.0
 10
42.85187122744622
 20
-81.60157646306162
 30
0.0
 10
42.63902739786532
 20
-81.79807418537783
 30
0.0
 10
42.25794395434576
 20
-82.14175071006366
 30
0.0
 10
41.52872998037664
 20
-82.77798236760965
 30
0.0
 10
40.35502859015093
 20
-83.73624604831166
 30
0.0
 10
38.75012958464374
 20
-84.90941767442477
 30
0.0
 10
37.08111154424481
 20
-85.98915861954005
 30
0.0
 10
35.76845091153881
 20
-86.74209919562702
 30
0.0
 10
34.91426927265771
 20
-87.19563584326495
 30
0.0
 10
34.45818815456253
 20
-87.42831245104136
 30
0.0
 10
34.19583515869048
 20
-87.55829604357514
 30
0.0
 10
34.09022258951654
 20
-87.61004916358031
 30
0.0
 10
34.08132709735877
 20
-87.61439384687755
 30
0.0
 10
34.07702873281687
 20
-87.61649322848562
 30
0.0
  0
SPLINE
  5
139
330
23
100
AcDbEntity
 67
     1
  8
0
  6
Continuous
 62
     7
370
    25
100
AcDbSpline
210
0.0
220
0.0
230
1.0
 70
     8
 71
     3
 72
    21
 73
    17
 74
     0
 42
0.000000001
 43
0.00000001
 40
0.0
 40
0.0
 40
0.0
 40
0.0
 40
0.0160866120784183
 40
0.033208672387984
 40
0.0728742865888023
 40
0.1223526661437357
 40
0.1828777399878207
 40
0.3306078050788466
 40
0.5002290666608362
 40
0.6698715271486559
 40
0.8175088991182063
 40
0.8777784362203456
 40
0.9273839940108631
 40
0.96714470015798
 40
0.98412408741944
 40
0.9999999999999999
 40
0.9999999999999999
 40
0.9999999999999999
 40
0.9999999999999999
 10
53.69008942658481
 20
-46.95973611237225
 30
0.0
 10
53.69132023660454
 20
-46.96530660589014
 30
0.0
 10
53.69386108028983
 20
-46.97680614932248
 30
0.0
 10
53.71957612944578
 20
-47.09395456887638
 30
0.0
 10
53.78045186488045
 20
-47.37716473023821
 30
0.0
 10
53.88243808546391
 20
-47.88009311019727
 30
0.0
 10
54.05916565563741
 20
-48.8315714903036
 30
0.0
 10
54.28698743486985
 20
-50.32955061969547
 30
0.0
 10
54.48044174357796
 20
-52.30808743073181
 30
0.0
 10
54.56083947613349
 20
-54.29428931682892
 30
0.0
 10
54.54119973256868
 20
-55.80743561782441
 30
0.0
 10
54.49706485985676
 20
-56.77354838347762
 30
0.0
 10
54.46533437829599
 20
-57.28456850698296
 30
0.0
 10
54.44375912194435
 20
-57.57656052244879
 30
0.0
 10
54.43458055481183
 20
-57.69381304524599
 30
0.0
 10
54.43379510604517
 20
-57.70368163804859
 30
0.0
 10
54.4334155716621
 20
-57.70845021168454
 30
0.0
  0
SPLINE
  5
13A
330
23
100
AcDbEntity
 67
     1
  8
0
  6
Continuous
 62
     7
370
    25
100
AcDbSpline
210
0.0
220
0.0
230
1.0
 70
     8
 71
     3
 72
    21
 73
    17
 74
     0
 42
0.000000001
 43
0.00000001
 40
0.0
 40
0.0
 40
0.0
 40
0.0
 40
0.0160866120753158
 40
0.0332086723878011
 40
0.072874286588632
 40
0.1223526661478228
 40
0.1828777399878631
 40
0.3306078050789434
 40
0.5002290666609945
 40
0.6698715271488779
 40
0.817508899118483
 40
0.877778436225769
 40
0.9273839940113037
 40
0.9671447001602352
 40
0.9841240874211589
 40
1.0
 40
1.0
 40
1.0
 40
1.0
 10
52.90283375862735
 20
-65.65778879575359
 30
0.0
 10
52.90114208121557
 20
-65.66323705409039
 30
0.0
 10
52.89764983805768
 20
-65.6744842592411
 30
0.0
 10
52.86192670953769
 20
-65.78897825051929
 30
0.0
 10
52.77444335579131
 20
-66.06513131224723
 30
0.0
 10
52.61377567604853
 20
-66.55249569464384
 30
0.0
 10
52.29572626067556
 20
-67.46649148855576
 30
0.0
 10
51.7512124858245
 20
-68.88047486331692
 30
0.0
 10
50.93868722264607
 20
-70.69481639095031
 30
0.0
 10
50.02416741421905
 20
-72.45978529938255
 30
0.0
 10
49.25720310005092
 20
-73.76430175714992
 30
0.0
 10
48.74006993737115
 20
-74.58155022304977
 30
0.0
 10
48.45925181584496
 20
-75.00967353789339
 30
0.0
 10
48.29580306126597
 20
-75.25259190564026
 30
0.0
 10
48.22972133772969
 20
-75.3498832516737
 30
0.0
 10
48.22414831804937
 20
-75.35806539719525
 30
0.0
 10
48.22145539563881
 20
-75.36201906761194
 30
0.0
  0
SPLINE
  5
13B
330
23
100
AcDbEntity
 67
     1
  8
0
  6
Continuous
 62
     7
370
    25
100
AcDbSpline
210
0.0
220
0.0
230
1.0
 70
     8
 71
     3
 72
    21
 73
    17
 74
     0
 42
0.000000001
 43
0.00000001
 40
0.0
 40
0.0
 40
0.0
 40
0.0
 40
0.0160866120772558
 40
0.0332086723879153
 40
0.072874286588739
 40
0.1223526661446703
 40
0.182877739987654
 40
0.3306078050786995
 40
0.5002290666607143
 40
0.6698715271485584
 40
0.81750889911813
 40
0.8777784362173564
 40
0.9273839940110906
 40
0.9671447001591132
 40
0.9841240874203039
 40
1.0
 40
1.0
 40
1.0
 40
1.0
 10
24.27512120816004
 20
-90.78945555985455
 30
0.0
 10
24.26950028039233
 20
-90.79043047645605
 30
0.0
 10
24.25789662215418
 20
-90.79244306219316
 30
0.0
 10
24.13969529049085
 20
-90.81277680625332
 30
0.0
 10
23.8539986974319
 20
-90.8606444089024
 30
0.0
 10
23.3469344978805
 20
-90.93953700740106
 30
0.0
 10
22.38837291325462
 20
-91.07259124569944
 30
0.0
 10
20.88154638634313
 20
-91.23170772186769
 30
0.0
 10
18.89623521323983
 20
-91.33452809008062
 30
0.0
 10
16.90843438307148
 20
-91.32405969276553
 30
0.0
 10
15.39776710710548
 20
-91.23528002736408
 30
0.0
 10
14.43468125483194
 20
-91.14703375748304
 30
0.0
 10
13.92564547532777
 20
-91.091979554533
 30
0.0
 10
13.6349447426908
 20
-91.0570809467132
 30
0.0
 10
13.51823427761807
 20
-91.04255278302541
 30
0.0
 10
13.50841189833593
 20
-91.04131709741824
 30
0.0
 10
13.50366565539908
 20
-91.04072000541879
 30
0.0
  0
SPLINE
  5
13C
330
23
100
AcDbEntity
 67
     1
  8
0
  6
Continuous
 62
     7
370
    25
100
AcDbSpline
210
0.0
220
0.0
230
1.0
 70
     8
 71
     3
 72
    21
 73
    17
 74
     0
 42
0.000000001
 43
0.00000001
 40
0.0
 40
0.0
 40
0.0
 40
0.0
 40
0.0160866120731512
 40
0.0332086723877404
 40
0.07287428658863
 40
0.122352666142953
 40
0.1828777399881352
 40
0.3306078050794211
 40
0.5002290666617079
 40
0.6698715271498282
 40
0.8175088991196368
 40
0.8777784362366505
 40
0.9273839940125496
 40
0.9671447001636642
 40
0.9841240874239937
 40
1.0
 40
1.0
 40
1.0
 40
1.0
 10
-17.81819883232757
 20
-61.59964663444007
 30
0.0
 10
-17.81925929966228
 20
-61.59404121738008
 30
0.0
 10
-17.82144849351715
 20
-61.58246957893339
 30
0.0
 10
-17.84358128575969
 20
-61.46459186495156
 30
0.0
 10
-17.89579739700435
 20
-61.17965796312183
 30
0.0
 10
-17.98240858333652
 20
-60.67385499068346
 30
0.0
 10
-18.13005602121079
 20
-59.71743250243877
 30
0.0
 10
-18.31211832719869
 20
-58.21320593975663
 30
0.0
 10
-18.4451832560904
 20
-56.22969233836343
 30
0.0
 10
-18.46501051944303
 20
-54.24196282775247
 30
0.0
 10
-18.39926400780945
 20
-52.73011797984758
 30
0.0
 10
-18.32570558962196
 20
-51.76579908962091
 30
0.0
 10
-18.27841557809862
 20
-51.25598339261575
 30
0.0
 10
-18.24795135519962
 20
-50.96478456044654
 30
0.0
 10
-18.23520356742532
 20
-50.84786623807203
 30
0.0
 10
-18.23411772016889
 20
-50.83802616747175
 30
0.0
 10
-18.23359303111721
 20
-50.83327137596564
 30
0.0
  0
SPLINE
  5
13D
330
23
100
AcDbEntity
 67
     1
  8
0
  6
Continuous
 62
     7
370
    25
100
AcDbSpline
210
0.0
220
0.0
230
1.0
 70
     8
 71
     3
 72
    21
 73
    17
 74
     0
 42
0.000000001
 43
0.00000001
 40
0.0
 40
0.0
 40
0.0
 40
0.0
 40
0.0160866120769127
 40
0.0332086723878487
 40
0.0728742865886553
 40
0.1223526661392265
 40
0.1828777399876307
 40
0.3306078050786096
 40
0.5002290666605493
 40
0.6698715271483157
 40
0.8175088991178237
 40
0.8777784362283797
 40
0.9273839940102648
 40
0.9671447001579407
 40
0.9841240874191989
 40
1.0
 40
1.0
 40
1.0
 40
1.0
 10
5.632592150387453
 20
-89.14840224952636
 30
0.0
 10
5.62722690639159
 20
-89.14646331986629
 30
0.0
 10
5.61615107331451
 20
-89.14246065730707
 30
0.0
 10
5.503409512794488
 20
-89.10154175599833
 30
0.0
 10
5.231543601767676
 20
-89.00152787153542
 30
0.0
 10
4.752032094332996
 20
-88.81875243886591
 30
0.0
 10
3.853528390761292
 20
-88.45925996810165
 30
0.0
 10
2.465910501897279
 20
-87.85068718712876
 30
0.0
 10
0.6906027038639968
 20
-86.95608408830165
 30
0.0
 10
-1.030722271520519
 20
-85.9618496809126
 30
0.0
 10
-2.298820235441971
 20
-85.13606217690307
 30
0.0
 10
-3.09157832162606
 20
-84.58211598845567
 30
0.0
 10
-3.506419031016867
 20
-84.28202337619763
 30
0.0
 10
-3.741612877265779
 20
-84.10764251874363
 30
0.0
 10
-3.835782189094906
 20
-84.03718302039456
 30
0.0
 10
-3.843701061015302
 20
-84.03124184869004
 30
0.0
 10
-3.847527515771491
 20
-84.02837103262496
 30
0.0
  0
SPLINE
  5
13E
330
23
100
AcDbEntity
 67
     1
  8
0
  6
Continuous
 62
     7
370
    25
100
AcDbSpline
210
0.0
220
0.0
230
1.0
 70
     8
 71
     3
 72
    21
 73
    17
 74
     0
 42
0.000000001
 43
0.00000001
 40
0.0
 40
0.0
 40
0.0
 40
0.0
 40
0.0160866120770247
 40
0.033208672387963
 40
0.0728742865888229
 40
0.1223526661371929
 40
0.1828777399880146
 40
0.3306078050791958
 40
0.5002290666613619
 40
0.6698715271493636
 40
0.817508899119067
 40
0.8777784362235542
 40
0.9273839940120793
 40
0.9671447001613643
 40
0.9841240874222268
 40
1.0
 40
1.0
 40
1.0
 40
1.0
 10
-16.46145163243361
 20
-42.93427273856502
 30
0.0
 10
-16.45959469524885
 20
-42.92887856804163
 30
0.0
 10
-16.45576129525645
 20
-42.91774301999343
 30
0.0
 10
-16.41656534801052
 20
-42.80439094160803
 30
0.0
 10
-16.32070636474628
 20
-42.53103237491329
 30
0.0
 10
-16.1452600015793
 20
-42.04879102642062
 30
0.0
 10
-15.79950264093161
 20
-41.14491294313951
 30
0.0
 10
-15.21214808666134
 20
-39.7481814503915
 30
0.0
 10
-14.34470489809089
 20
-37.95944592025082
 30
0.0
 10
-13.37681926396436
 20
-36.22316854408022
 30
0.0
 10
-12.57045370831996
 20
-34.94263270373484
 30
0.0
 10
-12.02865363112195
 20
-34.1415244467994
 30
0.0
 10
-11.73491811870912
 20
-33.72215845052293
 30
0.0
 10
-11.56414191038288
 20
-33.48433432340726
 30
0.0
 10
-11.49512575245759
 20
-33.38910213271754
 30
0.0
 10
-11.48930595579541
 20
-33.38109363595034
 30
0.0
 10
-11.48649378900702
 20
-33.37722387383646
 30
0.0
  0
SPLINE
  5
13F
330
23
100
AcDbEntity
 67
     1
  8
0
  6
Continuous
 62
     7
370
    25
100
AcDbSpline
210
0.0
220
0.0
230
1.0
 70
     8
 71
     3
 72
    21
 73
    17
 74
     0
 42
0.000000001
 43
0.00000001
 40
0.0
 40
0.0
 40
0.0
 40
0.0
 40
0.0160866120784209
 40
0.0332086723879903
 40
0.0728742865888144
 40
0.1223526661442539
 40
0.1828777399876263
 40
0.3306078050786759
 40
0.5002290666606924
 40
0.6698715271485401
 40
0.8175088991181142
 40
0.8777784362267249
 40
0.9273839940108648
 40
0.9671447001596674
 40
0.9841240874206102
 40
1.0
 40
1.0
 40
1.0
 40
1.0
 10
29.4105934166337
 20
-20.1384832117804
 30
0.0
 10
29.41601526074597
 20
-20.14025772516713
 30
0.0
 10
29.42720793723903
 20
-20.14392097218402
 30
0.0
 10
29.5411442044545
 20
-20.1813848610656
 30
0.0
 10
29.81593193203258
 20
-20.27306667733721
 30
0.0
 10
30.30079110822842
 20
-20.44114321892679
 30
0.0
 10
31.20983362145079
 20
-20.77308515810093
 30
0.0
 10
32.61535429000625
 20
-21.33908505693422
 30
0.0
 10
34.41710207082154
 20
-22.17916684848257
 30
0.0
 10
36.16792855114441
 20
-23.12047889214487
 30
0.0
 10
37.46060482944776
 20
-23.90723519960483
 30
0.0
 10
38.26987717837574
 20
-24.43676331803657
 30
0.0
 10
38.69367105264192
 20
-24.72407350272679
 30
0.0
 10
38.93407021961616
 20
-24.89120539458781
 30
0.0
 10
39.0303431689558
 20
-24.95876218124993
 30
0.0
 10
39.03843943038769
 20
-24.96445925107023
 30
0.0
 10
39.04235160100666
 20
-24.96721211538331
 30
0.0
  0
SPLINE
  5
140
330
23
100
AcDbEntity
 67
     1
  8
0
  6
Continuous
 62
     7
370
    25
100
AcDbSpline
210
0.0
220
0.0
230
1.0
 70
     8
 71
     3
 72
    21
 73
    17
 74
     0
 42
0.000000001
 43
0.00000001
 40
0.0
 40
0.0
 40
0.0
 40
0.0
 40
0.0160866120772621
 40
0.0332086723878921
 40
0.0728742865886956
 40
0.1223526661358451
 40
0.1828777399877279
 40
0.3306078050787017
 40
0.5002290666606314
 40
0.6698715271483925
 40
0.81750889911789
 40
0.8777784362269294
 40
0.9273839940103106
 40
0.967144700157641
 40
0.984124087419008
 40
1.0
 40
1.0
 40
1.0
 40
1.0
 10
10.72671021246258
 20
-19.0663572629633
 30
0.0
 10
10.73229881680177
 20
-19.06521149121821
 30
0.0
 10
10.74383574761817
 20
-19.06284619774741
 30
0.0
 10
10.86136246375083
 20
-19.03891949823995
 30
0.0
 10
11.14546749079273
 20
-18.98236700699552
 30
0.0
 10
11.64989174997202
 20
-18.88805735057349
 30
0.0
 10
12.60395298719155
 20
-18.72585100818038
 30
0.0
 10
14.10523018905387
 20
-18.52088516117915
 30
0.0
 10
16.08648549490241
 20
-18.35760657948175
 30
0.0
 10
18.07368198288654
 20
-18.30748826087072
 30
0.0
 10
19.58635323642239
 20
-18.35018634735355
 30
0.0
 10
20.55168117589556
 20
-18.40903982794554
 30
0.0
 10
21.0621583721111
 20
-18.44855466367359
 30
0.0
 10
21.35378766527319
 20
-18.47457742554019
 30
0.0
 10
21.47088668753726
 20
-18.48554187638586
 30
0.0
 10
21.48074216383826
 20
-18.48647763307471
 30
0.0
 10
21.48550439948821
 20
-18.48692979730576
 30
0.0
  0
SPLINE
  5
141
330
23
100
AcDbEntity
 67
     1
  8
0
  6
Continuous
 62
     7
370
    25
100
AcDbSpline
210
0.0
220
0.0
230
1.0
 70
     8
 71
     3
 72
    21
 73
    17
 74
     0
 42
0.000000001
 43
0.00000001
 40
0.0
 40
0.0
 40
0.0
 40
0.0
 40
0.0160865817733953
 40
0.0332086098278103
 40
0.0728741493045263
 40
0.1223524356437608
 40
0.1828773954735261
 40
0.3305990174746166
 40
0.50023000815513
 40
0.669872149061845
 40
0.8175092429045951
 40
0.8777786664807135
 40
0.9273841308088053
 40
0.9671447620545922
 40
0.9841241173288319
 40
1.0
 40
1.0
 40
1.0
 40
1.0
 10
-6.032596858576957
 20
-27.39477680906195
 30
0.0
 10
-6.028310689047432
 20
-27.39101196527179
 30
0.0
 10
-6.019462461775361
 20
-27.38323994569351
 30
0.0
 10
-5.929242060007216
 20
-27.30421278730115
 30
0.0
 10
-5.710508363673452
 20
-27.11429306464015
 30
0.0
 10
-5.319128397909593
 20
-26.78239085662704
 30
0.0
 10
-4.57088212550951
 20
-26.16869506450568
 30
0.0
 10
-3.368564447679155
 20
-25.24667667539224
 30
0.0
 10
-1.728621686401675
 20
-24.12293238652338
 30
0.0
 10
-0.0274450613363189
 20
-23.09454438165283
 30
0.0
 10
1.307554779184119
 20
-22.38195798691554
 30
0.0
 10
2.175161814825681
 20
-21.9546648883428
 30
0.0
 10
2.638122338939803
 20
-21.7359962502278
 30
0.0
 10
2.904314947474076
 20
-21.61406872743942
 30
0.0
 10
3.011455727918147
 20
-21.56555838332189
 30
0.0
 10
3.020479499992429
 20
-21.56148682460679
 30
0.0
 10
3.024839850294585
 20
-21.55951941872292
 30
0.0
  0
LINE
  5
142
330
23
100
AcDbEntity
 67
     1
  8
0
  6
Continuous
 62
     7
370
    25
100
AcDbLine
 10
-7.1854203424
 20
30.1064880368
 30
0.0
 11
-7.1717126958
 21
25.1065068268
 31
0.0
  0
LINE
  5
143
330
23
100
AcDbEntity
 67
     1
  8
0
  6
Continuous
 62
     7
370
    25
100
AcDbLine
 10
42.8280994043
 20
25.2435832925
 30
0.0
 11
42.8143917577
 21
30.2435645025
 31
0.0
  0
LINE
  5
144
330
23
100
AcDbEntity
 67
     1
  8
0
  6
Continuous
 62
     7
370
    25
100
AcDbLine
 10
42.8143917577
 20
30.2435645025
 30
0.0
 11
-7.1854203424
 21
30.1064880368
 31
0.0
  0
LINE
  5
145
330
23
100
AcDbEntity
 67
     1
  8
0
  6
Continuous
 62
     7
370
    25
100
AcDbLine
 10
42.8280994043
 20
25.2435832925
 30
0.0
 11
-7.1717126958
 21
25.1065068268
 31
0.0
  0
LINE
  5
146
330
23
100
AcDbEntity
 67
     1
  8
0
  6
Continuous
 62
     7
370
    25
100
AcDbLine
 10
23.0710231803
 20
1.4143675783
 30
0.0
 11
23.0058434262
 21
25.1892397925
 31
0.0
  0
LINE
  5
147
330
23
100
AcDbEntity
 67
     1
  8
0
  6
Continuous
 62
     7
370
    25
100
AcDbLine
 10
30.3965149021
 20
0.271311323
 30
0.0
 11
30.3281463793
 21
25.2093141761
 31
0.0
  0
LINE
  5
148
330
23
100
AcDbEntity
 67
     1
  8
0
  6
Continuous
 62
     7
370
    25
100
AcDbLine
 10
5.396608852
 20
0.2027730901
 30
0.0
 11
5.3282403292
 21
25.1407759432
 31
0.0
  0
LINE
  5
149
330
23
100
AcDbEntity
 67
     1
  8
0
  6
Continuous
 62
     7
370
    25
100
AcDbLine
 10
12.7157230363
 20
1.3859781127
 30
0.0
 11
12.6505432823
 21
25.1608503269
 31
0.0
  0
ARC
  5
14A
330
23
100
AcDbEntity
 67
     1
  8
0
  6
Continuous
 62
     7
370
    25
100
AcDbCircle
 10
18.0475156994
 20
-54.8246543005
 30
0.0
 40
26.80634281121569
100
AcDbArc
 50
279.8158894566
 51
296.0579935111
  0
ARC
  5
14B
330
23
100
AcDbEntity
 67
     1
  8
0
  6
Continuous
 62
     7
370
    25
100
AcDbCircle
 10
18.0475156994
 20
-54.8246543005
 30
0.0
 40
26.80634281121714
100
AcDbArc
 50
313.0207807469
 51
325.7517111103
  0
ARC
  5
14C
330
23
100
AcDbEntity
 67
     1
  8
0
  6
Continuous
 62
     7
370
    25
100
AcDbCircle
 10
18.0475156994
 20
-54.8246543005
 30
0.0
 40
26.80634281121677
100
AcDbArc
 50
342.7416362882
 51
355.475856757
  0
ARC
  5
14D
330
23
100
AcDbEntity
 67
     1
  8
0
  6
Continuous
 62
     7
370
    25
100
AcDbCircle
 10
18.0475156994
 20
-54.8246543005
 30
0.0
 40
26.8063428112153
100
AcDbArc
 50
12.4384939403
 51
25.1694697801
  0
ARC
  5
14E
330
23
100
AcDbEntity
 67
     1
  8
0
  6
Continuous
 62
     7
370
    25
100
AcDbCircle
 10
18.0475156994
 20
-54.8246543005
 30
0.0
 40
26.80634281121749
100
AcDbArc
 50
42.1595903137
 51
54.8937154777
  0
ARC
  5
14F
330
23
100
AcDbEntity
 67
     1
  8
0
  6
Continuous
 62
     7
370
    25
100
AcDbCircle
 10
18.0475156994
 20
-54.8246543005
 30
0.0
 40
26.80634281122102
100
AcDbArc
 50
71.8562090289
 51
84.5872314265
  0
ARC
  5
150
330
23
100
AcDbEntity
 67
     1
  8
0
  6
Continuous
 62
     7
370
    25
100
AcDbCircle
 10
18.0475156994
 20
-54.8246543005
 30
0.0
 40
26.80634281122364
100
AcDbArc
 50
101.5775387745
 51
114.3115697309
  0
ARC
  5
151
330
23
100
AcDbEntity
 67
     1
  8
0
  6
Continuous
 62
     7
370
    25
100
AcDbCircle
 10
18.0475156998
 20
-54.8246543008
 30
0.0
 40
26.80634281167316
100
AcDbArc
 50
131.2739259581
 51
144.0049961068
  0
ARC
  5
152
330
23
100
AcDbEntity
 67
     1
  8
0
  6
Continuous
 62
     7
370
    25
100
AcDbCircle
 10
18.0475156994
 20
-54.8246543005
 30
0.0
 40
26.80634281122141
100
AcDbArc
 50
160.9954817289
 51
173.7294195745
  0
ARC
  5
153
330
23
100
AcDbEntity
 67
     1
  8
0
  6
Continuous
 62
     7
370
    25
100
AcDbCircle
 10
18.0475156994
 20
-54.8246543005
 30
0.0
 40
26.80634281122201
100
AcDbArc
 50
190.6916451208
 51
203.4227638788
  0
ARC
  5
154
330
23
100
AcDbEntity
 67
     1
  8
0
  6
Continuous
 62
     7
370
    25
100
AcDbCircle
 10
18.0475156994
 20
-54.8246543005
 30
0.0
 40
26.80634281122321
100
AcDbArc
 50
220.4134192351
 51
233.1472650663
  0
ARC
  5
155
330
23
100
AcDbEntity
 67
     1
  8
0
  6
Continuous
 62
     7
370
    25
100
AcDbCircle
 10
18.0475156994
 20
-54.8246543005
 30
0.0
 40
26.80634281122599
100
AcDbArc
 50
250.1093662382
 51
262.8405347995
  0
VIEWPORT
  5
158
330
23
100
AcDbEntity
 67
     1
  8
0
100
AcDbViewport
 10
0.0
 20
0.0
 30
0.0
 40
205.6
 41
156.0
 68
     1
 69
     1
 12
18.0475156994
 22
32.4661350752
 13
0.0
 23
0.0
 14
10.0
 24
10.0
 15
10.0
 25
10.0
 16
0.0
 26
0.0
 36
1.0
 17
0.0
 27
0.0
 37
0.0
 42
50.0
 43
0.0
 44
0.0
 45
388.1026508074
 50
0.0
 51
0.0
 72
   100
 90
   557152
  1

281
     0
 71
     1
 74
     0
110
0.0
120
0.0
130
0.0
111
1.0
121
0.0
131
0.0
112
0.0
122
1.0
132
0.0
 79
     0
146
0.0
  0
ENDSEC
  0
SECTION
  2
OBJECTS
  0
DICTIONARY
  5
C
330
0
100
AcDbDictionary
281
     1
  3
ACAD_GROUP
350
D
  3
ACAD_LAYOUT
350
1A
  3
ACAD_MLINESTYLE
350
17
  3
ACAD_PLOTSETTINGS
350
19
  3
ACAD_PLOTSTYLENAME
350
E
  3
ACAD_SCALELIST
350
47
  0
DICTIONARY
  5
D
102
{ACAD_REACTORS
330
C
102
}
330
C
100
AcDbDictionary
281
     1
  0
DICTIONARY
  5
1A
102
{ACAD_REACTORS
330
C
102
}
330
C
100
AcDbDictionary
281
     1
  3
_Right
350
1E
  3
_Top
350
26
  3
Model
350
22
  0
DICTIONARY
  5
17
102
{ACAD_REACTORS
330
C
102
}
330
C
100
AcDbDictionary
281
     1
  3
Standard
350
18
  0
DICTIONARY
  5
19
102
{ACAD_REACTORS
330
C
102
}
330
C
100
AcDbDictionary
281
     1
  0
ACDBDICTIONARYWDFLT
  5
E
102
{ACAD_REACTORS
330
C
102
}
330
C
100
AcDbDictionary
281
     1
  3
Normal
350
F
100
AcDbDictionaryWithDefault
340
F
  0
DICTIONARY
  5
47
102
{ACAD_REACTORS
330
C
102
}
330
C
100
AcDbDictionary
281
     1
  3
A0
350
48
  3
A1
350
49
  3
A2
350
4A
  3
A3
350
4B
  3
A4
350
4C
  3
A5
350
4D
  3
A6
350
4E
  3
A7
350
4F
  3
A8
350
50
  3
A9
350
51
  3
B0
350
52
  3
B1
350
53
  3
B2
350
54
  3
B3
350
55
  3
B4
350
56
  3
B5
350
57
  3
B6
350
58
  3
B7
350
59
  3
B8
350
5A
  3
B9
350
5B
  3
C0
350
5C
  3
C1
350
5D
  3
C2
350
5E
  3
C3
350
5F
  3
C4
350
60
  3
C5
350
61
  3
C6
350
62
  3
C7
350
63
  3
C8
350
64
  3
C9
350
65
  3
D0
350
66
  3
D1
350
67
  3
D2
350
68
  0
LAYOUT
  5
1E
102
{ACAD_REACTORS
330
1A
102
}
330
1A
100
AcDbPlotSettings
  1

  2
none_device
  4
ISO_A4_(210.00_x_297.00_MM)
  6

 40
7.5
 41
20.0
 42
7.5
 43
20.0
 44
210.0
 45
297.0
 46
0.0
 47
0.0
 48
0.0
 49
0.0
140
0.0
141
0.0
142
1.0
143
1.9512451021
 70
   688
 72
     1
 73
     1
 74
     1
  7

 75
     0
147
0.5124932787
148
111.2875908986
149
157.7802623794
100
AcDbLayout
  1
_Right
 70
     1
 71
     1
 10
-150.3124929406
 20
-172.4146006452
 11
429.2073023827
 21
237.3468707955
 12
0.0
 22
0.0
 32
0.0
 14
1.0000000000E+20
 24
1.0000000000E+20
 34
1.0000000000E+20
 15
-1.0000000000E+20
 25
-1.0000000000E+20
 35
-1.0000000000E+20
146
0.0
 13
0.0
 23
0.0
 33
0.0
 16
1.0
 26
0.0
 36
0.0
 17
0.0
 27
1.0
 37
0.0
 76
     0
330
1B
331
156
  0
LAYOUT
  5
26
102
{ACAD_REACTORS
330
1A
102
}
330
1A
100
AcDbPlotSettings
  1

  2
none_device
  4
ANSI_A_(11.00_x_8.50_Inches)
  6

 40
6.35
 41
19.05
 42
6.35000508
 43
19.05000254
 44
279.4
 45
215.9
 46
123.2118447677
 47
70.6622179627
 48
0.0
 49
0.0
140
0.0
141
0.0
142
0.0221160561
143
1.0
 70
  1696
 72
     0
 73
     0
 74
     1
  7

 75
     0
147
0.0183971944
148
975.7516908278
149
4007.6186644372
100
AcDbLayout
  1
_Top
 70
     1
 71
     2
 10
0.0
 20
0.0
 11
0.0
 21
0.0
 12
0.0
 22
0.0
 32
0.0
 14
-38.4154208987
 24
-157.7802623794
 34
0.0
 15
74.5104522976
 25
222.7125325298
 35
0.0
146
0.0
 13
0.0
 23
0.0
 33
0.0
 16
1.0
 26
0.0
 36
0.0
 17
0.0
 27
1.0
 37
0.0
 76
     0
330
23
331
158
  0
LAYOUT
  5
22
102
{ACAD_REACTORS
330
1A
102
}
330
1A
100
AcDbPlotSettings
  1

  2
none_device
  4
Letter_(8.50_x_11.00_Inches)
  6

 40
6.35
 41
6.35
 42
6.35000508
 43
6.35000508
 44
215.9
 45
279.4
 46
0.0
 47
0.0
 48
0.0
 49
0.0
140
0.0
141
0.0
142
1.0
143
1.0
 70
  1712
 72
     1
 73
     0
 74
     0
  7

 75
     0
147
1.0
148
0.0
149
0.0
100
AcDbLayout
  1
Model
 70
     1
 71
     0
 10
0.0
 20
0.0
 11
420.0
 21
297.0
 12
0.0
 22
0.0
 32
0.0
 14
-38.4154208987
 24
-157.7802623794
 34
0.0
 15
74.5104522976
 25
222.7125325298
 35
0.0
146
0.0
 13
0.0
 23
0.0
 33
0.0
 16
1.0
 26
0.0
 36
0.0
 17
0.0
 27
1.0
 37
0.0
 76
     0
330
1F
331
29
  0
MLINESTYLE
  5
18
102
{ACAD_REACTORS
330
17
102
}
330
17
100
AcDbMlineStyle
  2
Standard
 70
     0
  3

 62
   256
 51
90.0
 52
90.0
 71
     2
 49
0.5
 62
   256
  6
BYLAYER
 49
-0.5
 62
   256
  6
BYLAYER
  0
ACDBPLACEHOLDER
  5
F
102
{ACAD_REACTORS
330
E
102
}
330
E
  0
SCALE
  5
48
102
{ACAD_REACTORS
330
47
102
}
330
47
100
AcDbScale
 70
     0
300
1:1
140
1.0
141
1.0
290
     1
  0
SCALE
  5
49
102
{ACAD_REACTORS
330
47
102
}
330
47
100
AcDbScale
 70
     0
300
1:2
140
1.0
141
2.0
290
     0
  0
SCALE
  5
4A
102
{ACAD_REACTORS
330
47
102
}
330
47
100
AcDbScale
 70
     0
300
1:4
140
1.0
141
4.0
290
     0
  0
SCALE
  5
4B
102
{ACAD_REACTORS
330
47
102
}
330
47
100
AcDbScale
 70
     0
300
1:5
140
1.0
141
5.0
290
     0
  0
SCALE
  5
4C
102
{ACAD_REACTORS
330
47
102
}
330
47
100
AcDbScale
 70
     0
300
1:8
140
1.0
141
8.0
290
     0
  0
SCALE
  5
4D
102
{ACAD_REACTORS
330
47
102
}
330
47
100
AcDbScale
 70
     0
300
1:10
140
1.0
141
10.0
290
     0
  0
SCALE
  5
4E
102
{ACAD_REACTORS
330
47
102
}
330
47
100
AcDbScale
 70
     0
300
1:16
140
1.0
141
16.0
290
     0
  0
SCALE
  5
4F
102
{ACAD_REACTORS
330
47
102
}
330
47
100
AcDbScale
 70
     0
300
1:20
140
1.0
141
20.0
290
     0
  0
SCALE
  5
50
102
{ACAD_REACTORS
330
47
102
}
330
47
100
AcDbScale
 70
     0
300
1:30
140
1.0
141
30.0
290
     0
  0
SCALE
  5
51
102
{ACAD_REACTORS
330
47
102
}
330
47
100
AcDbScale
 70
     0
300
1:40
140
1.0
141
40.0
290
     0
  0
SCALE
  5
52
102
{ACAD_REACTORS
330
47
102
}
330
47
100
AcDbScale
 70
     0
300
1:50
140
1.0
141
50.0
290
     0
  0
SCALE
  5
53
102
{ACAD_REACTORS
330
47
102
}
330
47
100
AcDbScale
 70
     0
300
1:100
140
1.0
141
100.0
290
     0
  0
SCALE
  5
54
102
{ACAD_REACTORS
330
47
102
}
330
47
100
AcDbScale
 70
     0
300
2:1
140
2.0
141
1.0
290
     0
  0
SCALE
  5
55
102
{ACAD_REACTORS
330
47
102
}
330
47
100
AcDbScale
 70
     0
300
4:1
140
4.0
141
1.0
290
     0
  0
SCALE
  5
56
102
{ACAD_REACTORS
330
47
102
}
330
47
100
AcDbScale
 70
     0
300
8:1
140
8.0
141
1.0
290
     0
  0
SCALE
  5
57
102
{ACAD_REACTORS
330
47
102
}
330
47
100
AcDbScale
 70
     0
300
10:1
140
10.0
141
1.0
290
     0
  0
SCALE
  5
58
102
{ACAD_REACTORS
330
47
102
}
330
47
100
AcDbScale
 70
     0
300
100:1
140
100.0
141
1.0
290
     0
  0
SCALE
  5
59
102
{ACAD_REACTORS
330
47
102
}
330
47
100
AcDbScale
 70
     0
300
1/128" = 1'-0"
140
0.0078125
141
12.0
290
     0
  0
SCALE
  5
5A
102
{ACAD_REACTORS
330
47
102
}
330
47
100
AcDbScale
 70
     0
300
1/64" = 1'-0"
140
0.015625
141
12.0
290
     0
  0
SCALE
  5
5B
102
{ACAD_REACTORS
330
47
102
}
330
47
100
AcDbScale
 70
     0
300
1/32" = 1'-0"
140
0.03125
141
12.0
290
     0
  0
SCALE
  5
5C
102
{ACAD_REACTORS
330
47
102
}
330
47
100
AcDbScale
 70
     0
300
1/16" = 1'-0"
140
0.0625
141
12.0
290
     0
  0
SCALE
  5
5D
102
{ACAD_REACTORS
330
47
102
}
330
47
100
AcDbScale
 70
     0
300
3/32" = 1'-0"
140
0.09375
141
12.0
290
     0
  0
SCALE
  5
5E
102
{ACAD_REACTORS
330
47
102
}
330
47
100
AcDbScale
 70
     0
300
1/8" = 1'-0"
140
0.125
141
12.0
290
     0
  0
SCALE
  5
5F
102
{ACAD_REACTORS
330
47
102
}
330
47
100
AcDbScale
 70
     0
300
3/16" = 1'-0"
140
0.1875
141
12.0
290
     0
  0
SCALE
  5
60
102
{ACAD_REACTORS
330
47
102
}
330
47
100
AcDbScale
 70
     0
300
1/4" = 1'-0"
140
0.25
141
12.0
290
     0
  0
SCALE
  5
61
102
{ACAD_REACTORS
330
47
102
}
330
47
100
AcDbScale
 70
     0
300
3/8" = 1'-0"
140
0.375
141
12.0
290
     0
  0
SCALE
  5
62
102
{ACAD_REACTORS
330
47
102
}
330
47
100
AcDbScale
 70
     0
300
1/2" = 1'-0"
140
0.5
141
12.0
290
     0
  0
SCALE
  5
63
102
{ACAD_REACTORS
330
47
102
}
330
47
100
AcDbScale
 70
     0
300
3/4" = 1'-0"
140
0.75
141
12.0
290
     0
  0
SCALE
  5
64
102
{ACAD_REACTORS
330
47
102
}
330
47
100
AcDbScale
 70
     0
300
1" = 1'-0"
140
1.0
141
12.0
290
     0
  0
SCALE
  5
65
102
{ACAD_REACTORS
330
47
102
}
330
47
100
AcDbScale
 70
     0
300
1-1/2" = 1'-0"
140
1.5
141
12.0
290
     0
  0
SCALE
  5
66
102
{ACAD_REACTORS
330
47
102
}
330
47
100
AcDbScale
 70
     0
300
3" = 1'-0"
140
3.0
141
12.0
290
     0
  0
SCALE
  5
67
102
{ACAD_REACTORS
330
47
102
}
330
47
100
AcDbScale
 70
     0
300
6" = 1'-0"
140
6.0
141
12.0
290
     0
  0
SCALE
  5
68
102
{ACAD_REACTORS
330
47
102
}
330
47
100
AcDbScale
 70
     0
300
1'-0" = 1'-0"
140
12.0
141
12.0
290
     0
  0
ENDSEC
  0
EOF
