  0
SECTION
  2
HEADER
  9
$ACADVER
  1
AC1015
  9
$ACADMAINTVER
 70
     6
  9
$DWGCODEPAGE
  3
ANSI_1252
  9
$INSBASE
 10
0.0
 20
0.0
 30
0.0
  9
$EXTMIN
 10
-85.0
 20
-30.0
 30
0.0
  9
$EXTMAX
 10
85.0
 20
30.0
 30
0.0
  9
$LIMMIN
 10
0.0
 20
0.0
  9
$LIMMAX
 10
420.0
 20
297.0
  9
$ORTHOMODE
 70
     0
  9
$REGENMODE
 70
     1
  9
$FILLMODE
 70
     1
  9
$QTEXTMODE
 70
     0
  9
$MIRRTEXT
 70
     1
  9
$LTSCALE
 40
1.0
  9
$ATTMODE
 70
     1
  9
$TEXTSIZE
 40
3.5
  9
$TRACEWID
 40
1.0
  9
$TEXTSTYLE
  7
Standard
  9
$CLAYER
  8
0
  9
$CELTYPE
  6
ByLayer
  9
$CECOLOR
 62
   256
  9
$CELTSCALE
 40
1.0
  9
$DISPSILH
 70
     0
  9
$DIMSCALE
 40
1.0
  9
$DIMASZ
 40
3.302
  9
$DIMEXO
 40
1.0
  9
$DIMDLI
 40
3.75
  9
$DIMRND
 40
0.0
  9
$DIMDLE
 40
0.0
  9
$DIMEXE
 40
1.0
  9
$DIMTP
 40
0.0
  9
$DIMTM
 40
0.0
  9
$DIMTXT
 40
3.5
  9
$DIMCEN
 40
2.5
  9
$DIMTSZ
 40
0.0
  9
$DIMTOL
 70
     0
  9
$DIMLIM
 70
     0
  9
$DIMTIH
 70
     1
  9
$DIMTOH
 70
     1
  9
$DIMSE1
 70
     0
  9
$DIMSE2
 70
     0
  9
$DIMTAD
 70
     1
  9
$DIMZIN
 70
     1
  9
$DIMBLK
  1

  9
$DIMASO
 70
     1
  9
$DIMSHO
 70
     1
  9
$DIMPOST
  1

  9
$DIMAPOST
  1

  9
$DIMALT
 70
     0
  9
$DIMALTD
 70
     3
  9
$DIMALTF
 40
0.0393700787
  9
$DIMLFAC
 40
1.0
  9
$DIMTOFL
 70
     1
  9
$DIMTVP
 40
0.0
  9
$DIMTIX
 70
     0
  9
$DIMSOXD
 70
     0
  9
$DIMSAH
 70
     0
  9
$DIMBLK1
  1

  9
$DIMBLK2
  1

  9
$DIMSTYLE
  2
ISO-25
  9
$DIMCLRD
 70
     0
  9
$DIMCLRE
 70
     0
  9
$DIMCLRT
 70
     0
  9
$DIMTFAC
 40
1.0
  9
$DIMGAP
 40
1.524
  9
$DIMJUST
 70
     0
  9
$DIMSD1
 70
     0
  9
$DIMSD2
 70
     0
  9
$DIMTOLJ
 70
     0
  9
$DIMTZIN
 70
     1
  9
$DIMALTZ
 70
     0
  9
$DIMALTTZ
 70
     0
  9
$DIMUPT
 70
     0
  9
$DIMDEC
 70
     2
  9
$DIMTDEC
 70
     2
  9
$DIMALTU
 70
     2
  9
$DIMALTTD
 70
     3
  9
$DIMTXSTY
  7
Standard
  9
$DIMAUNIT
 70
     0
  9
$DIMADEC
 70
     2
  9
$DIMALTRND
 40
0.0
  9
$DIMAZIN
 70
     0
  9
$DIMDSEP
 70
    44
  9
$DIMATFIT
 70
     3
  9
$DIMFRAC
 70
     0
  9
$DIMLDRBLK
  1

  9
$DIMLUNIT
 70
     2
  9
$DIMLWD
 70
    -2
  9
$DIMLWE
 70
    -2
  9
$DIMTMOVE
 70
     0
  9
$LUNITS
 70
     2
  9
$LUPREC
 70
     2
  9
$SKETCHINC
 40
1.0
  9
$FILLETRAD
 40
10.0
  9
$AUNITS
 70
     0
  9
$AUPREC
 70
     2
  9
$MENU
  1
.
  9
$ELEVATION
 40
0.0
  9
$PELEVATION
 40
0.0
  9
$THICKNESS
 40
0.0
  9
$LIMCHECK
 70
     0
  9
$CHAMFERA
 40
0.0
  9
$CHAMFERB
 40
0.0
  9
$CHAMFERC
 40
0.0
  9
$CHAMFERD
 40
0.0
  9
$SKPOLY
 70
     0
  9
$TDCREATE
 40
2458915.623589051
  9
$TDUCREATE
 40
2458915.623589051
  9
$TDUPDATE
 40
2458915.623647697
  9
$TDUUPDATE
 40
2458915.623647697
  9
$TDINDWG
 40
0.0000000116
  9
$TDUSRTIMER
 40
0.0000000116
  9
$USRTIMER
 70
     1
  9
$ANGBASE
 50
0.0
  9
$ANGDIR
 70
     0
  9
$PDMODE
 70
     0
  9
$PDSIZE
 40
-1.0
  9
$PLINEWID
 40
0.0
  9
$SPLFRAME
 70
     0
  9
$SPLINETYPE
 70
     6
  9
$SPLINESEGS
 70
     8
  9
$HANDSEED
  5
4A9
  9
$SURFTAB1
 70
     6
  9
$SURFTAB2
 70
     6
  9
$SURFTYPE
 70
     6
  9
$SURFU
 70
     6
  9
$SURFV
 70
     6
  9
$UCSBASE
  2

  9
$UCSNAME
  2

  9
$UCSORG
 10
0.0
 20
0.0
 30
0.0
  9
$UCSXDIR
 10
1.0
 20
0.0
 30
0.0
  9
$UCSYDIR
 10
0.0
 20
1.0
 30
0.0
  9
$UCSORTHOREF
  2

  9
$UCSORTHOVIEW
 70
     0
  9
$UCSORGTOP
 10
0.0
 20
0.0
 30
0.0
  9
$UCSORGBOTTOM
 10
0.0
 20
0.0
 30
0.0
  9
$UCSORGLEFT
 10
0.0
 20
0.0
 30
0.0
  9
$UCSORGRIGHT
 10
0.0
 20
0.0
 30
0.0
  9
$UCSORGFRONT
 10
0.0
 20
0.0
 30
0.0
  9
$UCSORGBACK
 10
0.0
 20
0.0
 30
0.0
  9
$PUCSBASE
  2

  9
$PUCSNAME
  2

  9
$PUCSORG
 10
0.0
 20
0.0
 30
0.0
  9
$PUCSXDIR
 10
1.0
 20
0.0
 30
0.0
  9
$PUCSYDIR
 10
0.0
 20
1.0
 30
0.0
  9
$PUCSORTHOREF
  2

  9
$PUCSORTHOVIEW
 70
     0
  9
$PUCSORGTOP
 10
0.0
 20
0.0
 30
0.0
  9
$PUCSORGBOTTOM
 10
0.0
 20
0.0
 30
0.0
  9
$PUCSORGLEFT
 10
0.0
 20
0.0
 30
0.0
  9
$PUCSORGRIGHT
 10
0.0
 20
0.0
 30
0.0
  9
$PUCSORGFRONT
 10
0.0
 20
0.0
 30
0.0
  9
$PUCSORGBACK
 10
0.0
 20
0.0
 30
0.0
  9
$USERI1
 70
     0
  9
$USERI2
 70
     0
  9
$USERI3
 70
     0
  9
$USERI4
 70
     0
  9
$USERI5
 70
     0
  9
$USERR1
 40
0.0
  9
$USERR2
 40
0.0
  9
$USERR3
 40
0.0
  9
$USERR4
 40
0.0
  9
$USERR5
 40
0.0
  9
$WORLDVIEW
 70
     1
  9
$SHADEDGE
 70
     3
  9
$SHADEDIF
 70
    70
  9
$TILEMODE
 70
     0
  9
$MAXACTVP
 70
    64
  9
$PINSBASE
 10
0.0
 20
0.0
 30
0.0
  9
$PLIMCHECK
 70
     0
  9
$PEXTMIN
 10
-85.0
 20
-30.0
 30
0.0
  9
$PEXTMAX
 10
85.0
 20
30.0
 30
0.0
  9
$PLIMMIN
 10
0.0
 20
0.0
  9
$PLIMMAX
 10
0.0
 20
0.0
  9
$UNITMODE
 70
     0
  9
$VISRETAIN
 70
     1
  9
$PLINEGEN
 70
     0
  9
$PSLTSCALE
 70
     1
  9
$TREEDEPTH
 70
  3020
  9
$CMLSTYLE
  2
Standard
  9
$CMLJUST
 70
     0
  9
$CMLSCALE
 40
20.0
  9
$PROXYGRAPHICS
 70
     1
  9
$MEASUREMENT
 70
     1
  9
$CELWEIGHT
370
    -1
  9
$ENDCAPS
280
     0
  9
$JOINSTYLE
280
     0
  9
$LWDISPLAY
290
     1
  9
$INSUNITS
 70
     4
  9
$HYPERLINKBASE
  1

  9
$STYLESHEET
  1

  9
$XEDIT
290
     1
  9
$CEPSNTYPE
380
     0
  9
$PSTYLEMODE
290
     1
  9
$FINGERPRINTGUID
  2
{4a55fcff-d619-425d-ad83-7d9befd94208}
  9
$VERSIONGUID
  2
{FAEB1C32-E019-11D5-929B-00C0DF256EC4}
  9
$EXTNAMES
290
     1
  9
$PSVPSCALE
 40
0.0
  9
$OLESTARTUP
290
     0
  0
ENDSEC
  0
SECTION
  2
CLASSES
  0
CLASS
  1
ACDBDICTIONARYWDFLT
  2
AcDbDictionaryWithDefault
  3
ObjectDBX Classes
 90
        0
280
     0
281
     0
  0
CLASS
  1
VISUALSTYLE
  2
AcDbVisualStyle
  3
ObjectDBX Classes
 90
     4095
280
     0
281
     0
  0
CLASS
  1
MATERIAL
  2
AcDbMaterial
  3
ObjectDBX Classes
 90
     1153
280
     0
281
     0
  0
CLASS
  1
SCALE
  2
AcDbScale
  3
ObjectDBX Classes
 90
     1153
280
     0
281
     0
  0
CLASS
  1
TABLESTYLE
  2
AcDbTableStyle
  3
ObjectDBX Classes
 90
     4095
280
     0
281
     0
  0
CLASS
  1
MLEADERSTYLE
  2
AcDbMLeaderStyle
  3
ACDB_MLEADERSTYLE_CLASS
 90
     4095
280
     0
281
     0
  0
CLASS
  1
SUN
  2
AcDbSun
  3
SCENEOE
 90
     1153
280
     0
281
     0
  0
CLASS
  1
ACDBPLACEHOLDER
  2
AcDbPlaceHolder
  3
ObjectDBX Classes
 90
        0
280
     0
281
     0
  0
CLASS
  1
LAYOUT
  2
AcDbLayout
  3
ObjectDBX Classes
 90
        0
280
     0
281
     0
  0
ENDSEC
  0
SECTION
  2
TABLES
  0
TABLE
  2
VPORT
  5
8
330
0
100
AcDbSymbolTable
 70
     1
  0
VPORT
  5
29
330
8
100
AcDbSymbolTableRecord
100
AcDbViewportTableRecord
  2
*Active
 70
     0
 10
0.0
 20
0.0
 11
1.0
 21
1.0
 12
0.0
 22
0.0
 13
0.0
 23
0.0
 14
10.0
 24
10.0
 15
10.0
 25
10.0
 16
0.0
 26
0.0
 36
1.0
 17
0.0
 27
0.0
 37
0.0
 40
61.2
 41
2.8333333333
 42
50.0
 43
0.0
 44
0.0
 50
0.0
 51
0.0
 71
     0
 72
   100
 73
     1
 74
     3
 75
     0
 76
     0
 77
     0
 78
     0
281
     0
 65
     1
110
0.0
120
0.0
130
0.0
111
1.0
121
0.0
131
0.0
112
0.0
122
1.0
132
0.0
 79
     0
146
0.0
  0
ENDTAB
  0
TABLE
  2
LTYPE
  5
5
330
0
100
AcDbSymbolTable
 70
     6
  0
LTYPE
  5
14
330
5
100
AcDbSymbolTableRecord
100
AcDbLinetypeTableRecord
  2
ByBlock
 70
     0
  3

 72
    65
 73
     0
 40
0.0
  0
LTYPE
  5
15
330
5
100
AcDbSymbolTableRecord
100
AcDbLinetypeTableRecord
  2
ByLayer
 70
     0
  3

 72
    65
 73
     0
 40
0.0
  0
LTYPE
  5
16
330
5
100
AcDbSymbolTableRecord
100
AcDbLinetypeTableRecord
  2
Continuous
 70
     0
  3
Solid line
 72
    65
 73
     0
 40
0.0
  0
LTYPE
  5
6E
330
5
100
AcDbSymbolTableRecord
100
AcDbLinetypeTableRecord
  2
HIDDEN
 70
     0
  3
Hidden __ __ __ __ __ __ __ __ __ __ __ __ __ __
 72
    65
 73
     2
 40
1.905
 49
1.27
 74
     0
 49
-0.635
 74
     0
  0
LTYPE
  5
6F
330
5
100
AcDbSymbolTableRecord
100
AcDbLinetypeTableRecord
  2
PHANTOM
 70
     0
  3
Phantom ______  __  __  ______  __  __  ______
 72
    65
 73
     6
 40
12.7
 49
6.35
 74
     0
 49
-1.27
 74
     0
 49
1.27
 74
     0
 49
-1.27
 74
     0
 49
1.27
 74
     0
 49
-1.27
 74
     0
  0
LTYPE
  5
70
330
5
100
AcDbSymbolTableRecord
100
AcDbLinetypeTableRecord
  2
CENTER
 70
     0
  3
Center ____ _ ____ _ ____ _ ____ _ ____ _ ____
 72
    65
 73
     4
 40
10.16
 49
6.35
 74
     0
 49
-1.27
 74
     0
 49
1.27
 74
     0
 49
-1.27
 74
     0
  0
LTYPE
  5
71
330
5
100
AcDbSymbolTableRecord
100
AcDbLinetypeTableRecord
  2
CENTERX2
 70
     0
  3
Center (2x) ________  __  ________  __  _____
 72
    65
 73
     4
 40
20.32
 49
12.7
 74
     0
 49
-2.54
 74
     0
 49
2.54
 74
     0
 49
-2.54
 74
     0
  0
LTYPE
  5
72
330
5
100
AcDbSymbolTableRecord
100
AcDbLinetypeTableRecord
  2
DOT2
 70
     0
  3
Dot (.5x) ........................................
 72
    65
 73
     2
 40
0.635
 49
0.0
 74
     0
 49
-0.635
 74
     0
  0
ENDTAB
  0
TABLE
  2
LAYER
  5
2
330
0
100
AcDbSymbolTable
 70
     1
  0
LAYER
  5
10
330
2
100
AcDbSymbolTableRecord
100
AcDbLayerTableRecord
  2
0
 70
     0
 62
     7
  6
Continuous
370
    -3
390
F
  0
ENDTAB
  0
TABLE
  2
STYLE
  5
3
330
0
100
AcDbSymbolTable
 70
     1
  0
STYLE
  5
11
330
3
100
AcDbSymbolTableRecord
100
AcDbTextStyleTableRecord
  2
Standard
 70
     0
 40
0.0
 41
1.0
 50
0.0
 71
     0
 42
3.5
  3
txt
  4

  0
ENDTAB
  0
TABLE
  2
VIEW
  5
6
330
0
100
AcDbSymbolTable
 70
     0
  0
ENDTAB
  0
TABLE
  2
UCS
  5
7
330
0
100
AcDbSymbolTable
 70
     0
  0
ENDTAB
  0
TABLE
  2
APPID
  5
9
330
0
100
AcDbSymbolTable
 70
     1
  0
APPID
  5
12
330
9
100
AcDbSymbolTableRecord
100
AcDbRegAppTableRecord
  2
ACAD
 70
     0
  0
ENDTAB
  0
TABLE
  2
DIMSTYLE
  5
A
330
0
100
AcDbSymbolTable
 70
     1
100
AcDbDimStyleTable
  0
DIMSTYLE
105
27
330
A
100
AcDbSymbolTableRecord
100
AcDbDimStyleTableRecord
  2
ISO-25
 70
     0
 41
2.5
 42
0.625
 43
3.75
 44
1.25
 73
     0
 74
     0
 77
     1
 78
     8
140
2.5
141
2.5
143
0.0393700787
147
0.625
171
     3
172
     1
178
     0
271
     2
272
     2
274
     3
278
    44
283
     0
284
     8
340
11
  0
ENDTAB
  0
TABLE
  2
BLOCK_RECORD
  5
1
330
0
100
AcDbSymbolTable
 70
     1
  0
BLOCK_RECORD
  5
1F
330
1
100
AcDbSymbolTableRecord
100
AcDbBlockTableRecord
  2
*Model_Space
340
22
  0
BLOCK_RECORD
  5
23
330
1
100
AcDbSymbolTableRecord
100
AcDbBlockTableRecord
  2
*Paper_Space
340
26
  0
BLOCK_RECORD
  5
1B
330
1
100
AcDbSymbolTableRecord
100
AcDbBlockTableRecord
  2
*Paper_Space0
340
1E
  0
ENDTAB
  0
ENDSEC
  0
SECTION
  2
BLOCKS
  0
BLOCK
  5
20
330
1F
100
AcDbEntity
  8
0
100
AcDbBlockBegin
  2
*Model_Space
 70
     0
 10
0.0
 20
0.0
 30
0.0
  3
*Model_Space
  1

  0
ENDBLK
  5
21
330
1F
100
AcDbEntity
  8
0
100
AcDbBlockEnd
  0
BLOCK
  5
24
330
23
100
AcDbEntity
 67
     1
  8
0
100
AcDbBlockBegin
  2
*Paper_Space
 70
     0
 10
0.0
 20
0.0
 30
0.0
  3
*Paper_Space
  1

  0
ENDBLK
  5
25
330
23
100
AcDbEntity
 67
     1
  8
0
100
AcDbBlockEnd
  0
BLOCK
  5
1C
330
1B
100
AcDbEntity
  8
0
100
AcDbBlockBegin
  2
*Paper_Space0
 70
     0
 10
0.0
 20
0.0
 30
0.0
  3
*Paper_Space0
  1

  0
LINE
  5
2B3
330
1B
100
AcDbEntity
  8
0
  6
Continuous
 62
     7
370
    25
100
AcDbLine
 10
0.0
 20
-20.0585786438
 30
0.0
 11
-2.3
 21
-20.0585786438
 31
0.0
  0
LINE
  5
2B4
330
1B
100
AcDbEntity
  8
0
  6
Continuous
 62
     7
370
    25
100
AcDbLine
 10
-2.3
 20
30.0
 30
0.0
 11
-2.3
 21
-30.0
 31
0.0
  0
LINE
  5
2B5
330
1B
100
AcDbEntity
  8
0
  6
Continuous
 62
     7
370
    25
100
AcDbLine
 10
-2.5
 20
-19.9171572875
 30
0.0
 11
0.0
 21
-19.9171572875
 31
0.0
  0
LINE
  5
2B6
330
1B
100
AcDbEntity
  8
0
  6
Continuous
 62
     7
370
    25
100
AcDbLine
 10
0.0
 20
-30.0
 30
0.0
 11
0.0
 21
30.0
 31
0.0
  0
LINE
  5
2B7
330
1B
100
AcDbEntity
  8
0
  6
Continuous
 62
     7
370
    25
100
AcDbLine
 10
0.0
 20
19.9171572875
 30
0.0
 11
-2.5
 21
19.9171572875
 31
0.0
  0
LINE
  5
2B8
330
1B
100
AcDbEntity
  8
0
  6
Continuous
 62
     7
370
    25
100
AcDbLine
 10
-2.3
 20
20.0585786438
 30
0.0
 11
0.0
 21
20.0585786438
 31
0.0
  0
LINE
  5
2B9
330
1B
100
AcDbEntity
  8
0
  6
Continuous
 62
     7
370
    25
100
AcDbLine
 10
-2.5
 20
-29.8
 30
0.0
 11
-2.5
 21
29.8
 31
0.0
  0
LINE
  5
2BA
330
1B
100
AcDbEntity
  8
0
  6
Continuous
 62
     7
370
    25
100
AcDbLine
 10
0.0
 20
29.9414213562
 30
0.0
 11
-2.3
 21
29.9414213562
 31
0.0
  0
LINE
  5
2BB
330
1B
100
AcDbEntity
  8
0
  6
Continuous
 62
     7
370
    25
100
AcDbLine
 10
-2.3
 20
-30.0
 30
0.0
 11
0.0
 21
-30.0
 31
0.0
  0
LINE
  5
2BC
330
1B
100
AcDbEntity
  8
0
  6
Continuous
 62
     7
370
    25
100
AcDbLine
 10
-2.3
 20
30.0
 30
0.0
 11
0.0
 21
30.0
 31
0.0
  0
LINE
  5
2BD
330
1B
100
AcDbEntity
  8
0
  6
Continuous
 62
     7
370
    25
100
AcDbLine
 10
-64.6223304703
 20
-12.3
 30
0.0
 11
-2.5
 21
-12.3
 31
0.0
  0
LINE
  5
2BE
330
1B
100
AcDbEntity
  8
0
  6
Continuous
 62
     7
370
    25
100
AcDbLine
 10
-2.5
 20
12.3
 30
0.0
 11
-64.6223304703
 21
12.3
 31
0.0
  0
LINE
  5
2BF
330
1B
100
AcDbEntity
  8
0
  6
Continuous
 62
     7
370
    25
100
AcDbLine
 10
-2.7
 20
-12.5
 30
0.0
 11
-2.7
 21
12.5
 31
0.0
  0
LINE
  5
2C0
330
1B
100
AcDbEntity
  8
0
  6
Continuous
 62
     7
370
    25
100
AcDbLine
 10
-75.0948268172
 20
12.5
 30
0.0
 11
-2.7
 21
12.5
 31
0.0
  0
LINE
  5
2C1
330
1B
100
AcDbEntity
  8
0
  6
Continuous
 62
     7
370
    25
100
AcDbLine
 10
-2.7
 20
-12.5
 30
0.0
 11
-75.0948268172
 21
-12.5
 31
0.0
  0
LINE
  5
2C2
330
1B
100
AcDbEntity
  8
0
  6
Continuous
 62
     7
370
    25
100
AcDbLine
 10
-75.0948268172
 20
-12.5
 30
0.0
 11
-75.0948268172
 21
-12.3
 31
0.0
  0
LINE
  5
2C3
330
1B
100
AcDbEntity
  8
0
  6
Continuous
 62
     7
370
    25
100
AcDbLine
 10
-75.0948268172
 20
-12.3
 30
0.0
 11
-64.9051731828
 21
-12.3
 31
0.0
  0
LINE
  5
2C4
330
1B
100
AcDbEntity
  8
0
  6
Continuous
 62
     7
370
    25
100
AcDbLine
 10
-64.9051731828
 20
-12.5
 30
0.0
 11
-64.9051731828
 21
-12.3
 31
0.0
  0
LINE
  5
2C5
330
1B
100
AcDbEntity
  8
0
  6
Continuous
 62
     7
370
    25
100
AcDbLine
 10
-64.9051731828
 20
12.3
 30
0.0
 11
-64.9051731828
 21
12.5
 31
0.0
  0
LINE
  5
2C6
330
1B
100
AcDbEntity
  8
0
  6
Continuous
 62
     7
370
    25
100
AcDbLine
 10
-64.9051731828
 20
12.3
 30
0.0
 11
-64.7637518266
 21
12.4414213562
 31
0.0
  0
LINE
  5
2C7
330
1B
100
AcDbEntity
  8
0
  6
Continuous
 62
     7
370
    25
100
AcDbLine
 10
-75.0948268172
 20
12.3
 30
0.0
 11
-82.3
 21
5.0948268172
 31
0.0
  0
LINE
  5
2C8
330
1B
100
AcDbEntity
  8
0
  6
Continuous
 62
     7
370
    25
100
AcDbLine
 10
-82.3
 20
5.0948268172
 30
0.0
 11
-82.4414213562
 21
5.2362481734
 31
0.0
  0
LINE
  5
2C9
330
1B
100
AcDbEntity
  8
0
  6
Continuous
 62
     7
370
    25
100
AcDbLine
 10
-82.4414213562
 20
5.2362481734
 30
0.0
 11
-75.2362481734
 21
12.4414213562
 31
0.0
  0
LINE
  5
2CA
330
1B
100
AcDbEntity
  8
0
  6
Continuous
 62
     7
370
    25
100
AcDbLine
 10
-75.0948268172
 20
12.3
 30
0.0
 11
-75.2362481734
 21
12.4414213562
 31
0.0
  0
LINE
  5
2CB
330
1B
100
AcDbEntity
  8
0
  6
Continuous
 62
     7
370
    25
100
AcDbLine
 10
-75.2362481734
 20
-12.4414213562
 30
0.0
 11
-82.4414213562
 21
-5.2362481734
 31
0.0
  0
LINE
  5
2CC
330
1B
100
AcDbEntity
  8
0
  6
Continuous
 62
     7
370
    25
100
AcDbLine
 10
-82.4414213562
 20
-5.2362481734
 30
0.0
 11
-82.3
 21
-5.0948268172
 31
0.0
  0
LINE
  5
2CD
330
1B
100
AcDbEntity
  8
0
  6
Continuous
 62
     7
370
    25
100
AcDbLine
 10
-82.3
 20
-5.0948268172
 30
0.0
 11
-75.0948268172
 21
-12.3
 31
0.0
  0
LINE
  5
2CE
330
1B
100
AcDbEntity
  8
0
  6
Continuous
 62
     7
370
    25
100
AcDbLine
 10
-75.2362481734
 20
-12.4414213562
 30
0.0
 11
-75.0948268172
 21
-12.3
 31
0.0
  0
LINE
  5
2CF
330
1B
100
AcDbEntity
  8
0
  6
Continuous
 62
     7
370
    25
100
AcDbLine
 10
-82.5
 20
-5.0948268172
 30
0.0
 11
-82.3
 21
-5.0948268172
 31
0.0
  0
LINE
  5
2D0
330
1B
100
AcDbEntity
  8
0
  6
Continuous
 62
     7
370
    25
100
AcDbLine
 10
-82.5
 20
-5.0948268172
 30
0.0
 11
-82.5
 21
5.0948268172
 31
0.0
  0
LINE
  5
2D1
330
1B
100
AcDbEntity
  8
0
  6
Continuous
 62
     7
370
    25
100
AcDbLine
 10
-82.3
 20
5.0948268172
 30
0.0
 11
-82.5
 21
5.0948268172
 31
0.0
  0
LINE
  5
2D2
330
1B
100
AcDbEntity
  8
0
  6
Continuous
 62
     7
370
    25
100
AcDbLine
 10
-82.3
 20
5.0948268172
 30
0.0
 11
-82.3
 21
-5.0948268172
 31
0.0
  0
LINE
  5
2D3
330
1B
100
AcDbEntity
  8
0
  6
Continuous
 62
     7
370
    25
100
AcDbLine
 10
-57.5585786438
 20
-5.2362481734
 30
0.0
 11
-64.7637518266
 21
-12.4414213562
 31
0.0
  0
LINE
  5
2D4
330
1B
100
AcDbEntity
  8
0
  6
Continuous
 62
     7
370
    25
100
AcDbLine
 10
-64.7637518266
 20
-12.4414213562
 30
0.0
 11
-64.9051731828
 21
-12.3
 31
0.0
  0
LINE
  5
2D5
330
1B
100
AcDbEntity
  8
0
  6
Continuous
 62
     7
370
    25
100
AcDbLine
 10
-64.9051731828
 20
-12.3
 30
0.0
 11
-57.7
 21
-5.0948268172
 31
0.0
  0
LINE
  5
2D6
330
1B
100
AcDbEntity
  8
0
  6
Continuous
 62
     7
370
    25
100
AcDbLine
 10
-57.5585786438
 20
-5.2362481734
 30
0.0
 11
-57.7
 21
-5.0948268172
 31
0.0
  0
LINE
  5
2D7
330
1B
100
AcDbEntity
  8
0
  6
Continuous
 62
     7
370
    25
100
AcDbLine
 10
-57.5
 20
-5.0948268172
 30
0.0
 11
-57.7
 21
-5.0948268172
 31
0.0
  0
LINE
  5
2D8
330
1B
100
AcDbEntity
  8
0
  6
Continuous
 62
     7
370
    25
100
AcDbLine
 10
-57.7
 20
5.0948268172
 30
0.0
 11
-57.5585786438
 21
5.2362481734
 31
0.0
  0
LINE
  5
2D9
330
1B
100
AcDbEntity
  8
0
  6
Continuous
 62
     7
370
    25
100
AcDbLine
 10
-57.7
 20
5.0948268172
 30
0.0
 11
-57.5
 21
5.0948268172
 31
0.0
  0
LINE
  5
2DA
330
1B
100
AcDbEntity
  8
0
  6
Continuous
 62
     7
370
    25
100
AcDbLine
 10
-57.7
 20
-5.0948268172
 30
0.0
 11
-57.7
 21
5.0948268172
 31
0.0
  0
LINE
  5
2DB
330
1B
100
AcDbEntity
  8
0
  6
Continuous
 62
     7
370
    25
100
AcDbLine
 10
-57.5
 20
5.0948268172
 30
0.0
 11
-57.5
 21
-5.0948268172
 31
0.0
  0
LINE
  5
2DC
330
1B
100
AcDbEntity
  8
0
  6
Continuous
 62
     7
370
    25
100
AcDbLine
 10
-57.7
 20
5.0948268172
 30
0.0
 11
-64.9051731828
 21
12.3
 31
0.0
  0
LINE
  5
2DD
330
1B
100
AcDbEntity
  8
0
  6
Continuous
 62
     7
370
    25
100
AcDbLine
 10
-64.9051731828
 20
12.3
 30
0.0
 11
-75.0948268172
 21
12.3
 31
0.0
  0
LINE
  5
2DE
330
1B
100
AcDbEntity
  8
0
  6
Continuous
 62
     7
370
    25
100
AcDbLine
 10
-75.0948268172
 20
12.3
 30
0.0
 11
-75.0948268172
 21
12.5
 31
0.0
  0
LINE
  5
2DF
330
1B
100
AcDbEntity
  8
0
  6
Continuous
 62
     7
370
    25
100
AcDbLine
 10
-64.7637518266
 20
12.4414213562
 30
0.0
 11
-57.5585786438
 21
5.2362481734
 31
0.0
  0
ARC
  5
2E0
330
1B
100
AcDbEntity
  8
0
  6
Continuous
 62
     7
370
    25
100
AcDbCircle
 10
-2.325
 20
19.8818019485
 30
0.0
 40
0.178535710713576
100
AcDbArc
 50
81.9505330245
 51
168.578246341
  0
ARC
  5
2E1
330
1B
100
AcDbEntity
  8
0
  6
Continuous
 62
     7
370
    25
100
AcDbCircle
 10
-2.325
 20
-19.8818019485
 30
0.0
 40
0.1785357107135825
100
AcDbArc
 50
191.421753659
 51
278.0494669755
  0
ARC
  5
2E2
330
1B
100
AcDbEntity
  8
0
  6
Continuous
 62
     7
370
    25
100
AcDbCircle
 10
-2.325
 20
29.7646446609
 30
0.0
 40
0.1785357107135786
100
AcDbArc
 50
81.9505330245
 51
168.578246341
  0
ARC
  5
2E3
330
1B
100
AcDbEntity
  8
0
  6
Continuous
 62
     7
370
    25
100
AcDbCircle
 10
-2.3
 20
-29.8
 30
0.0
 40
0.1999999999999997
100
AcDbArc
 50
180.0
 51
270.0
  0
ARC
  5
2E4
330
1B
100
AcDbEntity
  8
0
  6
Continuous
 62
     7
370
    25
100
AcDbCircle
 10
-2.3
 20
29.8
 30
0.0
 40
0.2000000000000099
100
AcDbArc
 50
90.0
 51
180.0
  0
ARC
  5
2E5
330
1B
100
AcDbEntity
  8
0
  6
Continuous
 62
     7
370
    25
100
AcDbCircle
 10
-2.7
 20
-12.7
 30
0.0
 40
0.2000000000000011
100
AcDbArc
 50
0.0
 51
90.0
  0
ARC
  5
2E6
330
1B
100
AcDbEntity
  8
0
  6
Continuous
 62
     7
370
    25
100
AcDbCircle
 10
-2.7
 20
12.7
 30
0.0
 40
0.1999999999999948
100
AcDbArc
 50
270.0
 51
0.0
  0
ARC
  5
2E7
330
1B
100
AcDbEntity
  8
0
  6
Continuous
 62
     7
370
    25
100
AcDbCircle
 10
-64.9051731828
 20
12.3
 30
0.0
 40
0.2000000000000172
100
AcDbArc
 50
45.0
 51
90.0
  0
ARC
  5
2E8
330
1B
100
AcDbEntity
  8
0
  6
Continuous
 62
     7
370
    25
100
AcDbCircle
 10
-82.3
 20
-5.0948268172
 30
0.0
 40
0.199999999999933
100
AcDbArc
 50
180.0
 51
225.0
  0
ARC
  5
2E9
330
1B
100
AcDbEntity
  8
0
  6
Continuous
 62
     7
370
    25
100
AcDbCircle
 10
-57.7
 20
-5.0948268172
 30
0.0
 40
0.2000000000000882
100
AcDbArc
 50
315.0
 51
360.0
  0
ARC
  5
2EA
330
1B
100
AcDbEntity
  8
0
  6
Continuous
 62
     7
370
    25
100
AcDbCircle
 10
-57.7
 20
5.0948268172
 30
0.0
 40
0.2000000000000952
100
AcDbArc
 50
0.0
 51
45.0
  0
ARC
  5
2EB
330
1B
100
AcDbEntity
  8
0
  6
Continuous
 62
     7
370
    25
100
AcDbCircle
 10
-75.0948268172
 20
-12.3
 30
0.0
 40
0.200000000000036
100
AcDbArc
 50
225.0
 51
270.0
  0
ARC
  5
2EC
330
1B
100
AcDbEntity
  8
0
  6
Continuous
 62
     7
370
    25
100
AcDbCircle
 10
-75.0948268172
 20
12.3
 30
0.0
 40
0.1999999999999745
100
AcDbArc
 50
90.0
 51
135.0
  0
ARC
  5
2ED
330
1B
100
AcDbEntity
  8
0
  6
Continuous
 62
     7
370
    25
100
AcDbCircle
 10
-64.9051731828
 20
-12.3
 30
0.0
 40
0.1999999999999655
100
AcDbArc
 50
270.0
 51
315.0
  0
ARC
  5
2EE
330
1B
100
AcDbEntity
  8
0
  6
Continuous
 62
     7
370
    25
100
AcDbCircle
 10
-82.3
 20
5.0948268172
 30
0.0
 40
0.1999999999998039
100
AcDbArc
 50
135.0
 51
180.0
  0
VIEWPORT
  5
4A5
330
1B
100
AcDbEntity
  8
0
100
AcDbViewport
 10
0.0
 20
0.0
 30
0.0
 40
205.6
 41
156.0
 68
     1
 69
     1
 12
0.0
 22
0.0
 13
0.0
 23
0.0
 14
10.0
 24
10.0
 15
10.0
 25
10.0
 16
0.0
 26
0.0
 36
1.0
 17
0.0
 27
0.0
 37
0.0
 42
50.0
 43
0.0
 44
0.0
 45
131.5680933852
 50
0.0
 51
0.0
 72
   100
 90
   557152
  1

281
     0
 71
     1
 74
     0
110
0.0
120
0.0
130
0.0
111
1.0
121
0.0
131
0.0
112
0.0
122
1.0
132
0.0
 79
     0
146
0.0
  0
ENDBLK
  5
1D
330
1B
100
AcDbEntity
  8
0
100
AcDbBlockEnd
  0
ENDSEC
  0
SECTION
  2
ENTITIES
  0
LINE
  5
1A1
330
1F
100
AcDbEntity
  8
0
  6
Continuous
 62
     7
370
    25
100
AcDbLine
 10
-63.0
 20
-3.0
 30
0.0
 11
-62.5
 21
-3.0
 31
0.0
  0
LINE
  5
1A2
330
1F
100
AcDbEntity
  8
0
  6
Continuous
 62
     7
370
    25
100
AcDbLine
 10
-57.5
 20
-3.0
 30
0.0
 11
-57.0
 21
-3.0
 31
0.0
  0
LINE
  5
1A3
330
1F
100
AcDbEntity
  8
0
  6
Continuous
 62
     7
370
    25
100
AcDbLine
 10
-57.0
 20
3.0
 30
0.0
 11
-57.5
 21
3.0
 31
0.0
  0
LINE
  5
1A4
330
1F
100
AcDbEntity
  8
0
  6
Continuous
 62
     7
370
    25
100
AcDbLine
 10
-62.5
 20
3.0
 30
0.0
 11
-63.0
 21
3.0
 31
0.0
  0
LINE
  5
1A5
330
1F
100
AcDbEntity
  8
0
  6
Continuous
 62
     7
370
    25
100
AcDbLine
 10
57.0
 20
-3.0
 30
0.0
 11
57.5
 21
-3.0
 31
0.0
  0
LINE
  5
1A6
330
1F
100
AcDbEntity
  8
0
  6
Continuous
 62
     7
370
    25
100
AcDbLine
 10
62.5
 20
-3.0
 30
0.0
 11
63.0
 21
-3.0
 31
0.0
  0
LINE
  5
1A7
330
1F
100
AcDbEntity
  8
0
  6
Continuous
 62
     7
370
    25
100
AcDbLine
 10
63.0
 20
3.0
 30
0.0
 11
62.5
 21
3.0
 31
0.0
  0
LINE
  5
1A8
330
1F
100
AcDbEntity
  8
0
  6
Continuous
 62
     7
370
    25
100
AcDbLine
 10
57.5
 20
3.0
 30
0.0
 11
57.0
 21
3.0
 31
0.0
  0
LINE
  5
1A9
330
1F
100
AcDbEntity
  8
0
  6
Continuous
 62
     7
370
    25
100
AcDbLine
 10
-62.3
 20
12.7
 30
0.0
 11
-62.3
 21
-12.7
 31
0.0
  0
LINE
  5
1AA
330
1F
100
AcDbEntity
  8
0
  6
Continuous
 62
     7
370
    25
100
AcDbLine
 10
-57.5
 20
5.0948268172
 30
0.0
 11
-62.5
 21
5.0948268172
 31
0.0
  0
LINE
  5
1AB
330
1F
100
AcDbEntity
  8
0
  6
Continuous
 62
     7
370
    25
100
AcDbLine
 10
-57.7
 20
-12.7
 30
0.0
 11
-57.7
 21
12.7
 31
0.0
  0
LINE
  5
1AC
330
1F
100
AcDbEntity
  8
0
  6
Continuous
 62
     7
370
    25
100
AcDbLine
 10
-62.5
 20
-5.0948268172
 30
0.0
 11
-57.5
 21
-5.0948268172
 31
0.0
  0
LINE
  5
1AD
330
1F
100
AcDbEntity
  8
0
  6
Continuous
 62
     7
370
    25
100
AcDbLine
 10
57.7
 20
12.7
 30
0.0
 11
57.7
 21
-12.7
 31
0.0
  0
LINE
  5
1AE
330
1F
100
AcDbEntity
  8
0
  6
Continuous
 62
     7
370
    25
100
AcDbLine
 10
57.5
 20
-5.0948268172
 30
0.0
 11
62.5
 21
-5.0948268172
 31
0.0
  0
LINE
  5
1AF
330
1F
100
AcDbEntity
  8
0
  6
Continuous
 62
     7
370
    25
100
AcDbLine
 10
57.5
 20
-12.3
 30
0.0
 11
57.5
 21
12.3
 31
0.0
  0
LINE
  5
1B0
330
1F
100
AcDbEntity
  8
0
  6
Continuous
 62
     7
370
    25
100
AcDbLine
 10
62.5
 20
5.0948268172
 30
0.0
 11
57.5
 21
5.0948268172
 31
0.0
  0
LINE
  5
1B1
330
1F
100
AcDbEntity
  8
0
  6
Continuous
 62
     7
370
    25
100
AcDbLine
 10
-62.5
 20
-12.3
 30
0.0
 11
-62.5
 21
12.3
 31
0.0
  0
LINE
  5
1B2
330
1F
100
AcDbEntity
  8
0
  6
Continuous
 62
     7
370
    25
100
AcDbLine
 10
-62.3
 20
5.2362481734
 30
0.0
 11
-57.7
 21
5.2362481734
 31
0.0
  0
LINE
  5
1B3
330
1F
100
AcDbEntity
  8
0
  6
Continuous
 62
     7
370
    25
100
AcDbLine
 10
57.7
 20
5.2362481734
 30
0.0
 11
62.3
 21
5.2362481734
 31
0.0
  0
LINE
  5
1B4
330
1F
100
AcDbEntity
  8
0
  6
Continuous
 62
     7
370
    25
100
AcDbLine
 10
-57.7
 20
-5.2362481734
 30
0.0
 11
-62.3
 21
-5.2362481734
 31
0.0
  0
LINE
  5
1B5
330
1F
100
AcDbEntity
  8
0
  6
Continuous
 62
     7
370
    25
100
AcDbLine
 10
-57.5
 20
12.3
 30
0.0
 11
-57.5
 21
-12.3
 31
0.0
  0
LINE
  5
1B6
330
1F
100
AcDbEntity
  8
0
  6
Continuous
 62
     7
370
    25
100
AcDbLine
 10
62.3
 20
-5.2362481734
 30
0.0
 11
57.7
 21
-5.2362481734
 31
0.0
  0
LINE
  5
1B7
330
1F
100
AcDbEntity
  8
0
  6
Continuous
 62
     7
370
    25
100
AcDbLine
 10
62.3
 20
-12.7
 30
0.0
 11
62.3
 21
12.7
 31
0.0
  0
LINE
  5
1B8
330
1F
100
AcDbEntity
  8
0
  6
Continuous
 62
     7
370
    25
100
AcDbLine
 10
62.5
 20
12.3
 30
0.0
 11
62.5
 21
-12.3
 31
0.0
  0
LINE
  5
1B9
330
1F
100
AcDbEntity
  8
0
  6
Continuous
 62
     7
370
    25
100
AcDbLine
 10
57.7
 20
-12.4414213562
 30
0.0
 11
62.3
 21
-12.4414213562
 31
0.0
  0
LINE
  5
1BA
330
1F
100
AcDbEntity
  8
0
  6
Continuous
 62
     7
370
    25
100
AcDbLine
 10
62.3
 20
12.4414213562
 30
0.0
 11
57.7
 21
12.4414213562
 31
0.0
  0
LINE
  5
1BB
330
1F
100
AcDbEntity
  8
0
  6
Continuous
 62
     7
370
    25
100
AcDbLine
 10
-57.7
 20
12.4414213562
 30
0.0
 11
-62.3
 21
12.4414213562
 31
0.0
  0
LINE
  5
1BC
330
1F
100
AcDbEntity
  8
0
  6
Continuous
 62
     7
370
    25
100
AcDbLine
 10
-62.3
 20
-12.4414213562
 30
0.0
 11
-57.7
 21
-12.4414213562
 31
0.0
  0
LINE
  5
1BD
330
1F
100
AcDbEntity
  8
0
  6
Continuous
 62
     7
370
    25
100
AcDbLine
 10
62.3
 20
-12.5
 30
0.0
 11
57.7
 21
-12.5
 31
0.0
  0
LINE
  5
1BE
330
1F
100
AcDbEntity
  8
0
  6
Continuous
 62
     7
370
    25
100
AcDbLine
 10
57.7
 20
12.5
 30
0.0
 11
62.3
 21
12.5
 31
0.0
  0
LINE
  5
1BF
330
1F
100
AcDbEntity
  8
0
  6
Continuous
 62
     7
370
    25
100
AcDbLine
 10
-57.7
 20
-12.5
 30
0.0
 11
-62.3
 21
-12.5
 31
0.0
  0
LINE
  5
1C0
330
1F
100
AcDbEntity
  8
0
  6
Continuous
 62
     7
370
    25
100
AcDbLine
 10
-62.3
 20
12.5
 30
0.0
 11
-57.7
 21
12.5
 31
0.0
  0
LINE
  5
1C1
330
1F
100
AcDbEntity
  8
0
  6
Continuous
 62
     7
370
    25
100
AcDbLine
 10
-62.5
 20
-12.3
 30
0.0
 11
-62.7
 21
-12.3
 31
0.0
  0
LINE
  5
1C2
330
1F
100
AcDbEntity
  8
0
  6
Continuous
 62
     7
370
    25
100
AcDbLine
 10
62.7
 20
-12.3
 30
0.0
 11
62.5
 21
-12.3
 31
0.0
  0
LINE
  5
1C3
330
1F
100
AcDbEntity
  8
0
  6
Continuous
 62
     7
370
    25
100
AcDbLine
 10
-62.3
 20
12.7
 30
0.0
 11
-57.7
 21
12.7
 31
0.0
  0
LINE
  5
1C4
330
1F
100
AcDbEntity
  8
0
  6
Continuous
 62
     7
370
    25
100
AcDbLine
 10
62.3
 20
-12.7
 30
0.0
 11
57.7
 21
-12.7
 31
0.0
  0
LINE
  5
1C5
330
1F
100
AcDbEntity
  8
0
  6
Continuous
 62
     7
370
    25
100
AcDbLine
 10
-62.7
 20
12.3
 30
0.0
 11
-62.5
 21
12.3
 31
0.0
  0
LINE
  5
1C6
330
1F
100
AcDbEntity
  8
0
  6
Continuous
 62
     7
370
    25
100
AcDbLine
 10
-57.3
 20
12.3
 30
0.0
 11
-57.5
 21
12.3
 31
0.0
  0
LINE
  5
1C7
330
1F
100
AcDbEntity
  8
0
  6
Continuous
 62
     7
370
    25
100
AcDbLine
 10
-57.5
 20
-12.3
 30
0.0
 11
-57.3
 21
-12.3
 31
0.0
  0
LINE
  5
1C8
330
1F
100
AcDbEntity
  8
0
  6
Continuous
 62
     7
370
    25
100
AcDbLine
 10
57.5
 20
-12.3
 30
0.0
 11
57.3
 21
-12.3
 31
0.0
  0
LINE
  5
1C9
330
1F
100
AcDbEntity
  8
0
  6
Continuous
 62
     7
370
    25
100
AcDbLine
 10
57.7
 20
12.7
 30
0.0
 11
62.3
 21
12.7
 31
0.0
  0
LINE
  5
1CA
330
1F
100
AcDbEntity
  8
0
  6
Continuous
 62
     7
370
    25
100
AcDbLine
 10
57.5
 20
12.3
 30
0.0
 11
57.3
 21
12.3
 31
0.0
  0
LINE
  5
1CB
330
1F
100
AcDbEntity
  8
0
  6
Continuous
 62
     7
370
    25
100
AcDbLine
 10
62.7
 20
12.3
 30
0.0
 11
62.5
 21
12.3
 31
0.0
  0
LINE
  5
1CC
330
1F
100
AcDbEntity
  8
0
  6
Continuous
 62
     7
370
    25
100
AcDbLine
 10
-57.7
 20
-12.7
 30
0.0
 11
-62.3
 21
-12.7
 31
0.0
  0
LINE
  5
1CD
330
1F
100
AcDbEntity
  8
0
  6
Continuous
 62
     7
370
    25
100
AcDbLine
 10
-74.9171572875
 20
29.8
 30
0.0
 11
-84.8
 21
19.9171572875
 31
0.0
  0
LINE
  5
1CE
330
1F
100
AcDbEntity
  8
0
  6
Continuous
 62
     7
370
    25
100
AcDbLine
 10
-84.8
 20
19.9171572875
 30
0.0
 11
-84.9414213562
 21
20.0585786438
 31
0.0
  0
LINE
  5
1CF
330
1F
100
AcDbEntity
  8
0
  6
Continuous
 62
     7
370
    25
100
AcDbLine
 10
-84.9414213562
 20
20.0585786438
 30
0.0
 11
-75.0585786438
 21
29.9414213562
 31
0.0
  0
LINE
  5
1D0
330
1F
100
AcDbEntity
  8
0
  6
Continuous
 62
     7
370
    25
100
AcDbLine
 10
-74.9171572875
 20
29.8
 30
0.0
 11
-75.0585786438
 21
29.9414213562
 31
0.0
  0
LINE
  5
1D1
330
1F
100
AcDbEntity
  8
0
  6
Continuous
 62
     7
370
    25
100
AcDbLine
 10
-84.8
 20
-19.9171572875
 30
0.0
 11
-74.9171572875
 21
-29.8
 31
0.0
  0
LINE
  5
1D2
330
1F
100
AcDbEntity
  8
0
  6
Continuous
 62
     7
370
    25
100
AcDbLine
 10
-74.9171572875
 20
-29.8
 30
0.0
 11
-75.0585786438
 21
-29.9414213562
 31
0.0
  0
LINE
  5
1D3
330
1F
100
AcDbEntity
  8
0
  6
Continuous
 62
     7
370
    25
100
AcDbLine
 10
-75.0585786438
 20
-29.9414213562
 30
0.0
 11
-84.9414213562
 21
-20.0585786438
 31
0.0
  0
LINE
  5
1D4
330
1F
100
AcDbEntity
  8
0
  6
Continuous
 62
     7
370
    25
100
AcDbLine
 10
-84.8
 20
-19.9171572875
 30
0.0
 11
-84.9414213562
 21
-20.0585786438
 31
0.0
  0
LINE
  5
1D5
330
1F
100
AcDbEntity
  8
0
  6
Continuous
 62
     7
370
    25
100
AcDbLine
 10
75.0585786438
 20
29.9414213562
 30
0.0
 11
84.9414213562
 21
20.0585786438
 31
0.0
  0
LINE
  5
1D6
330
1F
100
AcDbEntity
  8
0
  6
Continuous
 62
     7
370
    25
100
AcDbLine
 10
84.9414213562
 20
20.0585786438
 30
0.0
 11
84.8
 21
19.9171572875
 31
0.0
  0
LINE
  5
1D7
330
1F
100
AcDbEntity
  8
0
  6
Continuous
 62
     7
370
    25
100
AcDbLine
 10
84.8
 20
19.9171572875
 30
0.0
 11
74.9171572875
 21
29.8
 31
0.0
  0
LINE
  5
1D8
330
1F
100
AcDbEntity
  8
0
  6
Continuous
 62
     7
370
    25
100
AcDbLine
 10
75.0585786438
 20
29.9414213562
 30
0.0
 11
74.9171572875
 21
29.8
 31
0.0
  0
LINE
  5
1D9
330
1F
100
AcDbEntity
  8
0
  6
Continuous
 62
     7
370
    25
100
AcDbLine
 10
-74.9171572875
 20
30.0
 30
0.0
 11
-74.9171572875
 21
29.8
 31
0.0
  0
LINE
  5
1DA
330
1F
100
AcDbEntity
  8
0
  6
Continuous
 62
     7
370
    25
100
AcDbLine
 10
-74.9171572875
 20
30.0
 30
0.0
 11
74.9171572875
 21
30.0
 31
0.0
  0
LINE
  5
1DB
330
1F
100
AcDbEntity
  8
0
  6
Continuous
 62
     7
370
    25
100
AcDbLine
 10
74.9171572875
 20
30.0
 30
0.0
 11
74.9171572875
 21
29.8
 31
0.0
  0
LINE
  5
1DC
330
1F
100
AcDbEntity
  8
0
  6
Continuous
 62
     7
370
    25
100
AcDbLine
 10
74.9171572875
 20
29.8
 30
0.0
 11
-74.9171572875
 21
29.8
 31
0.0
  0
LINE
  5
1DD
330
1F
100
AcDbEntity
  8
0
  6
Continuous
 62
     7
370
    25
100
AcDbLine
 10
84.9414213562
 20
-20.0585786438
 30
0.0
 11
75.0
 21
-30.0
 31
0.0
  0
LINE
  5
1DE
330
1F
100
AcDbEntity
  8
0
  6
Continuous
 62
     7
370
    25
100
AcDbLine
 10
75.0
 20
-30.0
 30
0.0
 11
74.9171572875
 21
-29.8
 31
0.0
  0
LINE
  5
1DF
330
1F
100
AcDbEntity
  8
0
  6
Continuous
 62
     7
370
    25
100
AcDbLine
 10
74.9171572875
 20
-29.8
 30
0.0
 11
84.8
 21
-19.9171572875
 31
0.0
  0
LINE
  5
1E0
330
1F
100
AcDbEntity
  8
0
  6
Continuous
 62
     7
370
    25
100
AcDbLine
 10
84.9414213562
 20
-20.0585786438
 30
0.0
 11
84.8
 21
-19.9171572875
 31
0.0
  0
LINE
  5
1E1
330
1F
100
AcDbEntity
  8
0
  6
Continuous
 62
     7
370
    25
100
AcDbLine
 10
-74.9171572875
 20
-29.8
 30
0.0
 11
74.9171572875
 21
-29.8
 31
0.0
  0
LINE
  5
1E2
330
1F
100
AcDbEntity
  8
0
  6
Continuous
 62
     7
370
    25
100
AcDbLine
 10
75.0
 20
-30.0
 30
0.0
 11
-74.9171572875
 21
-30.0
 31
0.0
  0
LINE
  5
1E3
330
1F
100
AcDbEntity
  8
0
  6
Continuous
 62
     7
370
    25
100
AcDbLine
 10
-74.9171572875
 20
-29.8
 30
0.0
 11
-74.9171572875
 21
-30.0
 31
0.0
  0
LINE
  5
1E4
330
1F
100
AcDbEntity
  8
0
  6
Continuous
 62
     7
370
    25
100
AcDbLine
 10
85.0
 20
19.9171572875
 30
0.0
 11
85.0
 21
-19.9171572875
 31
0.0
  0
LINE
  5
1E5
330
1F
100
AcDbEntity
  8
0
  6
Continuous
 62
     7
370
    25
100
AcDbLine
 10
85.0
 20
-19.9171572875
 30
0.0
 11
84.8
 21
-19.9171572875
 31
0.0
  0
LINE
  5
1E6
330
1F
100
AcDbEntity
  8
0
  6
Continuous
 62
     7
370
    25
100
AcDbLine
 10
84.8
 20
-19.9171572875
 30
0.0
 11
84.8
 21
19.9171572875
 31
0.0
  0
LINE
  5
1E7
330
1F
100
AcDbEntity
  8
0
  6
Continuous
 62
     7
370
    25
100
AcDbLine
 10
85.0
 20
19.9171572875
 30
0.0
 11
84.8
 21
19.9171572875
 31
0.0
  0
LINE
  5
1E8
330
1F
100
AcDbEntity
  8
0
  6
Continuous
 62
     7
370
    25
100
AcDbLine
 10
-84.8
 20
19.9171572875
 30
0.0
 11
-85.0
 21
19.9171572875
 31
0.0
  0
LINE
  5
1E9
330
1F
100
AcDbEntity
  8
0
  6
Continuous
 62
     7
370
    25
100
AcDbLine
 10
-84.8
 20
19.9171572875
 30
0.0
 11
-84.8
 21
-19.9171572875
 31
0.0
  0
LINE
  5
1EA
330
1F
100
AcDbEntity
  8
0
  6
Continuous
 62
     7
370
    25
100
AcDbLine
 10
-84.8
 20
-19.9171572875
 30
0.0
 11
-85.0
 21
-19.9171572875
 31
0.0
  0
LINE
  5
1EB
330
1F
100
AcDbEntity
  8
0
  6
Continuous
 62
     7
370
    25
100
AcDbLine
 10
-85.0
 20
-19.9171572875
 30
0.0
 11
-85.0
 21
19.9171572875
 31
0.0
  0
LINE
  5
1EC
330
1F
100
AcDbEntity
  8
0
  6
Continuous
 62
     7
370
    25
100
AcDbLine
 10
72.8
 20
-12.5
 30
0.0
 11
72.8
 21
12.5
 31
0.0
  0
LINE
  5
1ED
330
1F
100
AcDbEntity
  8
0
  6
Continuous
 62
     7
370
    25
100
AcDbLine
 10
73.0
 20
12.3
 30
0.0
 11
73.0
 21
-12.3
 31
0.0
  0
LINE
  5
1EE
330
1F
100
AcDbEntity
  8
0
  6
Continuous
 62
     7
370
    25
100
AcDbLine
 10
-63.0
 20
5.0948268172
 30
0.0
 11
-73.0
 21
5.0948268172
 31
0.0
  0
LINE
  5
1EF
330
1F
100
AcDbEntity
  8
0
  6
Continuous
 62
     7
370
    25
100
AcDbLine
 10
-72.8
 20
12.5
 30
0.0
 11
-72.8
 21
-12.5
 31
0.0
  0
LINE
  5
1F0
330
1F
100
AcDbEntity
  8
0
  6
Continuous
 62
     7
370
    25
100
AcDbLine
 10
-72.8
 20
5.2362481734
 30
0.0
 11
-63.2
 21
5.2362481734
 31
0.0
  0
LINE
  5
1F1
330
1F
100
AcDbEntity
  8
0
  6
Continuous
 62
     7
370
    25
100
AcDbLine
 10
-63.2
 20
-12.5
 30
0.0
 11
-63.2
 21
12.5
 31
0.0
  0
LINE
  5
1F2
330
1F
100
AcDbEntity
  8
0
  6
Continuous
 62
     7
370
    25
100
AcDbLine
 10
-73.0
 20
-12.3
 30
0.0
 11
-73.0
 21
12.3
 31
0.0
  0
LINE
  5
1F3
330
1F
100
AcDbEntity
  8
0
  6
Continuous
 62
     7
370
    25
100
AcDbLine
 10
-56.8
 20
5.2362481734
 30
0.0
 11
56.8
 21
5.2362481734
 31
0.0
  0
LINE
  5
1F4
330
1F
100
AcDbEntity
  8
0
  6
Continuous
 62
     7
370
    25
100
AcDbLine
 10
56.8
 20
-12.5
 30
0.0
 11
56.8
 21
12.5
 31
0.0
  0
LINE
  5
1F5
330
1F
100
AcDbEntity
  8
0
  6
Continuous
 62
     7
370
    25
100
AcDbLine
 10
57.0
 20
5.0948268172
 30
0.0
 11
-57.0
 21
5.0948268172
 31
0.0
  0
LINE
  5
1F6
330
1F
100
AcDbEntity
  8
0
  6
Continuous
 62
     7
370
    25
100
AcDbLine
 10
-56.8
 20
12.5
 30
0.0
 11
-56.8
 21
-12.5
 31
0.0
  0
LINE
  5
1F7
330
1F
100
AcDbEntity
  8
0
  6
Continuous
 62
     7
370
    25
100
AcDbLine
 10
57.0
 20
12.3
 30
0.0
 11
57.0
 21
-12.3
 31
0.0
  0
LINE
  5
1F8
330
1F
100
AcDbEntity
  8
0
  6
Continuous
 62
     7
370
    25
100
AcDbLine
 10
63.2
 20
12.5
 30
0.0
 11
63.2
 21
-12.5
 31
0.0
  0
LINE
  5
1F9
330
1F
100
AcDbEntity
  8
0
  6
Continuous
 62
     7
370
    25
100
AcDbLine
 10
73.0
 20
5.0948268172
 30
0.0
 11
63.0
 21
5.0948268172
 31
0.0
  0
LINE
  5
1FA
330
1F
100
AcDbEntity
  8
0
  6
Continuous
 62
     7
370
    25
100
AcDbLine
 10
-57.0
 20
-5.0948268172
 30
0.0
 11
57.0
 21
-5.0948268172
 31
0.0
  0
LINE
  5
1FB
330
1F
100
AcDbEntity
  8
0
  6
Continuous
 62
     7
370
    25
100
AcDbLine
 10
-57.0
 20
-12.3
 30
0.0
 11
-57.0
 21
12.3
 31
0.0
  0
LINE
  5
1FC
330
1F
100
AcDbEntity
  8
0
  6
Continuous
 62
     7
370
    25
100
AcDbLine
 10
63.2
 20
5.2362481734
 30
0.0
 11
72.8
 21
5.2362481734
 31
0.0
  0
LINE
  5
1FD
330
1F
100
AcDbEntity
  8
0
  6
Continuous
 62
     7
370
    25
100
AcDbLine
 10
-63.0
 20
12.3
 30
0.0
 11
-63.0
 21
-12.3
 31
0.0
  0
LINE
  5
1FE
330
1F
100
AcDbEntity
  8
0
  6
Continuous
 62
     7
370
    25
100
AcDbLine
 10
-73.0
 20
-5.0948268172
 30
0.0
 11
-63.0
 21
-5.0948268172
 31
0.0
  0
LINE
  5
1FF
330
1F
100
AcDbEntity
  8
0
  6
Continuous
 62
     7
370
    25
100
AcDbLine
 10
63.0
 20
-5.0948268172
 30
0.0
 11
73.0
 21
-5.0948268172
 31
0.0
  0
LINE
  5
200
330
1F
100
AcDbEntity
  8
0
  6
Continuous
 62
     7
370
    25
100
AcDbLine
 10
63.0
 20
-12.3
 30
0.0
 11
63.0
 21
12.3
 31
0.0
  0
LINE
  5
201
330
1F
100
AcDbEntity
  8
0
  6
Continuous
 62
     7
370
    25
100
AcDbLine
 10
-63.2
 20
-5.2362481734
 30
0.0
 11
-72.8
 21
-5.2362481734
 31
0.0
  0
LINE
  5
202
330
1F
100
AcDbEntity
  8
0
  6
Continuous
 62
     7
370
    25
100
AcDbLine
 10
56.8
 20
-5.2362481734
 30
0.0
 11
-56.8
 21
-5.2362481734
 31
0.0
  0
LINE
  5
203
330
1F
100
AcDbEntity
  8
0
  6
Continuous
 62
     7
370
    25
100
AcDbLine
 10
72.8
 20
-5.2362481734
 30
0.0
 11
63.2
 21
-5.2362481734
 31
0.0
  0
LINE
  5
204
330
1F
100
AcDbEntity
  8
0
  6
Continuous
 62
     7
370
    25
100
AcDbLine
 10
56.8
 20
12.4414213562
 30
0.0
 11
-56.8
 21
12.4414213562
 31
0.0
  0
LINE
  5
205
330
1F
100
AcDbEntity
  8
0
  6
Continuous
 62
     7
370
    25
100
AcDbLine
 10
-63.2
 20
12.4414213562
 30
0.0
 11
-72.8
 21
12.4414213562
 31
0.0
  0
LINE
  5
206
330
1F
100
AcDbEntity
  8
0
  6
Continuous
 62
     7
370
    25
100
AcDbLine
 10
-56.8
 20
-12.4414213562
 30
0.0
 11
56.8
 21
-12.4414213562
 31
0.0
  0
LINE
  5
207
330
1F
100
AcDbEntity
  8
0
  6
Continuous
 62
     7
370
    25
100
AcDbLine
 10
63.2
 20
-12.4414213562
 30
0.0
 11
72.8
 21
-12.4414213562
 31
0.0
  0
LINE
  5
208
330
1F
100
AcDbEntity
  8
0
  6
Continuous
 62
     7
370
    25
100
AcDbLine
 10
72.8
 20
12.4414213562
 30
0.0
 11
63.2
 21
12.4414213562
 31
0.0
  0
LINE
  5
209
330
1F
100
AcDbEntity
  8
0
  6
Continuous
 62
     7
370
    25
100
AcDbLine
 10
-72.8
 20
-12.4414213562
 30
0.0
 11
-63.2
 21
-12.4414213562
 31
0.0
  0
LINE
  5
20A
330
1F
100
AcDbEntity
  8
0
  6
Continuous
 62
     7
370
    25
100
AcDbLine
 10
-56.8
 20
12.5
 30
0.0
 11
56.8
 21
12.5
 31
0.0
  0
LINE
  5
20B
330
1F
100
AcDbEntity
  8
0
  6
Continuous
 62
     7
370
    25
100
AcDbLine
 10
63.2
 20
12.5
 30
0.0
 11
72.8
 21
12.5
 31
0.0
  0
LINE
  5
20C
330
1F
100
AcDbEntity
  8
0
  6
Continuous
 62
     7
370
    25
100
AcDbLine
 10
-72.8
 20
12.5
 30
0.0
 11
-63.2
 21
12.5
 31
0.0
  0
LINE
  5
20D
330
1F
100
AcDbEntity
  8
0
  6
Continuous
 62
     7
370
    25
100
AcDbLine
 10
56.8
 20
-12.5
 30
0.0
 11
-56.8
 21
-12.5
 31
0.0
  0
LINE
  5
20E
330
1F
100
AcDbEntity
  8
0
  6
Continuous
 62
     7
370
    25
100
AcDbLine
 10
-63.2
 20
-12.5
 30
0.0
 11
-72.8
 21
-12.5
 31
0.0
  0
LINE
  5
20F
330
1F
100
AcDbEntity
  8
0
  6
Continuous
 62
     7
370
    25
100
AcDbLine
 10
72.8
 20
-12.5
 30
0.0
 11
63.2
 21
-12.5
 31
0.0
  0
LINE
  5
210
330
1F
100
AcDbEntity
  8
0
  6
Continuous
 62
     8
370
    25
100
AcDbLine
 10
-62.7
 20
-12.3
 30
0.0
 11
-62.7
 21
-3.0
 31
0.0
  0
LINE
  5
211
330
1F
100
AcDbEntity
  8
0
  6
Continuous
 62
     8
370
    25
100
AcDbLine
 10
-62.7
 20
3.0
 30
0.0
 11
-62.7
 21
12.3
 31
0.0
  0
LINE
  5
212
330
1F
100
AcDbEntity
  8
0
  6
Continuous
 62
     8
370
    25
100
AcDbLine
 10
-57.3
 20
12.3
 30
0.0
 11
-57.3
 21
3.0
 31
0.0
  0
LINE
  5
213
330
1F
100
AcDbEntity
  8
0
  6
Continuous
 62
     8
370
    25
100
AcDbLine
 10
-57.3
 20
-3.0
 30
0.0
 11
-57.3
 21
-12.3
 31
0.0
  0
LINE
  5
214
330
1F
100
AcDbEntity
  8
0
  6
Continuous
 62
     8
370
    25
100
AcDbLine
 10
57.3
 20
-12.3
 30
0.0
 11
57.3
 21
-3.0
 31
0.0
  0
LINE
  5
215
330
1F
100
AcDbEntity
  8
0
  6
Continuous
 62
     8
370
    25
100
AcDbLine
 10
57.3
 20
3.0
 30
0.0
 11
57.3
 21
12.3
 31
0.0
  0
LINE
  5
216
330
1F
100
AcDbEntity
  8
0
  6
Continuous
 62
     8
370
    25
100
AcDbLine
 10
62.7
 20
12.3
 30
0.0
 11
62.7
 21
3.0
 31
0.0
  0
LINE
  5
217
330
1F
100
AcDbEntity
  8
0
  6
Continuous
 62
     8
370
    25
100
AcDbLine
 10
62.7
 20
-3.0
 30
0.0
 11
62.7
 21
-12.3
 31
0.0
  0
ARC
  5
218
330
1F
100
AcDbEntity
  8
0
  6
Continuous
 62
     7
370
    25
100
AcDbCircle
 10
62.325
 20
5.0594714781
 30
0.0
 40
0.1785357107135749
100
AcDbArc
 50
11.421753659
 51
98.0494669755
  0
ARC
  5
219
330
1F
100
AcDbEntity
  8
0
  6
Continuous
 62
     7
370
    25
100
AcDbCircle
 10
-62.325
 20
5.0594714781
 30
0.0
 40
0.1785357107135856
100
AcDbArc
 50
81.9505330245
 51
168.578246341
  0
ARC
  5
21A
330
1F
100
AcDbEntity
  8
0
  6
Continuous
 62
     7
370
    25
100
AcDbCircle
 10
-57.675
 20
-5.0594714781
 30
0.0
 40
0.1785357107135777
100
AcDbArc
 50
261.9505330245
 51
348.578246341
  0
ARC
  5
21B
330
1F
100
AcDbEntity
  8
0
  6
Continuous
 62
     7
370
    25
100
AcDbCircle
 10
57.675
 20
-5.0594714781
 30
0.0
 40
0.1785357107135804
100
AcDbArc
 50
191.421753659
 51
278.0494669755
  0
ARC
  5
21C
330
1F
100
AcDbEntity
  8
0
  6
Continuous
 62
     7
370
    25
100
AcDbCircle
 10
-62.325
 20
-5.0594714781
 30
0.0
 40
0.178535710713577
100
AcDbArc
 50
191.421753659
 51
278.0494669755
  0
ARC
  5
21D
330
1F
100
AcDbEntity
  8
0
  6
Continuous
 62
     7
370
    25
100
AcDbCircle
 10
-57.675
 20
5.0594714781
 30
0.0
 40
0.1785357107135774
100
AcDbArc
 50
11.421753659
 51
98.0494669755
  0
ARC
  5
21E
330
1F
100
AcDbEntity
  8
0
  6
Continuous
 62
     7
370
    25
100
AcDbCircle
 10
57.675
 20
5.0594714781
 30
0.0
 40
0.1785357107135841
100
AcDbArc
 50
81.9505330245
 51
168.578246341
  0
ARC
  5
21F
330
1F
100
AcDbEntity
  8
0
  6
Continuous
 62
     7
370
    25
100
AcDbCircle
 10
62.325
 20
-5.0594714781
 30
0.0
 40
0.1785357107135747
100
AcDbArc
 50
261.9505330245
 51
348.578246341
  0
ARC
  5
220
330
1F
100
AcDbEntity
  8
0
  6
Continuous
 62
     7
370
    25
100
AcDbCircle
 10
-62.325
 20
12.2646446609
 30
0.0
 40
0.1785357107135611
100
AcDbArc
 50
81.9505330245
 51
168.578246341
  0
ARC
  5
221
330
1F
100
AcDbEntity
  8
0
  6
Continuous
 62
     7
370
    25
100
AcDbCircle
 10
62.325
 20
12.2646446609
 30
0.0
 40
0.1785357107135761
100
AcDbArc
 50
11.421753659
 51
98.0494669755
  0
ARC
  5
222
330
1F
100
AcDbEntity
  8
0
  6
Continuous
 62
     7
370
    25
100
AcDbCircle
 10
-57.675
 20
-12.2646446609
 30
0.0
 40
0.1785357107135727
100
AcDbArc
 50
261.9505330245
 51
348.578246341
  0
ARC
  5
223
330
1F
100
AcDbEntity
  8
0
  6
Continuous
 62
     7
370
    25
100
AcDbCircle
 10
-62.325
 20
-12.2646446609
 30
0.0
 40
0.1785357107135859
100
AcDbArc
 50
191.421753659
 51
278.0494669755
  0
ARC
  5
224
330
1F
100
AcDbEntity
  8
0
  6
Continuous
 62
     7
370
    25
100
AcDbCircle
 10
-57.675
 20
12.2646446609
 30
0.0
 40
0.1785357107135855
100
AcDbArc
 50
11.421753659
 51
98.0494669755
  0
ARC
  5
225
330
1F
100
AcDbEntity
  8
0
  6
Continuous
 62
     7
370
    25
100
AcDbCircle
 10
57.675
 20
-12.2646446609
 30
0.0
 40
0.1785357107135688
100
AcDbArc
 50
191.421753659
 51
278.0494669755
  0
ARC
  5
226
330
1F
100
AcDbEntity
  8
0
  6
Continuous
 62
     7
370
    25
100
AcDbCircle
 10
57.675
 20
12.2646446609
 30
0.0
 40
0.1785357107135795
100
AcDbArc
 50
81.9505330245
 51
168.578246341
  0
ARC
  5
227
330
1F
100
AcDbEntity
  8
0
  6
Continuous
 62
     7
370
    25
100
AcDbCircle
 10
62.325
 20
-12.2646446609
 30
0.0
 40
0.178535710713574
100
AcDbArc
 50
261.9505330245
 51
348.578246341
  0
ARC
  5
228
330
1F
100
AcDbEntity
  8
0
  6
Continuous
 62
     7
370
    25
100
AcDbCircle
 10
62.3
 20
-12.3
 30
0.0
 40
0.2000000000000046
100
AcDbArc
 50
270.0
 51
0.0
  0
ARC
  5
229
330
1F
100
AcDbEntity
  8
0
  6
Continuous
 62
     7
370
    25
100
AcDbCircle
 10
57.7
 20
-12.3
 30
0.0
 40
0.2000000000000028
100
AcDbArc
 50
180.0
 51
270.0
  0
ARC
  5
22A
330
1F
100
AcDbEntity
  8
0
  6
Continuous
 62
     7
370
    25
100
AcDbCircle
 10
62.3
 20
12.3
 30
0.0
 40
0.2000000000000028
100
AcDbArc
 50
0.0
 51
90.0
  0
ARC
  5
22B
330
1F
100
AcDbEntity
  8
0
  6
Continuous
 62
     7
370
    25
100
AcDbCircle
 10
-57.7
 20
-12.3
 30
0.0
 40
0.2000000000000188
100
AcDbArc
 50
270.0
 51
360.0
  0
ARC
  5
22C
330
1F
100
AcDbEntity
  8
0
  6
Continuous
 62
     7
370
    25
100
AcDbCircle
 10
-62.3
 20
-12.3
 30
0.0
 40
0.1999999999999975
100
AcDbArc
 50
180.0
 51
270.0
  0
ARC
  5
22D
330
1F
100
AcDbEntity
  8
0
  6
Continuous
 62
     7
370
    25
100
AcDbCircle
 10
57.7
 20
12.3
 30
0.0
 40
0.1999999999999975
100
AcDbArc
 50
90.0
 51
180.0
  0
ARC
  5
22E
330
1F
100
AcDbEntity
  8
0
  6
Continuous
 62
     7
370
    25
100
AcDbCircle
 10
-62.3
 20
12.3
 30
0.0
 40
0.2000000000000028
100
AcDbArc
 50
90.0
 51
180.0
  0
ARC
  5
22F
330
1F
100
AcDbEntity
  8
0
  6
Continuous
 62
     7
370
    25
100
AcDbCircle
 10
-57.7
 20
12.3
 30
0.0
 40
0.1999999999999957
100
AcDbArc
 50
360.0
 51
90.0
  0
ARC
  5
230
330
1F
100
AcDbEntity
  8
0
  6
Continuous
 62
     7
370
    25
100
AcDbCircle
 10
-62.3
 20
-12.3
 30
0.0
 40
0.3999999999999968
100
AcDbArc
 50
180.0
 51
270.0
  0
ARC
  5
231
330
1F
100
AcDbEntity
  8
0
  6
Continuous
 62
     7
370
    25
100
AcDbCircle
 10
62.3
 20
-12.3
 30
0.0
 40
0.4000000000000057
100
AcDbArc
 50
270.0
 51
0.0
  0
ARC
  5
232
330
1F
100
AcDbEntity
  8
0
  6
Continuous
 62
     7
370
    25
100
AcDbCircle
 10
57.7
 20
-12.3
 30
0.0
 40
0.4000000000000075
100
AcDbArc
 50
180.0
 51
270.0
  0
ARC
  5
233
330
1F
100
AcDbEntity
  8
0
  6
Continuous
 62
     7
370
    25
100
AcDbCircle
 10
57.7
 20
12.3
 30
0.0
 40
0.3999999999999915
100
AcDbArc
 50
90.0
 51
180.0
  0
ARC
  5
234
330
1F
100
AcDbEntity
  8
0
  6
Continuous
 62
     7
370
    25
100
AcDbCircle
 10
-57.7
 20
-12.3
 30
0.0
 40
0.4000000000000057
100
AcDbArc
 50
270.0
 51
0.0
  0
ARC
  5
235
330
1F
100
AcDbEntity
  8
0
  6
Continuous
 62
     7
370
    25
100
AcDbCircle
 10
-57.7
 20
12.3
 30
0.0
 40
0.4000000000000057
100
AcDbArc
 50
0.0
 51
90.0
  0
ARC
  5
236
330
1F
100
AcDbEntity
  8
0
  6
Continuous
 62
     7
370
    25
100
AcDbCircle
 10
62.3
 20
12.3
 30
0.0
 40
0.399999999999995
100
AcDbArc
 50
0.0
 51
90.0
  0
ARC
  5
237
330
1F
100
AcDbEntity
  8
0
  6
Continuous
 62
     7
370
    25
100
AcDbCircle
 10
-62.3
 20
12.3
 30
0.0
 40
0.4000000000000021
100
AcDbArc
 50
90.0
 51
180.0
  0
ARC
  5
238
330
1F
100
AcDbEntity
  8
0
  6
Continuous
 62
     7
370
    25
100
AcDbCircle
 10
-74.9171572875
 20
29.8
 30
0.0
 40
0.2000000000000171
100
AcDbArc
 50
90.0
 51
135.0
  0
ARC
  5
239
330
1F
100
AcDbEntity
  8
0
  6
Continuous
 62
     7
370
    25
100
AcDbCircle
 10
74.9171572875
 20
29.8
 30
0.0
 40
0.2000000000000419
100
AcDbArc
 50
45.0
 51
90.0
  0
ARC
  5
23A
330
1F
100
AcDbEntity
  8
0
  6
Continuous
 62
     7
370
    25
100
AcDbCircle
 10
-84.8
 20
19.9171572875
 30
0.0
 40
0.1999999999999343
100
AcDbArc
 50
135.0
 51
180.0
  0
ARC
  5
23B
330
1F
100
AcDbEntity
  8
0
  6
Continuous
 62
     7
370
    25
100
AcDbCircle
 10
84.8
 20
19.9171572875
 30
0.0
 40
0.1999999999998892
100
AcDbArc
 50
360.0
 51
45.0
  0
ARC
  5
23C
330
1F
100
AcDbEntity
  8
0
  6
Continuous
 62
     7
370
    25
100
AcDbCircle
 10
84.8
 20
-19.9171572875
 30
0.0
 40
0.2000000000000313
100
AcDbArc
 50
315.0
 51
360.0
  0
ARC
  5
23D
330
1F
100
AcDbEntity
  8
0
  6
Continuous
 62
     7
370
    25
100
AcDbCircle
 10
-74.9171572875
 20
-29.8
 30
0.0
 40
0.2000000000000247
100
AcDbArc
 50
225.0
 51
270.0
  0
ARC
  5
23E
330
1F
100
AcDbEntity
  8
0
  6
Continuous
 62
     7
370
    25
100
AcDbCircle
 10
-84.8
 20
-19.9171572875
 30
0.0
 40
0.1999999999999042
100
AcDbArc
 50
180.0
 51
225.0
  0
ARC
  5
23F
330
1F
100
AcDbEntity
  8
0
  6
Continuous
 62
     7
370
    25
100
AcDbCircle
 10
56.825
 20
5.0594714781
 30
0.0
 40
0.1785357107135759
100
AcDbArc
 50
11.421753659
 51
98.0494669755
  0
ARC
  5
240
330
1F
100
AcDbEntity
  8
0
  6
Continuous
 62
     7
370
    25
100
AcDbCircle
 10
72.825
 20
5.0594714781
 30
0.0
 40
0.1785357107135836
100
AcDbArc
 50
11.421753659
 51
98.0494669755
  0
ARC
  5
241
330
1F
100
AcDbEntity
  8
0
  6
Continuous
 62
     7
370
    25
100
AcDbCircle
 10
-72.825
 20
5.0594714781
 30
0.0
 40
0.1785357107135836
100
AcDbArc
 50
81.9505330245
 51
168.578246341
  0
ARC
  5
242
330
1F
100
AcDbEntity
  8
0
  6
Continuous
 62
     7
370
    25
100
AcDbCircle
 10
63.175
 20
5.0594714781
 30
0.0
 40
0.1785357107135841
100
AcDbArc
 50
81.9505330245
 51
168.578246341
  0
ARC
  5
243
330
1F
100
AcDbEntity
  8
0
  6
Continuous
 62
     7
370
    25
100
AcDbCircle
 10
-56.825
 20
5.0594714781
 30
0.0
 40
0.1785357107135542
100
AcDbArc
 50
81.9505330245
 51
168.578246341
  0
ARC
  5
244
330
1F
100
AcDbEntity
  8
0
  6
Continuous
 62
     7
370
    25
100
AcDbCircle
 10
-63.175
 20
5.0594714781
 30
0.0
 40
0.1785357107135667
100
AcDbArc
 50
11.421753659
 51
98.0494669755
  0
ARC
  5
245
330
1F
100
AcDbEntity
  8
0
  6
Continuous
 62
     7
370
    25
100
AcDbCircle
 10
-56.825
 20
-5.0594714781
 30
0.0
 40
0.1785357107135664
100
AcDbArc
 50
191.421753659
 51
278.0494669755
  0
ARC
  5
246
330
1F
100
AcDbEntity
  8
0
  6
Continuous
 62
     7
370
    25
100
AcDbCircle
 10
-63.175
 20
-5.0594714781
 30
0.0
 40
0.1785357107135817
100
AcDbArc
 50
261.9505330245
 51
348.578246341
  0
ARC
  5
247
330
1F
100
AcDbEntity
  8
0
  6
Continuous
 62
     7
370
    25
100
AcDbCircle
 10
-72.825
 20
-5.0594714781
 30
0.0
 40
0.1785357107135755
100
AcDbArc
 50
191.421753659
 51
278.0494669755
  0
ARC
  5
248
330
1F
100
AcDbEntity
  8
0
  6
Continuous
 62
     7
370
    25
100
AcDbCircle
 10
72.825
 20
-5.0594714781
 30
0.0
 40
0.1785357107135858
100
AcDbArc
 50
261.9505330245
 51
348.578246341
  0
ARC
  5
249
330
1F
100
AcDbEntity
  8
0
  6
Continuous
 62
     7
370
    25
100
AcDbCircle
 10
63.175
 20
-5.0594714781
 30
0.0
 40
0.1785357107135667
100
AcDbArc
 50
191.421753659
 51
278.0494669755
  0
ARC
  5
24A
330
1F
100
AcDbEntity
  8
0
  6
Continuous
 62
     7
370
    25
100
AcDbCircle
 10
56.825
 20
-5.0594714781
 30
0.0
 40
0.178535710713557
100
AcDbArc
 50
261.9505330245
 51
348.578246341
  0
ARC
  5
24B
330
1F
100
AcDbEntity
  8
0
  6
Continuous
 62
     7
370
    25
100
AcDbCircle
 10
-63.175
 20
-12.2646446609
 30
0.0
 40
0.1785357107135838
100
AcDbArc
 50
261.9505330245
 51
348.578246341
  0
ARC
  5
24C
330
1F
100
AcDbEntity
  8
0
  6
Continuous
 62
     7
370
    25
100
AcDbCircle
 10
-63.175
 20
12.2646446609
 30
0.0
 40
0.1785357107135838
100
AcDbArc
 50
11.421753659
 51
98.0494669755
  0
ARC
  5
24D
330
1F
100
AcDbEntity
  8
0
  6
Continuous
 62
     7
370
    25
100
AcDbCircle
 10
-72.825
 20
-12.2646446609
 30
0.0
 40
0.1785357107135838
100
AcDbArc
 50
191.421753659
 51
278.0494669755
  0
ARC
  5
24E
330
1F
100
AcDbEntity
  8
0
  6
Continuous
 62
     7
370
    25
100
AcDbCircle
 10
-56.825
 20
12.2646446609
 30
0.0
 40
0.1785357107135735
100
AcDbArc
 50
81.9505330245
 51
168.578246341
  0
ARC
  5
24F
330
1F
100
AcDbEntity
  8
0
  6
Continuous
 62
     7
370
    25
100
AcDbCircle
 10
72.825
 20
-12.2646446609
 30
0.0
 40
0.1785357107136009
100
AcDbArc
 50
261.9505330245
 51
348.578246341
  0
ARC
  5
250
330
1F
100
AcDbEntity
  8
0
  6
Continuous
 62
     7
370
    25
100
AcDbCircle
 10
56.825
 20
-12.2646446609
 30
0.0
 40
0.1785357107135727
100
AcDbArc
 50
261.9505330245
 51
348.578246341
  0
ARC
  5
251
330
1F
100
AcDbEntity
  8
0
  6
Continuous
 62
     7
370
    25
100
AcDbCircle
 10
63.175
 20
12.2646446609
 30
0.0
 40
0.1785357107135838
100
AcDbArc
 50
81.9505330245
 51
168.578246341
  0
ARC
  5
252
330
1F
100
AcDbEntity
  8
0
  6
Continuous
 62
     7
370
    25
100
AcDbCircle
 10
63.175
 20
-12.2646446609
 30
0.0
 40
0.178535710713567
100
AcDbArc
 50
191.421753659
 51
278.0494669755
  0
ARC
  5
253
330
1F
100
AcDbEntity
  8
0
  6
Continuous
 62
     7
370
    25
100
AcDbCircle
 10
72.825
 20
12.2646446609
 30
0.0
 40
0.1785357107135858
100
AcDbArc
 50
11.421753659
 51
98.0494669755
  0
ARC
  5
254
330
1F
100
AcDbEntity
  8
0
  6
Continuous
 62
     7
370
    25
100
AcDbCircle
 10
56.825
 20
12.2646446609
 30
0.0
 40
0.1785357107135758
100
AcDbArc
 50
11.421753659
 51
98.0494669755
  0
ARC
  5
255
330
1F
100
AcDbEntity
  8
0
  6
Continuous
 62
     7
370
    25
100
AcDbCircle
 10
-72.825
 20
12.2646446609
 30
0.0
 40
0.1785357107136031
100
AcDbArc
 50
81.9505330245
 51
168.578246341
  0
ARC
  5
256
330
1F
100
AcDbEntity
  8
0
  6
Continuous
 62
     7
370
    25
100
AcDbCircle
 10
-56.825
 20
-12.2646446609
 30
0.0
 40
0.1785357107135765
100
AcDbArc
 50
191.421753659
 51
278.0494669755
  0
ARC
  5
257
330
1F
100
AcDbEntity
  8
0
  6
Continuous
 62
     7
370
    25
100
AcDbCircle
 10
63.2
 20
12.3
 30
0.0
 40
0.2000000000000082
100
AcDbArc
 50
90.0
 51
180.0
  0
ARC
  5
258
330
1F
100
AcDbEntity
  8
0
  6
Continuous
 62
     7
370
    25
100
AcDbCircle
 10
-56.8
 20
12.3
 30
0.0
 40
0.1999999999999744
100
AcDbArc
 50
90.0
 51
180.0
  0
ARC
  5
259
330
1F
100
AcDbEntity
  8
0
  6
Continuous
 62
     7
370
    25
100
AcDbCircle
 10
72.8
 20
12.3
 30
0.0
 40
0.2000000000000028
100
AcDbArc
 50
0.0
 51
90.0
  0
ARC
  5
25A
330
1F
100
AcDbEntity
  8
0
  6
Continuous
 62
     7
370
    25
100
AcDbCircle
 10
-72.8
 20
12.3
 30
0.0
 40
0.2000000000000171
100
AcDbArc
 50
90.0
 51
180.0
  0
ARC
  5
25B
330
1F
100
AcDbEntity
  8
0
  6
Continuous
 62
     7
370
    25
100
AcDbCircle
 10
56.8
 20
12.3
 30
0.0
 40
0.1999999999999993
100
AcDbArc
 50
0.0
 51
90.0
  0
ARC
  5
25C
330
1F
100
AcDbEntity
  8
0
  6
Continuous
 62
     7
370
    25
100
AcDbCircle
 10
-63.2
 20
12.3
 30
0.0
 40
0.1999999999999957
100
AcDbArc
 50
360.0
 51
90.0
  0
ARC
  5
25D
330
1F
100
AcDbEntity
  8
0
  6
Continuous
 62
     7
370
    25
100
AcDbCircle
 10
-56.8
 20
-12.3
 30
0.0
 40
0.1999999999999975
100
AcDbArc
 50
180.0
 51
270.0
  0
ARC
  5
25E
330
1F
100
AcDbEntity
  8
0
  6
Continuous
 62
     7
370
    25
100
AcDbCircle
 10
-63.2
 20
-12.3
 30
0.0
 40
0.2000000000000117
100
AcDbArc
 50
270.0
 51
360.0
  0
ARC
  5
25F
330
1F
100
AcDbEntity
  8
0
  6
Continuous
 62
     7
370
    25
100
AcDbCircle
 10
72.8
 20
-12.3
 30
0.0
 40
0.2000000000000224
100
AcDbArc
 50
270.0
 51
360.0
  0
ARC
  5
260
330
1F
100
AcDbEntity
  8
0
  6
Continuous
 62
     7
370
    25
100
AcDbCircle
 10
56.8
 20
-12.3
 30
0.0
 40
0.1999999999999975
100
AcDbArc
 50
270.0
 51
0.0
  0
ARC
  5
261
330
1F
100
AcDbEntity
  8
0
  6
Continuous
 62
     7
370
    25
100
AcDbCircle
 10
-72.8
 20
-12.3
 30
0.0
 40
0.2000000000000046
100
AcDbArc
 50
180.0
 51
270.0
  0
ARC
  5
262
330
1F
100
AcDbEntity
  8
0
  6
Continuous
 62
     7
370
    25
100
AcDbCircle
 10
63.2
 20
-12.3
 30
0.0
 40
0.1999999999999957
100
AcDbArc
 50
180.0
 51
270.0
  0
LINE
  5
40E
330
23
100
AcDbEntity
 67
     1
  8
0
  6
Continuous
 62
     7
370
    25
100
AcDbLine
 10
-63.0
 20
-73.0
 30
0.0
 11
-57.0
 21
-73.0
 31
0.0
  0
LINE
  5
40F
330
23
100
AcDbEntity
 67
     1
  8
0
  6
Continuous
 62
     7
370
    25
100
AcDbLine
 10
-57.0
 20
-67.0
 30
0.0
 11
-63.0
 21
-67.0
 31
0.0
  0
LINE
  5
410
330
23
100
AcDbEntity
 67
     1
  8
0
  6
Continuous
 62
     7
370
    25
100
AcDbLine
 10
57.0
 20
-73.0
 30
0.0
 11
63.0
 21
-73.0
 31
0.0
  0
LINE
  5
411
330
23
100
AcDbEntity
 67
     1
  8
0
  6
Continuous
 62
     7
370
    25
100
AcDbLine
 10
63.0
 20
-67.0
 30
0.0
 11
57.0
 21
-67.0
 31
0.0
  0
LINE
  5
412
330
23
100
AcDbEntity
 67
     1
  8
0
  6
Continuous
 62
     7
370
    25
100
AcDbLine
 10
74.9171572875
 20
-2.5
 30
0.0
 11
74.9171572875
 21
0.0
 31
0.0
  0
LINE
  5
413
330
23
100
AcDbEntity
 67
     1
  8
0
  6
Continuous
 62
     7
370
    25
100
AcDbLine
 10
-85.0
 20
-2.3
 30
0.0
 11
85.0
 21
-2.3
 31
0.0
  0
LINE
  5
414
330
23
100
AcDbEntity
 67
     1
  8
0
  6
Continuous
 62
     7
370
    25
100
AcDbLine
 10
75.0585786438
 20
0.0
 30
0.0
 11
75.0585786438
 21
-2.3
 31
0.0
  0
LINE
  5
415
330
23
100
AcDbEntity
 67
     1
  8
0
  6
Continuous
 62
     7
370
    25
100
AcDbLine
 10
85.0
 20
0.0
 30
0.0
 11
-85.0
 21
0.0
 31
0.0
  0
LINE
  5
416
330
23
100
AcDbEntity
 67
     1
  8
0
  6
Continuous
 62
     7
370
    25
100
AcDbLine
 10
84.8
 20
-2.5
 30
0.0
 11
-84.8
 21
-2.5
 31
0.0
  0
LINE
  5
417
330
23
100
AcDbEntity
 67
     1
  8
0
  6
Continuous
 62
     7
370
    25
100
AcDbLine
 10
-74.9171572875
 20
0.0
 30
0.0
 11
-74.9171572875
 21
-2.5
 31
0.0
  0
LINE
  5
418
330
23
100
AcDbEntity
 67
     1
  8
0
  6
Continuous
 62
     7
370
    25
100
AcDbLine
 10
-75.0585786438
 20
-2.3
 30
0.0
 11
-75.0585786438
 21
0.0
 31
0.0
  0
LINE
  5
419
330
23
100
AcDbEntity
 67
     1
  8
0
  6
Continuous
 62
     7
370
    25
100
AcDbLine
 10
84.9414213562
 20
-2.3
 30
0.0
 11
84.9414213562
 21
0.0
 31
0.0
  0
LINE
  5
41A
330
23
100
AcDbEntity
 67
     1
  8
0
  6
Continuous
 62
     7
370
    25
100
AcDbLine
 10
-84.9414213562
 20
0.0
 30
0.0
 11
-84.9414213562
 21
-2.3
 31
0.0
  0
LINE
  5
41B
330
23
100
AcDbEntity
 67
     1
  8
0
  6
Continuous
 62
     7
370
    25
100
AcDbLine
 10
85.0
 20
0.0
 30
0.0
 11
85.0
 21
-2.3
 31
0.0
  0
LINE
  5
41C
330
23
100
AcDbEntity
 67
     1
  8
0
  6
Continuous
 62
     7
370
    25
100
AcDbLine
 10
-85.0
 20
-2.3
 30
0.0
 11
-85.0
 21
0.0
 31
0.0
  0
LINE
  5
41D
330
23
100
AcDbEntity
 67
     1
  8
0
  6
Continuous
 62
     7
370
    25
100
AcDbLine
 10
-57.5
 20
-2.7
 30
0.0
 11
-62.5
 21
-2.7
 31
0.0
  0
LINE
  5
41E
330
23
100
AcDbEntity
 67
     1
  8
0
  6
Continuous
 62
     7
370
    25
100
AcDbLine
 10
62.5
 20
-2.7
 30
0.0
 11
57.5
 21
-2.7
 31
0.0
  0
LINE
  5
41F
330
23
100
AcDbEntity
 67
     1
  8
0
  6
Continuous
 62
     7
370
    25
100
AcDbLine
 10
57.7
 20
-2.5
 30
0.0
 11
57.7
 21
-67.0
 31
0.0
  0
LINE
  5
420
330
23
100
AcDbEntity
 67
     1
  8
0
  6
Continuous
 62
     7
370
    25
100
AcDbLine
 10
62.3
 20
-67.0
 30
0.0
 11
62.3
 21
-2.5
 31
0.0
  0
LINE
  5
421
330
23
100
AcDbEntity
 67
     1
  8
0
  6
Continuous
 62
     7
370
    25
100
AcDbLine
 10
-62.5
 20
-75.0948268172
 30
0.0
 11
-57.5
 21
-75.0948268172
 31
0.0
  0
LINE
  5
422
330
23
100
AcDbEntity
 67
     1
  8
0
  6
Continuous
 62
     7
370
    25
100
AcDbLine
 10
-57.7
 20
-75.2362481734
 30
0.0
 11
-62.3
 21
-75.2362481734
 31
0.0
  0
LINE
  5
423
330
23
100
AcDbEntity
 67
     1
  8
0
  6
Continuous
 62
     7
370
    25
100
AcDbLine
 10
-62.3
 20
-73.0
 30
0.0
 11
-62.3
 21
-82.5
 31
0.0
  0
LINE
  5
424
330
23
100
AcDbEntity
 67
     1
  8
0
  6
Continuous
 62
     7
370
    25
100
AcDbLine
 10
-62.3
 20
-2.5
 30
0.0
 11
-62.3
 21
-67.0
 31
0.0
  0
LINE
  5
425
330
23
100
AcDbEntity
 67
     1
  8
0
  6
Continuous
 62
     7
370
    25
100
AcDbLine
 10
-62.5
 20
-66.7
 30
0.0
 11
-57.5
 21
-66.7
 31
0.0
  0
LINE
  5
426
330
23
100
AcDbEntity
 67
     1
  8
0
  6
Continuous
 62
     7
370
    25
100
AcDbLine
 10
-57.7
 20
-82.5
 30
0.0
 11
-57.7
 21
-73.0
 31
0.0
  0
LINE
  5
427
330
23
100
AcDbEntity
 67
     1
  8
0
  6
Continuous
 62
     7
370
    25
100
AcDbLine
 10
-62.5
 20
-67.0
 30
0.0
 11
-62.5
 21
-2.7
 31
0.0
  0
LINE
  5
428
330
23
100
AcDbEntity
 67
     1
  8
0
  6
Continuous
 62
     7
370
    25
100
AcDbLine
 10
-62.5
 20
-82.3
 30
0.0
 11
-62.5
 21
-73.0
 31
0.0
  0
LINE
  5
429
330
23
100
AcDbEntity
 67
     1
  8
0
  6
Continuous
 62
     7
370
    25
100
AcDbLine
 10
-57.5
 20
-73.3
 30
0.0
 11
-62.5
 21
-73.3
 31
0.0
  0
LINE
  5
42A
330
23
100
AcDbEntity
 67
     1
  8
0
  6
Continuous
 62
     7
370
    25
100
AcDbLine
 10
-62.3
 20
-73.1
 30
0.0
 11
-57.7
 21
-73.1
 31
0.0
  0
LINE
  5
42B
330
23
100
AcDbEntity
 67
     1
  8
0
  6
Continuous
 62
     7
370
    25
100
AcDbLine
 10
-57.7
 20
-67.0
 30
0.0
 11
-57.7
 21
-2.5
 31
0.0
  0
LINE
  5
42C
330
23
100
AcDbEntity
 67
     1
  8
0
  6
Continuous
 62
     7
370
    25
100
AcDbLine
 10
-57.7
 20
-66.9
 30
0.0
 11
-62.3
 21
-66.9
 31
0.0
  0
LINE
  5
42D
330
23
100
AcDbEntity
 67
     1
  8
0
  6
Continuous
 62
     7
370
    25
100
AcDbLine
 10
-57.5
 20
-73.0
 30
0.0
 11
-57.5
 21
-82.3
 31
0.0
  0
LINE
  5
42E
330
23
100
AcDbEntity
 67
     1
  8
0
  6
Continuous
 62
     7
370
    25
100
AcDbLine
 10
-57.5
 20
-2.7
 30
0.0
 11
-57.5
 21
-67.0
 31
0.0
  0
LINE
  5
42F
330
23
100
AcDbEntity
 67
     1
  8
0
  6
Continuous
 62
     7
370
    25
100
AcDbLine
 10
62.5
 20
-73.3
 30
0.0
 11
57.5
 21
-73.3
 31
0.0
  0
LINE
  5
430
330
23
100
AcDbEntity
 67
     1
  8
0
  6
Continuous
 62
     7
370
    25
100
AcDbLine
 10
62.3
 20
-82.5
 30
0.0
 11
62.3
 21
-73.0
 31
0.0
  0
LINE
  5
431
330
23
100
AcDbEntity
 67
     1
  8
0
  6
Continuous
 62
     7
370
    25
100
AcDbLine
 10
57.5
 20
-75.0948268172
 30
0.0
 11
62.5
 21
-75.0948268172
 31
0.0
  0
LINE
  5
432
330
23
100
AcDbEntity
 67
     1
  8
0
  6
Continuous
 62
     7
370
    25
100
AcDbLine
 10
57.7
 20
-73.0
 30
0.0
 11
57.7
 21
-82.5
 31
0.0
  0
LINE
  5
433
330
23
100
AcDbEntity
 67
     1
  8
0
  6
Continuous
 62
     7
370
    25
100
AcDbLine
 10
57.7
 20
-73.1
 30
0.0
 11
62.3
 21
-73.1
 31
0.0
  0
LINE
  5
434
330
23
100
AcDbEntity
 67
     1
  8
0
  6
Continuous
 62
     7
370
    25
100
AcDbLine
 10
57.5
 20
-66.7
 30
0.0
 11
62.5
 21
-66.7
 31
0.0
  0
LINE
  5
435
330
23
100
AcDbEntity
 67
     1
  8
0
  6
Continuous
 62
     7
370
    25
100
AcDbLine
 10
62.3
 20
-75.2362481734
 30
0.0
 11
57.7
 21
-75.2362481734
 31
0.0
  0
LINE
  5
436
330
23
100
AcDbEntity
 67
     1
  8
0
  6
Continuous
 62
     7
370
    25
100
AcDbLine
 10
57.5
 20
-82.3
 30
0.0
 11
57.5
 21
-73.0
 31
0.0
  0
LINE
  5
437
330
23
100
AcDbEntity
 67
     1
  8
0
  6
Continuous
 62
     7
370
    25
100
AcDbLine
 10
62.3
 20
-66.9
 30
0.0
 11
57.7
 21
-66.9
 31
0.0
  0
LINE
  5
438
330
23
100
AcDbEntity
 67
     1
  8
0
  6
Continuous
 62
     7
370
    25
100
AcDbLine
 10
57.5
 20
-67.0
 30
0.0
 11
57.5
 21
-2.7
 31
0.0
  0
LINE
  5
439
330
23
100
AcDbEntity
 67
     1
  8
0
  6
Continuous
 62
     7
370
    25
100
AcDbLine
 10
62.5
 20
-2.7
 30
0.0
 11
62.5
 21
-67.0
 31
0.0
  0
LINE
  5
43A
330
23
100
AcDbEntity
 67
     1
  8
0
  6
Continuous
 62
     7
370
    25
100
AcDbLine
 10
62.5
 20
-73.0
 30
0.0
 11
62.5
 21
-82.3
 31
0.0
  0
LINE
  5
43B
330
23
100
AcDbEntity
 67
     1
  8
0
  6
Continuous
 62
     7
370
    25
100
AcDbLine
 10
-62.3
 20
-82.4414213562
 30
0.0
 11
-57.7
 21
-82.4414213562
 31
0.0
  0
LINE
  5
43C
330
23
100
AcDbEntity
 67
     1
  8
0
  6
Continuous
 62
     7
370
    25
100
AcDbLine
 10
57.7
 20
-82.4414213562
 30
0.0
 11
62.3
 21
-82.4414213562
 31
0.0
  0
LINE
  5
43D
330
23
100
AcDbEntity
 67
     1
  8
0
  6
Continuous
 62
     7
370
    25
100
AcDbLine
 10
62.3
 20
-82.5
 30
0.0
 11
57.7
 21
-82.5
 31
0.0
  0
LINE
  5
43E
330
23
100
AcDbEntity
 67
     1
  8
0
  6
Continuous
 62
     7
370
    25
100
AcDbLine
 10
-57.7
 20
-82.5
 30
0.0
 11
-62.3
 21
-82.5
 31
0.0
  0
LINE
  5
43F
330
23
100
AcDbEntity
 67
     1
  8
0
  6
Continuous
 62
     7
370
    25
100
AcDbLine
 10
-72.8
 20
-57.5
 30
0.0
 11
-72.8
 21
-82.5
 31
0.0
  0
LINE
  5
440
330
23
100
AcDbEntity
 67
     1
  8
0
  6
Continuous
 62
     7
370
    25
100
AcDbLine
 10
-73.0
 20
-82.3
 30
0.0
 11
-73.0
 21
-57.7
 31
0.0
  0
LINE
  5
441
330
23
100
AcDbEntity
 67
     1
  8
0
  6
Continuous
 62
     7
370
    25
100
AcDbLine
 10
-56.8
 20
-57.5
 30
0.0
 11
-56.8
 21
-82.5
 31
0.0
  0
LINE
  5
442
330
23
100
AcDbEntity
 67
     1
  8
0
  6
Continuous
 62
     7
370
    25
100
AcDbLine
 10
-57.0
 20
-82.3
 30
0.0
 11
-57.0
 21
-57.7
 31
0.0
  0
LINE
  5
443
330
23
100
AcDbEntity
 67
     1
  8
0
  6
Continuous
 62
     7
370
    25
100
AcDbLine
 10
57.0
 20
-64.9051731828
 30
0.0
 11
-57.0
 21
-64.9051731828
 31
0.0
  0
LINE
  5
444
330
23
100
AcDbEntity
 67
     1
  8
0
  6
Continuous
 62
     7
370
    25
100
AcDbLine
 10
-63.0
 20
-57.7
 30
0.0
 11
-63.0
 21
-82.3
 31
0.0
  0
LINE
  5
445
330
23
100
AcDbEntity
 67
     1
  8
0
  6
Continuous
 62
     7
370
    25
100
AcDbLine
 10
-73.0
 20
-75.0948268172
 30
0.0
 11
-63.0
 21
-75.0948268172
 31
0.0
  0
LINE
  5
446
330
23
100
AcDbEntity
 67
     1
  8
0
  6
Continuous
 62
     7
370
    25
100
AcDbLine
 10
-63.2
 20
-82.5
 30
0.0
 11
-63.2
 21
-57.5
 31
0.0
  0
LINE
  5
447
330
23
100
AcDbEntity
 67
     1
  8
0
  6
Continuous
 62
     7
370
    25
100
AcDbLine
 10
-63.0
 20
-64.9051731828
 30
0.0
 11
-73.0
 21
-64.9051731828
 31
0.0
  0
LINE
  5
448
330
23
100
AcDbEntity
 67
     1
  8
0
  6
Continuous
 62
     7
370
    25
100
AcDbLine
 10
73.0
 20
-57.7
 30
0.0
 11
73.0
 21
-82.3
 31
0.0
  0
LINE
  5
449
330
23
100
AcDbEntity
 67
     1
  8
0
  6
Continuous
 62
     7
370
    25
100
AcDbLine
 10
63.0
 20
-75.0948268172
 30
0.0
 11
73.0
 21
-75.0948268172
 31
0.0
  0
LINE
  5
44A
330
23
100
AcDbEntity
 67
     1
  8
0
  6
Continuous
 62
     7
370
    25
100
AcDbLine
 10
72.8
 20
-82.5
 30
0.0
 11
72.8
 21
-57.5
 31
0.0
  0
LINE
  5
44B
330
23
100
AcDbEntity
 67
     1
  8
0
  6
Continuous
 62
     7
370
    25
100
AcDbLine
 10
73.0
 20
-64.9051731828
 30
0.0
 11
63.0
 21
-64.9051731828
 31
0.0
  0
LINE
  5
44C
330
23
100
AcDbEntity
 67
     1
  8
0
  6
Continuous
 62
     7
370
    25
100
AcDbLine
 10
-56.8
 20
-64.7637518266
 30
0.0
 11
56.8
 21
-64.7637518266
 31
0.0
  0
LINE
  5
44D
330
23
100
AcDbEntity
 67
     1
  8
0
  6
Continuous
 62
     7
370
    25
100
AcDbLine
 10
56.8
 20
-82.5
 30
0.0
 11
56.8
 21
-57.5
 31
0.0
  0
LINE
  5
44E
330
23
100
AcDbEntity
 67
     1
  8
0
  6
Continuous
 62
     7
370
    25
100
AcDbLine
 10
63.2
 20
-57.5
 30
0.0
 11
63.2
 21
-82.5
 31
0.0
  0
LINE
  5
44F
330
23
100
AcDbEntity
 67
     1
  8
0
  6
Continuous
 62
     7
370
    25
100
AcDbLine
 10
-72.8
 20
-64.7637518266
 30
0.0
 11
-63.2
 21
-64.7637518266
 31
0.0
  0
LINE
  5
450
330
23
100
AcDbEntity
 67
     1
  8
0
  6
Continuous
 62
     7
370
    25
100
AcDbLine
 10
63.2
 20
-64.7637518266
 30
0.0
 11
72.8
 21
-64.7637518266
 31
0.0
  0
LINE
  5
451
330
23
100
AcDbEntity
 67
     1
  8
0
  6
Continuous
 62
     7
370
    25
100
AcDbLine
 10
57.0
 20
-57.7
 30
0.0
 11
57.0
 21
-82.3
 31
0.0
  0
LINE
  5
452
330
23
100
AcDbEntity
 67
     1
  8
0
  6
Continuous
 62
     7
370
    25
100
AcDbLine
 10
-57.0
 20
-75.0948268172
 30
0.0
 11
57.0
 21
-75.0948268172
 31
0.0
  0
LINE
  5
453
330
23
100
AcDbEntity
 67
     1
  8
0
  6
Continuous
 62
     7
370
    25
100
AcDbLine
 10
63.0
 20
-82.3
 30
0.0
 11
63.0
 21
-57.7
 31
0.0
  0
LINE
  5
454
330
23
100
AcDbEntity
 67
     1
  8
0
  6
Continuous
 62
     7
370
    25
100
AcDbLine
 10
-63.2
 20
-75.2362481734
 30
0.0
 11
-72.8
 21
-75.2362481734
 31
0.0
  0
LINE
  5
455
330
23
100
AcDbEntity
 67
     1
  8
0
  6
Continuous
 62
     7
370
    25
100
AcDbLine
 10
72.8
 20
-75.2362481734
 30
0.0
 11
63.2
 21
-75.2362481734
 31
0.0
  0
LINE
  5
456
330
23
100
AcDbEntity
 67
     1
  8
0
  6
Continuous
 62
     7
370
    25
100
AcDbLine
 10
56.8
 20
-75.2362481734
 30
0.0
 11
-56.8
 21
-75.2362481734
 31
0.0
  0
LINE
  5
457
330
23
100
AcDbEntity
 67
     1
  8
0
  6
Continuous
 62
     7
370
    25
100
AcDbLine
 10
72.8
 20
-57.5585786438
 30
0.0
 11
63.2
 21
-57.5585786438
 31
0.0
  0
LINE
  5
458
330
23
100
AcDbEntity
 67
     1
  8
0
  6
Continuous
 62
     7
370
    25
100
AcDbLine
 10
-63.2
 20
-57.5585786438
 30
0.0
 11
-72.8
 21
-57.5585786438
 31
0.0
  0
LINE
  5
459
330
23
100
AcDbEntity
 67
     1
  8
0
  6
Continuous
 62
     7
370
    25
100
AcDbLine
 10
56.8
 20
-57.5585786438
 30
0.0
 11
-56.8
 21
-57.5585786438
 31
0.0
  0
LINE
  5
45A
330
23
100
AcDbEntity
 67
     1
  8
0
  6
Continuous
 62
     7
370
    25
100
AcDbLine
 10
-56.8
 20
-82.4414213562
 30
0.0
 11
56.8
 21
-82.4414213562
 31
0.0
  0
LINE
  5
45B
330
23
100
AcDbEntity
 67
     1
  8
0
  6
Continuous
 62
     7
370
    25
100
AcDbLine
 10
-72.8
 20
-82.4414213562
 30
0.0
 11
-63.2
 21
-82.4414213562
 31
0.0
  0
LINE
  5
45C
330
23
100
AcDbEntity
 67
     1
  8
0
  6
Continuous
 62
     7
370
    25
100
AcDbLine
 10
63.2
 20
-82.4414213562
 30
0.0
 11
72.8
 21
-82.4414213562
 31
0.0
  0
LINE
  5
45D
330
23
100
AcDbEntity
 67
     1
  8
0
  6
Continuous
 62
     7
370
    25
100
AcDbLine
 10
-72.8
 20
-57.5
 30
0.0
 11
-63.2
 21
-57.5
 31
0.0
  0
LINE
  5
45E
330
23
100
AcDbEntity
 67
     1
  8
0
  6
Continuous
 62
     7
370
    25
100
AcDbLine
 10
-56.8
 20
-57.5
 30
0.0
 11
56.8
 21
-57.5
 31
0.0
  0
LINE
  5
45F
330
23
100
AcDbEntity
 67
     1
  8
0
  6
Continuous
 62
     7
370
    25
100
AcDbLine
 10
63.2
 20
-57.5
 30
0.0
 11
72.8
 21
-57.5
 31
0.0
  0
LINE
  5
460
330
23
100
AcDbEntity
 67
     1
  8
0
  6
Continuous
 62
     7
370
    25
100
AcDbLine
 10
72.8
 20
-82.5
 30
0.0
 11
63.2
 21
-82.5
 31
0.0
  0
LINE
  5
461
330
23
100
AcDbEntity
 67
     1
  8
0
  6
Continuous
 62
     7
370
    25
100
AcDbLine
 10
-63.2
 20
-82.5
 30
0.0
 11
-72.8
 21
-82.5
 31
0.0
  0
LINE
  5
462
330
23
100
AcDbEntity
 67
     1
  8
0
  6
Continuous
 62
     7
370
    25
100
AcDbLine
 10
56.8
 20
-82.5
 30
0.0
 11
-56.8
 21
-82.5
 31
0.0
  0
ARC
  5
463
330
23
100
AcDbEntity
 67
     1
  8
0
  6
Continuous
 62
     7
370
    25
100
AcDbCircle
 10
74.8818019485
 20
-2.325
 30
0.0
 40
0.1785357107135765
100
AcDbArc
 50
281.421753659
 51
8.0494669755
  0
ARC
  5
464
330
23
100
AcDbEntity
 67
     1
  8
0
  6
Continuous
 62
     7
370
    25
100
AcDbCircle
 10
-74.8818019485
 20
-2.325
 30
0.0
 40
0.1785357107135774
100
AcDbArc
 50
171.9505330245
 51
258.578246341
  0
ARC
  5
465
330
23
100
AcDbEntity
 67
     1
  8
0
  6
Continuous
 62
     7
370
    25
100
AcDbCircle
 10
84.7646446609
 20
-2.325
 30
0.0
 40
0.1785357107135976
100
AcDbArc
 50
281.421753659
 51
8.0494669755
  0
ARC
  5
466
330
23
100
AcDbEntity
 67
     1
  8
0
  6
Continuous
 62
     7
370
    25
100
AcDbCircle
 10
-84.7646446609
 20
-2.325
 30
0.0
 40
0.1785357107135978
100
AcDbArc
 50
171.9505330245
 51
258.578246341
  0
ARC
  5
467
330
23
100
AcDbEntity
 67
     1
  8
0
  6
Continuous
 62
     7
370
    25
100
AcDbCircle
 10
84.8
 20
-2.3
 30
0.0
 40
0.1999999999999891
100
AcDbArc
 50
270.0
 51
0.0
  0
ARC
  5
468
330
23
100
AcDbEntity
 67
     1
  8
0
  6
Continuous
 62
     7
370
    25
100
AcDbCircle
 10
-84.8
 20
-2.3
 30
0.0
 40
0.1999999999999935
100
AcDbArc
 50
180.0
 51
270.0
  0
ARC
  5
469
330
23
100
AcDbEntity
 67
     1
  8
0
  6
Continuous
 62
     7
370
    25
100
AcDbCircle
 10
-62.7
 20
-2.7
 30
0.0
 40
0.1999999999999975
100
AcDbArc
 50
0.0
 51
90.0
  0
ARC
  5
46A
330
23
100
AcDbEntity
 67
     1
  8
0
  6
Continuous
 62
     7
370
    25
100
AcDbCircle
 10
-57.3
 20
-2.7
 30
0.0
 40
0.1999999999999913
100
AcDbArc
 50
90.0
 51
180.0
  0
ARC
  5
46B
330
23
100
AcDbEntity
 67
     1
  8
0
  6
Continuous
 62
     7
370
    25
100
AcDbCircle
 10
57.3
 20
-2.7
 30
0.0
 40
0.1999999999999957
100
AcDbArc
 50
0.0
 51
90.0
  0
ARC
  5
46C
330
23
100
AcDbEntity
 67
     1
  8
0
  6
Continuous
 62
     7
370
    25
100
AcDbCircle
 10
62.7
 20
-2.7
 30
0.0
 40
0.2000000000000171
100
AcDbArc
 50
90.0
 51
180.0
  0
ARC
  5
46D
330
23
100
AcDbEntity
 67
     1
  8
0
  6
Continuous
 62
     7
370
    25
100
AcDbCircle
 10
-62.325
 20
-75.0594714781
 30
0.0
 40
0.1785357107135939
100
AcDbArc
 50
191.421753659
 51
278.0494669755
  0
ARC
  5
46E
330
23
100
AcDbEntity
 67
     1
  8
0
  6
Continuous
 62
     7
370
    25
100
AcDbCircle
 10
-62.3
 20
-66.7
 30
0.0
 40
0.2000000000000171
100
AcDbArc
 50
180.0
 51
270.0
  0
ARC
  5
46F
330
23
100
AcDbEntity
 67
     1
  8
0
  6
Continuous
 62
     7
370
    25
100
AcDbCircle
 10
-57.7
 20
-73.3
 30
0.0
 40
0.2000000000000171
100
AcDbArc
 50
0.0
 51
90.0
  0
ARC
  5
470
330
23
100
AcDbEntity
 67
     1
  8
0
  6
Continuous
 62
     7
370
    25
100
AcDbCircle
 10
-62.3
 20
-73.3
 30
0.0
 40
0.2000000000000455
100
AcDbArc
 50
90.0
 51
180.0
  0
ARC
  5
471
330
23
100
AcDbEntity
 67
     1
  8
0
  6
Continuous
 62
     7
370
    25
100
AcDbCircle
 10
-57.675
 20
-75.0594714781
 30
0.0
 40
0.1785357107135633
100
AcDbArc
 50
261.9505330245
 51
348.578246341
  0
ARC
  5
472
330
23
100
AcDbEntity
 67
     1
  8
0
  6
Continuous
 62
     7
370
    25
100
AcDbCircle
 10
-57.7
 20
-66.7
 30
0.0
 40
0.1999999999999602
100
AcDbArc
 50
270.0
 51
0.0
  0
ARC
  5
473
330
23
100
AcDbEntity
 67
     1
  8
0
  6
Continuous
 62
     7
370
    25
100
AcDbCircle
 10
57.675
 20
-75.0594714781
 30
0.0
 40
0.178535710713587
100
AcDbArc
 50
191.421753659
 51
278.0494669755
  0
ARC
  5
474
330
23
100
AcDbEntity
 67
     1
  8
0
  6
Continuous
 62
     7
370
    25
100
AcDbCircle
 10
57.7
 20
-66.7
 30
0.0
 40
0.2000000000000384
100
AcDbArc
 50
180.0
 51
270.0
  0
ARC
  5
475
330
23
100
AcDbEntity
 67
     1
  8
0
  6
Continuous
 62
     7
370
    25
100
AcDbCircle
 10
57.7
 20
-73.3
 30
0.0
 40
0.2000000000000739
100
AcDbArc
 50
90.0
 51
180.0
  0
ARC
  5
476
330
23
100
AcDbEntity
 67
     1
  8
0
  6
Continuous
 62
     7
370
    25
100
AcDbCircle
 10
62.3
 20
-73.3
 30
0.0
 40
0.2000000000000171
100
AcDbArc
 50
0.0
 51
90.0
  0
ARC
  5
477
330
23
100
AcDbEntity
 67
     1
  8
0
  6
Continuous
 62
     7
370
    25
100
AcDbCircle
 10
62.3
 20
-66.7
 30
0.0
 40
0.1999999999999602
100
AcDbArc
 50
270.0
 51
0.0
  0
ARC
  5
478
330
23
100
AcDbEntity
 67
     1
  8
0
  6
Continuous
 62
     7
370
    25
100
AcDbCircle
 10
62.325
 20
-75.0594714781
 30
0.0
 40
0.1785357107135939
100
AcDbArc
 50
261.9505330245
 51
348.578246341
  0
ARC
  5
479
330
23
100
AcDbEntity
 67
     1
  8
0
  6
Continuous
 62
     7
370
    25
100
AcDbCircle
 10
-62.325
 20
-82.2646446609
 30
0.0
 40
0.1785357107135939
100
AcDbArc
 50
191.421753659
 51
278.0494669755
  0
ARC
  5
47A
330
23
100
AcDbEntity
 67
     1
  8
0
  6
Continuous
 62
     7
370
    25
100
AcDbCircle
 10
-57.675
 20
-82.2646446609
 30
0.0
 40
0.178535710713587
100
AcDbArc
 50
261.9505330245
 51
348.578246341
  0
ARC
  5
47B
330
23
100
AcDbEntity
 67
     1
  8
0
  6
Continuous
 62
     7
370
    25
100
AcDbCircle
 10
57.675
 20
-82.2646446609
 30
0.0
 40
0.1785357107135875
100
AcDbArc
 50
191.421753659
 51
278.0494669755
  0
ARC
  5
47C
330
23
100
AcDbEntity
 67
     1
  8
0
  6
Continuous
 62
     7
370
    25
100
AcDbCircle
 10
62.325
 20
-82.2646446609
 30
0.0
 40
0.1785357107135604
100
AcDbArc
 50
261.9505330245
 51
348.578246341
  0
ARC
  5
47D
330
23
100
AcDbEntity
 67
     1
  8
0
  6
Continuous
 62
     7
370
    25
100
AcDbCircle
 10
-57.7
 20
-82.3
 30
0.0
 40
0.2000000000000099
100
AcDbArc
 50
270.0
 51
0.0
  0
ARC
  5
47E
330
23
100
AcDbEntity
 67
     1
  8
0
  6
Continuous
 62
     7
370
    25
100
AcDbCircle
 10
62.3
 20
-82.3
 30
0.0
 40
0.2000000000000028
100
AcDbArc
 50
270.0
 51
0.0
  0
ARC
  5
47F
330
23
100
AcDbEntity
 67
     1
  8
0
  6
Continuous
 62
     7
370
    25
100
AcDbCircle
 10
-62.3
 20
-82.3
 30
0.0
 40
0.1999999999999886
100
AcDbArc
 50
180.0
 51
270.0
  0
ARC
  5
480
330
23
100
AcDbEntity
 67
     1
  8
0
  6
Continuous
 62
     7
370
    25
100
AcDbCircle
 10
57.7
 20
-82.3
 30
0.0
 40
0.1999999999999886
100
AcDbArc
 50
180.0
 51
270.0
  0
ARC
  5
481
330
23
100
AcDbEntity
 67
     1
  8
0
  6
Continuous
 62
     7
370
    25
100
AcDbCircle
 10
-63.175
 20
-64.9405285219
 30
0.0
 40
0.1785357107135506
100
AcDbArc
 50
11.421753659
 51
98.0494669755
  0
ARC
  5
482
330
23
100
AcDbEntity
 67
     1
  8
0
  6
Continuous
 62
     7
370
    25
100
AcDbCircle
 10
-56.825
 20
-64.9405285219
 30
0.0
 40
0.1785357107135594
100
AcDbArc
 50
81.9505330245
 51
168.578246341
  0
ARC
  5
483
330
23
100
AcDbEntity
 67
     1
  8
0
  6
Continuous
 62
     7
370
    25
100
AcDbCircle
 10
56.825
 20
-64.9405285219
 30
0.0
 40
0.1785357107135772
100
AcDbArc
 50
11.421753659
 51
98.0494669755
  0
ARC
  5
484
330
23
100
AcDbEntity
 67
     1
  8
0
  6
Continuous
 62
     7
370
    25
100
AcDbCircle
 10
63.175
 20
-64.9405285219
 30
0.0
 40
0.1785357107135855
100
AcDbArc
 50
81.9505330245
 51
168.578246341
  0
ARC
  5
485
330
23
100
AcDbEntity
 67
     1
  8
0
  6
Continuous
 62
     7
370
    25
100
AcDbCircle
 10
72.825
 20
-64.9405285219
 30
0.0
 40
0.1785357107135674
100
AcDbArc
 50
11.421753659
 51
98.0494669755
  0
ARC
  5
486
330
23
100
AcDbEntity
 67
     1
  8
0
  6
Continuous
 62
     7
370
    25
100
AcDbCircle
 10
-72.825
 20
-64.9405285219
 30
0.0
 40
0.1785357107136037
100
AcDbArc
 50
81.9505330245
 51
168.578246341
  0
ARC
  5
487
330
23
100
AcDbEntity
 67
     1
  8
0
  6
Continuous
 62
     7
370
    25
100
AcDbCircle
 10
56.825
 20
-75.0594714781
 30
0.0
 40
0.1785357107135772
100
AcDbArc
 50
261.9505330245
 51
348.578246341
  0
ARC
  5
488
330
23
100
AcDbEntity
 67
     1
  8
0
  6
Continuous
 62
     7
370
    25
100
AcDbCircle
 10
-72.825
 20
-75.0594714781
 30
0.0
 40
0.1785357107136037
100
AcDbArc
 50
191.421753659
 51
278.0494669755
  0
ARC
  5
489
330
23
100
AcDbEntity
 67
     1
  8
0
  6
Continuous
 62
     7
370
    25
100
AcDbCircle
 10
63.175
 20
-75.0594714781
 30
0.0
 40
0.1785357107135855
100
AcDbArc
 50
191.421753659
 51
278.0494669755
  0
ARC
  5
48A
330
23
100
AcDbEntity
 67
     1
  8
0
  6
Continuous
 62
     7
370
    25
100
AcDbCircle
 10
-56.825
 20
-75.0594714781
 30
0.0
 40
0.1785357107135594
100
AcDbArc
 50
191.421753659
 51
278.0494669755
  0
ARC
  5
48B
330
23
100
AcDbEntity
 67
     1
  8
0
  6
Continuous
 62
     7
370
    25
100
AcDbCircle
 10
-63.175
 20
-75.0594714781
 30
0.0
 40
0.1785357107135855
100
AcDbArc
 50
261.9505330245
 51
348.578246341
  0
ARC
  5
48C
330
23
100
AcDbEntity
 67
     1
  8
0
  6
Continuous
 62
     7
370
    25
100
AcDbCircle
 10
72.825
 20
-75.0594714781
 30
0.0
 40
0.1785357107136204
100
AcDbArc
 50
261.9505330245
 51
348.578246341
  0
ARC
  5
48D
330
23
100
AcDbEntity
 67
     1
  8
0
  6
Continuous
 62
     7
370
    25
100
AcDbCircle
 10
-72.825
 20
-57.7353553391
 30
0.0
 40
0.1785357107136009
100
AcDbArc
 50
81.9505330245
 51
168.578246341
  0
ARC
  5
48E
330
23
100
AcDbEntity
 67
     1
  8
0
  6
Continuous
 62
     7
370
    25
100
AcDbCircle
 10
72.825
 20
-57.7353553391
 30
0.0
 40
0.1785357107135875
100
AcDbArc
 50
11.421753659
 51
98.0494669755
  0
ARC
  5
48F
330
23
100
AcDbEntity
 67
     1
  8
0
  6
Continuous
 62
     7
370
    25
100
AcDbCircle
 10
56.825
 20
-57.7353553391
 30
0.0
 40
0.1785357107135845
100
AcDbArc
 50
11.421753659
 51
98.0494669755
  0
ARC
  5
490
330
23
100
AcDbEntity
 67
     1
  8
0
  6
Continuous
 62
     7
370
    25
100
AcDbCircle
 10
-63.175
 20
-57.7353553391
 30
0.0
 40
0.1785357107135813
100
AcDbArc
 50
11.421753659
 51
98.0494669755
  0
ARC
  5
491
330
23
100
AcDbEntity
 67
     1
  8
0
  6
Continuous
 62
     7
370
    25
100
AcDbCircle
 10
-56.825
 20
-57.7353553391
 30
0.0
 40
0.1785357107135594
100
AcDbArc
 50
81.9505330245
 51
168.578246341
  0
ARC
  5
492
330
23
100
AcDbEntity
 67
     1
  8
0
  6
Continuous
 62
     7
370
    25
100
AcDbCircle
 10
63.175
 20
-57.7353553391
 30
0.0
 40
0.1785357107135855
100
AcDbArc
 50
81.9505330245
 51
168.578246341
  0
ARC
  5
493
330
23
100
AcDbEntity
 67
     1
  8
0
  6
Continuous
 62
     7
370
    25
100
AcDbCircle
 10
-63.175
 20
-82.2646446609
 30
0.0
 40
0.1785357107135506
100
AcDbArc
 50
261.9505330245
 51
348.578246341
  0
ARC
  5
494
330
23
100
AcDbEntity
 67
     1
  8
0
  6
Continuous
 62
     7
370
    25
100
AcDbCircle
 10
-56.825
 20
-82.2646446609
 30
0.0
 40
0.1785357107135463
100
AcDbArc
 50
191.421753659
 51
278.0494669755
  0
ARC
  5
495
330
23
100
AcDbEntity
 67
     1
  8
0
  6
Continuous
 62
     7
370
    25
100
AcDbCircle
 10
72.825
 20
-82.2646446609
 30
0.0
 40
0.1785357107135506
100
AcDbArc
 50
261.9505330245
 51
348.578246341
  0
ARC
  5
496
330
23
100
AcDbEntity
 67
     1
  8
0
  6
Continuous
 62
     7
370
    25
100
AcDbCircle
 10
-72.825
 20
-82.2646446609
 30
0.0
 40
0.1785357107135506
100
AcDbArc
 50
191.421753659
 51
278.0494669755
  0
ARC
  5
497
330
23
100
AcDbEntity
 67
     1
  8
0
  6
Continuous
 62
     7
370
    25
100
AcDbCircle
 10
56.825
 20
-82.2646446609
 30
0.0
 40
0.1785357107135604
100
AcDbArc
 50
261.9505330245
 51
348.578246341
  0
ARC
  5
498
330
23
100
AcDbEntity
 67
     1
  8
0
  6
Continuous
 62
     7
370
    25
100
AcDbCircle
 10
63.175
 20
-82.2646446609
 30
0.0
 40
0.178535710713587
100
AcDbArc
 50
191.421753659
 51
278.0494669755
  0
ARC
  5
499
330
23
100
AcDbEntity
 67
     1
  8
0
  6
Continuous
 62
     7
370
    25
100
AcDbCircle
 10
-72.8
 20
-57.7
 30
0.0
 40
0.2000000000000313
100
AcDbArc
 50
90.0
 51
180.0
  0
ARC
  5
49A
330
23
100
AcDbEntity
 67
     1
  8
0
  6
Continuous
 62
     7
370
    25
100
AcDbCircle
 10
-63.2
 20
-57.7
 30
0.0
 40
0.1999999999999957
100
AcDbArc
 50
360.0
 51
90.0
  0
ARC
  5
49B
330
23
100
AcDbEntity
 67
     1
  8
0
  6
Continuous
 62
     7
370
    25
100
AcDbCircle
 10
-56.8
 20
-57.7
 30
0.0
 40
0.1999999999999957
100
AcDbArc
 50
90.0
 51
180.0
  0
ARC
  5
49C
330
23
100
AcDbEntity
 67
     1
  8
0
  6
Continuous
 62
     7
370
    25
100
AcDbCircle
 10
56.8
 20
-57.7
 30
0.0
 40
0.2000000000000171
100
AcDbArc
 50
0.0
 51
90.0
  0
ARC
  5
49D
330
23
100
AcDbEntity
 67
     1
  8
0
  6
Continuous
 62
     7
370
    25
100
AcDbCircle
 10
72.8
 20
-57.7
 30
0.0
 40
0.2000000000000171
100
AcDbArc
 50
0.0
 51
90.0
  0
ARC
  5
49E
330
23
100
AcDbEntity
 67
     1
  8
0
  6
Continuous
 62
     7
370
    25
100
AcDbCircle
 10
63.2
 20
-57.7
 30
0.0
 40
0.2000000000000171
100
AcDbArc
 50
90.0
 51
180.0
  0
ARC
  5
49F
330
23
100
AcDbEntity
 67
     1
  8
0
  6
Continuous
 62
     7
370
    25
100
AcDbCircle
 10
-63.2
 20
-82.3
 30
0.0
 40
0.2000000000000171
100
AcDbArc
 50
270.0
 51
360.0
  0
ARC
  5
4A0
330
23
100
AcDbEntity
 67
     1
  8
0
  6
Continuous
 62
     7
370
    25
100
AcDbCircle
 10
72.8
 20
-82.3
 30
0.0
 40
0.1999999999999744
100
AcDbArc
 50
270.0
 51
0.0
  0
ARC
  5
4A1
330
23
100
AcDbEntity
 67
     1
  8
0
  6
Continuous
 62
     7
370
    25
100
AcDbCircle
 10
56.8
 20
-82.3
 30
0.0
 40
0.1999999999999744
100
AcDbArc
 50
270.0
 51
0.0
  0
ARC
  5
4A2
330
23
100
AcDbEntity
 67
     1
  8
0
  6
Continuous
 62
     7
370
    25
100
AcDbCircle
 10
63.2
 20
-82.3
 30
0.0
 40
0.1999999999999673
100
AcDbArc
 50
180.0
 51
270.0
  0
ARC
  5
4A3
330
23
100
AcDbEntity
 67
     1
  8
0
  6
Continuous
 62
     7
370
    25
100
AcDbCircle
 10
-72.8
 20
-82.3
 30
0.0
 40
0.1999999999999744
100
AcDbArc
 50
180.0
 51
270.0
  0
ARC
  5
4A4
330
23
100
AcDbEntity
 67
     1
  8
0
  6
Continuous
 62
     7
370
    25
100
AcDbCircle
 10
-56.8
 20
-82.3
 30
0.0
 40
0.1999999999999602
100
AcDbArc
 50
180.0
 51
270.0
  0
VIEWPORT
  5
4A7
330
23
100
AcDbEntity
 67
     1
  8
0
100
AcDbViewport
 10
0.0
 20
0.0
 30
0.0
 40
205.6
 41
156.0
 68
     1
 69
     1
 12
0.0
 22
0.0
 13
0.0
 23
0.0
 14
10.0
 24
10.0
 15
10.0
 25
10.0
 16
0.0
 26
0.0
 36
1.0
 17
0.0
 27
0.0
 37
0.0
 42
50.0
 43
0.0
 44
0.0
 45
131.5680933852
 50
0.0
 51
0.0
 72
   100
 90
   557152
  1

281
     0
 71
     1
 74
     0
110
0.0
120
0.0
130
0.0
111
1.0
121
0.0
131
0.0
112
0.0
122
1.0
132
0.0
 79
     0
146
0.0
  0
ENDSEC
  0
SECTION
  2
OBJECTS
  0
DICTIONARY
  5
C
330
0
100
AcDbDictionary
281
     1
  3
ACAD_GROUP
350
D
  3
ACAD_LAYOUT
350
1A
  3
ACAD_MLINESTYLE
350
17
  3
ACAD_PLOTSETTINGS
350
19
  3
ACAD_PLOTSTYLENAME
350
E
  3
ACAD_SCALELIST
350
47
  0
DICTIONARY
  5
D
102
{ACAD_REACTORS
330
C
102
}
330
C
100
AcDbDictionary
281
     1
  0
DICTIONARY
  5
1A
102
{ACAD_REACTORS
330
C
102
}
330
C
100
AcDbDictionary
281
     1
  3
_Right
350
1E
  3
_Top
350
26
  3
Model
350
22
  0
DICTIONARY
  5
17
102
{ACAD_REACTORS
330
C
102
}
330
C
100
AcDbDictionary
281
     1
  3
Standard
350
18
  0
DICTIONARY
  5
19
102
{ACAD_REACTORS
330
C
102
}
330
C
100
AcDbDictionary
281
     1
  0
ACDBDICTIONARYWDFLT
  5
E
102
{ACAD_REACTORS
330
C
102
}
330
C
100
AcDbDictionary
281
     1
  3
Normal
350
F
100
AcDbDictionaryWithDefault
340
F
  0
DICTIONARY
  5
47
102
{ACAD_REACTORS
330
C
102
}
330
C
100
AcDbDictionary
281
     1
  3
A0
350
48
  3
A1
350
49
  3
A2
350
4A
  3
A3
350
4B
  3
A4
350
4C
  3
A5
350
4D
  3
A6
350
4E
  3
A7
350
4F
  3
A8
350
50
  3
A9
350
51
  3
B0
350
52
  3
B1
350
53
  3
B2
350
54
  3
B3
350
55
  3
B4
350
56
  3
B5
350
57
  3
B6
350
58
  3
B7
350
59
  3
B8
350
5A
  3
B9
350
5B
  3
C0
350
5C
  3
C1
350
5D
  3
C2
350
5E
  3
C3
350
5F
  3
C4
350
60
  3
C5
350
61
  3
C6
350
62
  3
C7
350
63
  3
C8
350
64
  3
C9
350
65
  3
D0
350
66
  3
D1
350
67
  3
D2
350
68
  0
LAYOUT
  5
1E
102
{ACAD_REACTORS
330
1A
102
}
330
1A
100
AcDbPlotSettings
  1

  2
none_device
  4
ISO_A4_(210.00_x_297.00_MM)
  6

 40
7.5
 41
20.0
 42
7.5
 43
20.0
 44
210.0
 45
297.0
 46
0.0
 47
0.0
 48
0.0
 49
0.0
140
0.0
141
0.0
142
1.0
143
0.3210116732
 70
   688
 72
     1
 73
     1
 74
     1
  7

 75
     0
147
3.1151515152
148
82.5
149
30.0
100
AcDbLayout
  1
_Right
 70
     1
 71
     1
 10
-88.920233463
 20
-32.4075875486
 11
6.420233463
 21
35.0048638132
 12
0.0
 22
0.0
 32
0.0
 14
1.0000000000E+20
 24
1.0000000000E+20
 34
1.0000000000E+20
 15
-1.0000000000E+20
 25
-1.0000000000E+20
 35
-1.0000000000E+20
146
0.0
 13
0.0
 23
0.0
 33
0.0
 16
1.0
 26
0.0
 36
0.0
 17
0.0
 27
1.0
 37
0.0
 76
     0
330
1B
331
4A5
  0
LAYOUT
  5
26
102
{ACAD_REACTORS
330
1A
102
}
330
1A
100
AcDbPlotSettings
  1

  2
none_device
  4
ANSI_A_(11.00_x_8.50_Inches)
  6

 40
6.35
 41
19.05
 42
6.35000508
 43
19.05000254
 44
279.4
 45
215.9
 46
133.34999746
 47
88.89999873
 48
0.0
 49
0.0
140
0.0
141
0.0
142
0.0640588235
143
1.0
 70
  1696
 72
     0
 73
     0
 74
     1
  7

 75
     0
147
0.0617647047
148
2159.0
149
762.0
100
AcDbLayout
  1
_Top
 70
     1
 71
     2
 10
0.0
 20
0.0
 11
0.0
 21
0.0
 12
0.0
 22
0.0
 32
0.0
 14
-85.0
 24
-30.0
 34
0.0
 15
85.0
 25
30.0
 35
0.0
146
0.0
 13
0.0
 23
0.0
 33
0.0
 16
1.0
 26
0.0
 36
0.0
 17
0.0
 27
1.0
 37
0.0
 76
     0
330
23
331
4A7
  0
LAYOUT
  5
22
102
{ACAD_REACTORS
330
1A
102
}
330
1A
100
AcDbPlotSettings
  1

  2
none_device
  4
Letter_(8.50_x_11.00_Inches)
  6

 40
6.35
 41
6.35
 42
6.35000508
 43
6.35000508
 44
215.9
 45
279.4
 46
0.0
 47
0.0
 48
0.0
 49
0.0
140
0.0
141
0.0
142
1.0
143
1.0
 70
  1712
 72
     1
 73
     0
 74
     0
  7

 75
     0
147
1.0
148
0.0
149
0.0
100
AcDbLayout
  1
Model
 70
     1
 71
     0
 10
0.0
 20
0.0
 11
420.0
 21
297.0
 12
0.0
 22
0.0
 32
0.0
 14
-85.0
 24
-30.0
 34
0.0
 15
85.0
 25
30.0
 35
0.0
146
0.0
 13
0.0
 23
0.0
 33
0.0
 16
1.0
 26
0.0
 36
0.0
 17
0.0
 27
1.0
 37
0.0
 76
     0
330
1F
331
29
  0
MLINESTYLE
  5
18
102
{ACAD_REACTORS
330
17
102
}
330
17
100
AcDbMlineStyle
  2
Standard
 70
     0
  3

 62
   256
 51
90.0
 52
90.0
 71
     2
 49
0.5
 62
   256
  6
BYLAYER
 49
-0.5
 62
   256
  6
BYLAYER
  0
ACDBPLACEHOLDER
  5
F
102
{ACAD_REACTORS
330
E
102
}
330
E
  0
SCALE
  5
48
102
{ACAD_REACTORS
330
47
102
}
330
47
100
AcDbScale
 70
     0
300
1:1
140
1.0
141
1.0
290
     1
  0
SCALE
  5
49
102
{ACAD_REACTORS
330
47
102
}
330
47
100
AcDbScale
 70
     0
300
1:2
140
1.0
141
2.0
290
     0
  0
SCALE
  5
4A
102
{ACAD_REACTORS
330
47
102
}
330
47
100
AcDbScale
 70
     0
300
1:4
140
1.0
141
4.0
290
     0
  0
SCALE
  5
4B
102
{ACAD_REACTORS
330
47
102
}
330
47
100
AcDbScale
 70
     0
300
1:5
140
1.0
141
5.0
290
     0
  0
SCALE
  5
4C
102
{ACAD_REACTORS
330
47
102
}
330
47
100
AcDbScale
 70
     0
300
1:8
140
1.0
141
8.0
290
     0
  0
SCALE
  5
4D
102
{ACAD_REACTORS
330
47
102
}
330
47
100
AcDbScale
 70
     0
300
1:10
140
1.0
141
10.0
290
     0
  0
SCALE
  5
4E
102
{ACAD_REACTORS
330
47
102
}
330
47
100
AcDbScale
 70
     0
300
1:16
140
1.0
141
16.0
290
     0
  0
SCALE
  5
4F
102
{ACAD_REACTORS
330
47
102
}
330
47
100
AcDbScale
 70
     0
300
1:20
140
1.0
141
20.0
290
     0
  0
SCALE
  5
50
102
{ACAD_REACTORS
330
47
102
}
330
47
100
AcDbScale
 70
     0
300
1:30
140
1.0
141
30.0
290
     0
  0
SCALE
  5
51
102
{ACAD_REACTORS
330
47
102
}
330
47
100
AcDbScale
 70
     0
300
1:40
140
1.0
141
40.0
290
     0
  0
SCALE
  5
52
102
{ACAD_REACTORS
330
47
102
}
330
47
100
AcDbScale
 70
     0
300
1:50
140
1.0
141
50.0
290
     0
  0
SCALE
  5
53
102
{ACAD_REACTORS
330
47
102
}
330
47
100
AcDbScale
 70
     0
300
1:100
140
1.0
141
100.0
290
     0
  0
SCALE
  5
54
102
{ACAD_REACTORS
330
47
102
}
330
47
100
AcDbScale
 70
     0
300
2:1
140
2.0
141
1.0
290
     0
  0
SCALE
  5
55
102
{ACAD_REACTORS
330
47
102
}
330
47
100
AcDbScale
 70
     0
300
4:1
140
4.0
141
1.0
290
     0
  0
SCALE
  5
56
102
{ACAD_REACTORS
330
47
102
}
330
47
100
AcDbScale
 70
     0
300
8:1
140
8.0
141
1.0
290
     0
  0
SCALE
  5
57
102
{ACAD_REACTORS
330
47
102
}
330
47
100
AcDbScale
 70
     0
300
10:1
140
10.0
141
1.0
290
     0
  0
SCALE
  5
58
102
{ACAD_REACTORS
330
47
102
}
330
47
100
AcDbScale
 70
     0
300
100:1
140
100.0
141
1.0
290
     0
  0
SCALE
  5
59
102
{ACAD_REACTORS
330
47
102
}
330
47
100
AcDbScale
 70
     0
300
1/128" = 1'-0"
140
0.0078125
141
12.0
290
     0
  0
SCALE
  5
5A
102
{ACAD_REACTORS
330
47
102
}
330
47
100
AcDbScale
 70
     0
300
1/64" = 1'-0"
140
0.015625
141
12.0
290
     0
  0
SCALE
  5
5B
102
{ACAD_REACTORS
330
47
102
}
330
47
100
AcDbScale
 70
     0
300
1/32" = 1'-0"
140
0.03125
141
12.0
290
     0
  0
SCALE
  5
5C
102
{ACAD_REACTORS
330
47
102
}
330
47
100
AcDbScale
 70
     0
300
1/16" = 1'-0"
140
0.0625
141
12.0
290
     0
  0
SCALE
  5
5D
102
{ACAD_REACTORS
330
47
102
}
330
47
100
AcDbScale
 70
     0
300
3/32" = 1'-0"
140
0.09375
141
12.0
290
     0
  0
SCALE
  5
5E
102
{ACAD_REACTORS
330
47
102
}
330
47
100
AcDbScale
 70
     0
300
1/8" = 1'-0"
140
0.125
141
12.0
290
     0
  0
SCALE
  5
5F
102
{ACAD_REACTORS
330
47
102
}
330
47
100
AcDbScale
 70
     0
300
3/16" = 1'-0"
140
0.1875
141
12.0
290
     0
  0
SCALE
  5
60
102
{ACAD_REACTORS
330
47
102
}
330
47
100
AcDbScale
 70
     0
300
1/4" = 1'-0"
140
0.25
141
12.0
290
     0
  0
SCALE
  5
61
102
{ACAD_REACTORS
330
47
102
}
330
47
100
AcDbScale
 70
     0
300
3/8" = 1'-0"
140
0.375
141
12.0
290
     0
  0
SCALE
  5
62
102
{ACAD_REACTORS
330
47
102
}
330
47
100
AcDbScale
 70
     0
300
1/2" = 1'-0"
140
0.5
141
12.0
290
     0
  0
SCALE
  5
63
102
{ACAD_REACTORS
330
47
102
}
330
47
100
AcDbScale
 70
     0
300
3/4" = 1'-0"
140
0.75
141
12.0
290
     0
  0
SCALE
  5
64
102
{ACAD_REACTORS
330
47
102
}
330
47
100
AcDbScale
 70
     0
300
1" = 1'-0"
140
1.0
141
12.0
290
     0
  0
SCALE
  5
65
102
{ACAD_REACTORS
330
47
102
}
330
47
100
AcDbScale
 70
     0
300
1-1/2" = 1'-0"
140
1.5
141
12.0
290
     0
  0
SCALE
  5
66
102
{ACAD_REACTORS
330
47
102
}
330
47
100
AcDbScale
 70
     0
300
3" = 1'-0"
140
3.0
141
12.0
290
     0
  0
SCALE
  5
67
102
{ACAD_REACTORS
330
47
102
}
330
47
100
AcDbScale
 70
     0
300
6" = 1'-0"
140
6.0
141
12.0
290
     0
  0
SCALE
  5
68
102
{ACAD_REACTORS
330
47
102
}
330
47
100
AcDbScale
 70
     0
300
1'-0" = 1'-0"
140
12.0
141
12.0
290
     0
  0
ENDSEC
  0
EOF
