  0
SECTION
  2
HEADER
  9
$ACADVER
  1
AC1015
  9
$ACADMAINTVER
 70
     6
  9
$DWGCODEPAGE
  3
ANSI_1252
  9
$INSBASE
 10
0.0
 20
0.0
 30
0.0
  9
$EXTMIN
 10
-1.2795275591
 20
-1.4960629921
 30
0.0
  9
$EXTMAX
 10
7.5787401575
 20
1.2795275591
 30
0.0
  9
$LIMMIN
 10
0.0
 20
0.0
  9
$LIMMAX
 10
12.0
 20
9.0
  9
$ORTHOMODE
 70
     0
  9
$REGENMODE
 70
     1
  9
$FILLMODE
 70
     1
  9
$QTEXTMODE
 70
     0
  9
$MIRRTEXT
 70
     1
  9
$LTSCALE
 40
1.0
  9
$ATTMODE
 70
     1
  9
$TEXTSIZE
 40
0.1377952756
  9
$TRACEWID
 40
0.05
  9
$TEXTSTYLE
  7
Standard
  9
$CLAYER
  8
0
  9
$CELTYPE
  6
ByLayer
  9
$CECOLOR
 62
   256
  9
$CELTSCALE
 40
1.0
  9
$DISPSILH
 70
     0
  9
$DIMSCALE
 40
1.0
  9
$DIMASZ
 40
0.13
  9
$DIMEXO
 40
0.0393700787
  9
$DIMDLI
 40
0.38
  9
$DIMRND
 40
0.0
  9
$DIMDLE
 40
0.0
  9
$DIMEXE
 40
0.0393700787
  9
$DIMTP
 40
0.0
  9
$DIMTM
 40
0.0
  9
$DIMTXT
 40
0.1377952756
  9
$DIMCEN
 40
0.09
  9
$DIMTSZ
 40
0.0
  9
$DIMTOL
 70
     0
  9
$DIMLIM
 70
     0
  9
$DIMTIH
 70
     1
  9
$DIMTOH
 70
     1
  9
$DIMSE1
 70
     0
  9
$DIMSE2
 70
     0
  9
$DIMTAD
 70
     1
  9
$DIMZIN
 70
     1
  9
$DIMBLK
  1

  9
$DIMASO
 70
     1
  9
$DIMSHO
 70
     1
  9
$DIMPOST
  1

  9
$DIMAPOST
  1

  9
$DIMALT
 70
     0
  9
$DIMALTD
 70
     2
  9
$DIMALTF
 40
25.4
  9
$DIMLFAC
 40
1.0
  9
$DIMTOFL
 70
     0
  9
$DIMTVP
 40
0.0
  9
$DIMTIX
 70
     0
  9
$DIMSOXD
 70
     0
  9
$DIMSAH
 70
     0
  9
$DIMBLK1
  1

  9
$DIMBLK2
  1

  9
$DIMSTYLE
  2
Standard
  9
$DIMCLRD
 70
     0
  9
$DIMCLRE
 70
     0
  9
$DIMCLRT
 70
     0
  9
$DIMTFAC
 40
1.0
  9
$DIMGAP
 40
0.06
  9
$DIMJUST
 70
     0
  9
$DIMSD1
 70
     0
  9
$DIMSD2
 70
     0
  9
$DIMTOLJ
 70
     1
  9
$DIMTZIN
 70
     1
  9
$DIMALTZ
 70
     0
  9
$DIMALTTZ
 70
     0
  9
$DIMUPT
 70
     0
  9
$DIMDEC
 70
     2
  9
$DIMTDEC
 70
     2
  9
$DIMALTU
 70
     2
  9
$DIMALTTD
 70
     2
  9
$DIMTXSTY
  7
Standard
  9
$DIMAUNIT
 70
     0
  9
$DIMADEC
 70
     2
  9
$DIMALTRND
 40
0.0
  9
$DIMAZIN
 70
     0
  9
$DIMDSEP
 70
    46
  9
$DIMATFIT
 70
     3
  9
$DIMFRAC
 70
     0
  9
$DIMLDRBLK
  1

  9
$DIMLUNIT
 70
     2
  9
$DIMLWD
 70
    -2
  9
$DIMLWE
 70
    -2
  9
$DIMTMOVE
 70
     0
  9
$LUNITS
 70
     2
  9
$LUPREC
 70
     2
  9
$SKETCHINC
 40
0.1
  9
$FILLETRAD
 40
0.5
  9
$AUNITS
 70
     0
  9
$AUPREC
 70
     2
  9
$MENU
  1
.
  9
$ELEVATION
 40
0.0
  9
$PELEVATION
 40
0.0
  9
$THICKNESS
 40
0.0
  9
$LIMCHECK
 70
     0
  9
$CHAMFERA
 40
0.0
  9
$CHAMFERB
 40
0.0
  9
$CHAMFERC
 40
0.0
  9
$CHAMFERD
 40
0.0
  9
$SKPOLY
 70
     0
  9
$TDCREATE
 40
2460451.663725498
  9
$TDUCREATE
 40
2460451.622058831
  9
$TDUPDATE
 40
2460451.663758495
  9
$TDUUPDATE
 40
2460451.622091829
  9
$TDINDWG
 40
0.0000000116
  9
$TDUSRTIMER
 40
0.0000000116
  9
$USRTIMER
 70
     1
  9
$ANGBASE
 50
0.0
  9
$ANGDIR
 70
     0
  9
$PDMODE
 70
     0
  9
$PDSIZE
 40
-1.0
  9
$PLINEWID
 40
0.0
  9
$SPLFRAME
 70
     0
  9
$SPLINETYPE
 70
     6
  9
$SPLINESEGS
 70
     8
  9
$HANDSEED
  5
235
  9
$SURFTAB1
 70
     6
  9
$SURFTAB2
 70
     6
  9
$SURFTYPE
 70
     6
  9
$SURFU
 70
     6
  9
$SURFV
 70
     6
  9
$UCSBASE
  2

  9
$UCSNAME
  2

  9
$UCSORG
 10
0.0
 20
0.0
 30
0.0
  9
$UCSXDIR
 10
1.0
 20
0.0
 30
0.0
  9
$UCSYDIR
 10
0.0
 20
1.0
 30
0.0
  9
$UCSORTHOREF
  2

  9
$UCSORTHOVIEW
 70
     0
  9
$UCSORGTOP
 10
0.0
 20
0.0
 30
0.0
  9
$UCSORGBOTTOM
 10
0.0
 20
0.0
 30
0.0
  9
$UCSORGLEFT
 10
0.0
 20
0.0
 30
0.0
  9
$UCSORGRIGHT
 10
0.0
 20
0.0
 30
0.0
  9
$UCSORGFRONT
 10
0.0
 20
0.0
 30
0.0
  9
$UCSORGBACK
 10
0.0
 20
0.0
 30
0.0
  9
$PUCSBASE
  2

  9
$PUCSNAME
  2

  9
$PUCSORG
 10
0.0
 20
0.0
 30
0.0
  9
$PUCSXDIR
 10
1.0
 20
0.0
 30
0.0
  9
$PUCSYDIR
 10
0.0
 20
1.0
 30
0.0
  9
$PUCSORTHOREF
  2

  9
$PUCSORTHOVIEW
 70
     0
  9
$PUCSORGTOP
 10
0.0
 20
0.0
 30
0.0
  9
$PUCSORGBOTTOM
 10
0.0
 20
0.0
 30
0.0
  9
$PUCSORGLEFT
 10
0.0
 20
0.0
 30
0.0
  9
$PUCSORGRIGHT
 10
0.0
 20
0.0
 30
0.0
  9
$PUCSORGFRONT
 10
0.0
 20
0.0
 30
0.0
  9
$PUCSORGBACK
 10
0.0
 20
0.0
 30
0.0
  9
$USERI1
 70
     0
  9
$USERI2
 70
     0
  9
$USERI3
 70
     0
  9
$USERI4
 70
     0
  9
$USERI5
 70
     0
  9
$USERR1
 40
0.0
  9
$USERR2
 40
0.0
  9
$USERR3
 40
0.0
  9
$USERR4
 40
0.0
  9
$USERR5
 40
0.0
  9
$WORLDVIEW
 70
     1
  9
$SHADEDGE
 70
     3
  9
$SHADEDIF
 70
    70
  9
$TILEMODE
 70
     1
  9
$MAXACTVP
 70
    64
  9
$PINSBASE
 10
0.0
 20
0.0
 30
0.0
  9
$PLIMCHECK
 70
     0
  9
$PEXTMIN
 10
-2.1338582677
 20
-1.4960629921
 30
0.0
  9
$PEXTMAX
 10
0.4330708661
 20
1.2795275591
 30
0.0
  9
$PLIMMIN
 10
-2.2205956133
 20
-1.5828002011
  9
$PLIMMAX
 10
1.5958415824
 20
1.3662649046
  9
$UNITMODE
 70
     0
  9
$VISRETAIN
 70
     1
  9
$PLINEGEN
 70
     0
  9
$PSLTSCALE
 70
     1
  9
$TREEDEPTH
 70
  3020
  9
$CMLSTYLE
  2
Standard
  9
$CMLJUST
 70
     0
  9
$CMLSCALE
 40
1.0
  9
$PROXYGRAPHICS
 70
     1
  9
$MEASUREMENT
 70
     0
  9
$CELWEIGHT
370
    -1
  9
$ENDCAPS
280
     0
  9
$JOINSTYLE
280
     0
  9
$LWDISPLAY
290
     1
  9
$INSUNITS
 70
     1
  9
$HYPERLINKBASE
  1

  9
$STYLESHEET
  1

  9
$XEDIT
290
     1
  9
$CEPSNTYPE
380
     0
  9
$PSTYLEMODE
290
     1
  9
$FINGERPRINTGUID
  2
{1c245f4e-c4a7-4482-bc7b-a0408fb5c52b}
  9
$VERSIONGUID
  2
{FAEB1C32-E019-11D5-929B-00C0DF256EC4}
  9
$EXTNAMES
290
     1
  9
$PSVPSCALE
 40
0.0
  9
$OLESTARTUP
290
     0
  0
ENDSEC
  0
SECTION
  2
CLASSES
  0
CLASS
  1
ACDBDICTIONARYWDFLT
  2
AcDbDictionaryWithDefault
  3
ObjectDBX Classes
 90
        0
280
     0
281
     0
  0
CLASS
  1
VISUALSTYLE
  2
AcDbVisualStyle
  3
ObjectDBX Classes
 90
     4095
280
     0
281
     0
  0
CLASS
  1
MATERIAL
  2
AcDbMaterial
  3
ObjectDBX Classes
 90
     1153
280
     0
281
     0
  0
CLASS
  1
SCALE
  2
AcDbScale
  3
ObjectDBX Classes
 90
     1153
280
     0
281
     0
  0
CLASS
  1
TABLESTYLE
  2
AcDbTableStyle
  3
ObjectDBX Classes
 90
     4095
280
     0
281
     0
  0
CLASS
  1
MLEADERSTYLE
  2
AcDbMLeaderStyle
  3
ACDB_MLEADERSTYLE_CLASS
 90
     4095
280
     0
281
     0
  0
CLASS
  1
SUN
  2
AcDbSun
  3
SCENEOE
 90
     1153
280
     0
281
     0
  0
CLASS
  1
ACDBPLACEHOLDER
  2
AcDbPlaceHolder
  3
ObjectDBX Classes
 90
        0
280
     0
281
     0
  0
CLASS
  1
LAYOUT
  2
AcDbLayout
  3
ObjectDBX Classes
 90
        0
280
     0
281
     0
  0
ENDSEC
  0
SECTION
  2
TABLES
  0
TABLE
  2
VPORT
  5
8
330
0
100
AcDbSymbolTable
 70
     1
  0
VPORT
  5
29
330
8
100
AcDbSymbolTableRecord
100
AcDbViewportTableRecord
  2
*Active
 70
     0
 10
0.0
 20
0.0
 11
1.0
 21
1.0
 12
3.1496062992
 22
-0.1082677165
 13
0.0
 23
0.0
 14
0.5
 24
0.5
 15
0.5
 25
0.5
 16
0.0
 26
0.0
 36
1.0
 17
0.0
 27
0.0
 37
0.0
 40
2.8311023622
 41
3.1914893617
 42
50.0
 43
0.0
 44
0.0
 50
0.0
 51
0.0
 71
     0
 72
   100
 73
     1
 74
     3
 75
     0
 76
     0
 77
     0
 78
     0
281
     0
 65
     1
110
0.0
120
0.0
130
0.0
111
1.0
121
0.0
131
0.0
112
0.0
122
1.0
132
0.0
 79
     0
146
0.0
  0
ENDTAB
  0
TABLE
  2
LTYPE
  5
5
330
0
100
AcDbSymbolTable
 70
     6
  0
LTYPE
  5
14
330
5
100
AcDbSymbolTableRecord
100
AcDbLinetypeTableRecord
  2
ByBlock
 70
     0
  3

 72
    65
 73
     0
 40
0.0
  0
LTYPE
  5
15
330
5
100
AcDbSymbolTableRecord
100
AcDbLinetypeTableRecord
  2
ByLayer
 70
     0
  3

 72
    65
 73
     0
 40
0.0
  0
LTYPE
  5
16
330
5
100
AcDbSymbolTableRecord
100
AcDbLinetypeTableRecord
  2
Continuous
 70
     0
  3
Solid line
 72
    65
 73
     0
 40
0.0
  0
LTYPE
  5
6E
330
5
100
AcDbSymbolTableRecord
100
AcDbLinetypeTableRecord
  2
HIDDEN
 70
     0
  3
Hidden __ __ __ __ __ __ __ __ __ __ __ __ __ __
 72
    65
 73
     2
 40
0.075
 49
0.05
 74
     0
 49
-0.025
 74
     0
  0
LTYPE
  5
6F
330
5
100
AcDbSymbolTableRecord
100
AcDbLinetypeTableRecord
  2
PHANTOM
 70
     0
  3
Phantom ______  __  __  ______  __  __  ______
 72
    65
 73
     6
 40
0.5
 49
0.25
 74
     0
 49
-0.05
 74
     0
 49
0.05
 74
     0
 49
-0.05
 74
     0
 49
0.05
 74
     0
 49
-0.05
 74
     0
  0
LTYPE
  5
70
330
5
100
AcDbSymbolTableRecord
100
AcDbLinetypeTableRecord
  2
CENTER
 70
     0
  3
Center ____ _ ____ _ ____ _ ____ _ ____ _ ____
 72
    65
 73
     4
 40
0.4
 49
0.25
 74
     0
 49
-0.05
 74
     0
 49
0.05
 74
     0
 49
-0.05
 74
     0
  0
LTYPE
  5
71
330
5
100
AcDbSymbolTableRecord
100
AcDbLinetypeTableRecord
  2
CENTERX2
 70
     0
  3
Center (2x) ________  __  ________  __  _____
 72
    65
 73
     4
 40
0.8
 49
0.5
 74
     0
 49
-0.1
 74
     0
 49
0.1
 74
     0
 49
-0.1
 74
     0
  0
LTYPE
  5
72
330
5
100
AcDbSymbolTableRecord
100
AcDbLinetypeTableRecord
  2
DOT2
 70
     0
  3
Dot (.5x) ........................................
 72
    65
 73
     2
 40
0.025
 49
0.0
 74
     0
 49
-0.025
 74
     0
  0
ENDTAB
  0
TABLE
  2
LAYER
  5
2
330
0
100
AcDbSymbolTable
 70
     1
  0
LAYER
  5
10
330
2
100
AcDbSymbolTableRecord
100
AcDbLayerTableRecord
  2
0
 70
     0
 62
     7
  6
Continuous
370
    -3
390
F
  0
ENDTAB
  0
TABLE
  2
STYLE
  5
3
330
0
100
AcDbSymbolTable
 70
     1
  0
STYLE
  5
11
330
3
100
AcDbSymbolTableRecord
100
AcDbTextStyleTableRecord
  2
Standard
 70
     0
 40
0.0
 41
1.0
 50
0.0
 71
     0
 42
0.1377952756
  3
txt
  4

  0
ENDTAB
  0
TABLE
  2
VIEW
  5
6
330
0
100
AcDbSymbolTable
 70
     0
  0
ENDTAB
  0
TABLE
  2
UCS
  5
7
330
0
100
AcDbSymbolTable
 70
     0
  0
ENDTAB
  0
TABLE
  2
APPID
  5
9
330
0
100
AcDbSymbolTable
 70
     1
  0
APPID
  5
12
330
9
100
AcDbSymbolTableRecord
100
AcDbRegAppTableRecord
  2
ACAD
 70
     0
  0
ENDTAB
  0
TABLE
  2
DIMSTYLE
  5
A
330
0
100
AcDbSymbolTable
 70
     1
100
AcDbDimStyleTable
  0
DIMSTYLE
105
27
330
A
100
AcDbSymbolTableRecord
100
AcDbDimStyleTableRecord
  2
Standard
 70
     0
178
     0
340
11
  0
ENDTAB
  0
TABLE
  2
BLOCK_RECORD
  5
1
330
0
100
AcDbSymbolTable
 70
     2
  0
BLOCK_RECORD
  5
1F
330
1
100
AcDbSymbolTableRecord
100
AcDbBlockTableRecord
  2
*Model_Space
340
22
  0
BLOCK_RECORD
  5
1B
330
1
100
AcDbSymbolTableRecord
100
AcDbBlockTableRecord
  2
*Paper_Space
340
1E
  0
BLOCK_RECORD
  5
23
330
1
100
AcDbSymbolTableRecord
100
AcDbBlockTableRecord
  2
*Paper_Space0
340
26
  0
BLOCK_RECORD
  5
193
330
1
100
AcDbSymbolTableRecord
100
AcDbBlockTableRecord
  2
*Paper_Space1
340
194
  0
ENDTAB
  0
ENDSEC
  0
SECTION
  2
BLOCKS
  0
BLOCK
  5
20
330
1F
100
AcDbEntity
  8
0
100
AcDbBlockBegin
  2
*Model_Space
 70
     0
 10
0.0
 20
0.0
 30
0.0
  3
*Model_Space
  1

  0
ENDBLK
  5
21
330
1F
100
AcDbEntity
  8
0
100
AcDbBlockEnd
  0
BLOCK
  5
1C
330
1B
100
AcDbEntity
 67
     1
  8
0
100
AcDbBlockBegin
  2
*Paper_Space
 70
     0
 10
0.0
 20
0.0
 30
0.0
  3
*Paper_Space
  1

  0
ENDBLK
  5
1D
330
1B
100
AcDbEntity
 67
     1
  8
0
100
AcDbBlockEnd
  0
BLOCK
  5
24
330
23
100
AcDbEntity
  8
0
100
AcDbBlockBegin
  2
*Paper_Space0
 70
     0
 10
0.0
 20
0.0
 30
0.0
  3
*Paper_Space0
  1

  0
SPLINE
  5
140
330
23
100
AcDbEntity
  8
0
  6
Continuous
 62
     7
370
    25
100
AcDbSpline
210
0.0
220
0.0
230
1.0
 70
    11
 71
     3
 72
    70
 73
    66
 74
     0
 42
0.000000001
 43
0.00000001
 40
0.0
 40
0.0
 40
0.0
 40
0.0
 40
0.03125
 40
0.03125
 40
0.0625
 40
0.0625
 40
0.09375
 40
0.09375
 40
0.125
 40
0.125
 40
0.15625
 40
0.15625
 40
0.1875
 40
0.1875
 40
0.21875
 40
0.21875
 40
0.25
 40
0.25
 40
0.28125
 40
0.28125
 40
0.3125
 40
0.3125
 40
0.34375
 40
0.34375
 40
0.375
 40
0.375
 40
0.40625
 40
0.40625
 40
0.4375
 40
0.4375
 40
0.46875
 40
0.46875
 40
0.5
 40
0.5
 40
0.53125
 40
0.53125
 40
0.5625
 40
0.5625
 40
0.59375
 40
0.59375
 40
0.625
 40
0.625
 40
0.65625
 40
0.65625
 40
0.6875
 40
0.6875
 40
0.71875
 40
0.71875
 40
0.75
 40
0.75
 40
0.78125
 40
0.78125
 40
0.8125
 40
0.8125
 40
0.84375
 40
0.84375
 40
0.875
 40
0.875
 40
0.90625
 40
0.90625
 40
0.9375
 40
0.9375
 40
0.96875
 40
0.96875
 40
1.0
 40
1.0
 40
1.0
 40
1.0
 10
3.149606299212598
 20
-1.169291338582677
 30
0.0
 10
3.139176884963164
 20
-1.169291338582677
 30
0.0
 10
3.128926447893114
 20
-1.170317125835537
 30
0.0
 10
3.108767460088742
 20
-1.174331945101335
 30
0.0
 10
3.098752758580999
 20
-1.177371389156305
 30
0.0
 10
3.079693035806447
 20
-1.185284349541929
 30
0.0
 10
3.070657105879588
 20
-1.190123099128478
 30
0.0
 10
3.053556759237765
 20
-1.201550695144887
 30
0.0
 10
3.045479110058294
 20
-1.208185966182585
 30
0.0
 10
3.030990700577079
 20
-1.222678538841476
 30
0.0
 10
3.024480826924441
 20
-1.230590563854455
 30
0.0
 10
3.012968311775596
 20
-1.247795415229269
 30
0.0
 10
3.008091426269847
 20
-1.256923957058606
 30
0.0
 10
3.000229819837713
 20
-1.275861660636346
 30
0.0
 10
2.997193115399321
 20
-1.285810763795944
 30
0.0
 10
2.993138134450202
 20
-1.30614917782182
 30
0.0
 10
2.992132078563282
 20
-1.31638254523299
 30
0.0
 10
2.992119944617896
 20
-1.336975175340444
 30
0.0
 10
2.993147943101271
 20
-1.347436910179121
 30
0.0
 10
2.99717582000879
 20
-1.367652199510556
 30
0.0
 10
3.000155685698974
 20
-1.377480192797235
 30
0.0
 10
3.008063840694234
 20
-1.396575480583397
 30
0.0
 10
3.012983379276025
 20
-1.405760143405772
 30
0.0
 10
3.024368602206351
 20
-1.422795208108423
 30
0.0
 10
3.030903172587431
 20
-1.430775725874468
 30
0.0
 10
3.045544015148399
 20
-1.445423751575317
 30
0.0
 10
3.053469227927364
 20
-1.451922494116865
 30
0.0
 10
3.070499523476467
 20
-1.463326358347659
 30
0.0
 10
3.079717786846468
 20
-1.468270270284492
 30
0.0
 10
3.098755057923329
 20
-1.476171834131418
 30
0.0
 10
3.108570976034385
 20
-1.479161221199659
 30
0.0
 10
3.128802211266537
 20
-1.48321227487793
 30
0.0
 10
3.139253555011796
 20
-1.484247827732008
 30
0.0
 10
3.159832683511996
 20
-1.484256083928531
 30
0.0
 10
3.170076459163223
 20
-1.483261563399162
 30
0.0
 10
3.190469750003235
 20
-1.479212782260523
 30
0.0
 10
3.200372508550092
 20
-1.476197703036688
 30
0.0
 10
3.219334637445148
 20
-1.468346054919487
 30
0.0
 10
3.228528084808882
 20
-1.46343856366974
 30
0.0
 10
3.245684091670736
 20
-1.451973691711954
 30
0.0
 10
3.253598473872732
 20
-1.445477352777925
 30
0.0
 10
3.268127903318348
 20
-1.430973595854969
 30
0.0
 10
3.274771167858238
 20
-1.422891642453485
 30
0.0
 10
3.286183781663041
 20
-1.40584053426557
 30
0.0
 10
3.291032954455564
 20
-1.396811092690373
 30
0.0
 10
3.298978501378729
 20
-1.377712472826951
 30
0.0
 10
3.302010041055177
 20
-1.367742537759872
 30
0.0
 10
3.306040256074577
 20
-1.347602664599212
 30
0.0
 10
3.307078920484416
 20
-1.337288447483589
 30
0.0
 10
3.307094222645154
 20
-1.316486548881668
 30
0.0
 10
3.306081427341988
 20
-1.306244214638148
 30
0.0
 10
3.302082088042584
 20
-1.286065692164315
 30
0.0
 10
3.299042391875684
 20
-1.276027119548902
 30
0.0
 10
3.291159104178374
 20
-1.256993742088172
 30
0.0
 10
3.286330544681503
 20
-1.247950962654682
 30
0.0
 10
3.274894378378997
 20
-1.230807504873112
 30
0.0
 10
3.268280184875399
 20
-1.222745712479657
 30
0.0
 10
3.253810906217638
 20
-1.208254619192076
 30
0.0
 10
3.245897054590733
 20
-1.201727782093328
 30
0.0
 10
3.228644170102955
 20
-1.190166769576408
 30
0.0
 10
3.219583135997524
 20
-1.185320298733081
 30
0.0
 10
3.200644889280974
 20
-1.177438784462501
 30
0.0
 10
3.190663527313721
 20
-1.174384545940334
 30
0.0
 10
3.170332141501274
 20
-1.170317295967775
 30
0.0
 10
3.160035713462032
 20
-1.169291338582677
 30
0.0
 10
3.149606299212598
 20
-1.169291338582677
 30
0.0
  0
CIRCLE
  5
143
330
23
100
AcDbEntity
  8
0
  6
Continuous
 62
     7
370
    25
100
AcDbCircle
 10
3.1496062992
 20
-1.3267716535
 30
0.0
 40
0.1364150601864422
  0
CIRCLE
  5
144
330
23
100
AcDbEntity
  8
0
  6
Continuous
 62
     7
370
    25
100
AcDbCircle
 10
3.1496062992
 20
-1.3267716535
 30
0.0
 40
0.1515748031496063
  0
LINE
  5
157
330
23
100
AcDbEntity
  8
0
  6
Continuous
 62
     7
370
    25
100
AcDbLine
 10
-1.2795275591
 20
0.0
 30
0.0
 11
-1.2795275591
 21
-0.157480315
 31
0.0
  0
LINE
  5
158
330
23
100
AcDbEntity
  8
0
  6
Continuous
 62
     7
370
    25
100
AcDbLine
 10
1.2795275591
 20
-0.157480315
 30
0.0
 11
1.2795275591
 21
0.0
 31
0.0
  0
LINE
  5
159
330
23
100
AcDbEntity
  8
0
  6
Continuous
 62
     7
370
    25
100
AcDbLine
 10
1.8700787402
 20
0.0
 30
0.0
 11
1.8700787402
 21
-0.157480315
 31
0.0
  0
LINE
  5
15A
330
23
100
AcDbEntity
  8
0
  6
Continuous
 62
     7
370
    25
100
AcDbLine
 10
4.4291338583
 20
-0.157480315
 30
0.0
 11
4.4291338583
 21
0.0
 31
0.0
  0
LINE
  5
15B
330
23
100
AcDbEntity
  8
0
  6
Continuous
 62
     7
370
    25
100
AcDbLine
 10
2.3228346457
 20
-0.3818897638
 30
0.0
 11
2.3228346457
 21
-2.094488189
 31
0.0
  0
LINE
  5
15C
330
23
100
AcDbEntity
  8
0
  6
Continuous
 62
     7
370
    25
100
AcDbLine
 10
3.9763779528
 20
-2.094488189
 30
0.0
 11
3.9763779528
 21
-0.3818897638
 31
0.0
  0
LINE
  5
15D
330
23
100
AcDbEntity
  8
0
  6
Continuous
 62
     7
370
    25
100
AcDbLine
 10
-0.8267716535
 20
-0.3818897638
 30
0.0
 11
-0.8267716535
 21
-2.094488189
 31
0.0
  0
LINE
  5
15E
330
23
100
AcDbEntity
  8
0
  6
Continuous
 62
     7
370
    25
100
AcDbLine
 10
0.8267716535
 20
-2.094488189
 30
0.0
 11
0.8267716535
 21
-0.3818897638
 31
0.0
  0
LINE
  5
15F
330
23
100
AcDbEntity
  8
0
  6
Continuous
 62
     7
370
    25
100
AcDbLine
 10
5.4724409449
 20
-0.3818897638
 30
0.0
 11
5.4724409449
 21
-2.094488189
 31
0.0
  0
LINE
  5
160
330
23
100
AcDbEntity
  8
0
  6
Continuous
 62
     7
370
    25
100
AcDbLine
 10
7.125984252
 20
-2.094488189
 30
0.0
 11
7.125984252
 21
-0.3818897638
 31
0.0
  0
LINE
  5
161
330
23
100
AcDbEntity
  8
0
  6
Continuous
 62
     7
370
    25
100
AcDbLine
 10
5.0196850394
 20
0.0
 30
0.0
 11
5.0196850394
 21
-0.157480315
 31
0.0
  0
LINE
  5
162
330
23
100
AcDbEntity
  8
0
  6
Continuous
 62
     7
370
    25
100
AcDbLine
 10
7.5787401575
 20
-0.157480315
 30
0.0
 11
7.5787401575
 21
0.0
 31
0.0
  0
LINE
  5
163
330
23
100
AcDbEntity
  8
0
  6
Continuous
 62
     7
370
    25
100
AcDbLine
 10
-0.8267716535
 20
0.4330708661
 30
0.0
 11
-0.8267716535
 21
0.0
 31
0.0
  0
LINE
  5
164
330
23
100
AcDbEntity
  8
0
  6
Continuous
 62
     7
370
    25
100
AcDbLine
 10
-0.8267716535
 20
-0.157480315
 30
0.0
 11
-0.8267716535
 21
-0.3543307087
 31
0.0
  0
LINE
  5
165
330
23
100
AcDbEntity
  8
0
  6
Continuous
 62
     7
370
    25
100
AcDbLine
 10
0.8267716535
 20
-0.3543307087
 30
0.0
 11
0.8267716535
 21
-0.157480315
 31
0.0
  0
LINE
  5
166
330
23
100
AcDbEntity
  8
0
  6
Continuous
 62
     7
370
    25
100
AcDbLine
 10
0.8267716535
 20
0.0
 30
0.0
 11
0.8267716535
 21
0.4330708661
 31
0.0
  0
LINE
  5
167
330
23
100
AcDbEntity
  8
0
  6
Continuous
 62
     7
370
    25
100
AcDbLine
 10
2.3228346457
 20
0.4330708661
 30
0.0
 11
2.3228346457
 21
0.0
 31
0.0
  0
LINE
  5
168
330
23
100
AcDbEntity
  8
0
  6
Continuous
 62
     7
370
    25
100
AcDbLine
 10
2.3228346457
 20
-0.157480315
 30
0.0
 11
2.3228346457
 21
-0.3543307087
 31
0.0
  0
LINE
  5
169
330
23
100
AcDbEntity
  8
0
  6
Continuous
 62
     7
370
    25
100
AcDbLine
 10
3.9763779528
 20
-0.3543307087
 30
0.0
 11
3.9763779528
 21
-0.157480315
 31
0.0
  0
LINE
  5
16A
330
23
100
AcDbEntity
  8
0
  6
Continuous
 62
     7
370
    25
100
AcDbLine
 10
3.9763779528
 20
0.0
 30
0.0
 11
3.9763779528
 21
0.4330708661
 31
0.0
  0
LINE
  5
16B
330
23
100
AcDbEntity
  8
0
  6
Continuous
 62
     7
370
    25
100
AcDbLine
 10
5.4724409449
 20
0.4330708661
 30
0.0
 11
5.4724409449
 21
0.0
 31
0.0
  0
LINE
  5
16C
330
23
100
AcDbEntity
  8
0
  6
Continuous
 62
     7
370
    25
100
AcDbLine
 10
5.4724409449
 20
-0.157480315
 30
0.0
 11
5.4724409449
 21
-0.3543307087
 31
0.0
  0
LINE
  5
16D
330
23
100
AcDbEntity
  8
0
  6
Continuous
 62
     7
370
    25
100
AcDbLine
 10
7.125984252
 20
-0.3543307087
 30
0.0
 11
7.125984252
 21
-0.157480315
 31
0.0
  0
LINE
  5
16E
330
23
100
AcDbEntity
  8
0
  6
Continuous
 62
     7
370
    25
100
AcDbLine
 10
7.125984252
 20
0.0
 30
0.0
 11
7.125984252
 21
0.4330708661
 31
0.0
  0
LINE
  5
16F
330
23
100
AcDbEntity
  8
0
  6
Continuous
 62
     7
370
    25
100
AcDbLine
 10
1.2795275591
 20
0.0
 30
0.0
 11
-1.2795275591
 21
0.0
 31
0.0
  0
LINE
  5
170
330
23
100
AcDbEntity
  8
0
  6
Continuous
 62
     7
370
    25
100
AcDbLine
 10
1.2795275591
 20
-0.157480315
 30
0.0
 11
-1.2795275591
 21
-0.157480315
 31
0.0
  0
LINE
  5
171
330
23
100
AcDbEntity
  8
0
  6
Continuous
 62
     7
370
    25
100
AcDbLine
 10
4.4291338583
 20
0.0
 30
0.0
 11
1.8700787402
 21
0.0
 31
0.0
  0
LINE
  5
172
330
23
100
AcDbEntity
  8
0
  6
Continuous
 62
     7
370
    25
100
AcDbLine
 10
4.4291338583
 20
-0.157480315
 30
0.0
 11
1.8700787402
 21
-0.157480315
 31
0.0
  0
LINE
  5
173
330
23
100
AcDbEntity
  8
0
  6
Continuous
 62
     7
370
    25
100
AcDbLine
 10
3.937007874
 20
-2.1338582677
 30
0.0
 11
2.3622047253
 21
-2.1338582677
 31
0.0
  0
LINE
  5
174
330
23
100
AcDbEntity
  8
0
  6
Continuous
 62
     7
370
    25
100
AcDbLine
 10
2.3425196853
 20
-0.3622047244
 30
0.0
 11
3.9566929134
 21
-0.3622047244
 31
0.0
  0
LINE
  5
175
330
23
100
AcDbEntity
  8
0
  6
Continuous
 62
     7
370
    25
100
AcDbLine
 10
-0.8070866139
 20
-0.3622047244
 30
0.0
 11
0.8070866142
 21
-0.3622047244
 31
0.0
  0
LINE
  5
176
330
23
100
AcDbEntity
  8
0
  6
Continuous
 62
     7
370
    25
100
AcDbLine
 10
0.7874015748
 20
-2.1338582677
 30
0.0
 11
-0.7874015739
 21
-2.1338582677
 31
0.0
  0
LINE
  5
177
330
23
100
AcDbEntity
  8
0
  6
Continuous
 62
     7
370
    25
100
AcDbLine
 10
5.4921259845
 20
-0.3622047244
 30
0.0
 11
7.1062992126
 21
-0.3622047244
 31
0.0
  0
LINE
  5
178
330
23
100
AcDbEntity
  8
0
  6
Continuous
 62
     7
370
    25
100
AcDbLine
 10
7.0866141732
 20
-2.1338582677
 30
0.0
 11
5.5118110245
 21
-2.1338582677
 31
0.0
  0
LINE
  5
179
330
23
100
AcDbEntity
  8
0
  6
Continuous
 62
     7
370
    25
100
AcDbLine
 10
7.5787401575
 20
0.0
 30
0.0
 11
5.0196850394
 21
0.0
 31
0.0
  0
LINE
  5
17A
330
23
100
AcDbEntity
  8
0
  6
Continuous
 62
     7
370
    25
100
AcDbLine
 10
7.5787401575
 20
-0.157480315
 30
0.0
 11
5.0196850394
 21
-0.157480315
 31
0.0
  0
LINE
  5
17B
330
23
100
AcDbEntity
  8
0
  6
Continuous
 62
     7
370
    25
100
AcDbLine
 10
0.8267716535
 20
0.4330708661
 30
0.0
 11
-0.8267716535
 21
0.4330708661
 31
0.0
  0
LINE
  5
17C
330
23
100
AcDbEntity
  8
0
  6
Continuous
 62
     7
370
    25
100
AcDbLine
 10
0.8267716535
 20
-0.3543307087
 30
0.0
 11
-0.8267716535
 21
-0.3543307087
 31
0.0
  0
LINE
  5
17D
330
23
100
AcDbEntity
  8
0
  6
Continuous
 62
     7
370
    25
100
AcDbLine
 10
3.9763779528
 20
0.4330708661
 30
0.0
 11
2.3228346457
 21
0.4330708661
 31
0.0
  0
LINE
  5
17E
330
23
100
AcDbEntity
  8
0
  6
Continuous
 62
     7
370
    25
100
AcDbLine
 10
3.9763779528
 20
-0.3543307087
 30
0.0
 11
2.3228346457
 21
-0.3543307087
 31
0.0
  0
LINE
  5
17F
330
23
100
AcDbEntity
  8
0
  6
Continuous
 62
     7
370
    25
100
AcDbLine
 10
7.125984252
 20
0.4330708661
 30
0.0
 11
5.4724409449
 21
0.4330708661
 31
0.0
  0
LINE
  5
180
330
23
100
AcDbEntity
  8
0
  6
Continuous
 62
     7
370
    25
100
AcDbLine
 10
7.125984252
 20
-0.3543307087
 30
0.0
 11
5.4724409449
 21
-0.3543307087
 31
0.0
  0
LINE
  5
181
330
23
100
AcDbEntity
  8
0
  6
Continuous
 62
     8
370
    25
100
AcDbLine
 10
2.3228346457
 20
-2.094488189
 30
0.0
 11
3.9763779528
 21
-2.094488189
 31
0.0
  0
LINE
  5
182
330
23
100
AcDbEntity
  8
0
  6
Continuous
 62
     8
370
    25
100
AcDbLine
 10
3.9763779528
 20
-0.3818897638
 30
0.0
 11
2.3228346457
 21
-0.3818897638
 31
0.0
  0
LINE
  5
183
330
23
100
AcDbEntity
  8
0
  6
Continuous
 62
     8
370
    25
100
AcDbLine
 10
0.8267716535
 20
-0.3818897638
 30
0.0
 11
-0.8267716535
 21
-0.3818897638
 31
0.0
  0
LINE
  5
184
330
23
100
AcDbEntity
  8
0
  6
Continuous
 62
     8
370
    25
100
AcDbLine
 10
-0.8267716535
 20
-2.094488189
 30
0.0
 11
0.8267716535
 21
-2.094488189
 31
0.0
  0
LINE
  5
185
330
23
100
AcDbEntity
  8
0
  6
Continuous
 62
     8
370
    25
100
AcDbLine
 10
7.125984252
 20
-0.3818897638
 30
0.0
 11
5.4724409449
 21
-0.3818897638
 31
0.0
  0
LINE
  5
186
330
23
100
AcDbEntity
  8
0
  6
Continuous
 62
     8
370
    25
100
AcDbLine
 10
5.4724409449
 20
-2.094488189
 30
0.0
 11
7.125984252
 21
-2.094488189
 31
0.0
  0
ARC
  5
187
330
23
100
AcDbEntity
  8
0
  6
Continuous
 62
     7
370
    25
100
AcDbCircle
 10
3.937007874
 20
-2.094488189
 30
0.0
 40
0.0393700787401579
100
AcDbArc
 50
270.0
 51
0.0
  0
ARC
  5
188
330
23
100
AcDbEntity
  8
0
  6
Continuous
 62
     7
370
    25
100
AcDbCircle
 10
2.3622047244
 20
-2.094488189
 30
0.0
 40
0.0393700787401587
100
AcDbArc
 50
180.0
 51
270.0
  0
ARC
  5
189
330
23
100
AcDbEntity
  8
0
  6
Continuous
 62
     7
370
    25
100
AcDbCircle
 10
3.9566929134
 20
-0.3818897638
 30
0.0
 40
0.01968503937008
100
AcDbArc
 50
0.0
 51
90.0
  0
ARC
  5
18A
330
23
100
AcDbEntity
  8
0
  6
Continuous
 62
     7
370
    25
100
AcDbCircle
 10
2.342519685
 20
-0.3818897638
 30
0.0
 40
0.0196850393700789
100
AcDbArc
 50
90.0
 51
180.0
  0
ARC
  5
18B
330
23
100
AcDbEntity
  8
0
  6
Continuous
 62
     7
370
    25
100
AcDbCircle
 10
0.8070866142
 20
-0.3818897638
 30
0.0
 40
0.0196850393700791
100
AcDbArc
 50
0.0
 51
90.0
  0
ARC
  5
18C
330
23
100
AcDbEntity
  8
0
  6
Continuous
 62
     7
370
    25
100
AcDbCircle
 10
-0.8070866142
 20
-0.3818897638
 30
0.0
 40
0.0196850393700791
100
AcDbArc
 50
90.0
 51
180.0
  0
ARC
  5
18D
330
23
100
AcDbEntity
  8
0
  6
Continuous
 62
     7
370
    25
100
AcDbCircle
 10
0.7874015748
 20
-2.094488189
 30
0.0
 40
0.0393700787401583
100
AcDbArc
 50
270.0
 51
0.0
  0
ARC
  5
18E
330
23
100
AcDbEntity
  8
0
  6
Continuous
 62
     7
370
    25
100
AcDbCircle
 10
-0.7874015748
 20
-2.094488189
 30
0.0
 40
0.0393700787401583
100
AcDbArc
 50
180.0
 51
270.0
  0
ARC
  5
18F
330
23
100
AcDbEntity
  8
0
  6
Continuous
 62
     7
370
    25
100
AcDbCircle
 10
7.1062992126
 20
-0.3818897638
 30
0.0
 40
0.0196850393700779
100
AcDbArc
 50
360.0
 51
90.0
  0
ARC
  5
190
330
23
100
AcDbEntity
  8
0
  6
Continuous
 62
     7
370
    25
100
AcDbCircle
 10
5.4921259843
 20
-0.3818897638
 30
0.0
 40
0.0196850393700796
100
AcDbArc
 50
90.0
 51
180.0
  0
ARC
  5
191
330
23
100
AcDbEntity
  8
0
  6
Continuous
 62
     7
370
    25
100
AcDbCircle
 10
7.0866141732
 20
-2.094488189
 30
0.0
 40
0.0393700787401583
100
AcDbArc
 50
270.0
 51
0.0
  0
ARC
  5
192
330
23
100
AcDbEntity
  8
0
  6
Continuous
 62
     7
370
    25
100
AcDbCircle
 10
5.5118110236
 20
-2.094488189
 30
0.0
 40
0.0393700787401583
100
AcDbArc
 50
180.0
 51
270.0
  0
VIEWPORT
  5
231
330
23
100
AcDbEntity
  8
0
100
AcDbViewport
 10
0.0
 20
0.0
 30
0.0
 40
8.4
 41
6.4
 68
     1
 69
     1
 12
3.1496062992
 22
-0.1082677165
 13
0.0
 23
0.0
 14
0.5
 24
0.5
 15
0.5
 25
0.5
 16
0.0
 26
0.0
 36
1.0
 17
0.0
 27
0.0
 37
0.0
 42
50.0
 43
0.0
 44
0.0
 45
6.8841394826
 50
0.0
 51
0.0
 72
   100
 90
   557152
  1

281
     0
 71
     1
 74
     0
110
0.0
120
0.0
130
0.0
111
1.0
121
0.0
131
0.0
112
0.0
122
1.0
132
0.0
 79
     0
146
0.0
  0
ENDBLK
  5
25
330
23
100
AcDbEntity
  8
0
100
AcDbBlockEnd
  0
BLOCK
  5
195
330
193
100
AcDbEntity
  8
0
100
AcDbBlockBegin
  2
*Paper_Space1
 70
     0
 10
0.0
 20
0.0
 30
0.0
  3
*Paper_Space1
  1

  0
SPLINE
  5
19B
330
193
100
AcDbEntity
  8
0
  6
Continuous
 62
     7
370
    25
100
AcDbSpline
210
0.0
220
0.0
230
1.0
 70
     8
 71
     3
 72
    45
 73
    41
 74
     0
 42
0.000000001
 43
0.00000001
 40
0.0
 40
0.0
 40
0.0
 40
0.0
 40
0.0016125218164849
 40
0.0278229558162967
 40
0.0540195284660836
 40
0.0803127791705035
 40
0.1068039402974591
 40
0.1335442476123653
 40
0.1605317834267023
 40
0.1877248395283539
 40
0.2150634419703201
 40
0.2424886045614934
 40
0.2699533193725778
 40
0.2974212217404919
 40
0.3248735515339922
 40
0.3523033466599241
 40
0.3797090939637193
 40
0.4070925673043245
 40
0.4344574178743151
 40
0.4618083175122407
 40
0.4891504697378627
 40
0.5164893495458273
 40
0.5438304763402434
 40
0.5711777639841912
 40
0.5985369596646887
 40
0.6259137927126893
 40
0.6533138333649665
 40
0.6807422068691258
 40
0.7082030549557591
 40
0.7356985880485968
 40
0.7632275146720314
 40
0.7907826068206414
 40
0.8183427476463518
 40
0.845869046889532
 40
0.8733090240429154
 40
0.9005958265242373
 40
0.9276608142094888
 40
0.9544563921540988
 40
0.9809809818112889
 40
1.0
 40
1.0
 40
1.0
 40
1.0
 10
0.3327998899469382
 20
-1.424793733294621
 30
0.0
 10
0.3320206205725948
 20
-1.425178044452676
 30
0.0
 10
0.3185748630332637
 20
-1.431809069385772
 30
0.0
 10
0.295183350391636
 20
-1.449513200841671
 30
0.0
 10
0.263278692259117
 20
-1.477989916401353
 30
0.0
 10
0.2352392494807428
 20
-1.511691348679021
 30
0.0
 10
0.210809184958414
 20
-1.549694369040528
 30
0.0
 10
0.1902546566520084
 20
-1.592006266860263
 30
0.0
 10
0.1737103607151389
 20
-1.638328079720985
 30
0.0
 10
0.1613344589855824
 20
-1.68835950449766
 30
0.0
 10
0.1532386215681873
 20
-1.741717032474219
 30
0.0
 10
0.1494889635530235
 20
-1.797978025087488
 30
0.0
 10
0.1501017227092108
 20
-1.856693199540829
 30
0.0
 10
0.1550492190849564
 20
-1.917406282132603
 30
0.0
 10
0.1642673723831695
 20
-1.97966257786723
 30
0.0
 10
0.1776632721193383
 20
-2.043013921117195
 30
0.0
 10
0.1951190350871393
 20
-2.107014475611642
 30
0.0
 10
0.2164931745186828
 20
-2.171218127426726
 30
0.0
 10
0.2416214997359591
 20
-2.235179215804606
 30
0.0
 10
0.2703178546332171
 20
-2.298454106636008
 30
0.0
 10
0.3023749770045248
 20
-2.360603384855399
 30
0.0
 10
0.3375655695803481
 20
-2.421194352712136
 30
0.0
 10
0.3756429100107341
 20
-2.479802581038037
 30
0.0
 10
0.4163431305250782
 20
-2.536016172816385
 30
0.0
 10
0.4593873323826537
 20
-2.58943856787706
 30
0.0
 10
0.5044848146902876
 20
-2.639691879623224
 30
0.0
 10
0.5513344903082534
 20
-2.686417565512917
 30
0.0
 10
0.5996270489462208
 20
-2.729277869345157
 30
0.0
 10
0.649046784163243
 20
-2.767956671460794
 30
0.0
 10
0.6992726760920099
 20
-2.802159701533411
 30
0.0
 10
0.7499781950228863
 20
-2.831614326754133
 30
0.0
 10
0.8008262113834116
 20
-2.856067865170002
 30
0.0
 10
0.8514618909082977
 20
-2.875289741284869
 30
0.0
 10
0.9015067489035452
 20
-2.889077621987542
 30
0.0
 10
0.9505599071638099
 20
-2.897277958425309
 30
0.0
 10
0.998185302914222
 20
-2.899775204734531
 30
0.0
 10
1.043981666992587
 20
-2.896616010394157
 30
0.0
 10
1.087392487750787
 20
-2.887632490749628
 30
0.0
 10
1.124767922019851
 20
-2.875122919901477
 30
0.0
 10
1.146270156240891
 20
-2.863305594758752
 30
0.0
 10
1.155249492817204
 20
-2.858370677819543
 30
0.0
  0
SPLINE
  5
19E
330
193
100
AcDbEntity
  8
0
  6
Continuous
 62
     7
370
    25
100
AcDbSpline
210
0.0
220
0.0
230
1.0
 70
     8
 71
     3
 72
    14
 73
    10
 74
     0
 42
0.000000001
 43
0.00000001
 40
0.0
 40
0.0
 40
0.0
 40
0.0
 40
0.1386026828610644
 40
0.2959458154724673
 40
0.4540664136663972
 40
0.6128124570921377
 40
0.7719871611473664
 40
0.9314090356119933
 40
1.0
 40
1.0
 40
1.0
 40
1.0
 10
2.463932327080215
 20
-2.072097263123084
 30
0.0
 10
2.471318971910674
 20
-2.061421969859222
 30
0.0
 10
2.487091008806577
 20
-2.038627978392633
 30
0.0
 10
2.506530777698997
 20
-1.998511365102906
 30
0.0
 10
2.523133743935258
 20
-1.953178401702633
 30
0.0
 10
2.535558764743443
 20
-1.904016726099538
 30
0.0
 10
2.543762176451541
 20
-1.851501759047694
 30
0.0
 10
2.547104222374835
 20
-1.806648455438878
 30
0.0
 10
2.547372026776566
 20
-1.779264657038769
 30
0.0
 10
2.547452587863716
 20
-1.771027045725643
 30
0.0
  0
SPLINE
  5
19F
330
193
100
AcDbEntity
  8
0
  6
Continuous
 62
     7
370
    25
100
AcDbSpline
210
0.0
220
0.0
230
1.0
 70
     8
 71
     3
 72
    33
 73
    29
 74
     0
 42
0.000000001
 43
0.00000001
 40
0.0
 40
0.0
 40
0.0
 40
0.0
 40
0.0214399042425221
 40
0.0620999184797893
 40
0.1027513104972521
 40
0.1433856757841726
 40
0.184001860971095
 40
0.2246011095157436
 40
0.2651860375262479
 40
0.305760010365732
 40
0.346326784165577
 40
0.3868903131618948
 40
0.4274546545610026
 40
0.4680227637814829
 40
0.5085985870934406
 40
0.5491862771991289
 40
0.5897899093959597
 40
0.6304133182294321
 40
0.6710597846403286
 40
0.7117314780937444
 40
0.7524285183163267
 40
0.7931474851995981
 40
0.8338787981621641
 40
0.8745968567381349
 40
0.9152677660461856
 40
0.9558442955949946
 40
0.9962707785579201
 40
1.0
 40
1.0
 40
1.0
 40
1.0
 10
2.547452587863716
 20
-1.771027045725643
 30
0.0
 10
2.54733298971181
 20
-1.76080590004007
 30
0.0
 10
2.546986577927517
 20
-1.731200715862743
 30
0.0
 10
2.543147377624382
 20
-1.680554795576359
 30
0.0
 10
2.534585071351476
 20
-1.61887526903619
 30
0.0
 10
2.521817916415049
 20
-1.555919361647193
 30
0.0
 10
2.505022466623744
 20
-1.492178424396475
 30
0.0
 10
2.484307968414631
 20
-1.428091927122455
 30
0.0
 10
2.459834071643437
 20
-1.364115296446789
 30
0.0
 10
2.431778258540107
 20
-1.300699177763298
 30
0.0
 10
2.400343288910407
 20
-1.238291565785363
 30
0.0
 10
2.365753670236039
 20
-1.17733356089315
 30
0.0
 10
2.328255132019594
 20
-1.118257287323666
 30
0.0
 10
2.288112569303633
 20
-1.061482267544902
 30
0.0
 10
2.245608072381663
 20
-1.007412411883982
 30
0.0
 10
2.201038327945555
 20
-0.9564328438867508
 30
0.0
 10
2.154712669234271
 20
-0.9089079426711044
 30
0.0
 10
2.106950889826913
 20
-0.8651793430188095
 30
0.0
 10
2.058081000604986
 20
-0.8255640551141565
 30
0.0
 10
2.008437428747616
 20
-0.7903535537202927
 30
0.0
 10
1.958358917024488
 20
-0.7598111337865522
 30
0.0
 10
1.908190304508988
 20
-0.7341774802805969
 30
0.0
 10
1.858277443277497
 20
-0.7136476178323176
 30
0.0
 10
1.808999352235128
 20
-0.6984535623093041
 30
0.0
 10
1.760651208233945
 20
-0.6885352693953657
 30
0.0
 10
1.713885712714979
 20
-0.6847376661657106
 30
0.0
 10
1.68185801002248
 20
-0.6844459091732878
 30
0.0
 10
1.666148540623856
 20
-0.6870318928925634
 30
0.0
 10
1.664821779089544
 20
-0.6872502951593771
 30
0.0
  0
SPLINE
  5
1A2
330
193
100
AcDbEntity
  8
0
  6
Continuous
 62
     7
370
    25
100
AcDbSpline
210
0.0
220
0.0
230
1.0
 70
     8
 71
     3
 72
    13
 73
     9
 74
     0
 42
0.000000001
 43
0.00000001
 40
0.0
 40
0.0
 40
0.0
 40
0.0
 40
0.0836720337631343
 40
0.2975354825183182
 40
0.5097182144727722
 40
0.7292135494445534
 40
0.9679270966144826
 40
1.0
 40
1.0
 40
1.0
 40
1.0
 10
0.8677331915984241
 20
-3.170188718281396
 30
0.0
 10
0.8675677490177259
 20
-3.172986570683126
 30
0.0
 10
0.8669794396882715
 20
-3.182935657933959
 30
0.0
 10
0.8721933656213114
 20
-3.19961105472431
 30
0.0
 10
0.8824642014218859
 20
-3.21870586309284
 30
0.0
 10
0.8979014009239785
 20
-3.235792965582864
 30
0.0
 10
0.9118152377869605
 20
-3.246156878511454
 30
0.0
 10
0.9202684503121716
 20
-3.25112110451053
 30
0.0
 10
0.9212696786530363
 20
-3.251709084967181
 30
0.0
  0
SPLINE
  5
1A3
330
193
100
AcDbEntity
  8
0
  6
Continuous
 62
     7
370
    25
100
AcDbSpline
210
0.0
220
0.0
230
1.0
 70
     8
 71
     3
 72
    20
 73
    16
 74
     0
 42
0.000000001
 43
0.00000001
 40
0.0
 40
0.0
 40
0.0
 40
0.0
 40
0.0490843523992498
 40
0.1373062401427932
 40
0.2252168187422562
 40
0.3128039345954271
 40
0.4003886495923327
 40
0.4884691876437023
 40
0.5775972330505177
 40
0.6684028192449565
 40
0.751259284034284
 40
0.8298288270614023
 40
0.9043465601069073
 40
0.9766709830191191
 40
1.0
 40
1.0
 40
1.0
 40
1.0
 10
0.9212696786530363
 20
-3.251709084967182
 30
0.0
 10
0.9257643812783837
 20
-3.254127151616096
 30
0.0
 10
0.9383376492931385
 20
-3.260891336610867
 30
0.0
 10
0.961593490435236
 20
-3.269144816105711
 30
0.0
 10
0.9909360604273741
 20
-3.275291449963626
 30
0.0
 10
1.021522795649647
 20
-3.277574438732911
 30
0.0
 10
1.052226616637023
 20
-3.276019003282033
 30
0.0
 10
1.082060944000339
 20
-3.270604193206987
 30
0.0
 10
1.110076376571166
 20
-3.261316334137264
 30
0.0
 10
1.134455765410076
 20
-3.248536773662557
 30
0.0
 10
1.154170303569785
 20
-3.232893707181009
 30
0.0
 10
1.168870112777761
 20
-3.215259864988802
 30
0.0
 10
1.178092835762208
 20
-3.195868567832885
 30
0.0
 10
1.182367317534652
 20
-3.179855809513356
 30
0.0
 10
1.181511473495737
 20
-3.170799433783528
 30
0.0
 10
1.181302740802598
 20
-3.168590664883815
 30
0.0
  0
SPLINE
  5
1A4
330
193
100
AcDbEntity
  8
0
  6
Continuous
 62
     7
370
    25
100
AcDbSpline
210
0.0
220
0.0
230
1.0
 70
     8
 71
     3
 72
    12
 73
     8
 74
     0
 42
0.000000001
 43
0.00000001
 40
0.0
 40
0.0
 40
0.0
 40
0.0
 40
0.0411291605612195
 40
0.2712689603892738
 40
0.5001884858364095
 40
0.7363691160979993
 40
1.0
 40
1.0
 40
1.0
 40
1.0
 10
1.44005960101356
 20
-1.0069339503118
 30
0.0
 10
1.440204963775245
 20
-1.005782808469179
 30
0.0
 10
1.441163709460874
 20
-0.9981904081710146
 30
0.0
 10
1.437047758660921
 20
-0.9841331691732546
 30
0.0
 10
1.427893256481459
 20
-0.9663351020920287
 30
0.0
 10
1.413103614238614
 20
-0.9497424848603918
 30
0.0
 10
1.399314054572664
 20
-0.9407456225689128
 30
0.0
 10
1.392040605081534
 20
-0.9360001321369523
 30
0.0
  0
SPLINE
  5
1A5
330
193
100
AcDbEntity
  8
0
  6
Continuous
 62
     7
370
    25
100
AcDbSpline
210
0.0
220
0.0
230
1.0
 70
     8
 71
     3
 72
    19
 73
    15
 74
     0
 42
0.000000001
 43
0.00000001
 40
0.0
 40
0.0
 40
0.0
 40
0.0
 40
0.0477179091329569
 40
0.1367577307977162
 40
0.2255399421108893
 40
0.314057437755359
 40
0.4025015004162503
 40
0.4911277626023333
 40
0.5801803908483155
 40
0.6699742459429818
 40
0.7606832839332052
 40
0.8515682247824802
 40
0.9301439139798534
 40
1.0
 40
1.0
 40
1.0
 40
1.0
 10
1.392040605081534
 20
-0.9360001321369523
 30
0.0
 10
1.387946066807728
 20
-0.933789449127128
 30
0.0
 10
1.376211274291362
 20
-0.9274537148623624
 30
0.0
 10
1.3540760568239
 20
-0.9194209535613331
 30
0.0
 10
1.325619133518952
 20
-0.9131789225085962
 30
0.0
 10
1.295730826551224
 20
-0.9105506210931987
 30
0.0
 10
1.265607711560235
 20
-0.9115506137031941
 30
0.0
 10
1.236339445631122
 20
-0.9161692080988959
 30
0.0
 10
1.208985092483042
 20
-0.9243079402551833
 30
0.0
 10
1.184556935674979
 20
-0.935834703211936
 30
0.0
 10
1.163978927633784
 20
-0.9505717573637577
 30
0.0
 10
1.149169144612035
 20
-0.9675745106086129
 30
0.0
 10
1.139819085606075
 20
-0.9853753272896093
 30
0.0
 10
1.138541484103813
 20
-0.9973584956647521
 30
0.0
 10
1.137940209610459
 20
-1.002998105105393
 30
0.0
  0
SPLINE
  5
1A8
330
193
100
AcDbEntity
  8
0
  6
Continuous
 62
     7
370
    25
100
AcDbSpline
210
0.0
220
0.0
230
1.0
 70
     8
 71
     3
 72
    45
 73
    41
 74
     0
 42
0.000000001
 43
0.00000001
 40
0.0
 40
0.0
 40
0.0
 40
0.0
 40
0.0016125218164775
 40
0.0278229558162888
 40
0.0540195284660748
 40
0.0803127791704954
 40
0.1068039402974501
 40
0.1335442476123573
 40
0.1605317834266936
 40
0.187724839528346
 40
0.215063441970312
 40
0.2424886045614832
 40
0.2699533193725707
 40
0.2974212217404866
 40
0.3248735515339887
 40
0.3523033466599191
 40
0.3797090939637162
 40
0.4070925673043207
 40
0.4344574178743107
 40
0.4618083175122362
 40
0.4891504697378559
 40
0.516489349545823
 40
0.5438304763402394
 40
0.5711777639841868
 40
0.5985369596646843
 40
0.6259137927126843
 40
0.6533138333649621
 40
0.6807422068691221
 40
0.7082030549557544
 40
0.7356985880485929
 40
0.7632275146720274
 40
0.7907826068206374
 40
0.8183427476463473
 40
0.8458690468895281
 40
0.8733090240429108
 40
0.9005958265242341
 40
0.9276608142094858
 40
0.9544563921540966
 40
0.9809809818112866
 40
1.0
 40
1.0
 40
1.0
 40
1.0
 10
-1.894308082294156
 20
-0.1391116674320863
 30
0.0
 10
-1.895087351668495
 20
-0.1394959785901391
 30
0.0
 10
-1.908533109207823
 20
-0.1461270035232321
 30
0.0
 10
-1.931924621849448
 20
-0.163831134979129
 30
0.0
 10
-1.963829279981966
 20
-0.1923078505388094
 30
0.0
 10
-1.991868722760341
 20
-0.2260092828164753
 30
0.0
 10
-2.016298787282671
 20
-0.2640123031779829
 30
0.0
 10
-2.036853315589079
 20
-0.3063242009977161
 30
0.0
 10
-2.053397611525948
 20
-0.3526460138584376
 30
0.0
 10
-2.065773513255506
 20
-0.4026774386351117
 30
0.0
 10
-2.073869350672902
 20
-0.4560349666116687
 30
0.0
 10
-2.077619008688068
 20
-0.5122959592249371
 30
0.0
 10
-2.077006249531881
 20
-0.5710111336782793
 30
0.0
 10
-2.072058753156136
 20
-0.6317242162700574
 30
0.0
 10
-2.062840599857924
 20
-0.6939805120046869
 30
0.0
 10
-2.049444700121754
 20
-0.7573318552546531
 30
0.0
 10
-2.031988937153955
 20
-0.821332409749099
 30
0.0
 10
-2.01061479772241
 20
-0.8855360615641843
 30
0.0
 10
-1.985486472505135
 20
-0.9494971499420632
 30
0.0
 10
-1.956790117607879
 20
-1.012772040773461
 30
0.0
 10
-1.924732995236572
 20
-1.074921318992854
 30
0.0
 10
-1.889542402660749
 20
-1.135512286849592
 30
0.0
 10
-1.851465062230361
 20
-1.194120515175493
 30
0.0
 10
-1.810764841716018
 20
-1.250334106953843
 30
0.0
 10
-1.767720639858444
 20
-1.303756502014517
 30
0.0
 10
-1.722623157550811
 20
-1.354009813760682
 30
0.0
 10
-1.675773481932843
 20
-1.400735499650376
 30
0.0
 10
-1.627480923294877
 20
-1.443595803482615
 30
0.0
 10
-1.578061188077854
 20
-1.482274605598253
 30
0.0
 10
-1.527835296149087
 20
-1.51647763567087
 30
0.0
 10
-1.477129777218212
 20
-1.545932260891594
 30
0.0
 10
-1.426281760857686
 20
-1.570385799307463
 30
0.0
 10
-1.375646081332801
 20
-1.589607675422331
 30
0.0
 10
-1.325601223337553
 20
-1.603395556125006
 30
0.0
 10
-1.276548065077288
 20
-1.611595892562771
 30
0.0
 10
-1.228922669326875
 20
-1.614093138871996
 30
0.0
 10
-1.183126305248509
 20
-1.610933944531622
 30
0.0
 10
-1.139715484490308
 20
-1.601950424887094
 30
0.0
 10
-1.102340050221242
 20
-1.589440854038943
 30
0.0
 10
-1.080837816000201
 20
-1.577623528896217
 30
0.0
 10
-1.071858479423888
 20
-1.572688611957008
 30
0.0
  0
SPLINE
  5
1AB
330
193
100
AcDbEntity
  8
0
  6
Continuous
 62
     7
370
    25
100
AcDbSpline
210
0.0
220
0.0
230
1.0
 70
     8
 71
     3
 72
    14
 73
    10
 74
     0
 42
0.000000001
 43
0.00000001
 40
0.0
 40
0.0
 40
0.0
 40
0.0
 40
0.1386026828610578
 40
0.2959458154724668
 40
0.4540664136663877
 40
0.6128124570921232
 40
0.7719871611473546
 40
0.9314090356119794
 40
1.0
 40
1.0
 40
1.0
 40
1.0
 10
0.2368243548391246
 20
-0.7864151972605458
 30
0.0
 10
0.2442109996695838
 20
-0.7757399039966847
 30
0.0
 10
0.2599830365654871
 20
-0.7529459125300967
 30
0.0
 10
0.2794228054579054
 20
-0.7128292992403696
 30
0.0
 10
0.2960257716941677
 20
-0.6674963358400982
 30
0.0
 10
0.3084507925023505
 20
-0.6183346602370042
 30
0.0
 10
0.3166542042104504
 20
-0.5658196931851621
 30
0.0
 10
0.3199962501337441
 20
-0.5209663895763459
 30
0.0
 10
0.3202640545354753
 20
-0.493582591176234
 30
0.0
 10
0.320344615622625
 20
-0.4853449798631069
 30
0.0
  0
SPLINE
  5
1AC
330
193
100
AcDbEntity
  8
0
  6
Continuous
 62
     7
370
    25
100
AcDbSpline
210
0.0
220
0.0
230
1.0
 70
     8
 71
     3
 72
    33
 73
    29
 74
     0
 42
0.000000001
 43
0.00000001
 40
0.0
 40
0.0
 40
0.0
 40
0.0
 40
0.0214399042425221
 40
0.0620999184797726
 40
0.1027513104972366
 40
0.1433856757841576
 40
0.1840018609710816
 40
0.224601109515729
 40
0.2651860375262352
 40
0.305760010365719
 40
0.3463267841655652
 40
0.3868903131618851
 40
0.4274546545609926
 40
0.4680227637814733
 40
0.5085985870934293
 40
0.5491862771991187
 40
0.5897899093959487
 40
0.6304133182294206
 40
0.6710597846403171
 40
0.7117314780937336
 40
0.7524285183163163
 40
0.7931474851995873
 40
0.8338787981621532
 40
0.8745968567381236
 40
0.9152677660461743
 40
0.9558442955949848
 40
0.9962707785579116
 40
1.0
 40
1.0
 40
1.0
 40
1.0
 10
0.320344615622625
 20
-0.4853449798631069
 30
0.0
 10
0.3202250174707189
 20
-0.4751238341775341
 30
0.0
 10
0.3198786056864278
 20
-0.4455186500002159
 30
0.0
 10
0.3160394053832924
 20
-0.3948727297138397
 30
0.0
 10
0.307477099110389
 20
-0.3331932031736782
 30
0.0
 10
0.2947099441739647
 20
-0.2702372957846805
 30
0.0
 10
0.2779144943826596
 20
-0.206496358533962
 30
0.0
 10
0.2571999961735477
 20
-0.1424098612599417
 30
0.0
 10
0.2327260994023552
 20
-0.078433230584275
 30
0.0
 10
0.2046702862990251
 20
-0.0150171119007817
 30
0.0
 10
0.1732353166693259
 20
0.047390500077154
 30
0.0
 10
0.1386456979949578
 20
0.1083485049693702
 30
0.0
 10
0.1011471597785131
 20
0.1674247785388552
 30
0.0
 10
0.0610045970625523
 20
0.2241997983176192
 30
0.0
 10
0.0185001001405849
 20
0.2782696539785389
 30
0.0
 10
-0.0260696442955227
 20
0.3292492219757712
 30
0.0
 10
-0.0723953030068067
 20
0.3767741231914182
 30
0.0
 10
-0.1201570824141634
 20
0.4205027228437135
 30
0.0
 10
-0.1690269716360901
 20
0.4601180107483677
 30
0.0
 10
-0.2186705434934592
 20
0.4953285121422333
 30
0.0
 10
-0.2687490552165887
 20
0.5258709320759756
 30
0.0
 10
-0.3189176677320881
 20
0.551504585581932
 30
0.0
 10
-0.3688305289635787
 20
0.5720344480302129
 30
0.0
 10
-0.4181086200059474
 20
0.587228503553228
 30
0.0
 10
-0.466456764007131
 20
0.5971467964671683
 30
0.0
 10
-0.5132222595261002
 20
0.600944399696825
 30
0.0
 10
-0.5452499622186014
 20
0.6012361566892487
 30
0.0
 10
-0.56095943161723
 20
0.5986501729699727
 30
0.0
 10
-0.5622861931515458
 20
0.5984317707031588
 30
0.0
  0
SPLINE
  5
1AF
330
193
100
AcDbEntity
  8
0
  6
Continuous
 62
     7
370
    25
100
AcDbSpline
210
0.0
220
0.0
230
1.0
 70
     8
 71
     3
 72
    13
 73
     9
 74
     0
 42
0.000000001
 43
0.00000001
 40
0.0
 40
0.0
 40
0.0
 40
0.0
 40
0.0836720337631872
 40
0.2975354825183706
 40
0.5097182144728472
 40
0.7292135494446188
 40
0.9679270966145496
 40
1.0
 40
1.0
 40
1.0
 40
1.0
 10
-1.359374780642666
 20
-1.884506652418861
 30
0.0
 10
-1.359540223223365
 20
-1.887304504820593
 30
0.0
 10
-1.360128532552818
 20
-1.897253592071428
 30
0.0
 10
-1.354914606619779
 20
-1.913928988861781
 30
0.0
 10
-1.344643770819201
 20
-1.933023797230309
 30
0.0
 10
-1.329206571317107
 20
-1.950110899720333
 30
0.0
 10
-1.315292734454127
 20
-1.960474812648922
 30
0.0
 10
-1.306839521928918
 20
-1.965439038647996
 30
0.0
 10
-1.305838293588055
 20
-1.966027019104645
 30
0.0
  0
SPLINE
  5
1B0
330
193
100
AcDbEntity
  8
0
  6
Continuous
 62
     7
370
    25
100
AcDbSpline
210
0.0
220
0.0
230
1.0
 70
     8
 71
     3
 72
    20
 73
    16
 74
     0
 42
0.000000001
 43
0.00000001
 40
0.0
 40
0.0
 40
0.0
 40
0.0
 40
0.0490843523992494
 40
0.1373062401427934
 40
0.2252168187422605
 40
0.31280393459543
 40
0.4003886495923332
 40
0.4884691876437025
 40
0.5775972330505226
 40
0.6684028192449589
 40
0.7512592840342858
 40
0.8298288270613953
 40
0.9043465601069014
 40
0.9766709830191194
 40
1.0
 40
1.0
 40
1.0
 40
1.0
 10
-1.305838293588055
 20
-1.966027019104645
 30
0.0
 10
-1.301343590962707
 20
-1.968445085753559
 30
0.0
 10
-1.288770322947952
 20
-1.975209270748332
 30
0.0
 10
-1.265514481805854
 20
-1.983462750243176
 30
0.0
 10
-1.236171911813716
 20
-1.98960938410109
 30
0.0
 10
-1.205585176591442
 20
-1.991892372870375
 30
0.0
 10
-1.174881355604067
 20
-1.990336937419496
 30
0.0
 10
-1.145047028240752
 20
-1.984922127344451
 30
0.0
 10
-1.117031595669925
 20
-1.975634268274728
 30
0.0
 10
-1.092652206831014
 20
-1.962854707800021
 30
0.0
 10
-1.072937668671307
 20
-1.947211641318472
 30
0.0
 10
-1.05823785946333
 20
-1.929577799126268
 30
0.0
 10
-1.049015136478884
 20
-1.910186501970349
 30
0.0
 10
-1.044740654706438
 20
-1.894173743650821
 30
0.0
 10
-1.045596498745354
 20
-1.885117367920992
 30
0.0
 10
-1.045805231438492
 20
-1.882908599021279
 30
0.0
  0
SPLINE
  5
1B1
330
193
100
AcDbEntity
  8
0
  6
Continuous
 62
     7
370
    25
100
AcDbSpline
210
0.0
220
0.0
230
1.0
 70
     8
 71
     3
 72
    45
 73
    41
 74
     0
 42
0.000000001
 43
0.00000001
 40
0.0
 40
0.0
 40
0.0
 40
0.0
 40
0.0016125218164763
 40
0.0278229558162841
 40
0.0540195284660677
 40
0.0803127791704901
 40
0.1068039402974491
 40
0.1335442476123528
 40
0.1605317834266922
 40
0.1877248395283424
 40
0.2150634419703119
 40
0.2424886045614821
 40
0.2699533193725685
 40
0.2974212217404833
 40
0.3248735515339857
 40
0.3523033466599182
 40
0.3797090939637104
 40
0.4070925673043158
 40
0.4344574178743068
 40
0.4618083175122348
 40
0.4891504697378537
 40
0.5164893495458195
 40
0.5438304763402374
 40
0.5711777639841816
 40
0.5985369596646798
 40
0.6259137927126813
 40
0.6533138333649612
 40
0.68074220686912
 40
0.7082030549557529
 40
0.7356985880485927
 40
0.7632275146720265
 40
0.7907826068206381
 40
0.8183427476463501
 40
0.84586904688953
 40
0.8733090240429139
 40
0.900595826524238
 40
0.9276608142094893
 40
0.9544563921540993
 40
0.9809809818112878
 40
1.0
 40
1.0
 40
1.0
 40
1.0
 10
2.559907862188024
 20
-2.710475799157159
 30
0.0
 10
2.559128592813684
 20
-2.710860110315211
 30
0.0
 10
2.545682835274359
 20
-2.7174911352483
 30
0.0
 10
2.52229132263274
 20
-2.7351952667042
 30
0.0
 10
2.49038666450022
 20
-2.763671982263876
 30
0.0
 10
2.462347221721843
 20
-2.797373414541541
 30
0.0
 10
2.437917157199514
 20
-2.835376434903051
 30
0.0
 10
2.417362628893105
 20
-2.877688332722784
 30
0.0
 10
2.400818332956236
 20
-2.924010145583503
 30
0.0
 10
2.388442431226677
 20
-2.974041570360179
 30
0.0
 10
2.380346593809282
 20
-3.027399098336736
 30
0.0
 10
2.376596935794113
 20
-3.083660090950004
 30
0.0
 10
2.377209694950301
 20
-3.142375265403345
 30
0.0
 10
2.382157191326044
 20
-3.203088347995118
 30
0.0
 10
2.391375344624257
 20
-3.265344643729749
 30
0.0
 10
2.404771244360425
 20
-3.328695986979712
 30
0.0
 10
2.422227007328224
 20
-3.392696541474155
 30
0.0
 10
2.443601146759764
 20
-3.456900193289238
 30
0.0
 10
2.46872947197704
 20
-3.52086128166712
 30
0.0
 10
2.497425826874295
 20
-3.58413617249852
 30
0.0
 10
2.529482949245603
 20
-3.646285450717911
 30
0.0
 10
2.564673541821425
 20
-3.70687641857465
 30
0.0
 10
2.602750882251809
 20
-3.765484646900549
 30
0.0
 10
2.64345110276615
 20
-3.821698238678897
 30
0.0
 10
2.686495304623725
 20
-3.875120633739573
 30
0.0
 10
2.731592786931357
 20
-3.925373945485739
 30
0.0
 10
2.778442462549326
 20
-3.972099631375435
 30
0.0
 10
2.826735021187292
 20
-4.014959935207676
 30
0.0
 10
2.876154756404315
 20
-4.053638737323317
 30
0.0
 10
2.926380648333079
 20
-4.087841767395932
 30
0.0
 10
2.977086167263958
 20
-4.117296392616659
 30
0.0
 10
3.027934183624486
 20
-4.141749931032532
 30
0.0
 10
3.078569863149372
 20
-4.160971807147399
 30
0.0
 10
3.128614721144621
 20
-4.174759687850077
 30
0.0
 10
3.177667879404886
 20
-4.182960024287842
 30
0.0
 10
3.2252932751553
 20
-4.185457270597069
 30
0.0
 10
3.271089639233666
 20
-4.182298076256695
 30
0.0
 10
3.314500459991864
 20
-4.173314556612169
 30
0.0
 10
3.351875894260929
 20
-4.16080498576402
 30
0.0
 10
3.373378128481968
 20
-4.148987660621295
 30
0.0
 10
3.382357465058281
 20
-4.144052743682086
 30
0.0
  0
SPLINE
  5
1B4
330
193
100
AcDbEntity
  8
0
  6
Continuous
 62
     7
370
    25
100
AcDbSpline
210
0.0
220
0.0
230
1.0
 70
     8
 71
     3
 72
    14
 73
    10
 74
     0
 42
0.000000001
 43
0.00000001
 40
0.0
 40
0.0
 40
0.0
 40
0.0
 40
0.1386026828609013
 40
0.2959458154723115
 40
0.4540664136662315
 40
0.6128124570919466
 40
0.7719871611471958
 40
0.9314090356118251
 40
1.0
 40
1.0
 40
1.0
 40
1.0
 10
4.691040299321308
 20
-3.357779328985611
 30
0.0
 10
4.69842694415176
 20
-3.347104035721761
 30
0.0
 10
4.714198981047656
 20
-3.324310044255189
 30
0.0
 10
4.73363874994007
 20
-3.284193430965479
 30
0.0
 10
4.750241716176336
 20
-3.238860467565214
 30
0.0
 10
4.762666736984523
 20
-3.189698791962126
 30
0.0
 10
4.770870148692627
 20
-3.137183824910288
 30
0.0
 10
4.774212194615923
 20
-3.092330521301453
 30
0.0
 10
4.774479999017656
 20
-3.064946722901324
 30
0.0
 10
4.774560560104806
 20
-3.056709111588179
 30
0.0
  0
SPLINE
  5
1B5
330
193
100
AcDbEntity
  8
0
  6
Continuous
 62
     7
370
    25
100
AcDbSpline
210
0.0
220
0.0
230
1.0
 70
     8
 71
     3
 72
    33
 73
    29
 74
     0
 42
0.000000001
 43
0.00000001
 40
0.0
 40
0.0
 40
0.0
 40
0.0
 40
0.0214399042425221
 40
0.0620999184797493
 40
0.1027513104972211
 40
0.1433856757841358
 40
0.1840018609710571
 40
0.2246011095157091
 40
0.2651860375262093
 40
0.3057600103656947
 40
0.3463267841655406
 40
0.3868903131618636
 40
0.4274546545609713
 40
0.4680227637814537
 40
0.508598587093413
 40
0.5491862771990983
 40
0.5897899093959289
 40
0.6304133182294022
 40
0.6710597846403009
 40
0.7117314780937156
 40
0.7524285183162996
 40
0.7931474851995721
 40
0.8338787981621381
 40
0.8745968567381074
 40
0.9152677660461588
 40
0.9558442955949668
 40
0.9962707785578923
 40
1.0
 40
1.0
 40
1.0
 40
1.0
 10
4.774560560104806
 20
-3.056709111588179
 30
0.0
 10
4.774440961952901
 20
-3.046487965902606
 30
0.0
 10
4.77409455016861
 20
-3.016882781725299
 30
0.0
 10
4.770255349865476
 20
-2.966236861438932
 30
0.0
 10
4.761693043592576
 20
-2.904557334898782
 30
0.0
 10
4.748925888656155
 20
-2.841601427509785
 30
0.0
 10
4.73213043886485
 20
-2.777860490259069
 30
0.0
 10
4.711415940655743
 20
-2.713773992985052
 30
0.0
 10
4.686942043884552
 20
-2.649797362309386
 30
0.0
 10
4.658886230781226
 20
-2.586381243625894
 30
0.0
 10
4.627451261151529
 20
-2.523973631647956
 30
0.0
 10
4.59286164247716
 20
-2.463015626755737
 30
0.0
 10
4.555363104260715
 20
-2.403939353186248
 30
0.0
 10
4.515220541544756
 20
-2.347164333407481
 30
0.0
 10
4.472716044622788
 20
-2.29309447774656
 30
0.0
 10
4.428146300186681
 20
-2.242114909749326
 30
0.0
 10
4.3818206414754
 20
-2.194590008533678
 30
0.0
 10
4.334058862068042
 20
-2.150861408881379
 30
0.0
 10
4.285188972846116
 20
-2.111246120976723
 30
0.0
 10
4.235545400988745
 20
-2.076035619582854
 30
0.0
 10
4.185466889265617
 20
-2.045493199649109
 30
0.0
 10
4.135298276750115
 20
-2.01985954614315
 30
0.0
 10
4.085385415518626
 20
-1.999329683694867
 30
0.0
 10
4.036107324476256
 20
-1.984135628171849
 30
0.0
 10
3.987759180475075
 20
-1.974217335257908
 30
0.0
 10
3.940993684956105
 20
-1.970419732028247
 30
0.0
 10
3.908965982263597
 20
-1.970127975035824
 30
0.0
 10
3.893256512864963
 20
-1.972713958755099
 30
0.0
 10
3.89192975133064
 20
-1.972932361021914
 30
0.0
  0
SPLINE
  5
1B8
330
193
100
AcDbEntity
  8
0
  6
Continuous
 62
     7
370
    25
100
AcDbSpline
210
0.0
220
0.0
230
1.0
 70
     8
 71
     3
 72
    13
 73
     9
 74
     0
 42
0.000000001
 43
0.00000001
 40
0.0
 40
0.0
 40
0.0
 40
0.0
 40
0.0836720337631442
 40
0.2975354825183454
 40
0.5097182144728312
 40
0.7292135494446109
 40
0.9679270966145451
 40
1.0
 40
1.0
 40
1.0
 40
1.0
 10
3.094841163839515
 20
-4.455870784143932
 30
0.0
 10
3.094675721258817
 20
-4.458668636545664
 30
0.0
 10
3.094087411929366
 20
-4.468617723796499
 30
0.0
 10
3.099301337862403
 20
-4.485293120586849
 30
0.0
 10
3.10957217366298
 20
-4.504387928955379
 30
0.0
 10
3.125009373165073
 20
-4.521475031445404
 30
0.0
 10
3.138923210028056
 20
-4.531838944373992
 30
0.0
 10
3.147376422553263
 20
-4.536803170373068
 30
0.0
 10
3.148377650894128
 20
-4.537391150829716
 30
0.0
  0
SPLINE
  5
1B9
330
193
100
AcDbEntity
  8
0
  6
Continuous
 62
     7
370
    25
100
AcDbSpline
210
0.0
220
0.0
230
1.0
 70
     8
 71
     3
 72
    20
 73
    16
 74
     0
 42
0.000000001
 43
0.00000001
 40
0.0
 40
0.0
 40
0.0
 40
0.0
 40
0.0490843523992483
 40
0.1373062401427933
 40
0.2252168187422514
 40
0.3128039345954314
 40
0.4003886495923311
 40
0.4884691876436973
 40
0.5775972330505174
 40
0.6684028192449584
 40
0.7512592840342843
 40
0.8298288270613954
 40
0.9043465601068951
 40
0.9766709830191196
 40
1.0
 40
1.0
 40
1.0
 40
1.0
 10
3.148377650894128
 20
-4.537391150829718
 30
0.0
 10
3.152872353519476
 20
-4.539809217478632
 30
0.0
 10
3.16544562153423
 20
-4.546573402473403
 30
0.0
 10
3.188701462676328
 20
-4.554826881968248
 30
0.0
 10
3.218044032668465
 20
-4.560973515826161
 30
0.0
 10
3.248630767890738
 20
-4.563256504595447
 30
0.0
 10
3.279334588878116
 20
-4.561701069144571
 30
0.0
 10
3.309168916241429
 20
-4.556286259069523
 30
0.0
 10
3.337184348812257
 20
-4.546998399999802
 30
0.0
 10
3.361563737651167
 20
-4.534218839525092
 30
0.0
 10
3.381278275810875
 20
-4.518575773043544
 30
0.0
 10
3.395978085018852
 20
-4.500941930851342
 30
0.0
 10
3.405200808003297
 20
-4.481550633695418
 30
0.0
 10
3.409475289775745
 20
-4.465537875375896
 30
0.0
 10
3.408619445736828
 20
-4.456481499646064
 30
0.0
 10
3.408410713043689
 20
-4.454272730746351
 30
0.0
  0
LWPOLYLINE
  5
1C2
330
193
100
AcDbEntity
  8
0
  6
Continuous
 62
     7
370
    25
100
AcDbPolyline
 90
       46
 70
   128
 43
0.0
 10
0.7934072151
 20
-0.5865924425
 10
0.7910487084
 20
-0.5098414585
 10
0.7839854846
 20
-0.4307675448
 10
0.772254368
 20
-0.349782956
 10
0.7559165192
 20
-0.2673099085
 10
0.7350571162
 20
-0.1837783784
 10
0.7097849102
 20
-0.0996238605
 10
0.6802316589
 20
-0.0152850974
 10
0.6465514393
 20
0.0687982075
 10
0.6089198443
 20
0.1521876828
 10
0.5675330677
 20
0.2344485746
 10
0.522606881
 20
0.3151520124
 10
0.4743755085
 20
0.393877246
 10
0.4230904063
 20
0.4702138385
 10
0.3690189511
 20
0.5437638063
 10
0.3124430465
 20
0.6141436938
 10
0.253657653
 20
0.6809865728
 10
0.1929692505
 20
0.7439439557
 10
0.1306942402
 20
0.8026876117
 10
0.0671572951
 20
0.8569112786
 10
0.0026896676
 20
0.9063322593
 10
-0.0623725382
 20
0.9506928958
 10
-0.1276901179
 20
0.9897619122
 10
-0.1929225359
 20
1.0233356207
 10
-0.2577297007
 20
1.0512389835
 10
-0.3217737376
 20
1.0733265255
 10
-0.3847207507
 20
1.0894830925
 10
-0.4462425635
 20
1.0996244515
 10
-0.5060184296
 20
1.1036977302
 10
-0.5637367055
 20
1.1016816925
 10
-0.6190964747
 20
1.093586849
 10
-0.671809117
 20
1.0794554025
 10
-0.7215998131
 20
1.0593610279
 10
-0.7682089774
 20
1.0334084877
 10
-0.8113936113
 20
1.0017330867
 10
-0.8509285702
 20
0.9644999657
 10
-0.8866077369
 20
0.9219032409
 10
-0.9182450969
 20
0.8741649919
 10
-0.9456757077
 20
0.8215341039
 10
-0.9687565587
 20
0.7642849699
 10
-0.987367317
 20
0.7027160604
 10
-1.0014109548
 20
0.6371483672
 10
-1.0108142551
 20
0.5679237299
 10
-1.0155281934
 20
0.4954030537
 10
-1.0155281934
 20
0.4199644278
 10
-1.0130196212
 20
0.3698440349
  0
LWPOLYLINE
  5
1C3
330
193
100
AcDbEntity
  8
0
  6
Continuous
 62
     7
370
    25
100
AcDbPolyline
 90
       24
 70
   128
 43
0.0
 10
-0.1863151572
 20
-1.0622052651
 10
-0.1276901179
 20
-1.0994704533
 10
-0.0623725382
 20
-1.1358155093
 10
0.0026896676
 20
-1.1665740966
 10
0.0671572951
 20
-1.1915858543
 10
0.1306942402
 20
-1.2107203827
 10
0.1929692505
 20
-1.2238779231
 10
0.253657653
 20
-1.2309898783
 10
0.3124430465
 20
-1.2320191698
 10
0.3690189511
 20
-1.2269604314
 10
0.4230904063
 20
-1.215840037
 10
0.4743755085
 20
-1.1987159631
 10
0.522606881
 20
-1.1756774869
 10
0.5675330677
 20
-1.1468447201
 10
0.6089198443
 20
-1.1123679835
 10
0.6465514393
 20
-1.0724270229
 10
0.6802316589
 20
-1.0272300719
 10
0.7097849102
 20
-0.9770127665
 10
0.7350571162
 20
-0.9220369165
 10
0.7559165192
 20
-0.8625891405
 10
0.772254368
 20
-0.7989793716
 10
0.7839854846
 20
-0.7315392418
 10
0.7910487084
 20
-0.6606203527
 10
0.7934072151
 20
-0.5865924425
  0
LWPOLYLINE
  5
1C4
330
193
100
AcDbEntity
  8
0
  6
Continuous
 62
     7
370
    25
100
AcDbPolyline
 90
       30
 70
   128
 43
0.0
 10
0.484395984
 20
-0.4082040559
 10
0.4820647028
 20
-0.3460569921
 10
0.4750891048
 20
-0.2817046733
 10
0.4635237834
 20
-0.2156507438
 10
0.4474592529
 20
-0.1484121651
 10
0.4270212401
 20
-0.0805151703
 10
0.4023697002
 20
-0.0124911454
 10
0.3736975648
 20
0.0551275295
 10
0.3412292324
 20
0.1218116463
 10
0.3052188115
 20
0.1870393117
 10
0.2659481327
 20
0.2503000305
 10
0.2237245421
 20
0.311098702
 10
0.1788784967
 20
0.3689594941
 10
0.1317609776
 20
0.4234295676
 10
0.0827407432
 20
0.4740826203
 10
0.0322014433
 20
0.5205222235
 10
-0.0194613835
 20
0.5623849243
 10
-0.0718434056
 20
0.5993430903
 10
-0.1245346626
 20
0.6311074737
 10
-0.177122774
 20
0.6574294752
 10
-0.2291961665
 20
0.6781030894
 10
-0.2803472952
 20
0.6929665172
 10
-0.3301758332
 20
0.7019034322
 10
-0.3782918047
 20
0.7048438909
 10
-0.4243186368
 20
0.7017648802
 10
-0.4678961072
 20
0.6926904976
 10
-0.5086831632
 20
0.6776917624
 10
-0.5463605907
 20
0.6568860601
 10
-0.5806335128
 20
0.6304362234
 10
-0.6057821721
 20
0.6049372101
  0
LWPOLYLINE
  5
1C5
330
193
100
AcDbEntity
  8
0
  6
Continuous
 62
     7
370
    25
100
AcDbPolyline
 90
       13
 70
   128
 43
0.0
 10
0.2209222919
 20
-0.8271120899
 10
0.2237245421
 20
-0.8265419733
 10
0.2659481327
 20
-0.8144936218
 10
0.3052188115
 20
-0.7965738636
 10
0.3412292324
 20
-0.7729229452
 10
0.3736975648
 20
-0.743725967
 10
0.4023697002
 20
-0.7092114351
 10
0.4270212401
 20
-0.6696494723
 10
0.4474592529
 20
-0.6253497047
 10
0.4635237834
 20
-0.5766588381
 10
0.4750891048
 20
-0.5239579445
 10
0.4820647028
 20
-0.4676594798
 10
0.484395984
 20
-0.4082040559
  0
LWPOLYLINE
  5
1C6
330
193
100
AcDbEntity
  8
0
  6
Continuous
 62
     7
370
    25
100
AcDbPolyline
 90
       34
 70
   128
 43
0.0
 10
0.9047626137
 20
-0.5223083393
 10
0.9024041071
 20
-0.4455573552
 10
0.8953408832
 20
-0.3664834415
 10
0.8836097666
 20
-0.2854988527
 10
0.8672719178
 20
-0.2030258052
 10
0.8464125148
 20
-0.1194942751
 10
0.8211403089
 20
-0.0353397572
 10
0.7915870576
 20
0.0489990059
 10
0.7579068379
 20
0.1330823108
 10
0.7202752429
 20
0.2164717861
 10
0.6788884663
 20
0.2987326778
 10
0.6339622796
 20
0.3794361157
 10
0.5857309071
 20
0.4581613493
 10
0.5344458049
 20
0.5344979418
 10
0.4803743497
 20
0.6080479096
 10
0.4237984451
 20
0.678427797
 10
0.3650130516
 20
0.7452706761
 10
0.3043246491
 20
0.808228059
 10
0.2420496388
 20
0.866971715
 10
0.1785126938
 20
0.9211953819
 10
0.1140450662
 20
0.9706163626
 10
0.0489828604
 20
1.0149769991
 10
-0.0163347193
 20
1.0540460155
 10
-0.0815671373
 20
1.0876197239
 10
-0.1463743021
 20
1.1155230868
 10
-0.210418339
 20
1.1376106288
 10
-0.2733653521
 20
1.1537671958
 10
-0.3348871649
 20
1.1639085548
 10
-0.394663031
 20
1.1679818335
 10
-0.4523813069
 20
1.1659657958
 10
-0.507741076
 20
1.1578709523
 10
-0.5604537184
 20
1.1437395058
 10
-0.6102444145
 20
1.1236451312
 10
-0.6397117876
 20
1.1081333869
  0
LWPOLYLINE
  5
1C7
330
193
100
AcDbEntity
  8
0
  6
Continuous
 62
     7
370
    25
100
AcDbPolyline
 90
       12
 70
   128
 43
0.0
 10
0.6397117876
 20
-1.1081333869
 10
0.6788884663
 20
-1.0825606168
 10
0.7202752429
 20
-1.0480838802
 10
0.7579068379
 20
-1.0081429196
 10
0.7915870576
 20
-0.9629459686
 10
0.8211403089
 20
-0.9127286632
 10
0.8464125148
 20
-0.8577528132
 10
0.8672719178
 20
-0.7983050372
 10
0.8836097666
 20
-0.7346952683
 10
0.8953408832
 20
-0.6672551386
 10
0.9024041071
 20
-0.5963362494
 10
0.9047626137
 20
-0.5223083393
  0
LWPOLYLINE
  5
1C9
330
193
100
AcDbEntity
  8
0
  6
Continuous
 62
     7
370
    25
100
AcDbPolyline
 90
        3
 70
   128
 43
0.0
 10
0.3322776905
 20
-0.7628279866
 10
0.3350799407
 20
-0.76225787
 10
0.3618531547
 20
-0.7554050715
  0
LWPOLYLINE
  5
1CA
330
193
100
AcDbEntity
  8
0
  6
Continuous
 62
     7
370
    25
100
AcDbPolyline
 90
       34
 70
   128
 43
0.0
 10
3.131870586
 20
-1.8079904051
 10
3.1295120793
 20
-1.7312394211
 10
3.1224488555
 20
-1.6521655073
 10
3.1107177388
 20
-1.5711809186
 10
3.09437989
 20
-1.4887078711
 10
3.073520487
 20
-1.405176341
 10
3.0482482811
 20
-1.3210218231
 10
3.0186950298
 20
-1.23668306
 10
2.9850148101
 20
-1.1525997551
 10
2.9473832151
 20
-1.0692102797
 10
2.9059964385
 20
-0.986949388
 10
2.8610702518
 20
-0.9062459502
 10
2.8128388793
 20
-0.8275207165
 10
2.7615537771
 20
-0.751184124
 10
2.7074823219
 20
-0.6776341563
 10
2.6509064173
 20
-0.6072542688
 10
2.5921210239
 20
-0.5404113897
 10
2.5314326214
 20
-0.4774540069
 10
2.4691576111
 20
-0.4187103509
 10
2.405620666
 20
-0.364486684
 10
2.3411530384
 20
-0.3150657032
 10
2.2760908327
 20
-0.2707050668
 10
2.210773253
 20
-0.2316360504
 10
2.1455408349
 20
-0.1980623419
 10
2.0807336702
 20
-0.1701589791
 10
2.0166896333
 20
-0.148071437
 10
1.9537426201
 20
-0.1319148701
 10
1.8922208074
 20
-0.1217735111
 10
1.8324449412
 20
-0.1177002323
 10
1.7747266654
 20
-0.11971627
 10
1.7193668962
 20
-0.1278111135
 10
1.6666542539
 20
-0.14194256
 10
1.6168635577
 20
-0.1620369347
 10
1.5873961846
 20
-0.177548679
  0
LWPOLYLINE
  5
1CB
330
193
100
AcDbEntity
  8
0
  6
Continuous
 62
     7
370
    25
100
AcDbPolyline
 90
       12
 70
   128
 43
0.0
 10
2.8668197599
 20
-2.3938154528
 10
2.9059964385
 20
-2.3682426827
 10
2.9473832151
 20
-2.3337659461
 10
2.9850148101
 20
-2.2938249855
 10
3.0186950298
 20
-2.2486280345
 10
3.0482482811
 20
-2.1984107291
 10
3.073520487
 20
-2.143434879
 10
3.09437989
 20
-2.083987103
 10
3.1107177388
 20
-2.0203773342
 10
3.1224488555
 20
-1.9529372044
 10
3.1295120793
 20
-1.8820183153
 10
3.131870586
 20
-1.8079904051
  0
LWPOLYLINE
  5
1CC
330
193
100
AcDbEntity
  8
0
  6
Continuous
 62
     7
370
    25
100
AcDbPolyline
 90
       46
 70
   128
 43
0.0
 10
3.0205151874
 20
-1.8722745084
 10
3.0181566807
 20
-1.7955235244
 10
3.0110934569
 20
-1.7164496106
 10
2.9993623402
 20
-1.6354650219
 10
2.9830244914
 20
-1.5529919743
 10
2.9621650884
 20
-1.4694604443
 10
2.9368928825
 20
-1.3853059263
 10
2.9073396312
 20
-1.3009671633
 10
2.8736594115
 20
-1.2168838584
 10
2.8360278165
 20
-1.133494383
 10
2.7946410399
 20
-1.0512334913
 10
2.7497148532
 20
-0.9705300535
 10
2.7014834807
 20
-0.8918048198
 10
2.6501983785
 20
-0.8154682273
 10
2.5961269233
 20
-0.7419182596
 10
2.5395510187
 20
-0.6715383721
 10
2.4807656253
 20
-0.604695493
 10
2.4200772228
 20
-0.5417381102
 10
2.3578022124
 20
-0.4829944542
 10
2.2942652674
 20
-0.4287707873
 10
2.2297976398
 20
-0.3793498065
 10
2.1647354341
 20
-0.3349891701
 10
2.0994178544
 20
-0.2959201537
 10
2.0341854363
 20
-0.2623464452
 10
1.9693782716
 20
-0.2344430824
 10
1.9053342347
 20
-0.2123555403
 10
1.8423872215
 20
-0.1961989734
 10
1.7808654088
 20
-0.1860576144
 10
1.7210895426
 20
-0.1819843356
 10
1.6633712668
 20
-0.1840003733
 10
1.6080114976
 20
-0.1920952168
 10
1.5552988553
 20
-0.2062266633
 10
1.5055081591
 20
-0.226321038
 10
1.4588989948
 20
-0.2522735781
 10
1.4157143609
 20
-0.2839489791
 10
1.3761794021
 20
-0.3211821002
 10
1.3405002353
 20
-0.363778825
 10
1.3088628753
 20
-0.411517074
 10
1.2814322646
 20
-0.464147962
 10
1.2583514136
 20
-0.521397096
 10
1.2397406552
 20
-0.5829660055
 10
1.2256970174
 20
-0.6485336987
 10
1.2162937171
 20
-0.717758336
 10
1.2115797788
 20
-0.7902790122
 10
1.2115797788
 20
-0.8657176381
 10
1.2140883511
 20
-0.915838031
  0
LWPOLYLINE
  5
1CD
330
193
100
AcDbEntity
  8
0
  6
Continuous
 62
     7
370
    25
100
AcDbPolyline
 90
       24
 70
   128
 43
0.0
 10
2.0407928151
 20
-2.347887331
 10
2.0994178544
 20
-2.3851525192
 10
2.1647354341
 20
-2.4214975751
 10
2.2297976398
 20
-2.4522561625
 10
2.2942652674
 20
-2.4772679202
 10
2.3578022124
 20
-2.4964024485
 10
2.4200772228
 20
-2.509559989
 10
2.4807656253
 20
-2.5166719442
 10
2.5395510187
 20
-2.5177012357
 10
2.5961269233
 20
-2.5126424973
 10
2.6501983785
 20
-2.5015221029
 10
2.7014834807
 20
-2.484398029
 10
2.7497148532
 20
-2.4613595527
 10
2.7946410399
 20
-2.4325267859
 10
2.8360278165
 20
-2.3980500494
 10
2.8736594115
 20
-2.3581090888
 10
2.9073396312
 20
-2.3129121378
 10
2.9368928825
 20
-2.2626948324
 10
2.9621650884
 20
-2.2077189823
 10
2.9830244914
 20
-2.1482712063
 10
2.9993623402
 20
-2.0846614375
 10
3.0110934569
 20
-2.0172213077
 10
3.0181566807
 20
-1.9463024186
 10
3.0205151874
 20
-1.8722745084
  0
LWPOLYLINE
  5
1CE
330
193
100
AcDbEntity
  8
0
  6
Continuous
 62
     7
370
    25
100
AcDbPolyline
 90
       30
 70
   128
 43
0.0
 10
2.7115039562
 20
-1.6938861218
 10
2.709172675
 20
-1.6317390579
 10
2.702197077
 20
-1.5673867392
 10
2.6906317556
 20
-1.5013328097
 10
2.6745672251
 20
-1.434094231
 10
2.6541292124
 20
-1.3661972362
 10
2.6294776724
 20
-1.2981732112
 10
2.6008055371
 20
-1.2305545364
 10
2.5683372046
 20
-1.1638704195
 10
2.5323267838
 20
-1.0986427542
 10
2.4930561049
 20
-1.0353820353
 10
2.4508325144
 20
-0.9745833639
 10
2.405986469
 20
-0.9167225718
 10
2.3588689498
 20
-0.8622524983
 10
2.3098487154
 20
-0.8115994455
 10
2.2593094155
 20
-0.7651598423
 10
2.2076465887
 20
-0.7232971415
 10
2.1552645666
 20
-0.6863389756
 10
2.1025733096
 20
-0.6545745922
 10
2.0499851982
 20
-0.6282525907
 10
1.9979118057
 20
-0.6075789765
 10
1.946760677
 20
-0.5927155487
 10
1.896932139
 20
-0.5837786337
 10
1.8488161676
 20
-0.580838175
 10
1.8027893355
 20
-0.5839171856
 10
1.759211865
 20
-0.5929915682
 10
1.718424809
 20
-0.6079903034
 10
1.6807473815
 20
-0.6287960058
 10
1.6464744595
 20
-0.6552458425
 10
1.6213258001
 20
-0.6807448557
  0
LWPOLYLINE
  5
1CF
330
193
100
AcDbEntity
  8
0
  6
Continuous
 62
     7
370
    25
100
AcDbPolyline
 90
       13
 70
   128
 43
0.0
 10
2.4480302641
 20
-2.1127941557
 10
2.4508325144
 20
-2.1122240392
 10
2.4930561049
 20
-2.1001756877
 10
2.5323267838
 20
-2.0822559295
 10
2.5683372046
 20
-2.0586050111
 10
2.6008055371
 20
-2.0294080329
 10
2.6294776724
 20
-1.9948935009
 10
2.6541292124
 20
-1.9553315382
 10
2.6745672251
 20
-1.9110317706
 10
2.6906317556
 20
-1.862340904
 10
2.702197077
 20
-1.8096400104
 10
2.709172675
 20
-1.7533415457
 10
2.7115039562
 20
-1.6938861218
  0
LWPOLYLINE
  5
1D1
330
193
100
AcDbEntity
  8
0
  6
Continuous
 62
     7
370
    25
100
AcDbPolyline
 90
        3
 70
   128
 43
0.0
 10
2.5593856627
 20
-2.0485100524
 10
2.562187913
 20
-2.0479399359
 10
2.5889611269
 20
-2.0410871374
  0
LWPOLYLINE
  5
1D2
330
193
100
AcDbEntity
  8
0
  6
Continuous
 62
     7
370
    25
100
AcDbPolyline
 90
       69
 70
   128
 43
0.0
 10
1.2750193141
 20
-2.478152182
 10
1.2726442016
 20
-2.4174575302
 10
1.2655391277
 20
-2.3545384574
 10
1.2537647105
 20
-2.2899317667
 10
1.237421405
 20
-2.2241886597
 10
1.2166486467
 20
-2.1578700335
 10
1.1916236613
 20
-2.091541695
 10
1.1625599533
 20
-2.0257695345
 10
1.1297054838
 20
-1.9611146966
 10
1.0933405558
 20
-1.8981287938
 10
1.0537754218
 20
-1.8373491995
 10
1.0113476377
 20
-1.7792944637
 10
0.9664191825
 20
-1.7244598891
 10
0.9193733697
 20
-1.6733133049
 10
0.8706115778
 20
-1.6262910757
 10
0.8205498251
 20
-1.5837943785
 10
0.7696152208
 20
-1.5461857803
 10
0.718242321
 20
-1.5137861443
 10
0.6668694213
 20
-1.4868718928
 10
0.615934817
 20
-1.4656726487
 10
0.5658730643
 20
-1.4503692765
 10
0.5171112724
 20
-1.4410923391
 10
0.4700654596
 20
-1.4379209841
 10
0.4251370044
 20
-1.4408822684
 10
0.3827092203
 20
-1.4499509273
 10
0.3431440863
 20
-1.4650495903
 10
0.3067791583
 20
-1.4860494409
 10
0.2739246888
 20
-1.5127713158
 10
0.2448609808
 20
-1.5449872333
 10
0.2198359954
 20
-1.5824223386
 10
0.199063237
 20
-1.6247572486
 10
0.1827199316
 20
-1.6716307767
 10
0.1709455143
 20
-1.7226430146
 10
0.1638404405
 20
-1.7773587438
 10
0.161465328
 20
-1.835311149
 10
0.1638404405
 20
-1.8960058007
 10
0.1709455143
 20
-1.9589248736
 10
0.1827199316
 20
-2.0235315643
 10
0.199063237
 20
-2.0892746713
 10
0.2198359954
 20
-2.1555932975
 10
0.2448609808
 20
-2.2219216359
 10
0.2739246888
 20
-2.2876937965
 10
0.3067791583
 20
-2.3523486344
 10
0.3431440863
 20
-2.4153345372
 10
0.3827092203
 20
-2.4761141315
 10
0.4251370044
 20
-2.5341688672
 10
0.4700654596
 20
-2.5890034419
 10
0.5171112724
 20
-2.6401500261
 10
0.5658730643
 20
-2.6871722553
 10
0.615934817
 20
-2.7296689524
 10
0.6668694213
 20
-2.7672775507
 10
0.718242321
 20
-2.7996771867
 10
0.7696152208
 20
-2.8265914382
 10
0.8205498251
 20
-2.8477906823
 10
0.8706115778
 20
-2.8630940545
 10
0.9193733697
 20
-2.8723709919
 10
0.9664191825
 20
-2.8755423469
 10
1.0113476377
 20
-2.8725810626
 10
1.0537754218
 20
-2.8635124036
 10
1.0933405558
 20
-2.8484137406
 10
1.1297054838
 20
-2.82741389
 10
1.1625599533
 20
-2.8006920152
 10
1.1916236613
 20
-2.7684760977
 10
1.2166486467
 20
-2.7310409924
 10
1.237421405
 20
-2.6887060824
 10
1.2537647105
 20
-2.6418325542
 10
1.2655391277
 20
-2.5908203164
 10
1.2726442016
 20
-2.5361045872
 10
1.2750193141
 20
-2.478152182
  0
SPLINE
  5
1D4
330
193
100
AcDbEntity
  8
0
  6
Continuous
 62
     7
370
    25
100
AcDbSpline
210
0.0
220
0.0
230
1.0
 70
     8
 71
     3
 72
    19
 73
    15
 74
     0
 42
0.000000001
 43
0.00000001
 40
0.0
 40
0.0
 40
0.0
 40
0.0
 40
0.057986294687467
 40
0.1516187057098381
 40
0.2453581118281392
 40
0.3376683840805284
 40
0.4292467905350601
 40
0.5218634109734132
 40
0.6157414463550017
 40
0.709137121204644
 40
0.80100497201472
 40
0.8927046388823137
 40
0.9858299246960256
 40
0.9999999999999999
 40
0.9999999999999999
 40
0.9999999999999999
 40
0.9999999999999999
 10
1.137363935784922
 20
-1.140963301663252
 30
0.0
 10
1.134799913858987
 20
-1.146362595706564
 30
0.0
 10
1.128095679903063
 20
-1.160480310573605
 30
0.0
 10
1.137193187402305
 20
-1.183787798513585
 30
0.0
 10
1.162099308613396
 20
-1.208753917827
 30
0.0
 10
1.20176749499884
 20
-1.230020302249837
 30
0.0
 10
1.25054348131874
 20
-1.245153084220474
 30
0.0
 10
1.303728482475856
 20
-1.251797706429146
 30
0.0
 10
1.355729068629562
 20
-1.247659844212782
 30
0.0
 10
1.400121179746387
 20
-1.231802564094169
 30
0.0
 10
1.432185731034834
 20
-1.205614374243755
 30
0.0
 10
1.446852005446327
 20
-1.173113233091362
 30
0.0
 10
1.449168539483236
 20
-1.147000251575385
 30
0.0
 10
1.441523228201552
 20
-1.135017474554391
 30
0.0
 10
1.440513542084134
 20
-1.133434956438329
 30
0.0
  0
LWPOLYLINE
  5
1D7
330
193
100
AcDbEntity
  8
0
  6
Continuous
 62
     7
370
    25
100
AcDbPolyline
 90
       29
 70
   128
 43
0.0
 10
1.385398753
 20
-0.9355579433
 10
1.3615159267
 20
-0.9245629686
 10
1.333993777
 20
-0.9169116153
 10
1.3042123797
 20
-0.9129875543
 10
1.2736650982
 20
-0.9129875543
 10
1.2438837008
 20
-0.9169116153
 10
1.2163615512
 20
-0.9245629686
 10
1.1924787248
 20
-0.9355579433
 10
1.1734328063
 20
-0.9493452055
 10
1.1601788376
 20
-0.9652334043
 10
1.153381428
 20
-0.982425839
 10
1.153381428
 20
-1.0000604093
 10
1.1601788376
 20
-1.017252844
 10
1.1734328063
 20
-1.0331410428
 10
1.1924787248
 20
-1.046928305
 10
1.2163615512
 20
-1.0579232797
 10
1.2438837008
 20
-1.065574633
 10
1.2736650982
 20
-1.069498694
 10
1.3042123797
 20
-1.069498694
 10
1.333993777
 20
-1.065574633
 10
1.3615159267
 20
-1.0579232797
 10
1.385398753
 20
-1.046928305
 10
1.4044446715
 20
-1.0331410428
 10
1.4176986402
 20
-1.017252844
 10
1.4244960499
 20
-1.0000604093
 10
1.4244960499
 20
-0.982425839
 10
1.4176986402
 20
-0.9652334043
 10
1.4044446715
 20
-0.9493452055
 10
1.385398753
 20
-0.9355579433
  0
LWPOLYLINE
  5
1D9
330
193
100
AcDbEntity
  8
0
  6
Continuous
 62
     7
370
    25
100
AcDbPolyline
 90
       69
 70
   128
 43
0.0
 10
-0.9520886581
 20
-1.1924701161
 10
-0.9544637706
 20
-1.1317754644
 10
-0.9615688445
 20
-1.0688563915
 10
-0.9733432617
 20
-1.0042497008
 10
-0.9896865672
 20
-0.9385065939
 10
-1.0104593255
 20
-0.8721879676
 10
-1.0354843109
 20
-0.8058596292
 10
-1.064548019
 20
-0.7400874686
 10
-1.0974024884
 20
-0.6754326308
 10
-1.1337674165
 20
-0.6124467279
 10
-1.1733325504
 20
-0.5516671336
 10
-1.2157603345
 20
-0.4936123979
 10
-1.2606887898
 20
-0.4387778233
 10
-1.3077346025
 20
-0.387631239
 10
-1.3564963945
 20
-0.3406090098
 10
-1.4065581472
 20
-0.2981123127
 10
-1.4574927515
 20
-0.2605037144
 10
-1.5088656512
 20
-0.2281040785
 10
-1.5602385509
 20
-0.2011898269
 10
-1.6111731552
 20
-0.1799905828
 10
-1.6612349079
 20
-0.1646872106
 10
-1.7099966999
 20
-0.1554102732
 10
-1.7570425126
 20
-0.1522389182
 10
-1.8019709679
 20
-0.1552002025
 10
-1.844398752
 20
-0.1642688615
 10
-1.8839638859
 20
-0.1793675245
 10
-1.920328814
 20
-0.2003673751
 10
-1.9531832834
 20
-0.2270892499
 10
-1.9822469915
 20
-0.2593051674
 10
-2.0072719769
 20
-0.2967402727
 10
-2.0280447352
 20
-0.3390751827
 10
-2.0443880406
 20
-0.3859487109
 10
-2.0561624579
 20
-0.4369609488
 10
-2.0632675318
 20
-0.491676678
 10
-2.0656426443
 20
-0.5496290832
 10
-2.0632675318
 20
-0.6103237349
 10
-2.0561624579
 20
-0.6732428077
 10
-2.0443880406
 20
-0.7378494984
 10
-2.0280447352
 20
-0.8035926054
 10
-2.0072719769
 20
-0.8699112317
 10
-1.9822469915
 20
-0.9362395701
 10
-1.9531832834
 20
-1.0020117306
 10
-1.920328814
 20
-1.0666665685
 10
-1.8839638859
 20
-1.1296524713
 10
-1.844398752
 20
-1.1904320657
 10
-1.8019709679
 20
-1.2484868014
 10
-1.7570425126
 20
-1.303321376
 10
-1.7099966999
 20
-1.3544679602
 10
-1.6612349079
 20
-1.4014901894
 10
-1.6111731552
 20
-1.4439868866
 10
-1.5602385509
 20
-1.4815954848
 10
-1.5088656512
 20
-1.5139951208
 10
-1.4574927515
 20
-1.5409093723
 10
-1.4065581472
 20
-1.5621086164
 10
-1.3564963945
 20
-1.5774119887
 10
-1.3077346025
 20
-1.586688926
 10
-1.2606887898
 20
-1.589860281
 10
-1.2157603345
 20
-1.5868989967
 10
-1.1733325504
 20
-1.5778303378
 10
-1.1337674165
 20
-1.5627316748
 10
-1.0974024884
 20
-1.5417318242
 10
-1.064548019
 20
-1.5150099493
 10
-1.0354843109
 20
-1.4827940318
 10
-1.0104593255
 20
-1.4453589265
 10
-0.9896865672
 20
-1.4030240165
 10
-0.9733432617
 20
-1.3561504884
 10
-0.9615688445
 20
-1.3051382505
 10
-0.9544637706
 20
-1.2504225213
 10
-0.9520886581
 20
-1.1924701161
  0
LWPOLYLINE
  5
1DD
330
193
100
AcDbEntity
  8
0
  6
Continuous
 62
     7
370
    25
100
AcDbPolyline
 90
       69
 70
   128
 43
0.0
 10
3.5021272863
 20
-3.7638342478
 10
3.4997521739
 20
-3.7031395961
 10
3.4926471
 20
-3.6402205232
 10
3.4808726827
 20
-3.5756138325
 10
3.4645293773
 20
-3.5098707256
 10
3.4437566189
 20
-3.4435520993
 10
3.4187316336
 20
-3.3772237609
 10
3.3896679255
 20
-3.3114516003
 10
3.3568134561
 20
-3.2467967625
 10
3.320448528
 20
-3.1838108596
 10
3.280883394
 20
-3.1230312653
 10
3.23845561
 20
-3.0649765296
 10
3.1935271547
 20
-3.010141955
 10
3.146481342
 20
-2.9589953708
 10
3.09771955
 20
-2.9119731415
 10
3.0476577973
 20
-2.8694764444
 10
2.996723193
 20
-2.8318678462
 10
2.9453502933
 20
-2.7994682102
 10
2.8939773936
 20
-2.7725539587
 10
2.8430427893
 20
-2.7513547146
 10
2.7929810366
 20
-2.7360513423
 10
2.7442192446
 20
-2.7267744049
 10
2.6971734319
 20
-2.7236030499
 10
2.6522449766
 20
-2.7265643342
 10
2.6098171925
 20
-2.7356329932
 10
2.5702520586
 20
-2.7507316562
 10
2.5338871305
 20
-2.7717315068
 10
2.5010326611
 20
-2.7984533816
 10
2.471968953
 20
-2.8306692992
 10
2.4469439676
 20
-2.8681044045
 10
2.4261712093
 20
-2.9104393144
 10
2.4098279038
 20
-2.9573128426
 10
2.3980534866
 20
-3.0083250805
 10
2.3909484127
 20
-3.0630408097
 10
2.3885733002
 20
-3.1209932149
 10
2.3909484127
 20
-3.1816878666
 10
2.3980534866
 20
-3.2446069395
 10
2.4098279038
 20
-3.3092136301
 10
2.4261712093
 20
-3.3749567371
 10
2.4469439676
 20
-3.4412753634
 10
2.471968953
 20
-3.5076037018
 10
2.5010326611
 20
-3.5733758624
 10
2.5338871305
 20
-3.6380307002
 10
2.5702520586
 20
-3.7010166031
 10
2.6098171925
 20
-3.7617961974
 10
2.6522449766
 20
-3.8198509331
 10
2.6971734319
 20
-3.8746855077
 10
2.7442192446
 20
-3.9258320919
 10
2.7929810366
 20
-3.9728543212
 10
2.8430427893
 20
-4.0153510183
 10
2.8939773936
 20
-4.0529596165
 10
2.9453502933
 20
-4.0853592525
 10
2.996723193
 20
-4.112273504
 10
3.0476577973
 20
-4.1334727481
 10
3.09771955
 20
-4.1487761204
 10
3.146481342
 20
-4.1580530578
 10
3.1935271547
 20
-4.1612244128
 10
3.23845561
 20
-4.1582631285
 10
3.280883394
 20
-4.1491944695
 10
3.320448528
 20
-4.1340958065
 10
3.3568134561
 20
-4.1130959559
 10
3.3896679255
 20
-4.086374081
 10
3.4187316336
 20
-4.0541581635
 10
3.4437566189
 20
-4.0167230582
 10
3.4645293773
 20
-3.9743881482
 10
3.4808726827
 20
-3.9275146201
 10
3.4926471
 20
-3.8765023822
 10
3.4997521739
 20
-3.821786653
 10
3.5021272863
 20
-3.7638342478
  0
LWPOLYLINE
  5
1E1
330
193
100
AcDbEntity
  8
0
  6
Continuous
 62
     7
370
    25
100
AcDbPolyline
 90
       46
 70
   128
 43
0.0
 10
5.2476231596
 20
-3.1579565743
 10
5.2452646529
 20
-3.0812055903
 10
5.2382014291
 20
-3.0021316765
 10
5.2264703125
 20
-2.9211470878
 10
5.2101324637
 20
-2.8386740402
 10
5.1892730607
 20
-2.7551425101
 10
5.1640008547
 20
-2.6709879922
 10
5.1344476034
 20
-2.5866492292
 10
5.1007673838
 20
-2.5025659243
 10
5.0631357888
 20
-2.4191764489
 10
5.0217490122
 20
-2.3369155572
 10
4.9768228255
 20
-2.2562121193
 10
4.928591453
 20
-2.1774868857
 10
4.8773063508
 20
-2.1011502932
 10
4.8232348956
 20
-2.0276003255
 10
4.766658991
 20
-1.957220438
 10
4.7078735975
 20
-1.8903775589
 10
4.647185195
 20
-1.827420176
 10
4.5849101847
 20
-1.76867652
 10
4.5213732396
 20
-1.7144528531
 10
4.4569056121
 20
-1.6650318724
 10
4.3918434063
 20
-1.6206712359
 10
4.3265258266
 20
-1.5816022196
 10
4.2612934086
 20
-1.5480285111
 10
4.1964862438
 20
-1.5201251482
 10
4.1324422069
 20
-1.4980376062
 10
4.0694951938
 20
-1.4818810393
 10
4.007973381
 20
-1.4717396802
 10
3.9481975149
 20
-1.4676664015
 10
3.890479239
 20
-1.4696824392
 10
3.8351194698
 20
-1.4777772827
 10
3.7824068275
 20
-1.4919087292
 10
3.7326161314
 20
-1.5120031039
 10
3.686006967
 20
-1.537955644
 10
3.6428223331
 20
-1.569631045
 10
3.6032873743
 20
-1.606864166
 10
3.5676082076
 20
-1.6494608908
 10
3.5359708475
 20
-1.6971991398
 10
3.5085402368
 20
-1.7498300278
 10
3.4854593858
 20
-1.8070791618
 10
3.4668486275
 20
-1.8686480713
 10
3.4528049896
 20
-1.9342157645
 10
3.4434016894
 20
-2.0034404018
 10
3.4386877511
 20
-2.075961078
 10
3.4386877511
 20
-2.1513997039
 10
3.4411963233
 20
-2.2015200968
  0
LWPOLYLINE
  5
1E2
330
193
100
AcDbEntity
  8
0
  6
Continuous
 62
     7
370
    25
100
AcDbPolyline
 90
       24
 70
   128
 43
0.0
 10
4.2679007873
 20
-3.6335693968
 10
4.3265258266
 20
-3.6708345851
 10
4.3918434063
 20
-3.707179641
 10
4.4569056121
 20
-3.7379382283
 10
4.5213732396
 20
-3.762949986
 10
4.5849101847
 20
-3.7820845144
 10
4.647185195
 20
-3.7952420549
 10
4.7078735975
 20
-3.8023540101
 10
4.766658991
 20
-3.8033833016
 10
4.8232348956
 20
-3.7983245632
 10
4.8773063508
 20
-3.7872041687
 10
4.928591453
 20
-3.7700800949
 10
4.9768228255
 20
-3.7470416186
 10
5.0217490122
 20
-3.7182088518
 10
5.0631357888
 20
-3.6837321152
 10
5.1007673838
 20
-3.6437911546
 10
5.1344476034
 20
-3.5985942036
 10
5.1640008547
 20
-3.5483768982
 10
5.1892730607
 20
-3.4934010482
 10
5.2101324637
 20
-3.4339532722
 10
5.2264703125
 20
-3.3703435033
 10
5.2382014291
 20
-3.3029033736
 10
5.2452646529
 20
-3.2319844845
 10
5.2476231596
 20
-3.1579565743
  0
LWPOLYLINE
  5
1E3
330
193
100
AcDbEntity
  8
0
  6
Continuous
 62
     7
370
    25
100
AcDbPolyline
 90
       30
 70
   128
 43
0.0
 10
4.9386119284
 20
-2.9795681876
 10
4.9362806473
 20
-2.9174211238
 10
4.9293050492
 20
-2.853068805
 10
4.9177397278
 20
-2.7870148756
 10
4.9016751974
 20
-2.7197762969
 10
4.8812371846
 20
-2.651879302
 10
4.8565856447
 20
-2.5838552771
 10
4.8279135093
 20
-2.5162366023
 10
4.7954451768
 20
-2.4495524854
 10
4.759434756
 20
-2.38432482
 10
4.7201640772
 20
-2.3210641012
 10
4.6779404866
 20
-2.2602654297
 10
4.6330944412
 20
-2.2024046377
 10
4.5859769221
 20
-2.1479345642
 10
4.5369566877
 20
-2.0972815114
 10
4.4864173878
 20
-2.0508419082
 10
4.4347545609
 20
-2.0089792074
 10
4.3823725389
 20
-1.9720210414
 10
4.3296812819
 20
-1.940256658
 10
4.2770931705
 20
-1.9139346566
 10
4.225019778
 20
-1.8932610424
 10
4.1738686492
 20
-1.8783976145
 10
4.1240401112
 20
-1.8694606995
 10
4.0759241398
 20
-1.8665202408
 10
4.0298973077
 20
-1.8695992515
 10
3.9863198373
 20
-1.8786736341
 10
3.9455327813
 20
-1.8936723693
 10
3.9078553538
 20
-1.9144780717
 10
3.8735824317
 20
-1.9409279084
 10
3.8484337724
 20
-1.9664269216
  0
LWPOLYLINE
  5
1E4
330
193
100
AcDbEntity
  8
0
  6
Continuous
 62
     7
370
    25
100
AcDbPolyline
 90
       13
 70
   128
 43
0.0
 10
4.6751382364
 20
-3.3984762216
 10
4.6779404866
 20
-3.397906105
 10
4.7201640772
 20
-3.3858577535
 10
4.759434756
 20
-3.3679379953
 10
4.7954451768
 20
-3.3442870769
 10
4.8279135093
 20
-3.3150900988
 10
4.8565856447
 20
-3.2805755668
 10
4.8812371846
 20
-3.241013604
 10
4.9016751974
 20
-3.1967138365
 10
4.9177397278
 20
-3.1480229698
 10
4.9293050492
 20
-3.0953220762
 10
4.9362806473
 20
-3.0390236116
 10
4.9386119284
 20
-2.9795681876
  0
LWPOLYLINE
  5
1E5
330
193
100
AcDbEntity
  8
0
  6
Continuous
 62
     7
370
    25
100
AcDbPolyline
 90
       34
 70
   128
 43
0.0
 10
5.3589785582
 20
-3.093672471
 10
5.3566200515
 20
-3.016921487
 10
5.3495568277
 20
-2.9378475732
 10
5.3378257111
 20
-2.8568629845
 10
5.3214878623
 20
-2.7743899369
 10
5.3006284593
 20
-2.6908584068
 10
5.2753562533
 20
-2.6067038889
 10
5.245803002
 20
-2.5223651259
 10
5.2121227824
 20
-2.438281821
 10
5.1744911874
 20
-2.3548923456
 10
5.1331044108
 20
-2.2726314539
 10
5.0881782241
 20
-2.191928016
 10
5.0399468516
 20
-2.1132027824
 10
4.9886617494
 20
-2.0368661899
 10
4.9345902942
 20
-1.9633162222
 10
4.8780143896
 20
-1.8929363347
 10
4.8192289961
 20
-1.8260934556
 10
4.7585405936
 20
-1.7631360727
 10
4.6962655833
 20
-1.7043924167
 10
4.6327286382
 20
-1.6501687498
 10
4.5682610107
 20
-1.6007477691
 10
4.5031988049
 20
-1.5563871326
 10
4.4378812252
 20
-1.5173181163
 10
4.3726488072
 20
-1.4837444078
 10
4.3078416424
 20
-1.4558410449
 10
4.2437976055
 20
-1.4337535029
 10
4.1808505924
 20
-1.417596936
 10
4.1193287796
 20
-1.4074555769
 10
4.0595529135
 20
-1.4033822982
 10
4.0018346376
 20
-1.4053983359
 10
3.9464748684
 20
-1.4134931794
 10
3.8937622261
 20
-1.4276246259
 10
3.84397153
 20
-1.4477190006
 10
3.8145041569
 20
-1.4632307448
  0
LWPOLYLINE
  5
1E6
330
193
100
AcDbEntity
  8
0
  6
Continuous
 62
     7
370
    25
100
AcDbPolyline
 90
       12
 70
   128
 43
0.0
 10
5.0939277321
 20
-3.6794975186
 10
5.1331044108
 20
-3.6539247485
 10
5.1744911874
 20
-3.6194480119
 10
5.2121227824
 20
-3.5795070513
 10
5.245803002
 20
-3.5343101003
 10
5.2753562533
 20
-3.4840927949
 10
5.3006284593
 20
-3.4291169449
 10
5.3214878623
 20
-3.3696691689
 10
5.3378257111
 20
-3.3060594001
 10
5.3495568277
 20
-3.2386192703
 10
5.3566200515
 20
-3.1677003812
 10
5.3589785582
 20
-3.093672471
  0
LWPOLYLINE
  5
1E8
330
193
100
AcDbEntity
  8
0
  6
Continuous
 62
     7
370
    25
100
AcDbPolyline
 90
        3
 70
   128
 43
0.0
 10
4.786493635
 20
-3.3341921183
 10
4.7892958852
 20
-3.3336220017
 10
4.8160690991
 20
-3.3267692032
  0
LWPOLYLINE
  5
1E9
330
193
100
AcDbEntity
  8
0
  6
Continuous
 62
     7
370
    25
100
AcDbPolyline
 90
       24
 70
   128
 43
0.0
 10
0.881678979
 20
-0.2744843012
 10
0.8821426995
 20
-0.271723678
 10
0.8888316191
 20
-0.2155037365
 10
0.8908297517
 20
-0.1561253468
 10
0.8881210094
 20
-0.0940665885
 10
0.8807272015
 20
-0.0298271225
 10
0.8687078585
 20
0.036075833
 10
0.8521597532
 20
0.103111666
 10
0.8312161212
 20
0.1707406434
 10
0.8060455882
 20
0.2384182566
 10
0.7768508127
 20
0.3055996051
 10
0.7438668537
 20
0.3717437842
 10
0.7073592787
 20
0.4363182399
 10
0.6676220252
 20
0.4988030566
 10
0.6249750343
 20
0.5586951434
 10
0.5797616745
 20
0.6155122843
 10
0.532345977
 20
0.6687970212
 10
0.4831097053
 20
0.7181203366
 10
0.4324492809
 20
0.7630851084
 10
0.3807725917
 20
0.8033293064
 10
0.3284957079
 20
0.8385289082
 10
0.2760395324
 20
0.8684005072
 10
0.2238264115
 20
0.892703595
 10
0.2032136402
 20
0.9007794792
  0
LWPOLYLINE
  5
1EA
330
193
100
AcDbEntity
  8
0
  6
Continuous
 62
     7
370
    25
100
AcDbPolyline
 90
       38
 70
   128
 43
0.0
 10
0.1529441704
 20
-0.8660898504
 10
0.1563121945
 20
-0.8642948645
 10
0.1923056267
 20
-0.8410067015
 10
0.2247334486
 20
-0.8121117971
 10
0.2533345705
 20
-0.7778427961
 10
0.277878713
 20
-0.7384756123
 10
0.298168261
 20
-0.6943272072
 10
0.3140398551
 20
-0.6457530377
 10
0.3253657065
 20
-0.5931441945
 10
0.3320546261
 20
-0.536924253
 10
0.3340527586
 20
-0.4775458632
 10
0.3313440163
 20
-0.415487105
 10
0.3239502084
 20
-0.3512476389
 10
0.3119308655
 20
-0.2853446835
 10
0.2953827602
 20
-0.2183088505
 10
0.2744391281
 20
-0.150679873
 10
0.2492685952
 20
-0.0830022599
 10
0.2200738196
 20
-0.0158209114
 10
0.1870898606
 20
0.0503232677
 10
0.1505822856
 20
0.1148977234
 10
0.1108450322
 20
0.1773825401
 10
0.0681980413
 20
0.2372746269
 10
0.0229846814
 20
0.2940917678
 10
-0.024431016
 20
0.3473765047
 10
-0.0736672877
 20
0.3966998202
 10
-0.1243277122
 20
0.4416645919
 10
-0.1760044014
 20
0.48190879
 10
-0.2282812851
 20
0.5171083918
 10
-0.2807374606
 20
0.5469799908
 10
-0.3329505816
 20
0.5712830785
 10
-0.3845002587
 20
0.5898219807
 10
-0.4349714442
 20
0.6024474331
 10
-0.4839577739
 20
0.6090577829
 10
-0.5310648385
 20
0.6095998076
 10
-0.5759133598
 20
0.6040691429
 10
-0.6181422437
 20
0.5925103187
 10
-0.6574114883
 20
0.5750163997
 10
-0.6735306589
 20
0.5655616675
  0
LWPOLYLINE
  5
1EB
330
193
100
AcDbEntity
  8
0
  6
Continuous
 62
     7
370
    25
100
AcDbPolyline
 90
       24
 70
   128
 43
0.0
 10
3.1087869513
 20
-1.560166367
 10
3.1092506718
 20
-1.5574057439
 10
3.1159395914
 20
-1.5011858024
 10
3.1179377239
 20
-1.4418074126
 10
3.1152289816
 20
-1.3797486544
 10
3.1078351737
 20
-1.3155091883
 10
3.0958158308
 20
-1.2496062329
 10
3.0792677255
 20
-1.1825703999
 10
3.0583240934
 20
-1.1149414224
 10
3.0331535605
 20
-1.0472638093
 10
3.0039587849
 20
-0.9800824608
 10
2.9709748259
 20
-0.9139382817
 10
2.9344672509
 20
-0.849363826
 10
2.8947299975
 20
-0.7868790093
 10
2.8520830066
 20
-0.7269869225
 10
2.8068696467
 20
-0.6701697816
 10
2.7594539493
 20
-0.6168850447
 10
2.7102176776
 20
-0.5675617292
 10
2.6595572531
 20
-0.5225969575
 10
2.6078805639
 20
-0.4823527594
 10
2.5556036802
 20
-0.4471531576
 10
2.5031475047
 20
-0.4172815586
 10
2.4509343837
 20
-0.3929784709
 10
2.4303216124
 20
-0.3849025867
  0
LWPOLYLINE
  5
1EC
330
193
100
AcDbEntity
  8
0
  6
Continuous
 62
     7
370
    25
100
AcDbPolyline
 90
       38
 70
   128
 43
0.0
 10
2.3800521426
 20
-2.1517719163
 10
2.3834201667
 20
-2.1499769304
 10
2.4194135989
 20
-2.1266887674
 10
2.4518414209
 20
-2.097793863
 10
2.4804425428
 20
-2.063524862
 10
2.5049866852
 20
-2.0241576782
 10
2.5252762333
 20
-1.9800092731
 10
2.5411478273
 20
-1.9314351035
 10
2.5524736787
 20
-1.8788262603
 10
2.5591625983
 20
-1.8226063189
 10
2.5611607308
 20
-1.7632279291
 10
2.5584519886
 20
-1.7011691708
 10
2.5510581806
 20
-1.6369297048
 10
2.5390388377
 20
-1.5710267494
 10
2.5224907324
 20
-1.5039909163
 10
2.5015471004
 20
-1.4363619389
 10
2.4763765674
 20
-1.3686843257
 10
2.4471817918
 20
-1.3015029773
 10
2.4141978328
 20
-1.2353587982
 10
2.3776902579
 20
-1.1707843425
 10
2.3379530044
 20
-1.1082995257
 10
2.2953060135
 20
-1.048407439
 10
2.2500926537
 20
-0.991590298
 10
2.2026769562
 20
-0.9383055612
 10
2.1534406845
 20
-0.8889822457
 10
2.1027802601
 20
-0.844017474
 10
2.0511035708
 20
-0.8037732759
 10
1.9988266871
 20
-0.7685736741
 10
1.9463705116
 20
-0.7387020751
 10
1.8941573906
 20
-0.7143989874
 10
1.8426077136
 20
-0.6958600852
 10
1.792136528
 20
-0.6832346328
 10
1.7431501984
 20
-0.6766242829
 10
1.6960431337
 20
-0.6760822583
 10
1.6511946125
 20
-0.6816129229
 10
1.6089657285
 20
-0.6931717472
 10
1.569696484
 20
-0.7106656662
 10
1.5535773133
 20
-0.7201203984
  0
LWPOLYLINE
  5
1ED
330
193
100
AcDbEntity
  8
0
  6
Continuous
 62
     7
370
    25
100
AcDbPolyline
 90
       24
 70
   128
 43
0.0
 10
5.3358949235
 20
-2.8458484329
 10
5.336358644
 20
-2.8430878097
 10
5.3430475636
 20
-2.7868678683
 10
5.3450456961
 20
-2.7274894785
 10
5.3423369539
 20
-2.6654307202
 10
5.3349431459
 20
-2.6011912542
 10
5.322923803
 20
-2.5352882987
 10
5.3063756977
 20
-2.4682524657
 10
5.2854320657
 20
-2.4006234883
 10
5.2602615327
 20
-2.3329458751
 10
5.2310667571
 20
-2.2657645267
 10
5.1980827981
 20
-2.1996203475
 10
5.1615752232
 20
-2.1350458919
 10
5.1218379697
 20
-2.0725610751
 10
5.0791909788
 20
-2.0126689884
 10
5.033977619
 20
-1.9558518474
 10
4.9865619215
 20
-1.9025671106
 10
4.9373256498
 20
-1.8532437951
 10
4.8866652254
 20
-1.8082790234
 10
4.8349885361
 20
-1.7680348253
 10
4.7827116524
 20
-1.7328352235
 10
4.7302554769
 20
-1.7029636245
 10
4.6780423559
 20
-1.6786605368
 10
4.6574295847
 20
-1.6705846525
  0
LWPOLYLINE
  5
1EE
330
193
100
AcDbEntity
  8
0
  6
Continuous
 62
     7
370
    25
100
AcDbPolyline
 90
       38
 70
   128
 43
0.0
 10
4.6071601151
 20
-3.437453982
 10
4.610528139
 20
-3.4356589962
 10
4.6465215712
 20
-3.4123708333
 10
4.6789493931
 20
-3.3834759289
 10
4.707550515
 20
-3.3492069279
 10
4.7320946575
 20
-3.3098397441
 10
4.7523842055
 20
-3.2656913389
 10
4.7682557996
 20
-3.2171171694
 10
4.779581651
 20
-3.1645083262
 10
4.7862705705
 20
-3.1082883847
 10
4.7882687031
 20
-3.0489099949
 10
4.7855599608
 20
-2.9868512367
 10
4.7781661529
 20
-2.9226117707
 10
4.7661468099
 20
-2.8567088152
 10
4.7495987046
 20
-2.7896729822
 10
4.7286550726
 20
-2.7220440047
 10
4.7034845396
 20
-2.6543663916
 10
4.6742897641
 20
-2.5871850431
 10
4.6413058051
 20
-2.521040864
 10
4.6047982301
 20
-2.4564664083
 10
4.5650609767
 20
-2.3939815916
 10
4.5224139858
 20
-2.3340895048
 10
4.4772006259
 20
-2.2772723639
 10
4.4297849285
 20
-2.223987627
 10
4.3805486568
 20
-2.1746643116
 10
4.3298882323
 20
-2.1296995398
 10
4.2782115431
 20
-2.0894553418
 10
4.2259346593
 20
-2.05425574
 10
4.1734784838
 20
-2.0243841409
 10
4.1212653629
 20
-2.0000810532
 10
4.0697156858
 20
-1.981542151
 10
4.0192445003
 20
-1.9689166986
 10
3.9702581706
 20
-1.9623063488
 10
3.923151106
 20
-1.9617643242
 10
3.8783025847
 20
-1.9672949888
 10
3.8360737007
 20
-1.978853813
 10
3.7968044562
 20
-1.996347732
 10
3.7806852857
 20
-2.0058024642
  0
LWPOLYLINE
  5
1EF
330
193
100
AcDbEntity
  8
0
  6
Continuous
 62
     8
370
    25
100
AcDbPolyline
 90
       10
 70
   128
 43
0.0
 10
1.3306970134
 20
-2.478152182
 10
1.3283435219
 20
-2.537308392
 10
1.3213019963
 20
-2.5932710276
 10
1.3096291309
 20
-2.6455895105
 10
1.2934189086
 20
-2.693842603
 10
1.2728018447
 20
-2.7376417996
 10
1.2479439356
 20
-2.7766344549
 10
1.2190453226
 20
-2.810506623
 10
1.1863386804
 20
-2.8389855851
 10
1.1594334027
 20
-2.8566852897
  0
LWPOLYLINE
  5
1F0
330
193
100
AcDbEntity
  8
0
  6
Continuous
 62
     8
370
    25
100
AcDbPolyline
 90
       28
 70
   128
 43
0.0
 10
0.3327210004
 20
-1.4246405725
 10
0.3420749978
 20
-1.419479234
 10
0.3815791548
 20
-1.4024293024
 10
0.4240180676
 20
-1.3913231754
 10
0.4690500433
 20
-1.3862502731
 10
0.5163125106
 20
-1.3872514395
 10
0.5654249401
 20
-1.3943186137
 10
0.6159919074
 20
-1.4073948951
 10
0.6676062769
 20
-1.4263750012
 10
0.7198524801
 20
-1.4511061152
 10
0.7723098613
 20
-1.4813891167
 10
0.8245560645
 20
-1.516980185
 10
0.876170434
 20
-1.5575927615
 10
0.9267374013
 20
-1.6028998578
 10
0.9758498308
 20
-1.6525366877
 10
1.0231122981
 20
-1.7061036046
 10
1.0681442738
 20
-1.7631693192
 10
1.1105831866
 20
-1.823274372
 10
1.1500873436
 20
-1.8859348324
 10
1.1863386804
 20
-1.9506461953
 10
1.2190453226
 20
-2.0168874427
 10
1.2479439356
 20
-2.0841252391
 10
1.2728018447
 20
-2.1518182253
 10
1.2934189086
 20
-2.2194213772
 10
1.3096291309
 20
-2.286390394
 10
1.3213019963
 20
-2.3521860804
 10
1.3283435219
 20
-2.4162786884
 10
1.3306970134
 20
-2.478152182
  0
LWPOLYLINE
  5
1F1
330
193
100
AcDbEntity
  8
0
  6
Continuous
 62
     8
370
    25
100
AcDbPolyline
 90
       25
 70
   128
 43
0.0
 10
2.5416869733
 20
-1.7790625586
 10
2.5393334818
 20
-1.7171890651
 10
2.5322919562
 20
-1.6530964571
 10
2.5206190908
 20
-1.5873007707
 10
2.5044088685
 20
-1.5203317539
 10
2.4837918046
 20
-1.452728602
 10
2.4589338955
 20
-1.3850356158
 10
2.4300352825
 20
-1.3177978194
 10
2.3973286403
 20
-1.251556572
 10
2.3610773035
 20
-1.1868452091
 10
2.3215731465
 20
-1.1241847487
 10
2.2791342337
 20
-1.0640796959
 10
2.2341022581
 20
-1.0070139813
 10
2.1868397907
 20
-0.9534470643
 10
2.1377273612
 20
-0.9038102345
 10
2.0871603939
 20
-0.8585031382
 10
2.0355460244
 20
-0.8178905617
 10
1.9832998212
 20
-0.7822994934
 10
1.93084244
 20
-0.7520164919
 10
1.8785962368
 20
-0.7272853779
 10
1.8269818673
 20
-0.7083052718
 10
1.7764149
 20
-0.6952289904
 10
1.7273024705
 20
-0.6881618162
 10
1.6800400032
 20
-0.6871606498
 10
1.6597334689
 20
-0.688666158
  0
LWPOLYLINE
  5
1F3
330
193
100
AcDbEntity
  8
0
  6
Continuous
 62
     8
370
    25
100
AcDbPolyline
 90
       13
 70
   128
 43
0.0
 10
0.9131142686
 20
-3.2336836989
 10
0.9386997405
 20
-3.2456443536
 10
0.9680337697
 20
-3.2542727465
 10
0.9998343184
 20
-3.2591917755
 10
1.0327115501
 20
-3.2601864553
 10
1.065228572
 20
-3.2572133138
 10
1.0959642341
 20
-3.2504022913
 10
1.1235752406
 20
-3.2400510624
 10
1.146854858
 20
-3.2266120253
 10
1.1647856553
 20
-3.2106725305
 10
1.1765839706
 20
-3.1929292105
 10
1.1817341609
 20
-3.1741575333
 10
1.1819499822
 20
-3.1693995956
  0
LWPOLYLINE
  5
1F5
330
193
100
AcDbEntity
  8
0
  6
Continuous
 62
     8
370
    25
100
AcDbPolyline
 90
       17
 70
   128
 43
0.0
 10
1.44051354
 20
-1.0069006142
 10
1.4403058141
 20
-1.0114657896
 10
1.4353487559
 20
-1.0295335289
 10
1.4239928774
 20
-1.0466114745
 10
1.4067344851
 20
-1.0619532382
 10
1.3843278533
 20
-1.0748883114
 10
1.3577522596
 20
-1.0848513692
 10
1.3281691847
 20
-1.0914069783
 10
1.2968715512
 20
-1.0942686271
 10
1.2652272157
 20
-1.0933112478
 10
1.2346191875
 20
-1.0885766824
 10
1.2063851844
 20
-1.0802718542
 10
1.1817591678
 20
-1.068759724
 10
1.1618174127
 20
-1.0545434272
 10
1.1474314696
 20
-1.0382442842
 10
1.1392300731
 20
-1.0205746456
 10
1.1373639358
 20
-1.0068862746
  0
LWPOLYLINE
  5
1F6
330
193
100
AcDbEntity
  8
0
  6
Continuous
 62
     8
370
    25
100
AcDbPolyline
 90
       10
 70
   128
 43
0.0
 10
-0.8964109588
 20
-1.1924701161
 10
-0.8987644503
 20
-1.2516263261
 10
-0.9058059759
 20
-1.3075889617
 10
-0.9174788414
 20
-1.3599074446
 10
-0.9336890637
 20
-1.4081605371
 10
-0.9543061276
 20
-1.4519597337
 10
-0.9791640366
 20
-1.490952389
 10
-1.0080626496
 20
-1.5248245571
 10
-1.0407692918
 20
-1.5533035192
 10
-1.0676745695
 20
-1.5710032238
  0
LWPOLYLINE
  5
1F7
330
193
100
AcDbEntity
  8
0
  6
Continuous
 62
     8
370
    25
100
AcDbPolyline
 90
       28
 70
   128
 43
0.0
 10
-1.8943869718
 20
-0.1389585066
 10
-1.8850329744
 20
-0.1337971681
 10
-1.8455288175
 20
-0.1167472365
 10
-1.8030899046
 20
-0.1056411095
 10
-1.758057929
 20
-0.1005682072
 10
-1.7107954616
 20
-0.1015693736
 10
-1.6616830321
 20
-0.1086365479
 10
-1.6111160649
 20
-0.1217128293
 10
-1.5595016954
 20
-0.1406929353
 10
-1.5072554921
 20
-0.1654240493
 10
-1.4547981109
 20
-0.1957070509
 10
-1.4025519077
 20
-0.2312981191
 10
-1.3509375382
 20
-0.2719106957
 10
-1.300370571
 20
-0.3172177919
 10
-1.2512581415
 20
-0.3668546218
 10
-1.2039956741
 20
-0.4204215387
 10
-1.1589636985
 20
-0.4774872534
 10
-1.1165247856
 20
-0.5375923062
 10
-1.0770206286
 20
-0.6002527666
 10
-1.0407692918
 20
-0.6649641294
 10
-1.0080626496
 20
-0.7312053768
 10
-0.9791640366
 20
-0.7984431732
 10
-0.9543061276
 20
-0.8661361595
 10
-0.9336890637
 20
-0.9337393114
 10
-0.9174788414
 20
-1.0007083281
 10
-0.9058059759
 20
-1.0665040146
 10
-0.8987644503
 20
-1.1305966226
 10
-0.8964109588
 20
-1.1924701161
  0
LWPOLYLINE
  5
1F8
330
193
100
AcDbEntity
  8
0
  6
Continuous
 62
     8
370
    25
100
AcDbPolyline
 90
       25
 70
   128
 43
0.0
 10
0.3145790011
 20
-0.4933804928
 10
0.3122255096
 20
-0.4315069993
 10
0.305183984
 20
-0.3674143913
 10
0.2935111185
 20
-0.3016187048
 10
0.2773008962
 20
-0.2346496881
 10
0.2566838323
 20
-0.1670465362
 10
0.2318259233
 20
-0.0993535499
 10
0.2029273103
 20
-0.0321157535
 10
0.1702206681
 20
0.0341254939
 10
0.1339693313
 20
0.0988368567
 10
0.0944651743
 20
0.1614973171
 10
0.0520262614
 20
0.2216023699
 10
0.0069942858
 20
0.2786680846
 10
-0.0402681815
 20
0.3322350015
 10
-0.0893806111
 20
0.3818718314
 10
-0.1399475783
 20
0.4271789277
 10
-0.1915619478
 20
0.4677915042
 10
-0.243808151
 20
0.5033825724
 10
-0.2962655322
 20
0.533665574
 10
-0.3485117355
 20
0.558396688
 10
-0.400126105
 20
0.577376794
 10
-0.4506930722
 20
0.5904530754
 10
-0.4998055017
 20
0.5975202497
 10
-0.5470679691
 20
0.5985214161
 10
-0.5673745034
 20
0.5970159079
  0
LWPOLYLINE
  5
1FA
330
193
100
AcDbEntity
  8
0
  6
Continuous
 62
     8
370
    25
100
AcDbPolyline
 90
       13
 70
   128
 43
0.0
 10
-1.3139937036
 20
-1.948001633
 10
-1.2884082318
 20
-1.9599622877
 10
-1.2590742026
 20
-1.9685906807
 10
-1.2272736538
 20
-1.9735097096
 10
-1.1943964221
 20
-1.9745043895
 10
-1.1618794003
 20
-1.9715312479
 10
-1.1311437381
 20
-1.9647202254
 10
-1.1035327316
 20
-1.9543689965
 10
-1.0802531142
 20
-1.9409299594
 10
-1.0623223169
 20
-1.9249904647
 10
-1.0505240017
 20
-1.9072471446
 10
-1.0453738113
 20
-1.8884754674
 10
-1.04515799
 20
-1.8837175297
  0
LWPOLYLINE
  5
1FC
330
193
100
AcDbEntity
  8
0
  6
Continuous
 62
     8
370
    25
100
AcDbPolyline
 90
       10
 70
   128
 43
0.0
 10
3.5578049857
 20
-3.7638342478
 10
3.5554514941
 20
-3.8229904579
 10
3.5484099686
 20
-3.8789530935
 10
3.5367371031
 20
-3.9312715763
 10
3.5205268808
 20
-3.9795246688
 10
3.4999098169
 20
-4.0233238654
 10
3.4750519078
 20
-4.0623165207
 10
3.4461532949
 20
-4.0961886888
 10
3.4134466527
 20
-4.1246676509
 10
3.3865413749
 20
-4.1423673555
  0
LWPOLYLINE
  5
1FD
330
193
100
AcDbEntity
  8
0
  6
Continuous
 62
     8
370
    25
100
AcDbPolyline
 90
       28
 70
   128
 43
0.0
 10
2.5598289727
 20
-2.7103226384
 10
2.56918297
 20
-2.7051612999
 10
2.608687127
 20
-2.6881113682
 10
2.6511260399
 20
-2.6770052413
 10
2.6961580155
 20
-2.671932339
 10
2.7434204829
 20
-2.6729335053
 10
2.7925329124
 20
-2.6800006796
 10
2.8430998796
 20
-2.693076961
 10
2.8947142491
 20
-2.712057067
 10
2.9469604523
 20
-2.736788181
 10
2.9994178335
 20
-2.7670711826
 10
3.0516640368
 20
-2.8026622508
 10
3.1032784063
 20
-2.8432748274
 10
3.1538453735
 20
-2.8885819236
 10
3.202957803
 20
-2.9382187535
 10
3.2502202704
 20
-2.9917856704
 10
3.295252246
 20
-3.0488513851
 10
3.3376911589
 20
-3.1089564379
 10
3.3771953158
 20
-3.1716168983
 10
3.4134466527
 20
-3.2363282611
 10
3.4461532949
 20
-3.3025695086
 10
3.4750519078
 20
-3.369807305
 10
3.4999098169
 20
-3.4375002912
 10
3.5205268808
 20
-3.5051034431
 10
3.5367371031
 20
-3.5720724598
 10
3.5484099686
 20
-3.6378681463
 10
3.5554514941
 20
-3.7019607543
 10
3.5578049857
 20
-3.7638342478
  0
LWPOLYLINE
  5
1FE
330
193
100
AcDbEntity
  8
0
  6
Continuous
 62
     8
370
    25
100
AcDbPolyline
 90
       25
 70
   128
 43
0.0
 10
4.7687949456
 20
-3.0647446245
 10
4.7664414541
 20
-3.002871131
 10
4.7593999285
 20
-2.938778523
 10
4.747727063
 20
-2.8729828365
 10
4.7315168407
 20
-2.8060138198
 10
4.7108997768
 20
-2.7384106679
 10
4.6860418677
 20
-2.6707176817
 10
4.6571432548
 20
-2.6034798852
 10
4.6244366126
 20
-2.5372386378
 10
4.5881852758
 20
-2.472527275
 10
4.5486811188
 20
-2.4098668146
 10
4.5062422059
 20
-2.3497617618
 10
4.4612102303
 20
-2.2926960471
 10
4.4139477629
 20
-2.2391291302
 10
4.3648353334
 20
-2.1894923003
 10
4.3142683662
 20
-2.1441852041
 10
4.2626539967
 20
-2.1035726275
 10
4.2104077935
 20
-2.0679815593
 10
4.1579504122
 20
-2.0376985577
 10
4.105704209
 20
-2.0129674437
 10
4.0540898395
 20
-1.9939873377
 10
4.0035228723
 20
-1.9809110563
 10
3.9544104428
 20
-1.973843882
 10
3.9071479754
 20
-1.9728427156
 10
3.8868414411
 20
-1.9743482238
  0
LWPOLYLINE
  5
200
330
193
100
AcDbEntity
  8
0
  6
Continuous
 62
     8
370
    25
100
AcDbPolyline
 90
       13
 70
   128
 43
0.0
 10
3.1402222409
 20
-4.5193657647
 10
3.1658077127
 20
-4.5313264195
 10
3.1951417419
 20
-4.5399548124
 10
3.2269422906
 20
-4.5448738414
 10
3.2598195223
 20
-4.5458685212
 10
3.2923365442
 20
-4.5428953796
 10
3.3230722064
 20
-4.5360843572
 10
3.3506832129
 20
-4.5257331282
 10
3.3739628303
 20
-4.5122940912
 10
3.3918936275
 20
-4.4963545964
 10
3.4036919428
 20
-4.4786112763
 10
3.4088421331
 20
-4.4598395992
 10
3.4090579544
 20
-4.4550816615
  0
LINE
  5
202
330
193
100
AcDbEntity
  8
0
  6
Continuous
 62
     7
370
    25
100
AcDbLine
 10
-0.6397117876
 20
1.1081333869
 30
0.0
 11
-0.7510671862
 21
1.0438492836
 31
0.0
  0
LINE
  5
203
330
193
100
AcDbEntity
  8
0
  6
Continuous
 62
     7
370
    25
100
AcDbLine
 10
0.528356389
 20
-1.1724174902
 30
0.0
 11
0.6397117876
 21
-1.1081333869
 31
0.0
  0
LINE
  5
204
330
193
100
AcDbEntity
  8
0
  6
Continuous
 62
     7
370
    25
100
AcDbLine
 10
1.5873961846
 20
-0.177548679
 30
0.0
 11
1.476040786
 21
-0.2418327823
 31
0.0
  0
LINE
  5
205
330
193
100
AcDbEntity
  8
0
  6
Continuous
 62
     7
370
    25
100
AcDbLine
 10
2.7554643612
 20
-2.4580995561
 30
0.0
 11
2.8668197599
 21
-2.3938154528
 31
0.0
  0
LINE
  5
206
330
193
100
AcDbEntity
  8
0
  6
Continuous
 62
     7
370
    25
100
AcDbLine
 10
1.5437188986
 20
-0.7255463663
 30
0.0
 11
0.3327289387
 21
-1.4246359897
 31
0.0
  0
LINE
  5
207
330
193
100
AcDbEntity
  8
0
  6
Continuous
 62
     7
370
    25
100
AcDbLine
 10
1.1594334027
 20
-2.8566852897
 30
0.0
 11
2.3704233626
 21
-2.1575956663
 31
0.0
  0
LINE
  5
208
330
193
100
AcDbEntity
  8
0
  6
Continuous
 62
     7
370
    25
100
AcDbLine
 10
0.8669893523
 20
-2.8786862438
 30
0.0
 11
0.8669893523
 21
-3.1693995956
 31
0.0
  0
LINE
  5
209
330
193
100
AcDbEntity
  8
0
  6
Continuous
 62
     7
370
    25
100
AcDbLine
 10
1.1819499822
 20
-3.1693995956
 30
0.0
 11
1.1819499822
 21
-2.843686745
 31
0.0
  0
LINE
  5
20A
330
193
100
AcDbEntity
  8
0
  6
Continuous
 62
     7
370
    25
100
AcDbLine
 10
1.4405135421
 20
-1.1816248447
 30
0.0
 11
1.4405135421
 21
-1.0068862746
 31
0.0
  0
LINE
  5
20B
330
193
100
AcDbEntity
  8
0
  6
Continuous
 62
     7
370
    25
100
AcDbLine
 10
1.1373639358
 20
-1.0068862746
 30
0.0
 11
1.1373639358
 21
-1.1762208497
 31
0.0
  0
LINE
  5
20C
330
193
100
AcDbEntity
  8
0
  6
Continuous
 62
     7
370
    25
100
AcDbLine
 10
-0.6833890736
 20
0.5601356995
 30
0.0
 11
-1.8943790335
 21
-0.1389539238
 31
0.0
  0
LINE
  5
20D
330
193
100
AcDbEntity
  8
0
  6
Continuous
 62
     7
370
    25
100
AcDbLine
 10
-1.0676745695
 20
-1.5710032238
 30
0.0
 11
0.1433153904
 21
-0.8719136005
 31
0.0
  0
LINE
  5
20E
330
193
100
AcDbEntity
  8
0
  6
Continuous
 62
     7
370
    25
100
AcDbLine
 10
-1.36011862
 20
-1.593004178
 30
0.0
 11
-1.36011862
 21
-1.8837175297
 31
0.0
  0
LINE
  5
20F
330
193
100
AcDbEntity
  8
0
  6
Continuous
 62
     7
370
    25
100
AcDbLine
 10
-1.04515799
 20
-1.8837175297
 30
0.0
 11
-1.04515799
 21
-1.5580046791
 31
0.0
  0
LINE
  5
210
330
193
100
AcDbEntity
  8
0
  6
Continuous
 62
     7
370
    25
100
AcDbLine
 10
3.7708268709
 20
-2.0112284322
 30
0.0
 11
2.5598369109
 21
-2.7103180555
 31
0.0
  0
LINE
  5
211
330
193
100
AcDbEntity
  8
0
  6
Continuous
 62
     7
370
    25
100
AcDbLine
 10
3.3865413749
 20
-4.1423673555
 30
0.0
 11
4.5975313348
 21
-3.4432777322
 31
0.0
  0
LINE
  5
212
330
193
100
AcDbEntity
  8
0
  6
Continuous
 62
     7
370
    25
100
AcDbLine
 10
3.0940973245
 20
-4.1643683097
 30
0.0
 11
3.0940973245
 21
-4.4550816615
 31
0.0
  0
LINE
  5
213
330
193
100
AcDbEntity
  8
0
  6
Continuous
 62
     7
370
    25
100
AcDbLine
 10
3.4090579544
 20
-4.4550816615
 30
0.0
 11
3.4090579544
 21
-4.1293688109
 31
0.0
  0
LINE
  5
214
330
193
100
AcDbEntity
  8
0
  6
Continuous
 62
     7
370
    25
100
AcDbLine
 10
3.8145041569
 20
-1.4632307448
 30
0.0
 11
3.7031487583
 21
-1.5275148481
 31
0.0
  0
LINE
  5
215
330
193
100
AcDbEntity
  8
0
  6
Continuous
 62
     7
370
    25
100
AcDbLine
 10
4.9825723335
 20
-3.7437816219
 30
0.0
 11
5.0939277321
 21
-3.6794975186
 31
0.0
  0
LINE
  5
216
330
193
100
AcDbEntity
  8
0
  6
Continuous
 62
     7
370
    25
100
AcDbLine
 10
-0.4436330891
 20
0.6985438833
 30
0.0
 11
-0.6639018789
 21
0.5713854176
 31
0.0
  0
LINE
  5
217
330
193
100
AcDbEntity
  8
0
  6
Continuous
 62
     7
370
    25
100
AcDbLine
 10
0.1628025851
 20
-0.8606638824
 30
0.0
 11
0.3830713749
 21
-0.7335054167
 31
0.0
  0
LINE
  5
218
330
193
100
AcDbEntity
  8
0
  6
Continuous
 62
     7
370
    25
100
AcDbLine
 10
1.7834748831
 20
-0.5871381826
 30
0.0
 11
1.5632060934
 21
-0.7142966483
 31
0.0
  0
LINE
  5
219
330
193
100
AcDbEntity
  8
0
  6
Continuous
 62
     7
370
    25
100
AcDbLine
 10
2.3899105574
 20
-2.1463459483
 30
0.0
 11
2.6101793471
 21
-2.0191874826
 31
0.0
  0
LINE
  5
21A
330
193
100
AcDbEntity
  8
0
  6
Continuous
 62
     7
370
    25
100
AcDbLine
 10
4.0105828554
 20
-1.8728202484
 30
0.0
 11
3.7903140656
 21
-1.9999787141
 31
0.0
  0
LINE
  5
21B
330
193
100
AcDbEntity
  8
0
  6
Continuous
 62
     7
370
    25
100
AcDbLine
 10
4.6170185296
 20
-3.4320280141
 30
0.0
 11
4.8372873194
 21
-3.3048695484
 31
0.0
  0
LINE
  5
21C
330
193
100
AcDbEntity
  8
0
  6
Continuous
 62
     7
370
    25
100
AcDbLine
 10
-0.4732085533
 20
0.6911209682
 30
0.0
 11
-0.4944267735
 21
0.6692213134
 31
0.0
  0
LINE
  5
21D
330
193
100
AcDbEntity
  8
0
  6
Continuous
 62
     7
370
    25
100
AcDbLine
 10
1.753899419
 20
-0.5945610977
 30
0.0
 11
1.7326811987
 21
-0.6164607524
 31
0.0
  0
LINE
  5
21E
330
193
100
AcDbEntity
  8
0
  6
Continuous
 62
     7
370
    25
100
AcDbLine
 10
1.1594334027
 20
-2.8566852897
 30
0.0
 11
1.1558834554
 21
-2.8586997344
 31
0.0
  0
LINE
  5
21F
330
193
100
AcDbEntity
  8
0
  6
Continuous
 62
     7
370
    25
100
AcDbLine
 10
1.1373639358
 20
-1.0068862746
 30
0.0
 11
1.1374594402
 21
-1.0037805414
 31
0.0
  0
LINE
  5
220
330
193
100
AcDbEntity
  8
0
  6
Continuous
 62
     7
370
    25
100
AcDbLine
 10
-1.0676745695
 20
-1.5710032238
 30
0.0
 11
-1.0712245168
 21
-1.5730176685
 31
0.0
  0
LINE
  5
221
330
193
100
AcDbEntity
  8
0
  6
Continuous
 62
     7
370
    25
100
AcDbLine
 10
3.3865413749
 20
-4.1423673555
 30
0.0
 11
3.3829914277
 21
-4.1443818002
 31
0.0
  0
LINE
  5
222
330
193
100
AcDbEntity
  8
0
  6
Continuous
 62
     7
370
    25
100
AcDbLine
 10
3.9810073912
 20
-1.8802431635
 30
0.0
 11
3.959789171
 21
-1.9021428183
 31
0.0
  0
ARC
  5
223
330
193
100
AcDbEntity
  8
0
  6
Continuous
 62
     7
370
    25
100
AcDbCircle
 10
1.6878014194
 20
-0.977874295
 30
0.0
 40
0.2905669567829117
100
AcDbArc
 50
95.5432547041
 51
119.7269274881
  0
ARC
  5
224
330
193
100
AcDbEntity
  8
0
  6
Continuous
 62
     7
370
    25
100
AcDbCircle
 10
2.2218177238
 20
-1.9042890459
 30
0.0
 40
0.2936798935045208
100
AcDbArc
 50
300.3985742611
 51
324.2618328718
  0
ARC
  5
225
330
193
100
AcDbEntity
  8
0
  6
Continuous
 62
     7
370
    25
100
AcDbCircle
 10
-0.5393065528
 20
0.3078077709
 30
0.0
 40
0.2905669567829252
100
AcDbArc
 50
95.5432547041
 51
119.7269274881
  0
ARC
  5
226
330
193
100
AcDbEntity
  8
0
  6
Continuous
 62
     7
370
    25
100
AcDbCircle
 10
-0.0052902484
 20
-0.61860698
 30
0.0
 40
0.2936798935045978
100
AcDbArc
 50
300.3985742611
 51
324.2618328718
  0
ARC
  5
227
330
193
100
AcDbEntity
  8
0
  6
Continuous
 62
     7
370
    25
100
AcDbCircle
 10
3.9149093917
 20
-2.2635563609
 30
0.0
 40
0.2905669567829935
100
AcDbArc
 50
95.5432547041
 51
119.7269274881
  0
ARC
  5
228
330
193
100
AcDbEntity
  8
0
  6
Continuous
 62
     7
370
    25
100
AcDbCircle
 10
4.4489256961
 20
-3.1899711117
 30
0.0
 40
0.2936798935045749
100
AcDbArc
 50
300.3985742611
 51
324.2618328718
  0
ARC
  5
229
330
193
100
AcDbEntity
  8
0
  6
Continuous
 62
     8
370
    25
100
AcDbCircle
 10
2.0389958546
 20
-1.800591063
 30
0.0
 40
0.5031519028175969
100
AcDbArc
 50
326.8375988392
 51
2.4522795482
  0
ARC
  5
22A
330
193
100
AcDbEntity
  8
0
  6
Continuous
 62
     8
370
    25
100
AcDbCircle
 10
0.9449886747
 20
-3.1621235308
 30
0.0
 40
0.0783379564128462
100
AcDbArc
 50
185.3293391936
 51
245.990801764
  0
ARC
  5
22B
330
193
100
AcDbEntity
  8
0
  6
Continuous
 62
     8
370
    25
100
AcDbCircle
 10
-0.1881121176
 20
-0.5149089972
 30
0.0
 40
0.5031519028176032
100
AcDbArc
 50
326.8375988392
 51
2.4522795482
  0
ARC
  5
22C
330
193
100
AcDbEntity
  8
0
  6
Continuous
 62
     8
370
    25
100
AcDbCircle
 10
-1.2821192976
 20
-1.876441465
 30
0.0
 40
0.0783379564128482
100
AcDbArc
 50
185.3293391936
 51
245.990801764
  0
ARC
  5
22D
330
193
100
AcDbEntity
  8
0
  6
Continuous
 62
     8
370
    25
100
AcDbCircle
 10
4.2661038269
 20
-3.0862731289
 30
0.0
 40
0.5031519028175968
100
AcDbArc
 50
326.8375988392
 51
2.4522795482
  0
ARC
  5
22E
330
193
100
AcDbEntity
  8
0
  6
Continuous
 62
     8
370
    25
100
AcDbCircle
 10
3.1720966469
 20
-4.4478055967
 30
0.0
 40
0.0783379564128454
100
AcDbArc
 50
185.3293391936
 51
245.990801764
  0
VIEWPORT
  5
233
330
193
100
AcDbEntity
  8
0
100
AcDbViewport
 10
0.0
 20
0.0
 30
0.0
 40
8.4
 41
6.4
 68
     1
 69
     1
 12
3.1496062992
 22
-0.1082677165
 13
0.0
 23
0.0
 14
0.5
 24
0.5
 15
0.5
 25
0.5
 16
0.0
 26
0.0
 36
1.0
 17
0.0
 27
0.0
 37
0.0
 42
50.0
 43
0.0
 44
0.0
 45
6.8841394826
 50
0.0
 51
0.0
 72
   100
 90
   557152
  1

281
     0
 71
     1
 74
     0
110
0.0
120
0.0
130
0.0
111
1.0
121
0.0
131
0.0
112
0.0
122
1.0
132
0.0
 79
     0
146
0.0
  0
ENDBLK
  5
196
330
193
100
AcDbEntity
  8
0
100
AcDbBlockEnd
  0
ENDSEC
  0
SECTION
  2
ENTITIES
  0
CIRCLE
  5
8D
330
1F
100
AcDbEntity
  8
0
  6
Continuous
 62
     7
370
    25
100
AcDbCircle
 10
3.1496062992
 20
0.0
 30
0.0
 40
0.7874015748031495
  0
CIRCLE
  5
8E
330
1F
100
AcDbEntity
  8
0
  6
Continuous
 62
     7
370
    25
100
AcDbCircle
 10
3.1496062992
 20
0.0
 30
0.0
 40
0.8267716535433056
  0
CIRCLE
  5
91
330
1F
100
AcDbEntity
  8
0
  6
Continuous
 62
     7
370
    25
100
AcDbCircle
 10
0.0
 20
0.0
 30
0.0
 40
0.7874015748031504
  0
CIRCLE
  5
92
330
1F
100
AcDbEntity
  8
0
  6
Continuous
 62
     7
370
    25
100
AcDbCircle
 10
0.0
 20
0.0
 30
0.0
 40
0.8267716535433064
  0
CIRCLE
  5
95
330
1F
100
AcDbEntity
  8
0
  6
Continuous
 62
     7
370
    25
100
AcDbCircle
 10
6.2992125984
 20
0.0
 30
0.0
 40
0.7874015748031429
  0
CIRCLE
  5
96
330
1F
100
AcDbEntity
  8
0
  6
Continuous
 62
     7
370
    25
100
AcDbCircle
 10
6.2992125984
 20
0.0
 30
0.0
 40
0.8267716535433065
  0
LINE
  5
A5
330
1F
100
AcDbEntity
  8
0
  6
Continuous
 62
     7
370
    25
100
AcDbLine
 10
2.9921259843
 20
-0.8116349657
 30
0.0
 11
2.9921259843
 21
-1.4566929134
 31
0.0
  0
LINE
  5
A6
330
1F
100
AcDbEntity
  8
0
  6
Continuous
 62
     7
370
    25
100
AcDbLine
 10
3.3070866142
 20
-1.4566929134
 30
0.0
 11
3.3070866142
 21
-0.8116349657
 31
0.0
  0
LINE
  5
A7
330
1F
100
AcDbEntity
  8
0
  6
Continuous
 62
     7
370
    25
100
AcDbLine
 10
3.3011811024
 20
0.8127585411
 30
0.0
 11
3.3011811024
 21
1.0047132361
 31
0.0
  0
LINE
  5
A8
330
1F
100
AcDbEntity
  8
0
  6
Continuous
 62
     7
370
    25
100
AcDbLine
 10
2.9980314961
 20
1.0047132361
 30
0.0
 11
2.9980314961
 21
0.8127585411
 31
0.0
  0
LINE
  5
A9
330
1F
100
AcDbEntity
  8
0
  6
Continuous
 62
     7
370
    25
100
AcDbLine
 10
-0.157480315
 20
-0.8116349657
 30
0.0
 11
-0.157480315
 21
-1.4566929134
 31
0.0
  0
LINE
  5
AA
330
1F
100
AcDbEntity
  8
0
  6
Continuous
 62
     7
370
    25
100
AcDbLine
 10
0.157480315
 20
-1.4566929134
 30
0.0
 11
0.157480315
 21
-0.8116349657
 31
0.0
  0
LINE
  5
AB
330
1F
100
AcDbEntity
  8
0
  6
Continuous
 62
     7
370
    25
100
AcDbLine
 10
6.1417322835
 20
-0.8116349657
 30
0.0
 11
6.1417322835
 21
-1.4566929134
 31
0.0
  0
LINE
  5
AC
330
1F
100
AcDbEntity
  8
0
  6
Continuous
 62
     7
370
    25
100
AcDbLine
 10
6.4566929134
 20
-1.4566929134
 30
0.0
 11
6.4566929134
 21
-0.8116349657
 31
0.0
  0
LINE
  5
AD
330
1F
100
AcDbEntity
  8
0
  6
Continuous
 62
     7
370
    25
100
AcDbLine
 10
3.2677165354
 20
-1.4960629921
 30
0.0
 11
3.031496063
 21
-1.4960629921
 31
0.0
  0
LINE
  5
AE
330
1F
100
AcDbEntity
  8
0
  6
Continuous
 62
     7
370
    25
100
AcDbLine
 10
0.1181102362
 20
-1.4960629921
 30
0.0
 11
-0.1181102362
 21
-1.4960629921
 31
0.0
  0
LINE
  5
AF
330
1F
100
AcDbEntity
  8
0
  6
Continuous
 62
     7
370
    25
100
AcDbLine
 10
6.4173228346
 20
-1.4960629921
 30
0.0
 11
6.1811023622
 21
-1.4960629921
 31
0.0
  0
LINE
  5
B0
330
1F
100
AcDbEntity
  8
0
  6
Continuous
 62
     8
370
    25
100
AcDbLine
 10
2.9921259843
 20
-1.4566929134
 30
0.0
 11
3.3070866142
 21
-1.4566929134
 31
0.0
  0
LINE
  5
B1
330
1F
100
AcDbEntity
  8
0
  6
Continuous
 62
     8
370
    25
100
AcDbLine
 10
3.013191239
 20
1.0238710665
 30
0.0
 11
3.2860213594
 21
1.0238710665
 31
0.0
  0
LINE
  5
B2
330
1F
100
AcDbEntity
  8
0
  6
Continuous
 62
     8
370
    25
100
AcDbLine
 10
3.3011811024
 20
1.0047132361
 30
0.0
 11
2.9980314961
 21
1.0047132361
 31
0.0
  0
LINE
  5
B3
330
1F
100
AcDbEntity
  8
0
  6
Continuous
 62
     8
370
    25
100
AcDbLine
 10
-0.157480315
 20
-1.4566929134
 30
0.0
 11
0.157480315
 21
-1.4566929134
 31
0.0
  0
LINE
  5
B4
330
1F
100
AcDbEntity
  8
0
  6
Continuous
 62
     8
370
    25
100
AcDbLine
 10
6.1417322835
 20
-1.4566929134
 30
0.0
 11
6.4566929134
 21
-1.4566929134
 31
0.0
  0
ARC
  5
B5
330
1F
100
AcDbEntity
  8
0
  6
Continuous
 62
     7
370
    25
100
AcDbCircle
 10
3.031496063
 20
-1.4566929134
 30
0.0
 40
0.0393700787401574
100
AcDbArc
 50
180.0
 51
270.0
  0
ARC
  5
B6
330
1F
100
AcDbEntity
  8
0
  6
Continuous
 62
     7
370
    25
100
AcDbCircle
 10
3.2677165354
 20
-1.4566929134
 30
0.0
 40
0.0393700787401583
100
AcDbArc
 50
270.0
 51
0.0
  0
ARC
  5
B7
330
1F
100
AcDbEntity
  8
0
  6
Continuous
 62
     7
370
    25
100
AcDbCircle
 10
3.281496063
 20
1.0047132361
 30
0.0
 40
0.0196850393700797
100
AcDbArc
 50
0.0
 51
76.709695303
  0
ARC
  5
B8
330
1F
100
AcDbEntity
  8
0
  6
Continuous
 62
     7
370
    25
100
AcDbCircle
 10
3.0177165354
 20
1.0047132361
 30
0.0
 40
0.0196850393700791
100
AcDbArc
 50
103.290304697
 51
180.0
  0
ARC
  5
B9
330
1F
100
AcDbEntity
  8
0
  6
Continuous
 62
     7
370
    25
100
AcDbCircle
 10
3.1496062992
 20
0.4463582677
 30
0.0
 40
0.5934055118110192
100
AcDbArc
 50
76.709695303
 51
103.290304697
  0
ARC
  5
BA
330
1F
100
AcDbEntity
  8
0
  6
Continuous
 62
     7
370
    25
100
AcDbCircle
 10
-0.1181102362
 20
-1.4566929134
 30
0.0
 40
0.0393700787401577
100
AcDbArc
 50
180.0
 51
270.0
  0
ARC
  5
BB
330
1F
100
AcDbEntity
  8
0
  6
Continuous
 62
     7
370
    25
100
AcDbCircle
 10
0.1181102362
 20
-1.4566929134
 30
0.0
 40
0.0393700787401574
100
AcDbArc
 50
270.0
 51
0.0
  0
ARC
  5
BC
330
1F
100
AcDbEntity
  8
0
  6
Continuous
 62
     7
370
    25
100
AcDbCircle
 10
6.1811023622
 20
-1.4566929134
 30
0.0
 40
0.0393700787401592
100
AcDbArc
 50
180.0
 51
270.0
  0
ARC
  5
BD
330
1F
100
AcDbEntity
  8
0
  6
Continuous
 62
     7
370
    25
100
AcDbCircle
 10
6.4173228346
 20
-1.4566929134
 30
0.0
 40
0.0393700787401574
100
AcDbArc
 50
270.0
 51
0.0
  0
ARC
  5
BE
330
1F
100
AcDbEntity
  8
0
  6
Continuous
 62
     7
370
    25
100
AcDbCircle
 10
0.0
 20
0.0
 30
0.0
 40
1.279527559055126
100
AcDbArc
 50
277.0697140423
 51
262.9302859577
  0
ARC
  5
BF
330
1F
100
AcDbEntity
  8
0
  6
Continuous
 62
     7
370
    25
100
AcDbCircle
 10
0.0
 20
0.0
 30
0.0
 40
0.8425196850393732
100
AcDbArc
 50
280.7728533751
 51
259.2271466249
  0
ARC
  5
C0
330
1F
100
AcDbEntity
  8
0
  6
Continuous
 62
     7
370
    25
100
AcDbCircle
 10
3.1496062992
 20
0.0
 30
0.0
 40
0.8425196850393728
100
AcDbArc
 50
280.7728533751
 51
79.6356838064
  0
ARC
  5
C1
330
1F
100
AcDbEntity
  8
0
  6
Continuous
 62
     7
370
    25
100
AcDbCircle
 10
3.1496062992
 20
0.0
 30
0.0
 40
0.8425196850393704
100
AcDbArc
 50
100.3643161936
 51
259.2271466249
  0
ARC
  5
C2
330
1F
100
AcDbEntity
  8
0
  6
Continuous
 62
     7
370
    25
100
AcDbCircle
 10
3.1496062992
 20
0.0
 30
0.0
 40
1.279527559055126
100
AcDbArc
 50
277.0697140423
 51
262.9302859577
  0
ARC
  5
C3
330
1F
100
AcDbEntity
  8
0
  6
Continuous
 62
     7
370
    25
100
AcDbCircle
 10
6.2992125984
 20
0.0
 30
0.0
 40
1.279527559055126
100
AcDbArc
 50
277.0697140423
 51
262.9302859577
  0
ARC
  5
C4
330
1F
100
AcDbEntity
  8
0
  6
Continuous
 62
     7
370
    25
100
AcDbCircle
 10
6.2992125984
 20
0.0
 30
0.0
 40
0.8425196850393728
100
AcDbArc
 50
280.7728533751
 51
259.2271466249
  0
SPLINE
  5
D2
330
1B
100
AcDbEntity
 67
     1
  8
0
  6
Continuous
 62
     7
370
    25
100
AcDbSpline
210
0.0
220
0.0
230
1.0
 70
     8
 71
     3
 72
    10
 73
     6
 74
     0
 42
0.000000001
 43
0.00000001
 40
0.0
 40
0.0
 40
0.0
 40
0.0
 40
0.0004970773484299
 40
0.2598423495260778
 40
1.0
 40
1.0
 40
1.0
 40
1.0
 10
-1.87355762603952
 20
-0.8262725798993557
 30
0.0
 10
-1.873557827064094
 20
-0.8262726259017388
 30
0.0
 10
-1.873662910704801
 20
-0.8262966732000236
 30
0.0
 10
-1.872758118994222
 20
-0.826092985071569
 30
0.0
 10
-1.870107753250717
 20
-0.8255260861223426
 30
0.0
 10
-1.868145089173252
 20
-0.825106282853331
 30
0.0
  0
SPLINE
  5
E1
330
1B
100
AcDbEntity
 67
     1
  8
0
  6
Continuous
 62
     7
370
    25
100
AcDbSpline
210
0.0
220
0.0
230
1.0
 70
     8
 71
     3
 72
    18
 73
    14
 74
     0
 42
0.000000001
 43
0.00000001
 40
0.0
 40
0.0
 40
0.0
 40
0.0
 40
0.0114526044956217
 40
0.1189271535510331
 40
0.2264201862709063
 40
0.3353242173593945
 40
0.4439975307964097
 40
0.5502509283902315
 40
0.6553876994309026
 40
0.7627390310301567
 40
0.8730497774114313
 40
0.9606756526529213
 40
0.9999999999999999
 40
0.9999999999999999
 40
0.9999999999999999
 40
0.9999999999999999
 10
-1.877615578004646
 20
-0.8266959538374925
 30
0.0
 10
-1.877546822403173
 20
-0.8266805557989794
 30
0.0
 10
-1.876832844375127
 20
-0.82652065811882
 30
0.0
 10
-1.865909180729493
 20
-0.8240453817983221
 30
0.0
 10
-1.833783043079483
 20
-0.8177017250819271
 30
0.0
 10
-1.786189914241554
 20
-0.810721196572259
 30
0.0
 10
-1.728599306787001
 20
-0.8063202103139705
 30
0.0
 10
-1.668212831861928
 20
-0.8065473743681322
 30
0.0
 10
-1.612189777219307
 20
-0.8111192576801967
 30
0.0
 10
-1.565389403967165
 20
-0.8181291111884513
 30
0.0
 10
-1.536656141615458
 20
-0.8238591066609114
 30
0.0
 10
-1.523271288951998
 20
-0.8268481050263916
 30
0.0
 10
-1.525252078097761
 20
-0.8264076134014154
 30
0.0
 10
-1.525865651188072
 20
-0.8262711658607115
 30
0.0
  0
SPLINE
  5
E2
330
1B
100
AcDbEntity
 67
     1
  8
0
  6
Continuous
 62
     7
370
    25
100
AcDbSpline
210
0.0
220
0.0
230
1.0
 70
     8
 71
     3
 72
    17
 73
    13
 74
     0
 42
0.000000001
 43
0.00000001
 40
0.0
 40
0.0
 40
0.0
 40
0.0
 40
0.1068557141898971
 40
0.2136933718982646
 40
0.3210008306899088
 40
0.4286293376706194
 40
0.5357426191468556
 40
0.6423075805431253
 40
0.7491464867663153
 40
0.8566522971268281
 40
0.9641820126920394
 40
1.0
 40
1.0
 40
1.0
 40
1.0
 10
-1.188976377952756
 20
-0.8267716535433072
 30
0.0
 10
-1.187895998490735
 20
-0.8266394374194026
 30
0.0
 10
-1.185735422129245
 20
-0.8263750275134778
 30
0.0
 10
-1.168902553948856
 20
-0.8245337171692644
 30
0.0
 10
-1.144051050455131
 20
-0.8224717634956514
 30
0.0
 10
-1.11290409460738
 20
-0.8209741234803253
 30
0.0
 10
-1.079322787626868
 20
-0.8207425775697444
 30
0.0
 10
-1.047149378860802
 20
-0.8218515636761105
 30
0.0
 10
-1.019620044909951
 20
-0.8238422693015512
 30
0.0
 10
-1.000716492151448
 20
-0.825749223407445
 30
0.0
 10
-0.9916518333599074
 20
-0.8268273370064255
 30
0.0
 10
-0.9930191151081105
 20
-0.826666262773515
 30
0.0
 10
-0.9933607549064605
 20
-0.8266260154956416
 30
0.0
  0
LINE
  5
F5
330
1B
100
AcDbEntity
 67
     1
  8
0
  6
Continuous
 62
     7
370
    25
100
AcDbLine
 10
-1.1751968504
 20
0.8267716535
 30
0.0
 11
-1.1751968504
 21
1.0047132361
 31
0.0
  0
LINE
  5
F6
330
1B
100
AcDbEntity
 67
     1
  8
0
  6
Continuous
 62
     7
370
    25
100
AcDbLine
 10
-1.4783464567
 20
1.0047132361
 30
0.0
 11
-1.4783464567
 21
0.8267716535
 31
0.0
  0
LINE
  5
F7
330
1B
100
AcDbEntity
 67
     1
  8
0
  6
Continuous
 62
     7
370
    25
100
AcDbLine
 10
-0.3818897638
 20
0.8267716535
 30
0.0
 11
-2.094488189
 21
0.8267716535
 31
0.0
  0
LINE
  5
F8
330
1B
100
AcDbEntity
 67
     1
  8
0
  6
Continuous
 62
     7
370
    25
100
AcDbLine
 10
-1.5258656512
 20
-0.8267716535
 30
0.0
 11
-0.3818897638
 21
-0.8267716535
 31
0.0
  0
LINE
  5
F9
330
1B
100
AcDbEntity
 67
     1
  8
0
  6
Continuous
 62
     7
370
    25
100
AcDbLine
 10
-2.094488189
 20
-0.8267716535
 30
0.0
 11
-1.8779527559
 21
-0.8267716535
 31
0.0
  0
LINE
  5
FA
330
1B
100
AcDbEntity
 67
     1
  8
0
  6
Continuous
 62
     7
370
    25
100
AcDbLine
 10
-1.8582677165
 20
-0.8226616826
 30
0.0
 11
-1.8582677165
 21
-1.4566929134
 31
0.0
  0
LINE
  5
FB
330
1B
100
AcDbEntity
 67
     1
  8
0
  6
Continuous
 62
     7
370
    25
100
AcDbLine
 10
-1.5433070866
 20
-1.4566929134
 30
0.0
 11
-1.5433070866
 21
-0.8226808753
 31
0.0
  0
LINE
  5
FC
330
1B
100
AcDbEntity
 67
     1
  8
0
  6
Continuous
 62
     7
370
    25
100
AcDbLine
 10
0.0
 20
1.2795275591
 30
0.0
 11
-0.157480315
 21
1.2795275591
 31
0.0
  0
LINE
  5
FD
330
1B
100
AcDbEntity
 67
     1
  8
0
  6
Continuous
 62
     7
370
    25
100
AcDbLine
 10
-0.157480315
 20
-1.2795275591
 30
0.0
 11
0.0
 21
-1.2795275591
 31
0.0
  0
LINE
  5
FE
330
1B
100
AcDbEntity
 67
     1
  8
0
  6
Continuous
 62
     7
370
    25
100
AcDbLine
 10
0.4330708661
 20
0.8267716535
 30
0.0
 11
0.0
 21
0.8267716535
 31
0.0
  0
LINE
  5
FF
330
1B
100
AcDbEntity
 67
     1
  8
0
  6
Continuous
 62
     7
370
    25
100
AcDbLine
 10
-0.157480315
 20
0.8267716535
 30
0.0
 11
-0.3543307087
 21
0.8267716535
 31
0.0
  0
LINE
  5
100
330
1B
100
AcDbEntity
 67
     1
  8
0
  6
Continuous
 62
     7
370
    25
100
AcDbLine
 10
-0.3543307087
 20
-0.8267716535
 30
0.0
 11
-0.157480315
 21
-0.8267716535
 31
0.0
  0
LINE
  5
101
330
1B
100
AcDbEntity
 67
     1
  8
0
  6
Continuous
 62
     7
370
    25
100
AcDbLine
 10
0.0
 20
-0.8267716535
 30
0.0
 11
0.4330708661
 21
-0.8267716535
 31
0.0
  0
LINE
  5
102
330
1B
100
AcDbEntity
 67
     1
  8
0
  6
Continuous
 62
     7
370
    25
100
AcDbLine
 10
-0.3622047244
 20
0.8070866142
 30
0.0
 11
-0.3622047244
 21
-0.8070866142
 31
0.0
  0
LINE
  5
103
330
1B
100
AcDbEntity
 67
     1
  8
0
  6
Continuous
 62
     7
370
    25
100
AcDbLine
 10
-2.1338582677
 20
-0.7874015748
 30
0.0
 11
-2.1338582677
 21
0.7874015748
 31
0.0
  0
LINE
  5
104
330
1B
100
AcDbEntity
 67
     1
  8
0
  6
Continuous
 62
     7
370
    25
100
AcDbLine
 10
-1.5826771796
 20
-1.4960629921
 30
0.0
 11
-1.8188976378
 21
-1.4960629921
 31
0.0
  0
LINE
  5
105
330
1B
100
AcDbEntity
 67
     1
  8
0
  6
Continuous
 62
     7
370
    25
100
AcDbLine
 10
-0.157480315
 20
-1.2795275591
 30
0.0
 11
-0.157480315
 21
1.2795275591
 31
0.0
  0
LINE
  5
106
330
1B
100
AcDbEntity
 67
     1
  8
0
  6
Continuous
 62
     7
370
    25
100
AcDbLine
 10
0.0
 20
-1.2795275591
 30
0.0
 11
0.0
 21
1.2795275591
 31
0.0
  0
LINE
  5
107
330
1B
100
AcDbEntity
 67
     1
  8
0
  6
Continuous
 62
     7
370
    25
100
AcDbLine
 10
0.4330708661
 20
-0.8267716535
 30
0.0
 11
0.4330708661
 21
0.8267716535
 31
0.0
  0
LINE
  5
108
330
1B
100
AcDbEntity
 67
     1
  8
0
  6
Continuous
 62
     7
370
    25
100
AcDbLine
 10
-0.3543307087
 20
-0.8267716535
 30
0.0
 11
-0.3543307087
 21
0.8267716535
 31
0.0
  0
LINE
  5
109
330
1B
100
AcDbEntity
 67
     1
  8
0
  6
Continuous
 62
     8
370
    25
100
AcDbLine
 10
-1.4631867137
 20
1.0238710665
 30
0.0
 11
-1.1903565934
 21
1.0238710665
 31
0.0
  0
LINE
  5
10A
330
1B
100
AcDbEntity
 67
     1
  8
0
  6
Continuous
 62
     8
370
    25
100
AcDbLine
 10
-1.1751968504
 20
1.0047132361
 30
0.0
 11
-1.4783464567
 21
1.0047132361
 31
0.0
  0
LINE
  5
10B
330
1B
100
AcDbEntity
 67
     1
  8
0
  6
Continuous
 62
     8
370
    25
100
AcDbLine
 10
-0.3818897638
 20
-0.8267716535
 30
0.0
 11
-0.3818897638
 21
0.8267716535
 31
0.0
  0
LINE
  5
10C
330
1B
100
AcDbEntity
 67
     1
  8
0
  6
Continuous
 62
     8
370
    25
100
AcDbLine
 10
-2.094488189
 20
0.8267716535
 30
0.0
 11
-2.094488189
 21
-0.8267716535
 31
0.0
  0
LINE
  5
10D
330
1B
100
AcDbEntity
 67
     1
  8
0
  6
Continuous
 62
     8
370
    25
100
AcDbLine
 10
-1.8779527559
 20
-0.8267716535
 30
0.0
 11
-1.877615578
 21
-0.8266959538
 31
0.0
  0
LINE
  5
10E
330
1B
100
AcDbEntity
 67
     1
  8
0
  6
Continuous
 62
     8
370
    25
100
AcDbLine
 10
-1.8582677165
 20
-1.4566929134
 30
0.0
 11
-1.5433070866
 21
-1.4566929134
 31
0.0
  0
ARC
  5
10F
330
1B
100
AcDbEntity
 67
     1
  8
0
  6
Continuous
 62
     7
370
    25
100
AcDbCircle
 10
-1.1948818898
 20
1.0047132361
 30
0.0
 40
0.0196850393700787
100
AcDbArc
 50
0.0
 51
76.709695303
  0
ARC
  5
110
330
1B
100
AcDbEntity
 67
     1
  8
0
  6
Continuous
 62
     7
370
    25
100
AcDbCircle
 10
-1.4586614173
 20
1.0047132361
 30
0.0
 40
0.0196850393700785
100
AcDbArc
 50
103.290304697
 51
180.0
  0
ARC
  5
111
330
1B
100
AcDbEntity
 67
     1
  8
0
  6
Continuous
 62
     7
370
    25
100
AcDbCircle
 10
-1.3267716535
 20
0.4463582677
 30
0.0
 40
0.5934055118110125
100
AcDbArc
 50
76.709695303
 51
103.290304697
  0
ARC
  5
112
330
1B
100
AcDbEntity
 67
     1
  8
0
  6
Continuous
 62
     7
370
    25
100
AcDbCircle
 10
-0.3818897638
 20
-0.8070866142
 30
0.0
 40
0.0196850393700789
100
AcDbArc
 50
270.0
 51
0.0
  0
ARC
  5
113
330
1B
100
AcDbEntity
 67
     1
  8
0
  6
Continuous
 62
     7
370
    25
100
AcDbCircle
 10
-0.3818897638
 20
0.8070866142
 30
0.0
 40
0.0196850393700788
100
AcDbArc
 50
0.0
 51
90.0
  0
ARC
  5
114
330
1B
100
AcDbEntity
 67
     1
  8
0
  6
Continuous
 62
     7
370
    25
100
AcDbCircle
 10
-2.094488189
 20
-0.7874015748
 30
0.0
 40
0.0393700787401579
100
AcDbArc
 50
180.0
 51
270.0
  0
ARC
  5
115
330
1B
100
AcDbEntity
 67
     1
  8
0
  6
Continuous
 62
     7
370
    25
100
AcDbCircle
 10
-2.094488189
 20
0.7874015748
 30
0.0
 40
0.0393700787401583
100
AcDbArc
 50
90.0
 51
180.0
  0
ARC
  5
116
330
1B
100
AcDbEntity
 67
     1
  8
0
  6
Continuous
 62
     7
370
    25
100
AcDbCircle
 10
-1.8188976378
 20
-1.4566929134
 30
0.0
 40
0.0393700787401579
100
AcDbArc
 50
180.0
 51
270.0
  0
ARC
  5
117
330
1B
100
AcDbEntity
 67
     1
  8
0
  6
Continuous
 62
     7
370
    25
100
AcDbCircle
 10
-1.5826771654
 20
-1.4566929134
 30
0.0
 40
0.0393700787401581
100
AcDbArc
 50
270.0
 51
0.0
  0
VIEWPORT
  5
22F
330
1B
100
AcDbEntity
 67
     1
  8
0
100
AcDbViewport
 10
0.0
 20
0.0
 30
0.0
 40
8.4
 41
6.4
 68
     1
 69
     1
 12
3.1496062992
 22
-0.1082677165
 13
0.0
 23
0.0
 14
0.5
 24
0.5
 15
0.5
 25
0.5
 16
0.0
 26
0.0
 36
1.0
 17
0.0
 27
0.0
 37
0.0
 42
50.0
 43
0.0
 44
0.0
 45
6.8841394826
 50
0.0
 51
0.0
 72
   100
 90
   557152
  1

281
     0
 71
     1
 74
     0
110
0.0
120
0.0
130
0.0
111
1.0
121
0.0
131
0.0
112
0.0
122
1.0
132
0.0
 79
     0
146
0.0
  0
ENDSEC
  0
SECTION
  2
OBJECTS
  0
DICTIONARY
  5
C
330
0
100
AcDbDictionary
281
     1
  3
ACAD_GROUP
350
D
  3
ACAD_LAYOUT
350
1A
  3
ACAD_MLINESTYLE
350
17
  3
ACAD_PLOTSETTINGS
350
19
  3
ACAD_PLOTSTYLENAME
350
E
  3
ACAD_SCALELIST
350
47
  0
DICTIONARY
  5
D
102
{ACAD_REACTORS
330
C
102
}
330
C
100
AcDbDictionary
281
     1
  0
DICTIONARY
  5
1A
102
{ACAD_REACTORS
330
C
102
}
330
C
100
AcDbDictionary
281
     1
  3
_Isometric
350
194
  3
_Right
350
1E
  3
_Top
350
26
  3
Model
350
22
  0
DICTIONARY
  5
17
102
{ACAD_REACTORS
330
C
102
}
330
C
100
AcDbDictionary
281
     1
  3
Standard
350
18
  0
DICTIONARY
  5
19
102
{ACAD_REACTORS
330
C
102
}
330
C
100
AcDbDictionary
281
     1
  0
ACDBDICTIONARYWDFLT
  5
E
102
{ACAD_REACTORS
330
C
102
}
330
C
100
AcDbDictionary
281
     1
  3
Normal
350
F
100
AcDbDictionaryWithDefault
340
F
  0
DICTIONARY
  5
47
102
{ACAD_REACTORS
330
C
102
}
330
C
100
AcDbDictionary
281
     1
  3
A0
350
48
  3
A1
350
49
  3
A2
350
4A
  3
A3
350
4B
  3
A4
350
4C
  3
A5
350
4D
  3
A6
350
4E
  3
A7
350
4F
  3
A8
350
50
  3
A9
350
51
  3
B0
350
52
  3
B1
350
53
  3
B2
350
54
  3
B3
350
55
  3
B4
350
56
  3
B5
350
57
  3
B6
350
58
  3
B7
350
59
  3
B8
350
5A
  3
B9
350
5B
  3
C0
350
5C
  3
C1
350
5D
  3
C2
350
5E
  3
C3
350
5F
  3
C4
350
60
  3
C5
350
61
  3
C6
350
62
  3
C7
350
63
  3
C8
350
64
  3
C9
350
65
  3
D0
350
66
  3
D1
350
67
  3
D2
350
68
  0
LAYOUT
  5
194
102
{ACAD_REACTORS
330
1A
102
}
330
1A
100
AcDbPlotSettings
  1

  2
none_device
  4
Letter_(8.50_x_11.00_Inches)
  6

 40
6.35
 41
6.35
 42
6.35001
 43
6.35001
 44
215.9
 45
279.4
 46
0.0
 47
0.0
 48
0.0
 49
0.0
140
0.0
141
0.0
142
1.0
143
0.346948836
 70
   688
 72
     0
 73
     1
 74
     1
  7

 75
     0
147
2.8822693617
148
54.2
149
38.0
100
AcDbLayout
  1
_Isometric
 70
     1
 71
     3
 10
0.0
 20
0.0
 11
0.0
 21
0.0
 12
0.0
 22
0.0
 32
0.0
 14
0.0
 24
0.0
 34
0.0
 15
0.0
 25
0.0
 35
0.0
146
0.0
 13
0.0
 23
0.0
 33
0.0
 16
1.0
 26
0.0
 36
0.0
 17
0.0
 27
1.0
 37
0.0
 76
     0
330
193
331
233
  0
LAYOUT
  5
1E
102
{ACAD_REACTORS
330
1A
102
}
330
1A
100
AcDbPlotSettings
  1

  2
none_device
  4
Letter_(8.50_x_11.00_Inches)
  6

 40
6.35
 41
6.35
 42
6.35001
 43
6.35001
 44
215.9
 45
279.4
 46
0.0
 47
0.0
 48
0.0
 49
0.0
140
0.0
141
0.0
142
1.0
143
0.346948836
 70
   688
 72
     0
 73
     1
 74
     1
  7

 75
     0
147
2.8822693617
148
54.2
149
38.0
100
AcDbLayout
  1
_Right
 70
     1
 71
     1
 10
-2.2205956133
 20
-1.5828002011
 11
1.5958415824
 21
1.3662649046
 12
0.0
 22
0.0
 32
0.0
 14
-2.1338582677
 24
-1.4960629921
 34
0.0
 15
0.4330708661
 25
1.2795275591
 35
0.0
146
0.0
 13
0.0
 23
0.0
 33
0.0
 16
1.0
 26
0.0
 36
0.0
 17
0.0
 27
1.0
 37
0.0
 76
     0
330
1B
331
22F
  0
LAYOUT
  5
26
102
{ACAD_REACTORS
330
1A
102
}
330
1A
100
AcDbPlotSettings
  1

  2
none_device
  4
Letter_(8.50_x_11.00_Inches)
  6

 40
6.35
 41
6.35
 42
6.35001
 43
6.35001
 44
215.9
 45
279.4
 46
0.0
 47
0.0
 48
0.0
 49
0.0
140
0.0
141
0.0
142
1.0
143
0.346948836
 70
   688
 72
     0
 73
     1
 74
     1
  7

 75
     0
147
2.8822693617
148
54.2
149
38.0
100
AcDbLayout
  1
_Top
 70
     1
 71
     2
 10
0.0
 20
0.0
 11
0.0
 21
0.0
 12
0.0
 22
0.0
 32
0.0
 14
0.0
 24
0.0
 34
0.0
 15
0.0
 25
0.0
 35
0.0
146
0.0
 13
0.0
 23
0.0
 33
0.0
 16
1.0
 26
0.0
 36
0.0
 17
0.0
 27
1.0
 37
0.0
 76
     0
330
23
331
231
  0
LAYOUT
  5
22
102
{ACAD_REACTORS
330
1A
102
}
330
1A
100
AcDbPlotSettings
  1

  2
none_device
  4
ANSI_A_(11.00_x_8.50_Inches)
  6

 40
6.35
 41
19.05
 42
6.35000508
 43
19.05000254
 44
279.4
 45
215.9
 46
35.00119746
 47
92.28073873
 48
0.0
 49
0.0
140
0.0
141
0.0
142
1.22936
143
1.0
 70
  1696
 72
     0
 73
     0
 74
     0
  7

 75
     0
147
0.5913241897
148
-39.4088153714
149
0.0
100
AcDbLayout
  1
Model
 70
     1
 71
     0
 10
0.0
 20
0.0
 11
12.0
 21
9.0
 12
0.0
 22
0.0
 32
0.0
 14
-1.2795275591
 24
-1.4960629921
 34
0.0
 15
7.5787401575
 25
1.2795275591
 35
0.0
146
0.0
 13
0.0
 23
0.0
 33
0.0
 16
1.0
 26
0.0
 36
0.0
 17
0.0
 27
1.0
 37
0.0
 76
     0
330
1F
331
29
  0
MLINESTYLE
  5
18
102
{ACAD_REACTORS
330
17
102
}
330
17
100
AcDbMlineStyle
  2
Standard
 70
     0
  3

 62
   256
 51
90.0
 52
90.0
 71
     2
 49
0.5
 62
   256
  6
BYLAYER
 49
-0.5
 62
   256
  6
BYLAYER
  0
ACDBPLACEHOLDER
  5
F
102
{ACAD_REACTORS
330
E
102
}
330
E
  0
SCALE
  5
48
102
{ACAD_REACTORS
330
47
102
}
330
47
100
AcDbScale
 70
     0
300
1:1
140
1.0
141
1.0
290
     1
  0
SCALE
  5
49
102
{ACAD_REACTORS
330
47
102
}
330
47
100
AcDbScale
 70
     0
300
1:2
140
1.0
141
2.0
290
     0
  0
SCALE
  5
4A
102
{ACAD_REACTORS
330
47
102
}
330
47
100
AcDbScale
 70
     0
300
1:4
140
1.0
141
4.0
290
     0
  0
SCALE
  5
4B
102
{ACAD_REACTORS
330
47
102
}
330
47
100
AcDbScale
 70
     0
300
1:5
140
1.0
141
5.0
290
     0
  0
SCALE
  5
4C
102
{ACAD_REACTORS
330
47
102
}
330
47
100
AcDbScale
 70
     0
300
1:8
140
1.0
141
8.0
290
     0
  0
SCALE
  5
4D
102
{ACAD_REACTORS
330
47
102
}
330
47
100
AcDbScale
 70
     0
300
1:10
140
1.0
141
10.0
290
     0
  0
SCALE
  5
4E
102
{ACAD_REACTORS
330
47
102
}
330
47
100
AcDbScale
 70
     0
300
1:16
140
1.0
141
16.0
290
     0
  0
SCALE
  5
4F
102
{ACAD_REACTORS
330
47
102
}
330
47
100
AcDbScale
 70
     0
300
1:20
140
1.0
141
20.0
290
     0
  0
SCALE
  5
50
102
{ACAD_REACTORS
330
47
102
}
330
47
100
AcDbScale
 70
     0
300
1:30
140
1.0
141
30.0
290
     0
  0
SCALE
  5
51
102
{ACAD_REACTORS
330
47
102
}
330
47
100
AcDbScale
 70
     0
300
1:40
140
1.0
141
40.0
290
     0
  0
SCALE
  5
52
102
{ACAD_REACTORS
330
47
102
}
330
47
100
AcDbScale
 70
     0
300
1:50
140
1.0
141
50.0
290
     0
  0
SCALE
  5
53
102
{ACAD_REACTORS
330
47
102
}
330
47
100
AcDbScale
 70
     0
300
1:100
140
1.0
141
100.0
290
     0
  0
SCALE
  5
54
102
{ACAD_REACTORS
330
47
102
}
330
47
100
AcDbScale
 70
     0
300
2:1
140
2.0
141
1.0
290
     0
  0
SCALE
  5
55
102
{ACAD_REACTORS
330
47
102
}
330
47
100
AcDbScale
 70
     0
300
4:1
140
4.0
141
1.0
290
     0
  0
SCALE
  5
56
102
{ACAD_REACTORS
330
47
102
}
330
47
100
AcDbScale
 70
     0
300
8:1
140
8.0
141
1.0
290
     0
  0
SCALE
  5
57
102
{ACAD_REACTORS
330
47
102
}
330
47
100
AcDbScale
 70
     0
300
10:1
140
10.0
141
1.0
290
     0
  0
SCALE
  5
58
102
{ACAD_REACTORS
330
47
102
}
330
47
100
AcDbScale
 70
     0
300
100:1
140
100.0
141
1.0
290
     0
  0
SCALE
  5
59
102
{ACAD_REACTORS
330
47
102
}
330
47
100
AcDbScale
 70
     0
300
1/128" = 1'-0"
140
0.0078125
141
12.0
290
     0
  0
SCALE
  5
5A
102
{ACAD_REACTORS
330
47
102
}
330
47
100
AcDbScale
 70
     0
300
1/64" = 1'-0"
140
0.015625
141
12.0
290
     0
  0
SCALE
  5
5B
102
{ACAD_REACTORS
330
47
102
}
330
47
100
AcDbScale
 70
     0
300
1/32" = 1'-0"
140
0.03125
141
12.0
290
     0
  0
SCALE
  5
5C
102
{ACAD_REACTORS
330
47
102
}
330
47
100
AcDbScale
 70
     0
300
1/16" = 1'-0"
140
0.0625
141
12.0
290
     0
  0
SCALE
  5
5D
102
{ACAD_REACTORS
330
47
102
}
330
47
100
AcDbScale
 70
     0
300
3/32" = 1'-0"
140
0.09375
141
12.0
290
     0
  0
SCALE
  5
5E
102
{ACAD_REACTORS
330
47
102
}
330
47
100
AcDbScale
 70
     0
300
1/8" = 1'-0"
140
0.125
141
12.0
290
     0
  0
SCALE
  5
5F
102
{ACAD_REACTORS
330
47
102
}
330
47
100
AcDbScale
 70
     0
300
3/16" = 1'-0"
140
0.1875
141
12.0
290
     0
  0
SCALE
  5
60
102
{ACAD_REACTORS
330
47
102
}
330
47
100
AcDbScale
 70
     0
300
1/4" = 1'-0"
140
0.25
141
12.0
290
     0
  0
SCALE
  5
61
102
{ACAD_REACTORS
330
47
102
}
330
47
100
AcDbScale
 70
     0
300
3/8" = 1'-0"
140
0.375
141
12.0
290
     0
  0
SCALE
  5
62
102
{ACAD_REACTORS
330
47
102
}
330
47
100
AcDbScale
 70
     0
300
1/2" = 1'-0"
140
0.5
141
12.0
290
     0
  0
SCALE
  5
63
102
{ACAD_REACTORS
330
47
102
}
330
47
100
AcDbScale
 70
     0
300
3/4" = 1'-0"
140
0.75
141
12.0
290
     0
  0
SCALE
  5
64
102
{ACAD_REACTORS
330
47
102
}
330
47
100
AcDbScale
 70
     0
300
1" = 1'-0"
140
1.0
141
12.0
290
     0
  0
SCALE
  5
65
102
{ACAD_REACTORS
330
47
102
}
330
47
100
AcDbScale
 70
     0
300
1-1/2" = 1'-0"
140
1.5
141
12.0
290
     0
  0
SCALE
  5
66
102
{ACAD_REACTORS
330
47
102
}
330
47
100
AcDbScale
 70
     0
300
3" = 1'-0"
140
3.0
141
12.0
290
     0
  0
SCALE
  5
67
102
{ACAD_REACTORS
330
47
102
}
330
47
100
AcDbScale
 70
     0
300
6" = 1'-0"
140
6.0
141
12.0
290
     0
  0
SCALE
  5
68
102
{ACAD_REACTORS
330
47
102
}
330
47
100
AcDbScale
 70
     0
300
1'-0" = 1'-0"
140
12.0
141
12.0
290
     0
  0
ENDSEC
  0
EOF
