  0
SECTION
  2
HEADER
  9
$ACADVER
  1
AC1015
  9
$ACADMAINTVER
 70
     6
  9
$DWGCODEPAGE
  3
ANSI_1252
  9
$INSBASE
 10
0.0
 20
0.0
 30
0.0
  9
$EXTMIN
 10
-1.2795275591
 20
-1.4960629921
 30
0.0
  9
$EXTMAX
 10
4.4291338583
 20
1.2795275591
 30
0.0
  9
$LIMMIN
 10
0.0
 20
0.0
  9
$LIMMAX
 10
12.0
 20
9.0
  9
$ORTHOMODE
 70
     0
  9
$REGENMODE
 70
     1
  9
$FILLMODE
 70
     1
  9
$QTEXTMODE
 70
     0
  9
$MIRRTEXT
 70
     1
  9
$LTSCALE
 40
1.0
  9
$ATTMODE
 70
     1
  9
$TEXTSIZE
 40
0.1377952756
  9
$TRACEWID
 40
0.05
  9
$TEXTSTYLE
  7
Standard
  9
$CLAYER
  8
0
  9
$CELTYPE
  6
ByLayer
  9
$CECOLOR
 62
   256
  9
$CELTSCALE
 40
1.0
  9
$DISPSILH
 70
     0
  9
$DIMSCALE
 40
1.0
  9
$DIMASZ
 40
0.13
  9
$DIMEXO
 40
0.0393700787
  9
$DIMDLI
 40
0.38
  9
$DIMRND
 40
0.0
  9
$DIMDLE
 40
0.0
  9
$DIMEXE
 40
0.0393700787
  9
$DIMTP
 40
0.0
  9
$DIMTM
 40
0.0
  9
$DIMTXT
 40
0.1377952756
  9
$DIMCEN
 40
0.09
  9
$DIMTSZ
 40
0.0
  9
$DIMTOL
 70
     0
  9
$DIMLIM
 70
     0
  9
$DIMTIH
 70
     1
  9
$DIMTOH
 70
     1
  9
$DIMSE1
 70
     0
  9
$DIMSE2
 70
     0
  9
$DIMTAD
 70
     1
  9
$DIMZIN
 70
     1
  9
$DIMBLK
  1

  9
$DIMASO
 70
     1
  9
$DIMSHO
 70
     1
  9
$DIMPOST
  1

  9
$DIMAPOST
  1

  9
$DIMALT
 70
     0
  9
$DIMALTD
 70
     2
  9
$DIMALTF
 40
25.4
  9
$DIMLFAC
 40
1.0
  9
$DIMTOFL
 70
     0
  9
$DIMTVP
 40
0.0
  9
$DIMTIX
 70
     0
  9
$DIMSOXD
 70
     0
  9
$DIMSAH
 70
     0
  9
$DIMBLK1
  1

  9
$DIMBLK2
  1

  9
$DIMSTYLE
  2
Standard
  9
$DIMCLRD
 70
     0
  9
$DIMCLRE
 70
     0
  9
$DIMCLRT
 70
     0
  9
$DIMTFAC
 40
1.0
  9
$DIMGAP
 40
0.06
  9
$DIMJUST
 70
     0
  9
$DIMSD1
 70
     0
  9
$DIMSD2
 70
     0
  9
$DIMTOLJ
 70
     1
  9
$DIMTZIN
 70
     1
  9
$DIMALTZ
 70
     0
  9
$DIMALTTZ
 70
     0
  9
$DIMUPT
 70
     0
  9
$DIMDEC
 70
     2
  9
$DIMTDEC
 70
     2
  9
$DIMALTU
 70
     2
  9
$DIMALTTD
 70
     2
  9
$DIMTXSTY
  7
Standard
  9
$DIMAUNIT
 70
     0
  9
$DIMADEC
 70
     2
  9
$DIMALTRND
 40
0.0
  9
$DIMAZIN
 70
     0
  9
$DIMDSEP
 70
    46
  9
$DIMATFIT
 70
     3
  9
$DIMFRAC
 70
     0
  9
$DIMLDRBLK
  1

  9
$DIMLUNIT
 70
     2
  9
$DIMLWD
 70
    -2
  9
$DIMLWE
 70
    -2
  9
$DIMTMOVE
 70
     0
  9
$LUNITS
 70
     2
  9
$LUPREC
 70
     2
  9
$SKETCHINC
 40
0.1
  9
$FILLETRAD
 40
0.5
  9
$AUNITS
 70
     0
  9
$AUPREC
 70
     2
  9
$MENU
  1
.
  9
$ELEVATION
 40
0.0
  9
$PELEVATION
 40
0.0
  9
$THICKNESS
 40
0.0
  9
$LIMCHECK
 70
     0
  9
$CHAMFERA
 40
0.0
  9
$CHAMFERB
 40
0.0
  9
$CHAMFERC
 40
0.0
  9
$CHAMFERD
 40
0.0
  9
$SKPOLY
 70
     0
  9
$TDCREATE
 40
2460451.663130845
  9
$TDUCREATE
 40
2460451.621464178
  9
$TDUPDATE
 40
2460451.663152743
  9
$TDUUPDATE
 40
2460451.621486077
  9
$TDINDWG
 40
0.0000000116
  9
$TDUSRTIMER
 40
0.0000000116
  9
$USRTIMER
 70
     1
  9
$ANGBASE
 50
0.0
  9
$ANGDIR
 70
     0
  9
$PDMODE
 70
     0
  9
$PDSIZE
 40
-1.0
  9
$PLINEWID
 40
0.0
  9
$SPLFRAME
 70
     0
  9
$SPLINETYPE
 70
     6
  9
$SPLINESEGS
 70
     8
  9
$HANDSEED
  5
1CD
  9
$SURFTAB1
 70
     6
  9
$SURFTAB2
 70
     6
  9
$SURFTYPE
 70
     6
  9
$SURFU
 70
     6
  9
$SURFV
 70
     6
  9
$UCSBASE
  2

  9
$UCSNAME
  2

  9
$UCSORG
 10
0.0
 20
0.0
 30
0.0
  9
$UCSXDIR
 10
1.0
 20
0.0
 30
0.0
  9
$UCSYDIR
 10
0.0
 20
1.0
 30
0.0
  9
$UCSORTHOREF
  2

  9
$UCSORTHOVIEW
 70
     0
  9
$UCSORGTOP
 10
0.0
 20
0.0
 30
0.0
  9
$UCSORGBOTTOM
 10
0.0
 20
0.0
 30
0.0
  9
$UCSORGLEFT
 10
0.0
 20
0.0
 30
0.0
  9
$UCSORGRIGHT
 10
0.0
 20
0.0
 30
0.0
  9
$UCSORGFRONT
 10
0.0
 20
0.0
 30
0.0
  9
$UCSORGBACK
 10
0.0
 20
0.0
 30
0.0
  9
$PUCSBASE
  2

  9
$PUCSNAME
  2

  9
$PUCSORG
 10
0.0
 20
0.0
 30
0.0
  9
$PUCSXDIR
 10
1.0
 20
0.0
 30
0.0
  9
$PUCSYDIR
 10
0.0
 20
1.0
 30
0.0
  9
$PUCSORTHOREF
  2

  9
$PUCSORTHOVIEW
 70
     0
  9
$PUCSORGTOP
 10
0.0
 20
0.0
 30
0.0
  9
$PUCSORGBOTTOM
 10
0.0
 20
0.0
 30
0.0
  9
$PUCSORGLEFT
 10
0.0
 20
0.0
 30
0.0
  9
$PUCSORGRIGHT
 10
0.0
 20
0.0
 30
0.0
  9
$PUCSORGFRONT
 10
0.0
 20
0.0
 30
0.0
  9
$PUCSORGBACK
 10
0.0
 20
0.0
 30
0.0
  9
$USERI1
 70
     0
  9
$USERI2
 70
     0
  9
$USERI3
 70
     0
  9
$USERI4
 70
     0
  9
$USERI5
 70
     0
  9
$USERR1
 40
0.0
  9
$USERR2
 40
0.0
  9
$USERR3
 40
0.0
  9
$USERR4
 40
0.0
  9
$USERR5
 40
0.0
  9
$WORLDVIEW
 70
     1
  9
$SHADEDGE
 70
     3
  9
$SHADEDIF
 70
    70
  9
$TILEMODE
 70
     1
  9
$MAXACTVP
 70
    64
  9
$PINSBASE
 10
0.0
 20
0.0
 30
0.0
  9
$PLIMCHECK
 70
     0
  9
$PEXTMIN
 10
-2.1338582677
 20
-1.4960629921
 30
0.0
  9
$PEXTMAX
 10
0.4330708661
 20
1.2795275591
 30
0.0
  9
$PLIMMIN
 10
-2.2205956133
 20
-1.5828002011
  9
$PLIMMAX
 10
1.5958415824
 20
1.3662649046
  9
$UNITMODE
 70
     0
  9
$VISRETAIN
 70
     1
  9
$PLINEGEN
 70
     0
  9
$PSLTSCALE
 70
     1
  9
$TREEDEPTH
 70
  3020
  9
$CMLSTYLE
  2
Standard
  9
$CMLJUST
 70
     0
  9
$CMLSCALE
 40
1.0
  9
$PROXYGRAPHICS
 70
     1
  9
$MEASUREMENT
 70
     0
  9
$CELWEIGHT
370
    -1
  9
$ENDCAPS
280
     0
  9
$JOINSTYLE
280
     0
  9
$LWDISPLAY
290
     1
  9
$INSUNITS
 70
     1
  9
$HYPERLINKBASE
  1

  9
$STYLESHEET
  1

  9
$XEDIT
290
     1
  9
$CEPSNTYPE
380
     0
  9
$PSTYLEMODE
290
     1
  9
$FINGERPRINTGUID
  2
{7cb9bf46-9c1e-403a-b1b0-5f53d9e06900}
  9
$VERSIONGUID
  2
{FAEB1C32-E019-11D5-929B-00C0DF256EC4}
  9
$EXTNAMES
290
     1
  9
$PSVPSCALE
 40
0.0
  9
$OLESTARTUP
290
     0
  0
ENDSEC
  0
SECTION
  2
CLASSES
  0
CLASS
  1
ACDBDICTIONARYWDFLT
  2
AcDbDictionaryWithDefault
  3
ObjectDBX Classes
 90
        0
280
     0
281
     0
  0
CLASS
  1
VISUALSTYLE
  2
AcDbVisualStyle
  3
ObjectDBX Classes
 90
     4095
280
     0
281
     0
  0
CLASS
  1
MATERIAL
  2
AcDbMaterial
  3
ObjectDBX Classes
 90
     1153
280
     0
281
     0
  0
CLASS
  1
SCALE
  2
AcDbScale
  3
ObjectDBX Classes
 90
     1153
280
     0
281
     0
  0
CLASS
  1
TABLESTYLE
  2
AcDbTableStyle
  3
ObjectDBX Classes
 90
     4095
280
     0
281
     0
  0
CLASS
  1
MLEADERSTYLE
  2
AcDbMLeaderStyle
  3
ACDB_MLEADERSTYLE_CLASS
 90
     4095
280
     0
281
     0
  0
CLASS
  1
SUN
  2
AcDbSun
  3
SCENEOE
 90
     1153
280
     0
281
     0
  0
CLASS
  1
ACDBPLACEHOLDER
  2
AcDbPlaceHolder
  3
ObjectDBX Classes
 90
        0
280
     0
281
     0
  0
CLASS
  1
LAYOUT
  2
AcDbLayout
  3
ObjectDBX Classes
 90
        0
280
     0
281
     0
  0
ENDSEC
  0
SECTION
  2
TABLES
  0
TABLE
  2
VPORT
  5
8
330
0
100
AcDbSymbolTable
 70
     1
  0
VPORT
  5
29
330
8
100
AcDbSymbolTableRecord
100
AcDbViewportTableRecord
  2
*Active
 70
     0
 10
0.0
 20
0.0
 11
1.0
 21
1.0
 12
1.5748031496
 22
-0.1082677165
 13
0.0
 23
0.0
 14
0.5
 24
0.5
 15
0.5
 25
0.5
 16
0.0
 26
0.0
 36
1.0
 17
0.0
 27
0.0
 37
0.0
 40
2.8311023622
 41
2.0567375887
 42
50.0
 43
0.0
 44
0.0
 50
0.0
 51
0.0
 71
     0
 72
   100
 73
     1
 74
     3
 75
     0
 76
     0
 77
     0
 78
     0
281
     0
 65
     1
110
0.0
120
0.0
130
0.0
111
1.0
121
0.0
131
0.0
112
0.0
122
1.0
132
0.0
 79
     0
146
0.0
  0
ENDTAB
  0
TABLE
  2
LTYPE
  5
5
330
0
100
AcDbSymbolTable
 70
     6
  0
LTYPE
  5
14
330
5
100
AcDbSymbolTableRecord
100
AcDbLinetypeTableRecord
  2
ByBlock
 70
     0
  3

 72
    65
 73
     0
 40
0.0
  0
LTYPE
  5
15
330
5
100
AcDbSymbolTableRecord
100
AcDbLinetypeTableRecord
  2
ByLayer
 70
     0
  3

 72
    65
 73
     0
 40
0.0
  0
LTYPE
  5
16
330
5
100
AcDbSymbolTableRecord
100
AcDbLinetypeTableRecord
  2
Continuous
 70
     0
  3
Solid line
 72
    65
 73
     0
 40
0.0
  0
LTYPE
  5
6E
330
5
100
AcDbSymbolTableRecord
100
AcDbLinetypeTableRecord
  2
HIDDEN
 70
     0
  3
Hidden __ __ __ __ __ __ __ __ __ __ __ __ __ __
 72
    65
 73
     2
 40
0.075
 49
0.05
 74
     0
 49
-0.025
 74
     0
  0
LTYPE
  5
6F
330
5
100
AcDbSymbolTableRecord
100
AcDbLinetypeTableRecord
  2
PHANTOM
 70
     0
  3
Phantom ______  __  __  ______  __  __  ______
 72
    65
 73
     6
 40
0.5
 49
0.25
 74
     0
 49
-0.05
 74
     0
 49
0.05
 74
     0
 49
-0.05
 74
     0
 49
0.05
 74
     0
 49
-0.05
 74
     0
  0
LTYPE
  5
70
330
5
100
AcDbSymbolTableRecord
100
AcDbLinetypeTableRecord
  2
CENTER
 70
     0
  3
Center ____ _ ____ _ ____ _ ____ _ ____ _ ____
 72
    65
 73
     4
 40
0.4
 49
0.25
 74
     0
 49
-0.05
 74
     0
 49
0.05
 74
     0
 49
-0.05
 74
     0
  0
LTYPE
  5
71
330
5
100
AcDbSymbolTableRecord
100
AcDbLinetypeTableRecord
  2
CENTERX2
 70
     0
  3
Center (2x) ________  __  ________  __  _____
 72
    65
 73
     4
 40
0.8
 49
0.5
 74
     0
 49
-0.1
 74
     0
 49
0.1
 74
     0
 49
-0.1
 74
     0
  0
LTYPE
  5
72
330
5
100
AcDbSymbolTableRecord
100
AcDbLinetypeTableRecord
  2
DOT2
 70
     0
  3
Dot (.5x) ........................................
 72
    65
 73
     2
 40
0.025
 49
0.0
 74
     0
 49
-0.025
 74
     0
  0
ENDTAB
  0
TABLE
  2
LAYER
  5
2
330
0
100
AcDbSymbolTable
 70
     1
  0
LAYER
  5
10
330
2
100
AcDbSymbolTableRecord
100
AcDbLayerTableRecord
  2
0
 70
     0
 62
     7
  6
Continuous
370
    -3
390
F
  0
ENDTAB
  0
TABLE
  2
STYLE
  5
3
330
0
100
AcDbSymbolTable
 70
     1
  0
STYLE
  5
11
330
3
100
AcDbSymbolTableRecord
100
AcDbTextStyleTableRecord
  2
Standard
 70
     0
 40
0.0
 41
1.0
 50
0.0
 71
     0
 42
0.1377952756
  3
txt
  4

  0
ENDTAB
  0
TABLE
  2
VIEW
  5
6
330
0
100
AcDbSymbolTable
 70
     0
  0
ENDTAB
  0
TABLE
  2
UCS
  5
7
330
0
100
AcDbSymbolTable
 70
     0
  0
ENDTAB
  0
TABLE
  2
APPID
  5
9
330
0
100
AcDbSymbolTable
 70
     1
  0
APPID
  5
12
330
9
100
AcDbSymbolTableRecord
100
AcDbRegAppTableRecord
  2
ACAD
 70
     0
  0
ENDTAB
  0
TABLE
  2
DIMSTYLE
  5
A
330
0
100
AcDbSymbolTable
 70
     1
100
AcDbDimStyleTable
  0
DIMSTYLE
105
27
330
A
100
AcDbSymbolTableRecord
100
AcDbDimStyleTableRecord
  2
Standard
 70
     0
178
     0
340
11
  0
ENDTAB
  0
TABLE
  2
BLOCK_RECORD
  5
1
330
0
100
AcDbSymbolTable
 70
     2
  0
BLOCK_RECORD
  5
1F
330
1
100
AcDbSymbolTableRecord
100
AcDbBlockTableRecord
  2
*Model_Space
340
22
  0
BLOCK_RECORD
  5
1B
330
1
100
AcDbSymbolTableRecord
100
AcDbBlockTableRecord
  2
*Paper_Space
340
1E
  0
BLOCK_RECORD
  5
23
330
1
100
AcDbSymbolTableRecord
100
AcDbBlockTableRecord
  2
*Paper_Space0
340
26
  0
BLOCK_RECORD
  5
158
330
1
100
AcDbSymbolTableRecord
100
AcDbBlockTableRecord
  2
*Paper_Space1
340
159
  0
ENDTAB
  0
ENDSEC
  0
SECTION
  2
BLOCKS
  0
BLOCK
  5
20
330
1F
100
AcDbEntity
  8
0
100
AcDbBlockBegin
  2
*Model_Space
 70
     0
 10
0.0
 20
0.0
 30
0.0
  3
*Model_Space
  1

  0
ENDBLK
  5
21
330
1F
100
AcDbEntity
  8
0
100
AcDbBlockEnd
  0
BLOCK
  5
1C
330
1B
100
AcDbEntity
 67
     1
  8
0
100
AcDbBlockBegin
  2
*Paper_Space
 70
     0
 10
0.0
 20
0.0
 30
0.0
  3
*Paper_Space
  1

  0
ENDBLK
  5
1D
330
1B
100
AcDbEntity
 67
     1
  8
0
100
AcDbBlockEnd
  0
BLOCK
  5
24
330
23
100
AcDbEntity
  8
0
100
AcDbBlockBegin
  2
*Paper_Space0
 70
     0
 10
0.0
 20
0.0
 30
0.0
  3
*Paper_Space0
  1

  0
SPLINE
  5
122
330
23
100
AcDbEntity
  8
0
  6
Continuous
 62
     7
370
    25
100
AcDbSpline
210
0.0
220
0.0
230
1.0
 70
    11
 71
     3
 72
    70
 73
    66
 74
     0
 42
0.000000001
 43
0.00000001
 40
0.0
 40
0.0
 40
0.0
 40
0.0
 40
0.03125
 40
0.03125
 40
0.0625
 40
0.0625
 40
0.09375
 40
0.09375
 40
0.125
 40
0.125
 40
0.15625
 40
0.15625
 40
0.1875
 40
0.1875
 40
0.21875
 40
0.21875
 40
0.25
 40
0.25
 40
0.28125
 40
0.28125
 40
0.3125
 40
0.3125
 40
0.34375
 40
0.34375
 40
0.375
 40
0.375
 40
0.40625
 40
0.40625
 40
0.4375
 40
0.4375
 40
0.46875
 40
0.46875
 40
0.5
 40
0.5
 40
0.53125
 40
0.53125
 40
0.5625
 40
0.5625
 40
0.59375
 40
0.59375
 40
0.625
 40
0.625
 40
0.65625
 40
0.65625
 40
0.6875
 40
0.6875
 40
0.71875
 40
0.71875
 40
0.75
 40
0.75
 40
0.78125
 40
0.78125
 40
0.8125
 40
0.8125
 40
0.84375
 40
0.84375
 40
0.875
 40
0.875
 40
0.90625
 40
0.90625
 40
0.9375
 40
0.9375
 40
0.96875
 40
0.96875
 40
1.0
 40
1.0
 40
1.0
 40
1.0
 10
3.149606299212598
 20
-1.169291338582677
 30
0.0
 10
3.139176884963164
 20
-1.169291338582677
 30
0.0
 10
3.128926447893114
 20
-1.170317125835537
 30
0.0
 10
3.108767460088742
 20
-1.174331945101335
 30
0.0
 10
3.098752758580999
 20
-1.177371389156305
 30
0.0
 10
3.079693035806447
 20
-1.185284349541929
 30
0.0
 10
3.070657105879588
 20
-1.190123099128478
 30
0.0
 10
3.053556759237765
 20
-1.201550695144887
 30
0.0
 10
3.045479110058294
 20
-1.208185966182585
 30
0.0
 10
3.030990700577079
 20
-1.222678538841476
 30
0.0
 10
3.024480826924441
 20
-1.230590563854455
 30
0.0
 10
3.012968311775596
 20
-1.247795415229269
 30
0.0
 10
3.008091426269847
 20
-1.256923957058606
 30
0.0
 10
3.000229819837713
 20
-1.275861660636346
 30
0.0
 10
2.997193115399321
 20
-1.285810763795944
 30
0.0
 10
2.993138134450202
 20
-1.30614917782182
 30
0.0
 10
2.992132078563282
 20
-1.31638254523299
 30
0.0
 10
2.992119944617896
 20
-1.336975175340444
 30
0.0
 10
2.993147943101271
 20
-1.347436910179121
 30
0.0
 10
2.99717582000879
 20
-1.367652199510556
 30
0.0
 10
3.000155685698974
 20
-1.377480192797235
 30
0.0
 10
3.008063840694234
 20
-1.396575480583397
 30
0.0
 10
3.012983379276025
 20
-1.405760143405772
 30
0.0
 10
3.024368602206351
 20
-1.422795208108423
 30
0.0
 10
3.030903172587431
 20
-1.430775725874468
 30
0.0
 10
3.045544015148399
 20
-1.445423751575317
 30
0.0
 10
3.053469227927364
 20
-1.451922494116865
 30
0.0
 10
3.070499523476467
 20
-1.463326358347659
 30
0.0
 10
3.079717786846468
 20
-1.468270270284492
 30
0.0
 10
3.098755057923329
 20
-1.476171834131418
 30
0.0
 10
3.108570976034385
 20
-1.479161221199659
 30
0.0
 10
3.128802211266537
 20
-1.48321227487793
 30
0.0
 10
3.139253555011796
 20
-1.484247827732008
 30
0.0
 10
3.159832683511996
 20
-1.484256083928531
 30
0.0
 10
3.170076459163223
 20
-1.483261563399162
 30
0.0
 10
3.190469750003235
 20
-1.479212782260523
 30
0.0
 10
3.200372508550092
 20
-1.476197703036688
 30
0.0
 10
3.219334637445148
 20
-1.468346054919487
 30
0.0
 10
3.228528084808882
 20
-1.46343856366974
 30
0.0
 10
3.245684091670736
 20
-1.451973691711954
 30
0.0
 10
3.253598473872732
 20
-1.445477352777925
 30
0.0
 10
3.268127903318348
 20
-1.430973595854969
 30
0.0
 10
3.274771167858238
 20
-1.422891642453485
 30
0.0
 10
3.286183781663041
 20
-1.40584053426557
 30
0.0
 10
3.291032954455564
 20
-1.396811092690373
 30
0.0
 10
3.298978501378729
 20
-1.377712472826951
 30
0.0
 10
3.302010041055177
 20
-1.367742537759872
 30
0.0
 10
3.306040256074577
 20
-1.347602664599212
 30
0.0
 10
3.307078920484416
 20
-1.337288447483589
 30
0.0
 10
3.307094222645154
 20
-1.316486548881668
 30
0.0
 10
3.306081427341988
 20
-1.306244214638148
 30
0.0
 10
3.302082088042584
 20
-1.286065692164315
 30
0.0
 10
3.299042391875684
 20
-1.276027119548902
 30
0.0
 10
3.291159104178374
 20
-1.256993742088172
 30
0.0
 10
3.286330544681503
 20
-1.247950962654682
 30
0.0
 10
3.274894378378997
 20
-1.230807504873112
 30
0.0
 10
3.268280184875399
 20
-1.222745712479657
 30
0.0
 10
3.253810906217638
 20
-1.208254619192076
 30
0.0
 10
3.245897054590733
 20
-1.201727782093328
 30
0.0
 10
3.228644170102955
 20
-1.190166769576408
 30
0.0
 10
3.219583135997524
 20
-1.185320298733081
 30
0.0
 10
3.200644889280974
 20
-1.177438784462501
 30
0.0
 10
3.190663527313721
 20
-1.174384545940334
 30
0.0
 10
3.170332141501274
 20
-1.170317295967775
 30
0.0
 10
3.160035713462032
 20
-1.169291338582677
 30
0.0
 10
3.149606299212598
 20
-1.169291338582677
 30
0.0
  0
CIRCLE
  5
124
330
23
100
AcDbEntity
  8
0
  6
Continuous
 62
     7
370
    25
100
AcDbCircle
 10
3.1496062992
 20
-1.3267716535
 30
0.0
 40
0.1364150601864409
  0
CIRCLE
  5
125
330
23
100
AcDbEntity
  8
0
  6
Continuous
 62
     7
370
    25
100
AcDbCircle
 10
3.1496062992
 20
-1.3267716535
 30
0.0
 40
0.1515748031496076
  0
LINE
  5
130
330
23
100
AcDbEntity
  8
0
  6
Continuous
 62
     7
370
    25
100
AcDbLine
 10
-1.2795275591
 20
0.0
 30
0.0
 11
-1.2795275591
 21
-0.157480315
 31
0.0
  0
LINE
  5
131
330
23
100
AcDbEntity
  8
0
  6
Continuous
 62
     7
370
    25
100
AcDbLine
 10
1.2795275591
 20
-0.157480315
 30
0.0
 11
1.2795275591
 21
0.0
 31
0.0
  0
LINE
  5
132
330
23
100
AcDbEntity
  8
0
  6
Continuous
 62
     7
370
    25
100
AcDbLine
 10
1.8700787402
 20
0.0
 30
0.0
 11
1.8700787402
 21
-0.157480315
 31
0.0
  0
LINE
  5
133
330
23
100
AcDbEntity
  8
0
  6
Continuous
 62
     7
370
    25
100
AcDbLine
 10
4.4291338583
 20
-0.157480315
 30
0.0
 11
4.4291338583
 21
0.0
 31
0.0
  0
LINE
  5
134
330
23
100
AcDbEntity
  8
0
  6
Continuous
 62
     7
370
    25
100
AcDbLine
 10
2.3228346457
 20
-0.3818897638
 30
0.0
 11
2.3228346457
 21
-2.094488189
 31
0.0
  0
LINE
  5
135
330
23
100
AcDbEntity
  8
0
  6
Continuous
 62
     7
370
    25
100
AcDbLine
 10
3.9763779528
 20
-2.094488189
 30
0.0
 11
3.9763779528
 21
-0.3818897638
 31
0.0
  0
LINE
  5
136
330
23
100
AcDbEntity
  8
0
  6
Continuous
 62
     7
370
    25
100
AcDbLine
 10
-0.8267716535
 20
-0.3818897638
 30
0.0
 11
-0.8267716535
 21
-2.094488189
 31
0.0
  0
LINE
  5
137
330
23
100
AcDbEntity
  8
0
  6
Continuous
 62
     7
370
    25
100
AcDbLine
 10
0.8267716535
 20
-2.094488189
 30
0.0
 11
0.8267716535
 21
-0.3818897638
 31
0.0
  0
LINE
  5
138
330
23
100
AcDbEntity
  8
0
  6
Continuous
 62
     7
370
    25
100
AcDbLine
 10
-0.8267716535
 20
0.4330708661
 30
0.0
 11
-0.8267716535
 21
0.0
 31
0.0
  0
LINE
  5
139
330
23
100
AcDbEntity
  8
0
  6
Continuous
 62
     7
370
    25
100
AcDbLine
 10
-0.8267716535
 20
-0.157480315
 30
0.0
 11
-0.8267716535
 21
-0.3543307087
 31
0.0
  0
LINE
  5
13A
330
23
100
AcDbEntity
  8
0
  6
Continuous
 62
     7
370
    25
100
AcDbLine
 10
0.8267716535
 20
-0.3543307087
 30
0.0
 11
0.8267716535
 21
-0.157480315
 31
0.0
  0
LINE
  5
13B
330
23
100
AcDbEntity
  8
0
  6
Continuous
 62
     7
370
    25
100
AcDbLine
 10
0.8267716535
 20
0.0
 30
0.0
 11
0.8267716535
 21
0.4330708661
 31
0.0
  0
LINE
  5
13C
330
23
100
AcDbEntity
  8
0
  6
Continuous
 62
     7
370
    25
100
AcDbLine
 10
2.3228346457
 20
0.4330708661
 30
0.0
 11
2.3228346457
 21
0.0
 31
0.0
  0
LINE
  5
13D
330
23
100
AcDbEntity
  8
0
  6
Continuous
 62
     7
370
    25
100
AcDbLine
 10
2.3228346457
 20
-0.157480315
 30
0.0
 11
2.3228346457
 21
-0.3543307087
 31
0.0
  0
LINE
  5
13E
330
23
100
AcDbEntity
  8
0
  6
Continuous
 62
     7
370
    25
100
AcDbLine
 10
3.9763779528
 20
-0.3543307087
 30
0.0
 11
3.9763779528
 21
-0.157480315
 31
0.0
  0
LINE
  5
13F
330
23
100
AcDbEntity
  8
0
  6
Continuous
 62
     7
370
    25
100
AcDbLine
 10
3.9763779528
 20
0.0
 30
0.0
 11
3.9763779528
 21
0.4330708661
 31
0.0
  0
LINE
  5
140
330
23
100
AcDbEntity
  8
0
  6
Continuous
 62
     7
370
    25
100
AcDbLine
 10
1.2795275591
 20
0.0
 30
0.0
 11
-1.2795275591
 21
0.0
 31
0.0
  0
LINE
  5
141
330
23
100
AcDbEntity
  8
0
  6
Continuous
 62
     7
370
    25
100
AcDbLine
 10
1.2795275591
 20
-0.157480315
 30
0.0
 11
-1.2795275591
 21
-0.157480315
 31
0.0
  0
LINE
  5
142
330
23
100
AcDbEntity
  8
0
  6
Continuous
 62
     7
370
    25
100
AcDbLine
 10
4.4291338583
 20
0.0
 30
0.0
 11
1.8700787402
 21
0.0
 31
0.0
  0
LINE
  5
143
330
23
100
AcDbEntity
  8
0
  6
Continuous
 62
     7
370
    25
100
AcDbLine
 10
4.4291338583
 20
-0.157480315
 30
0.0
 11
1.8700787402
 21
-0.157480315
 31
0.0
  0
LINE
  5
144
330
23
100
AcDbEntity
  8
0
  6
Continuous
 62
     7
370
    25
100
AcDbLine
 10
3.937007874
 20
-2.1338582677
 30
0.0
 11
2.3622047245
 21
-2.1338582677
 31
0.0
  0
LINE
  5
145
330
23
100
AcDbEntity
  8
0
  6
Continuous
 62
     7
370
    25
100
AcDbLine
 10
2.3425196852
 20
-0.3622047244
 30
0.0
 11
3.9566929134
 21
-0.3622047244
 31
0.0
  0
LINE
  5
146
330
23
100
AcDbEntity
  8
0
  6
Continuous
 62
     7
370
    25
100
AcDbLine
 10
0.7874015748
 20
-2.1338582677
 30
0.0
 11
-0.7874015747
 21
-2.1338582677
 31
0.0
  0
LINE
  5
147
330
23
100
AcDbEntity
  8
0
  6
Continuous
 62
     7
370
    25
100
AcDbLine
 10
-0.807086614
 20
-0.3622047244
 30
0.0
 11
0.8070866142
 21
-0.3622047244
 31
0.0
  0
LINE
  5
148
330
23
100
AcDbEntity
  8
0
  6
Continuous
 62
     7
370
    25
100
AcDbLine
 10
0.8267716535
 20
0.4330708661
 30
0.0
 11
-0.8267716535
 21
0.4330708661
 31
0.0
  0
LINE
  5
149
330
23
100
AcDbEntity
  8
0
  6
Continuous
 62
     7
370
    25
100
AcDbLine
 10
0.8267716535
 20
-0.3543307087
 30
0.0
 11
-0.8267716535
 21
-0.3543307087
 31
0.0
  0
LINE
  5
14A
330
23
100
AcDbEntity
  8
0
  6
Continuous
 62
     7
370
    25
100
AcDbLine
 10
3.9763779528
 20
0.4330708661
 30
0.0
 11
2.3228346457
 21
0.4330708661
 31
0.0
  0
LINE
  5
14B
330
23
100
AcDbEntity
  8
0
  6
Continuous
 62
     7
370
    25
100
AcDbLine
 10
3.9763779528
 20
-0.3543307087
 30
0.0
 11
2.3228346457
 21
-0.3543307087
 31
0.0
  0
LINE
  5
14C
330
23
100
AcDbEntity
  8
0
  6
Continuous
 62
     8
370
    25
100
AcDbLine
 10
2.3228346457
 20
-2.094488189
 30
0.0
 11
3.9763779528
 21
-2.094488189
 31
0.0
  0
LINE
  5
14D
330
23
100
AcDbEntity
  8
0
  6
Continuous
 62
     8
370
    25
100
AcDbLine
 10
3.9763779528
 20
-0.3818897638
 30
0.0
 11
2.3228346457
 21
-0.3818897638
 31
0.0
  0
LINE
  5
14E
330
23
100
AcDbEntity
  8
0
  6
Continuous
 62
     8
370
    25
100
AcDbLine
 10
-0.8267716535
 20
-2.094488189
 30
0.0
 11
0.8267716535
 21
-2.094488189
 31
0.0
  0
LINE
  5
14F
330
23
100
AcDbEntity
  8
0
  6
Continuous
 62
     8
370
    25
100
AcDbLine
 10
0.8267716535
 20
-0.3818897638
 30
0.0
 11
-0.8267716535
 21
-0.3818897638
 31
0.0
  0
ARC
  5
150
330
23
100
AcDbEntity
  8
0
  6
Continuous
 62
     7
370
    25
100
AcDbCircle
 10
3.937007874
 20
-2.094488189
 30
0.0
 40
0.0393700787401579
100
AcDbArc
 50
270.0
 51
0.0
  0
ARC
  5
151
330
23
100
AcDbEntity
  8
0
  6
Continuous
 62
     7
370
    25
100
AcDbCircle
 10
2.3622047244
 20
-2.094488189
 30
0.0
 40
0.0393700787401587
100
AcDbArc
 50
180.0
 51
270.0
  0
ARC
  5
152
330
23
100
AcDbEntity
  8
0
  6
Continuous
 62
     7
370
    25
100
AcDbCircle
 10
3.9566929134
 20
-0.3818897638
 30
0.0
 40
0.01968503937008
100
AcDbArc
 50
0.0
 51
90.0
  0
ARC
  5
153
330
23
100
AcDbEntity
  8
0
  6
Continuous
 62
     7
370
    25
100
AcDbCircle
 10
2.342519685
 20
-0.3818897638
 30
0.0
 40
0.0196850393700789
100
AcDbArc
 50
90.0
 51
180.0
  0
ARC
  5
154
330
23
100
AcDbEntity
  8
0
  6
Continuous
 62
     7
370
    25
100
AcDbCircle
 10
0.7874015748
 20
-2.094488189
 30
0.0
 40
0.0393700787401583
100
AcDbArc
 50
270.0
 51
0.0
  0
ARC
  5
155
330
23
100
AcDbEntity
  8
0
  6
Continuous
 62
     7
370
    25
100
AcDbCircle
 10
-0.7874015748
 20
-2.094488189
 30
0.0
 40
0.0393700787401583
100
AcDbArc
 50
180.0
 51
270.0
  0
ARC
  5
156
330
23
100
AcDbEntity
  8
0
  6
Continuous
 62
     7
370
    25
100
AcDbCircle
 10
0.8070866142
 20
-0.3818897638
 30
0.0
 40
0.0196850393700789
100
AcDbArc
 50
0.0
 51
90.0
  0
ARC
  5
157
330
23
100
AcDbEntity
  8
0
  6
Continuous
 62
     7
370
    25
100
AcDbCircle
 10
-0.8070866142
 20
-0.3818897638
 30
0.0
 40
0.0196850393700791
100
AcDbArc
 50
90.0
 51
180.0
  0
VIEWPORT
  5
1C9
330
23
100
AcDbEntity
  8
0
100
AcDbViewport
 10
0.0
 20
0.0
 30
0.0
 40
8.4
 41
6.4
 68
     1
 69
     1
 12
1.5748031496
 22
-0.1082677165
 13
0.0
 23
0.0
 14
0.5
 24
0.5
 15
0.5
 25
0.5
 16
0.0
 26
0.0
 36
1.0
 17
0.0
 27
0.0
 37
0.0
 42
50.0
 43
0.0
 44
0.0
 45
4.4364454443
 50
0.0
 51
0.0
 72
   100
 90
   557152
  1

281
     0
 71
     1
 74
     0
110
0.0
120
0.0
130
0.0
111
1.0
121
0.0
131
0.0
112
0.0
122
1.0
132
0.0
 79
     0
146
0.0
  0
ENDBLK
  5
25
330
23
100
AcDbEntity
  8
0
100
AcDbBlockEnd
  0
BLOCK
  5
15A
330
158
100
AcDbEntity
  8
0
100
AcDbBlockBegin
  2
*Paper_Space1
 70
     0
 10
0.0
 20
0.0
 30
0.0
  3
*Paper_Space1
  1

  0
SPLINE
  5
160
330
158
100
AcDbEntity
  8
0
  6
Continuous
 62
     7
370
    25
100
AcDbSpline
210
0.0
220
0.0
230
1.0
 70
     8
 71
     3
 72
    51
 73
    47
 74
     0
 42
0.000000001
 43
0.00000001
 40
0.0
 40
0.0
 40
0.0
 40
0.0
 40
0.0184825843487278
 40
0.0405142143675128
 40
0.0625950617905157
 40
0.0847931794543105
 40
0.1071543686607803
 40
0.1296969078897111
 40
0.152413056804169
 40
0.1752761153996973
 40
0.1982499959162926
 40
0.2212979163973639
 40
0.2443881087010772
 40
0.2674962495203464
 40
0.2906021178762778
 40
0.3136962775455542
 40
0.336774283160602
 40
0.359834645898972
 40
0.3828778227123985
 40
0.4059054998352741
 40
0.4289201115739522
 40
0.4519245313078818
 40
0.4749218817609175
 40
0.4979154243744208
 40
0.5209084985633119
 40
0.5439039262083497
 40
0.5669045557118942
 40
0.5899138118439125
 40
0.6129350987091662
 40
0.6359717382323502
 40
0.6590268577012997
 40
0.6821031954422997
 40
0.7052027818789322
 40
0.7283264385148042
 40
0.7514730238939785
 40
0.7746383540826015
 40
0.7978130316542235
 40
0.8209763742381465
 40
0.8441028136126546
 40
0.8671581612538716
 40
0.8901018164225526
 40
0.9128927773901433
 40
0.9354994006399872
 40
0.9579104633264971
 40
0.9801431520663397
 40
1.0
 40
1.0
 40
1.0
 40
1.0
 10
0.3297486284480914
 20
-1.426711698291421
 30
0.0
 10
0.3212527486548512
 20
-1.431951678582003
 30
0.0
 10
0.3026296011182546
 20
-1.443437825798683
 30
0.0
 10
0.2766065909357193
 20
-1.465462338620977
 30
0.0
 10
0.2513318043707287
 20
-1.49174052046696
 30
0.0
 10
0.2286692592403088
 20
-1.521389295637224
 30
0.0
 10
0.2086404791171717
 20
-1.554173566860994
 30
0.0
 10
0.1913712716971207
 20
-1.590002802014445
 30
0.0
 10
0.1769611739332254
 20
-1.628710104146183
 30
0.0
 10
0.1655064057444232
 20
-1.670104137344684
 30
0.0
 10
0.1570814088752829
 20
-1.713957910603934
 30
0.0
 10
0.1517359664981644
 20
-1.76002211082616
 30
0.0
 10
0.1494937090419244
 20
-1.808033930817841
 30
0.0
 10
0.1503544939206407
 20
-1.857722561877583
 30
0.0
 10
0.1542971910478287
 20
-1.908816387542698
 30
0.0
 10
0.1612832055636143
 20
-1.961045174964361
 30
0.0
 10
0.1712598557671508
 20
-2.01414282257502
 30
0.0
 10
0.1841617561204049
 20
-2.067843486217797
 30
0.0
 10
0.1999114920381831
 20
-2.121880854315029
 30
0.0
 10
0.2184200281829863
 20
-2.175988291757673
 30
0.0
 10
0.2395869945682929
 20
-2.229899329083799
 30
0.0
 10
0.2633009697755339
 20
-2.283348436064243
 30
0.0
 10
0.2894398292788885
 20
-2.336072001316906
 30
0.0
 10
0.3178711922456219
 20
-2.387809443414927
 30
0.0
 10
0.3484527291451822
 20
-2.438303977614519
 30
0.0
 10
0.3810327376937959
 20
-2.487303875730751
 30
0.0
 10
0.4154511293411496
 20
-2.534564127542614
 30
0.0
 10
0.4515406337828669
 20
-2.579847932119097
 30
0.0
 10
0.4891278076079423
 20
-2.622927619816054
 30
0.0
 10
0.5280337132119721
 20
-2.663585099566505
 30
0.0
 10
0.5680748431089384
 20
-2.70161253293758
 30
0.0
 10
0.6090639511833275
 20
-2.736812803863708
 30
0.0
 10
0.6508106866985862
 20
-2.768999766627281
 30
0.0
 10
0.6931218855176665
 20
-2.797998284752644
 30
0.0
 10
0.7358013307195927
 20
-2.823644138417882
 30
0.0
 10
0.778648311777649
 20
-2.845783747575102
 30
0.0
 10
0.8214526009381373
 20
-2.864273434948826
 30
0.0
 10
0.8639935394855109
 20
-2.878983138007142
 30
0.0
 10
0.9060377211595835
 20
-2.889800969137981
 30
0.0
 10
0.9473397651845338
 20
-2.896638893562174
 30
0.0
 10
0.9876442542625695
 20
-2.899443838848749
 30
0.0
 10
1.026684515675146
 20
-2.898192147272764
 30
0.0
 10
1.064224080278116
 20
-2.892945681622767
 30
0.0
 10
1.099961345615598
 20
-2.883660701534854
 30
0.0
 10
1.1328019670858
 20
-2.871304051461698
 30
0.0
 10
1.152635354016093
 20
-2.860203569491191
 30
0.0
 10
1.161992276886005
 20
-2.854966624637449
 30
0.0
  0
SPLINE
  5
163
330
158
100
AcDbEntity
  8
0
  6
Continuous
 62
     7
370
    25
100
AcDbSpline
210
0.0
220
0.0
230
1.0
 70
     8
 71
     3
 72
    17
 73
    13
 74
     0
 42
0.000000001
 43
0.00000001
 40
0.0
 40
0.0
 40
0.0
 40
0.0
 40
0.0506807338364656
 40
0.1651240016637388
 40
0.2800377378169364
 40
0.3954571860294856
 40
0.5113416783039091
 40
0.6276035930516383
 40
0.7441388100303429
 40
0.8608492484535899
 40
0.9716320062157664
 40
0.9999999999999999
 40
0.9999999999999999
 40
0.9999999999999999
 40
0.9999999999999999
 10
2.43720734553025
 20
-2.103991256649142
 30
0.0
 10
2.440915987814001
 20
-2.100236166138767
 30
0.0
 10
2.452999195934241
 20
-2.088001624040715
 30
0.0
 10
2.47076733731473
 20
-2.063778477872784
 30
0.0
 10
2.490479449529619
 20
-2.031604614176085
 30
0.0
 10
2.507315300478265
 20
-1.996199782502615
 30
0.0
 10
2.521365946375322
 20
-1.957978846374661
 30
0.0
 10
2.532495746813459
 20
-1.917070960383036
 30
0.0
 10
2.540661845693766
 20
-1.873716843965666
 30
0.0
 10
2.545697927799802
 20
-1.828916269647169
 30
0.0
 10
2.547341668553888
 20
-1.794254982124267
 30
0.0
 10
2.547433804543166
 20
-1.774960515702846
 30
0.0
 10
2.547452587863716
 20
-1.771027045725643
 30
0.0
  0
SPLINE
  5
164
330
158
100
AcDbEntity
  8
0
  6
Continuous
 62
     7
370
    25
100
AcDbSpline
210
0.0
220
0.0
230
1.0
 70
     8
 71
     3
 72
    38
 73
    34
 74
     0
 42
0.000000001
 43
0.00000001
 40
0.0
 40
0.0
 40
0.0
 40
0.0
 40
0.0173351944179444
 40
0.0502044246369984
 40
0.0830669182126705
 40
0.1159179525573866
 40
0.1487562530124608
 40
0.1815819786476968
 40
0.21439620033021
 40
0.2472005483785718
 40
0.2799969841638139
 40
0.3127876580815275
 40
0.3455748254497449
 40
0.3783607996713734
 40
0.4111478161644468
 40
0.4439375691853151
 40
0.4767324382615948
 40
0.5095347996527116
 40
0.5423469957624826
 40
0.5751712778646767
 40
0.6080097047386228
 40
0.64086397330017
 40
0.6737351482551133
 40
0.7066232474557225
 40
0.7395266314769658
 40
0.7724411487776244
 40
0.8053569114934418
 40
0.8382579050377238
 40
0.8711231886904617
 40
0.9039254147316228
 40
0.9366328966731318
 40
0.9692148266562334
 40
1.0
 40
1.0
 40
1.0
 40
1.0
 10
2.547452587863716
 20
-1.771027045725643
 30
0.0
 10
2.547367502908013
 20
-1.762414698325171
 30
0.0
 10
2.547121088524458
 20
-1.737472494875343
 30
0.0
 10
2.544389981260761
 20
-1.695009448707179
 30
0.0
 10
2.53829176644003
 20
-1.643424154148528
 30
0.0
 10
2.52918168346675
 20
-1.590809388482777
 30
0.0
 10
2.517166191646238
 20
-1.537461746770511
 30
0.0
 10
2.50229872319306
 20
-1.48364165772694
 30
0.0
 10
2.484663573500139
 20
-1.429621383912154
 30
0.0
 10
2.464353029551094
 20
-1.375671197275748
 30
0.0
 10
2.441473045098377
 20
-1.322061742678379
 30
0.0
 10
2.416141198642125
 20
-1.269061925307033
 30
0.0
 10
2.388486620513092
 20
-1.216937905361736
 30
0.0
 10
2.358649318947508
 20
-1.165951806963675
 30
0.0
 10
2.326779729143988
 20
-1.11636072656225
 30
0.0
 10
2.293037785911639
 20
-1.068415073936014
 30
0.0
 10
2.257592035417513
 20
-1.022357281803135
 30
0.0
 10
2.220618498280774
 20
-0.978420420552265
 30
0.0
 10
2.182299953844986
 20
-0.9368274763892935
 30
0.0
 10
2.142824983419534
 20
-0.8977903953084517
 30
0.0
 10
2.102387020577656
 20
-0.8615092506061679
 30
0.0
 10
2.061183450174113
 20
-0.828171546868587
 30
0.0
 10
2.019414818414779
 20
-0.7979516734945034
 30
0.0
 10
1.977284221669297
 20
-0.7710104654955737
 30
0.0
 10
1.934997018400077
 20
-0.7474949261105535
 30
0.0
 10
1.892761707881639
 20
-0.7275380284849947
 30
0.0
 10
1.850791353125474
 20
-0.7112587724639473
 30
0.0
 10
1.809302504171406
 20
-0.69875669392134
 30
0.0
 10
1.768520591091769
 20
-0.6901218247027305
 30
0.0
 10
1.7286596730238
 20
-0.685383717948028
 30
0.0
 10
1.689995327447038
 20
-0.6846834748672296
 30
0.0
 10
1.65321610068819
 20
-0.6875647557368524
 30
0.0
 10
1.63019236522455
 20
-0.6927136326381812
 30
0.0
 10
1.619006913309334
 20
-0.695215073600623
 30
0.0
  0
SPLINE
  5
167
330
158
100
AcDbEntity
  8
0
  6
Continuous
 62
     7
370
    25
100
AcDbSpline
210
0.0
220
0.0
230
1.0
 70
     8
 71
     3
 72
    13
 73
     9
 74
     0
 42
0.000000001
 43
0.00000001
 40
0.0
 40
0.0
 40
0.0
 40
0.0
 40
0.0664560775409845
 40
0.2458548883774395
 40
0.4238272392041536
 40
0.6056592522764626
 40
0.7955318118193924
 40
1.0
 40
1.0
 40
1.0
 40
1.0
 10
0.8674987290563366
 20
-3.169420309412024
 30
0.0
 10
0.8673627345813216
 20
-3.171658429243344
 30
0.0
 10
0.8668596217327788
 20
-3.179938374760217
 30
0.0
 10
0.8703911050825985
 20
-3.194048287669925
 30
0.0
 10
0.8776296962591822
 20
-3.210772047167721
 30
0.0
 10
0.888663188477499
 20
-3.226024688553409
 30
0.0
 10
0.9029721518504983
 20
-3.240067573589934
 30
0.0
 10
0.9150218391015906
 20
-3.247733996092805
 30
0.0
 10
0.9212696786530363
 20
-3.251709084967182
 30
0.0
  0
SPLINE
  5
168
330
158
100
AcDbEntity
  8
0
  6
Continuous
 62
     7
370
    25
100
AcDbSpline
210
0.0
220
0.0
230
1.0
 70
     8
 71
     3
 72
    22
 73
    18
 74
     0
 42
0.000000001
 43
0.00000001
 40
0.0
 40
0.0
 40
0.0
 40
0.0
 40
0.041502993365401
 40
0.11603394967919
 40
0.1903243696418796
 40
0.2643128029066772
 40
0.3381011718487001
 40
0.4119872279498767
 40
0.4862520751817205
 40
0.5612593038489592
 40
0.637365173955867
 40
0.7146590299015243
 40
0.7831112450698641
 40
0.8483396971856103
 40
0.9108540695709026
 40
0.9785092149584267
 40
1.0
 40
1.0
 40
1.0
 40
1.0
 10
0.9212696786530363
 20
-3.251709084967181
 30
0.0
 10
0.9250565651762138
 20
-3.253768773730555
 30
0.0
 10
0.9356439316440361
 20
-3.259527245661001
 30
0.0
 10
0.9549176529291136
 20
-3.266942576422175
 30
0.0
 10
0.9791483906730898
 20
-3.273135013979607
 30
0.0
 10
1.0045401946888
 20
-3.276594609539693
 30
0.0
 10
1.030410574446476
 20
-3.277336925874285
 30
0.0
 10
1.056155994990513
 20
-3.275342548399416
 30
0.0
 10
1.081188670529677
 20
-3.270614197417836
 30
0.0
 10
1.104951233583821
 20
-3.263138587418407
 30
0.0
 10
1.126883541960636
 20
-3.252870154314603
 30
0.0
 10
1.145570253676287
 20
-3.240270511148846
 30
0.0
 10
1.160458415544481
 20
-3.225893802842547
 30
0.0
 10
1.171473281091582
 20
-3.210475152403805
 30
0.0
 10
1.178796739327308
 20
-3.193374562978134
 30
0.0
 10
1.182255548142565
 20
-3.179081103879978
 30
0.0
 10
1.181620092991172
 20
-3.170627869490648
 30
0.0
 10
1.181466901140502
 20
-3.168590012660923
 30
0.0
  0
SPLINE
  5
169
330
158
100
AcDbEntity
  8
0
  6
Continuous
 62
     7
370
    25
100
AcDbSpline
210
0.0
220
0.0
230
1.0
 70
     8
 71
     3
 72
    13
 73
     9
 74
     0
 42
0.000000001
 43
0.00000001
 40
0.0
 40
0.0
 40
0.0
 40
0.0
 40
0.0158945104597611
 40
0.2114874519690121
 40
0.4060061508494651
 40
0.6047114553102155
 40
0.8108674287109203
 40
1.0
 40
1.0
 40
1.0
 40
1.0
 10
1.440348673427428
 20
-1.006287305727872
 30
0.0
 10
1.44039787869755
 20
-1.005845415213369
 30
0.0
 10
1.441052588839642
 20
-0.9999657563715222
 30
0.0
 10
1.43827811817606
 20
-0.9886017098013093
 30
0.0
 10
1.432014155177966
 20
-0.973133538460693
 30
0.0
 10
1.421539505547665
 20
-0.9588486989135344
 30
0.0
 10
1.408302711037841
 20
-0.9462448245721126
 30
0.0
 10
1.397303409299243
 20
-0.9393155582386978
 30
0.0
 10
1.392040605081534
 20
-0.9360001321369523
 30
0.0
  0
SPLINE
  5
16A
330
158
100
AcDbEntity
  8
0
  6
Continuous
 62
     7
370
    25
100
AcDbSpline
210
0.0
220
0.0
230
1.0
 70
     8
 71
     3
 72
    22
 73
    18
 74
     0
 42
0.000000001
 43
0.00000001
 40
0.0
 40
0.0
 40
0.0
 40
0.0
 40
0.0393422579346447
 40
0.1126796560625623
 40
0.1858162930839782
 40
0.2587255137761127
 40
0.3314875633194201
 40
0.404251580374181
 40
0.4771574046308226
 40
0.5503642012097744
 40
0.6240506293319211
 40
0.6983331122884648
 40
0.7730652091397053
 40
0.847165578021048
 40
0.9115717904447186
 40
0.9803707567414826
 40
1.0
 40
1.0
 40
1.0
 40
1.0
 10
1.392040605081534
 20
-0.9360001321369523
 30
0.0
 10
1.388595021388811
 20
-0.9341203834605237
 30
0.0
 10
1.378726569352432
 20
-0.928736619399602
 30
0.0
 10
1.360441964120295
 20
-0.9215740518502721
 30
0.0
 10
1.337034373699235
 20
-0.9153881000521868
 30
0.0
 10
1.312311156080545
 20
-0.911734949543431
 30
0.0
 10
1.28698821516753
 20
-0.910640001249318
 30
0.0
 10
1.261717349986817
 20
-0.9121297154131579
 30
0.0
 10
1.237156879705546
 20
-0.9161774280151002
 30
0.0
 10
1.21393573788751
 20
-0.9227260547262085
 30
0.0
 10
1.192654639312806
 20
-0.9316972150677054
 30
0.0
 10
1.173888499257934
 20
-0.9430022025396764
 30
0.0
 10
1.158309471840631
 20
-0.956492180152532
 30
0.0
 10
1.146874294201312
 20
-0.9713606892545334
 30
0.0
 10
1.139862162592058
 20
-0.9873640472349701
 30
0.0
 10
1.13685235764262
 20
-0.9999910250592291
 30
0.0
 10
1.137660673513664
 20
-1.007280318317069
 30
0.0
 10
1.137840103007286
 20
-1.008898391455272
 30
0.0
  0
SPLINE
  5
16D
330
158
100
AcDbEntity
  8
0
  6
Continuous
 62
     7
370
    25
100
AcDbSpline
210
0.0
220
0.0
230
1.0
 70
     8
 71
     3
 72
    51
 73
    47
 74
     0
 42
0.000000001
 43
0.00000001
 40
0.0
 40
0.0
 40
0.0
 40
0.0
 40
0.0184825843487286
 40
0.0405142143675128
 40
0.0625950617905166
 40
0.0847931794543128
 40
0.1071543686607804
 40
0.1296969078897119
 40
0.1524130568041687
 40
0.175276115399698
 40
0.1982499959162929
 40
0.2212979163973645
 40
0.2443881087010772
 40
0.2674962495203468
 40
0.2906021178762792
 40
0.3136962775455551
 40
0.3367742831606023
 40
0.3598346458989725
 40
0.3828778227124
 40
0.405905499835275
 40
0.4289201115739545
 40
0.4519245313078815
 40
0.4749218817609174
 40
0.4979154243744217
 40
0.5209084985633134
 40
0.543903926208351
 40
0.5669045557118956
 40
0.5899138118439149
 40
0.6129350987091663
 40
0.6359717382323508
 40
0.659026857701301
 40
0.6821031954423014
 40
0.7052027818789346
 40
0.7283264385148058
 40
0.751473023893981
 40
0.7746383540826041
 40
0.7978130316542268
 40
0.8209763742381504
 40
0.8441028136126577
 40
0.8671581612538753
 40
0.8901018164225563
 40
0.9128927773901464
 40
0.93549940063999
 40
0.9579104633264998
 40
0.9801431520663432
 40
1.0
 40
1.0
 40
1.0
 40
1.0
 10
-1.897359343793002
 20
-0.1410296324288859
 30
0.0
 10
-1.905855223586243
 20
-0.1462696127194688
 30
0.0
 10
-1.924478371122839
 20
-0.1577557599361491
 30
0.0
 10
-1.950501381305375
 20
-0.1797802727584436
 30
0.0
 10
-1.975776167870368
 20
-0.2060584546044271
 30
0.0
 10
-1.998438713000785
 20
-0.2357072297746932
 30
0.0
 10
-2.018467493123921
 20
-0.2684915009984621
 30
0.0
 10
-2.035736700543971
 20
-0.3043207361519121
 30
0.0
 10
-2.050146798307867
 20
-0.3430280382836502
 30
0.0
 10
-2.061601566496669
 20
-0.3844220714821514
 30
0.0
 10
-2.070026563365808
 20
-0.4282758447414025
 30
0.0
 10
-2.075372005742927
 20
-0.4743400449636285
 30
0.0
 10
-2.077614263199167
 20
-0.522351864955309
 30
0.0
 10
-2.07675347832045
 20
-0.5720404960150512
 30
0.0
 10
-2.072810781193261
 20
-0.6231343216801674
 30
0.0
 10
-2.065824766677476
 20
-0.6753631091018304
 30
0.0
 10
-2.05584811647394
 20
-0.7284607567124887
 30
0.0
 10
-2.042946216120685
 20
-0.7821614203552667
 30
0.0
 10
-2.027196480202906
 20
-0.8361987884524981
 30
0.0
 10
-2.008687944058102
 20
-0.8903062258951429
 30
0.0
 10
-1.987520977672796
 20
-0.9442172632212681
 30
0.0
 10
-1.963807002465556
 20
-0.997666370201711
 30
0.0
 10
-1.937668142962201
 20
-1.050389935454373
 30
0.0
 10
-1.909236779995468
 20
-1.102127377552395
 30
0.0
 10
-1.878655243095905
 20
-1.152621911751988
 30
0.0
 10
-1.846075234547293
 20
-1.201621809868219
 30
0.0
 10
-1.811656842899936
 20
-1.248882061680083
 30
0.0
 10
-1.77556733845822
 20
-1.294165866256564
 30
0.0
 10
-1.737980164633146
 20
-1.337245553953521
 30
0.0
 10
-1.699074259029116
 20
-1.377903033703972
 30
0.0
 10
-1.659033129132149
 20
-1.415930467075047
 30
0.0
 10
-1.618044021057759
 20
-1.451130738001177
 30
0.0
 10
-1.5762972855425
 20
-1.483317700764748
 30
0.0
 10
-1.533986086723419
 20
-1.512316218890111
 30
0.0
 10
-1.491306641521493
 20
-1.53796207255535
 30
0.0
 10
-1.448459660463436
 20
-1.560101681712568
 30
0.0
 10
-1.405655371302947
 20
-1.578591369086293
 30
0.0
 10
-1.363114432755573
 20
-1.593301072144609
 30
0.0
 10
-1.3210702510815
 20
-1.604118903275446
 30
0.0
 10
-1.27976820705655
 20
-1.610956827699639
 30
0.0
 10
-1.239463717978515
 20
-1.613761772986213
 30
0.0
 10
-1.20042345656594
 20
-1.612510081410228
 30
0.0
 10
-1.16288389196297
 20
-1.60726361576023
 30
0.0
 10
-1.127146626625487
 20
-1.597978635672317
 30
0.0
 10
-1.094306005155289
 20
-1.585621985599159
 30
0.0
 10
-1.074472618224997
 20
-1.574521503628654
 30
0.0
 10
-1.065115695355086
 20
-1.569284558774913
 30
0.0
  0
SPLINE
  5
170
330
158
100
AcDbEntity
  8
0
  6
Continuous
 62
     7
370
    25
100
AcDbSpline
210
0.0
220
0.0
230
1.0
 70
     8
 71
     3
 72
    17
 73
    13
 74
     0
 42
0.000000001
 43
0.00000001
 40
0.0
 40
0.0
 40
0.0
 40
0.0
 40
0.0506807338364409
 40
0.1651240016637027
 40
0.2800377378169076
 40
0.3954571860294592
 40
0.5113416783038696
 40
0.6276035930515927
 40
0.7441388100302915
 40
0.8608492484535367
 40
0.9716320062157046
 40
0.9999999999999999
 40
0.9999999999999999
 40
0.9999999999999999
 40
0.9999999999999999
 10
0.2100993732891584
 20
-0.818309190786606
 30
0.0
 10
0.2138080155729085
 20
-0.8145541002762341
 30
0.0
 10
0.2258912236931452
 20
-0.8023195581781841
 30
0.0
 10
0.2436593650736333
 20
-0.7780964120102559
 30
0.0
 10
0.2633714772885224
 20
-0.7459225483135585
 30
0.0
 10
0.280207328237168
 20
-0.7105177166400883
 30
0.0
 10
0.2942579741342265
 20
-0.6722967805121383
 30
0.0
 10
0.3053877745723642
 20
-0.6313888945205163
 30
0.0
 10
0.3135538734526726
 20
-0.5880347781031494
 30
0.0
 10
0.3185899555587079
 20
-0.5432342037846554
 30
0.0
 10
0.3202336963127969
 20
-0.5085729162617464
 30
0.0
 10
0.3203258323020747
 20
-0.489278449840318
 30
0.0
 10
0.3203446156226252
 20
-0.485344979863107
 30
0.0
  0
SPLINE
  5
171
330
158
100
AcDbEntity
  8
0
  6
Continuous
 62
     7
370
    25
100
AcDbSpline
210
0.0
220
0.0
230
1.0
 70
     8
 71
     3
 72
    38
 73
    34
 74
     0
 42
0.000000001
 43
0.00000001
 40
0.0
 40
0.0
 40
0.0
 40
0.0
 40
0.0173351944179442
 40
0.050204424636998
 40
0.083066918212672
 40
0.1159179525573835
 40
0.1487562530124596
 40
0.1815819786476983
 40
0.2143962003302108
 40
0.247200548378573
 40
0.2799969841638172
 40
0.3127876580815303
 40
0.3455748254497452
 40
0.378360799671371
 40
0.4111478161644398
 40
0.4439375691853084
 40
0.4767324382615893
 40
0.5095347996527056
 40
0.5423469957624727
 40
0.5751712778646672
 40
0.6080097047386129
 40
0.6408639733001604
 40
0.673735148255102
 40
0.7066232474557125
 40
0.7395266314769542
 40
0.7724411487776118
 40
0.8053569114934288
 40
0.8382579050377114
 40
0.8711231886904466
 40
0.9039254147316096
 40
0.9366328966731176
 40
0.9692148266562192
 40
1.0
 40
1.0
 40
1.0
 40
1.0
 10
0.320344615622625
 20
-0.485344979863107
 30
0.0
 10
0.3202595306669223
 20
-0.4767326324626345
 30
0.0
 10
0.3200131162833659
 20
-0.4517904290128075
 30
0.0
 10
0.3172820090196697
 20
-0.4093273828446414
 30
0.0
 10
0.3111837941989383
 20
-0.3577420882859914
 30
0.0
 10
0.3020737112256596
 20
-0.305127322620242
 30
0.0
 10
0.2900582194051472
 20
-0.2517796809079754
 30
0.0
 10
0.2751907509519679
 20
-0.1979595918644014
 30
0.0
 10
0.2575556012590459
 20
-0.1439393180496135
 30
0.0
 10
0.2372450573100005
 20
-0.0899891314132071
 30
0.0
 10
0.2143650728572825
 20
-0.0363796768158361
 30
0.0
 10
0.1890332264010297
 20
0.0166201405555102
 30
0.0
 10
0.1613786482719995
 20
0.0687441605008043
 30
0.0
 10
0.1315413467064165
 20
0.1197302588988605
 30
0.0
 10
0.0996717569028999
 20
0.1693213393002823
 30
0.0
 10
0.0659298136705509
 20
0.2172669919265174
 30
0.0
 10
0.0304840631764257
 20
0.2633247840593965
 30
0.0
 10
-0.0064894739603135
 20
0.307261645310266
 30
0.0
 10
-0.0448080183960994
 20
0.3488545894732369
 30
0.0
 10
-0.0842829888215501
 20
0.3878916705540776
 30
0.0
 10
-0.1247209516634273
 20
0.4241728152563622
 30
0.0
 10
-0.1659245220669709
 20
0.4575105189939433
 30
0.0
 10
-0.2076931538263042
 20
0.4877303923680275
 30
0.0
 10
-0.2498237505717859
 20
0.5146716003669574
 30
0.0
 10
-0.2921109538410063
 20
0.5381871397519785
 30
0.0
 10
-0.3343462643594424
 20
0.5581440373775375
 30
0.0
 10
-0.376316619115607
 20
0.574423293398585
 30
0.0
 10
-0.4178054680696748
 20
0.5869253719411939
 30
0.0
 10
-0.458587381149312
 20
0.5955602411598035
 30
0.0
 10
-0.498448299217283
 20
0.6002983479145078
 30
0.0
 10
-0.5371126447940439
 20
0.6009985909953066
 30
0.0
 10
-0.5738918715528978
 20
0.5981173101256845
 30
0.0
 10
-0.5969156070165433
 20
0.592968433224355
 30
0.0
 10
-0.6081010589317644
 20
0.5904669922619121
 30
0.0
  0
SPLINE
  5
174
330
158
100
AcDbEntity
  8
0
  6
Continuous
 62
     7
370
    25
100
AcDbSpline
210
0.0
220
0.0
230
1.0
 70
     8
 71
     3
 72
    13
 73
     9
 74
     0
 42
0.000000001
 43
0.00000001
 40
0.0
 40
0.0
 40
0.0
 40
0.0
 40
0.0664560775411355
 40
0.2458548883775796
 40
0.4238272392042858
 40
0.6056592522766175
 40
0.795531811819535
 40
1.0
 40
1.0
 40
1.0
 40
1.0
 10
-1.359609243184754
 20
-1.883738243549488
 30
0.0
 10
-1.359745237659768
 20
-1.885976363380813
 30
0.0
 10
-1.360248350508311
 20
-1.894256308897691
 30
0.0
 10
-1.356716867158489
 20
-1.908366221807402
 30
0.0
 10
-1.349478275981901
 20
-1.925089981305198
 30
0.0
 10
-1.338444783763583
 20
-1.940342622690883
 30
0.0
 10
-1.324135820390584
 20
-1.954385507727405
 30
0.0
 10
-1.312086133139496
 20
-1.962051930230272
 30
0.0
 10
-1.305838293588055
 20
-1.966027019104645
 30
0.0
  0
SPLINE
  5
175
330
158
100
AcDbEntity
  8
0
  6
Continuous
 62
     7
370
    25
100
AcDbSpline
210
0.0
220
0.0
230
1.0
 70
     8
 71
     3
 72
    22
 73
    18
 74
     0
 42
0.000000001
 43
0.00000001
 40
0.0
 40
0.0
 40
0.0
 40
0.0
 40
0.0415029933654002
 40
0.1160339496792059
 40
0.1903243696418963
 40
0.2643128029066896
 40
0.3381011718487261
 40
0.4119872279498898
 40
0.4862520751817286
 40
0.5612593038489706
 40
0.6373651739558807
 40
0.714659029901538
 40
0.7831112450698773
 40
0.8483396971856235
 40
0.9108540695709114
 40
0.9785092149584333
 40
1.0
 40
1.0
 40
1.0
 40
1.0
 10
-1.305838293588055
 20
-1.966027019104645
 30
0.0
 10
-1.302051407064878
 20
-1.968086707868019
 30
0.0
 10
-1.291464040597054
 20
-1.973845179798466
 30
0.0
 10
-1.272190319311973
 20
-1.981260510559641
 30
0.0
 10
-1.247959581567997
 20
-1.987452948117071
 30
0.0
 10
-1.222567777552285
 20
-1.990912543677157
 30
0.0
 10
-1.196697397794608
 20
-1.991654860011749
 30
0.0
 10
-1.170951977250573
 20
-1.989660482536881
 30
0.0
 10
-1.14591930171141
 20
-1.984932131555298
 30
0.0
 10
-1.122156738657267
 20
-1.97745652155587
 30
0.0
 10
-1.100224430280451
 20
-1.967188088452066
 30
0.0
 10
-1.081537718564801
 20
-1.954588445286307
 30
0.0
 10
-1.066649556696607
 20
-1.940211736980008
 30
0.0
 10
-1.055634691149507
 20
-1.924793086541266
 30
0.0
 10
-1.048311232913782
 20
-1.907692497115596
 30
0.0
 10
-1.044852424098526
 20
-1.89339903801744
 30
0.0
 10
-1.045487879249919
 20
-1.884945803628112
 30
0.0
 10
-1.045641071100589
 20
-1.882907946798388
 30
0.0
  0
LWPOLYLINE
  5
17A
330
158
100
AcDbEntity
  8
0
  6
Continuous
 62
     7
370
    25
100
AcDbPolyline
 90
       40
 70
   128
 43
0.0
 10
0.9047626137
 20
-0.5223083393
 10
0.9030797255
 20
-0.4576424947
 10
0.8980373215
 20
-0.39127419
 10
0.8896541596
 20
-0.3234503197
 10
0.8779614258
 20
-0.2544231929
 10
0.8630026178
 20
-0.1844495951
 10
0.8448333835
 20
-0.1137898327
 10
0.8235213134
 20
-0.0427067647
 10
0.79914569
 20
0.0285351753
 10
0.7717971921
 20
0.0996709626
 10
0.7415775579
 20
0.1704359674
 10
0.7085992066
 20
0.2405669391
 10
0.6729848196
 20
0.3098029861
 10
0.634866885
 20
0.3778865456
 10
0.5943872038
 20
0.4445643423
 10
0.5516963632
 20
0.5095883305
 10
0.5069531758
 20
0.5727166166
 10
0.4603240894
 20
0.6337143593
 10
0.4119825671
 20
0.6923546429
 10
0.3621084426
 20
0.7484193218
 10
0.3108872509
 20
0.8016998317
 10
0.2585095382
 20
0.8519979655
 10
0.2051701531
 20
0.8991266109
 10
0.1510675215
 20
0.9429104463
 10
0.0964029088
 20
0.9831865929
 10
0.041379671
 20
1.0198052208
 10
-0.013797502
 20
1.0526301063
 10
-0.0689233473
 20
1.0815391387
 10
-0.1237927932
 20
1.1064247745
 10
-0.1782017218
 20
1.1271944374
 10
-0.2319477283
 20
1.1437708629
 10
-0.2848308741
 20
1.1560923858
 10
-0.3366544302
 20
1.164113169
 10
-0.3872256098
 20
1.1678033748
 10
-0.4363562847
 20
1.1671492753
 10
-0.4838636855
 20
1.1621533038
 10
-0.5295710817
 20
1.1528340458
 10
-0.5733084386
 20
1.1392261693
 10
-0.6149130505
 20
1.1213802967
 10
-0.6397117876
 20
1.1081333869
  0
LWPOLYLINE
  5
17B
330
158
100
AcDbEntity
  8
0
  6
Continuous
 62
     7
370
    25
100
AcDbPolyline
 90
       14
 70
   128
 43
0.0
 10
0.6397117876
 20
-1.1081333869
 10
0.6729848196
 20
-1.0868147197
 10
0.7085992066
 20
-1.0586981686
 10
0.7415775579
 20
-1.0266431909
 10
0.7717971921
 20
-0.990769033
 10
0.79914569
 20
-0.9512091493
 10
0.8235213134
 20
-0.908110705
 10
0.8448333835
 20
-0.8616340293
 10
0.8630026178
 20
-0.8119520184
 10
0.8779614258
 20
-0.7592494927
 10
0.8896541596
 20
-0.703722509
 10
0.8980373215
 20
-0.6455776313
 10
0.9030797255
 20
-0.5850311625
 10
0.9047626137
 20
-0.5223083393
  0
LWPOLYLINE
  5
17C
330
158
100
AcDbEntity
  8
0
  6
Continuous
 62
     7
370
    25
100
AcDbPolyline
 90
       54
 70
   128
 43
0.0
 10
0.7934072151
 20
-0.5865924425
 10
0.7917243269
 20
-0.521926598
 10
0.7866819229
 20
-0.4555582933
 10
0.778298761
 20
-0.387734423
 10
0.7666060272
 20
-0.3187072962
 10
0.7516472192
 20
-0.2487336984
 10
0.7334779848
 20
-0.178073936
 10
0.7121659148
 20
-0.106990868
 10
0.6877902914
 20
-0.035748928
 10
0.6604417935
 20
0.0353868593
 10
0.6302221593
 20
0.1061518641
 10
0.597243808
 20
0.1762828358
 10
0.561629421
 20
0.2455188828
 10
0.5235114864
 20
0.3136024423
 10
0.4830318052
 20
0.380280239
 10
0.4403409645
 20
0.4453042272
 10
0.3955977772
 20
0.5084325133
 10
0.3489686908
 20
0.569430256
 10
0.3006271685
 20
0.6280705396
 10
0.250753044
 20
0.6841352185
 10
0.1995318523
 20
0.7374157284
 10
0.1471541396
 20
0.7877138622
 10
0.0938147545
 20
0.8348425076
 10
0.0397121229
 20
0.878626343
 10
-0.0149524898
 20
0.9189024897
 10
-0.0699757276
 20
0.9555211176
 10
-0.1251529006
 20
0.9883460031
 10
-0.1802787459
 20
1.0172550354
 10
-0.2351481918
 20
1.0421406712
 10
-0.2895571205
 20
1.0629103341
 10
-0.343303127
 20
1.0794867596
 10
-0.3961862727
 20
1.0918082825
 10
-0.4480098289
 20
1.0998290657
 10
-0.4985810084
 20
1.1035192715
 10
-0.5477116833
 20
1.102865172
 10
-0.5952190841
 20
1.0978692005
 10
-0.6409264803
 20
1.0885499425
 10
-0.6846638372
 20
1.074942066
 10
-0.7262684491
 20
1.0570961934
 10
-0.7655855441
 20
1.0350787125
 10
-0.8024688599
 20
1.0089715296
 10
-0.8367811883
 20
0.9788717653
 10
-0.8683948851
 20
0.9448913927
 10
-0.8971923453
 20
0.9071568209
 10
-0.9230664404
 20
0.8658084251
 10
-0.9459209171
 20
0.821000024
 10
-0.9656707553
 20
0.7728983078
 10
-0.9822424843
 20
0.7216822181
 10
-0.9955744561
 20
0.667542282
 10
-1.0056170749
 20
0.6106799037
 10
-1.0123329816
 20
0.5513066149
 10
-1.0156971924
 20
0.4896432883
 10
-1.0156971924
 20
0.4259193153
 10
-1.0130196212
 20
0.3698440349
  0
LWPOLYLINE
  5
17D
330
158
100
AcDbEntity
  8
0
  6
Continuous
 62
     7
370
    25
100
AcDbPolyline
 90
       29
 70
   128
 43
0.0
 10
-0.1863151572
 20
-1.0622052651
 10
-0.1802787459
 20
-1.0662460391
 10
-0.1251529006
 20
-1.100983953
 10
-0.0699757276
 20
-1.1318652753
 10
-0.0149524898
 20
-1.1587751256
 10
0.0397121229
 20
-1.1816133974
 10
0.0938147545
 20
-1.2002951308
 10
0.1471541396
 20
-1.2147508285
 10
0.1995318523
 20
-1.2249267145
 10
0.250753044
 20
-1.2307849338
 10
0.3006271685
 20
-1.2323036933
 10
0.3489686908
 20
-1.2294773433
 10
0.3955977772
 20
-1.2223163979
 10
0.4403409645
 20
-1.2108474963
 10
0.4830318052
 20
-1.1951133035
 10
0.5235114864
 20
-1.1751723519
 10
0.561629421
 20
-1.151098823
 10
0.597243808
 20
-1.1229822719
 10
0.6302221593
 20
-1.0909272942
 10
0.6604417935
 20
-1.0550531363
 10
0.6877902914
 20
-1.0154932526
 10
0.7121659148
 20
-0.9723948083
 10
0.7334779848
 20
-0.9259181326
 10
0.7516472192
 20
-0.8762361217
 10
0.7666060272
 20
-0.823533596
 10
0.778298761
 20
-0.7680066123
 10
0.7866819229
 20
-0.7098617346
 10
0.7917243269
 20
-0.6493152658
 10
0.7934072151
 20
-0.5865924425
  0
LWPOLYLINE
  5
17E
330
158
100
AcDbEntity
  8
0
  6
Continuous
 62
     7
370
    25
100
AcDbPolyline
 90
       36
 70
   128
 43
0.0
 10
0.484395984
 20
-0.4082040559
 10
0.4827301423
 20
-0.3558316905
 10
0.4777419332
 20
-0.3018288727
 10
0.469459253
 20
-0.2464976082
 10
0.4579284216
 20
-0.1901473318
 10
0.4432139241
 20
-0.1330931772
 10
0.4253980501
 20
-0.0756542144
 10
0.404580433
 20
-0.0181516653
 10
0.3808774935
 20
0.0390928925
 10
0.354421788
 20
0.0957593242
 10
0.3253612675
 20
0.1515307281
 10
0.2938584503
 20
0.206095208
 10
0.2600895129
 20
0.2591476171
 10
0.2242433048
 20
0.3103912647
 10
0.1865202927
 20
0.3595395758
 10
0.1471314388
 20
0.4063176929
 10
0.1062970218
 20
0.4504640139
 10
0.0642454041
 20
0.4917316546
 10
0.0212117554
 20
0.5298898297
 10
-0.0225632625
 20
0.5647251431
 10
-0.066834842
 20
0.5960427816
 10
-0.1113553986
 20
0.6236676044
 10
-0.1558759552
 20
0.6474451221
 10
-0.2001475347
 20
0.6672423613
 10
-0.2439225527
 20
0.6829486078
 10
-0.2869562013
 20
0.6944760259
 10
-0.329007819
 20
0.7017601495
 10
-0.3698422361
 20
0.7047602429
 10
-0.4092310899
 20
0.7034595284
 10
-0.446954102
 20
0.6978652801
 10
-0.4828003101
 20
0.6880087833
 10
-0.5165692475
 20
0.6739451595
 10
-0.5480720648
 20
0.6557530582
 10
-0.5771325852
 20
0.633534217
 10
-0.6035882907
 20
0.6074128927
 10
-0.6057821721
 20
0.6049372101
  0
LWPOLYLINE
  5
17F
330
158
100
AcDbEntity
  8
0
  6
Continuous
 62
     7
370
    25
100
AcDbPolyline
 90
       15
 70
   128
 43
0.0
 10
0.2209222919
 20
-0.8271120899
 10
0.2242433048
 20
-0.8264334867
 10
0.2600895129
 20
-0.8165769899
 10
0.2938584503
 20
-0.8025133661
 10
0.3253612675
 20
-0.7843212648
 10
0.354421788
 20
-0.7621024236
 10
0.3808774935
 20
-0.7359810993
 10
0.404580433
 20
-0.706103373
 10
0.4253980501
 20
-0.6726363329
 10
0.4432139241
 20
-0.6357671404
 10
0.4579284216
 20
-0.595701983
 10
0.469459253
 20
-0.5526649212
 10
0.4777419332
 20
-0.5068966357
 10
0.4827301423
 20
-0.4586530815
 10
0.484395984
 20
-0.4082040559
  0
LWPOLYLINE
  5
180
330
158
100
AcDbEntity
  8
0
  6
Continuous
 62
     7
370
    25
100
AcDbPolyline
 90
        3
 70
   128
 43
0.0
 10
-0.4732085533
 20
0.6911209682
 10
-0.4922328921
 20
0.671696996
 10
-0.4944267735
 20
0.6692213134
  0
LWPOLYLINE
  5
181
330
158
100
AcDbEntity
  8
0
  6
Continuous
 62
     7
370
    25
100
AcDbPolyline
 90
        3
 70
   128
 43
0.0
 10
0.3322776905
 20
-0.7628279866
 10
0.3355987034
 20
-0.7621493834
 10
0.3618531547
 20
-0.7554050715
  0
LWPOLYLINE
  5
182
330
158
100
AcDbEntity
  8
0
  6
Continuous
 62
     7
370
    25
100
AcDbPolyline
 90
       54
 70
   128
 43
0.0
 10
3.0205151874
 20
-1.8722745084
 10
3.0188322992
 20
-1.8076086639
 10
3.0137898951
 20
-1.7412403592
 10
3.0054067332
 20
-1.6734164888
 10
2.9937139994
 20
-1.6043893621
 10
2.9787551915
 20
-1.5344157643
 10
2.9605859571
 20
-1.4637560019
 10
2.939273887
 20
-1.3926729338
 10
2.9148982636
 20
-1.3214309938
 10
2.8875497657
 20
-1.2502952066
 10
2.8573301316
 20
-1.1795302018
 10
2.8243517802
 20
-1.10939923
 10
2.7887373933
 20
-1.0401631831
 10
2.7506194586
 20
-0.9720796236
 10
2.7101397774
 20
-0.9054018269
 10
2.6674489368
 20
-0.8403778387
 10
2.6227057495
 20
-0.7772495526
 10
2.576076663
 20
-0.7162518099
 10
2.5277351407
 20
-0.6576115263
 10
2.4778610162
 20
-0.6015468474
 10
2.4266398245
 20
-0.5482663375
 10
2.3742621119
 20
-0.4979682037
 10
2.3209227267
 20
-0.4508395582
 10
2.2668200951
 20
-0.4070557228
 10
2.2121554824
 20
-0.3667795762
 10
2.1571322446
 20
-0.3301609483
 10
2.1019550717
 20
-0.2973360628
 10
2.0468292264
 20
-0.2684270304
 10
1.9919597804
 20
-0.2435413947
 10
1.9375508518
 20
-0.2227717318
 10
1.8838048453
 20
-0.2061953062
 10
1.8309216996
 20
-0.1938737834
 10
1.7790981434
 20
-0.1858530002
 10
1.7285269638
 20
-0.1821627944
 10
1.6793962889
 20
-0.1828168939
 10
1.6318888881
 20
-0.1878128653
 10
1.586181492
 20
-0.1971321234
 10
1.542444135
 20
-0.2107399998
 10
1.5008395231
 20
-0.2285858724
 10
1.4615224282
 20
-0.2506033534
 10
1.4246391123
 20
-0.2767105362
 10
1.3903267839
 20
-0.3068103005
 10
1.3587130872
 20
-0.3407906732
 10
1.329915627
 20
-0.3785252449
 10
1.3040415318
 20
-0.4198736407
 10
1.2811870551
 20
-0.4646820418
 10
1.2614372169
 20
-0.512783758
 10
1.244865488
 20
-0.5639998478
 10
1.2315335162
 20
-0.6181397839
 10
1.2214908973
 20
-0.6750021622
 10
1.2147749907
 20
-0.7343754509
 10
1.2114107798
 20
-0.7960387776
 10
1.2114107798
 20
-0.8597627505
 10
1.2140883511
 20
-0.915838031
  0
LWPOLYLINE
  5
183
330
158
100
AcDbEntity
  8
0
  6
Continuous
 62
     7
370
    25
100
AcDbPolyline
 90
       29
 70
   128
 43
0.0
 10
2.0407928151
 20
-2.347887331
 10
2.0468292264
 20
-2.351928105
 10
2.1019550717
 20
-2.3866660188
 10
2.1571322446
 20
-2.4175473412
 10
2.2121554824
 20
-2.4444571914
 10
2.2668200951
 20
-2.4672954632
 10
2.3209227267
 20
-2.4859771966
 10
2.3742621119
 20
-2.5004328944
 10
2.4266398245
 20
-2.5106087804
 10
2.4778610162
 20
-2.5164669997
 10
2.5277351407
 20
-2.5179857592
 10
2.576076663
 20
-2.5151594092
 10
2.6227057495
 20
-2.5079984637
 10
2.6674489368
 20
-2.4965295621
 10
2.7101397774
 20
-2.4807953694
 10
2.7506194586
 20
-2.4608544177
 10
2.7887373933
 20
-2.4367808888
 10
2.8243517802
 20
-2.4086643378
 10
2.8573301316
 20
-2.37660936
 10
2.8875497657
 20
-2.3407352022
 10
2.9148982636
 20
-2.3011753184
 10
2.939273887
 20
-2.2580768742
 10
2.9605859571
 20
-2.2116001985
 10
2.9787551915
 20
-2.1619181876
 10
2.9937139994
 20
-2.1092156619
 10
3.0054067332
 20
-2.0536886781
 10
3.0137898951
 20
-1.9955438005
 10
3.0188322992
 20
-1.9349973316
 10
3.0205151874
 20
-1.8722745084
  0
LWPOLYLINE
  5
184
330
158
100
AcDbEntity
  8
0
  6
Continuous
 62
     7
370
    25
100
AcDbPolyline
 90
       36
 70
   128
 43
0.0
 10
2.7115039562
 20
-1.6938861218
 10
2.7098381145
 20
-1.6415137563
 10
2.7048499055
 20
-1.5875109385
 10
2.6965672252
 20
-1.532179674
 10
2.6850363938
 20
-1.4758293977
 10
2.6703218964
 20
-1.4187752431
 10
2.6525060223
 20
-1.3613362803
 10
2.6316884053
 20
-1.3038337312
 10
2.6079854658
 20
-1.2465891734
 10
2.5815297602
 20
-1.1899227417
 10
2.5524692398
 20
-1.1341513377
 10
2.5209664225
 20
-1.0795868579
 10
2.4871974851
 20
-1.0265344488
 10
2.4513512771
 20
-0.9752908011
 10
2.4136282649
 20
-0.9261424901
 10
2.3742394111
 20
-0.8793643729
 10
2.333404994
 20
-0.835218052
 10
2.2913533763
 20
-0.7939504112
 10
2.2483197277
 20
-0.7557922362
 10
2.2045447098
 20
-0.7209569228
 10
2.1602731302
 20
-0.6896392843
 10
2.1157525736
 20
-0.6620144615
 10
2.0712320171
 20
-0.6382369438
 10
2.0269604375
 20
-0.6184397046
 10
1.9831854196
 20
-0.6027334581
 10
1.940151771
 20
-0.59120604
 10
1.8981001533
 20
-0.5839219164
 10
1.8572657362
 20
-0.5809218229
 10
1.8178768823
 20
-0.5822225374
 10
1.7801538702
 20
-0.5878167858
 10
1.7443076622
 20
-0.5976732826
 10
1.7105387247
 20
-0.6117369064
 10
1.6790359075
 20
-0.6299290077
 10
1.649975387
 20
-0.6521478489
 10
1.6235196815
 20
-0.6782691731
 10
1.6213258001
 20
-0.6807448557
  0
LWPOLYLINE
  5
185
330
158
100
AcDbEntity
  8
0
  6
Continuous
 62
     7
370
    25
100
AcDbPolyline
 90
       15
 70
   128
 43
0.0
 10
2.4480302641
 20
-2.1127941557
 10
2.4513512771
 20
-2.1121155526
 10
2.4871974851
 20
-2.1022590557
 10
2.5209664225
 20
-2.0881954319
 10
2.5524692398
 20
-2.0700033306
 10
2.5815297602
 20
-2.0477844895
 10
2.6079854658
 20
-2.0216631652
 10
2.6316884053
 20
-1.9917854388
 10
2.6525060223
 20
-1.9583183988
 10
2.6703218964
 20
-1.9214492063
 10
2.6850363938
 20
-1.8813840488
 10
2.6965672252
 20
-1.838346987
 10
2.7048499055
 20
-1.7925787016
 10
2.7098381145
 20
-1.7443351473
 10
2.7115039562
 20
-1.6938861218
  0
LWPOLYLINE
  5
186
330
158
100
AcDbEntity
  8
0
  6
Continuous
 62
     7
370
    25
100
AcDbPolyline
 90
       40
 70
   128
 43
0.0
 10
3.131870586
 20
-1.8079904051
 10
3.1301876978
 20
-1.7433245606
 10
3.1251452937
 20
-1.6769562559
 10
3.1167621318
 20
-1.6091323856
 10
3.105069398
 20
-1.5401052588
 10
3.0901105901
 20
-1.470131661
 10
3.0719413557
 20
-1.3994718986
 10
3.0506292856
 20
-1.3283888306
 10
3.0262536622
 20
-1.2571468905
 10
2.9989051643
 20
-1.1860111033
 10
2.9686855302
 20
-1.1152460985
 10
2.9357071788
 20
-1.0451151267
 10
2.9000927919
 20
-0.9758790798
 10
2.8619748572
 20
-0.9077955203
 10
2.821495176
 20
-0.8411177236
 10
2.7788043354
 20
-0.7760937354
 10
2.7340611481
 20
-0.7129654493
 10
2.6874320616
 20
-0.6519677066
 10
2.6390905393
 20
-0.593327423
 10
2.5892164148
 20
-0.5372627441
 10
2.5379952232
 20
-0.4839822342
 10
2.4856175105
 20
-0.4336841004
 10
2.4322781253
 20
-0.3865554549
 10
2.3781754937
 20
-0.3427716195
 10
2.3235108811
 20
-0.3024954729
 10
2.2684876432
 20
-0.265876845
 10
2.2133104703
 20
-0.2330519595
 10
2.158184625
 20
-0.2041429271
 10
2.103315179
 20
-0.1792572914
 10
2.0489062504
 20
-0.1584876285
 10
1.9951602439
 20
-0.1419112029
 10
1.9422770982
 20
-0.1295896801
 10
1.890453542
 20
-0.1215688969
 10
1.8398823624
 20
-0.1178786911
 10
1.7907516875
 20
-0.1185327906
 10
1.7432442867
 20
-0.123528762
 10
1.6975368906
 20
-0.1328480201
 10
1.6537995336
 20
-0.1464558965
 10
1.6121949217
 20
-0.1643017691
 10
1.5873961846
 20
-0.177548679
  0
LWPOLYLINE
  5
187
330
158
100
AcDbEntity
  8
0
  6
Continuous
 62
     7
370
    25
100
AcDbPolyline
 90
       14
 70
   128
 43
0.0
 10
2.8668197599
 20
-2.3938154528
 10
2.9000927919
 20
-2.3724967855
 10
2.9357071788
 20
-2.3443802345
 10
2.9686855302
 20
-2.3123252567
 10
2.9989051643
 20
-2.2764510989
 10
3.0262536622
 20
-2.2368912152
 10
3.0506292856
 20
-2.1937927709
 10
3.0719413557
 20
-2.1473160952
 10
3.0901105901
 20
-2.0976340843
 10
3.105069398
 20
-2.0449315586
 10
3.1167621318
 20
-1.9894045749
 10
3.1251452937
 20
-1.9312596972
 10
3.1301876978
 20
-1.8707132283
 10
3.131870586
 20
-1.8079904051
  0
LWPOLYLINE
  5
188
330
158
100
AcDbEntity
  8
0
  6
Continuous
 62
     7
370
    25
100
AcDbPolyline
 90
        3
 70
   128
 43
0.0
 10
1.753899419
 20
-0.5945610977
 10
1.7348750801
 20
-0.6139850698
 10
1.7326811987
 20
-0.6164607524
  0
LWPOLYLINE
  5
189
330
158
100
AcDbEntity
  8
0
  6
Continuous
 62
     7
370
    25
100
AcDbPolyline
 90
        3
 70
   128
 43
0.0
 10
2.5593856627
 20
-2.0485100524
 10
2.5627066757
 20
-2.0478314493
 10
2.5889611269
 20
-2.0410871374
  0
LWPOLYLINE
  5
18A
330
158
100
AcDbEntity
  8
0
  6
Continuous
 62
     7
370
    25
100
AcDbPolyline
 90
       82
 70
   128
 43
0.0
 10
1.2750193141
 20
-2.478152182
 10
1.2733450529
 20
-2.4273622468
 10
1.2683323386
 20
-2.3749447074
 10
1.2600113182
 20
-2.3212148091
 10
1.2484320353
 20
-2.2664956899
 10
1.2336641291
 20
-2.2111164369
 10
1.2157964154
 20
-2.1554101075
 10
1.1949363529
 20
-2.099711726
 10
1.1712093964
 20
-2.0443562692
 10
1.1447582426
 20
-1.9896766513
 10
1.1157419719
 20
-1.9360017219
 10
1.0843350915
 20
-1.8836542883
 10
1.0507264861
 20
-1.8329491742
 10
1.0151182818
 20
-1.7841913261
 10
0.9777246306
 20
-1.7376739795
 10
0.9387704222
 20
-1.6936768951
 10
0.8984899319
 20
-1.6524646765
 10
0.8571254112
 20
-1.614285179
 10
0.8149256313
 20
-1.5793680184
 10
0.7721443865
 20
-1.5479231908
 10
0.7290389684
 20
-1.5201398089
 10
0.685868618
 20
-1.4961849654
 10
0.6428929669
 20
-1.4762027275
 10
0.6003704756
 20
-1.4603132707
 10
0.5585568795
 20
-1.448612156
 10
0.5177036505
 20
-1.4411697554
 10
0.4780564845
 20
-1.4380308283
 10
0.4398538245
 20
-1.4392142527
 10
0.4033254257
 20
-1.4447129111
 10
0.3686909741
 20
-1.4544937342
 10
0.3361587654
 20
-1.4684978988
 10
0.3059244522
 20
-1.4866411822
 10
0.2781698672
 20
-1.5088144686
 10
0.2530619297
 20
-1.5348844053
 10
0.2307516418
 20
-1.5646942046
 10
0.2113731802
 20
-1.5980645869
 10
0.1950430892
 20
-1.6347948587
 10
0.1818595801
 20
-1.6746641199
 10
0.1719019398
 20
-1.717432592
 10
0.1652300548
 20
-1.7628430604
 10
0.1618840507
 20
-1.8106224212
 10
0.1618840507
 20
-1.8604833238
 10
0.1652300548
 20
-1.9121258987
 10
0.1719019398
 20
-1.9652395616
 10
0.1818595801
 20
-2.0195048804
 10
0.1950430892
 20
-2.0745954973
 10
0.2113731802
 20
-2.1301800908
 10
0.2307516418
 20
-2.1859243685
 10
0.2530619297
 20
-2.2414930779
 10
0.2781698672
 20
-2.2965520222
 10
0.3059244522
 20
-2.3507700705
 10
0.3361587654
 20
-2.4038211489
 10
0.3686909741
 20
-2.4553862021
 10
0.4033254257
 20
-2.5051551118
 10
0.4398538245
 20
-2.5528285618
 10
0.4780564845
 20
-2.5981198386
 10
0.5177036505
 20
-2.6407565549
 10
0.5585568795
 20
-2.6804822886
 10
0.6003704756
 20
-2.7170581244
 10
0.6428929669
 20
-2.7502640909
 10
0.685868618
 20
-2.7799004837
 10
0.7290389684
 20
-2.8057890658
 10
0.7721443865
 20
-2.8277741403
 10
0.8149256313
 20
-2.8457234864
 10
0.8571254112
 20
-2.8595291547
 10
0.8984899319
 20
-2.8691081162
 10
0.9387704222
 20
-2.8744027618
 10
0.9777246306
 20
-2.8753812491
 10
1.0151182818
 20
-2.8720376932
 10
1.0507264861
 20
-2.8643922026
 10
1.0843350915
 20
-2.8524907584
 10
1.1157419719
 20
-2.8364049371
 10
1.1447582426
 20
-2.8162314807
 10
1.1712093964
 20
-2.7920917149
 10
1.1949363529
 20
-2.764130819
 10
1.2157964154
 20
-2.7325169531
 10
1.2336641291
 20
-2.6974402467
 10
1.2484320353
 20
-2.6591116553
 10
1.2600113182
 20
-2.6177616915
 10
1.2683323386
 20
-2.5736390389
 10
1.2733450529
 20
-2.5270090563
 10
1.2750193141
 20
-2.478152182
  0
SPLINE
  5
18D
330
158
100
AcDbEntity
  8
0
  6
Continuous
 62
     7
370
    25
100
AcDbSpline
210
0.0
220
0.0
230
1.0
 70
     8
 71
     3
 72
    22
 73
    18
 74
     0
 42
0.000000001
 43
0.00000001
 40
0.0
 40
0.0
 40
0.0
 40
0.0
 40
0.0576845835637077
 40
0.1508298115352887
 40
0.1969386664532835
 40
0.2444249234493826
 40
0.3362548919312703
 40
0.4273568026194765
 40
0.5194915253131667
 40
0.5656791841005714
 40
0.6132178440024963
 40
0.6591561186060398
 40
0.7064705463287799
 40
0.7978603953514567
 40
0.8890829355171618
 40
0.9817236769262916
 40
1.0
 40
1.0
 40
1.0
 40
1.0
 10
1.137363935784922
 20
-1.140963301663252
 30
0.0
 10
1.134792370529472
 20
-1.146360749433639
 30
0.0
 10
1.128068412777367
 20
-1.160473636789064
 30
0.0
 10
1.135585054905862
 20
-1.179322570118167
 30
0.0
 10
1.149428419760698
 20
-1.196251987282767
 30
0.0
 10
1.168764445537727
 20
-1.212261615931866
 30
0.0
 10
1.201742209210771
 20
-1.230025066457236
 30
0.0
 10
1.250531439441952
 20
-1.245154145543039
 30
0.0
 10
1.294713548623731
 20
-1.250656432688361
 30
0.0
 10
1.329517552325876
 20
-1.249753819863462
 30
0.0
 10
1.354591002308845
 20
-1.246220945674239
 30
0.0
 10
1.378009773986191
 20
-1.239716531920363
 30
0.0
 10
1.405382986079076
 20
-1.227479804796098
 30
0.0
 10
1.432041399502243
 20
-1.205656301321413
 30
0.0
 10
1.44745716330185
 20
-1.172939672208057
 30
0.0
 10
1.447687486033063
 20
-1.146887263746225
 30
0.0
 10
1.441528402982227
 20
-1.133905196933746
 30
0.0
 10
1.440513542084134
 20
-1.131766081114773
 30
0.0
  0
LWPOLYLINE
  5
190
330
158
100
AcDbEntity
  8
0
  6
Continuous
 62
     7
370
    25
100
AcDbPolyline
 90
       34
 70
   128
 43
0.0
 10
1.385398753
 20
-0.9355579433
 10
1.3654004172
 20
-0.9260257573
 10
1.3426385571
 20
-0.9188506969
 10
1.3179358457
 20
-0.9142920874
 10
1.2921851033
 20
-0.9125146888
 10
1.2663170288
 20
-0.913582741
 10
1.2412665618
 20
-0.9174576419
 10
1.2179390916
 20
-0.9239993423
 10
1.1971777336
 20
-0.9329714081
 10
1.1797328574
 20
-0.9440495657
 10
1.1662349663
 20
-0.9568334214
 10
1.1571719092
 20
-0.9708609334
 10
1.1528712487
 20
-0.9856251108
 10
1.1534884218
 20
-1.000592338
 10
1.1590011223
 20
-1.0152216601
 10
1.1692101067
 20
-1.0289843356
 10
1.183746396
 20
-1.0413829453
 10
1.2020846105
 20
-1.0519693712
 10
1.2235619596
 20
-1.0603609923
 10
1.2474021958
 20
-1.0662545136
 10
1.2727436709
 20
-1.0694369279
 10
1.2986704779
 20
-1.0697932143
 10
1.3242455545
 20
-1.0673104958
 10
1.3485445509
 20
-1.0620785044
 10
1.3706892379
 20
-1.0542863377
 10
1.3898792488
 20
-1.044215625
 10
1.4054210068
 20
-1.0322303481
 10
1.4167527921
 20
-1.0187636862
 10
1.4234650445
 20
-1.0043023595
 10
1.4253151657
 20
-0.9893690379
 10
1.4222362875
 20
-0.9745034507
 10
1.4143396886
 20
-0.960242879
 10
1.4019107726
 20
-0.9471027368
 10
1.385398753
 20
-0.9355579433
  0
LWPOLYLINE
  5
192
330
158
100
AcDbEntity
  8
0
  6
Continuous
 62
     7
370
    25
100
AcDbPolyline
 90
       82
 70
   128
 43
0.0
 10
-0.9520886581
 20
-1.1924701161
 10
-0.9537629193
 20
-1.1416801809
 10
-0.9587756336
 20
-1.0892626415
 10
-0.967096654
 20
-1.0355327433
 10
-0.9786759369
 20
-0.980813624
 10
-0.9934438432
 20
-0.925434371
 10
-1.0113115568
 20
-0.8697280416
 10
-1.0321716193
 20
-0.8140296602
 10
-1.0558985758
 20
-0.7586742034
 10
-1.0823497296
 20
-0.7039945855
 10
-1.1113660003
 20
-0.650319656
 10
-1.1427728807
 20
-0.5979722225
 10
-1.1763814861
 20
-0.5472671084
 10
-1.2119896904
 20
-0.4985092603
 10
-1.2493833417
 20
-0.4519919136
 10
-1.28833755
 20
-0.4079948292
 10
-1.3286180404
 20
-0.3667826106
 10
-1.3699825611
 20
-0.3286031131
 10
-1.412182341
 20
-0.2936859526
 10
-1.4549635857
 20
-0.2622411249
 10
-1.4980690038
 20
-0.2344577431
 10
-1.5412393542
 20
-0.2105028996
 10
-1.5842150053
 20
-0.1905206616
 10
-1.6267374966
 20
-0.1746312048
 10
-1.6685510927
 20
-0.1629300902
 10
-1.7094043218
 20
-0.1554876896
 10
-1.7490514877
 20
-0.1523487625
 10
-1.7872541477
 20
-0.1535321868
 10
-1.8237825466
 20
-0.1590308453
 10
-1.8584169982
 20
-0.1688116683
 10
-1.8909492068
 20
-0.1828158329
 10
-1.92118352
 20
-0.2009591163
 10
-1.9489381051
 20
-0.2231324028
 10
-1.9740460426
 20
-0.2492023395
 10
-1.9963563305
 20
-0.2790121388
 10
-2.0157347921
 20
-0.312382521
 10
-2.032064883
 20
-0.3491127928
 10
-2.0452483922
 20
-0.388982054
 10
-2.0552060325
 20
-0.4317505261
 10
-2.0618779174
 20
-0.4771609945
 10
-2.0652239215
 20
-0.5249403554
 10
-2.0652239215
 20
-0.5748012579
 10
-2.0618779174
 20
-0.6264438329
 10
-2.0552060325
 20
-0.6795574957
 10
-2.0452483922
 20
-0.7338228145
 10
-2.032064883
 20
-0.7889134314
 10
-2.0157347921
 20
-0.8444980249
 10
-1.9963563305
 20
-0.9002423027
 10
-1.9740460426
 20
-0.9558110121
 10
-1.9489381051
 20
-1.0108699564
 10
-1.92118352
 20
-1.0650880046
 10
-1.8909492068
 20
-1.118139083
 10
-1.8584169982
 20
-1.1697041362
 10
-1.8237825466
 20
-1.2194730459
 10
-1.7872541477
 20
-1.267146496
 10
-1.7490514877
 20
-1.3124377727
 10
-1.7094043218
 20
-1.355074489
 10
-1.6685510927
 20
-1.3948002227
 10
-1.6267374966
 20
-1.4313760585
 10
-1.5842150053
 20
-1.4645820251
 10
-1.5412393542
 20
-1.4942184178
 10
-1.4980690038
 20
-1.5201069999
 10
-1.4549635857
 20
-1.5420920744
 10
-1.412182341
 20
-1.5600414206
 10
-1.3699825611
 20
-1.5738470888
 10
-1.3286180404
 20
-1.5834260503
 10
-1.28833755
 20
-1.588720696
 10
-1.2493833417
 20
-1.5896991832
 10
-1.2119896904
 20
-1.5863556273
 10
-1.1763814861
 20
-1.5787101368
 10
-1.1427728807
 20
-1.5668086925
 10
-1.1113660003
 20
-1.5507228712
 10
-1.0823497296
 20
-1.5305494149
 10
-1.0558985758
 20
-1.506409649
 10
-1.0321716193
 20
-1.4784487531
 10
-1.0113115568
 20
-1.4468348872
 10
-0.9934438432
 20
-1.4117581808
 10
-0.9786759369
 20
-1.3734295894
 10
-0.967096654
 20
-1.3320796257
 10
-0.9587756336
 20
-1.2879569731
 10
-0.9537629193
 20
-1.2413269905
 10
-0.9520886581
 20
-1.1924701161
  0
LWPOLYLINE
  5
197
330
158
100
AcDbEntity
  8
0
  6
Continuous
 62
     7
370
    25
100
AcDbPolyline
 90
       44
 70
   128
 43
0.0
 10
0.1529441704
 20
-0.8660898504
 10
0.1779766323
 20
-0.8512360748
 10
0.2068245867
 20
-0.8291498691
 10
0.2330527428
 20
-0.8031428486
 10
0.2565108682
 20
-0.773363979
 10
0.277064597
 20
-0.7399838309
 10
0.2945961991
 20
-0.7031936029
 10
0.3090052552
 20
-0.6632040261
 10
0.3202092314
 20
-0.6202441571
 10
0.3281439525
 20
-0.5745600661
 10
0.3327639691
 20
-0.5264134276
 10
0.3340428181
 20
-0.476080021
 10
0.3319731744
 20
-0.4238481516
 10
0.3265668928
 20
-0.3700169988
 10
0.3178549399
 20
-0.3148949026
 10
0.3058872169
 20
-0.2587975973
 10
0.290732274
 20
-0.2020464032
 10
0.2724769173
 20
-0.1449663861
 10
0.2512257118
 20
-0.087884495
 10
0.2271003825
 20
-0.03112769
 10
0.200239117
 20
0.0249789313
 10
0.1707957744
 20
0.080113995
 10
0.1389390033
 20
0.1339616926
 10
0.1048512765
 20
0.1862135894
 10
0.0687278454
 20
0.2365703911
 10
0.0307756217
 20
0.2847436586
 10
-0.0087880076
 20
0.3304574599
 10
-0.0497364257
 20
0.3734499502
 10
-0.0918350837
 20
0.4134748727
 10
-0.1348428444
 20
0.4503029681
 10
-0.1785133632
 20
0.4837232885
 10
-0.2225964993
 20
0.5135444053
 10
-0.2668397484
 20
0.5395955058
 10
-0.3109896894
 20
0.5617273716
 10
-0.3547934353
 20
0.5798132335
 10
-0.3980000821
 20
0.5937494974
 10
-0.4403621463
 20
0.6034563374
 10
-0.4816369816
 20
0.6088781537
 10
-0.5215881696
 20
0.6099838908
 10
-0.5599868735
 20
0.6067672149
 10
-0.596613149
 20
0.5992465509
 10
-0.6312572041
 20
0.5874649765
 10
-0.6637206008
 20
0.5714899755
 10
-0.6735306589
 20
0.5655616675
  0
LWPOLYLINE
  5
198
330
158
100
AcDbEntity
  8
0
  6
Continuous
 62
     7
370
    25
100
AcDbPolyline
 90
       27
 70
   128
 43
0.0
 10
0.881678979
 20
-0.2744843012
 10
0.8849209456
 20
-0.2531395497
 10
0.8895409622
 20
-0.2049929111
 10
0.8908198112
 20
-0.1546595045
 10
0.8887501675
 20
-0.1024276351
 10
0.8833438858
 20
-0.0485964823
 10
0.8746319329
 20
0.0065256139
 10
0.86266421
 20
0.0626229192
 10
0.8475092671
 20
0.1193741133
 10
0.8292539104
 20
0.1764541304
 10
0.8080027049
 20
0.2335360215
 10
0.7838773755
 20
0.2902928265
 10
0.7570161101
 20
0.3463994477
 10
0.7275727674
 20
0.4015345115
 10
0.6957159963
 20
0.4553822091
 10
0.6616282696
 20
0.5076341058
 10
0.6255048385
 20
0.5579909076
 10
0.5875526148
 20
0.6061641751
 10
0.5479889855
 20
0.6518779763
 10
0.5070405674
 20
0.6948704667
 10
0.4649419093
 20
0.7348953892
 10
0.4219341487
 20
0.7717234846
 10
0.3782636299
 20
0.805143805
 10
0.3341804938
 20
0.8349649217
 10
0.2899372446
 20
0.8610160222
 10
0.2457873037
 20
0.8831478881
 10
0.2032136402
 20
0.9007794792
  0
LWPOLYLINE
  5
199
330
158
100
AcDbEntity
  8
0
  6
Continuous
 62
     7
370
    25
100
AcDbPolyline
 90
       27
 70
   128
 43
0.0
 10
3.1087869513
 20
-1.560166367
 10
3.1120289178
 20
-1.5388216155
 10
3.1166489344
 20
-1.490674977
 10
3.1179277834
 20
-1.4403415704
 10
3.1158581397
 20
-1.388109701
 10
3.1104518581
 20
-1.3342785482
 10
3.1017399052
 20
-1.279156452
 10
3.0897721822
 20
-1.2230591467
 10
3.0746172393
 20
-1.1663079526
 10
3.0563618826
 20
-1.1092279355
 10
3.0351106771
 20
-1.0521460444
 10
3.0109853478
 20
-0.9953892393
 10
2.9841240823
 20
-0.9392826181
 10
2.9546807397
 20
-0.8841475544
 10
2.9228239686
 20
-0.8302998568
 10
2.8887362418
 20
-0.77804796
 10
2.8526128107
 20
-0.7276911583
 10
2.814660587
 20
-0.6795178908
 10
2.7750969577
 20
-0.6338040895
 10
2.7341485396
 20
-0.5908115992
 10
2.6920498816
 20
-0.5507866767
 10
2.6490421209
 20
-0.5139585813
 10
2.6053716021
 20
-0.4805382609
 10
2.561288466
 20
-0.4507171441
 10
2.5170452169
 20
-0.4246660436
 10
2.4728952759
 20
-0.4025341778
 10
2.4303216124
 20
-0.3849025867
  0
LWPOLYLINE
  5
19A
330
158
100
AcDbEntity
  8
0
  6
Continuous
 62
     7
370
    25
100
AcDbPolyline
 90
       44
 70
   128
 43
0.0
 10
2.3800521426
 20
-2.1517719163
 10
2.4050846046
 20
-2.1369181406
 10
2.4339325589
 20
-2.114831935
 10
2.460160715
 20
-2.0888249145
 10
2.4836188405
 20
-2.0590460448
 10
2.5041725692
 20
-2.0256658968
 10
2.5217041713
 20
-1.9888756688
 10
2.5361132274
 20
-1.948886092
 10
2.5473172037
 20
-1.905926223
 10
2.5552519248
 20
-1.860242132
 10
2.5598719414
 20
-1.8120954934
 10
2.5611507904
 20
-1.7617620869
 10
2.5590811467
 20
-1.7095302175
 10
2.553674865
 20
-1.6556990647
 10
2.5449629121
 20
-1.6005769684
 10
2.5329951892
 20
-1.5444796631
 10
2.5178402463
 20
-1.4877284691
 10
2.4995848895
 20
-1.4306484519
 10
2.478333684
 20
-1.3735665609
 10
2.4542083547
 20
-1.3168097558
 10
2.4273470893
 20
-1.2607031346
 10
2.3979037466
 20
-1.2055680709
 10
2.3660469755
 20
-1.1517203732
 10
2.3319592487
 20
-1.0994684765
 10
2.2958358176
 20
-1.0491116748
 10
2.257883594
 20
-1.0009384072
 10
2.2183199647
 20
-0.955224606
 10
2.1773715466
 20
-0.9122321156
 10
2.1352728885
 20
-0.8722071931
 10
2.0922651278
 20
-0.8353790977
 10
2.0485946091
 20
-0.8019587774
 10
2.004511473
 20
-0.7721376606
 10
1.9602682238
 20
-0.7460865601
 10
1.9161182829
 20
-0.7239546942
 10
1.872314537
 20
-0.7058688323
 10
1.8291078901
 20
-0.6919325685
 10
1.786745826
 20
-0.6822257285
 10
1.7454709906
 20
-0.6768039121
 10
1.7055198026
 20
-0.6756981751
 10
1.6671210987
 20
-0.678914851
 10
1.6304948232
 20
-0.686435515
 10
1.5958507681
 20
-0.6982170894
 10
1.5633873715
 20
-0.7141920904
 10
1.5535773133
 20
-0.7201203984
  0
LWPOLYLINE
  5
19B
330
158
100
AcDbEntity
  8
0
  6
Continuous
 62
     8
370
    25
100
AcDbPolyline
 90
       12
 70
   128
 43
0.0
 10
1.3306970134
 20
-2.478152182
 10
1.3290227001
 20
-2.5282420431
 10
1.3240093505
 20
-2.576111873
 10
1.3156856807
 20
-2.6214874777
 10
1.3040993677
 20
-2.6641089498
 10
1.2893167771
 20
-2.7037321574
 10
1.2714225821
 20
-2.7401301424
 10
1.2505192791
 20
-2.7730944203
 10
1.2267266003
 20
-2.8024361748
 10
1.200180828
 20
-2.8279873389
 10
1.171034014
 20
-2.849601558
 10
1.161864595
 20
-2.8552651872
  0
LWPOLYLINE
  5
19C
330
158
100
AcDbEntity
  8
0
  6
Continuous
 62
     8
370
    25
100
AcDbPolyline
 90
       33
 70
   128
 43
0.0
 10
0.3327289387
 20
-1.4246359897
 10
0.3366255095
 20
-1.4224285562
 10
0.3693564577
 20
-1.4069446433
 10
0.404245251
 20
-1.3956633891
 10
0.4410920494
 20
-1.3886494118
 10
0.4796857979
 20
-1.3859428866
 10
0.519805435
 20
-1.3875593164
 10
0.561221159
 20
-1.3934894423
 10
0.6036957445
 20
-1.4036992973
 10
0.6469859007
 20
-1.4181304
 10
0.6908436657
 20
-1.4367000906
 10
0.7350178261
 20
-1.4593020034
 10
0.7792553564
 20
-1.4858066767
 10
0.8233028679
 20
-1.5160622943
 10
0.8669080605
 20
-1.5498955546
 10
0.9098211676
 20
-1.5871126639
 10
0.9517963869
 20
-1.6275004458
 10
0.992593288
 20
-1.6708275628
 10
1.0319781901
 20
-1.7168458412
 10
1.0697254999
 20
-1.7652916923
 10
1.1056190043
 20
-1.8158876228
 10
1.1394531086
 20
-1.8683438237
 10
1.171034014
 20
-1.9223598306
 10
1.200180828
 20
-1.9776262449
 10
1.2267266003
 20
-2.0338265053
 10
1.2505192791
 20
-2.090638702
 10
1.2714225821
 20
-2.1477374199
 10
1.2893167771
 20
-2.2047956026
 10
1.3040993677
 20
-2.261486426
 10
1.3156856807
 20
-2.3174851703
 10
1.3240093505
 20
-2.3724710797
 10
1.3290227001
 20
-2.4261291998
 10
1.3306970134
 20
-2.478152182
  0
LWPOLYLINE
  5
19D
330
158
100
AcDbEntity
  8
0
  6
Continuous
 62
     8
370
    25
100
AcDbPolyline
 90
       30
 70
   128
 43
0.0
 10
2.5416869733
 20
-1.7790625586
 10
2.54001266
 20
-1.7270395765
 10
2.5349993104
 20
-1.6733814564
 10
2.5266756406
 20
-1.618395547
 10
2.5150893276
 20
-1.5623968027
 10
2.500306737
 20
-1.5057059793
 10
2.482412542
 20
-1.4486477966
 10
2.461509239
 20
-1.3915490787
 10
2.4377165602
 20
-1.334736882
 10
2.4111707879
 20
-1.2785366215
 10
2.3820239739
 20
-1.2232702073
 10
2.3504430685
 20
-1.1692542004
 10
2.3166089642
 20
-1.1167979994
 10
2.2807154598
 20
-1.066202069
 10
2.24296815
 20
-1.0177562178
 10
2.2035832479
 20
-0.9717379395
 10
2.1627863468
 20
-0.9284108225
 10
2.1208111275
 20
-0.8880230406
 10
2.0778980204
 20
-0.8508059313
 10
2.0342928278
 20
-0.816972671
 10
1.9902453163
 20
-0.7867170534
 10
1.946007786
 20
-0.76021238
 10
1.9018336256
 20
-0.7376104672
 10
1.8579758606
 20
-0.7190407767
 10
1.8146857044
 20
-0.704609674
 10
1.772211119
 20
-0.694399819
 10
1.7307953949
 20
-0.6884696931
 10
1.6906757578
 20
-0.6868532633
 10
1.6520820093
 20
-0.6895597884
 10
1.6156727835
 20
-0.6964625225
  0
LWPOLYLINE
  5
19F
330
158
100
AcDbEntity
  8
0
  6
Continuous
 62
     8
370
    25
100
AcDbPolyline
 90
       15
 70
   128
 43
0.0
 10
0.9131142686
 20
-3.2336836989
 10
0.9341426694
 20
-3.2438698963
 10
0.9579156103
 20
-3.2517933513
 10
0.9837107625
 20
-3.2572133138
 10
1.0107443534
 20
-3.2599651008
 10
1.038194981
 20
-3.2599651008
 10
1.065228572
 20
-3.2572133138
 10
1.0910237242
 20
-3.2517933513
 10
1.1147966651
 20
-3.2438698963
 10
1.1358250658
 20
-3.2336836989
 10
1.1534699892
 20
-3.2215442615
 10
1.167195303
 20
-3.2078204349
 10
1.1765839706
 20
-3.1929292105
 10
1.181350722
 20
-3.1773230506
 10
1.1819499822
 20
-3.1693995956
  0
LWPOLYLINE
  5
1A1
330
158
100
AcDbEntity
  8
0
  6
Continuous
 62
     8
370
    25
100
AcDbPolyline
 90
       19
 70
   128
 43
0.0
 10
1.4405111241
 20
-1.006392021
 10
1.4395604715
 20
-1.0166834206
 10
1.4341096304
 20
-1.032051869
 10
1.4239928774
 20
-1.0466114745
 10
1.4095353733
 20
-1.0598942794
 10
1.3912017941
 20
-1.0714733634
 10
1.3695813962
 20
-1.0809765652
 10
1.3453690769
 20
-1.0880984441
 10
1.3193430401
 20
-1.0926100971
 10
1.2923397841
 20
-1.0943665159
 10
1.2652272157
 20
-1.0933112478
 10
1.2388767551
 20
-1.0894782099
 10
1.2141353279
 20
-1.0829905992
 10
1.1917981439
 20
-1.0740569329
 10
1.1725831385
 20
-1.0629643465
 10
1.1571078979
 20
-1.0500693646
 10
1.1458698089
 20
-1.0357864427
 10
1.1392300731
 20
-1.0205746456
 10
1.1373892824
 20
-1.0084864325
  0
LWPOLYLINE
  5
1A2
330
158
100
AcDbEntity
  8
0
  6
Continuous
 62
     8
370
    25
100
AcDbPolyline
 90
       12
 70
   128
 43
0.0
 10
-0.8964109588
 20
-1.1924701161
 10
-0.8980852721
 20
-1.2425599772
 10
-0.9030986217
 20
-1.2904298071
 10
-0.9114222916
 20
-1.3358054118
 10
-0.9230086045
 20
-1.378426884
 10
-0.9377911951
 20
-1.4180500916
 10
-0.9556853901
 20
-1.4544480765
 10
-0.9765886931
 20
-1.4874123544
 10
-1.0003813719
 20
-1.5167541089
 10
-1.0269271442
 20
-1.5423052731
 10
-1.0560739582
 20
-1.5639194921
 10
-1.0652433772
 20
-1.5695831214
  0
LWPOLYLINE
  5
1A3
330
158
100
AcDbEntity
  8
0
  6
Continuous
 62
     8
370
    25
100
AcDbPolyline
 90
       33
 70
   128
 43
0.0
 10
-1.8943790335
 20
-0.1389539238
 10
-1.8904824628
 20
-0.1367464903
 10
-1.8577515145
 20
-0.1212625774
 10
-1.8228627213
 20
-0.1099813233
 10
-1.7860159228
 20
-0.1029673459
 10
-1.7474221743
 20
-0.1002608207
 10
-1.7073025372
 20
-0.1018772505
 10
-1.6658868132
 20
-0.1078073765
 10
-1.6234122278
 20
-0.1180172314
 10
-1.5801220715
 20
-0.1324483342
 10
-1.5362643065
 20
-0.1510180247
 10
-1.4920901461
 20
-0.1736199375
 10
-1.4478526159
 20
-0.2001246109
 10
-1.4038051044
 20
-0.2303802284
 10
-1.3601999118
 20
-0.2642134888
 10
-1.3172868046
 20
-0.301430598
 10
-1.2753115853
 20
-0.3418183799
 10
-1.2345146842
 20
-0.3851454969
 10
-1.1951297822
 20
-0.4311637753
 10
-1.1573824723
 20
-0.4796096264
 10
-1.1214889679
 20
-0.5302055569
 10
-1.0876548637
 20
-0.5826617578
 10
-1.0560739582
 20
-0.6366777648
 10
-1.0269271442
 20
-0.691944179
 10
-1.0003813719
 20
-0.7481444395
 10
-0.9765886931
 20
-0.8049566362
 10
-0.9556853901
 20
-0.862055354
 10
-0.9377911951
 20
-0.9191135367
 10
-0.9230086045
 20
-0.9758043602
 10
-0.9114222916
 20
-1.0318031044
 10
-0.9030986217
 20
-1.0867890138
 10
-0.8980852721
 20
-1.140447134
 10
-0.8964109588
 20
-1.1924701161
  0
LWPOLYLINE
  5
1A4
330
158
100
AcDbEntity
  8
0
  6
Continuous
 62
     8
370
    25
100
AcDbPolyline
 90
       30
 70
   128
 43
0.0
 10
0.3145790011
 20
-0.4933804928
 10
0.3129046878
 20
-0.4413575107
 10
0.3078913382
 20
-0.3876993905
 10
0.2995676683
 20
-0.3327134811
 10
0.2879813554
 20
-0.2767147369
 10
0.2731987648
 20
-0.2200239134
 10
0.2553045698
 20
-0.1629657307
 10
0.2344012668
 20
-0.1058670129
 10
0.210608588
 20
-0.0490548162
 10
0.1840628157
 20
0.0071454443
 10
0.1549160017
 20
0.0624118586
 10
0.1233350962
 20
0.1164278655
 10
0.089500992
 20
0.1688840664
 10
0.0536074876
 20
0.2194799969
 10
0.0158601778
 20
0.267925848
 10
-0.0235247243
 20
0.3139441264
 10
-0.0643216254
 20
0.3572712434
 10
-0.1062968447
 20
0.3976590253
 10
-0.1492099518
 20
0.4348761345
 10
-0.1928151445
 20
0.4687093949
 10
-0.236862656
 20
0.4989650124
 10
-0.2811001862
 20
0.5254696858
 10
-0.3252743466
 20
0.5480715986
 10
-0.3691321116
 20
0.5666412892
 10
-0.4124222679
 20
0.5810723919
 10
-0.4548968533
 20
0.5912822468
 10
-0.4963125773
 20
0.5972123728
 10
-0.5364322144
 20
0.5988288026
 10
-0.5750259629
 20
0.5961222774
 10
-0.6114351887
 20
0.5892195433
  0
LWPOLYLINE
  5
1A6
330
158
100
AcDbEntity
  8
0
  6
Continuous
 62
     8
370
    25
100
AcDbPolyline
 90
       15
 70
   128
 43
0.0
 10
-1.3139937036
 20
-1.948001633
 10
-1.2929653029
 20
-1.9581878304
 10
-1.269192362
 20
-1.9661112855
 10
-1.2433972098
 20
-1.9715312479
 10
-1.2163636188
 20
-1.9742830349
 10
-1.1889129912
 20
-1.9742830349
 10
-1.1618794003
 20
-1.9715312479
 10
-1.136084248
 20
-1.9661112855
 10
-1.1123113072
 20
-1.9581878304
 10
-1.0912829064
 20
-1.948001633
 10
-1.0736379831
 20
-1.9358621957
 10
-1.0599126693
 20
-1.922138369
 10
-1.0505240017
 20
-1.9072471446
 10
-1.0457572502
 20
-1.8916409847
 10
-1.04515799
 20
-1.8837175297
  0
LINE
  5
1A8
330
158
100
AcDbEntity
  8
0
  6
Continuous
 62
     7
370
    25
100
AcDbLine
 10
-0.6397117876
 20
1.1081333869
 30
0.0
 11
-0.7510671862
 21
1.0438492836
 31
0.0
  0
LINE
  5
1A9
330
158
100
AcDbEntity
  8
0
  6
Continuous
 62
     7
370
    25
100
AcDbLine
 10
0.528356389
 20
-1.1724174902
 30
0.0
 11
0.6397117876
 21
-1.1081333869
 31
0.0
  0
LINE
  5
1AA
330
158
100
AcDbEntity
  8
0
  6
Continuous
 62
     7
370
    25
100
AcDbLine
 10
1.5873961846
 20
-0.177548679
 30
0.0
 11
1.476040786
 21
-0.2418327823
 31
0.0
  0
LINE
  5
1AB
330
158
100
AcDbEntity
  8
0
  6
Continuous
 62
     7
370
    25
100
AcDbLine
 10
2.7554643612
 20
-2.4580995561
 30
0.0
 11
2.8668197599
 21
-2.3938154528
 31
0.0
  0
LINE
  5
1AC
330
158
100
AcDbEntity
  8
0
  6
Continuous
 62
     7
370
    25
100
AcDbLine
 10
1.5437188986
 20
-0.7255463663
 30
0.0
 11
0.3327289387
 21
-1.4246359897
 31
0.0
  0
LINE
  5
1AD
330
158
100
AcDbEntity
  8
0
  6
Continuous
 62
     7
370
    25
100
AcDbLine
 10
1.1594334027
 20
-2.8566852897
 30
0.0
 11
2.3704233626
 21
-2.1575956663
 31
0.0
  0
LINE
  5
1AE
330
158
100
AcDbEntity
  8
0
  6
Continuous
 62
     7
370
    25
100
AcDbLine
 10
0.8669893523
 20
-2.8791272453
 30
0.0
 11
0.8669893523
 21
-3.1693995956
 31
0.0
  0
LINE
  5
1AF
330
158
100
AcDbEntity
  8
0
  6
Continuous
 62
     7
370
    25
100
AcDbLine
 10
1.1819499822
 20
-3.1693995956
 30
0.0
 11
1.1819499822
 21
-2.843686745
 31
0.0
  0
LINE
  5
1B0
330
158
100
AcDbEntity
  8
0
  6
Continuous
 62
     7
370
    25
100
AcDbLine
 10
1.4405135421
 20
-1.1816248447
 30
0.0
 11
1.4405135421
 21
-1.0068862746
 31
0.0
  0
LINE
  5
1B1
330
158
100
AcDbEntity
  8
0
  6
Continuous
 62
     7
370
    25
100
AcDbLine
 10
1.1373639358
 20
-1.0068862746
 30
0.0
 11
1.1373639358
 21
-1.1762208497
 31
0.0
  0
LINE
  5
1B2
330
158
100
AcDbEntity
  8
0
  6
Continuous
 62
     7
370
    25
100
AcDbLine
 10
-0.6833890736
 20
0.5601356995
 30
0.0
 11
-1.8943790335
 21
-0.1389539238
 31
0.0
  0
LINE
  5
1B3
330
158
100
AcDbEntity
  8
0
  6
Continuous
 62
     7
370
    25
100
AcDbLine
 10
-1.0676745695
 20
-1.5710032238
 30
0.0
 11
0.1433153904
 21
-0.8719136005
 31
0.0
  0
LINE
  5
1B4
330
158
100
AcDbEntity
  8
0
  6
Continuous
 62
     7
370
    25
100
AcDbLine
 10
-1.36011862
 20
-1.5934451795
 30
0.0
 11
-1.36011862
 21
-1.8837175297
 31
0.0
  0
LINE
  5
1B5
330
158
100
AcDbEntity
  8
0
  6
Continuous
 62
     7
370
    25
100
AcDbLine
 10
-1.04515799
 20
-1.8837175297
 30
0.0
 11
-1.04515799
 21
-1.5580046791
 31
0.0
  0
LINE
  5
1B6
330
158
100
AcDbEntity
  8
0
  6
Continuous
 62
     7
370
    25
100
AcDbLine
 10
-0.4436330891
 20
0.6985438833
 30
0.0
 11
-0.6639018789
 21
0.5713854176
 31
0.0
  0
LINE
  5
1B7
330
158
100
AcDbEntity
  8
0
  6
Continuous
 62
     7
370
    25
100
AcDbLine
 10
0.1628025851
 20
-0.8606638824
 30
0.0
 11
0.3830713749
 21
-0.7335054167
 31
0.0
  0
LINE
  5
1B8
330
158
100
AcDbEntity
  8
0
  6
Continuous
 62
     7
370
    25
100
AcDbLine
 10
1.7834748831
 20
-0.5871381826
 30
0.0
 11
1.5632060934
 21
-0.7142966483
 31
0.0
  0
LINE
  5
1B9
330
158
100
AcDbEntity
  8
0
  6
Continuous
 62
     7
370
    25
100
AcDbLine
 10
2.3899105574
 20
-2.1463459483
 30
0.0
 11
2.6101793471
 21
-2.0191874826
 31
0.0
  0
LINE
  5
1BA
330
158
100
AcDbEntity
  8
0
  6
Continuous
 62
     7
370
    25
100
AcDbLine
 10
1.161864595
 20
-2.8552651872
 30
0.0
 11
1.1594334027
 21
-2.8566852897
 31
0.0
  0
LINE
  5
1BB
330
158
100
AcDbEntity
  8
0
  6
Continuous
 62
     7
370
    25
100
AcDbLine
 10
0.3298779714
 20
-1.4263046757
 30
0.0
 11
0.3327289387
 21
-1.4246359897
 31
0.0
  0
LINE
  5
1BC
330
158
100
AcDbEntity
  8
0
  6
Continuous
 62
     7
370
    25
100
AcDbLine
 10
1.1373892824
 20
-1.0084864325
 30
0.0
 11
1.1373639358
 21
-1.0068862746
 31
0.0
  0
LINE
  5
1BD
330
158
100
AcDbEntity
  8
0
  6
Continuous
 62
     7
370
    25
100
AcDbLine
 10
-1.0652433772
 20
-1.5695831214
 30
0.0
 11
-1.0676745695
 21
-1.5710032238
 31
0.0
  0
LINE
  5
1BE
330
158
100
AcDbEntity
  8
0
  6
Continuous
 62
     7
370
    25
100
AcDbLine
 10
-1.8972300008
 20
-0.1406226098
 30
0.0
 11
-1.8943790335
 21
-0.1389539238
 31
0.0
  0
ARC
  5
1BF
330
158
100
AcDbEntity
  8
0
  6
Continuous
 62
     7
370
    25
100
AcDbCircle
 10
1.6845992157
 20
-0.9705370356
 30
0.0
 40
0.2826087255091486
100
AcDbArc
 50
104.1164526452
 51
119.9007793021
  0
ARC
  5
1C0
330
158
100
AcDbEntity
  8
0
  6
Continuous
 62
     7
370
    25
100
AcDbCircle
 10
2.2291533337
 20
-1.9135765882
 30
0.0
 40
0.281961932832276
100
AcDbArc
 50
300.0678487534
 51
316.7655118797
  0
ARC
  5
1C1
330
158
100
AcDbEntity
  8
0
  6
Continuous
 62
     7
370
    25
100
AcDbCircle
 10
-0.5425087566
 20
0.3151450303
 30
0.0
 40
0.2826087255093633
100
AcDbArc
 50
104.1164526452
 51
119.9007793021
  0
ARC
  5
1C2
330
158
100
AcDbEntity
  8
0
  6
Continuous
 62
     7
370
    25
100
AcDbCircle
 10
0.0020453614
 20
-0.6278945223
 30
0.0
 40
0.2819619328322686
100
AcDbArc
 50
300.0678487534
 51
316.7655118797
  0
ARC
  5
1C3
330
158
100
AcDbEntity
  8
0
  6
Continuous
 62
     8
370
    25
100
AcDbCircle
 10
2.0756154345
 20
-1.8080396567
 30
0.0
 40
0.4669714675140766
100
AcDbArc
 50
320.2376989053
 51
3.5576751273
  0
ARC
  5
1C4
330
158
100
AcDbEntity
  8
0
  6
Continuous
 62
     8
370
    25
100
AcDbCircle
 10
0.9457084592
 20
-3.1616070734
 30
0.0
 40
0.0791038633853394
100
AcDbArc
 50
185.6533765496
 51
245.666764408
  0
ARC
  5
1C5
330
158
100
AcDbEntity
  8
0
  6
Continuous
 62
     8
370
    25
100
AcDbCircle
 10
-0.1514925377
 20
-0.5223575908
 30
0.0
 40
0.4669714675140831
100
AcDbArc
 50
320.2376989053
 51
3.5576751273
  0
ARC
  5
1C6
330
158
100
AcDbEntity
  8
0
  6
Continuous
 62
     8
370
    25
100
AcDbCircle
 10
-1.281399513
 20
-1.8759250075
 30
0.0
 40
0.0791038633853417
100
AcDbArc
 50
185.6533765496
 51
245.666764408
  0
VIEWPORT
  5
1CB
330
158
100
AcDbEntity
  8
0
100
AcDbViewport
 10
0.0
 20
0.0
 30
0.0
 40
8.4
 41
6.4
 68
     1
 69
     1
 12
1.5748031496
 22
-0.1082677165
 13
0.0
 23
0.0
 14
0.5
 24
0.5
 15
0.5
 25
0.5
 16
0.0
 26
0.0
 36
1.0
 17
0.0
 27
0.0
 37
0.0
 42
50.0
 43
0.0
 44
0.0
 45
4.4364454443
 50
0.0
 51
0.0
 72
   100
 90
   557152
  1

281
     0
 71
     1
 74
     0
110
0.0
120
0.0
130
0.0
111
1.0
121
0.0
131
0.0
112
0.0
122
1.0
132
0.0
 79
     0
146
0.0
  0
ENDBLK
  5
15B
330
158
100
AcDbEntity
  8
0
100
AcDbBlockEnd
  0
ENDSEC
  0
SECTION
  2
ENTITIES
  0
CIRCLE
  5
89
330
1F
100
AcDbEntity
  8
0
  6
Continuous
 62
     7
370
    25
100
AcDbCircle
 10
3.1496062992
 20
0.0
 30
0.0
 40
0.7874015748031495
  0
CIRCLE
  5
8A
330
1F
100
AcDbEntity
  8
0
  6
Continuous
 62
     7
370
    25
100
AcDbCircle
 10
3.1496062992
 20
0.0
 30
0.0
 40
0.8267716535433074
  0
CIRCLE
  5
8D
330
1F
100
AcDbEntity
  8
0
  6
Continuous
 62
     7
370
    25
100
AcDbCircle
 10
0.0
 20
0.0
 30
0.0
 40
0.7874015748031505
  0
CIRCLE
  5
8E
330
1F
100
AcDbEntity
  8
0
  6
Continuous
 62
     7
370
    25
100
AcDbCircle
 10
0.0
 20
0.0
 30
0.0
 40
0.826771653543306
  0
LINE
  5
97
330
1F
100
AcDbEntity
  8
0
  6
Continuous
 62
     7
370
    25
100
AcDbLine
 10
2.9921259843
 20
-0.8116349657
 30
0.0
 11
2.9921259843
 21
-1.4566929134
 31
0.0
  0
LINE
  5
98
330
1F
100
AcDbEntity
  8
0
  6
Continuous
 62
     7
370
    25
100
AcDbLine
 10
3.3070866142
 20
-1.4566929134
 30
0.0
 11
3.3070866142
 21
-0.8116349657
 31
0.0
  0
LINE
  5
99
330
1F
100
AcDbEntity
  8
0
  6
Continuous
 62
     7
370
    25
100
AcDbLine
 10
3.3011811024
 20
0.8127585411
 30
0.0
 11
3.3011811024
 21
1.0047132361
 31
0.0
  0
LINE
  5
9A
330
1F
100
AcDbEntity
  8
0
  6
Continuous
 62
     7
370
    25
100
AcDbLine
 10
2.9980314961
 20
1.0047132361
 30
0.0
 11
2.9980314961
 21
0.8127585411
 31
0.0
  0
LINE
  5
9B
330
1F
100
AcDbEntity
  8
0
  6
Continuous
 62
     7
370
    25
100
AcDbLine
 10
-0.157480315
 20
-0.8116349657
 30
0.0
 11
-0.157480315
 21
-1.4566929134
 31
0.0
  0
LINE
  5
9C
330
1F
100
AcDbEntity
  8
0
  6
Continuous
 62
     7
370
    25
100
AcDbLine
 10
0.157480315
 20
-1.4566929134
 30
0.0
 11
0.157480315
 21
-0.8116349657
 31
0.0
  0
LINE
  5
9D
330
1F
100
AcDbEntity
  8
0
  6
Continuous
 62
     7
370
    25
100
AcDbLine
 10
3.2677165354
 20
-1.4960629921
 30
0.0
 11
3.031496063
 21
-1.4960629921
 31
0.0
  0
LINE
  5
9E
330
1F
100
AcDbEntity
  8
0
  6
Continuous
 62
     7
370
    25
100
AcDbLine
 10
0.1181102362
 20
-1.4960629921
 30
0.0
 11
-0.1181102362
 21
-1.4960629921
 31
0.0
  0
LINE
  5
9F
330
1F
100
AcDbEntity
  8
0
  6
Continuous
 62
     8
370
    25
100
AcDbLine
 10
2.9921259843
 20
-1.4566929134
 30
0.0
 11
3.3070866142
 21
-1.4566929134
 31
0.0
  0
LINE
  5
A0
330
1F
100
AcDbEntity
  8
0
  6
Continuous
 62
     8
370
    25
100
AcDbLine
 10
3.013191239
 20
1.0238710665
 30
0.0
 11
3.2860213594
 21
1.0238710665
 31
0.0
  0
LINE
  5
A1
330
1F
100
AcDbEntity
  8
0
  6
Continuous
 62
     8
370
    25
100
AcDbLine
 10
3.3011811024
 20
1.0047132361
 30
0.0
 11
2.9980314961
 21
1.0047132361
 31
0.0
  0
LINE
  5
A2
330
1F
100
AcDbEntity
  8
0
  6
Continuous
 62
     8
370
    25
100
AcDbLine
 10
-0.157480315
 20
-1.4566929134
 30
0.0
 11
0.157480315
 21
-1.4566929134
 31
0.0
  0
ARC
  5
A3
330
1F
100
AcDbEntity
  8
0
  6
Continuous
 62
     7
370
    25
100
AcDbCircle
 10
3.031496063
 20
-1.4566929134
 30
0.0
 40
0.0393700787401574
100
AcDbArc
 50
180.0
 51
270.0
  0
ARC
  5
A4
330
1F
100
AcDbEntity
  8
0
  6
Continuous
 62
     7
370
    25
100
AcDbCircle
 10
3.2677165354
 20
-1.4566929134
 30
0.0
 40
0.0393700787401583
100
AcDbArc
 50
270.0
 51
0.0
  0
ARC
  5
A5
330
1F
100
AcDbEntity
  8
0
  6
Continuous
 62
     7
370
    25
100
AcDbCircle
 10
3.281496063
 20
1.0047132361
 30
0.0
 40
0.0196850393700797
100
AcDbArc
 50
0.0
 51
76.709695303
  0
ARC
  5
A6
330
1F
100
AcDbEntity
  8
0
  6
Continuous
 62
     7
370
    25
100
AcDbCircle
 10
3.0177165354
 20
1.0047132361
 30
0.0
 40
0.0196850393700791
100
AcDbArc
 50
103.290304697
 51
180.0
  0
ARC
  5
A7
330
1F
100
AcDbEntity
  8
0
  6
Continuous
 62
     7
370
    25
100
AcDbCircle
 10
3.1496062992
 20
0.4463582677
 30
0.0
 40
0.5934055118110192
100
AcDbArc
 50
76.709695303
 51
103.290304697
  0
ARC
  5
A8
330
1F
100
AcDbEntity
  8
0
  6
Continuous
 62
     7
370
    25
100
AcDbCircle
 10
-0.1181102362
 20
-1.4566929134
 30
0.0
 40
0.0393700787401576
100
AcDbArc
 50
180.0
 51
270.0
  0
ARC
  5
A9
330
1F
100
AcDbEntity
  8
0
  6
Continuous
 62
     7
370
    25
100
AcDbCircle
 10
0.1181102362
 20
-1.4566929134
 30
0.0
 40
0.0393700787401575
100
AcDbArc
 50
270.0
 51
0.0
  0
ARC
  5
AA
330
1F
100
AcDbEntity
  8
0
  6
Continuous
 62
     7
370
    25
100
AcDbCircle
 10
0.0
 20
0.0
 30
0.0
 40
1.279527559055118
100
AcDbArc
 50
277.0697140423
 51
262.9302859577
  0
ARC
  5
AB
330
1F
100
AcDbEntity
  8
0
  6
Continuous
 62
     7
370
    25
100
AcDbCircle
 10
0.0
 20
0.0
 30
0.0
 40
0.842519685039373
100
AcDbArc
 50
280.7728533751
 51
259.2271466249
  0
ARC
  5
AC
330
1F
100
AcDbEntity
  8
0
  6
Continuous
 62
     7
370
    25
100
AcDbCircle
 10
3.1496062992
 20
0.0
 30
0.0
 40
1.279527559055119
100
AcDbArc
 50
277.0697140423
 51
262.9302859577
  0
ARC
  5
AD
330
1F
100
AcDbEntity
  8
0
  6
Continuous
 62
     7
370
    25
100
AcDbCircle
 10
3.1496062992
 20
0.0
 30
0.0
 40
0.8425196850393731
100
AcDbArc
 50
280.7728533751
 51
79.6356838064
  0
ARC
  5
AE
330
1F
100
AcDbEntity
  8
0
  6
Continuous
 62
     7
370
    25
100
AcDbCircle
 10
3.1496062992
 20
0.0
 30
0.0
 40
0.8425196850393704
100
AcDbArc
 50
100.3643161936
 51
259.2271466249
  0
SPLINE
  5
BA
330
1B
100
AcDbEntity
 67
     1
  8
0
  6
Continuous
 62
     7
370
    25
100
AcDbSpline
210
0.0
220
0.0
230
1.0
 70
     8
 71
     3
 72
    12
 73
     8
 74
     0
 42
0.000000001
 43
0.00000001
 40
0.0
 40
0.0
 40
0.0
 40
0.0
 40
0.0416305786325963
 40
0.0884664633431401
 40
0.1648332951895566
 40
0.3389965333382887
 40
1.0
 40
1.0
 40
1.0
 40
1.0
 10
-1.874524368924917
 20
-0.8264684817442768
 30
0.0
 10
-1.87445008828171
 20
-0.826455107261159
 30
0.0
 10
-1.87429223926747
 20
-0.8264266860078552
 30
0.0
 10
-1.87412671711766
 20
-0.8263943419383958
 30
0.0
 10
-1.87395888115642
 20
-0.8263607364227593
 30
0.0
 10
-1.873762603290501
 20
-0.8263193107070934
 30
0.0
 10
-1.873654993372091
 20
-0.8262961074487307
 30
0.0
 10
-1.873569824113418
 20
-0.8262777429304531
 30
0.0
  0
SPLINE
  5
BB
330
1B
100
AcDbEntity
 67
     1
  8
0
  6
Continuous
 62
     7
370
    25
100
AcDbSpline
210
0.0
220
0.0
230
1.0
 70
     8
 71
     3
 72
    10
 73
     6
 74
     0
 42
0.000000001
 43
0.00000001
 40
0.0
 40
0.0
 40
0.0
 40
0.0
 40
0.1143984806911354
 40
0.5293589230066293
 40
1.0
 40
1.0
 40
1.0
 40
1.0
 10
-1.8735238289339
 20
-0.8262650361187726
 30
0.0
 10
-1.873506796619461
 20
-0.8262612489220579
 30
0.0
 10
-1.873427982569019
 20
-0.8262437243329025
 30
0.0
 10
-1.872090898132528
 20
-0.8259495987274573
 30
0.0
 10
-1.869514357313972
 20
-0.8253989289421108
 30
0.0
 10
-1.868145089173253
 20
-0.8251062828533312
 30
0.0
  0
SPLINE
  5
CE
330
1B
100
AcDbEntity
 67
     1
  8
0
  6
Continuous
 62
     7
370
    25
100
AcDbSpline
210
0.0
220
0.0
230
1.0
 70
     8
 71
     3
 72
    26
 73
    22
 74
     0
 42
0.000000001
 43
0.00000001
 40
0.0
 40
0.0
 40
0.0
 40
0.0
 40
0.0106146034691997
 40
0.0636815992575108
 40
0.1182091009040267
 40
0.171291749760575
 40
0.2258184837984493
 40
0.2795654634510285
 40
0.3348644101706297
 40
0.3884511982707085
 40
0.4437108800830399
 40
0.4961012761840851
 40
0.5501321955686567
 40
0.6020078262679728
 40
0.6554081914727091
 40
0.7083987864480144
 40
0.7628873120172078
 40
0.8173307474711222
 40
0.8733371927065897
 40
0.9607650516998277
 40
1.0
 40
1.0
 40
1.0
 40
1.0
 10
-1.877597607146104
 20
-0.8266919192056221
 30
0.0
 10
-1.877535100632761
 20
-0.8266778771432173
 30
0.0
 10
-1.877160097012015
 20
-0.8265936327347083
 30
0.0
 10
-1.873299508343401
 20
-0.8257285485139426
 30
0.0
 10
-1.864045304069037
 20
-0.823734645481279
 30
0.0
 10
-1.850073284218148
 20
-0.8209235383513993
 30
0.0
 10
-1.832117129071858
 20
-0.8176659311672031
 30
0.0
 10
-1.810170913377345
 20
-0.814235017544917
 30
0.0
 10
-1.785143818298556
 20
-0.8110720732408071
 30
0.0
 10
-1.75732622187811
 20
-0.8085062420020636
 30
0.0
 10
-1.728238173694921
 20
-0.8069052747859303
 30
0.0
 10
-1.698234366710886
 20
-0.8064188074970077
 30
0.0
 10
-1.668920087366739
 20
-0.8070841594868771
 30
0.0
 10
-1.640404299926188
 20
-0.8088119005195279
 30
0.0
 10
-1.613827468382534
 20
-0.8113707322113571
 30
0.0
 10
-1.58934219185596
 20
-0.814533905929255
 30
0.0
 10
-1.567891642961573
 20
-0.8179327073508218
 30
0.0
 10
-1.549829034915612
 20
-0.8212445838364784
 30
0.0
 10
-1.533547182867337
 20
-0.824551787150982
 30
0.0
 10
-1.5244173271354
 20
-0.8265929889295579
 30
0.0
 10
-1.524160055574439
 20
-0.82665092170005
 30
0.0
 10
-1.524080363385318
 20
-0.8266688668988317
 30
0.0
  0
SPLINE
  5
CF
330
1B
100
AcDbEntity
 67
     1
  8
0
  6
Continuous
 62
     7
370
    25
100
AcDbSpline
210
0.0
220
0.0
230
1.0
 70
     8
 71
     3
 72
    38
 73
    34
 74
     0
 42
0.000000001
 43
0.00000001
 40
0.0
 40
0.0
 40
0.0
 40
0.0
 40
0.0625
 40
0.0625
 40
0.125
 40
0.125
 40
0.1875
 40
0.1875
 40
0.25
 40
0.25
 40
0.3125
 40
0.3125
 40
0.375
 40
0.375
 40
0.4375
 40
0.4375
 40
0.5
 40
0.5
 40
0.5625
 40
0.5625
 40
0.625
 40
0.625
 40
0.6875
 40
0.6875
 40
0.75
 40
0.75
 40
0.8125
 40
0.8125
 40
0.875
 40
0.875
 40
0.9375
 40
0.9375
 40
1.0
 40
1.0
 40
1.0
 40
1.0
 10
-1.188976377952756
 20
-0.8267716535433068
 30
0.0
 10
-1.188976377952756
 20
-0.8267716535433067
 30
0.0
 10
-1.188336995623764
 20
-0.8266948451137336
 30
0.0
 10
-1.185832842750265
 20
-0.8264023816896892
 30
0.0
 10
-1.183937246567027
 20
-0.8261832542738782
 30
0.0
 10
-1.178993832585513
 20
-0.8256390948961747
 30
0.0
 10
-1.175969606540691
 20
-0.8253166189705777
 30
0.0
 10
-1.168825609710316
 20
-0.8246078463843066
 30
0.0
 10
-1.164671271073154
 20
-0.824219144458865
 30
0.0
 10
-1.155597304369896
 20
-0.8234527360494712
 30
0.0
 10
-1.150645111090748
 20
-0.8230712711068723
 30
0.0
 10
-1.139886148115115
 20
-0.8223557477577347
 30
0.0
 10
-1.13416514148236
 20
-0.8220286107472344
 30
0.0
 10
-1.122322481626937
 20
-0.8214854075904351
 30
0.0
 10
-1.116113020931245
 20
-0.821265424401698
 30
0.0
 10
-1.103403943817202
 20
-0.8209681377323166
 30
0.0
 10
-1.097013257886543
 20
-0.8208923881645809
 30
0.0
 10
-1.084161298099643
 20
-0.8208918230284505
 30
0.0
 10
-1.077633384104847
 20
-0.820969470125285
 30
0.0
 10
-1.065005130097151
 20
-0.8212652446807195
 30
0.0
 10
-1.058866697427273
 20
-0.8214817613090615
 30
0.0
 10
-1.046942827293796
 20
-0.8220280203129168
 30
0.0
 10
-1.041187186082746
 20
-0.8223578152124047
 30
0.0
 10
-1.030528666685458
 20
-0.8230663852166182
 30
0.0
 10
-1.025555234774513
 20
-0.8234484658009925
 30
0.0
 10
-1.016369277166522
 20
-0.8242243976384719
 30
0.0
 10
-1.012301687835834
 20
-0.8246055168091093
 30
0.0
 10
-1.005174990779347
 20
-0.8253122857619541
 30
0.0
 10
-1.002091058231055
 20
-0.8256409744265708
 30
0.0
 10
-0.9971529179509792
 20
-0.8261846409086442
 30
0.0
 10
-0.9952902995559418
 20
-0.8263999740856318
 30
0.0
 10
-0.9927701695965
 20
-0.8266942650259778
 30
0.0
 10
-0.9921259842519685
 20
-0.8267716535433071
 30
0.0
 10
-0.9921259842519686
 20
-0.8267716535433072
 30
0.0
  0
LINE
  5
E1
330
1B
100
AcDbEntity
 67
     1
  8
0
  6
Continuous
 62
     7
370
    25
100
AcDbLine
 10
0.0
 20
1.2795275591
 30
0.0
 11
-0.157480315
 21
1.2795275591
 31
0.0
  0
LINE
  5
E2
330
1B
100
AcDbEntity
 67
     1
  8
0
  6
Continuous
 62
     7
370
    25
100
AcDbLine
 10
-0.157480315
 20
-1.2795275591
 30
0.0
 11
0.0
 21
-1.2795275591
 31
0.0
  0
LINE
  5
E3
330
1B
100
AcDbEntity
 67
     1
  8
0
  6
Continuous
 62
     7
370
    25
100
AcDbLine
 10
-1.4822091085
 20
0.8267716535
 30
0.0
 11
-2.094488189
 21
0.8267716535
 31
0.0
  0
LINE
  5
E4
330
1B
100
AcDbEntity
 67
     1
  8
0
  6
Continuous
 62
     7
370
    25
100
AcDbLine
 10
-0.3818897638
 20
0.8267716535
 30
0.0
 11
-1.1692913386
 21
0.8267716535
 31
0.0
  0
LINE
  5
E5
330
1B
100
AcDbEntity
 67
     1
  8
0
  6
Continuous
 62
     7
370
    25
100
AcDbLine
 10
-1.5240803634
 20
-0.8267716535
 30
0.0
 11
-0.3818897638
 21
-0.8267716535
 31
0.0
  0
LINE
  5
E6
330
1B
100
AcDbEntity
 67
     1
  8
0
  6
Continuous
 62
     7
370
    25
100
AcDbLine
 10
-2.094488189
 20
-0.8267716535
 30
0.0
 11
-1.8779527559
 21
-0.8267716535
 31
0.0
  0
LINE
  5
E7
330
1B
100
AcDbEntity
 67
     1
  8
0
  6
Continuous
 62
     7
370
    25
100
AcDbLine
 10
-1.8582677165
 20
-0.8226067256
 30
0.0
 11
-1.8582677165
 21
-1.4566929134
 31
0.0
  0
LINE
  5
E8
330
1B
100
AcDbEntity
 67
     1
  8
0
  6
Continuous
 62
     7
370
    25
100
AcDbLine
 10
-1.5433070866
 20
-1.4566929134
 30
0.0
 11
-1.5433070866
 21
-0.8226099047
 31
0.0
  0
LINE
  5
E9
330
1B
100
AcDbEntity
 67
     1
  8
0
  6
Continuous
 62
     7
370
    25
100
AcDbLine
 10
-1.1751968504
 20
0.8256719281
 30
0.0
 11
-1.1751968504
 21
1.0047132361
 31
0.0
  0
LINE
  5
EA
330
1B
100
AcDbEntity
 67
     1
  8
0
  6
Continuous
 62
     7
370
    25
100
AcDbLine
 10
-1.4783464567
 20
1.0047132361
 30
0.0
 11
-1.4783464567
 21
0.8256906658
 31
0.0
  0
LINE
  5
EB
330
1B
100
AcDbEntity
 67
     1
  8
0
  6
Continuous
 62
     7
370
    25
100
AcDbLine
 10
0.4330708661
 20
0.8267716535
 30
0.0
 11
0.0
 21
0.8267716535
 31
0.0
  0
LINE
  5
EC
330
1B
100
AcDbEntity
 67
     1
  8
0
  6
Continuous
 62
     7
370
    25
100
AcDbLine
 10
-0.157480315
 20
0.8267716535
 30
0.0
 11
-0.3543307087
 21
0.8267716535
 31
0.0
  0
LINE
  5
ED
330
1B
100
AcDbEntity
 67
     1
  8
0
  6
Continuous
 62
     7
370
    25
100
AcDbLine
 10
-0.3543307087
 20
-0.8267716535
 30
0.0
 11
-0.157480315
 21
-0.8267716535
 31
0.0
  0
LINE
  5
EE
330
1B
100
AcDbEntity
 67
     1
  8
0
  6
Continuous
 62
     7
370
    25
100
AcDbLine
 10
0.0
 20
-0.8267716535
 30
0.0
 11
0.4330708661
 21
-0.8267716535
 31
0.0
  0
LINE
  5
EF
330
1B
100
AcDbEntity
 67
     1
  8
0
  6
Continuous
 62
     7
370
    25
100
AcDbLine
 10
0.0
 20
-1.2795275591
 30
0.0
 11
0.0
 21
1.2795275591
 31
0.0
  0
LINE
  5
F0
330
1B
100
AcDbEntity
 67
     1
  8
0
  6
Continuous
 62
     7
370
    25
100
AcDbLine
 10
-0.157480315
 20
-1.2795275591
 30
0.0
 11
-0.157480315
 21
1.2795275591
 31
0.0
  0
LINE
  5
F1
330
1B
100
AcDbEntity
 67
     1
  8
0
  6
Continuous
 62
     7
370
    25
100
AcDbLine
 10
-2.1338582677
 20
-0.7874015748
 30
0.0
 11
-2.1338582677
 21
0.7874015748
 31
0.0
  0
LINE
  5
F2
330
1B
100
AcDbEntity
 67
     1
  8
0
  6
Continuous
 62
     7
370
    25
100
AcDbLine
 10
-0.3622047244
 20
0.8070866142
 30
0.0
 11
-0.3622047244
 21
-0.8070866142
 31
0.0
  0
LINE
  5
F3
330
1B
100
AcDbEntity
 67
     1
  8
0
  6
Continuous
 62
     7
370
    25
100
AcDbLine
 10
-1.5826771756
 20
-1.4960629921
 30
0.0
 11
-1.8188976378
 21
-1.4960629921
 31
0.0
  0
LINE
  5
F4
330
1B
100
AcDbEntity
 67
     1
  8
0
  6
Continuous
 62
     7
370
    25
100
AcDbLine
 10
0.4330708661
 20
-0.8267716535
 30
0.0
 11
0.4330708661
 21
0.8267716535
 31
0.0
  0
LINE
  5
F5
330
1B
100
AcDbEntity
 67
     1
  8
0
  6
Continuous
 62
     7
370
    25
100
AcDbLine
 10
-0.3543307087
 20
-0.8267716535
 30
0.0
 11
-0.3543307087
 21
0.8267716535
 31
0.0
  0
LINE
  5
F6
330
1B
100
AcDbEntity
 67
     1
  8
0
  6
Continuous
 62
     8
370
    25
100
AcDbLine
 10
-2.094488189
 20
0.8267716535
 30
0.0
 11
-2.094488189
 21
-0.8267716535
 31
0.0
  0
LINE
  5
F7
330
1B
100
AcDbEntity
 67
     1
  8
0
  6
Continuous
 62
     8
370
    25
100
AcDbLine
 10
-0.3818897638
 20
-0.8267716535
 30
0.0
 11
-0.3818897638
 21
0.8267716535
 31
0.0
  0
LINE
  5
F8
330
1B
100
AcDbEntity
 67
     1
  8
0
  6
Continuous
 62
     8
370
    25
100
AcDbLine
 10
-1.8582677165
 20
-1.4566929134
 30
0.0
 11
-1.5433070866
 21
-1.4566929134
 31
0.0
  0
LINE
  5
F9
330
1B
100
AcDbEntity
 67
     1
  8
0
  6
Continuous
 62
     8
370
    25
100
AcDbLine
 10
-1.4631867137
 20
1.0238710665
 30
0.0
 11
-1.1903565934
 21
1.0238710665
 31
0.0
  0
LINE
  5
FA
330
1B
100
AcDbEntity
 67
     1
  8
0
  6
Continuous
 62
     8
370
    25
100
AcDbLine
 10
-1.1751968504
 20
1.0047132361
 30
0.0
 11
-1.4783464567
 21
1.0047132361
 31
0.0
  0
ARC
  5
FB
330
1B
100
AcDbEntity
 67
     1
  8
0
  6
Continuous
 62
     7
370
    25
100
AcDbCircle
 10
-2.094488189
 20
-0.7874015748
 30
0.0
 40
0.039370078740158
100
AcDbArc
 50
180.0
 51
270.0
  0
ARC
  5
FC
330
1B
100
AcDbEntity
 67
     1
  8
0
  6
Continuous
 62
     7
370
    25
100
AcDbCircle
 10
-2.094488189
 20
0.7874015748
 30
0.0
 40
0.039370078740158
100
AcDbArc
 50
90.0
 51
180.0
  0
ARC
  5
FD
330
1B
100
AcDbEntity
 67
     1
  8
0
  6
Continuous
 62
     7
370
    25
100
AcDbCircle
 10
-0.3818897638
 20
-0.8070866142
 30
0.0
 40
0.0196850393700788
100
AcDbArc
 50
270.0
 51
0.0
  0
ARC
  5
FE
330
1B
100
AcDbEntity
 67
     1
  8
0
  6
Continuous
 62
     7
370
    25
100
AcDbCircle
 10
-0.3818897638
 20
0.8070866142
 30
0.0
 40
0.0196850393700788
100
AcDbArc
 50
0.0
 51
90.0
  0
ARC
  5
FF
330
1B
100
AcDbEntity
 67
     1
  8
0
  6
Continuous
 62
     7
370
    25
100
AcDbCircle
 10
-1.8188976378
 20
-1.4566929134
 30
0.0
 40
0.0393700787401579
100
AcDbArc
 50
180.0
 51
270.0
  0
ARC
  5
100
330
1B
100
AcDbEntity
 67
     1
  8
0
  6
Continuous
 62
     7
370
    25
100
AcDbCircle
 10
-1.5826771654
 20
-1.4566929134
 30
0.0
 40
0.0393700787401581
100
AcDbArc
 50
270.0
 51
0.0
  0
ARC
  5
101
330
1B
100
AcDbEntity
 67
     1
  8
0
  6
Continuous
 62
     7
370
    25
100
AcDbCircle
 10
-1.1948818898
 20
1.0047132361
 30
0.0
 40
0.0196850393700787
100
AcDbArc
 50
0.0
 51
76.709695303
  0
ARC
  5
102
330
1B
100
AcDbEntity
 67
     1
  8
0
  6
Continuous
 62
     7
370
    25
100
AcDbCircle
 10
-1.4586614173
 20
1.0047132361
 30
0.0
 40
0.0196850393700785
100
AcDbArc
 50
103.290304697
 51
180.0
  0
ARC
  5
103
330
1B
100
AcDbEntity
 67
     1
  8
0
  6
Continuous
 62
     7
370
    25
100
AcDbCircle
 10
-1.3267716535
 20
0.4463582677
 30
0.0
 40
0.5934055118110125
100
AcDbArc
 50
76.709695303
 51
103.290304697
  0
ARC
  5
104
330
1B
100
AcDbEntity
 67
     1
  8
0
  6
Continuous
 62
     7
370
    25
100
AcDbCircle
 10
-1.3267590343
 20
1.6444876686
 30
0.0
 40
0.8327397892160963
100
AcDbArc
 50
259.2413096372
 51
280.9000277749
  0
VIEWPORT
  5
1C7
330
1B
100
AcDbEntity
 67
     1
  8
0
100
AcDbViewport
 10
0.0
 20
0.0
 30
0.0
 40
8.4
 41
6.4
 68
     1
 69
     1
 12
1.5748031496
 22
-0.1082677165
 13
0.0
 23
0.0
 14
0.5
 24
0.5
 15
0.5
 25
0.5
 16
0.0
 26
0.0
 36
1.0
 17
0.0
 27
0.0
 37
0.0
 42
50.0
 43
0.0
 44
0.0
 45
4.4364454443
 50
0.0
 51
0.0
 72
   100
 90
   557152
  1

281
     0
 71
     1
 74
     0
110
0.0
120
0.0
130
0.0
111
1.0
121
0.0
131
0.0
112
0.0
122
1.0
132
0.0
 79
     0
146
0.0
  0
ENDSEC
  0
SECTION
  2
OBJECTS
  0
DICTIONARY
  5
C
330
0
100
AcDbDictionary
281
     1
  3
ACAD_GROUP
350
D
  3
ACAD_LAYOUT
350
1A
  3
ACAD_MLINESTYLE
350
17
  3
ACAD_PLOTSETTINGS
350
19
  3
ACAD_PLOTSTYLENAME
350
E
  3
ACAD_SCALELIST
350
47
  0
DICTIONARY
  5
D
102
{ACAD_REACTORS
330
C
102
}
330
C
100
AcDbDictionary
281
     1
  0
DICTIONARY
  5
1A
102
{ACAD_REACTORS
330
C
102
}
330
C
100
AcDbDictionary
281
     1
  3
_Isometric
350
159
  3
_Right
350
1E
  3
_Top
350
26
  3
Model
350
22
  0
DICTIONARY
  5
17
102
{ACAD_REACTORS
330
C
102
}
330
C
100
AcDbDictionary
281
     1
  3
Standard
350
18
  0
DICTIONARY
  5
19
102
{ACAD_REACTORS
330
C
102
}
330
C
100
AcDbDictionary
281
     1
  0
ACDBDICTIONARYWDFLT
  5
E
102
{ACAD_REACTORS
330
C
102
}
330
C
100
AcDbDictionary
281
     1
  3
Normal
350
F
100
AcDbDictionaryWithDefault
340
F
  0
DICTIONARY
  5
47
102
{ACAD_REACTORS
330
C
102
}
330
C
100
AcDbDictionary
281
     1
  3
A0
350
48
  3
A1
350
49
  3
A2
350
4A
  3
A3
350
4B
  3
A4
350
4C
  3
A5
350
4D
  3
A6
350
4E
  3
A7
350
4F
  3
A8
350
50
  3
A9
350
51
  3
B0
350
52
  3
B1
350
53
  3
B2
350
54
  3
B3
350
55
  3
B4
350
56
  3
B5
350
57
  3
B6
350
58
  3
B7
350
59
  3
B8
350
5A
  3
B9
350
5B
  3
C0
350
5C
  3
C1
350
5D
  3
C2
350
5E
  3
C3
350
5F
  3
C4
350
60
  3
C5
350
61
  3
C6
350
62
  3
C7
350
63
  3
C8
350
64
  3
C9
350
65
  3
D0
350
66
  3
D1
350
67
  3
D2
350
68
  0
LAYOUT
  5
159
102
{ACAD_REACTORS
330
1A
102
}
330
1A
100
AcDbPlotSettings
  1

  2
none_device
  4
Letter_(8.50_x_11.00_Inches)
  6

 40
6.35
 41
6.35
 42
6.35001
 43
6.35001
 44
215.9
 45
279.4
 46
0.0
 47
0.0
 48
0.0
 49
0.0
140
0.0
141
0.0
142
1.0
143
0.346948836
 70
   688
 72
     0
 73
     1
 74
     1
  7

 75
     0
147
2.8822693617
148
54.2
149
38.0
100
AcDbLayout
  1
_Isometric
 70
     1
 71
     3
 10
0.0
 20
0.0
 11
0.0
 21
0.0
 12
0.0
 22
0.0
 32
0.0
 14
0.0
 24
0.0
 34
0.0
 15
0.0
 25
0.0
 35
0.0
146
0.0
 13
0.0
 23
0.0
 33
0.0
 16
1.0
 26
0.0
 36
0.0
 17
0.0
 27
1.0
 37
0.0
 76
     0
330
158
331
1CB
  0
LAYOUT
  5
1E
102
{ACAD_REACTORS
330
1A
102
}
330
1A
100
AcDbPlotSettings
  1

  2
none_device
  4
Letter_(8.50_x_11.00_Inches)
  6

 40
6.35
 41
6.35
 42
6.35001
 43
6.35001
 44
215.9
 45
279.4
 46
0.0
 47
0.0
 48
0.0
 49
0.0
140
0.0
141
0.0
142
1.0
143
0.346948836
 70
   688
 72
     0
 73
     1
 74
     1
  7

 75
     0
147
2.8822693617
148
54.2
149
38.0
100
AcDbLayout
  1
_Right
 70
     1
 71
     1
 10
-2.2205956133
 20
-1.5828002011
 11
1.5958415824
 21
1.3662649046
 12
0.0
 22
0.0
 32
0.0
 14
-2.1338582677
 24
-1.4960629921
 34
0.0
 15
0.4330708661
 25
1.2795275591
 35
0.0
146
0.0
 13
0.0
 23
0.0
 33
0.0
 16
1.0
 26
0.0
 36
0.0
 17
0.0
 27
1.0
 37
0.0
 76
     0
330
1B
331
1C7
  0
LAYOUT
  5
26
102
{ACAD_REACTORS
330
1A
102
}
330
1A
100
AcDbPlotSettings
  1

  2
none_device
  4
Letter_(8.50_x_11.00_Inches)
  6

 40
6.35
 41
6.35
 42
6.35001
 43
6.35001
 44
215.9
 45
279.4
 46
0.0
 47
0.0
 48
0.0
 49
0.0
140
0.0
141
0.0
142
1.0
143
0.346948836
 70
   688
 72
     0
 73
     1
 74
     1
  7

 75
     0
147
2.8822693617
148
54.2
149
38.0
100
AcDbLayout
  1
_Top
 70
     1
 71
     2
 10
0.0
 20
0.0
 11
0.0
 21
0.0
 12
0.0
 22
0.0
 32
0.0
 14
0.0
 24
0.0
 34
0.0
 15
0.0
 25
0.0
 35
0.0
146
0.0
 13
0.0
 23
0.0
 33
0.0
 16
1.0
 26
0.0
 36
0.0
 17
0.0
 27
1.0
 37
0.0
 76
     0
330
23
331
1C9
  0
LAYOUT
  5
22
102
{ACAD_REACTORS
330
1A
102
}
330
1A
100
AcDbPlotSettings
  1

  2
none_device
  4
ANSI_A_(11.00_x_8.50_Inches)
  6

 40
6.35
 41
19.05
 42
6.35000508
 43
19.05000254
 44
279.4
 45
215.9
 46
57.0448940117
 47
94.1459745921
 48
0.0
 49
0.0
140
0.0
141
0.0
142
1.9076275862
143
1.0
 70
  1696
 72
     0
 73
     0
 74
     0
  7

 75
     0
147
0.5913241897
148
-39.4088153714
149
0.0
100
AcDbLayout
  1
Model
 70
     1
 71
     0
 10
0.0
 20
0.0
 11
12.0
 21
9.0
 12
0.0
 22
0.0
 32
0.0
 14
-1.2795275591
 24
-1.4960629921
 34
0.0
 15
4.4291338583
 25
1.2795275591
 35
0.0
146
0.0
 13
0.0
 23
0.0
 33
0.0
 16
1.0
 26
0.0
 36
0.0
 17
0.0
 27
1.0
 37
0.0
 76
     0
330
1F
331
29
  0
MLINESTYLE
  5
18
102
{ACAD_REACTORS
330
17
102
}
330
17
100
AcDbMlineStyle
  2
Standard
 70
     0
  3

 62
   256
 51
90.0
 52
90.0
 71
     2
 49
0.5
 62
   256
  6
BYLAYER
 49
-0.5
 62
   256
  6
BYLAYER
  0
ACDBPLACEHOLDER
  5
F
102
{ACAD_REACTORS
330
E
102
}
330
E
  0
SCALE
  5
48
102
{ACAD_REACTORS
330
47
102
}
330
47
100
AcDbScale
 70
     0
300
1:1
140
1.0
141
1.0
290
     1
  0
SCALE
  5
49
102
{ACAD_REACTORS
330
47
102
}
330
47
100
AcDbScale
 70
     0
300
1:2
140
1.0
141
2.0
290
     0
  0
SCALE
  5
4A
102
{ACAD_REACTORS
330
47
102
}
330
47
100
AcDbScale
 70
     0
300
1:4
140
1.0
141
4.0
290
     0
  0
SCALE
  5
4B
102
{ACAD_REACTORS
330
47
102
}
330
47
100
AcDbScale
 70
     0
300
1:5
140
1.0
141
5.0
290
     0
  0
SCALE
  5
4C
102
{ACAD_REACTORS
330
47
102
}
330
47
100
AcDbScale
 70
     0
300
1:8
140
1.0
141
8.0
290
     0
  0
SCALE
  5
4D
102
{ACAD_REACTORS
330
47
102
}
330
47
100
AcDbScale
 70
     0
300
1:10
140
1.0
141
10.0
290
     0
  0
SCALE
  5
4E
102
{ACAD_REACTORS
330
47
102
}
330
47
100
AcDbScale
 70
     0
300
1:16
140
1.0
141
16.0
290
     0
  0
SCALE
  5
4F
102
{ACAD_REACTORS
330
47
102
}
330
47
100
AcDbScale
 70
     0
300
1:20
140
1.0
141
20.0
290
     0
  0
SCALE
  5
50
102
{ACAD_REACTORS
330
47
102
}
330
47
100
AcDbScale
 70
     0
300
1:30
140
1.0
141
30.0
290
     0
  0
SCALE
  5
51
102
{ACAD_REACTORS
330
47
102
}
330
47
100
AcDbScale
 70
     0
300
1:40
140
1.0
141
40.0
290
     0
  0
SCALE
  5
52
102
{ACAD_REACTORS
330
47
102
}
330
47
100
AcDbScale
 70
     0
300
1:50
140
1.0
141
50.0
290
     0
  0
SCALE
  5
53
102
{ACAD_REACTORS
330
47
102
}
330
47
100
AcDbScale
 70
     0
300
1:100
140
1.0
141
100.0
290
     0
  0
SCALE
  5
54
102
{ACAD_REACTORS
330
47
102
}
330
47
100
AcDbScale
 70
     0
300
2:1
140
2.0
141
1.0
290
     0
  0
SCALE
  5
55
102
{ACAD_REACTORS
330
47
102
}
330
47
100
AcDbScale
 70
     0
300
4:1
140
4.0
141
1.0
290
     0
  0
SCALE
  5
56
102
{ACAD_REACTORS
330
47
102
}
330
47
100
AcDbScale
 70
     0
300
8:1
140
8.0
141
1.0
290
     0
  0
SCALE
  5
57
102
{ACAD_REACTORS
330
47
102
}
330
47
100
AcDbScale
 70
     0
300
10:1
140
10.0
141
1.0
290
     0
  0
SCALE
  5
58
102
{ACAD_REACTORS
330
47
102
}
330
47
100
AcDbScale
 70
     0
300
100:1
140
100.0
141
1.0
290
     0
  0
SCALE
  5
59
102
{ACAD_REACTORS
330
47
102
}
330
47
100
AcDbScale
 70
     0
300
1/128" = 1'-0"
140
0.0078125
141
12.0
290
     0
  0
SCALE
  5
5A
102
{ACAD_REACTORS
330
47
102
}
330
47
100
AcDbScale
 70
     0
300
1/64" = 1'-0"
140
0.015625
141
12.0
290
     0
  0
SCALE
  5
5B
102
{ACAD_REACTORS
330
47
102
}
330
47
100
AcDbScale
 70
     0
300
1/32" = 1'-0"
140
0.03125
141
12.0
290
     0
  0
SCALE
  5
5C
102
{ACAD_REACTORS
330
47
102
}
330
47
100
AcDbScale
 70
     0
300
1/16" = 1'-0"
140
0.0625
141
12.0
290
     0
  0
SCALE
  5
5D
102
{ACAD_REACTORS
330
47
102
}
330
47
100
AcDbScale
 70
     0
300
3/32" = 1'-0"
140
0.09375
141
12.0
290
     0
  0
SCALE
  5
5E
102
{ACAD_REACTORS
330
47
102
}
330
47
100
AcDbScale
 70
     0
300
1/8" = 1'-0"
140
0.125
141
12.0
290
     0
  0
SCALE
  5
5F
102
{ACAD_REACTORS
330
47
102
}
330
47
100
AcDbScale
 70
     0
300
3/16" = 1'-0"
140
0.1875
141
12.0
290
     0
  0
SCALE
  5
60
102
{ACAD_REACTORS
330
47
102
}
330
47
100
AcDbScale
 70
     0
300
1/4" = 1'-0"
140
0.25
141
12.0
290
     0
  0
SCALE
  5
61
102
{ACAD_REACTORS
330
47
102
}
330
47
100
AcDbScale
 70
     0
300
3/8" = 1'-0"
140
0.375
141
12.0
290
     0
  0
SCALE
  5
62
102
{ACAD_REACTORS
330
47
102
}
330
47
100
AcDbScale
 70
     0
300
1/2" = 1'-0"
140
0.5
141
12.0
290
     0
  0
SCALE
  5
63
102
{ACAD_REACTORS
330
47
102
}
330
47
100
AcDbScale
 70
     0
300
3/4" = 1'-0"
140
0.75
141
12.0
290
     0
  0
SCALE
  5
64
102
{ACAD_REACTORS
330
47
102
}
330
47
100
AcDbScale
 70
     0
300
1" = 1'-0"
140
1.0
141
12.0
290
     0
  0
SCALE
  5
65
102
{ACAD_REACTORS
330
47
102
}
330
47
100
AcDbScale
 70
     0
300
1-1/2" = 1'-0"
140
1.5
141
12.0
290
     0
  0
SCALE
  5
66
102
{ACAD_REACTORS
330
47
102
}
330
47
100
AcDbScale
 70
     0
300
3" = 1'-0"
140
3.0
141
12.0
290
     0
  0
SCALE
  5
67
102
{ACAD_REACTORS
330
47
102
}
330
47
100
AcDbScale
 70
     0
300
6" = 1'-0"
140
6.0
141
12.0
290
     0
  0
SCALE
  5
68
102
{ACAD_REACTORS
330
47
102
}
330
47
100
AcDbScale
 70
     0
300
1'-0" = 1'-0"
140
12.0
141
12.0
290
     0
  0
ENDSEC
  0
EOF
