  0
SECTION
  2
HEADER
  9
$ACADVER
  1
AC1015
  9
$ACADMAINTVER
 70
     6
  9
$DWGCODEPAGE
  3
ANSI_1252
  9
$INSBASE
 10
0.0
 20
0.0
 30
0.0
  9
$EXTMIN
 10
-17.3058146944
 20
-205.7972069551
 30
0.0
  9
$EXTMAX
 10
97.6472871898
 20
176.4872373367
 30
0.0
  9
$LIMMIN
 10
0.0
 20
0.0
  9
$LIMMAX
 10
420.0
 20
297.0
  9
$ORTHOMODE
 70
     0
  9
$REGENMODE
 70
     1
  9
$FILLMODE
 70
     1
  9
$QTEXTMODE
 70
     0
  9
$MIRRTEXT
 70
     1
  9
$LTSCALE
 40
1.0
  9
$ATTMODE
 70
     1
  9
$TEXTSIZE
 40
3.5
  9
$TRACEWID
 40
1.0
  9
$TEXTSTYLE
  7
Standard
  9
$CLAYER
  8
0
  9
$CELTYPE
  6
ByLayer
  9
$CECOLOR
 62
   256
  9
$CELTSCALE
 40
1.0
  9
$DISPSILH
 70
     0
  9
$DIMSCALE
 40
1.0
  9
$DIMASZ
 40
3.302
  9
$DIMEXO
 40
1.0
  9
$DIMDLI
 40
3.75
  9
$DIMRND
 40
0.0
  9
$DIMDLE
 40
0.0
  9
$DIMEXE
 40
1.0
  9
$DIMTP
 40
0.0
  9
$DIMTM
 40
0.0
  9
$DIMTXT
 40
3.5
  9
$DIMCEN
 40
2.5
  9
$DIMTSZ
 40
0.0
  9
$DIMTOL
 70
     0
  9
$DIMLIM
 70
     0
  9
$DIMTIH
 70
     1
  9
$DIMTOH
 70
     1
  9
$DIMSE1
 70
     0
  9
$DIMSE2
 70
     0
  9
$DIMTAD
 70
     1
  9
$DIMZIN
 70
     1
  9
$DIMBLK
  1

  9
$DIMASO
 70
     1
  9
$DIMSHO
 70
     1
  9
$DIMPOST
  1

  9
$DIMAPOST
  1

  9
$DIMALT
 70
     0
  9
$DIMALTD
 70
     3
  9
$DIMALTF
 40
0.0393700787
  9
$DIMLFAC
 40
1.0
  9
$DIMTOFL
 70
     1
  9
$DIMTVP
 40
0.0
  9
$DIMTIX
 70
     0
  9
$DIMSOXD
 70
     0
  9
$DIMSAH
 70
     0
  9
$DIMBLK1
  1

  9
$DIMBLK2
  1

  9
$DIMSTYLE
  2
ISO-25
  9
$DIMCLRD
 70
     0
  9
$DIMCLRE
 70
     0
  9
$DIMCLRT
 70
     0
  9
$DIMTFAC
 40
1.0
  9
$DIMGAP
 40
1.524
  9
$DIMJUST
 70
     0
  9
$DIMSD1
 70
     0
  9
$DIMSD2
 70
     0
  9
$DIMTOLJ
 70
     0
  9
$DIMTZIN
 70
     1
  9
$DIMALTZ
 70
     0
  9
$DIMALTTZ
 70
     0
  9
$DIMUPT
 70
     0
  9
$DIMDEC
 70
     2
  9
$DIMTDEC
 70
     2
  9
$DIMALTU
 70
     2
  9
$DIMALTTD
 70
     3
  9
$DIMTXSTY
  7
Standard
  9
$DIMAUNIT
 70
     0
  9
$DIMADEC
 70
     2
  9
$DIMALTRND
 40
0.0
  9
$DIMAZIN
 70
     0
  9
$DIMDSEP
 70
    44
  9
$DIMATFIT
 70
     3
  9
$DIMFRAC
 70
     0
  9
$DIMLDRBLK
  1

  9
$DIMLUNIT
 70
     2
  9
$DIMLWD
 70
    -2
  9
$DIMLWE
 70
    -2
  9
$DIMTMOVE
 70
     0
  9
$LUNITS
 70
     2
  9
$LUPREC
 70
     2
  9
$SKETCHINC
 40
1.0
  9
$FILLETRAD
 40
10.0
  9
$AUNITS
 70
     0
  9
$AUPREC
 70
     2
  9
$MENU
  1
.
  9
$ELEVATION
 40
0.0
  9
$PELEVATION
 40
0.0
  9
$THICKNESS
 40
0.0
  9
$LIMCHECK
 70
     0
  9
$CHAMFERA
 40
0.0
  9
$CHAMFERB
 40
0.0
  9
$CHAMFERC
 40
0.0
  9
$CHAMFERD
 40
0.0
  9
$SKPOLY
 70
     0
  9
$TDCREATE
 40
2460083.472669526
  9
$TDUCREATE
 40
2460083.431002859
  9
$TDUPDATE
 40
2460083.472717303
  9
$TDUUPDATE
 40
2460083.431050637
  9
$TDINDWG
 40
0.0000000116
  9
$TDUSRTIMER
 40
0.0000000116
  9
$USRTIMER
 70
     1
  9
$ANGBASE
 50
0.0
  9
$ANGDIR
 70
     0
  9
$PDMODE
 70
     0
  9
$PDSIZE
 40
-1.0
  9
$PLINEWID
 40
0.0
  9
$SPLFRAME
 70
     0
  9
$SPLINETYPE
 70
     6
  9
$SPLINESEGS
 70
     8
  9
$HANDSEED
  5
61D
  9
$SURFTAB1
 70
     6
  9
$SURFTAB2
 70
     6
  9
$SURFTYPE
 70
     6
  9
$SURFU
 70
     6
  9
$SURFV
 70
     6
  9
$UCSBASE
  2

  9
$UCSNAME
  2

  9
$UCSORG
 10
0.0
 20
0.0
 30
0.0
  9
$UCSXDIR
 10
1.0
 20
0.0
 30
0.0
  9
$UCSYDIR
 10
0.0
 20
1.0
 30
0.0
  9
$UCSORTHOREF
  2

  9
$UCSORTHOVIEW
 70
     0
  9
$UCSORGTOP
 10
0.0
 20
0.0
 30
0.0
  9
$UCSORGBOTTOM
 10
0.0
 20
0.0
 30
0.0
  9
$UCSORGLEFT
 10
0.0
 20
0.0
 30
0.0
  9
$UCSORGRIGHT
 10
0.0
 20
0.0
 30
0.0
  9
$UCSORGFRONT
 10
0.0
 20
0.0
 30
0.0
  9
$UCSORGBACK
 10
0.0
 20
0.0
 30
0.0
  9
$PUCSBASE
  2

  9
$PUCSNAME
  2

  9
$PUCSORG
 10
0.0
 20
0.0
 30
0.0
  9
$PUCSXDIR
 10
1.0
 20
0.0
 30
0.0
  9
$PUCSYDIR
 10
0.0
 20
1.0
 30
0.0
  9
$PUCSORTHOREF
  2

  9
$PUCSORTHOVIEW
 70
     0
  9
$PUCSORGTOP
 10
0.0
 20
0.0
 30
0.0
  9
$PUCSORGBOTTOM
 10
0.0
 20
0.0
 30
0.0
  9
$PUCSORGLEFT
 10
0.0
 20
0.0
 30
0.0
  9
$PUCSORGRIGHT
 10
0.0
 20
0.0
 30
0.0
  9
$PUCSORGFRONT
 10
0.0
 20
0.0
 30
0.0
  9
$PUCSORGBACK
 10
0.0
 20
0.0
 30
0.0
  9
$USERI1
 70
     0
  9
$USERI2
 70
     0
  9
$USERI3
 70
     0
  9
$USERI4
 70
     0
  9
$USERI5
 70
     0
  9
$USERR1
 40
0.0
  9
$USERR2
 40
0.0
  9
$USERR3
 40
0.0
  9
$USERR4
 40
0.0
  9
$USERR5
 40
0.0
  9
$WORLDVIEW
 70
     1
  9
$SHADEDGE
 70
     3
  9
$SHADEDIF
 70
    70
  9
$TILEMODE
 70
     1
  9
$MAXACTVP
 70
    64
  9
$PINSBASE
 10
0.0
 20
0.0
 30
0.0
  9
$PLIMCHECK
 70
     0
  9
$PEXTMIN
 10
-97.6472871898
 20
-205.7972069551
 30
0.0
  9
$PEXTMAX
 10
17.3058146944
 20
176.4872373367
 30
0.0
  9
$PLIMMIN
 10
-136.8559481428
 20
-220.5004548125
  9
$PLIMMAX
 10
445.3926670094
 20
191.1904851941
  9
$UNITMODE
 70
     0
  9
$VISRETAIN
 70
     1
  9
$PLINEGEN
 70
     0
  9
$PSLTSCALE
 70
     1
  9
$TREEDEPTH
 70
  3020
  9
$CMLSTYLE
  2
Standard
  9
$CMLJUST
 70
     0
  9
$CMLSCALE
 40
20.0
  9
$PROXYGRAPHICS
 70
     1
  9
$MEASUREMENT
 70
     1
  9
$CELWEIGHT
370
    -1
  9
$ENDCAPS
280
     0
  9
$JOINSTYLE
280
     0
  9
$LWDISPLAY
290
     1
  9
$INSUNITS
 70
     4
  9
$HYPERLINKBASE
  1

  9
$STYLESHEET
  1

  9
$XEDIT
290
     1
  9
$CEPSNTYPE
380
     0
  9
$PSTYLEMODE
290
     1
  9
$FINGERPRINTGUID
  2
{e654fa15-abbe-4f3e-ae49-045773a9eaa5}
  9
$VERSIONGUID
  2
{FAEB1C32-E019-11D5-929B-00C0DF256EC4}
  9
$EXTNAMES
290
     1
  9
$PSVPSCALE
 40
0.0
  9
$OLESTARTUP
290
     0
  0
ENDSEC
  0
SECTION
  2
CLASSES
  0
CLASS
  1
ACDBDICTIONARYWDFLT
  2
AcDbDictionaryWithDefault
  3
ObjectDBX Classes
 90
        0
280
     0
281
     0
  0
CLASS
  1
VISUALSTYLE
  2
AcDbVisualStyle
  3
ObjectDBX Classes
 90
     4095
280
     0
281
     0
  0
CLASS
  1
MATERIAL
  2
AcDbMaterial
  3
ObjectDBX Classes
 90
     1153
280
     0
281
     0
  0
CLASS
  1
SCALE
  2
AcDbScale
  3
ObjectDBX Classes
 90
     1153
280
     0
281
     0
  0
CLASS
  1
TABLESTYLE
  2
AcDbTableStyle
  3
ObjectDBX Classes
 90
     4095
280
     0
281
     0
  0
CLASS
  1
MLEADERSTYLE
  2
AcDbMLeaderStyle
  3
ACDB_MLEADERSTYLE_CLASS
 90
     4095
280
     0
281
     0
  0
CLASS
  1
SUN
  2
AcDbSun
  3
SCENEOE
 90
     1153
280
     0
281
     0
  0
CLASS
  1
ACDBPLACEHOLDER
  2
AcDbPlaceHolder
  3
ObjectDBX Classes
 90
        0
280
     0
281
     0
  0
CLASS
  1
LAYOUT
  2
AcDbLayout
  3
ObjectDBX Classes
 90
        0
280
     0
281
     0
  0
ENDSEC
  0
SECTION
  2
TABLES
  0
TABLE
  2
VPORT
  5
8
330
0
100
AcDbSymbolTable
 70
     1
  0
VPORT
  5
29
330
8
100
AcDbSymbolTableRecord
100
AcDbViewportTableRecord
  2
*Active
 70
     0
 10
0.0
 20
0.0
 11
1.0
 21
1.0
 12
40.1707362477
 22
-14.6549848092
 13
0.0
 23
0.0
 14
10.0
 24
10.0
 15
10.0
 25
10.0
 16
0.0
 26
0.0
 36
1.0
 17
0.0
 27
0.0
 37
0.0
 40
389.9301331777
 41
0.3007004433
 42
50.0
 43
0.0
 44
0.0
 50
0.0
 51
0.0
 71
     0
 72
   100
 73
     1
 74
     3
 75
     0
 76
     0
 77
     0
 78
     0
281
     0
 65
     1
110
0.0
120
0.0
130
0.0
111
1.0
121
0.0
131
0.0
112
0.0
122
1.0
132
0.0
 79
     0
146
0.0
  0
ENDTAB
  0
TABLE
  2
LTYPE
  5
5
330
0
100
AcDbSymbolTable
 70
     6
  0
LTYPE
  5
14
330
5
100
AcDbSymbolTableRecord
100
AcDbLinetypeTableRecord
  2
ByBlock
 70
     0
  3

 72
    65
 73
     0
 40
0.0
  0
LTYPE
  5
15
330
5
100
AcDbSymbolTableRecord
100
AcDbLinetypeTableRecord
  2
ByLayer
 70
     0
  3

 72
    65
 73
     0
 40
0.0
  0
LTYPE
  5
16
330
5
100
AcDbSymbolTableRecord
100
AcDbLinetypeTableRecord
  2
Continuous
 70
     0
  3
Solid line
 72
    65
 73
     0
 40
0.0
  0
LTYPE
  5
6E
330
5
100
AcDbSymbolTableRecord
100
AcDbLinetypeTableRecord
  2
HIDDEN
 70
     0
  3
Hidden __ __ __ __ __ __ __ __ __ __ __ __ __ __
 72
    65
 73
     2
 40
1.905
 49
1.27
 74
     0
 49
-0.635
 74
     0
  0
LTYPE
  5
6F
330
5
100
AcDbSymbolTableRecord
100
AcDbLinetypeTableRecord
  2
PHANTOM
 70
     0
  3
Phantom ______  __  __  ______  __  __  ______
 72
    65
 73
     6
 40
12.7
 49
6.35
 74
     0
 49
-1.27
 74
     0
 49
1.27
 74
     0
 49
-1.27
 74
     0
 49
1.27
 74
     0
 49
-1.27
 74
     0
  0
LTYPE
  5
70
330
5
100
AcDbSymbolTableRecord
100
AcDbLinetypeTableRecord
  2
CENTER
 70
     0
  3
Center ____ _ ____ _ ____ _ ____ _ ____ _ ____
 72
    65
 73
     4
 40
10.16
 49
6.35
 74
     0
 49
-1.27
 74
     0
 49
1.27
 74
     0
 49
-1.27
 74
     0
  0
LTYPE
  5
71
330
5
100
AcDbSymbolTableRecord
100
AcDbLinetypeTableRecord
  2
CENTERX2
 70
     0
  3
Center (2x) ________  __  ________  __  _____
 72
    65
 73
     4
 40
20.32
 49
12.7
 74
     0
 49
-2.54
 74
     0
 49
2.54
 74
     0
 49
-2.54
 74
     0
  0
LTYPE
  5
72
330
5
100
AcDbSymbolTableRecord
100
AcDbLinetypeTableRecord
  2
DOT2
 70
     0
  3
Dot (.5x) ........................................
 72
    65
 73
     2
 40
0.635
 49
0.0
 74
     0
 49
-0.635
 74
     0
  0
ENDTAB
  0
TABLE
  2
LAYER
  5
2
330
0
100
AcDbSymbolTable
 70
     1
  0
LAYER
  5
10
330
2
100
AcDbSymbolTableRecord
100
AcDbLayerTableRecord
  2
0
 70
     0
 62
     7
  6
Continuous
370
    -3
390
F
  0
ENDTAB
  0
TABLE
  2
STYLE
  5
3
330
0
100
AcDbSymbolTable
 70
     1
  0
STYLE
  5
11
330
3
100
AcDbSymbolTableRecord
100
AcDbTextStyleTableRecord
  2
Standard
 70
     0
 40
0.0
 41
1.0
 50
0.0
 71
     0
 42
3.5
  3
txt
  4

  0
ENDTAB
  0
TABLE
  2
VIEW
  5
6
330
0
100
AcDbSymbolTable
 70
     0
  0
ENDTAB
  0
TABLE
  2
UCS
  5
7
330
0
100
AcDbSymbolTable
 70
     0
  0
ENDTAB
  0
TABLE
  2
APPID
  5
9
330
0
100
AcDbSymbolTable
 70
     1
  0
APPID
  5
12
330
9
100
AcDbSymbolTableRecord
100
AcDbRegAppTableRecord
  2
ACAD
 70
     0
  0
ENDTAB
  0
TABLE
  2
DIMSTYLE
  5
A
330
0
100
AcDbSymbolTable
 70
     1
100
AcDbDimStyleTable
  0
DIMSTYLE
105
27
330
A
100
AcDbSymbolTableRecord
100
AcDbDimStyleTableRecord
  2
ISO-25
 70
     0
 41
2.5
 42
0.625
 43
3.75
 44
1.25
 73
     0
 74
     0
 77
     1
 78
     8
140
2.5
141
2.5
143
0.0393700787
147
0.625
171
     3
172
     1
178
     0
271
     2
272
     2
274
     3
278
    44
283
     0
284
     8
340
11
  0
ENDTAB
  0
TABLE
  2
BLOCK_RECORD
  5
1
330
0
100
AcDbSymbolTable
 70
     3
  0
BLOCK_RECORD
  5
1F
330
1
100
AcDbSymbolTableRecord
100
AcDbBlockTableRecord
  2
*Model_Space
340
22
  0
BLOCK_RECORD
  5
1B
330
1
100
AcDbSymbolTableRecord
100
AcDbBlockTableRecord
  2
*Paper_Space
340
1E
  0
BLOCK_RECORD
  5
23
330
1
100
AcDbSymbolTableRecord
100
AcDbBlockTableRecord
  2
*Paper_Space0
340
26
  0
BLOCK_RECORD
  5
1AB
330
1
100
AcDbSymbolTableRecord
100
AcDbBlockTableRecord
  2
*Paper_Space1
340
1AC
  0
BLOCK_RECORD
  5
5F8
330
1
100
AcDbSymbolTableRecord
100
AcDbBlockTableRecord
  2
*Paper_Space2
340
5F9
  0
ENDTAB
  0
ENDSEC
  0
SECTION
  2
BLOCKS
  0
BLOCK
  5
20
330
1F
100
AcDbEntity
  8
0
100
AcDbBlockBegin
  2
*Model_Space
 70
     0
 10
0.0
 20
0.0
 30
0.0
  3
*Model_Space
  1

  0
ENDBLK
  5
21
330
1F
100
AcDbEntity
  8
0
100
AcDbBlockEnd
  0
BLOCK
  5
1C
330
1B
100
AcDbEntity
 67
     1
  8
0
100
AcDbBlockBegin
  2
*Paper_Space
 70
     0
 10
0.0
 20
0.0
 30
0.0
  3
*Paper_Space
  1

  0
ENDBLK
  5
1D
330
1B
100
AcDbEntity
 67
     1
  8
0
100
AcDbBlockEnd
  0
BLOCK
  5
24
330
23
100
AcDbEntity
  8
0
100
AcDbBlockBegin
  2
*Paper_Space0
 70
     0
 10
0.0
 20
0.0
 30
0.0
  3
*Paper_Space0
  1

  0
SPLINE
  5
17D
330
23
100
AcDbEntity
  8
0
  6
Continuous
 62
     7
370
    25
100
AcDbSpline
210
0.0
220
0.0
230
1.0
 70
     8
 71
     3
 72
    18
 73
    14
 74
     0
 42
0.000000001
 43
0.00000001
 40
0.0
 40
0.0
 40
0.0
 40
0.0
 40
0.0339465563784505
 40
0.1390991850365694
 40
0.2449308797237553
 40
0.3526023666729872
 40
0.4604826680578609
 40
0.5665135250238987
 40
0.6715464796969893
 40
0.7779598043357072
 40
0.8859932199103426
 40
0.9933863339445299
 40
1.0
 40
1.0
 40
1.0
 40
1.0
 10
91.98604982584246
 20
-117.9694916279737
 30
0.0
 10
91.99254611445099
 20
-117.9366596313829
 30
0.0
 10
92.01916526371414
 20
-117.8021274591652
 30
0.0
 10
91.85183877989829
 20
-118.6391605454151
 30
0.0
 10
91.54949054851907
 20
-120.3994668166643
 30
0.0
 10
91.21976055254038
 20
-123.0239517760306
 30
0.0
 10
91.0279259253821
 20
-126.1298072867071
 30
0.0
 10
91.05734502033853
 20
-129.3587164585257
 30
0.0
 10
91.2879027628299
 20
-132.3317494912412
 30
0.0
 10
91.62746630654743
 20
-134.800730134103
 30
0.0
 10
91.90549045264434
 20
-136.3440033390377
 30
0.0
 10
92.03907101556506
 20
-137.0071936378021
 30
0.0
 10
92.00501501289465
 20
-136.8330635279823
 30
0.0
 10
92.00303938452701
 20
-136.8229620375653
 30
0.0
  0
LINE
  5
185
330
23
100
AcDbEntity
  8
0
  6
Continuous
 62
     7
370
    25
100
AcDbLine
 10
83.5090211461
 20
-195.7972069551
 30
0.0
 11
83.5090211461
 21
-138.8535362799
 31
0.0
  0
LINE
  5
186
330
23
100
AcDbEntity
  8
0
  6
Continuous
 62
     7
370
    25
100
AcDbLine
 10
83.5090211461
 20
-115.8535362799
 30
0.0
 11
83.5090211461
 21
-115.7972069551
 31
0.0
  0
LINE
  5
187
330
23
100
AcDbEntity
  8
0
  6
Continuous
 62
     7
370
    25
100
AcDbLine
 10
5.5090211461
 20
-115.7972069551
 30
0.0
 11
5.5090211461
 21
-115.8535362799
 31
0.0
  0
LINE
  5
188
330
23
100
AcDbEntity
  8
0
  6
Continuous
 62
     7
370
    25
100
AcDbLine
 10
5.5090211461
 20
-138.8535362799
 30
0.0
 11
5.5090211461
 21
-195.7972069551
 31
0.0
  0
LINE
  5
189
330
23
100
AcDbEntity
  8
0
  6
Continuous
 62
     7
370
    25
100
AcDbLine
 10
31.1008466284
 20
168.4872373367
 30
0.0
 11
35.5090211461
 21
143.4872373367
 31
0.0
  0
LINE
  5
18A
330
23
100
AcDbEntity
  8
0
  6
Continuous
 62
     7
370
    25
100
AcDbLine
 10
53.5090211461
 20
143.4872373367
 30
0.0
 11
57.9171956638
 21
168.4872373367
 31
0.0
  0
LINE
  5
18B
330
23
100
AcDbEntity
  8
0
  6
Continuous
 62
     7
370
    25
100
AcDbLine
 10
52.0090211461
 20
-95.7972069551
 30
0.0
 11
52.0090211461
 21
143.4872373367
 31
0.0
  0
LINE
  5
18C
330
23
100
AcDbEntity
  8
0
  6
Continuous
 62
     7
370
    25
100
AcDbLine
 10
37.0090211461
 20
143.4872373367
 30
0.0
 11
37.0090211461
 21
-95.7972069551
 31
0.0
  0
LINE
  5
18D
330
23
100
AcDbEntity
  8
0
  6
Continuous
 62
     7
370
    25
100
AcDbLine
 10
92.0090211461
 20
-117.969491628
 30
0.0
 11
92.0090211461
 21
-116.3535362799
 31
0.0
  0
LINE
  5
18E
330
23
100
AcDbEntity
  8
0
  6
Continuous
 62
     7
370
    25
100
AcDbLine
 10
92.0090211461
 20
-138.8535362799
 30
0.0
 11
92.0090211461
 21
-136.8229620376
 31
0.0
  0
LINE
  5
18F
330
23
100
AcDbEntity
  8
0
  6
Continuous
 62
     7
370
    25
100
AcDbLine
 10
-2.9909788539
 20
-116.3535362799
 30
0.0
 11
-2.9909788539
 21
-138.8535362799
 31
0.0
  0
LINE
  5
190
330
23
100
AcDbEntity
  8
0
  6
Continuous
 62
     7
370
    25
100
AcDbLine
 10
127.868267714
 20
-153.3535362799
 30
0.0
 11
130.0090211461
 21
-153.3535362799
 31
0.0
  0
LINE
  5
191
330
23
100
AcDbEntity
  8
0
  6
Continuous
 62
     7
370
    25
100
AcDbLine
 10
120.0090211461
 20
-153.3535362799
 30
0.0
 11
123.8929777915
 21
-153.3535362799
 31
0.0
  0
LINE
  5
192
330
23
100
AcDbEntity
  8
0
  6
Continuous
 62
     7
370
    25
100
AcDbLine
 10
130.0090211461
 20
-101.3535362799
 30
0.0
 11
120.0090211461
 21
-101.3535362799
 31
0.0
  0
LINE
  5
193
330
23
100
AcDbEntity
  8
0
  6
Continuous
 62
     7
370
    25
100
AcDbLine
 10
120.0090211461
 20
-117.8535362799
 30
0.0
 11
91.9861327998
 21
-117.8535362799
 31
0.0
  0
LINE
  5
194
330
23
100
AcDbEntity
  8
0
  6
Continuous
 62
     7
370
    25
100
AcDbLine
 10
92.0031603171
 20
-136.8535362799
 30
0.0
 11
120.0090211461
 21
-136.8535362799
 31
0.0
  0
LINE
  5
195
330
23
100
AcDbEntity
  8
0
  6
Continuous
 62
     7
370
    25
100
AcDbLine
 10
-11.9675297916
 20
-95.7972069551
 30
0.0
 11
100.9855720882
 21
-95.7972069551
 31
0.0
  0
LINE
  5
196
330
23
100
AcDbEntity
  8
0
  6
Continuous
 62
     7
370
    25
100
AcDbLine
 10
5.5090211461
 20
-115.7972069551
 30
0.0
 11
83.5090211461
 21
-115.7972069551
 31
0.0
  0
LINE
  5
197
330
23
100
AcDbEntity
  8
0
  6
Continuous
 62
     7
370
    25
100
AcDbLine
 10
73.5090210961
 20
-205.7972069551
 30
0.0
 11
15.5090211461
 21
-205.7972069551
 31
0.0
  0
LINE
  5
198
330
23
100
AcDbEntity
  8
0
  6
Continuous
 62
     7
370
    25
100
AcDbLine
 10
35.5090211461
 20
143.4872373367
 30
0.0
 11
53.5090211461
 21
143.4872373367
 31
0.0
  0
LINE
  5
199
330
23
100
AcDbEntity
  8
0
  6
Continuous
 62
     7
370
    25
100
AcDbLine
 10
31.1008466284
 20
168.4872373367
 30
0.0
 11
57.9171956638
 21
168.4872373367
 31
0.0
  0
LINE
  5
19A
330
23
100
AcDbEntity
  8
0
  6
Continuous
 62
     7
370
    25
100
AcDbLine
 10
91.5090211461
 20
-115.8535362799
 30
0.0
 11
-2.4909788539
 21
-115.8535362799
 31
0.0
  0
LINE
  5
19B
330
23
100
AcDbEntity
  8
0
  6
Continuous
 62
     7
370
    25
100
AcDbLine
 10
-2.9909788539
 20
-138.8535362799
 30
0.0
 11
92.0090211461
 21
-138.8535362799
 31
0.0
  0
LINE
  5
19C
330
23
100
AcDbEntity
  8
0
  6
Continuous
 62
     7
370
    25
100
AcDbLine
 10
120.0090211461
 20
-101.3535362799
 30
0.0
 11
120.0090211461
 21
-153.3535362799
 31
0.0
  0
LINE
  5
19D
330
23
100
AcDbEntity
  8
0
  6
Continuous
 62
     7
370
    25
100
AcDbLine
 10
130.0090211461
 20
-101.3535362799
 30
0.0
 11
130.0090211461
 21
-153.3535362799
 31
0.0
  0
LINE
  5
19E
330
23
100
AcDbEntity
  8
0
  6
Continuous
 62
     8
370
    25
100
AcDbLine
 10
101.9843379273
 20
-96.8468738327
 30
0.0
 11
-12.966295635
 21
-96.8468738327
 31
0.0
  0
LINE
  5
19F
330
23
100
AcDbEntity
  8
0
  6
Continuous
 62
     8
370
    25
100
AcDbLine
 10
5.5090211461
 20
-195.7972069551
 30
0.0
 11
83.5090211461
 21
-195.7972069551
 31
0.0
  0
LINE
  5
1A0
330
23
100
AcDbEntity
  8
0
  6
Continuous
 62
     8
370
    25
100
AcDbLine
 10
92.0090211461
 20
-116.3535362799
 30
0.0
 11
-2.9909788539
 21
-116.3535362799
 31
0.0
  0
ARC
  5
1A1
330
23
100
AcDbEntity
  8
0
  6
Continuous
 62
     7
370
    25
100
AcDbCircle
 10
-11.9675297959
 20
-96.7972069551
 30
0.0
 40
1.000000000000002
100
AcDbArc
 50
90.0
 51
182.8468737336
  0
ARC
  5
1A2
330
23
100
AcDbEntity
  8
0
  6
Continuous
 62
     7
370
    25
100
AcDbCircle
 10
100.9855720882
 20
-96.7972069551
 30
0.0
 40
1.000000000000028
100
AcDbArc
 50
357.1531262664
 51
90.0
  0
ARC
  5
1A3
330
23
100
AcDbEntity
  8
0
  6
Continuous
 62
     7
370
    25
100
AcDbCircle
 10
82.0090211461
 20
-95.8535362799
 30
0.0
 40
20.00000000000001
100
AcDbArc
 50
274.3012223047
 51
357.1531262664
  0
ARC
  5
1A4
330
23
100
AcDbEntity
  8
0
  6
Continuous
 62
     7
370
    25
100
AcDbCircle
 10
7.0090211461
 20
-95.8535362799
 30
0.0
 40
20.00000000000006
100
AcDbArc
 50
182.8468737336
 51
265.6987776953
  0
ARC
  5
1A5
330
23
100
AcDbEntity
  8
0
  6
Continuous
 62
     7
370
    25
100
AcDbCircle
 10
15.5090211461
 20
-195.7972069551
 30
0.0
 40
10.00000000000006
100
AcDbArc
 50
180.0
 51
270.0
  0
ARC
  5
1A6
330
23
100
AcDbEntity
  8
0
  6
Continuous
 62
     7
370
    25
100
AcDbCircle
 10
73.5090211461
 20
-195.7972069551
 30
0.0
 40
10.00000000000003
100
AcDbArc
 50
270.0
 51
0.0
  0
ARC
  5
1A7
330
23
100
AcDbEntity
  8
0
  6
Continuous
 62
     7
370
    25
100
AcDbCircle
 10
44.5090211461
 20
161.2510408432
 30
0.0
 40
15.23619649358824
100
AcDbArc
 50
28.3550902447
 51
151.6449097553
  0
ARC
  5
1A8
330
23
100
AcDbEntity
  8
0
  6
Continuous
 62
     7
370
    25
100
AcDbCircle
 10
-2.4909788539
 20
-116.3535362799
 30
0.0
 40
0.5000000000000058
100
AcDbArc
 50
90.0
 51
180.0
  0
ARC
  5
1A9
330
23
100
AcDbEntity
  8
0
  6
Continuous
 62
     7
370
    25
100
AcDbCircle
 10
91.5090211461
 20
-116.3535362799
 30
0.0
 40
0.5000000000000142
100
AcDbArc
 50
0.0
 51
90.0
  0
ARC
  5
1AA
330
23
100
AcDbEntity
  8
0
  6
Continuous
 62
     7
370
    25
100
AcDbCircle
 10
125.8683312624
 20
-179.3115248451
 30
0.0
 40
26.03491724899744
100
AcDbArc
 50
85.5943430532
 51
94.3513981251
  0
VIEWPORT
  5
617
330
23
100
AcDbEntity
  8
0
100
AcDbViewport
 10
0.0
 20
0.0
 30
0.0
 40
205.6
 41
156.0
 68
     1
 69
     1
 12
40.1707362477
 22
-14.6549848092
 13
0.0
 23
0.0
 14
10.0
 24
10.0
 15
10.0
 25
10.0
 16
0.0
 26
0.0
 36
1.0
 17
0.0
 27
0.0
 37
0.0
 42
50.0
 43
0.0
 44
0.0
 45
389.9301331777
 50
0.0
 51
0.0
 72
   100
 90
   557152
  1

281
     0
 71
     1
 74
     0
110
0.0
120
0.0
130
0.0
111
1.0
121
0.0
131
0.0
112
0.0
122
1.0
132
0.0
 79
     0
146
0.0
  0
ENDBLK
  5
25
330
23
100
AcDbEntity
  8
0
100
AcDbBlockEnd
  0
BLOCK
  5
1AD
330
1AB
100
AcDbEntity
  8
0
100
AcDbBlockBegin
  2
*Paper_Space1
 70
     0
 10
0.0
 20
0.0
 30
0.0
  3
*Paper_Space1
  1

  0
CIRCLE
  5
1AF
330
1AB
100
AcDbEntity
  8
0
  6
Continuous
 62
     7
370
    25
100
AcDbCircle
 10
40.1707362477
 20
-44.5090211461
 30
0.0
 40
57.47655094206551
  0
CIRCLE
  5
2F4
330
1AB
100
AcDbEntity
  8
0
  6
Continuous
 62
     7
370
    25
100
AcDbCircle
 10
40.1707362477
 20
-44.5090211461
 30
0.0
 40
52.47388798469031
  0
CIRCLE
  5
2F5
330
1AB
100
AcDbEntity
  8
0
  6
Continuous
 62
     7
370
    25
100
AcDbCircle
 10
40.1707362477
 20
-44.5090211461
 30
0.0
 40
53.4721471836697
  0
CIRCLE
  5
2F6
330
1AB
100
AcDbEntity
  8
0
  6
Continuous
 62
     7
370
    25
100
AcDbCircle
 10
40.1707362477
 20
-44.5090211461
 30
0.0
 40
56.47655094206559
  0
CIRCLE
  5
2F7
330
1AB
100
AcDbEntity
  8
0
  6
Continuous
 62
     7
370
    25
100
AcDbCircle
 10
40.1707362477
 20
-44.5090211461
 30
0.0
 40
41.40000000000001
  0
CIRCLE
  5
2F8
330
1AB
100
AcDbEntity
  8
0
  6
Continuous
 62
     7
370
    25
100
AcDbCircle
 10
40.1707362477
 20
-44.5090211461
 30
0.0
 40
33.99999999999996
  0
CIRCLE
  5
2F9
330
1AB
100
AcDbEntity
  8
0
  6
Continuous
 62
     7
370
    25
100
AcDbCircle
 10
40.1707362477
 20
-44.5090211461
 30
0.0
 40
13.40817451771164
  0
CIRCLE
  5
2FA
330
1AB
100
AcDbEntity
  8
0
  6
Continuous
 62
     7
370
    25
100
AcDbCircle
 10
40.1707362477
 20
-44.5090211461
 30
0.0
 40
13.5
  0
LWPOLYLINE
  5
401
330
1AB
100
AcDbEntity
  8
0
  6
Continuous
 62
     8
370
    25
100
AcDbPolyline
 90
        3
 70
   128
 43
0.0
 10
40.1707362477
 20
-20.5090211461
 10
37.5305389438
 20
-20.6546848905
 10
35.7203432741
 20
-20.925255493
  0
LWPOLYLINE
  5
414
330
1AB
100
AcDbEntity
  8
0
  6
Continuous
 62
     8
370
    25
100
AcDbPolyline
 90
        3
 70
   128
 43
0.0
 10
19.3322463842
 20
-56.4152103017
 10
19.3861265569
 20
-56.5090211461
 10
19.4602023476
 20
-56.6364192832
  0
LWPOLYLINE
  5
418
330
1AB
100
AcDbEntity
  8
0
  6
Continuous
 62
     8
370
    25
100
AcDbPolyline
 90
        3
 70
   128
 43
0.0
 10
24.3714205461
 20
-62.575056222
 10
24.4086876705
 20
-62.6075797808
 10
24.5640684435
 20
-62.7417367982
  0
LWPOLYLINE
  5
429
330
1AB
100
AcDbEntity
  8
0
  6
Continuous
 62
     8
370
    25
100
AcDbPolyline
 90
        3
 70
   128
 43
0.0
 10
62.0516026346
 20
-54.3694311862
 10
62.1492960874
 20
-54.1497113378
 10
62.1553538317
 20
-54.1358892602
  0
LWPOLYLINE
  5
42D
330
1AB
100
AcDbEntity
  8
0
  6
Continuous
 62
     8
370
    25
100
AcDbPolyline
 90
        3
 70
   128
 43
0.0
 10
64.0730704107
 20
-46.6719870632
 10
64.0887640799
 20
-46.4909254375
 10
64.0946822366
 20
-46.4181592558
  0
LINE
  5
43E
330
1AB
100
AcDbEntity
  8
0
  6
Continuous
 62
     7
370
    25
100
AcDbLine
 10
38.7983125717
 20
-57.9390789738
 30
0.0
 11
36.9124937776
 21
-77.8503446952
 31
0.0
  0
LINE
  5
43F
330
1AB
100
AcDbEntity
  8
0
  6
Continuous
 62
     7
370
    25
100
AcDbLine
 10
37.1116027476
 20
-77.869202534
 30
0.0
 11
38.9974215417
 21
-57.9579368125
 31
0.0
  0
LINE
  5
440
330
1AB
100
AcDbEntity
  8
0
  6
Continuous
 62
     7
370
    25
100
AcDbLine
 10
46.9544120989
 20
-56.1808565608
 30
0.0
 11
57.1323009917
 21
-73.3978653846
 31
0.0
  0
LINE
  5
441
330
1AB
100
AcDbEntity
  8
0
  6
Continuous
 62
     7
370
    25
100
AcDbLine
 10
57.3044678916
 20
-73.2960883805
 30
0.0
 11
47.1265789988
 21
-56.0790795566
 31
0.0
  0
LINE
  5
442
330
1AB
100
AcDbEntity
  8
0
  6
Continuous
 62
     7
370
    25
100
AcDbLine
 10
53.3675824982
 20
-41.6641575221
 30
0.0
 11
72.887071566
 21
-37.3047582874
 31
0.0
  0
LINE
  5
443
330
1AB
100
AcDbEntity
  8
0
  6
Continuous
 62
     7
370
    25
100
AcDbLine
 10
72.843478381
 20
-37.1095670114
 30
0.0
 11
53.3239893132
 21
-41.4689662461
 31
0.0
  0
LINE
  5
444
330
1AB
100
AcDbEntity
  8
0
  6
Continuous
 62
     7
370
    25
100
AcDbLine
 10
34.7153676634
 20
-56.857662918
 30
0.0
 11
26.7689279232
 21
-75.2116518744
 31
0.0
  0
LINE
  5
445
330
1AB
100
AcDbEntity
  8
0
  6
Continuous
 62
     7
370
    25
100
AcDbLine
 10
26.9524644139
 20
-75.2911148002
 30
0.0
 11
34.898904154
 21
-56.9371258438
 31
0.0
  0
LINE
  5
446
330
1AB
100
AcDbEntity
  8
0
  6
Continuous
 62
     7
370
    25
100
AcDbLine
 10
26.9738899971
 20
-47.3538847702
 30
0.0
 11
7.4544009294
 21
-51.7132840049
 31
0.0
  0
LINE
  5
447
330
1AB
100
AcDbEntity
  8
0
  6
Continuous
 62
     7
370
    25
100
AcDbLine
 10
7.4979941144
 20
-51.9084752809
 30
0.0
 11
27.0174831822
 21
-47.5490760461
 31
0.0
  0
LINE
  5
448
330
1AB
100
AcDbEntity
  8
0
  6
Continuous
 62
     7
370
    25
100
AcDbLine
 10
51.8425716623
 20
-37.725345295
 30
0.0
 11
69.0595804862
 21
-27.5474564022
 31
0.0
  0
LINE
  5
449
330
1AB
100
AcDbEntity
  8
0
  6
Continuous
 62
     7
370
    25
100
AcDbLine
 10
68.957803482
 20
-27.3752895022
 30
0.0
 11
51.7407946582
 21
-37.5531783951
 31
0.0
  0
LINE
  5
44A
330
1AB
100
AcDbEntity
  8
0
  6
Continuous
 62
     7
370
    25
100
AcDbLine
 10
50.229190869
 20
-53.513325152
 30
0.0
 11
65.2292867416
 21
-66.7425329503
 31
0.0
  0
LINE
  5
44B
330
1AB
100
AcDbEntity
  8
0
  6
Continuous
 62
     7
370
    25
100
AcDbLine
 10
65.3615763697
 20
-66.5925347694
 30
0.0
 11
50.3614804972
 21
-53.3633269711
 31
0.0
  0
LINE
  5
44C
330
1AB
100
AcDbEntity
  8
0
  6
Continuous
 62
     7
370
    25
100
AcDbLine
 10
49.1750402536
 20
-34.4505665248
 30
0.0
 11
62.4042480519
 21
-19.4504706523
 31
0.0
  0
LINE
  5
44D
330
1AB
100
AcDbEntity
  8
0
  6
Continuous
 62
     7
370
    25
100
AcDbLine
 10
62.2542498709
 20
-19.3181810241
 30
0.0
 11
49.0250420726
 21
-34.3182768966
 31
0.0
  0
LINE
  5
44E
330
1AB
100
AcDbEntity
  8
0
  6
Continuous
 62
     7
370
    25
100
AcDbLine
 10
43.0155998717
 20
-57.7058673967
 30
0.0
 11
47.3749991065
 21
-77.2253564645
 31
0.0
  0
LINE
  5
44F
330
1AB
100
AcDbEntity
  8
0
  6
Continuous
 62
     7
370
    25
100
AcDbLine
 10
47.5701903824
 20
-77.1817632794
 30
0.0
 11
43.2107911477
 21
-57.6622742116
 31
0.0
  0
LINE
  5
450
330
1AB
100
AcDbEntity
  8
0
  6
Continuous
 62
     7
370
    25
100
AcDbLine
 10
26.7406784201
 20
-43.1365974702
 30
0.0
 11
6.8294126986
 21
-41.250778676
 31
0.0
  0
LINE
  5
451
330
1AB
100
AcDbEntity
  8
0
  6
Continuous
 62
     7
370
    25
100
AcDbLine
 10
6.8105548599
 20
-41.449887646
 30
0.0
 11
26.7218205813
 21
-43.3357064401
 31
0.0
  0
LINE
  5
452
330
1AB
100
AcDbEntity
  8
0
  6
Continuous
 62
     7
370
    25
100
AcDbLine
 10
27.8220944759
 20
-39.0536525618
 30
0.0
 11
9.4681055195
 21
-31.1072128217
 31
0.0
  0
LINE
  5
453
330
1AB
100
AcDbEntity
  8
0
  6
Continuous
 62
     7
370
    25
100
AcDbLine
 10
9.3886425936
 20
-31.2907493123
 30
0.0
 11
27.74263155
 21
-39.2371890525
 31
0.0
  0
LINE
  5
454
330
1AB
100
AcDbEntity
  8
0
  6
Continuous
 62
     7
370
    25
100
AcDbLine
 10
53.6007940753
 20
-45.8814448221
 30
0.0
 11
73.5120597968
 21
-47.7672636162
 31
0.0
  0
LINE
  5
455
330
1AB
100
AcDbEntity
  8
0
  6
Continuous
 62
     7
370
    25
100
AcDbLine
 10
73.5309176355
 20
-47.5681546463
 30
0.0
 11
53.619651914
 21
-45.6823358522
 31
0.0
  0
LINE
  5
456
330
1AB
100
AcDbEntity
  8
0
  6
Continuous
 62
     7
370
    25
100
AcDbLine
 10
37.3258726237
 20
-31.3121748956
 30
0.0
 11
32.9664733889
 21
-11.7926858278
 31
0.0
  0
LINE
  5
457
330
1AB
100
AcDbEntity
  8
0
  6
Continuous
 62
     7
370
    25
100
AcDbLine
 10
32.7712821129
 20
-11.8362790129
 30
0.0
 11
37.1306813477
 21
-31.3557680806
 31
0.0
  0
LINE
  5
458
330
1AB
100
AcDbEntity
  8
0
  6
Continuous
 62
     7
370
    25
100
AcDbLine
 10
45.626104832
 20
-32.1603793743
 30
0.0
 11
53.5725445722
 21
-13.8063904179
 31
0.0
  0
LINE
  5
459
330
1AB
100
AcDbEntity
  8
0
  6
Continuous
 62
     7
370
    25
100
AcDbLine
 10
53.3890080815
 20
-13.7269274921
 30
0.0
 11
45.4425683413
 21
-32.0809164485
 31
0.0
  0
LINE
  5
45A
330
1AB
100
AcDbEntity
  8
0
  6
Continuous
 62
     7
370
    25
100
AcDbLine
 10
28.4989008331
 20
-51.2926969973
 30
0.0
 11
11.2818920092
 21
-61.4705858901
 31
0.0
  0
LINE
  5
45B
330
1AB
100
AcDbEntity
  8
0
  6
Continuous
 62
     7
370
    25
100
AcDbLine
 10
11.3836690133
 20
-61.64275279
 30
0.0
 11
28.6006778372
 21
-51.4648638972
 31
0.0
  0
LINE
  5
45C
330
1AB
100
AcDbEntity
  8
0
  6
Continuous
 62
     7
370
    25
100
AcDbLine
 10
41.5431599237
 20
-31.0789633185
 30
0.0
 11
43.4289787178
 21
-11.167697597
 31
0.0
  0
LINE
  5
45D
330
1AB
100
AcDbEntity
  8
0
  6
Continuous
 62
     7
370
    25
100
AcDbLine
 10
43.2298697478
 20
-11.1488397583
 30
0.0
 11
41.3440509537
 21
-31.0601054798
 31
0.0
  0
LINE
  5
45E
330
1AB
100
AcDbEntity
  8
0
  6
Continuous
 62
     7
370
    25
100
AcDbLine
 10
31.1664322418
 20
-54.5674757675
 30
0.0
 11
17.9372244435
 21
-69.56757164
 31
0.0
  0
LINE
  5
45F
330
1AB
100
AcDbEntity
  8
0
  6
Continuous
 62
     7
370
    25
100
AcDbLine
 10
18.0872226245
 20
-69.6998612681
 30
0.0
 11
31.3164304228
 21
-54.6997653956
 31
0.0
  0
LINE
  5
460
330
1AB
100
AcDbEntity
  8
0
  6
Continuous
 62
     7
370
    25
100
AcDbLine
 10
52.5193780195
 20
-49.9643897305
 30
0.0
 11
70.8733669759
 21
-57.9108294706
 31
0.0
  0
LINE
  5
461
330
1AB
100
AcDbEntity
  8
0
  6
Continuous
 62
     7
370
    25
100
AcDbLine
 10
70.9528299018
 20
-57.7272929799
 30
0.0
 11
52.5988409454
 21
-49.7808532398
 31
0.0
  0
LINE
  5
462
330
1AB
100
AcDbEntity
  8
0
  6
Continuous
 62
     7
370
    25
100
AcDbLine
 10
33.3870603965
 20
-32.8371857315
 30
0.0
 11
23.2091715037
 21
-15.6201769076
 31
0.0
  0
LINE
  5
463
330
1AB
100
AcDbEntity
  8
0
  6
Continuous
 62
     7
370
    25
100
AcDbLine
 10
23.0370046038
 20
-15.7219539118
 30
0.0
 11
33.2148934966
 21
-32.9389627356
 31
0.0
  0
LINE
  5
464
330
1AB
100
AcDbEntity
  8
0
  6
Continuous
 62
     7
370
    25
100
AcDbLine
 10
30.1122816263
 20
-35.5047171403
 30
0.0
 11
15.1121857538
 21
-22.275509342
 31
0.0
  0
LINE
  5
465
330
1AB
100
AcDbEntity
  8
0
  6
Continuous
 62
     7
370
    25
100
AcDbLine
 10
14.9798961257
 20
-22.4255075229
 30
0.0
 11
29.9799919982
 21
-35.6547153212
 31
0.0
  0
LINE
  5
466
330
1AB
100
AcDbEntity
  8
0
  6
Continuous
 62
     7
370
    25
100
AcDbLine
 10
33.9576734004
 20
-32.5237030421
 30
0.0
 11
23.7693423416
 21
-15.2890301558
 31
0.0
  0
LINE
  5
467
330
1AB
100
AcDbEntity
  8
0
  6
Continuous
 62
     7
370
    25
100
AcDbLine
 10
23.5971754416
 20
-15.3908071599
 30
0.0
 11
33.780594778
 21
-32.6171713322
 31
0.0
  0
LINE
  5
468
330
1AB
100
AcDbEntity
  8
0
  6
Continuous
 62
     7
370
    25
100
AcDbLine
 10
53.4893931374
 20
-42.3037142162
 30
0.0
 11
73.0289085336
 21
-37.9398423869
 31
0.0
  0
LINE
  5
469
330
1AB
100
AcDbEntity
  8
0
  6
Continuous
 62
     7
370
    25
100
AcDbLine
 10
72.9853153485
 20
-37.7446511109
 30
0.0
 11
53.4552198146
 21
-42.1064191485
 31
0.0
  0
LINE
  5
46A
330
1AB
100
AcDbEntity
  8
0
  6
Continuous
 62
     7
370
    25
100
AcDbLine
 10
52.2420029039
 20
-50.5534004621
 30
0.0
 11
70.6148224254
 21
-58.5079929777
 31
0.0
  0
LINE
  5
46B
330
1AB
100
AcDbEntity
  8
0
  6
Continuous
 62
     7
370
    25
100
AcDbLine
 10
70.6942853513
 20
-58.324456487
 30
0.0
 11
52.3303232362
 21
-50.3736988243
 31
0.0
  0
LINE
  5
46C
330
1AB
100
AcDbEntity
  8
0
  6
Continuous
 62
     7
370
    25
100
AcDbLine
 10
28.0994695915
 20
-38.4646418302
 30
0.0
 11
9.7266500699
 21
-30.5100493145
 31
0.0
  0
LINE
  5
46D
330
1AB
100
AcDbEntity
  8
0
  6
Continuous
 62
     7
370
    25
100
AcDbLine
 10
9.6471871441
 20
-30.6935858052
 30
0.0
 11
28.0111492592
 21
-38.644343468
 31
0.0
  0
LINE
  5
46E
330
1AB
100
AcDbEntity
  8
0
  6
Continuous
 62
     7
370
    25
100
AcDbLine
 10
30.5580953635
 20
-35.0302482703
 30
0.0
 11
15.5426099054
 21
-21.7874677571
 31
0.0
  0
LINE
  5
46F
330
1AB
100
AcDbEntity
  8
0
  6
Continuous
 62
     7
370
    25
100
AcDbLine
 10
15.4103202773
 20
-21.9374659381
 30
0.0
 11
30.4185668759
 21
-35.1738622003
 31
0.0
  0
LINE
  5
470
330
1AB
100
AcDbEntity
  8
0
  6
Continuous
 62
     7
370
    25
100
AcDbLine
 10
28.1854181436
 20
-50.7220839934
 30
0.0
 11
10.9507452574
 21
-60.9104150523
 31
0.0
  0
LINE
  5
471
330
1AB
100
AcDbEntity
  8
0
  6
Continuous
 62
     7
370
    25
100
AcDbLine
 10
11.0525222615
 20
-61.0825819522
 30
0.0
 11
28.2788864337
 21
-50.8991626158
 31
0.0
  0
LINE
  5
472
330
1AB
100
AcDbEntity
  8
0
  6
Continuous
 62
     7
370
    25
100
AcDbLine
 10
53.5190089901
 20
-46.5273409412
 30
0.0
 11
73.4507029894
 21
-48.4150945209
 31
0.0
  0
LINE
  5
473
330
1AB
100
AcDbEntity
  8
0
  6
Continuous
 62
     7
370
    25
100
AcDbLine
 10
73.4695608281
 20
-48.2159855509
 30
0.0
 11
53.5474757577
 21
-46.3291420439
 31
0.0
  0
LINE
  5
474
330
1AB
100
AcDbEntity
  8
0
  6
Continuous
 62
     7
370
    25
100
AcDbLine
 10
52.1560543518
 20
-38.2959582988
 30
0.0
 11
69.390727238
 21
-28.10762724
 31
0.0
  0
LINE
  5
475
330
1AB
100
AcDbEntity
  8
0
  6
Continuous
 62
     7
370
    25
100
AcDbLine
 10
69.2889502339
 20
-27.9354603401
 30
0.0
 11
52.0625860617
 21
-38.1188796765
 31
0.0
  0
LINE
  5
476
330
1AB
100
AcDbEntity
  8
0
  6
Continuous
 62
     7
370
    25
100
AcDbLine
 10
38.1524164527
 20
-57.8572938885
 30
0.0
 11
36.264662873
 21
-77.7889878879
 31
0.0
  0
LINE
  5
477
330
1AB
100
AcDbEntity
  8
0
  6
Continuous
 62
     7
370
    25
100
AcDbLine
 10
36.4637718429
 20
-77.8078457266
 30
0.0
 11
38.35061535
 21
-57.8857606561
 31
0.0
  0
LINE
  5
478
330
1AB
100
AcDbEntity
  8
0
  6
Continuous
 62
     7
370
    25
100
AcDbLine
 10
30.6919633719
 20
-54.1216620304
 30
0.0
 11
17.4491828587
 21
-69.1371474884
 31
0.0
  0
LINE
  5
479
330
1AB
100
AcDbEntity
  8
0
  6
Continuous
 62
     7
370
    25
100
AcDbLine
 10
17.5991810396
 20
-69.2694371165
 30
0.0
 11
30.8355773019
 21
-54.261190518
 31
0.0
  0
LINE
  5
47A
330
1AB
100
AcDbEntity
  8
0
  6
Continuous
 62
     7
370
    25
100
AcDbLine
 10
49.6495091235
 20
-34.8963802619
 30
0.0
 11
62.8922896367
 21
-19.8808948039
 31
0.0
  0
LINE
  5
47B
330
1AB
100
AcDbEntity
  8
0
  6
Continuous
 62
     7
370
    25
100
AcDbLine
 10
62.7422914558
 20
-19.7486051757
 30
0.0
 11
49.5058951935
 21
-34.7568517743
 31
0.0
  0
LINE
  5
47C
330
1AB
100
AcDbEntity
  8
0
  6
Continuous
 62
     7
370
    25
100
AcDbLine
 10
42.1890560427
 20
-31.1607484038
 30
0.0
 11
44.0768096224
 21
-11.2290544044
 31
0.0
  0
LINE
  5
47D
330
1AB
100
AcDbEntity
  8
0
  6
Continuous
 62
     7
370
    25
100
AcDbLine
 10
43.8777006525
 20
-11.2101965657
 30
0.0
 11
41.9908571454
 21
-31.1322816362
 31
0.0
  0
LINE
  5
47E
330
1AB
100
AcDbEntity
  8
0
  6
Continuous
 62
     7
370
    25
100
AcDbLine
 10
26.8224635053
 20
-42.4907013511
 30
0.0
 11
6.890769506
 21
-40.6029477714
 31
0.0
  0
LINE
  5
47F
330
1AB
100
AcDbEntity
  8
0
  6
Continuous
 62
     7
370
    25
100
AcDbLine
 10
6.8719116672
 20
-40.8020567414
 30
0.0
 11
26.7939967377
 21
-42.6889002484
 31
0.0
  0
LINE
  5
480
330
1AB
100
AcDbEntity
  8
0
  6
Continuous
 62
     7
370
    25
100
AcDbLine
 10
46.2151155637
 20
-32.43775449
 30
0.0
 11
54.1697080793
 21
-14.0649349684
 31
0.0
  0
LINE
  5
481
330
1AB
100
AcDbEntity
  8
0
  6
Continuous
 62
     7
370
    25
100
AcDbLine
 10
53.9861715886
 20
-13.9854720426
 30
0.0
 11
46.0354139258
 21
-32.3494341576
 31
0.0
  0
LINE
  5
482
330
1AB
100
AcDbEntity
  8
0
  6
Continuous
 62
     7
370
    25
100
AcDbLine
 10
46.383799095
 20
-56.4943392502
 30
0.0
 11
56.5721301538
 21
-73.7290121365
 31
0.0
  0
LINE
  5
483
330
1AB
100
AcDbEntity
  8
0
  6
Continuous
 62
     7
370
    25
100
AcDbLine
 10
56.7442970537
 20
-73.6272351323
 30
0.0
 11
46.5608777173
 21
-56.4008709601
 31
0.0
  0
LINE
  5
484
330
1AB
100
AcDbEntity
  8
0
  6
Continuous
 62
     7
370
    25
100
AcDbLine
 10
42.3760431776
 20
-57.8276780358
 30
0.0
 11
46.7399150069
 21
-77.367193432
 31
0.0
  0
LINE
  5
485
330
1AB
100
AcDbEntity
  8
0
  6
Continuous
 62
     7
370
    25
100
AcDbLine
 10
46.9351062829
 20
-77.323600247
 30
0.0
 11
42.5733382454
 21
-57.7935047131
 31
0.0
  0
LINE
  5
486
330
1AB
100
AcDbEntity
  8
0
  6
Continuous
 62
     7
370
    25
100
AcDbLine
 10
37.9654293178
 20
-31.1903642565
 30
0.0
 11
33.6015574884
 21
-11.6508488603
 31
0.0
  0
LINE
  5
487
330
1AB
100
AcDbEntity
  8
0
  6
Continuous
 62
     7
370
    25
100
AcDbLine
 10
33.4063662125
 20
-11.6944420453
 30
0.0
 11
37.76813425
 21
-31.2245375792
 31
0.0
  0
LINE
  5
488
330
1AB
100
AcDbEntity
  8
0
  6
Continuous
 62
     7
370
    25
100
AcDbLine
 10
34.1263569317
 20
-56.5802878023
 30
0.0
 11
26.1717644161
 21
-74.9531073239
 31
0.0
  0
LINE
  5
489
330
1AB
100
AcDbEntity
  8
0
  6
Continuous
 62
     7
370
    25
100
AcDbLine
 10
26.3553009068
 20
-75.0325702497
 30
0.0
 11
34.3060585696
 21
-56.6686081347
 31
0.0
  0
LINE
  5
48A
330
1AB
100
AcDbEntity
  8
0
  6
Continuous
 62
     7
370
    25
100
AcDbLine
 10
49.7833771319
 20
-53.9877940219
 30
0.0
 11
64.7988625899
 21
-67.2305745352
 31
0.0
  0
LINE
  5
48B
330
1AB
100
AcDbEntity
  8
0
  6
Continuous
 62
     7
370
    25
100
AcDbLine
 10
64.9311522181
 20
-67.0805763542
 30
0.0
 11
49.9229056195
 21
-53.8441800919
 31
0.0
  0
LINE
  5
48C
330
1AB
100
AcDbEntity
  8
0
  6
Continuous
 62
     7
370
    25
100
AcDbLine
 10
26.852079358
 20
-46.7143280761
 30
0.0
 11
7.3125639618
 21
-51.0781999054
 31
0.0
  0
LINE
  5
48D
330
1AB
100
AcDbEntity
  8
0
  6
Continuous
 62
     7
370
    25
100
AcDbLine
 10
7.3561571469
 20
-51.2733911814
 30
0.0
 11
26.8862526807
 21
-46.9116231438
 31
0.0
  0
LINE
  5
48E
330
1AB
100
AcDbEntity
  8
0
  6
Continuous
 62
     7
370
    25
100
AcDbLine
 10
28.8394029333
 20
-51.8473373915
 30
0.0
 11
11.613038761
 21
-62.0307567279
 31
0.0
  0
LINE
  5
48F
330
1AB
100
AcDbEntity
  8
0
  6
Continuous
 62
     7
370
    25
100
AcDbLine
 10
11.7148157652
 20
-62.2029236279
 30
0.0
 11
28.9494886515
 21
-52.014592569
 31
0.0
  0
LINE
  5
490
330
1AB
100
AcDbEntity
  8
0
  6
Continuous
 62
     7
370
    25
100
AcDbLine
 10
32.8324200023
 20
-33.1776878317
 30
0.0
 11
22.6490006659
 21
-15.9513236595
 31
0.0
  0
LINE
  5
491
330
1AB
100
AcDbEntity
  8
0
  6
Continuous
 62
     7
370
    25
100
AcDbLine
 10
22.476833766
 20
-16.0531006636
 30
0.0
 11
32.6651648248
 21
-33.2877735499
 31
0.0
  0
LINE
  5
492
330
1AB
100
AcDbEntity
  8
0
  6
Continuous
 62
     7
370
    25
100
AcDbLine
 10
35.3168490931
 20
-57.1062343098
 30
0.0
 11
27.3660914303
 21
-75.4701964248
 31
0.0
  0
LINE
  5
493
330
1AB
100
AcDbEntity
  8
0
  6
Continuous
 62
     7
370
    25
100
AcDbLine
 10
27.549627921
 20
-75.5496593507
 30
0.0
 11
35.5042204367
 21
-57.1768398291
 31
0.0
  0
LINE
  5
494
330
1AB
100
AcDbEntity
  8
0
  6
Continuous
 62
     7
370
    25
100
AcDbLine
 10
29.6900082008
 20
-35.9999471891
 30
0.0
 11
14.6817616022
 21
-22.7635509268
 31
0.0
  0
LINE
  5
495
330
1AB
100
AcDbEntity
  8
0
  6
Continuous
 62
     7
370
    25
100
AcDbLine
 10
14.5494719741
 20
-22.9135491077
 30
0.0
 11
29.5649574321
 21
-36.156329621
 31
0.0
  0
LINE
  5
496
330
1AB
100
AcDbEntity
  8
0
  6
Continuous
 62
     7
370
    25
100
AcDbLine
 10
31.6616622906
 20
-54.989749193
 30
0.0
 11
18.4252660283
 21
-69.9979957916
 31
0.0
  0
LINE
  5
497
330
1AB
100
AcDbEntity
  8
0
  6
Continuous
 62
     7
370
    25
100
AcDbLine
 10
18.5752642093
 20
-70.1302854198
 30
0.0
 11
31.8180447225
 21
-55.1147999617
 31
0.0
  0
LINE
  5
498
330
1AB
100
AcDbEntity
  8
0
  6
Continuous
 62
     7
370
    25
100
AcDbLine
 10
39.4471681893
 20
-57.9896164321
 30
0.0
 11
37.5603246822
 21
-77.9117015026
 31
0.0
  0
LINE
  5
499
330
1AB
100
AcDbEntity
  8
0
  6
Continuous
 62
     7
370
    25
100
AcDbLine
 10
37.7594336522
 20
-77.9305593413
 30
0.0
 11
39.6471872319
 21
-57.998865342
 31
0.0
  0
LINE
  5
49A
330
1AB
100
AcDbEntity
  8
0
  6
Continuous
 62
     7
370
    25
100
AcDbLine
 10
27.573523084
 20
-39.6551339916
 30
0.0
 11
9.209560969
 21
-31.7043763288
 31
0.0
  0
LINE
  5
49B
330
1AB
100
AcDbEntity
  8
0
  6
Continuous
 62
     7
370
    25
100
AcDbLine
 10
9.1300980431
 20
-31.8879128195
 30
0.0
 11
27.5029175647
 21
-39.8425053351
 31
0.0
  0
LINE
  5
49C
330
1AB
100
AcDbEntity
  8
0
  6
Continuous
 62
     7
370
    25
100
AcDbLine
 10
53.6513315337
 20
-45.2325892045
 30
0.0
 11
73.5734166042
 21
-47.1194327116
 31
0.0
  0
LINE
  5
49D
330
1AB
100
AcDbEntity
  8
0
  6
Continuous
 62
     7
370
    25
100
AcDbLine
 10
73.5922744429
 20
-46.9203237416
 30
0.0
 11
53.6605804435
 21
-45.0325701619
 31
0.0
  0
LINE
  5
49E
330
1AB
100
AcDbEntity
  8
0
  6
Continuous
 62
     7
370
    25
100
AcDbLine
 10
52.7679494113
 20
-49.3629083007
 30
0.0
 11
71.1319115264
 21
-57.3136659635
 31
0.0
  0
LINE
  5
49F
330
1AB
100
AcDbEntity
  8
0
  6
Continuous
 62
     7
370
    25
100
AcDbLine
 10
71.2113744522
 20
-57.1301294728
 30
0.0
 11
52.8385549307
 21
-49.1755369572
 31
0.0
  0
LINE
  5
4A0
330
1AB
100
AcDbEntity
  8
0
  6
Continuous
 62
     7
370
    25
100
AcDbLine
 10
40.8943043061
 20
-31.0284258601
 30
0.0
 11
42.7811478131
 21
-11.1063407897
 31
0.0
  0
LINE
  5
4A1
330
1AB
100
AcDbEntity
  8
0
  6
Continuous
 62
     7
370
    25
100
AcDbLine
 10
42.5820388432
 20
-11.0874829509
 30
0.0
 11
40.6942852635
 21
-31.0191769503
 31
0.0
  0
LINE
  5
4A2
330
1AB
100
AcDbEntity
  8
0
  6
Continuous
 62
     7
370
    25
100
AcDbLine
 10
36.6931573269
 20
-31.4646183292
 30
0.0
 11
32.3313892894
 21
-11.9345227953
 31
0.0
  0
LINE
  5
4A3
330
1AB
100
AcDbEntity
  8
0
  6
Continuous
 62
     7
370
    25
100
AcDbLine
 10
32.1361980134
 20
-11.9781159804
 30
0.0
 11
36.5000698428
 21
-31.5176313766
 31
0.0
  0
LINE
  5
4A4
330
1AB
100
AcDbEntity
  8
0
  6
Continuous
 62
     7
370
    25
100
AcDbLine
 10
45.0246234023
 20
-31.9118079825
 30
0.0
 11
52.9753810651
 21
-13.5478458674
 31
0.0
  0
LINE
  5
4A5
330
1AB
100
AcDbEntity
  8
0
  6
Continuous
 62
     7
370
    25
100
AcDbLine
 10
52.7918445744
 20
-13.4683829416
 30
0.0
 11
44.8372520587
 21
-31.8412024631
 31
0.0
  0
LINE
  5
4A6
330
1AB
100
AcDbEntity
  8
0
  6
Continuous
 62
     7
370
    25
100
AcDbLine
 10
47.5090524931
 20
-55.8403544606
 30
0.0
 11
57.6924718295
 21
-73.0667186328
 31
0.0
  0
LINE
  5
4A7
330
1AB
100
AcDbEntity
  8
0
  6
Continuous
 62
     7
370
    25
100
AcDbLine
 10
57.8646387294
 20
-72.9649416286
 30
0.0
 11
47.6763076706
 21
-55.7302687424
 31
0.0
  0
LINE
  5
4A8
330
1AB
100
AcDbEntity
  8
0
  6
Continuous
 62
     7
370
    25
100
AcDbLine
 10
43.6483151684
 20
-57.5534239631
 30
0.0
 11
48.010083206
 21
-77.0835194969
 31
0.0
  0
LINE
  5
4A9
330
1AB
100
AcDbEntity
  8
0
  6
Continuous
 62
     7
370
    25
100
AcDbLine
 10
48.205274482
 20
-77.0399263119
 30
0.0
 11
43.8414026526
 21
-57.5004109157
 31
0.0
  0
LINE
  5
4AA
330
1AB
100
AcDbEntity
  8
0
  6
Continuous
 62
     7
370
    25
100
AcDbLine
 10
51.5020695621
 20
-37.1707049007
 30
0.0
 11
68.7284337343
 21
-26.9872855643
 31
0.0
  0
LINE
  5
4AB
330
1AB
100
AcDbEntity
  8
0
  6
Continuous
 62
     7
370
    25
100
AcDbLine
 10
68.6266567302
 20
-26.8151186644
 30
0.0
 11
51.3919838439
 21
-37.0034497232
 31
0.0
  0
LINE
  5
4AC
330
1AB
100
AcDbEntity
  8
0
  6
Continuous
 62
     7
370
    25
100
AcDbLine
 10
27.1263334308
 20
-47.9866000669
 30
0.0
 11
7.5962378969
 21
-52.3483681044
 31
0.0
  0
LINE
  5
4AD
330
1AB
100
AcDbEntity
  8
0
  6
Continuous
 62
     7
370
    25
100
AcDbLine
 10
7.639831082
 20
-52.5435593804
 30
0.0
 11
27.1793464782
 21
-48.1796875511
 31
0.0
  0
LINE
  5
4AE
330
1AB
100
AcDbEntity
  8
0
  6
Continuous
 62
     7
370
    25
100
AcDbLine
 10
53.2151390646
 20
-41.0314422254
 30
0.0
 11
72.7452345985
 21
-36.6696741879
 31
0.0
  0
LINE
  5
4AF
330
1AB
100
AcDbEntity
  8
0
  6
Continuous
 62
     7
370
    25
100
AcDbLine
 10
72.7016414134
 20
-36.4744829119
 30
0.0
 11
53.0723685081
 21
-40.8584007995
 31
0.0
  0
LINE
  5
4B0
330
1AB
100
AcDbEntity
  8
0
  6
Continuous
 62
     7
370
    25
100
AcDbLine
 10
26.6901409617
 20
-43.7854530877
 30
0.0
 11
6.7680558912
 21
-41.8986095807
 31
0.0
  0
LINE
  5
4B1
330
1AB
100
AcDbEntity
  8
0
  6
Continuous
 62
     7
370
    25
100
AcDbLine
 10
6.7491980525
 20
-42.0977185506
 30
0.0
 11
26.6808920518
 21
-43.9854721304
 31
0.0
  0
LINE
  5
4B2
330
1AB
100
AcDbEntity
  8
0
  6
Continuous
 62
     7
370
    25
100
AcDbLine
 10
48.6798102048
 20
-34.0282930992
 30
0.0
 11
61.916206467
 21
-19.0200465007
 31
0.0
  0
LINE
  5
4B3
330
1AB
100
AcDbEntity
  8
0
  6
Continuous
 62
     7
370
    25
100
AcDbLine
 10
61.7662082861
 20
-18.8877568725
 30
0.0
 11
48.5234277729
 21
-33.9032423306
 31
0.0
  0
LINE
  5
4B4
330
1AB
100
AcDbEntity
  8
0
  6
Continuous
 62
     7
370
    25
100
AcDbLine
 10
50.6514642946
 20
-53.0180951032
 30
0.0
 11
65.6597108932
 21
-66.2544913655
 31
0.0
  0
LINE
  5
4B5
330
1AB
100
AcDbEntity
  8
0
  6
Continuous
 62
     7
370
    25
100
AcDbLine
 10
65.7920005213
 20
-66.1044931845
 30
0.0
 11
50.7765150633
 21
-52.8617126713
 31
0.0
  0
LINE
  5
4B6
330
1AB
100
AcDbEntity
  8
0
  6
Continuous
 62
     7
370
    25
100
AcDbLine
 10
35.0611116505
 20
-57.0046898548
 30
0.0
 11
27.1137004348
 21
-75.3609226402
 31
0.0
  0
LINE
  5
4B7
330
1AB
100
AcDbEntity
  8
0
  6
Continuous
 62
     7
370
    25
100
AcDbLine
 10
27.2972369255
 20
-75.440385566
 30
0.0
 11
35.2468604776
 21
-57.0790429202
 31
0.0
  0
LINE
  5
4B8
330
1AB
100
AcDbEntity
  8
0
  6
Continuous
 62
     7
370
    25
100
AcDbLine
 10
31.4498204917
 20
-54.8141474615
 30
0.0
 11
18.2189953839
 21
-69.8160771398
 31
0.0
  0
LINE
  5
4B9
330
1AB
100
AcDbEntity
  8
0
  6
Continuous
 62
     7
370
    25
100
AcDbLine
 10
18.3689935648
 20
-69.9483667679
 30
0.0
 11
31.6035017633
 21
-54.9422609732
 31
0.0
  0
LINE
  5
4BA
330
1AB
100
AcDbEntity
  8
0
  6
Continuous
 62
     7
370
    25
100
AcDbLine
 10
53.6337842339
 20
-45.5071889281
 30
0.0
 11
73.547484166
 21
-47.3932382691
 31
0.0
  0
LINE
  5
4BB
330
1AB
100
AcDbEntity
  8
0
  6
Continuous
 62
     7
370
    25
100
AcDbLine
 10
73.5663420048
 20
-47.1941292991
 30
0.0
 11
53.647098657
 21
-45.3075549349
 31
0.0
  0
LINE
  5
4BC
330
1AB
100
AcDbEntity
  8
0
  6
Continuous
 62
     7
370
    25
100
AcDbLine
 10
28.6921933292
 20
-51.6148675045
 30
0.0
 11
11.4730796755
 21
-61.7940006741
 31
0.0
  0
LINE
  5
4BD
330
1AB
100
AcDbEntity
  8
0
  6
Continuous
 62
     7
370
    25
100
AcDbLine
 10
11.5748566797
 20
-61.966167574
 30
0.0
 11
28.7987636517
 21
-51.7842008193
 31
0.0
  0
LINE
  5
4BE
330
1AB
100
AcDbEntity
  8
0
  6
Continuous
 62
     7
370
    25
100
AcDbLine
 10
27.0581659234
 20
-47.7200177966
 30
0.0
 11
7.5362905407
 21
-52.0799499807
 31
0.0
  0
LINE
  5
4BF
330
1AB
100
AcDbEntity
  8
0
  6
Continuous
 62
     7
370
    25
100
AcDbLine
 10
7.5798837258
 20
-52.2751412567
 30
0.0
 11
27.107193451
 21
-47.9139953897
 31
0.0
  0
LINE
  5
4C0
330
1AB
100
AcDbEntity
  8
0
  6
Continuous
 62
     7
370
    25
100
AcDbLine
 10
27.6750675391
 20
-39.399396549
 30
0.0
 11
9.3188347536
 21
-31.4519853332
 31
0.0
  0
LINE
  5
4C1
330
1AB
100
AcDbEntity
  8
0
  6
Continuous
 62
     7
370
    25
100
AcDbLine
 10
9.2393718278
 20
-31.6355218239
 30
0.0
 11
27.6007144736
 21
-39.5851453761
 31
0.0
  0
LINE
  5
4C2
330
1AB
100
AcDbEntity
  8
0
  6
Continuous
 62
     7
370
    25
100
AcDbLine
 10
36.9597395972
 20
-31.3964508218
 30
0.0
 11
32.5998074131
 21
-11.8745754392
 31
0.0
  0
LINE
  5
4C3
330
1AB
100
AcDbEntity
  8
0
  6
Continuous
 62
     7
370
    25
100
AcDbLine
 10
32.4046161371
 20
-11.9181686243
 30
0.0
 11
36.7657620041
 21
-31.4454783495
 31
0.0
  0
LINE
  5
4C4
330
1AB
100
AcDbEntity
  8
0
  6
Continuous
 62
     7
370
    25
100
AcDbLine
 10
52.6664049563
 20
-49.6186457433
 30
0.0
 11
71.0226377417
 21
-57.566056959
 31
0.0
  0
LINE
  5
4C5
330
1AB
100
AcDbEntity
  8
0
  6
Continuous
 62
     7
370
    25
100
AcDbLine
 10
71.1021006676
 20
-57.3825204683
 30
0.0
 11
52.7407580218
 21
-49.4328969162
 31
0.0
  0
LINE
  5
4C6
330
1AB
100
AcDbEntity
  8
0
  6
Continuous
 62
     7
370
    25
100
AcDbLine
 10
48.8916520037
 20
-34.2038948307
 30
0.0
 11
62.1224771115
 21
-19.2019651525
 31
0.0
  0
LINE
  5
4C7
330
1AB
100
AcDbEntity
  8
0
  6
Continuous
 62
     7
370
    25
100
AcDbLine
 10
61.9724789305
 20
-19.0696755243
 30
0.0
 11
48.7379707321
 21
-34.0757813191
 31
0.0
  0
LINE
  5
4C8
330
1AB
100
AcDbEntity
  8
0
  6
Continuous
 62
     7
370
    25
100
AcDbLine
 10
50.4758625631
 20
-53.2299369021
 30
0.0
 11
65.4777922414
 21
-66.4607620099
 31
0.0
  0
LINE
  5
4C9
330
1AB
100
AcDbEntity
  8
0
  6
Continuous
 62
     7
370
    25
100
AcDbLine
 10
65.6100818695
 20
-66.310763829
 30
0.0
 11
50.6039760748
 21
-53.0762556306
 31
0.0
  0
LINE
  5
4CA
330
1AB
100
AcDbEntity
  8
0
  6
Continuous
 62
     7
370
    25
100
AcDbLine
 10
39.1725684658
 20
-57.9720691324
 30
0.0
 11
37.2865191248
 21
-77.8857690645
 31
0.0
  0
LINE
  5
4CB
330
1AB
100
AcDbEntity
  8
0
  6
Continuous
 62
     7
370
    25
100
AcDbLine
 10
37.4856280947
 20
-77.9046269032
 30
0.0
 11
39.372202459
 21
-57.9853835555
 31
0.0
  0
LINE
  5
4CC
330
1AB
100
AcDbEntity
  8
0
  6
Continuous
 62
     7
370
    25
100
AcDbLine
 10
26.7076882615
 20
-43.5108533642
 30
0.0
 11
6.7939883293
 21
-41.6248040232
 31
0.0
  0
LINE
  5
4CD
330
1AB
100
AcDbEntity
  8
0
  6
Continuous
 62
     7
370
    25
100
AcDbLine
 10
6.7751304906
 20
-41.8239129932
 30
0.0
 11
26.6943738383
 21
-43.7104873574
 31
0.0
  0
LINE
  5
4CE
330
1AB
100
AcDbEntity
  8
0
  6
Continuous
 62
     7
370
    25
100
AcDbLine
 10
29.8656099323
 20
-35.7881053901
 30
0.0
 11
14.863680254
 21
-22.5572802823
 31
0.0
  0
LINE
  5
4CF
330
1AB
100
AcDbEntity
  8
0
  6
Continuous
 62
     7
370
    25
100
AcDbLine
 10
14.7313906259
 20
-22.7072784633
 30
0.0
 11
29.7374964206
 21
-35.9417866617
 31
0.0
  0
LINE
  5
4D0
330
1AB
100
AcDbEntity
  8
0
  6
Continuous
 62
     7
370
    25
100
AcDbLine
 10
43.3817328982
 20
-57.6215914705
 30
0.0
 11
47.7416650823
 21
-77.1434668531
 31
0.0
  0
LINE
  5
4D1
330
1AB
100
AcDbEntity
  8
0
  6
Continuous
 62
     7
370
    25
100
AcDbLine
 10
47.9368563582
 20
-77.099873668
 30
0.0
 11
43.5757104913
 21
-57.5725639428
 31
0.0
  0
LINE
  5
4D2
330
1AB
100
AcDbEntity
  8
0
  6
Continuous
 62
     7
370
    25
100
AcDbLine
 10
33.0648898893
 20
-33.0304782277
 30
0.0
 11
22.8857567197
 21
-15.811364574
 31
0.0
  0
LINE
  5
4D3
330
1AB
100
AcDbEntity
  8
0
  6
Continuous
 62
     7
370
    25
100
AcDbLine
 10
22.7135898198
 20
-15.9131415781
 30
0.0
 11
32.8955565746
 21
-33.1370485502
 31
0.0
  0
LINE
  5
4D4
330
1AB
100
AcDbEntity
  8
0
  6
Continuous
 62
     7
370
    25
100
AcDbLine
 10
53.283306572
 20
-41.2980244957
 30
0.0
 11
72.8051819546
 21
-36.9380923116
 31
0.0
  0
LINE
  5
4D5
330
1AB
100
AcDbEntity
  8
0
  6
Continuous
 62
     7
370
    25
100
AcDbLine
 10
72.7615887696
 20
-36.7429010356
 30
0.0
 11
53.1446053088
 21
-41.1240742512
 31
0.0
  0
LINE
  5
4D6
330
1AB
100
AcDbEntity
  8
0
  6
Continuous
 62
     7
370
    25
100
AcDbLine
 10
51.6492791661
 20
-37.4031747877
 30
0.0
 11
68.8683928199
 21
-27.2240416181
 31
0.0
  0
LINE
  5
4D7
330
1AB
100
AcDbEntity
  8
0
  6
Continuous
 62
     7
370
    25
100
AcDbLine
 10
68.7666158157
 20
-27.0518747182
 30
0.0
 11
51.5427088437
 21
-37.233841473
 31
0.0
  0
LINE
  5
4D8
330
1AB
100
AcDbEntity
  8
0
  6
Continuous
 62
     7
370
    25
100
AcDbLine
 10
41.1689040296
 20
-31.0459731599
 30
0.0
 11
43.0549533706
 21
-11.1322732278
 31
0.0
  0
LINE
  5
4D9
330
1AB
100
AcDbEntity
  8
0
  6
Continuous
 62
     7
370
    25
100
AcDbLine
 10
42.8558444006
 20
-11.1134153891
 30
0.0
 11
40.9692700364
 21
-31.0326587368
 31
0.0
  0
LINE
  5
4DA
330
1AB
100
AcDbEntity
  8
0
  6
Continuous
 62
     7
370
    25
100
AcDbLine
 10
45.2803608449
 20
-32.0133524375
 30
0.0
 11
53.2277720606
 21
-13.6571196521
 31
0.0
  0
LINE
  5
4DB
330
1AB
100
AcDbEntity
  8
0
  6
Continuous
 62
     7
370
    25
100
AcDbLine
 10
53.0442355699
 20
-13.5776567262
 30
0.0
 11
45.0946120178
 21
-31.9389993721
 31
0.0
  0
LINE
  5
4DC
330
1AB
100
AcDbEntity
  8
0
  6
Continuous
 62
     7
370
    25
100
AcDbLine
 10
47.2765826061
 20
-55.9875640646
 30
0.0
 11
57.4557157757
 21
-73.2066777183
 31
0.0
  0
LINE
  5
4DD
330
1AB
100
AcDbEntity
  8
0
  6
Continuous
 62
     7
370
    25
100
AcDbLine
 10
57.6278826756
 20
-73.1049007142
 30
0.0
 11
47.4459159208
 21
-55.8809937421
 31
0.0
  0
LINE
  5
4DE
330
1AB
100
AcDbEntity
  8
0
  6
Continuous
 62
     7
370
    25
100
AcDbLine
 10
27.9787189311
 20
-38.7120638622
 30
0.0
 11
9.6173762853
 21
-30.7624403101
 31
0.0
  0
LINE
  5
4DF
330
1AB
100
AcDbEntity
  8
0
  6
Continuous
 62
     7
370
    25
100
AcDbLine
 10
9.5379133594
 20
-30.9459768008
 30
0.0
 11
27.8941461449
 21
-38.8933880165
 31
0.0
  0
LINE
  5
4E0
330
1AB
100
AcDbEntity
  8
0
  6
Continuous
 62
     7
370
    25
100
AcDbLine
 10
45.9676935316
 20
-32.3170038295
 30
0.0
 11
53.9173170838
 21
-13.9556611837
 31
0.0
  0
LINE
  5
4E1
330
1AB
100
AcDbEntity
  8
0
  6
Continuous
 62
     7
370
    25
100
AcDbLine
 10
53.7337805931
 20
-13.8761982579
 30
0.0
 11
45.7863693773
 21
-32.2324310433
 31
0.0
  0
LINE
  5
4E2
330
1AB
100
AcDbEntity
  8
0
  6
Continuous
 62
     7
370
    25
100
AcDbLine
 10
52.0268611805
 20
-38.052837941
 30
0.0
 11
69.2507681525
 21
-27.8708711862
 31
0.0
  0
LINE
  5
4E3
330
1AB
100
AcDbEntity
  8
0
  6
Continuous
 62
     7
370
    25
100
AcDbLine
 10
69.1489911484
 20
-27.6987042863
 30
0.0
 11
51.9298774946
 21
-37.8778374559
 31
0.0
  0
LINE
  5
4E4
330
1AB
100
AcDbEntity
  8
0
  6
Continuous
 62
     7
370
    25
100
AcDbLine
 10
26.7840804156
 20
-42.7633276931
 30
0.0
 11
6.8648370678
 21
-40.8767533289
 31
0.0
  0
LINE
  5
4E5
330
1AB
100
AcDbEntity
  8
0
  6
Continuous
 62
     7
370
    25
100
AcDbLine
 10
6.8459792291
 20
-41.0758622988
 30
0.0
 11
26.7596791613
 21
-42.9619116398
 31
0.0
  0
LINE
  5
4E6
330
1AB
100
AcDbEntity
  8
0
  6
Continuous
 62
     7
370
    25
100
AcDbLine
 10
53.4416514522
 20
-42.0325701301
 30
0.0
 11
72.9689611774
 21
-37.6714242632
 31
0.0
  0
LINE
  5
4E7
330
1AB
100
AcDbEntity
  8
0
  6
Continuous
 62
     7
370
    25
100
AcDbLine
 10
72.9253679924
 20
-37.4762329872
 30
0.0
 11
53.4034926098
 21
-41.8361651713
 31
0.0
  0
LINE
  5
4E8
330
1AB
100
AcDbEntity
  8
0
  6
Continuous
 62
     7
370
    25
100
AcDbLine
 10
34.3737789637
 20
-56.7010384627
 30
0.0
 11
26.4241554116
 21
-75.0623811085
 31
0.0
  0
LINE
  5
4E9
330
1AB
100
AcDbEntity
  8
0
  6
Continuous
 62
     7
370
    25
100
AcDbLine
 10
26.6076919023
 20
-75.1418440344
 30
0.0
 11
34.555103118
 21
-56.785611249
 31
0.0
  0
LINE
  5
4EA
330
1AB
100
AcDbEntity
  8
0
  6
Continuous
 62
     7
370
    25
100
AcDbLine
 10
38.4250427946
 20
-57.8956769783
 30
0.0
 11
36.5384684304
 21
-77.814920326
 31
0.0
  0
LINE
  5
4EB
330
1AB
100
AcDbEntity
  8
0
  6
Continuous
 62
     7
370
    25
100
AcDbLine
 10
36.7375774004
 20
-77.8337781647
 30
0.0
 11
38.6236267414
 21
-57.9200782326
 31
0.0
  0
LINE
  5
4EC
330
1AB
100
AcDbEntity
  8
0
  6
Continuous
 62
     7
370
    25
100
AcDbLine
 10
37.6942852317
 20
-31.2381059416
 30
0.0
 11
33.3331393647
 21
-11.7107962164
 31
0.0
  0
LINE
  5
4ED
330
1AB
100
AcDbEntity
  8
0
  6
Continuous
 62
     7
370
    25
100
AcDbLine
 10
33.1379480888
 20
-11.7543894015
 30
0.0
 11
37.4978802729
 21
-31.2762647841
 31
0.0
  0
LINE
  5
4EE
330
1AB
100
AcDbEntity
  8
0
  6
Continuous
 62
     7
370
    25
100
AcDbLine
 10
49.4515107938
 20
-34.7050819468
 30
0.0
 11
62.6860189923
 21
-19.6989761521
 31
0.0
  0
LINE
  5
4EF
330
1AB
100
AcDbEntity
  8
0
  6
Continuous
 62
     7
370
    25
100
AcDbLine
 10
62.5360208113
 20
-19.5666865239
 30
0.0
 11
49.3051957035
 21
-34.5686162022
 31
0.0
  0
LINE
  5
4F0
330
1AB
100
AcDbEntity
  8
0
  6
Continuous
 62
     7
370
    25
100
AcDbLine
 10
46.6269194529
 20
-56.3651460789
 30
0.0
 11
56.8088862076
 21
-73.589053051
 31
0.0
  0
LINE
  5
4F1
330
1AB
100
AcDbEntity
  8
0
  6
Continuous
 62
     7
370
    25
100
AcDbLine
 10
56.9810531076
 20
-73.4872760468
 30
0.0
 11
46.801919938
 21
-56.2681623931
 31
0.0
  0
LINE
  5
4F2
330
1AB
100
AcDbEntity
  8
0
  6
Continuous
 62
     7
370
    25
100
AcDbLine
 10
42.6471872637
 20
-57.7799363506
 30
0.0
 11
47.0083331306
 21
-77.3072460759
 31
0.0
  0
LINE
  5
4F3
330
1AB
100
AcDbEntity
  8
0
  6
Continuous
 62
     7
370
    25
100
AcDbLine
 10
47.2035244066
 20
-77.2636528908
 30
0.0
 11
42.8435922225
 21
-57.7417775082
 31
0.0
  0
LINE
  5
4F4
330
1AB
100
AcDbEntity
  8
0
  6
Continuous
 62
     7
370
    25
100
AcDbLine
 10
28.3146113149
 20
-50.9652043513
 30
0.0
 11
11.0907043429
 21
-61.1471711061
 31
0.0
  0
LINE
  5
4F5
330
1AB
100
AcDbEntity
  8
0
  6
Continuous
 62
     7
370
    25
100
AcDbLine
 10
11.192481347
 20
-61.319338006
 30
0.0
 11
28.4115950007
 21
-51.1402048364
 31
0.0
  0
LINE
  5
4F6
330
1AB
100
AcDbEntity
  8
0
  6
Continuous
 62
     7
370
    25
100
AcDbLine
 10
49.974675447
 20
-53.7897956923
 30
0.0
 11
64.9807812418
 21
-67.0243038907
 31
0.0
  0
LINE
  5
4F7
330
1AB
100
AcDbEntity
  8
0
  6
Continuous
 62
     7
370
    25
100
AcDbLine
 10
65.1130708699
 20
-66.8743057098
 30
0.0
 11
50.1111411916
 21
-53.643480602
 31
0.0
  0
LINE
  5
4F8
330
1AB
100
AcDbEntity
  8
0
  6
Continuous
 62
     7
370
    25
100
AcDbLine
 10
41.9164297007
 20
-31.122365314
 30
0.0
 11
43.803004065
 21
-11.2031219663
 31
0.0
  0
LINE
  5
4F9
330
1AB
100
AcDbEntity
  8
0
  6
Continuous
 62
     7
370
    25
100
AcDbLine
 10
43.603895095
 20
-11.1842641276
 30
0.0
 11
41.717845754
 21
-31.0979640597
 31
0.0
  0
LINE
  5
4FA
330
1AB
100
AcDbEntity
  8
0
  6
Continuous
 62
     7
370
    25
100
AcDbLine
 10
26.8998210432
 20
-46.9854721621
 30
0.0
 11
7.372511318
 21
-51.3466180291
 31
0.0
  0
LINE
  5
4FB
330
1AB
100
AcDbEntity
  8
0
  6
Continuous
 62
     7
370
    25
100
AcDbLine
 10
7.416104503
 20
-51.5418093051
 30
0.0
 11
26.9379798856
 21
-47.181877121
 31
0.0
  0
LINE
  5
4FC
330
1AB
100
AcDbEntity
  8
0
  6
Continuous
 62
     7
370
    25
100
AcDbLine
 10
30.3667970484
 20
-35.2282466
 30
0.0
 11
15.3606912536
 21
-21.9937384016
 31
0.0
  0
LINE
  5
4FD
330
1AB
100
AcDbEntity
  8
0
  6
Continuous
 62
     7
370
    25
100
AcDbLine
 10
15.2284016255
 20
-22.1437365825
 30
0.0
 11
30.2303313037
 21
-35.3745616903
 31
0.0
  0
LINE
  5
4FE
330
1AB
100
AcDbEntity
  8
0
  6
Continuous
 62
     7
370
    25
100
AcDbLine
 10
53.5573920798
 20
-46.2547145992
 30
0.0
 11
73.4766354275
 21
-48.1412889634
 31
0.0
  0
LINE
  5
4FF
330
1AB
100
AcDbEntity
  8
0
  6
Continuous
 62
     7
370
    25
100
AcDbLine
 10
73.4954932663
 20
-47.9421799935
 30
0.0
 11
53.5817933341
 21
-46.0561306525
 31
0.0
  0
LINE
  5
500
330
1AB
100
AcDbEntity
  8
0
  6
Continuous
 62
     7
370
    25
100
AcDbLine
 10
30.8899617016
 20
-54.3129603455
 30
0.0
 11
17.6554535031
 21
-69.3190661402
 31
0.0
  0
LINE
  5
501
330
1AB
100
AcDbEntity
  8
0
  6
Continuous
 62
     7
370
    25
100
AcDbLine
 10
17.8054516841
 20
-69.4513557683
 30
0.0
 11
31.0362767919
 21
-54.4494260901
 31
0.0
  0
LINE
  5
502
330
1AB
100
AcDbEntity
  8
0
  6
Continuous
 62
     7
370
    25
100
AcDbLine
 10
52.3627535643
 20
-50.3059784301
 30
0.0
 11
70.7240962101
 21
-58.2556019822
 31
0.0
  0
LINE
  5
503
330
1AB
100
AcDbEntity
  8
0
  6
Continuous
 62
     7
370
    25
100
AcDbLine
 10
70.8035591359
 20
-58.0720654915
 30
0.0
 11
52.4473263505
 21
-50.1246542758
 31
0.0
  0
LINE
  5
504
330
1AB
100
AcDbEntity
  8
0
  6
Continuous
 62
     7
370
    25
100
AcDbLine
 10
33.7145530425
 20
-32.6528962134
 30
0.0
 11
23.5325862877
 21
-15.4289892413
 31
0.0
  0
LINE
  5
505
330
1AB
100
AcDbEntity
  8
0
  6
Continuous
 62
     7
370
    25
100
AcDbLine
 10
23.3604193878
 20
-15.5307662455
 30
0.0
 11
33.5395525574
 21
-32.7498798992
 31
0.0
  0
LINE
  5
506
330
1AB
100
AcDbEntity
  8
0
  6
Continuous
 62
     7
370
    25
100
AcDbLine
 10
46.9540643227
 20
-56.1810586815
 30
0.0
 11
57.1319547348
 21
-73.3980700755
 31
0.0
  0
LINE
  5
507
330
1AB
100
AcDbEntity
  8
0
  6
Continuous
 62
     7
370
    25
100
AcDbLine
 10
41.5435600841
 20
-31.0790042171
 30
0.0
 11
43.4293791597
 21
-11.1677355233
 31
0.0
  0
LINE
  5
508
330
1AB
100
AcDbEntity
  8
0
  6
Continuous
 62
     7
370
    25
100
AcDbLine
 10
34.7149997265
 20
-56.8575003647
 30
0.0
 11
26.7685588002
 21
-75.2114920609
 31
0.0
  0
LINE
  5
509
330
1AB
100
AcDbEntity
  8
0
  6
Continuous
 62
     7
370
    25
100
AcDbLine
 10
26.9738052376
 20
-47.3534915566
 30
0.0
 11
7.4543132561
 21
-51.7128914421
 31
0.0
  0
LINE
  5
50A
330
1AB
100
AcDbEntity
  8
0
  6
Continuous
 62
     7
370
    25
100
AcDbLine
 10
53.6007531767
 20
-45.8818449826
 30
0.0
 11
73.5120218705
 21
-47.7676640582
 31
0.0
  0
LINE
  5
50B
330
1AB
100
AcDbEntity
  8
0
  6
Continuous
 62
     7
370
    25
100
AcDbLine
 10
53.3676672577
 20
-41.6645507357
 30
0.0
 11
72.8871592393
 21
-37.3051508502
 31
0.0
  0
LINE
  5
50C
330
1AB
100
AcDbEntity
  8
0
  6
Continuous
 62
     7
370
    25
100
AcDbLine
 10
33.3874081727
 20
-32.8369836108
 30
0.0
 11
23.2095177606
 21
-15.6199722168
 31
0.0
  0
LINE
  5
50D
330
1AB
100
AcDbEntity
  8
0
  6
Continuous
 62
     7
370
    25
100
AcDbLine
 10
37.3262658372
 20
-31.3120901361
 30
0.0
 11
32.9668659517
 21
-11.7925981545
 31
0.0
  0
LINE
  5
50E
330
1AB
100
AcDbEntity
  8
0
  6
Continuous
 62
     7
370
    25
100
AcDbLine
 10
30.1125499224
 20
-35.5044174433
 30
0.0
 11
15.1124518107
 21
-22.2752076701
 31
0.0
  0
LINE
  5
50F
330
1AB
100
AcDbEntity
  8
0
  6
Continuous
 62
     7
370
    25
100
AcDbLine
 10
38.7979124113
 20
-57.9390380752
 30
0.0
 11
36.9120933356
 21
-77.8503067689
 31
0.0
  0
LINE
  5
510
330
1AB
100
AcDbEntity
  8
0
  6
Continuous
 62
     7
370
    25
100
AcDbLine
 10
50.228922573
 20
-53.513624849
 30
0.0
 11
65.2290206846
 21
-66.7428346221
 31
0.0
  0
LINE
  5
511
330
1AB
100
AcDbEntity
  8
0
  6
Continuous
 62
     7
370
    25
100
AcDbLine
 10
52.5192154663
 20
-49.9647576673
 30
0.0
 11
70.8732071625
 21
-57.9111985937
 31
0.0
  0
LINE
  5
512
330
1AB
100
AcDbEntity
  8
0
  6
Continuous
 62
     7
370
    25
100
AcDbLine
 10
26.7407193187
 20
-43.1361973097
 30
0.0
 11
6.8294506249
 21
-41.2503782341
 31
0.0
  0
LINE
  5
513
330
1AB
100
AcDbEntity
  8
0
  6
Continuous
 62
     7
370
    25
100
AcDbLine
 10
45.6264727689
 20
-32.1605419276
 30
0.0
 11
53.5729136952
 21
-13.8065502314
 31
0.0
  0
LINE
  5
514
330
1AB
100
AcDbEntity
  8
0
  6
Continuous
 62
     7
370
    25
100
AcDbLine
 10
27.8222570291
 20
-39.053284625
 30
0.0
 11
9.4682653329
 21
-31.1068436986
 31
0.0
  0
LINE
  5
515
330
1AB
100
AcDbEntity
  8
0
  6
Continuous
 62
     7
370
    25
100
AcDbLine
 10
28.4986987123
 20
-51.2923492211
 30
0.0
 11
11.2816873184
 21
-61.4702396332
 31
0.0
  0
LINE
  5
516
330
1AB
100
AcDbEntity
  8
0
  6
Continuous
 62
     7
370
    25
100
AcDbLine
 10
31.1661325448
 20
-54.5672074714
 30
0.0
 11
17.9369227717
 21
-69.5673055831
 31
0.0
  0
LINE
  5
517
330
1AB
100
AcDbEntity
  8
0
  6
Continuous
 62
     7
370
    25
100
AcDbLine
 10
51.8427737831
 20
-37.7256930712
 30
0.0
 11
69.059785177
 21
-27.547802659
 31
0.0
  0
LINE
  5
518
330
1AB
100
AcDbEntity
  8
0
  6
Continuous
 62
     7
370
    25
100
AcDbLine
 10
43.0152066581
 20
-57.7059521562
 30
0.0
 11
47.3746065437
 21
-77.2254441378
 31
0.0
  0
LINE
  5
519
330
1AB
100
AcDbEntity
  8
0
  6
Continuous
 62
     7
370
    25
100
AcDbLine
 10
49.1753399506
 20
-34.4508348209
 30
0.0
 11
62.4045497237
 21
-19.4507367092
 31
0.0
  0
LINE
  5
51A
330
1AB
100
AcDbEntity
  8
0
  6
Continuous
 62
     7
370
    25
100
AcDbLine
 10
72.6915413341
 20
-36.4292591603
 30
0.0
 11
53.1494291738
 21
-40.7937109399
 31
0.0
  0
LINE
  5
51B
330
1AB
100
AcDbEntity
  8
0
  6
Continuous
 62
     7
370
    25
100
AcDbLine
 10
22.4369445185
 20
-16.0766813177
 30
0.0
 11
32.626629587
 21
-33.3136446589
 31
0.0
  0
LINE
  5
51C
330
1AB
100
AcDbEntity
  8
0
  6
Continuous
 62
     7
370
    25
100
AcDbLine
 10
6.744828891
 20
-42.1438499904
 30
0.0
 11
26.6791717742
 21
-44.0318544489
 31
0.0
  0
LINE
  5
51D
330
1AB
100
AcDbEntity
  8
0
  6
Continuous
 62
     7
370
    25
100
AcDbLine
 10
57.9045279769
 20
-72.9413609746
 30
0.0
 11
47.7148429084
 21
-55.7043976334
 31
0.0
  0
LINE
  5
51E
330
1AB
100
AcDbEntity
  8
0
  6
Continuous
 62
     7
370
    25
100
AcDbLine
 10
73.5966436044
 20
-46.8741923019
 30
0.0
 11
53.6623007212
 21
-44.9861878433
 31
0.0
  0
LINE
  5
51F
330
1AB
100
AcDbEntity
  8
0
  6
Continuous
 62
     7
370
    25
100
AcDbLine
 10
65.8226506272
 20
-66.0697401945
 30
0.0
 11
50.80516964
 21
-52.8251997412
 31
0.0
  0
LINE
  5
520
330
1AB
100
AcDbEntity
  8
0
  6
Continuous
 62
     7
370
    25
100
AcDbLine
 10
9.1116873247
 20
-31.9304362807
 30
0.0
 11
27.4869485587
 21
-39.8860859464
 31
0.0
  0
LINE
  5
521
330
1AB
100
AcDbEntity
  8
0
  6
Continuous
 62
     7
370
    25
100
AcDbLine
 10
32.0909742619
 20
-11.9882160597
 30
0.0
 11
36.4554260414
 21
-31.53032822
 31
0.0
  0
LINE
  5
522
330
1AB
100
AcDbEntity
  8
0
  6
Continuous
 62
     7
370
    25
100
AcDbLine
 10
48.2504982335
 20
-77.0298262326
 30
0.0
 11
43.886046454
 21
-57.4877140723
 31
0.0
  0
LINE
  5
523
330
1AB
100
AcDbEntity
  8
0
  6
Continuous
 62
     7
370
    25
100
AcDbLine
 10
11.7383964192
 20
-62.2428128753
 30
0.0
 11
28.9753597604
 21
-52.0531278068
 31
0.0
  0
LINE
  5
524
330
1AB
100
AcDbEntity
  8
0
  6
Continuous
 62
     7
370
    25
100
AcDbLine
 10
52.7493211132
 20
-13.4499722232
 30
0.0
 11
44.7936714475
 21
-31.8252334572
 31
0.0
  0
LINE
  5
525
330
1AB
100
AcDbEntity
  8
0
  6
Continuous
 62
     7
370
    25
100
AcDbLine
 10
37.8055650919
 20
-77.9349285029
 30
0.0
 11
39.6935695505
 21
-58.0005856197
 31
0.0
  0
LINE
  5
526
330
1AB
100
AcDbEntity
  8
0
  6
Continuous
 62
     7
370
    25
100
AcDbLine
 10
14.5188218682
 20
-22.9483020978
 30
0.0
 11
29.5363028554
 21
-36.1928425511
 31
0.0
  0
LINE
  5
527
330
1AB
100
AcDbEntity
  8
0
  6
Continuous
 62
     7
370
    25
100
AcDbLine
 10
18.6100171993
 20
-70.1609355256
 30
0.0
 11
31.8545576526
 21
-55.1434545384
 31
0.0
  0
LINE
  5
528
330
1AB
100
AcDbEntity
  8
0
  6
Continuous
 62
     7
370
    25
100
AcDbLine
 10
27.5921513822
 20
-75.5680700691
 30
0.0
 11
35.5478010479
 21
-57.1928088351
 31
0.0
  0
LINE
  5
529
330
1AB
100
AcDbEntity
  8
0
  6
Continuous
 62
     7
370
    25
100
AcDbLine
 10
42.5359074034
 20
-11.0831137894
 30
0.0
 11
40.6479029449
 21
-31.0174566726
 31
0.0
  0
LINE
  5
52A
330
1AB
100
AcDbEntity
  8
0
  6
Continuous
 62
     7
370
    25
100
AcDbLine
 10
68.6030760762
 20
-26.775229417
 30
0.0
 11
51.366112735
 21
-36.9649144854
 31
0.0
  0
LINE
  5
52B
330
1AB
100
AcDbEntity
  8
0
  6
Continuous
 62
     7
370
    25
100
AcDbLine
 10
71.2297851706
 20
-57.0876060116
 30
0.0
 11
52.8545239367
 21
-49.1319563459
 31
0.0
  0
LINE
  5
52C
330
1AB
100
AcDbEntity
  8
0
  6
Continuous
 62
     7
370
    25
100
AcDbLine
 10
7.6499311613
 20
-52.5887831319
 30
0.0
 11
27.1920433215
 21
-48.2243313524
 31
0.0
  0
LINE
  5
52D
330
1AB
100
AcDbEntity
  8
0
  6
Continuous
 62
     7
370
    25
100
AcDbLine
 10
61.7314552961
 20
-18.8571067667
 30
0.0
 11
48.4869148428
 21
-33.8745877539
 31
0.0
  0
LINE
  5
52E
330
1AB
100
AcDbEntity
  8
0
  6
Continuous
 62
     7
370
    25
100
AcDbLine
 10
53.4969609018
 20
-42.3499156675
 30
0.0
 11
73.0390962862
 21
-37.9854587012
 31
0.0
  0
LINE
  5
52F
330
1AB
100
AcDbEntity
  8
0
  6
Continuous
 62
     7
370
    25
100
AcDbLine
 10
52.2209688222
 20
-50.5952264417
 30
0.0
 11
70.5962518936
 21
-58.550885562
 31
0.0
  0
LINE
  5
530
330
1AB
100
AcDbEntity
  8
0
  6
Continuous
 62
     7
370
    25
100
AcDbLine
 10
30.6586843901
 20
-54.0887324914
 30
0.0
 11
17.4141281968
 21
-69.1062313256
 31
0.0
  0
LINE
  5
531
330
1AB
100
AcDbEntity
  8
0
  6
Continuous
 62
     7
370
    25
100
AcDbLine
 10
30.5910249024
 20
-34.9969692886
 30
0.0
 11
15.5735260682
 21
-21.7524130953
 31
0.0
  0
LINE
  5
532
330
1AB
100
AcDbEntity
  8
0
  6
Continuous
 62
     7
370
    25
100
AcDbLine
 10
28.1205036732
 20
-38.4228158506
 30
0.0
 11
9.7452206018
 21
-30.4671567303
 31
0.0
  0
LINE
  5
533
330
1AB
100
AcDbEntity
  8
0
  6
Continuous
 62
     7
370
    25
100
AcDbLine
 10
42.3298417263
 20
-57.8352458003
 30
0.0
 11
46.6942986926
 21
-77.3773811846
 31
0.0
  0
LINE
  5
534
330
1AB
100
AcDbEntity
  8
0
  6
Continuous
 62
     7
370
    25
100
AcDbLine
 10
34.0845309521
 20
-56.5592537207
 30
0.0
 11
26.1288718318
 21
-74.934536792
 31
0.0
  0
LINE
  5
535
330
1AB
100
AcDbEntity
  8
0
  6
Continuous
 62
     7
370
    25
100
AcDbLine
 10
26.8445115936
 20
-46.6681266248
 30
0.0
 11
7.3023762092
 21
-51.0325835911
 31
0.0
  0
LINE
  5
536
330
1AB
100
AcDbEntity
  8
0
  6
Continuous
 62
     7
370
    25
100
AcDbLine
 10
46.2569415433
 20
-32.4587885716
 30
0.0
 11
54.2126006636
 21
-14.0835055002
 31
0.0
  0
LINE
  5
537
330
1AB
100
AcDbEntity
  8
0
  6
Continuous
 62
     7
370
    25
100
AcDbLine
 10
38.1061376935
 20
-57.8502142266
 30
0.0
 11
36.2181309913
 21
-77.7845808
 31
0.0
  0
LINE
  5
538
330
1AB
100
AcDbEntity
  8
0
  6
Continuous
 62
     7
370
    25
100
AcDbLine
 10
49.6827881052
 20
-34.9293098008
 30
0.0
 11
62.9273442985
 21
-19.9118109667
 31
0.0
  0
LINE
  5
539
330
1AB
100
AcDbEntity
  8
0
  6
Continuous
 62
     7
370
    25
100
AcDbLine
 10
52.1775287571
 20
-38.3375599223
 30
0.0
 11
69.4145125829
 21
-28.1478627443
 31
0.0
  0
LINE
  5
53A
330
1AB
100
AcDbEntity
  8
0
  6
Continuous
 62
     7
370
    25
100
AcDbLine
 10
46.3421974715
 20
-56.5158136555
 30
0.0
 11
56.5318946495
 21
-73.7527974813
 31
0.0
  0
LINE
  5
53B
330
1AB
100
AcDbEntity
  8
0
  6
Continuous
 62
     7
370
    25
100
AcDbLine
 10
33.9992750239
 20
-32.5022286368
 30
0.0
 11
23.8095778459
 21
-15.2652448109
 31
0.0
  0
LINE
  5
53C
330
1AB
100
AcDbEntity
  8
0
  6
Continuous
 62
     7
370
    25
100
AcDbLine
 10
28.1639437383
 20
-50.6804823699
 30
0.0
 11
10.9269599125
 21
-60.870179548
 31
0.0
  0
LINE
  5
53D
330
1AB
100
AcDbEntity
  8
0
  6
Continuous
 62
     7
370
    25
100
AcDbLine
 10
53.5119293282
 20
-46.5736197003
 30
0.0
 11
73.4462959016
 21
-48.4616264026
 31
0.0
  0
LINE
  5
53E
330
1AB
100
AcDbEntity
  8
0
  6
Continuous
 62
     7
370
    25
100
AcDbLine
 10
26.8295431672
 20
-42.444422592
 30
0.0
 11
6.8951765938
 21
-40.5564158897
 31
0.0
  0
LINE
  5
53F
330
1AB
100
AcDbEntity
  8
0
  6
Continuous
 62
     7
370
    25
100
AcDbLine
 10
42.2353348018
 20
-31.1678280657
 30
0.0
 11
44.1233415041
 21
-11.2334614922
 31
0.0
  0
LINE
  5
540
330
1AB
100
AcDbEntity
  8
0
  6
Continuous
 62
     7
370
    25
100
AcDbLine
 10
49.750447593
 20
-54.0210730037
 30
0.0
 11
64.7679464272
 21
-67.265629197
 31
0.0
  0
LINE
  5
541
330
1AB
100
AcDbEntity
  8
0
  6
Continuous
 62
     7
370
    25
100
AcDbLine
 10
38.0116307691
 20
-31.182796492
 30
0.0
 11
33.6471738028
 21
-11.6406611076
 31
0.0
  0
LINE
  5
542
330
1AB
100
AcDbEntity
  8
0
  6
Continuous
 62
     7
370
    25
100
AcDbLine
 10
71.2299449841
 20
-57.0872368885
 30
0.0
 11
52.8546619127
 21
-49.1315777682
 31
0.0
  0
LINE
  5
543
330
1AB
100
AcDbEntity
  8
0
  6
Continuous
 62
     7
370
    25
100
AcDbLine
 10
73.5966815307
 20
-46.8737918599
 30
0.0
 11
53.6623149573
 21
-44.9857851577
 31
0.0
  0
LINE
  5
544
330
1AB
100
AcDbEntity
  8
0
  6
Continuous
 62
     7
370
    25
100
AcDbLine
 10
57.9048742337
 20
-72.9411562838
 30
0.0
 11
47.7151770557
 21
-55.7041724579
 31
0.0
  0
LINE
  5
545
330
1AB
100
AcDbEntity
  8
0
  6
Continuous
 62
     7
370
    25
100
AcDbLine
 10
48.2508907963
 20
-77.0297385593
 30
0.0
 11
43.88643383
 21
-57.4876031749
 31
0.0
  0
LINE
  5
546
330
1AB
100
AcDbEntity
  8
0
  6
Continuous
 62
     7
370
    25
100
AcDbLine
 10
18.6103188711
 20
-70.1612015825
 30
0.0
 11
31.8548750644
 21
-55.1437027484
 31
0.0
  0
LINE
  5
547
330
1AB
100
AcDbEntity
  8
0
  6
Continuous
 62
     7
370
    25
100
AcDbLine
 10
68.6028713853
 20
-26.7748831601
 30
0.0
 11
51.3658875595
 21
-36.9645803381
 31
0.0
  0
LINE
  5
548
330
1AB
100
AcDbEntity
  8
0
  6
Continuous
 62
     7
370
    25
100
AcDbLine
 10
6.7447909647
 20
-42.1442504323
 30
0.0
 11
26.6791575381
 21
-44.0322571346
 31
0.0
  0
LINE
  5
549
330
1AB
100
AcDbEntity
  8
0
  6
Continuous
 62
     7
370
    25
100
AcDbLine
 10
65.8229166841
 20
-66.0694385227
 30
0.0
 11
50.8054178499
 21
-52.8248823294
 31
0.0
  0
LINE
  5
54A
330
1AB
100
AcDbEntity
  8
0
  6
Continuous
 62
     7
370
    25
100
AcDbLine
 10
61.7311536243
 20
-18.8568407097
 30
0.0
 11
48.486597431
 21
-33.8743395439
 31
0.0
  0
LINE
  5
54B
330
1AB
100
AcDbEntity
  8
0
  6
Continuous
 62
     7
370
    25
100
AcDbLine
 10
27.5925205053
 20
-75.5682298825
 30
0.0
 11
35.5481796256
 21
-57.1929468111
 31
0.0
  0
LINE
  5
54C
330
1AB
100
AcDbEntity
  8
0
  6
Continuous
 62
     7
370
    25
100
AcDbLine
 10
22.4365982617
 20
-16.0768860085
 30
0.0
 11
32.6262954397
 21
-33.3138698343
 31
0.0
  0
LINE
  5
54D
330
1AB
100
AcDbEntity
  8
0
  6
Continuous
 62
     7
370
    25
100
AcDbLine
 10
37.8059655339
 20
-77.9349664292
 30
0.0
 11
39.6939722362
 21
-58.0005998557
 31
0.0
  0
LINE
  5
54E
330
1AB
100
AcDbEntity
  8
0
  6
Continuous
 62
     7
370
    25
100
AcDbLine
 10
32.0905816991
 20
-11.988303733
 30
0.0
 11
36.4550386654
 21
-31.5304391174
 31
0.0
  0
LINE
  5
54F
330
1AB
100
AcDbEntity
  8
0
  6
Continuous
 62
     7
370
    25
100
AcDbLine
 10
14.5185558113
 20
-22.9486037696
 30
0.0
 11
29.5360546455
 21
-36.1931599629
 31
0.0
  0
LINE
  5
550
330
1AB
100
AcDbEntity
  8
0
  6
Continuous
 62
     7
370
    25
100
AcDbLine
 10
42.5355069615
 20
-11.0830758631
 30
0.0
 11
40.6475002592
 21
-31.0174424365
 31
0.0
  0
LINE
  5
551
330
1AB
100
AcDbEntity
  8
0
  6
Continuous
 62
     7
370
    25
100
AcDbLine
 10
52.7489519901
 20
-13.4498124098
 30
0.0
 11
44.7932928698
 21
-31.8250954811
 31
0.0
  0
LINE
  5
552
330
1AB
100
AcDbEntity
  8
0
  6
Continuous
 62
     7
370
    25
100
AcDbLine
 10
72.6914536608
 20
-36.4288665975
 30
0.0
 11
53.1493182764
 21
-40.7933235638
 31
0.0
  0
LINE
  5
553
330
1AB
100
AcDbEntity
  8
0
  6
Continuous
 62
     7
370
    25
100
AcDbLine
 10
7.6500188346
 20
-52.5891756947
 30
0.0
 11
27.192154219
 21
-48.2247187285
 31
0.0
  0
LINE
  5
554
330
1AB
100
AcDbEntity
  8
0
  6
Continuous
 62
     7
370
    25
100
AcDbLine
 10
11.73860111
 20
-62.2431591322
 30
0.0
 11
28.9755849359
 21
-52.0534619542
 31
0.0
  0
LINE
  5
555
330
1AB
100
AcDbEntity
  8
0
  6
Continuous
 62
     7
370
    25
100
AcDbLine
 10
9.1115275113
 20
-31.9308054037
 30
0.0
 11
27.4868105827
 21
-39.886464524
 31
0.0
  0
LINE
  5
556
330
1AB
100
AcDbEntity
  8
0
  6
Continuous
 62
     7
370
    25
100
AcDbLine
 10
37.1117854443
 20
-77.8692198374
 30
0.0
 11
38.9976043667
 21
-57.9579527613
 31
0.0
  0
LINE
  5
557
330
1AB
100
AcDbEntity
  8
0
  6
Continuous
 62
     7
370
    25
100
AcDbLine
 10
23.0368466283
 20
-15.7220472995
 30
0.0
 11
33.2147362135
 21
-32.9390572946
 31
0.0
  0
LINE
  5
558
330
1AB
100
AcDbEntity
  8
0
  6
Continuous
 62
     7
370
    25
100
AcDbLine
 10
32.7711030109
 20
-11.8363190127
 30
0.0
 11
37.1305025423
 21
-31.3558094085
 31
0.0
  0
LINE
  5
559
330
1AB
100
AcDbEntity
  8
0
  6
Continuous
 62
     7
370
    25
100
AcDbLine
 10
6.8105375564
 20
-41.4500703428
 30
0.0
 11
26.7218046325
 21
-43.3358892652
 31
0.0
  0
LINE
  5
55A
330
1AB
100
AcDbEntity
  8
0
  6
Continuous
 62
     7
370
    25
100
AcDbLine
 10
62.2541122368
 20
-19.3180596389
 30
0.0
 11
49.0249035385
 21
-34.3181565319
 31
0.0
  0
LINE
  5
55B
330
1AB
100
AcDbEntity
  8
0
  6
Continuous
 62
     7
370
    25
100
AcDbLine
 10
65.3616977549
 20
-66.5923971353
 30
0.0
 11
50.3616008619
 21
-53.363188437
 31
0.0
  0
LINE
  5
55C
330
1AB
100
AcDbEntity
  8
0
  6
Continuous
 62
     7
370
    25
100
AcDbLine
 10
11.383762401
 20
-61.6429107655
 30
0.0
 11
28.6007723962
 21
-51.4650211803
 31
0.0
  0
LINE
  5
55D
330
1AB
100
AcDbEntity
  8
0
  6
Continuous
 62
     7
370
    25
100
AcDbLine
 10
53.3888396736
 20
-13.7268545791
 30
0.0
 11
45.4423993928
 21
-32.0808447842
 31
0.0
  0
LINE
  5
55E
330
1AB
100
AcDbEntity
  8
0
  6
Continuous
 62
     7
370
    25
100
AcDbLine
 10
9.3885696807
 20
-31.2909177203
 30
0.0
 11
27.7425598857
 21
-39.237358001
 31
0.0
  0
LINE
  5
55F
330
1AB
100
AcDbEntity
  8
0
  6
Continuous
 62
     7
370
    25
100
AcDbLine
 10
70.9529028147
 20
-57.727124572
 30
0.0
 11
52.5989126097
 21
-49.7806842913
 31
0.0
  0
LINE
  5
560
330
1AB
100
AcDbEntity
  8
0
  6
Continuous
 62
     7
370
    25
100
AcDbLine
 10
18.0873602586
 20
-69.6999826534
 30
0.0
 11
31.3165689569
 21
-54.6998857604
 31
0.0
  0
LINE
  5
561
330
1AB
100
AcDbEntity
  8
0
  6
Continuous
 62
     7
370
    25
100
AcDbLine
 10
73.5309349389
 20
-47.5679719495
 30
0.0
 11
53.6196678629
 21
-45.6821530271
 31
0.0
  0
LINE
  5
562
330
1AB
100
AcDbEntity
  8
0
  6
Continuous
 62
     7
370
    25
100
AcDbLine
 10
14.9797747405
 20
-22.425645157
 30
0.0
 11
29.9798716334
 21
-35.6548538553
 31
0.0
  0
LINE
  5
563
330
1AB
100
AcDbEntity
  8
0
  6
Continuous
 62
     7
370
    25
100
AcDbLine
 10
26.9526328218
 20
-75.2911877131
 30
0.0
 11
34.8990731026
 21
-56.9371975081
 31
0.0
  0
LINE
  5
564
330
1AB
100
AcDbEntity
  8
0
  6
Continuous
 62
     7
370
    25
100
AcDbLine
 10
43.2296870511
 20
-11.1488224549
 30
0.0
 11
41.3438681286
 21
-31.060089531
 31
0.0
  0
LINE
  5
565
330
1AB
100
AcDbEntity
  8
0
  6
Continuous
 62
     7
370
    25
100
AcDbLine
 10
72.8434383811
 20
-37.1093879094
 30
0.0
 11
53.3239479854
 21
-41.4687874407
 31
0.0
  0
LINE
  5
566
330
1AB
100
AcDbEntity
  8
0
  6
Continuous
 62
     7
370
    25
100
AcDbLine
 10
68.9577100943
 20
-27.3751315268
 30
0.0
 11
51.7407000992
 21
-37.553021112
 31
0.0
  0
LINE
  5
567
330
1AB
100
AcDbEntity
  8
0
  6
Continuous
 62
     7
370
    25
100
AcDbLine
 10
47.5703694844
 20
-77.1817232795
 30
0.0
 11
43.2109699531
 21
-57.6622328838
 31
0.0
  0
LINE
  5
568
330
1AB
100
AcDbEntity
  8
0
  6
Continuous
 62
     7
370
    25
100
AcDbLine
 10
57.3046258671
 20
-73.2959949928
 30
0.0
 11
47.1267362818
 21
-56.0789849976
 31
0.0
  0
LINE
  5
569
330
1AB
100
AcDbEntity
  8
0
  6
Continuous
 62
     7
370
    25
100
AcDbLine
 10
7.4980341143
 20
-51.9086543829
 30
0.0
 11
27.01752451
 21
-47.5492548516
 31
0.0
  0
LINE
  5
56A
330
1AB
100
AcDbEntity
  8
0
  6
Continuous
 62
     7
370
    25
100
AcDbLine
 10
57.3048141485
 20
-73.2958836896
 30
0.0
 11
47.1269237363
 21
-56.0788722957
 31
0.0
  0
LINE
  5
56B
330
1AB
100
AcDbEntity
  8
0
  6
Continuous
 62
     7
370
    25
100
AcDbLine
 10
23.0366583469
 20
-15.7221586026
 30
0.0
 11
33.214548759
 21
-32.9391699966
 31
0.0
  0
LINE
  5
56C
330
1AB
100
AcDbEntity
  8
0
  6
Continuous
 62
     7
370
    25
100
AcDbLine
 10
72.8433907077
 20
-37.1091744486
 30
0.0
 11
53.3238987261
 21
-41.4685743341
 31
0.0
  0
LINE
  5
56D
330
1AB
100
AcDbEntity
  8
0
  6
Continuous
 62
     7
370
    25
100
AcDbLine
 10
70.9529897152
 20
-57.7269238569
 30
0.0
 11
52.598998019
 21
-49.7804829305
 31
0.0
  0
LINE
  5
56E
330
1AB
100
AcDbEntity
  8
0
  6
Continuous
 62
     7
370
    25
100
AcDbLine
 10
43.2294693059
 20
-11.148801832
 30
0.0
 11
41.3436502302
 21
-31.0600705258
 31
0.0
  0
LINE
  5
56F
330
1AB
100
AcDbEntity
  8
0
  6
Continuous
 62
     7
370
    25
100
AcDbLine
 10
18.0875242963
 20
-69.7001273251
 30
0.0
 11
31.3167340694
 21
-54.7000292134
 31
0.0
  0
LINE
  5
570
330
1AB
100
AcDbEntity
  8
0
  6
Continuous
 62
     7
370
    25
100
AcDbLine
 10
9.3884827802
 20
-31.2911184354
 30
0.0
 11
27.7424744764
 21
-39.2375593618
 31
0.0
  0
LINE
  5
571
330
1AB
100
AcDbEntity
  8
0
  6
Continuous
 62
     7
370
    25
100
AcDbLine
 10
68.9575987912
 20
-27.3749432454
 30
0.0
 11
51.7405873972
 21
-37.5528336575
 31
0.0
  0
LINE
  5
572
330
1AB
100
AcDbEntity
  8
0
  6
Continuous
 62
     7
370
    25
100
AcDbLine
 10
26.952833537
 20
-75.2912746136
 30
0.0
 11
34.8992744633
 21
-56.9372829174
 31
0.0
  0
LINE
  5
573
330
1AB
100
AcDbEntity
  8
0
  6
Continuous
 62
     7
370
    25
100
AcDbLine
 10
37.1120031895
 20
-77.8692404603
 30
0.0
 11
38.9978222651
 21
-57.9579717665
 31
0.0
  0
LINE
  5
574
330
1AB
100
AcDbEntity
  8
0
  6
Continuous
 62
     7
370
    25
100
AcDbLine
 10
14.9796300688
 20
-22.4258091947
 30
0.0
 11
29.9797281804
 21
-35.6550189678
 31
0.0
  0
LINE
  5
575
330
1AB
100
AcDbEntity
  8
0
  6
Continuous
 62
     7
370
    25
100
AcDbLine
 10
32.7708895501
 20
-11.8363666862
 30
0.0
 11
37.1302894356
 21
-31.3558586677
 31
0.0
  0
LINE
  5
576
330
1AB
100
AcDbEntity
  8
0
  6
Continuous
 62
     7
370
    25
100
AcDbLine
 10
73.5309555618
 20
-47.5677542043
 30
0.0
 11
53.6196868681
 21
-45.6819351287
 31
0.0
  0
LINE
  5
577
330
1AB
100
AcDbEntity
  8
0
  6
Continuous
 62
     7
370
    25
100
AcDbLine
 10
47.5705829452
 20
-77.1816756061
 30
0.0
 11
43.2111830597
 21
-57.6621836245
 31
0.0
  0
LINE
  5
578
330
1AB
100
AcDbEntity
  8
0
  6
Continuous
 62
     7
370
    25
100
AcDbLine
 10
62.2539481991
 20
-19.3179149672
 30
0.0
 11
49.024738426
 21
-34.3180130789
 31
0.0
  0
LINE
  5
579
330
1AB
100
AcDbEntity
  8
0
  6
Continuous
 62
     7
370
    25
100
AcDbLine
 10
65.3618424266
 20
-66.5922330976
 30
0.0
 11
50.3617443149
 21
-53.3630233244
 31
0.0
  0
LINE
  5
57A
330
1AB
100
AcDbEntity
  8
0
  6
Continuous
 62
     7
370
    25
100
AcDbLine
 10
53.3886389584
 20
-13.7267676786
 30
0.0
 11
45.4421980321
 21
-32.0807593748
 31
0.0
  0
LINE
  5
57B
330
1AB
100
AcDbEntity
  8
0
  6
Continuous
 62
     7
370
    25
100
AcDbLine
 10
7.4980817877
 20
-51.9088678437
 30
0.0
 11
27.0175737693
 21
-47.5494679582
 31
0.0
  0
LINE
  5
57C
330
1AB
100
AcDbEntity
  8
0
  6
Continuous
 62
     7
370
    25
100
AcDbLine
 10
6.8105169336
 20
-41.450288088
 30
0.0
 11
26.7217856273
 21
-43.3361071636
 31
0.0
  0
LINE
  5
57D
330
1AB
100
AcDbEntity
  8
0
  6
Continuous
 62
     7
370
    25
100
AcDbLine
 10
11.3838737042
 20
-61.6430990469
 30
0.0
 11
28.6008850981
 21
-51.4652086348
 31
0.0
  0
LINE
  5
57E
330
1AB
100
AcDbEntity
  8
0
  6
Continuous
 62
     7
370
    25
100
AcDbLine
 10
14.1707362477
 20
-120.0090211461
 30
0.0
 11
14.1707362477
 21
-130.0090211461
 31
0.0
  0
LINE
  5
57F
330
1AB
100
AcDbEntity
  8
0
  6
Continuous
 62
     7
370
    25
100
AcDbLine
 10
66.1707362477
 20
-130.0090211461
 30
0.0
 11
66.1707362477
 21
-120.0090211461
 31
0.0
  0
LINE
  5
580
330
1AB
100
AcDbEntity
  8
0
  6
Continuous
 62
     7
370
    25
100
AcDbLine
 10
49.6707362477
 20
-120.0090211461
 30
0.0
 11
49.6707362477
 21
-101.1950327204
 31
0.0
  0
LINE
  5
581
330
1AB
100
AcDbEntity
  8
0
  6
Continuous
 62
     7
370
    25
100
AcDbLine
 10
30.6707362477
 20
-101.1950327204
 30
0.0
 11
30.6707362477
 21
-120.0090211461
 31
0.0
  0
LINE
  5
582
330
1AB
100
AcDbEntity
  8
0
  6
Continuous
 62
     7
370
    25
100
AcDbLine
 10
36.9120933356
 20
-77.8503067689
 30
0.0
 11
37.1120031895
 21
-77.8692404603
 31
0.0
  0
LINE
  5
583
330
1AB
100
AcDbEntity
  8
0
  6
Continuous
 62
     7
370
    25
100
AcDbLine
 10
57.1319547348
 20
-73.3980700755
 30
0.0
 11
57.3048141485
 21
-73.2958836896
 31
0.0
  0
LINE
  5
584
330
1AB
100
AcDbEntity
  8
0
  6
Continuous
 62
     7
370
    25
100
AcDbLine
 10
72.8871592393
 20
-37.3051508502
 30
0.0
 11
72.8433907077
 21
-37.1091744486
 31
0.0
  0
LINE
  5
585
330
1AB
100
AcDbEntity
  8
0
  6
Continuous
 62
     7
370
    25
100
AcDbLine
 10
26.7685588002
 20
-75.2114920609
 30
0.0
 11
26.952833537
 21
-75.2912746136
 31
0.0
  0
LINE
  5
586
330
1AB
100
AcDbEntity
  8
0
  6
Continuous
 62
     7
370
    25
100
AcDbLine
 10
7.4543132561
 20
-51.7128914421
 30
0.0
 11
7.4980817877
 21
-51.9088678437
 31
0.0
  0
LINE
  5
587
330
1AB
100
AcDbEntity
  8
0
  6
Continuous
 62
     7
370
    25
100
AcDbLine
 10
69.059785177
 20
-27.547802659
 30
0.0
 11
68.9575987912
 21
-27.3749432454
 31
0.0
  0
LINE
  5
588
330
1AB
100
AcDbEntity
  8
0
  6
Continuous
 62
     7
370
    25
100
AcDbLine
 10
65.2290206846
 20
-66.7428346221
 30
0.0
 11
65.3618424266
 21
-66.5922330976
 31
0.0
  0
LINE
  5
589
330
1AB
100
AcDbEntity
  8
0
  6
Continuous
 62
     7
370
    25
100
AcDbLine
 10
62.4045497237
 20
-19.4507367092
 30
0.0
 11
62.2539481991
 21
-19.3179149672
 31
0.0
  0
LINE
  5
58A
330
1AB
100
AcDbEntity
  8
0
  6
Continuous
 62
     7
370
    25
100
AcDbLine
 10
47.3746065437
 20
-77.2254441378
 30
0.0
 11
47.5705829452
 21
-77.1816756061
 31
0.0
  0
LINE
  5
58B
330
1AB
100
AcDbEntity
  8
0
  6
Continuous
 62
     7
370
    25
100
AcDbLine
 10
6.8294506249
 20
-41.2503782341
 30
0.0
 11
6.8105169336
 21
-41.450288088
 31
0.0
  0
LINE
  5
58C
330
1AB
100
AcDbEntity
  8
0
  6
Continuous
 62
     7
370
    25
100
AcDbLine
 10
9.4682653329
 20
-31.1068436986
 30
0.0
 11
9.3884827802
 21
-31.2911184354
 31
0.0
  0
LINE
  5
58D
330
1AB
100
AcDbEntity
  8
0
  6
Continuous
 62
     7
370
    25
100
AcDbLine
 10
73.5120218705
 20
-47.7676640582
 30
0.0
 11
73.5309555618
 21
-47.5677542043
 31
0.0
  0
LINE
  5
58E
330
1AB
100
AcDbEntity
  8
0
  6
Continuous
 62
     7
370
    25
100
AcDbLine
 10
32.9668659517
 20
-11.7925981545
 30
0.0
 11
32.7708895501
 21
-11.8363666862
 31
0.0
  0
LINE
  5
58F
330
1AB
100
AcDbEntity
  8
0
  6
Continuous
 62
     7
370
    25
100
AcDbLine
 10
53.5729136952
 20
-13.8065502314
 30
0.0
 11
53.3886389584
 21
-13.7267676786
 31
0.0
  0
LINE
  5
590
330
1AB
100
AcDbEntity
  8
0
  6
Continuous
 62
     7
370
    25
100
AcDbLine
 10
11.2816873184
 20
-61.4702396332
 30
0.0
 11
11.3838737042
 21
-61.6430990469
 31
0.0
  0
LINE
  5
591
330
1AB
100
AcDbEntity
  8
0
  6
Continuous
 62
     7
370
    25
100
AcDbLine
 10
43.4293791597
 20
-11.1677355233
 30
0.0
 11
43.2294693059
 21
-11.148801832
 31
0.0
  0
LINE
  5
592
330
1AB
100
AcDbEntity
  8
0
  6
Continuous
 62
     7
370
    25
100
AcDbLine
 10
17.9369227717
 20
-69.5673055831
 30
0.0
 11
18.0875242963
 21
-69.7001273251
 31
0.0
  0
LINE
  5
593
330
1AB
100
AcDbEntity
  8
0
  6
Continuous
 62
     7
370
    25
100
AcDbLine
 10
70.8732071625
 20
-57.9111985937
 30
0.0
 11
70.9529897152
 21
-57.7269238569
 31
0.0
  0
LINE
  5
594
330
1AB
100
AcDbEntity
  8
0
  6
Continuous
 62
     7
370
    25
100
AcDbLine
 10
23.2095177606
 20
-15.6199722168
 30
0.0
 11
23.0366583469
 21
-15.7221586026
 31
0.0
  0
LINE
  5
595
330
1AB
100
AcDbEntity
  8
0
  6
Continuous
 62
     7
370
    25
100
AcDbLine
 10
15.1124518107
 20
-22.2752076701
 30
0.0
 11
14.9796300688
 21
-22.4258091947
 31
0.0
  0
LINE
  5
596
330
1AB
100
AcDbEntity
  8
0
  6
Continuous
 62
     7
370
    25
100
AcDbLine
 10
27.1137004348
 20
-75.3609226402
 30
0.0
 11
27.5925205053
 21
-75.5682298825
 31
0.0
  0
LINE
  5
597
330
1AB
100
AcDbEntity
  8
0
  6
Continuous
 62
     7
370
    25
100
AcDbLine
 10
18.2189953839
 20
-69.8160771398
 30
0.0
 11
18.6103188711
 21
-70.1612015825
 31
0.0
  0
LINE
  5
598
330
1AB
100
AcDbEntity
  8
0
  6
Continuous
 62
     7
370
    25
100
AcDbLine
 10
73.547484166
 20
-47.3932382691
 30
0.0
 11
73.5966815307
 21
-46.8737918599
 31
0.0
  0
LINE
  5
599
330
1AB
100
AcDbEntity
  8
0
  6
Continuous
 62
     7
370
    25
100
AcDbLine
 10
11.4730796755
 20
-61.7940006741
 30
0.0
 11
11.73860111
 21
-62.2431591322
 31
0.0
  0
LINE
  5
59A
330
1AB
100
AcDbEntity
  8
0
  6
Continuous
 62
     7
370
    25
100
AcDbLine
 10
7.5362905407
 20
-52.0799499807
 30
0.0
 11
7.6500188346
 21
-52.5891756947
 31
0.0
  0
LINE
  5
59B
330
1AB
100
AcDbEntity
  8
0
  6
Continuous
 62
     7
370
    25
100
AcDbLine
 10
9.3188347536
 20
-31.4519853332
 30
0.0
 11
9.1115275113
 21
-31.9308054037
 31
0.0
  0
LINE
  5
59C
330
1AB
100
AcDbEntity
  8
0
  6
Continuous
 62
     7
370
    25
100
AcDbLine
 10
32.5998074131
 20
-11.8745754392
 30
0.0
 11
32.0905816991
 21
-11.988303733
 31
0.0
  0
LINE
  5
59D
330
1AB
100
AcDbEntity
  8
0
  6
Continuous
 62
     7
370
    25
100
AcDbLine
 10
71.0226377417
 20
-57.566056959
 30
0.0
 11
71.2299449841
 21
-57.0872368885
 31
0.0
  0
LINE
  5
59E
330
1AB
100
AcDbEntity
  8
0
  6
Continuous
 62
     7
370
    25
100
AcDbLine
 10
62.1224771115
 20
-19.2019651525
 30
0.0
 11
61.7311536243
 21
-18.8568407097
 31
0.0
  0
LINE
  5
59F
330
1AB
100
AcDbEntity
  8
0
  6
Continuous
 62
     7
370
    25
100
AcDbLine
 10
65.4777922414
 20
-66.4607620099
 30
0.0
 11
65.8229166841
 21
-66.0694385227
 31
0.0
  0
LINE
  5
5A0
330
1AB
100
AcDbEntity
  8
0
  6
Continuous
 62
     7
370
    25
100
AcDbLine
 10
37.2865191248
 20
-77.8857690645
 30
0.0
 11
37.8059655339
 21
-77.9349664292
 31
0.0
  0
LINE
  5
5A1
330
1AB
100
AcDbEntity
  8
0
  6
Continuous
 62
     7
370
    25
100
AcDbLine
 10
6.7939883293
 20
-41.6248040232
 30
0.0
 11
6.7447909647
 21
-42.1442504323
 31
0.0
  0
LINE
  5
5A2
330
1AB
100
AcDbEntity
  8
0
  6
Continuous
 62
     7
370
    25
100
AcDbLine
 10
14.863680254
 20
-22.5572802823
 30
0.0
 11
14.5185558113
 21
-22.9486037696
 31
0.0
  0
LINE
  5
5A3
330
1AB
100
AcDbEntity
  8
0
  6
Continuous
 62
     7
370
    25
100
AcDbLine
 10
47.7416650823
 20
-77.1434668531
 30
0.0
 11
48.2508907963
 21
-77.0297385593
 31
0.0
  0
LINE
  5
5A4
330
1AB
100
AcDbEntity
  8
0
  6
Continuous
 62
     7
370
    25
100
AcDbLine
 10
22.8857567197
 20
-15.811364574
 30
0.0
 11
22.4365982617
 21
-16.0768860085
 31
0.0
  0
LINE
  5
5A5
330
1AB
100
AcDbEntity
  8
0
  6
Continuous
 62
     7
370
    25
100
AcDbLine
 10
72.8051819546
 20
-36.9380923116
 30
0.0
 11
72.6914536608
 21
-36.4288665975
 31
0.0
  0
LINE
  5
5A6
330
1AB
100
AcDbEntity
  8
0
  6
Continuous
 62
     7
370
    25
100
AcDbLine
 10
68.8683928199
 20
-27.2240416181
 30
0.0
 11
68.6028713853
 21
-26.7748831601
 31
0.0
  0
LINE
  5
5A7
330
1AB
100
AcDbEntity
  8
0
  6
Continuous
 62
     7
370
    25
100
AcDbLine
 10
43.0549533706
 20
-11.1322732278
 30
0.0
 11
42.5355069615
 21
-11.0830758631
 31
0.0
  0
LINE
  5
5A8
330
1AB
100
AcDbEntity
  8
0
  6
Continuous
 62
     7
370
    25
100
AcDbLine
 10
53.2277720606
 20
-13.6571196521
 30
0.0
 11
52.7489519901
 21
-13.4498124098
 31
0.0
  0
LINE
  5
5A9
330
1AB
100
AcDbEntity
  8
0
  6
Continuous
 62
     7
370
    25
100
AcDbLine
 10
57.4557157757
 20
-73.2066777183
 30
0.0
 11
57.9048742337
 21
-72.9411562838
 31
0.0
  0
LINE
  5
5AA
330
1AB
100
AcDbEntity
  8
0
  6
Continuous
 62
     7
370
    25
100
AcDbLine
 10
9.7452206018
 20
-30.4671567303
 30
0.0
 11
9.5379133594
 21
-30.9459768008
 31
0.0
  0
LINE
  5
5AB
330
1AB
100
AcDbEntity
  8
0
  6
Continuous
 62
     7
370
    25
100
AcDbLine
 10
54.2126006636
 20
-14.0835055002
 30
0.0
 11
53.7337805931
 21
-13.8761982579
 31
0.0
  0
LINE
  5
5AC
330
1AB
100
AcDbEntity
  8
0
  6
Continuous
 62
     7
370
    25
100
AcDbLine
 10
69.4145125829
 20
-28.1478627443
 30
0.0
 11
69.1489911484
 21
-27.6987042863
 31
0.0
  0
LINE
  5
5AD
330
1AB
100
AcDbEntity
  8
0
  6
Continuous
 62
     7
370
    25
100
AcDbLine
 10
6.8951765938
 20
-40.5564158897
 30
0.0
 11
6.8459792291
 21
-41.0758622988
 31
0.0
  0
LINE
  5
5AE
330
1AB
100
AcDbEntity
  8
0
  6
Continuous
 62
     7
370
    25
100
AcDbLine
 10
73.0390962862
 20
-37.9854587012
 30
0.0
 11
72.9253679924
 21
-37.4762329872
 31
0.0
  0
LINE
  5
5AF
330
1AB
100
AcDbEntity
  8
0
  6
Continuous
 62
     7
370
    25
100
AcDbLine
 10
26.1288718318
 20
-74.934536792
 30
0.0
 11
26.6076919023
 21
-75.1418440344
 31
0.0
  0
LINE
  5
5B0
330
1AB
100
AcDbEntity
  8
0
  6
Continuous
 62
     7
370
    25
100
AcDbLine
 10
36.2181309913
 20
-77.7845808
 30
0.0
 11
36.7375774004
 21
-77.8337781647
 31
0.0
  0
LINE
  5
5B1
330
1AB
100
AcDbEntity
  8
0
  6
Continuous
 62
     7
370
    25
100
AcDbLine
 10
33.6471738028
 20
-11.6406611076
 30
0.0
 11
33.1379480888
 21
-11.7543894015
 31
0.0
  0
LINE
  5
5B2
330
1AB
100
AcDbEntity
  8
0
  6
Continuous
 62
     7
370
    25
100
AcDbLine
 10
62.9273442985
 20
-19.9118109667
 30
0.0
 11
62.5360208113
 21
-19.5666865239
 31
0.0
  0
LINE
  5
5B3
330
1AB
100
AcDbEntity
  8
0
  6
Continuous
 62
     7
370
    25
100
AcDbLine
 10
56.5318946495
 20
-73.7527974813
 30
0.0
 11
56.9810531076
 21
-73.4872760468
 31
0.0
  0
LINE
  5
5B4
330
1AB
100
AcDbEntity
  8
0
  6
Continuous
 62
     7
370
    25
100
AcDbLine
 10
46.6942986926
 20
-77.3773811846
 30
0.0
 11
47.2035244066
 21
-77.2636528908
 31
0.0
  0
LINE
  5
5B5
330
1AB
100
AcDbEntity
  8
0
  6
Continuous
 62
     7
370
    25
100
AcDbLine
 10
10.9269599125
 20
-60.870179548
 30
0.0
 11
11.192481347
 21
-61.319338006
 31
0.0
  0
LINE
  5
5B6
330
1AB
100
AcDbEntity
  8
0
  6
Continuous
 62
     7
370
    25
100
AcDbLine
 10
64.7679464272
 20
-67.265629197
 30
0.0
 11
65.1130708699
 21
-66.8743057098
 31
0.0
  0
LINE
  5
5B7
330
1AB
100
AcDbEntity
  8
0
  6
Continuous
 62
     7
370
    25
100
AcDbLine
 10
44.1233415041
 20
-11.2334614922
 30
0.0
 11
43.603895095
 21
-11.1842641276
 31
0.0
  0
LINE
  5
5B8
330
1AB
100
AcDbEntity
  8
0
  6
Continuous
 62
     7
370
    25
100
AcDbLine
 10
7.3023762092
 20
-51.0325835911
 30
0.0
 11
7.416104503
 21
-51.5418093051
 31
0.0
  0
LINE
  5
5B9
330
1AB
100
AcDbEntity
  8
0
  6
Continuous
 62
     7
370
    25
100
AcDbLine
 10
15.5735260682
 20
-21.7524130953
 30
0.0
 11
15.2284016255
 21
-22.1437365825
 31
0.0
  0
LINE
  5
5BA
330
1AB
100
AcDbEntity
  8
0
  6
Continuous
 62
     7
370
    25
100
AcDbLine
 10
73.4462959016
 20
-48.4616264026
 30
0.0
 11
73.4954932663
 21
-47.9421799935
 31
0.0
  0
LINE
  5
5BB
330
1AB
100
AcDbEntity
  8
0
  6
Continuous
 62
     7
370
    25
100
AcDbLine
 10
17.4141281968
 20
-69.1062313256
 30
0.0
 11
17.8054516841
 21
-69.4513557683
 31
0.0
  0
LINE
  5
5BC
330
1AB
100
AcDbEntity
  8
0
  6
Continuous
 62
     7
370
    25
100
AcDbLine
 10
70.5962518936
 20
-58.550885562
 30
0.0
 11
70.8035591359
 21
-58.0720654915
 31
0.0
  0
LINE
  5
5BD
330
1AB
100
AcDbEntity
  8
0
  6
Continuous
 62
     7
370
    25
100
AcDbLine
 10
23.8095778459
 20
-15.2652448109
 30
0.0
 11
23.3604193878
 21
-15.5307662455
 31
0.0
  0
LINE
  5
5BE
330
1AB
100
AcDbEntity
  8
0
  6
Continuous
 62
     7
370
    25
100
AcDbLine
 10
66.1707362477
 20
-120.0090211461
 30
0.0
 11
14.1707362477
 21
-120.0090211461
 31
0.0
  0
LINE
  5
5BF
330
1AB
100
AcDbEntity
  8
0
  6
Continuous
 62
     7
370
    25
100
AcDbLine
 10
66.1707362477
 20
-130.0090211461
 30
0.0
 11
14.1707362477
 21
-130.0090211461
 31
0.0
  0
LINE
  5
5C0
330
1AB
100
AcDbEntity
  8
0
  6
Continuous
 62
     8
370
    25
100
AcDbLine
 10
35.286724972
 20
-21.0112247844
 30
0.0
 11
35.0368021614
 21
-21.0645608026
 31
0.0
  0
LINE
  5
5C1
330
1AB
100
AcDbEntity
  8
0
  6
Continuous
 62
     8
370
    25
100
AcDbLine
 10
34.8416116161
 20
-21.1081572591
 30
0.0
 11
34.5935286043
 21
-21.1660402974
 31
0.0
  0
LINE
  5
5C2
330
1AB
100
AcDbEntity
  8
0
  6
Continuous
 62
     8
370
    25
100
AcDbLine
 10
28.2645470922
 20
-23.6705312826
 30
0.0
 11
28.0433381106
 21
-23.7984872461
 31
0.0
  0
LINE
  5
5C3
330
1AB
100
AcDbEntity
  8
0
  6
Continuous
 62
     8
370
    25
100
AcDbLine
 10
27.8711729165
 20
-23.9002671357
 30
0.0
 11
27.6531187941
 21
-24.0319790432
 31
0.0
  0
LINE
  5
5C4
330
1AB
100
AcDbEntity
  8
0
  6
Continuous
 62
     8
370
    25
100
AcDbLine
 10
22.4078299621
 20
-28.369654359
 30
0.0
 11
22.236988286
 21
-28.5597050464
 31
0.0
  0
LINE
  5
5C5
330
1AB
100
AcDbEntity
  8
0
  6
Continuous
 62
     8
370
    25
100
AcDbLine
 10
22.1047011719
 20
-28.7097054445
 30
0.0
 11
21.9380205956
 21
-28.9023533419
 31
0.0
  0
LINE
  5
5C6
330
1AB
100
AcDbEntity
  8
0
  6
Continuous
 62
     8
370
    25
100
AcDbLine
 10
18.2898698608
 20
-34.6486111061
 30
0.0
 11
18.1861186637
 21
-34.8821530321
 31
0.0
  0
LINE
  5
5C7
330
1AB
100
AcDbEntity
  8
0
  6
Continuous
 62
     8
370
    25
100
AcDbLine
 10
18.1066588139
 20
-35.0656908545
 30
0.0
 11
18.00766764
 21
-35.3004170234
 31
0.0
  0
LINE
  5
5C8
330
1AB
100
AcDbEntity
  8
0
  6
Continuous
 62
     8
370
    25
100
AcDbLine
 10
16.3137614144
 20
-41.8927734894
 30
0.0
 11
16.2872565863
 21
-42.146945943
 31
0.0
  0
LINE
  5
5C9
330
1AB
100
AcDbEntity
  8
0
  6
Continuous
 62
     8
370
    25
100
AcDbLine
 10
16.2684020847
 20
-42.346055229
 30
0.0
 11
16.2467902588
 21
-42.5998830365
 31
0.0
  0
LINE
  5
5CA
330
1AB
100
AcDbEntity
  8
0
  6
Continuous
 62
     8
370
    25
100
AcDbLine
 10
16.6729398859
 20
-49.3930324218
 30
0.0
 11
16.7262759042
 21
-49.6429552324
 31
0.0
  0
LINE
  5
5CB
330
1AB
100
AcDbEntity
  8
0
  6
Continuous
 62
     8
370
    25
100
AcDbLine
 10
16.7698723606
 20
-49.8381457778
 30
0.0
 11
16.827755399
 21
-50.0862287895
 31
0.0
  0
LINE
  5
5CC
330
1AB
100
AcDbEntity
  8
0
  6
Continuous
 62
     8
370
    25
100
AcDbLine
 10
19.5619822373
 20
-56.8085844773
 30
0.0
 11
19.6936941448
 21
-57.0266385997
 31
0.0
  0
LINE
  5
5CD
330
1AB
100
AcDbEntity
  8
0
  6
Continuous
 62
     8
370
    25
100
AcDbLine
 10
24.0313694605
 20
-62.2719274317
 30
0.0
 11
24.221420148
 21
-62.4427691078
 31
0.0
  0
LINE
  5
5CE
330
1AB
100
AcDbEntity
  8
0
  6
Continuous
 62
     8
370
    25
100
AcDbLine
 10
30.3103262076
 20
-66.389887533
 30
0.0
 11
30.5438681336
 21
-66.4936387301
 31
0.0
  0
LINE
  5
5CF
330
1AB
100
AcDbEntity
  8
0
  6
Continuous
 62
     8
370
    25
100
AcDbLine
 10
30.7274059561
 20
-66.5730985799
 30
0.0
 11
30.962132125
 21
-66.6720897539
 31
0.0
  0
LINE
  5
5D0
330
1AB
100
AcDbEntity
  8
0
  6
Continuous
 62
     8
370
    25
100
AcDbLine
 10
37.5544885909
 20
-68.3659959795
 30
0.0
 11
37.8086610446
 21
-68.3925008075
 31
0.0
  0
LINE
  5
5D1
330
1AB
100
AcDbEntity
  8
0
  6
Continuous
 62
     8
370
    25
100
AcDbLine
 10
38.0077703306
 20
-68.4113553092
 30
0.0
 11
38.2615981381
 21
-68.432967135
 31
0.0
  0
LINE
  5
5D2
330
1AB
100
AcDbEntity
  8
0
  6
Continuous
 62
     8
370
    25
100
AcDbLine
 10
45.0547475234
 20
-68.0068175079
 30
0.0
 11
45.304670334
 21
-67.9534814896
 31
0.0
  0
LINE
  5
5D3
330
1AB
100
AcDbEntity
  8
0
  6
Continuous
 62
     8
370
    25
100
AcDbLine
 10
45.4998608793
 20
-67.9098850332
 30
0.0
 11
45.7479438911
 21
-67.8520019948
 31
0.0
  0
LINE
  5
5D4
330
1AB
100
AcDbEntity
  8
0
  6
Continuous
 62
     8
370
    25
100
AcDbLine
 10
52.0769254032
 20
-65.3475110097
 30
0.0
 11
52.2981343848
 21
-65.2195550462
 31
0.0
  0
LINE
  5
5D5
330
1AB
100
AcDbEntity
  8
0
  6
Continuous
 62
     8
370
    25
100
AcDbLine
 10
52.4702995789
 20
-65.1177751565
 30
0.0
 11
52.6883537013
 21
-64.9860632491
 31
0.0
  0
LINE
  5
5D6
330
1AB
100
AcDbEntity
  8
0
  6
Continuous
 62
     8
370
    25
100
AcDbLine
 10
57.9336425333
 20
-60.6483879333
 30
0.0
 11
58.1044842093
 21
-60.4583372458
 31
0.0
  0
LINE
  5
5D7
330
1AB
100
AcDbEntity
  8
0
  6
Continuous
 62
     8
370
    25
100
AcDbLine
 10
58.2367713235
 20
-60.3083368477
 30
0.0
 11
58.4034518998
 21
-60.1156889503
 31
0.0
  0
LINE
  5
5D8
330
1AB
100
AcDbEntity
  8
0
  6
Continuous
 62
     8
370
    25
100
AcDbLine
 10
62.2348136815
 20
-53.9523514377
 30
0.0
 11
62.3338048554
 21
-53.7176252689
 31
0.0
  0
LINE
  5
5D9
330
1AB
100
AcDbEntity
  8
0
  6
Continuous
 62
     8
370
    25
100
AcDbLine
 10
64.027711081
 20
-47.1252688029
 30
0.0
 11
64.0542159091
 21
-46.8710963493
 31
0.0
  0
LINE
  5
5DA
330
1AB
100
AcDbEntity
  8
0
  6
Continuous
 62
     8
370
    25
100
AcDbLine
 10
63.6685326095
 20
-39.6250098705
 30
0.0
 11
63.6151965912
 21
-39.3750870599
 31
0.0
  0
LINE
  5
5DB
330
1AB
100
AcDbEntity
  8
0
  6
Continuous
 62
     8
370
    25
100
AcDbLine
 10
63.5716001347
 20
-39.1798965145
 30
0.0
 11
63.5137170964
 21
-38.9318135027
 31
0.0
  0
LINE
  5
5DC
330
1AB
100
AcDbEntity
  8
0
  6
Continuous
 62
     8
370
    25
100
AcDbLine
 10
61.0092261112
 20
-32.6028319906
 30
0.0
 11
60.8812701477
 21
-32.3816230091
 31
0.0
  0
LINE
  5
5DD
330
1AB
100
AcDbEntity
  8
0
  6
Continuous
 62
     8
370
    25
100
AcDbLine
 10
60.7794902581
 20
-32.2094578149
 30
0.0
 11
60.6477783506
 21
-31.9914036925
 31
0.0
  0
LINE
  5
5DE
330
1AB
100
AcDbEntity
  8
0
  6
Continuous
 62
     8
370
    25
100
AcDbLine
 10
56.3101030348
 20
-26.7461148606
 30
0.0
 11
56.1200523474
 21
-26.5752731845
 31
0.0
  0
LINE
  5
5DF
330
1AB
100
AcDbEntity
  8
0
  6
Continuous
 62
     8
370
    25
100
AcDbLine
 10
55.9700519493
 20
-26.4429860703
 30
0.0
 11
55.7774040519
 21
-26.2763054941
 31
0.0
  0
LINE
  5
5E0
330
1AB
100
AcDbEntity
  8
0
  6
Continuous
 62
     8
370
    25
100
AcDbLine
 10
50.0311462878
 20
-22.6281547592
 30
0.0
 11
49.7976043618
 21
-22.5244035622
 31
0.0
  0
LINE
  5
5E1
330
1AB
100
AcDbEntity
  8
0
  6
Continuous
 62
     8
370
    25
100
AcDbLine
 10
49.6140665393
 20
-22.4449437124
 30
0.0
 11
49.3793403704
 21
-22.3459525384
 31
0.0
  0
LINE
  5
5E2
330
1AB
100
AcDbEntity
  8
0
  6
Continuous
 62
     8
370
    25
100
AcDbLine
 10
42.7869839044
 20
-20.6520463128
 30
0.0
 11
42.5328114508
 21
-20.6255414848
 31
0.0
  0
LINE
  5
5E3
330
1AB
100
AcDbEntity
  8
0
  6
Continuous
 62
     8
370
    25
100
AcDbLine
 10
42.3337021648
 20
-20.6066869831
 30
0.0
 11
42.0798743573
 21
-20.5850751573
 31
0.0
  0
LINE
  5
5E4
330
1AB
100
AcDbEntity
  8
0
  6
Continuous
 62
     8
370
    25
100
AcDbLine
 10
41.6385100269
 20
-20.5539456895
 30
0.0
 11
40.1707362477
 21
-20.5090211461
 31
0.0
  0
ARC
  5
5E5
330
1AB
100
AcDbEntity
  8
0
  6
Continuous
 62
     8
370
    25
100
AcDbCircle
 10
40.1707362477
 20
-44.5090211461
 30
0.0
 40
23.99999999999996
100
AcDbArc
 50
104.493760217
 51
118.6863806467
  0
ARC
  5
5E6
330
1AB
100
AcDbEntity
  8
0
  6
Continuous
 62
     8
370
    25
100
AcDbCircle
 10
40.1707362477
 20
-44.5090211461
 30
0.0
 40
23.99999999999974
100
AcDbArc
 50
122.493760217
 51
136.6863806467
  0
ARC
  5
5E7
330
1AB
100
AcDbEntity
  8
0
  6
Continuous
 62
     8
370
    25
100
AcDbCircle
 10
40.1707362477
 20
-44.5090211461
 30
0.0
 40
23.99999999997968
100
AcDbArc
 50
140.493760217
 51
154.6863806467
  0
ARC
  5
5E8
330
1AB
100
AcDbEntity
  8
0
  6
Continuous
 62
     8
370
    25
100
AcDbCircle
 10
40.1707362477
 20
-44.5090211461
 30
0.0
 40
23.99999999999855
100
AcDbArc
 50
158.493760217
 51
172.6863806467
  0
ARC
  5
5E9
330
1AB
100
AcDbEntity
  8
0
  6
Continuous
 62
     8
370
    25
100
AcDbCircle
 10
40.1707362477
 20
-44.5090211461
 30
0.0
 40
23.99999999999831
100
AcDbArc
 50
176.493760217
 51
190.6863806467
  0
ARC
  5
5EA
330
1AB
100
AcDbEntity
  8
0
  6
Continuous
 62
     8
370
    25
100
AcDbCircle
 10
40.1707362477
 20
-44.5090211461
 30
0.0
 40
23.99999999999848
100
AcDbArc
 50
194.493760217
 51
208.6863806467
  0
ARC
  5
5EB
330
1AB
100
AcDbEntity
  8
0
  6
Continuous
 62
     8
370
    25
100
AcDbCircle
 10
40.1707362477
 20
-44.5090211461
 30
0.0
 40
23.99999999999825
100
AcDbArc
 50
212.493760217
 51
226.6863806467
  0
ARC
  5
5EC
330
1AB
100
AcDbEntity
  8
0
  6
Continuous
 62
     8
370
    25
100
AcDbCircle
 10
40.1707362477
 20
-44.5090211461
 30
0.0
 40
23.99999999999729
100
AcDbArc
 50
230.493760217
 51
244.6863806467
  0
ARC
  5
5ED
330
1AB
100
AcDbEntity
  8
0
  6
Continuous
 62
     8
370
    25
100
AcDbCircle
 10
40.1707362477
 20
-44.5090211461
 30
0.0
 40
23.99999999999837
100
AcDbArc
 50
248.493760217
 51
262.6863806467
  0
ARC
  5
5EE
330
1AB
100
AcDbEntity
  8
0
  6
Continuous
 62
     8
370
    25
100
AcDbCircle
 10
40.1707362477
 20
-44.5090211462
 30
0.0
 40
23.99999999998553
100
AcDbArc
 50
266.493760217
 51
280.6863806467
  0
ARC
  5
5EF
330
1AB
100
AcDbEntity
  8
0
  6
Continuous
 62
     8
370
    25
100
AcDbCircle
 10
40.1707362477
 20
-44.5090211462
 30
0.0
 40
23.99999999998741
100
AcDbArc
 50
284.493760217
 51
298.6863806467
  0
ARC
  5
5F0
330
1AB
100
AcDbEntity
  8
0
  6
Continuous
 62
     8
370
    25
100
AcDbCircle
 10
40.1707362477
 20
-44.5090211461
 30
0.0
 40
23.99999999999419
100
AcDbArc
 50
302.493760217
 51
316.6863806467
  0
ARC
  5
5F1
330
1AB
100
AcDbEntity
  8
0
  6
Continuous
 62
     8
370
    25
100
AcDbCircle
 10
40.1707362477
 20
-44.5090211461
 30
0.0
 40
23.99999999999472
100
AcDbArc
 50
320.493760217
 51
334.6863806467
  0
ARC
  5
5F2
330
1AB
100
AcDbEntity
  8
0
  6
Continuous
 62
     8
370
    25
100
AcDbCircle
 10
40.1707362477
 20
-44.5090211461
 30
0.0
 40
23.99999999999413
100
AcDbArc
 50
338.493760217
 51
352.6863806467
  0
ARC
  5
5F3
330
1AB
100
AcDbEntity
  8
0
  6
Continuous
 62
     8
370
    25
100
AcDbCircle
 10
40.1707362477
 20
-44.5090211461
 30
0.0
 40
23.99999999999539
100
AcDbArc
 50
356.493760217
 51
10.6863806467
  0
ARC
  5
5F4
330
1AB
100
AcDbEntity
  8
0
  6
Continuous
 62
     8
370
    25
100
AcDbCircle
 10
40.1707362477
 20
-44.5090211461
 30
0.0
 40
23.99999999998998
100
AcDbArc
 50
14.493760217
 51
28.6863806467
  0
ARC
  5
5F5
330
1AB
100
AcDbEntity
  8
0
  6
Continuous
 62
     8
370
    25
100
AcDbCircle
 10
40.1707362477
 20
-44.5090211461
 30
0.0
 40
23.99999999997742
100
AcDbArc
 50
32.493760217
 51
46.6863806467
  0
ARC
  5
5F6
330
1AB
100
AcDbEntity
  8
0
  6
Continuous
 62
     8
370
    25
100
AcDbCircle
 10
40.1707362477
 20
-44.5090211461
 30
0.0
 40
23.9999999999896
100
AcDbArc
 50
50.493760217
 51
64.6863806467
  0
ARC
  5
5F7
330
1AB
100
AcDbEntity
  8
0
  6
Continuous
 62
     8
370
    25
100
AcDbCircle
 10
40.1707362477
 20
-44.5090211461
 30
0.0
 40
23.99999999999212
100
AcDbArc
 50
68.493760217
 51
82.6863806467
  0
VIEWPORT
  5
619
330
1AB
100
AcDbEntity
  8
0
100
AcDbViewport
 10
0.0
 20
0.0
 30
0.0
 40
205.6
 41
156.0
 68
     1
 69
     1
 12
40.1707362477
 22
-14.6549848092
 13
0.0
 23
0.0
 14
10.0
 24
10.0
 15
10.0
 25
10.0
 16
0.0
 26
0.0
 36
1.0
 17
0.0
 27
0.0
 37
0.0
 42
50.0
 43
0.0
 44
0.0
 45
389.9301331777
 50
0.0
 51
0.0
 72
   100
 90
   557152
  1

281
     0
 71
     1
 74
     0
110
0.0
120
0.0
130
0.0
111
1.0
121
0.0
131
0.0
112
0.0
122
1.0
132
0.0
 79
     0
146
0.0
  0
ENDBLK
  5
1AE
330
1AB
100
AcDbEntity
  8
0
100
AcDbBlockEnd
  0
BLOCK
  5
5FA
330
5F8
100
AcDbEntity
  8
0
100
AcDbBlockBegin
  2
*Paper_Space2
 70
     0
 10
0.0
 20
0.0
 30
0.0
  3
*Paper_Space2
  1

  0
CIRCLE
  5
602
330
5F8
100
AcDbEntity
  8
0
  6
Continuous
 62
     7
370
    25
100
AcDbCircle
 10
40.1707362477
 20
44.5090211461
 30
0.0
 40
38.99999999999998
  0
CIRCLE
  5
603
330
5F8
100
AcDbEntity
  8
0
  6
Continuous
 62
     7
370
    25
100
AcDbCircle
 10
40.1707362477
 20
44.5090211461
 30
0.0
 40
29.0
  0
SPLINE
  5
604
330
5F8
100
AcDbEntity
  8
0
  6
Continuous
 62
     7
370
    25
100
AcDbSpline
210
0.0
220
0.0
230
1.0
 70
    11
 71
     3
 72
    58
 73
    54
 74
     0
 42
0.000000001
 43
0.00000001
 40
0.0
 40
0.0
 40
0.0
 40
0.0
 40
0.0312500000000005
 40
0.0312500000000005
 40
0.0625000000000009
 40
0.0625000000000009
 40
0.0937500000000014
 40
0.0937500000000014
 40
0.1250000000000018
 40
0.1250000000000018
 40
0.1875000000000015
 40
0.1875000000000015
 40
0.2500000000000013
 40
0.2500000000000013
 40
0.2812499999999978
 40
0.2812499999999978
 40
0.3124999999999944
 40
0.3124999999999944
 40
0.343749999999994
 40
0.343749999999994
 40
0.3749999999999936
 40
0.3749999999999936
 40
0.4062499999999933
 40
0.4062499999999933
 40
0.4374999999999929
 40
0.4374999999999929
 40
0.4687499999999925
 40
0.4687499999999925
 40
0.4999999999999921
 40
0.4999999999999921
 40
0.5624999999999897
 40
0.5624999999999897
 40
0.6249999999999872
 40
0.6249999999999872
 40
0.656249999999986
 40
0.656249999999986
 40
0.6874999999999848
 40
0.6874999999999848
 40
0.7187499999999866
 40
0.7187499999999866
 40
0.7499999999999883
 40
0.7499999999999883
 40
0.7812499999999902
 40
0.7812499999999902
 40
0.812499999999992
 40
0.812499999999992
 40
0.8437499999999938
 40
0.8437499999999938
 40
0.8749999999999956
 40
0.8749999999999956
 40
0.9374999999999978
 40
0.9374999999999978
 40
1.0
 40
1.0
 40
1.0
 40
1.0
 10
40.17073624769106
 20
127.868267713953
 30
0.0
 10
40.30291816502429
 20
127.868267713953
 30
0.0
 10
40.4328815017689
 20
127.8552926447796
 30
0.0
 10
40.68855545153195
 20
127.8044628182995
 30
0.0
 10
40.81559418252652
 20
127.7659877347043
 30
0.0
 10
41.0577743903245
 20
127.6655841487507
 30
0.0
 10
41.17262964442759
 20
127.6041501557078
 30
0.0
 10
41.38999783952494
 20
127.459015777191
 30
0.0
 10
41.49287782582183
 20
127.3745711586024
 30
0.0
 10
41.76950577836521
 20
127.0978894719444
 30
0.0
 10
41.91849913255734
 20
126.8748370291974
 30
0.0
 10
42.11802034650811
 20
126.393569081362
 30
0.0
 10
42.17059497666904
 20
126.1303168127934
 30
0.0
 10
42.17080644545381
 20
125.7388638092999
 30
0.0
 10
42.15781653284732
 20
125.6063202982618
 30
0.0
 10
42.1067821622616
 20
125.3497788279403
 30
0.0
 10
42.06902191610779
 20
125.2250847919207
 30
0.0
 10
41.96886670534155
 20
124.9828866618743
 30
0.0
 10
41.90626727371605
 20
124.8658171125275
 30
0.0
 10
41.7615429966959
 20
124.6491249668087
 30
0.0
 10
41.67891823759477
 20
124.5481100156948
 30
0.0
 10
41.49230100553672
 20
124.3613185264352
 30
0.0
 10
41.39123899334534
 20
124.278506602462
 30
0.0
 10
41.17472276861709
 20
124.1336269991196
 30
0.0
 10
41.05783726188146
 20
124.0709788938505
 30
0.0
 10
40.81557163489207
 20
123.9705367963421
 30
0.0
 10
40.6909087131171
 20
123.9326794032102
 30
0.0
 10
40.43458656159951
 20
123.8814449955602
 30
0.0
 10
40.30200181955022
 20
123.8683150727159
 30
0.0
 10
39.91037580171503
 20
123.8681733890879
 30
0.0
 10
39.64717260836454
 20
123.9205110198408
 30
0.0
 10
39.16566577957909
 20
124.1196372847276
 30
0.0
 10
38.94245481405929
 20
124.2684795637367
 30
0.0
 10
38.66560671936112
 20
124.5447933264435
 30
0.0
 10
38.58109422961351
 20
124.6475586213791
 30
0.0
 10
38.43570779696209
 20
124.8648890668355
 30
0.0
 10
38.37419324338785
 20
124.9796783603771
 30
0.0
 10
38.27364254771454
 20
125.2215890463686
 30
0.0
 10
38.23500248482352
 20
125.3487215504782
 30
0.0
 10
38.18393936992002
 20
125.6043897437356
 30
0.0
 10
38.17086685241917
 20
125.7342789621676
 30
0.0
 10
38.17060757137445
 20
125.9983287070526
 30
0.0
 10
38.18348383710656
 20
126.1286733399796
 30
0.0
 10
38.23407999360492
 20
126.3843547094773
 30
0.0
 10
38.27237949920621
 20
126.5112700946555
 30
0.0
 10
38.37263834818586
 20
126.753736149247
 30
0.0
 10
38.43399035451389
 20
126.8686548192413
 30
0.0
 10
38.57885451451668
 20
127.0860415868377
 30
0.0
 10
38.66322142172861
 20
127.1890329174714
 30
0.0
 10
38.93976461165559
 20
127.4660147291473
 30
0.0
 10
39.16262620193998
 20
127.6151436244305
 30
0.0
 10
39.64373460677601
 20
127.8150934846432
 30
0.0
 10
39.90637241302458
 20
127.8682677139531
 30
0.0
 10
40.17073624769105
 20
127.868267713953
 30
0.0
  0
CIRCLE
  5
607
330
5F8
100
AcDbEntity
  8
0
  6
Continuous
 62
     7
370
    25
100
AcDbCircle
 10
40.1707362477
 20
44.5090211461
 30
0.0
 40
47.50000000000005
  0
CIRCLE
  5
608
330
5F8
100
AcDbEntity
  8
0
  6
Continuous
 62
     7
370
    25
100
AcDbCircle
 10
40.1707362477
 20
44.5090211461
 30
0.0
 40
43.49999999999997
  0
CIRCLE
  5
609
330
5F8
100
AcDbEntity
  8
0
  6
Continuous
 62
     7
370
    25
100
AcDbCircle
 10
40.1707362477
 20
44.5090211461
 30
0.0
 40
42.99999999999991
  0
LINE
  5
60C
330
5F8
100
AcDbEntity
  8
0
  6
Continuous
 62
     7
370
    25
100
AcDbLine
 10
66.1707362477
 20
120.0090211461
 30
0.0
 11
66.1707362477
 21
130.0090211461
 31
0.0
  0
LINE
  5
60D
330
5F8
100
AcDbEntity
  8
0
  6
Continuous
 62
     7
370
    25
100
AcDbLine
 10
14.1707362477
 20
130.0090211461
 30
0.0
 11
14.1707362477
 21
120.0090211461
 31
0.0
  0
LINE
  5
60E
330
5F8
100
AcDbEntity
  8
0
  6
Continuous
 62
     7
370
    25
100
AcDbLine
 10
30.6707362477
 20
120.0090211461
 30
0.0
 11
30.6707362477
 21
91.0743196886
 31
0.0
  0
LINE
  5
60F
330
5F8
100
AcDbEntity
  8
0
  6
Continuous
 62
     7
370
    25
100
AcDbLine
 10
49.6707362477
 20
91.049326259
 30
0.0
 11
49.6707362477
 21
120.0090211461
 31
0.0
  0
LINE
  5
610
330
5F8
100
AcDbEntity
  8
0
  6
Continuous
 62
     7
370
    25
100
AcDbLine
 10
14.1707362477
 20
130.0090211461
 30
0.0
 11
66.1707362477
 21
130.0090211461
 31
0.0
  0
LINE
  5
611
330
5F8
100
AcDbEntity
  8
0
  6
Continuous
 62
     7
370
    25
100
AcDbLine
 10
14.1707362477
 20
120.0090211461
 30
0.0
 11
66.1707362477
 21
120.0090211461
 31
0.0
  0
LINE
  5
612
330
5F8
100
AcDbEntity
  8
0
  6
Continuous
 62
     8
370
    25
100
AcDbLine
 10
41.8966825258
 20
126.8542576696
 30
0.0
 11
38.4629978121
 21
126.8542576696
 31
0.0
  0
ARC
  5
613
330
5F8
100
AcDbEntity
  8
0
  6
Continuous
 62
     7
370
    25
100
AcDbCircle
 10
40.1707362477
 20
44.5090211461
 30
0.0
 40
57.47655094206556
100
AcDbArc
 50
99.5137792443
 51
80.4862207557
  0
ARC
  5
614
330
5F8
100
AcDbEntity
  8
0
  6
Continuous
 62
     8
370
    25
100
AcDbCircle
 10
40.1707362477
 20
44.5090211461
 30
0.0
 40
57.47531678112156
100
AcDbArc
 50
99.5139854311
 51
80.4860145689
  0
VIEWPORT
  5
61B
330
5F8
100
AcDbEntity
  8
0
100
AcDbViewport
 10
0.0
 20
0.0
 30
0.0
 40
205.6
 41
156.0
 68
     1
 69
     1
 12
40.1707362477
 22
-14.6549848092
 13
0.0
 23
0.0
 14
10.0
 24
10.0
 15
10.0
 25
10.0
 16
0.0
 26
0.0
 36
1.0
 17
0.0
 27
0.0
 37
0.0
 42
50.0
 43
0.0
 44
0.0
 45
389.9301331777
 50
0.0
 51
0.0
 72
   100
 90
   557152
  1

281
     0
 71
     1
 74
     0
110
0.0
120
0.0
130
0.0
111
1.0
121
0.0
131
0.0
112
0.0
122
1.0
132
0.0
 79
     0
146
0.0
  0
ENDBLK
  5
5FB
330
5F8
100
AcDbEntity
  8
0
100
AcDbBlockEnd
  0
ENDSEC
  0
SECTION
  2
ENTITIES
  0
CIRCLE
  5
BB
330
1F
100
AcDbEntity
  8
0
  6
Continuous
 62
     7
370
    25
100
AcDbCircle
 10
40.1707362477
 20
-127.3535362799
 30
0.0
 40
25.99999999999991
  0
LINE
  5
D2
330
1F
100
AcDbEntity
  8
0
  6
Continuous
 62
     7
370
    25
100
AcDbLine
 10
79.1707362477
 20
-195.7972069551
 30
0.0
 11
79.1707362477
 21
-138.8535362799
 31
0.0
  0
LINE
  5
D3
330
1F
100
AcDbEntity
  8
0
  6
Continuous
 62
     7
370
    25
100
AcDbLine
 10
79.1707362477
 20
-115.8535362799
 30
0.0
 11
79.1707362477
 21
-115.7972069551
 31
0.0
  0
LINE
  5
D4
330
1F
100
AcDbEntity
  8
0
  6
Continuous
 62
     7
370
    25
100
AcDbLine
 10
1.1707362477
 20
-115.7972069551
 30
0.0
 11
1.1707362477
 21
-115.8535362799
 31
0.0
  0
LINE
  5
D5
330
1F
100
AcDbEntity
  8
0
  6
Continuous
 62
     7
370
    25
100
AcDbLine
 10
1.1707362477
 20
-138.8535362799
 30
0.0
 11
1.1707362477
 21
-195.7972069551
 31
0.0
  0
LINE
  5
D6
330
1F
100
AcDbEntity
  8
0
  6
Continuous
 62
     7
370
    25
100
AcDbLine
 10
26.76256173
 20
168.4872373367
 30
0.0
 11
31.1707362477
 21
143.4872373367
 31
0.0
  0
LINE
  5
D7
330
1F
100
AcDbEntity
  8
0
  6
Continuous
 62
     7
370
    25
100
AcDbLine
 10
49.1707362477
 20
143.4872373367
 30
0.0
 11
53.5789107654
 21
168.4872373367
 31
0.0
  0
LINE
  5
D8
330
1F
100
AcDbEntity
  8
0
  6
Continuous
 62
     7
370
    25
100
AcDbLine
 10
47.6707362477
 20
-95.7972069551
 30
0.0
 11
47.6707362477
 21
143.4872373367
 31
0.0
  0
LINE
  5
D9
330
1F
100
AcDbEntity
  8
0
  6
Continuous
 62
     7
370
    25
100
AcDbLine
 10
32.6707362477
 20
143.4872373367
 30
0.0
 11
32.6707362477
 21
-95.7972069551
 31
0.0
  0
LINE
  5
DA
330
1F
100
AcDbEntity
  8
0
  6
Continuous
 62
     7
370
    25
100
AcDbLine
 10
87.6707362477
 20
-138.8535362799
 30
0.0
 11
87.6707362477
 21
-116.3535362799
 31
0.0
  0
LINE
  5
DB
330
1F
100
AcDbEntity
  8
0
  6
Continuous
 62
     7
370
    25
100
AcDbLine
 10
-7.3292637523
 20
-116.3535362799
 30
0.0
 11
-7.3292637523
 21
-138.8535362799
 31
0.0
  0
LINE
  5
DC
330
1F
100
AcDbEntity
  8
0
  6
Continuous
 62
     7
370
    25
100
AcDbLine
 10
-16.3058146944
 20
-95.7972069551
 30
0.0
 11
96.6472871898
 21
-95.7972069551
 31
0.0
  0
LINE
  5
DD
330
1F
100
AcDbEntity
  8
0
  6
Continuous
 62
     7
370
    25
100
AcDbLine
 10
63.461319163
 20
-115.7972069551
 30
0.0
 11
79.1707362477
 21
-115.7972069551
 31
0.0
  0
LINE
  5
DE
330
1F
100
AcDbEntity
  8
0
  6
Continuous
 62
     7
370
    25
100
AcDbLine
 10
1.1707362477
 20
-115.7972069551
 30
0.0
 11
16.8801533324
 21
-115.7972069551
 31
0.0
  0
LINE
  5
DF
330
1F
100
AcDbEntity
  8
0
  6
Continuous
 62
     7
370
    25
100
AcDbLine
 10
69.1707362477
 20
-205.7972069551
 30
0.0
 11
11.1707362477
 21
-205.7972069551
 31
0.0
  0
LINE
  5
E0
330
1F
100
AcDbEntity
  8
0
  6
Continuous
 62
     7
370
    25
100
AcDbLine
 10
26.76256173
 20
168.4872373367
 30
0.0
 11
53.5789107654
 21
168.4872373367
 31
0.0
  0
LINE
  5
E1
330
1F
100
AcDbEntity
  8
0
  6
Continuous
 62
     7
370
    25
100
AcDbLine
 10
31.1707362477
 20
143.4872373367
 30
0.0
 11
49.1707362477
 21
143.4872373367
 31
0.0
  0
LINE
  5
E2
330
1F
100
AcDbEntity
  8
0
  6
Continuous
 62
     7
370
    25
100
AcDbLine
 10
48.0217401734
 20
-145.0384320656
 30
0.0
 11
48.0217401734
 21
-110.5571738585
 31
0.0
  0
LINE
  5
E3
330
1F
100
AcDbEntity
  8
0
  6
Continuous
 62
     7
370
    25
100
AcDbLine
 10
30.3530975404
 20
-143.2258164915
 30
0.0
 11
49.8343557475
 21
-143.2258164915
 31
0.0
  0
LINE
  5
E4
330
1F
100
AcDbEntity
  8
0
  6
Continuous
 62
     7
370
    25
100
AcDbLine
 10
48.0217401734
 20
-145.0384320656
 30
0.0
 11
32.1657131145
 21
-145.0384320656
 31
0.0
  0
LINE
  5
E5
330
1F
100
AcDbEntity
  8
0
  6
Continuous
 62
     7
370
    25
100
AcDbLine
 10
32.1657131145
 20
-110.5571738585
 30
0.0
 11
32.1657131145
 21
-145.0384320656
 31
0.0
  0
LINE
  5
E6
330
1F
100
AcDbEntity
  8
0
  6
Continuous
 62
     7
370
    25
100
AcDbLine
 10
30.3530975404
 20
-143.2258164915
 30
0.0
 11
30.3530975404
 21
-112.3697894326
 31
0.0
  0
LINE
  5
E7
330
1F
100
AcDbEntity
  8
0
  6
Continuous
 62
     7
370
    25
100
AcDbLine
 10
49.8343557475
 20
-112.3697894326
 30
0.0
 11
49.8343557475
 21
-143.2258164915
 31
0.0
  0
LINE
  5
E8
330
1F
100
AcDbEntity
  8
0
  6
Continuous
 62
     7
370
    25
100
AcDbLine
 10
49.8343557475
 20
-112.3697894326
 30
0.0
 11
30.3530975404
 21
-112.3697894326
 31
0.0
  0
LINE
  5
E9
330
1F
100
AcDbEntity
  8
0
  6
Continuous
 62
     7
370
    25
100
AcDbLine
 10
41.5937266439
 20
-116.7978029621
 30
0.0
 11
38.5937266439
 21
-116.7978029621
 31
0.0
  0
LINE
  5
EA
330
1F
100
AcDbEntity
  8
0
  6
Continuous
 62
     7
370
    25
100
AcDbLine
 10
38.5937266439
 20
-121.7978029621
 30
0.0
 11
41.5937266439
 21
-121.7978029621
 31
0.0
  0
LINE
  5
EB
330
1F
100
AcDbEntity
  8
0
  6
Continuous
 62
     7
370
    25
100
AcDbLine
 10
37.5937266439
 20
-134.7978029621
 30
0.0
 11
37.5937266439
 21
-137.7978029621
 31
0.0
  0
LINE
  5
EC
330
1F
100
AcDbEntity
  8
0
  6
Continuous
 62
     7
370
    25
100
AcDbLine
 10
42.5937266439
 20
-137.7978029621
 30
0.0
 11
42.5937266439
 21
-134.7978029621
 31
0.0
  0
LINE
  5
ED
330
1F
100
AcDbEntity
  8
0
  6
Continuous
 62
     7
370
    25
100
AcDbLine
 10
32.1657131145
 20
-110.5571738585
 30
0.0
 11
48.0217401734
 21
-110.5571738585
 31
0.0
  0
LINE
  5
EE
330
1F
100
AcDbEntity
  8
0
  6
Continuous
 62
     7
370
    25
100
AcDbLine
 10
52.0937266439
 20
-110.1104185361
 30
0.0
 11
49.8343557475
 21
-112.3697894326
 31
0.0
  0
LINE
  5
EF
330
1F
100
AcDbEntity
  8
0
  6
Continuous
 62
     7
370
    25
100
AcDbLine
 10
48.0217401734
 20
-110.5571738585
 30
0.0
 11
50.2811110699
 21
-108.2978029621
 31
0.0
  0
LINE
  5
F0
330
1F
100
AcDbEntity
  8
0
  6
Continuous
 62
     7
370
    25
100
AcDbLine
 10
28.0937266439
 20
-145.485187388
 30
0.0
 11
30.3530975404
 21
-143.2258164915
 31
0.0
  0
LINE
  5
F1
330
1F
100
AcDbEntity
  8
0
  6
Continuous
 62
     7
370
    25
100
AcDbLine
 10
32.1657131145
 20
-145.0384320656
 30
0.0
 11
29.906342218
 21
-147.2978029621
 31
0.0
  0
LINE
  5
F2
330
1F
100
AcDbEntity
  8
0
  6
Continuous
 62
     7
370
    25
100
AcDbLine
 10
50.2811110699
 20
-147.2978029621
 30
0.0
 11
48.0217401734
 21
-145.0384320656
 31
0.0
  0
LINE
  5
F3
330
1F
100
AcDbEntity
  8
0
  6
Continuous
 62
     7
370
    25
100
AcDbLine
 10
49.8343557475
 20
-143.2258164915
 30
0.0
 11
52.0937266439
 21
-145.485187388
 31
0.0
  0
LINE
  5
F4
330
1F
100
AcDbEntity
  8
0
  6
Continuous
 62
     7
370
    25
100
AcDbLine
 10
29.906342218
 20
-108.2978029621
 30
0.0
 11
32.1657131145
 21
-110.5571738585
 31
0.0
  0
LINE
  5
F5
330
1F
100
AcDbEntity
  8
0
  6
Continuous
 62
     7
370
    25
100
AcDbLine
 10
30.3530975404
 20
-112.3697894326
 30
0.0
 11
28.0937266439
 21
-110.1104185361
 31
0.0
  0
LINE
  5
F6
330
1F
100
AcDbEntity
  8
0
  6
Continuous
 62
     7
370
    25
100
AcDbLine
 10
28.0937266439
 20
-110.1104185361
 30
0.0
 11
28.0937266439
 21
-145.485187388
 31
0.0
  0
LINE
  5
F7
330
1F
100
AcDbEntity
  8
0
  6
Continuous
 62
     7
370
    25
100
AcDbLine
 10
50.2811110699
 20
-108.2978029621
 30
0.0
 11
29.906342218
 21
-108.2978029621
 31
0.0
  0
LINE
  5
F8
330
1F
100
AcDbEntity
  8
0
  6
Continuous
 62
     7
370
    25
100
AcDbLine
 10
52.0937266439
 20
-145.485187388
 30
0.0
 11
52.0937266439
 21
-110.1104185361
 31
0.0
  0
LINE
  5
F9
330
1F
100
AcDbEntity
  8
0
  6
Continuous
 62
     7
370
    25
100
AcDbLine
 10
29.906342218
 20
-147.2978029621
 30
0.0
 11
50.2811110699
 21
-147.2978029621
 31
0.0
  0
LINE
  5
FA
330
1F
100
AcDbEntity
  8
0
  6
Continuous
 62
     7
370
    25
100
AcDbLine
 10
44.6707362477
 20
-149.035997009
 30
0.0
 11
44.6707362477
 21
-150.9278867482
 31
0.0
  0
LINE
  5
FB
330
1F
100
AcDbEntity
  8
0
  6
Continuous
 62
     7
370
    25
100
AcDbLine
 10
44.6707362477
 20
-105.6710755509
 30
0.0
 11
44.6707362477
 21
-103.7791858117
 31
0.0
  0
LINE
  5
FC
330
1F
100
AcDbEntity
  8
0
  6
Continuous
 62
     7
370
    25
100
AcDbLine
 10
36.6707362477
 20
-106.6710755509
 30
0.0
 11
43.6707362477
 21
-106.6710755509
 31
0.0
  0
LINE
  5
FD
330
1F
100
AcDbEntity
  8
0
  6
Continuous
 62
     7
370
    25
100
AcDbLine
 10
35.6707362477
 20
-103.7791858117
 30
0.0
 11
35.6707362477
 21
-105.6710755509
 31
0.0
  0
LINE
  5
FE
330
1F
100
AcDbEntity
  8
0
  6
Continuous
 62
     7
370
    25
100
AcDbLine
 10
35.6707362477
 20
-150.9278867482
 30
0.0
 11
35.6707362477
 21
-149.035997009
 31
0.0
  0
LINE
  5
FF
330
1F
100
AcDbEntity
  8
0
  6
Continuous
 62
     7
370
    25
100
AcDbLine
 10
36.6707362477
 20
-148.035997009
 30
0.0
 11
43.6707362477
 21
-148.035997009
 31
0.0
  0
LINE
  5
100
330
1F
100
AcDbEntity
  8
0
  6
Continuous
 62
     7
370
    25
100
AcDbLine
 10
63.4891838804
 20
-115.8535362799
 30
0.0
 11
87.1707362477
 21
-115.8535362799
 31
0.0
  0
LINE
  5
101
330
1F
100
AcDbEntity
  8
0
  6
Continuous
 62
     7
370
    25
100
AcDbLine
 10
-6.8292637523
 20
-115.8535362799
 30
0.0
 11
16.852288615
 21
-115.8535362799
 31
0.0
  0
LINE
  5
102
330
1F
100
AcDbEntity
  8
0
  6
Continuous
 62
     7
370
    25
100
AcDbLine
 10
63.4891838804
 20
-138.8535362799
 30
0.0
 11
87.6707362477
 21
-138.8535362799
 31
0.0
  0
LINE
  5
103
330
1F
100
AcDbEntity
  8
0
  6
Continuous
 62
     7
370
    25
100
AcDbLine
 10
-7.3292637523
 20
-138.8535362799
 30
0.0
 11
16.852288615
 21
-138.8535362799
 31
0.0
  0
LINE
  5
104
330
1F
100
AcDbEntity
  8
0
  6
Continuous
 62
     8
370
    25
100
AcDbLine
 10
97.6460530288
 20
-96.8468738327
 30
0.0
 11
-17.3045805334
 21
-96.8468738327
 31
0.0
  0
LINE
  5
105
330
1F
100
AcDbEntity
  8
0
  6
Continuous
 62
     8
370
    25
100
AcDbLine
 10
1.1707362477
 20
-195.7972069551
 30
0.0
 11
79.1707362477
 21
-195.7972069551
 31
0.0
  0
LINE
  5
106
330
1F
100
AcDbEntity
  8
0
  6
Continuous
 62
     8
370
    25
100
AcDbLine
 10
16.6122982689
 20
-116.3535362799
 30
0.0
 11
-7.3292637523
 21
-116.3535362799
 31
0.0
  0
LINE
  5
107
330
1F
100
AcDbEntity
  8
0
  6
Continuous
 62
     8
370
    25
100
AcDbLine
 10
87.6707362477
 20
-116.3535362799
 30
0.0
 11
63.7291742265
 21
-116.3535362799
 31
0.0
  0
ARC
  5
108
330
1F
100
AcDbEntity
  8
0
  6
Continuous
 62
     7
370
    25
100
AcDbCircle
 10
-16.3058146944
 20
-96.7972069551
 30
0.0
 40
1.000000000000003
100
AcDbArc
 50
90.0
 51
182.8468737336
  0
ARC
  5
109
330
1F
100
AcDbEntity
  8
0
  6
Continuous
 62
     7
370
    25
100
AcDbCircle
 10
96.6472871898
 20
-96.7972069551
 30
0.0
 40
1.000000000000014
100
AcDbArc
 50
357.1531262664
 51
90.0
  0
ARC
  5
10A
330
1F
100
AcDbEntity
  8
0
  6
Continuous
 62
     7
370
    25
100
AcDbCircle
 10
77.6707362477
 20
-95.8535362799
 30
0.0
 40
20.00000000000006
100
AcDbArc
 50
274.3012223047
 51
357.1531262664
  0
ARC
  5
10B
330
1F
100
AcDbEntity
  8
0
  6
Continuous
 62
     7
370
    25
100
AcDbCircle
 10
2.6707362477
 20
-95.8535362799
 30
0.0
 40
20.00000000000006
100
AcDbArc
 50
182.8468737336
 51
265.6987776953
  0
ARC
  5
10C
330
1F
100
AcDbEntity
  8
0
  6
Continuous
 62
     7
370
    25
100
AcDbCircle
 10
11.1707362477
 20
-195.7972069551
 30
0.0
 40
10.00000000000006
100
AcDbArc
 50
180.0
 51
270.0
  0
ARC
  5
10D
330
1F
100
AcDbEntity
  8
0
  6
Continuous
 62
     7
370
    25
100
AcDbCircle
 10
69.1707362477
 20
-195.7972069551
 30
0.0
 40
10.00000000000003
100
AcDbArc
 50
270.0
 51
0.0
  0
ARC
  5
10E
330
1F
100
AcDbEntity
  8
0
  6
Continuous
 62
     7
370
    25
100
AcDbCircle
 10
40.1707362477
 20
161.2510408432
 30
0.0
 40
15.23619649358824
100
AcDbArc
 50
28.3550902447
 51
151.6449097553
  0
ARC
  5
10F
330
1F
100
AcDbEntity
  8
0
  6
Continuous
 62
     7
370
    25
100
AcDbCircle
 10
-6.8292637523
 20
-116.3535362799
 30
0.0
 40
0.5000000000000062
100
AcDbArc
 50
90.0
 51
180.0
  0
ARC
  5
110
330
1F
100
AcDbEntity
  8
0
  6
Continuous
 62
     7
370
    25
100
AcDbCircle
 10
87.1707362477
 20
-116.3535362799
 30
0.0
 40
0.5000000000000426
100
AcDbArc
 50
0.0
 51
90.0
  0
ARC
  5
111
330
1F
100
AcDbEntity
  8
0
  6
Continuous
 62
     7
370
    25
100
AcDbCircle
 10
47.5782025554
 20
-142.7822788735
 30
0.0
 40
2.299337479479937
100
AcDbArc
 50
281.1219571208
 51
348.8780428792
  0
ARC
  5
112
330
1F
100
AcDbEntity
  8
0
  6
Continuous
 62
     7
370
    25
100
AcDbCircle
 10
32.6092507324
 20
-112.8133270506
 30
0.0
 40
2.299337479479986
100
AcDbArc
 50
101.1219571208
 51
168.8780428792
  0
ARC
  5
113
330
1F
100
AcDbEntity
  8
0
  6
Continuous
 62
     7
370
    25
100
AcDbCircle
 10
38.5937266439
 20
-119.2978029621
 30
0.0
 40
2.5
100
AcDbArc
 50
90.0
 51
270.0
  0
ARC
  5
114
330
1F
100
AcDbEntity
  8
0
  6
Continuous
 62
     7
370
    25
100
AcDbCircle
 10
40.0937266439
 20
-137.7978029621
 30
0.0
 40
2.5
100
AcDbArc
 50
180.0
 51
0.0
  0
ARC
  5
115
330
1F
100
AcDbEntity
  8
0
  6
Continuous
 62
     7
370
    25
100
AcDbCircle
 10
40.0937266439
 20
-134.7978029621
 30
0.0
 40
2.5
100
AcDbArc
 50
0.0
 51
180.0
  0
ARC
  5
116
330
1F
100
AcDbEntity
  8
0
  6
Continuous
 62
     7
370
    25
100
AcDbCircle
 10
41.5937266439
 20
-119.2978029621
 30
0.0
 40
2.5
100
AcDbArc
 50
270.0
 51
90.0
  0
ARC
  5
117
330
1F
100
AcDbEntity
  8
0
  6
Continuous
 62
     7
370
    25
100
AcDbCircle
 10
47.5782025554
 20
-112.8133270506
 30
0.0
 40
2.299337479480012
100
AcDbArc
 50
11.1219571208
 51
78.8780428792
  0
ARC
  5
118
330
1F
100
AcDbEntity
  8
0
  6
Continuous
 62
     7
370
    25
100
AcDbCircle
 10
32.6092507324
 20
-142.7822788735
 30
0.0
 40
2.299337479479847
100
AcDbArc
 50
191.1219571208
 51
258.8780428792
  0
ARC
  5
119
330
1F
100
AcDbEntity
  8
0
  6
Continuous
 62
     7
370
    25
100
AcDbCircle
 10
50.3262120637
 20
-110.0653175423
 30
0.0
 40
1.768089898971661
100
AcDbArc
 50
358.538322673
 51
91.461677327
  0
ARC
  5
11A
330
1F
100
AcDbEntity
  8
0
  6
Continuous
 62
     7
370
    25
100
AcDbCircle
 10
29.8612412241
 20
-145.5302883819
 30
0.0
 40
1.768089898971676
100
AcDbArc
 50
178.538322673
 51
271.461677327
  0
ARC
  5
11B
330
1F
100
AcDbEntity
  8
0
  6
Continuous
 62
     7
370
    25
100
AcDbCircle
 10
50.3262120637
 20
-145.5302883819
 30
0.0
 40
1.768089898971647
100
AcDbArc
 50
268.538322673
 51
1.461677327
  0
ARC
  5
11C
330
1F
100
AcDbEntity
  8
0
  6
Continuous
 62
     7
370
    25
100
AcDbCircle
 10
29.8612412241
 20
-110.0653175423
 30
0.0
 40
1.768089898971652
100
AcDbArc
 50
88.538322673
 51
181.461677327
  0
ARC
  5
11D
330
1F
100
AcDbEntity
  8
0
  6
Continuous
 62
     7
370
    25
100
AcDbCircle
 10
43.6707362477
 20
-149.035997009
 30
0.0
 40
1.0
100
AcDbArc
 50
360.0
 51
90.0
  0
ARC
  5
11E
330
1F
100
AcDbEntity
  8
0
  6
Continuous
 62
     7
370
    25
100
AcDbCircle
 10
40.1707362477
 20
-127.3535362799
 30
0.0
 40
24.00000000000005
100
AcDbArc
 50
280.8069228749
 51
79.1930771251
  0
ARC
  5
11F
330
1F
100
AcDbEntity
  8
0
  6
Continuous
 62
     7
370
    25
100
AcDbCircle
 10
43.6707362477
 20
-105.6710755509
 30
0.0
 40
1.000000000000007
100
AcDbArc
 50
270.0
 51
0.0
  0
ARC
  5
120
330
1F
100
AcDbEntity
  8
0
  6
Continuous
 62
     7
370
    25
100
AcDbCircle
 10
36.6707362477
 20
-105.6710755509
 30
0.0
 40
1.0
100
AcDbArc
 50
180.0
 51
270.0
  0
ARC
  5
121
330
1F
100
AcDbEntity
  8
0
  6
Continuous
 62
     7
370
    25
100
AcDbCircle
 10
40.1707362477
 20
-127.3535362799
 30
0.0
 40
24.00000000000004
100
AcDbArc
 50
100.8069228749
 51
259.1930771251
  0
ARC
  5
122
330
1F
100
AcDbEntity
  8
0
  6
Continuous
 62
     7
370
    25
100
AcDbCircle
 10
36.6707362477
 20
-149.035997009
 30
0.0
 40
0.9999999999999787
100
AcDbArc
 50
90.0
 51
180.0
  0
LINE
  5
141
330
1B
100
AcDbEntity
 67
     1
  8
0
  6
Continuous
 62
     7
370
    25
100
AcDbLine
 10
-1.1707362477
 20
-195.7972069551
 30
0.0
 11
-1.1707362477
 21
-138.8535362799
 31
0.0
  0
LINE
  5
142
330
1B
100
AcDbEntity
 67
     1
  8
0
  6
Continuous
 62
     7
370
    25
100
AcDbLine
 10
-1.1707362477
 20
-115.8535362799
 30
0.0
 11
-1.1707362477
 21
-115.7972069551
 31
0.0
  0
LINE
  5
143
330
1B
100
AcDbEntity
 67
     1
  8
0
  6
Continuous
 62
     7
370
    25
100
AcDbLine
 10
-79.1707362477
 20
-115.7972069551
 30
0.0
 11
-79.1707362477
 21
-115.8535362799
 31
0.0
  0
LINE
  5
144
330
1B
100
AcDbEntity
 67
     1
  8
0
  6
Continuous
 62
     7
370
    25
100
AcDbLine
 10
-79.1707362477
 20
-138.8535362799
 30
0.0
 11
-79.1707362477
 21
-195.7972069551
 31
0.0
  0
LINE
  5
145
330
1B
100
AcDbEntity
 67
     1
  8
0
  6
Continuous
 62
     7
370
    25
100
AcDbLine
 10
-53.5789107654
 20
168.4872373367
 30
0.0
 11
-49.1707362477
 21
143.4872373367
 31
0.0
  0
LINE
  5
146
330
1B
100
AcDbEntity
 67
     1
  8
0
  6
Continuous
 62
     7
370
    25
100
AcDbLine
 10
-31.1707362477
 20
143.4872373367
 30
0.0
 11
-26.76256173
 21
168.4872373367
 31
0.0
  0
LINE
  5
147
330
1B
100
AcDbEntity
 67
     1
  8
0
  6
Continuous
 62
     7
370
    25
100
AcDbLine
 10
-32.6707362477
 20
-95.7972069551
 30
0.0
 11
-32.6707362477
 21
143.4872373367
 31
0.0
  0
LINE
  5
148
330
1B
100
AcDbEntity
 67
     1
  8
0
  6
Continuous
 62
     7
370
    25
100
AcDbLine
 10
-47.6707362477
 20
143.4872373367
 30
0.0
 11
-47.6707362477
 21
-95.7972069551
 31
0.0
  0
LINE
  5
149
330
1B
100
AcDbEntity
 67
     1
  8
0
  6
Continuous
 62
     7
370
    25
100
AcDbLine
 10
7.3292637523
 20
-138.8535362799
 30
0.0
 11
7.3292637523
 21
-116.3535362799
 31
0.0
  0
LINE
  5
14A
330
1B
100
AcDbEntity
 67
     1
  8
0
  6
Continuous
 62
     7
370
    25
100
AcDbLine
 10
-87.6707362477
 20
-116.3535362799
 30
0.0
 11
-87.6707362477
 21
-138.8535362799
 31
0.0
  0
LINE
  5
14B
330
1B
100
AcDbEntity
 67
     1
  8
0
  6
Continuous
 62
     7
370
    25
100
AcDbLine
 10
-96.6472871898
 20
-95.7972069551
 30
0.0
 11
16.3058146944
 21
-95.7972069551
 31
0.0
  0
LINE
  5
14C
330
1B
100
AcDbEntity
 67
     1
  8
0
  6
Continuous
 62
     7
370
    25
100
AcDbLine
 10
-79.1707362477
 20
-115.7972069551
 30
0.0
 11
-1.1707362477
 21
-115.7972069551
 31
0.0
  0
LINE
  5
14D
330
1B
100
AcDbEntity
 67
     1
  8
0
  6
Continuous
 62
     7
370
    25
100
AcDbLine
 10
-11.1707362477
 20
-205.7972069551
 30
0.0
 11
-69.1707362477
 21
-205.7972069551
 31
0.0
  0
LINE
  5
14E
330
1B
100
AcDbEntity
 67
     1
  8
0
  6
Continuous
 62
     7
370
    25
100
AcDbLine
 10
-49.1707362477
 20
143.4872373367
 30
0.0
 11
-31.1707362477
 21
143.4872373367
 31
0.0
  0
LINE
  5
14F
330
1B
100
AcDbEntity
 67
     1
  8
0
  6
Continuous
 62
     7
370
    25
100
AcDbLine
 10
-53.5789107654
 20
168.4872373367
 30
0.0
 11
-26.76256173
 21
168.4872373367
 31
0.0
  0
LINE
  5
150
330
1B
100
AcDbEntity
 67
     1
  8
0
  6
Continuous
 62
     7
370
    25
100
AcDbLine
 10
-87.1707362477
 20
-115.8535362799
 30
0.0
 11
6.8292637523
 21
-115.8535362799
 31
0.0
  0
LINE
  5
151
330
1B
100
AcDbEntity
 67
     1
  8
0
  6
Continuous
 62
     7
370
    25
100
AcDbLine
 10
-87.6707362477
 20
-138.8535362799
 30
0.0
 11
7.3292637523
 21
-138.8535362799
 31
0.0
  0
LINE
  5
152
330
1B
100
AcDbEntity
 67
     1
  8
0
  6
Continuous
 62
     8
370
    25
100
AcDbLine
 10
17.3045805334
 20
-96.8468738327
 30
0.0
 11
-97.6460530288
 21
-96.8468738327
 31
0.0
  0
LINE
  5
153
330
1B
100
AcDbEntity
 67
     1
  8
0
  6
Continuous
 62
     8
370
    25
100
AcDbLine
 10
-79.1707362477
 20
-195.7972069551
 30
0.0
 11
-1.1707362477
 21
-195.7972069551
 31
0.0
  0
LINE
  5
154
330
1B
100
AcDbEntity
 67
     1
  8
0
  6
Continuous
 62
     8
370
    25
100
AcDbLine
 10
7.3292637523
 20
-116.3535362799
 30
0.0
 11
-87.6707362477
 21
-116.3535362799
 31
0.0
  0
ARC
  5
155
330
1B
100
AcDbEntity
 67
     1
  8
0
  6
Continuous
 62
     7
370
    25
100
AcDbCircle
 10
-96.6472871898
 20
-96.7972069551
 30
0.0
 40
1.0
100
AcDbArc
 50
90.0
 51
182.8468737336
  0
ARC
  5
156
330
1B
100
AcDbEntity
 67
     1
  8
0
  6
Continuous
 62
     7
370
    25
100
AcDbCircle
 10
16.3058146944
 20
-96.7972069551
 30
0.0
 40
1.000000000000002
100
AcDbArc
 50
357.1531262664
 51
90.0
  0
ARC
  5
157
330
1B
100
AcDbEntity
 67
     1
  8
0
  6
Continuous
 62
     7
370
    25
100
AcDbCircle
 10
-2.6707362477
 20
-95.8535362799
 30
0.0
 40
20.00000000000004
100
AcDbArc
 50
274.3012223047
 51
357.1531262664
  0
ARC
  5
158
330
1B
100
AcDbEntity
 67
     1
  8
0
  6
Continuous
 62
     7
370
    25
100
AcDbCircle
 10
-77.6707362477
 20
-95.8535362799
 30
0.0
 40
20.00000000000007
100
AcDbArc
 50
182.8468737336
 51
265.6987776953
  0
ARC
  5
159
330
1B
100
AcDbEntity
 67
     1
  8
0
  6
Continuous
 62
     7
370
    25
100
AcDbCircle
 10
-69.1707362477
 20
-195.7972069551
 30
0.0
 40
10.00000000000011
100
AcDbArc
 50
180.0
 51
270.0
  0
ARC
  5
15A
330
1B
100
AcDbEntity
 67
     1
  8
0
  6
Continuous
 62
     7
370
    25
100
AcDbCircle
 10
-11.1707362477
 20
-195.7972069551
 30
0.0
 40
10.00000000000003
100
AcDbArc
 50
270.0
 51
0.0
  0
ARC
  5
15B
330
1B
100
AcDbEntity
 67
     1
  8
0
  6
Continuous
 62
     7
370
    25
100
AcDbCircle
 10
-40.1707362477
 20
161.2510408432
 30
0.0
 40
15.23619649358824
100
AcDbArc
 50
28.3550902447
 51
151.6449097553
  0
ARC
  5
15C
330
1B
100
AcDbEntity
 67
     1
  8
0
  6
Continuous
 62
     7
370
    25
100
AcDbCircle
 10
-87.1707362477
 20
-116.3535362799
 30
0.0
 40
0.5000000000000426
100
AcDbArc
 50
90.0
 51
180.0
  0
ARC
  5
15D
330
1B
100
AcDbEntity
 67
     1
  8
0
  6
Continuous
 62
     7
370
    25
100
AcDbCircle
 10
6.8292637523
 20
-116.3535362799
 30
0.0
 40
0.5000000000000142
100
AcDbArc
 50
0.0
 51
90.0
  0
VIEWPORT
  5
615
330
1B
100
AcDbEntity
 67
     1
  8
0
100
AcDbViewport
 10
0.0
 20
0.0
 30
0.0
 40
205.6
 41
156.0
 68
     1
 69
     1
 12
40.1707362477
 22
-14.6549848092
 13
0.0
 23
0.0
 14
10.0
 24
10.0
 15
10.0
 25
10.0
 16
0.0
 26
0.0
 36
1.0
 17
0.0
 27
0.0
 37
0.0
 42
50.0
 43
0.0
 44
0.0
 45
389.9301331777
 50
0.0
 51
0.0
 72
   100
 90
   557152
  1

281
     0
 71
     1
 74
     0
110
0.0
120
0.0
130
0.0
111
1.0
121
0.0
131
0.0
112
0.0
122
1.0
132
0.0
 79
     0
146
0.0
  0
ENDSEC
  0
SECTION
  2
OBJECTS
  0
DICTIONARY
  5
C
330
0
100
AcDbDictionary
281
     1
  3
ACAD_GROUP
350
D
  3
ACAD_LAYOUT
350
1A
  3
ACAD_MLINESTYLE
350
17
  3
ACAD_PLOTSETTINGS
350
19
  3
ACAD_PLOTSTYLENAME
350
E
  3
ACAD_SCALELIST
350
47
  0
DICTIONARY
  5
D
102
{ACAD_REACTORS
330
C
102
}
330
C
100
AcDbDictionary
281
     1
  0
DICTIONARY
  5
1A
102
{ACAD_REACTORS
330
C
102
}
330
C
100
AcDbDictionary
281
     1
  3
_Back
350
1E
  3
_Bottom
350
5F9
  3
_Left
350
26
  3
_Top
350
1AC
  3
Model
350
22
  0
DICTIONARY
  5
17
102
{ACAD_REACTORS
330
C
102
}
330
C
100
AcDbDictionary
281
     1
  3
Standard
350
18
  0
DICTIONARY
  5
19
102
{ACAD_REACTORS
330
C
102
}
330
C
100
AcDbDictionary
281
     1
  0
ACDBDICTIONARYWDFLT
  5
E
102
{ACAD_REACTORS
330
C
102
}
330
C
100
AcDbDictionary
281
     1
  3
Normal
350
F
100
AcDbDictionaryWithDefault
340
F
  0
DICTIONARY
  5
47
102
{ACAD_REACTORS
330
C
102
}
330
C
100
AcDbDictionary
281
     1
  3
A0
350
48
  3
A1
350
49
  3
A2
350
4A
  3
A3
350
4B
  3
A4
350
4C
  3
A5
350
4D
  3
A6
350
4E
  3
A7
350
4F
  3
A8
350
50
  3
A9
350
51
  3
B0
350
52
  3
B1
350
53
  3
B2
350
54
  3
B3
350
55
  3
B4
350
56
  3
B5
350
57
  3
B6
350
58
  3
B7
350
59
  3
B8
350
5A
  3
B9
350
5B
  3
C0
350
5C
  3
C1
350
5D
  3
C2
350
5E
  3
C3
350
5F
  3
C4
350
60
  3
C5
350
61
  3
C6
350
62
  3
C7
350
63
  3
C8
350
64
  3
C9
350
65
  3
D0
350
66
  3
D1
350
67
  3
D2
350
68
  0
LAYOUT
  5
1E
102
{ACAD_REACTORS
330
1A
102
}
330
1A
100
AcDbPlotSettings
  1

  2
none_device
  4
ISO_A4_(210.00_x_297.00_MM)
  6

 40
7.5
 41
20.0
 42
7.5
 43
20.0
 44
210.0
 45
297.0
 46
0.0
 47
0.0
 48
0.0
 49
0.0
140
0.0
141
0.0
142
1.0
143
1.9604330477
 70
   688
 72
     1
 73
     1
 74
     1
  7

 75
     0
147
0.5100913807
148
97.6472871898
149
205.7972069551
100
AcDbLayout
  1
_Back
 70
     1
 71
     1
 10
-136.8559481428
 20
-220.5004548125
 11
445.3926670094
 21
191.1904851941
 12
0.0
 22
0.0
 32
0.0
 14
-97.6472871898
 24
-205.7972069551
 34
0.0
 15
17.3058146944
 25
176.4872373367
 35
0.0
146
0.0
 13
0.0
 23
0.0
 33
0.0
 16
1.0
 26
0.0
 36
0.0
 17
0.0
 27
1.0
 37
0.0
 76
     0
330
1B
331
615
  0
LAYOUT
  5
5F9
102
{ACAD_REACTORS
330
1A
102
}
330
1A
100
AcDbPlotSettings
  1

  2
none_device
  4
ISO_A4_(210.00_x_297.00_MM)
  6

 40
7.5
 41
20.0
 42
7.5
 43
20.0
 44
210.0
 45
297.0
 46
0.0
 47
0.0
 48
0.0
 49
0.0
140
0.0
141
0.0
142
1.0
143
1.9604330477
 70
   688
 72
     1
 73
     1
 74
     1
  7

 75
     0
147
0.5100913807
148
97.6472871898
149
205.7972069551
100
AcDbLayout
  1
_Bottom
 70
     1
 71
     4
 10
0.0
 20
0.0
 11
0.0
 21
0.0
 12
0.0
 22
0.0
 32
0.0
 14
0.0
 24
0.0
 34
0.0
 15
0.0
 25
0.0
 35
0.0
146
0.0
 13
0.0
 23
0.0
 33
0.0
 16
1.0
 26
0.0
 36
0.0
 17
0.0
 27
1.0
 37
0.0
 76
     0
330
5F8
331
61B
  0
LAYOUT
  5
26
102
{ACAD_REACTORS
330
1A
102
}
330
1A
100
AcDbPlotSettings
  1

  2
none_device
  4
ISO_A4_(210.00_x_297.00_MM)
  6

 40
7.5
 41
20.0
 42
7.5
 43
20.0
 44
210.0
 45
297.0
 46
0.0
 47
0.0
 48
0.0
 49
0.0
140
0.0
141
0.0
142
1.0
143
1.9604330477
 70
   688
 72
     1
 73
     1
 74
     1
  7

 75
     0
147
0.5100913807
148
97.6472871898
149
205.7972069551
100
AcDbLayout
  1
_Left
 70
     1
 71
     2
 10
0.0
 20
0.0
 11
0.0
 21
0.0
 12
0.0
 22
0.0
 32
0.0
 14
0.0
 24
0.0
 34
0.0
 15
0.0
 25
0.0
 35
0.0
146
0.0
 13
0.0
 23
0.0
 33
0.0
 16
1.0
 26
0.0
 36
0.0
 17
0.0
 27
1.0
 37
0.0
 76
     0
330
23
331
617
  0
LAYOUT
  5
1AC
102
{ACAD_REACTORS
330
1A
102
}
330
1A
100
AcDbPlotSettings
  1

  2
none_device
  4
ISO_A4_(210.00_x_297.00_MM)
  6

 40
7.5
 41
20.0
 42
7.5
 43
20.0
 44
210.0
 45
297.0
 46
0.0
 47
0.0
 48
0.0
 49
0.0
140
0.0
141
0.0
142
1.0
143
1.9604330477
 70
   688
 72
     1
 73
     1
 74
     1
  7

 75
     0
147
0.5100913807
148
97.6472871898
149
205.7972069551
100
AcDbLayout
  1
_Top
 70
     1
 71
     3
 10
0.0
 20
0.0
 11
0.0
 21
0.0
 12
0.0
 22
0.0
 32
0.0
 14
0.0
 24
0.0
 34
0.0
 15
0.0
 25
0.0
 35
0.0
146
0.0
 13
0.0
 23
0.0
 33
0.0
 16
1.0
 26
0.0
 36
0.0
 17
0.0
 27
1.0
 37
0.0
 76
     0
330
1AB
331
619
  0
LAYOUT
  5
22
102
{ACAD_REACTORS
330
1A
102
}
330
1A
100
AcDbPlotSettings
  1

  2
none_device
  4
ANSI_A_(11.00_x_8.50_Inches)
  6

 40
6.35
 41
19.05
 42
6.35000508
 43
19.05000254
 44
279.4
 45
215.9
 46
110.8899328026
 47
97.093821824
 48
0.0
 49
0.0
140
0.0
141
0.0
142
0.022012405
143
1.0
 70
  1696
 72
     0
 73
     0
 74
     0
  7

 75
     0
147
0.0179189148
148
-1300.4909072572
149
0.0
100
AcDbLayout
  1
Model
 70
     1
 71
     0
 10
0.0
 20
0.0
 11
420.0
 21
297.0
 12
0.0
 22
0.0
 32
0.0
 14
-17.3058146944
 24
-205.7972069551
 34
0.0
 15
97.6472871898
 25
176.4872373367
 35
0.0
146
0.0
 13
0.0
 23
0.0
 33
0.0
 16
1.0
 26
0.0
 36
0.0
 17
0.0
 27
1.0
 37
0.0
 76
     0
330
1F
331
29
  0
MLINESTYLE
  5
18
102
{ACAD_REACTORS
330
17
102
}
330
17
100
AcDbMlineStyle
  2
Standard
 70
     0
  3

 62
   256
 51
90.0
 52
90.0
 71
     2
 49
0.5
 62
   256
  6
BYLAYER
 49
-0.5
 62
   256
  6
BYLAYER
  0
ACDBPLACEHOLDER
  5
F
102
{ACAD_REACTORS
330
E
102
}
330
E
  0
SCALE
  5
48
102
{ACAD_REACTORS
330
47
102
}
330
47
100
AcDbScale
 70
     0
300
1:1
140
1.0
141
1.0
290
     1
  0
SCALE
  5
49
102
{ACAD_REACTORS
330
47
102
}
330
47
100
AcDbScale
 70
     0
300
1:2
140
1.0
141
2.0
290
     0
  0
SCALE
  5
4A
102
{ACAD_REACTORS
330
47
102
}
330
47
100
AcDbScale
 70
     0
300
1:4
140
1.0
141
4.0
290
     0
  0
SCALE
  5
4B
102
{ACAD_REACTORS
330
47
102
}
330
47
100
AcDbScale
 70
     0
300
1:5
140
1.0
141
5.0
290
     0
  0
SCALE
  5
4C
102
{ACAD_REACTORS
330
47
102
}
330
47
100
AcDbScale
 70
     0
300
1:8
140
1.0
141
8.0
290
     0
  0
SCALE
  5
4D
102
{ACAD_REACTORS
330
47
102
}
330
47
100
AcDbScale
 70
     0
300
1:10
140
1.0
141
10.0
290
     0
  0
SCALE
  5
4E
102
{ACAD_REACTORS
330
47
102
}
330
47
100
AcDbScale
 70
     0
300
1:16
140
1.0
141
16.0
290
     0
  0
SCALE
  5
4F
102
{ACAD_REACTORS
330
47
102
}
330
47
100
AcDbScale
 70
     0
300
1:20
140
1.0
141
20.0
290
     0
  0
SCALE
  5
50
102
{ACAD_REACTORS
330
47
102
}
330
47
100
AcDbScale
 70
     0
300
1:30
140
1.0
141
30.0
290
     0
  0
SCALE
  5
51
102
{ACAD_REACTORS
330
47
102
}
330
47
100
AcDbScale
 70
     0
300
1:40
140
1.0
141
40.0
290
     0
  0
SCALE
  5
52
102
{ACAD_REACTORS
330
47
102
}
330
47
100
AcDbScale
 70
     0
300
1:50
140
1.0
141
50.0
290
     0
  0
SCALE
  5
53
102
{ACAD_REACTORS
330
47
102
}
330
47
100
AcDbScale
 70
     0
300
1:100
140
1.0
141
100.0
290
     0
  0
SCALE
  5
54
102
{ACAD_REACTORS
330
47
102
}
330
47
100
AcDbScale
 70
     0
300
2:1
140
2.0
141
1.0
290
     0
  0
SCALE
  5
55
102
{ACAD_REACTORS
330
47
102
}
330
47
100
AcDbScale
 70
     0
300
4:1
140
4.0
141
1.0
290
     0
  0
SCALE
  5
56
102
{ACAD_REACTORS
330
47
102
}
330
47
100
AcDbScale
 70
     0
300
8:1
140
8.0
141
1.0
290
     0
  0
SCALE
  5
57
102
{ACAD_REACTORS
330
47
102
}
330
47
100
AcDbScale
 70
     0
300
10:1
140
10.0
141
1.0
290
     0
  0
SCALE
  5
58
102
{ACAD_REACTORS
330
47
102
}
330
47
100
AcDbScale
 70
     0
300
100:1
140
100.0
141
1.0
290
     0
  0
SCALE
  5
59
102
{ACAD_REACTORS
330
47
102
}
330
47
100
AcDbScale
 70
     0
300
1/128" = 1'-0"
140
0.0078125
141
12.0
290
     0
  0
SCALE
  5
5A
102
{ACAD_REACTORS
330
47
102
}
330
47
100
AcDbScale
 70
     0
300
1/64" = 1'-0"
140
0.015625
141
12.0
290
     0
  0
SCALE
  5
5B
102
{ACAD_REACTORS
330
47
102
}
330
47
100
AcDbScale
 70
     0
300
1/32" = 1'-0"
140
0.03125
141
12.0
290
     0
  0
SCALE
  5
5C
102
{ACAD_REACTORS
330
47
102
}
330
47
100
AcDbScale
 70
     0
300
1/16" = 1'-0"
140
0.0625
141
12.0
290
     0
  0
SCALE
  5
5D
102
{ACAD_REACTORS
330
47
102
}
330
47
100
AcDbScale
 70
     0
300
3/32" = 1'-0"
140
0.09375
141
12.0
290
     0
  0
SCALE
  5
5E
102
{ACAD_REACTORS
330
47
102
}
330
47
100
AcDbScale
 70
     0
300
1/8" = 1'-0"
140
0.125
141
12.0
290
     0
  0
SCALE
  5
5F
102
{ACAD_REACTORS
330
47
102
}
330
47
100
AcDbScale
 70
     0
300
3/16" = 1'-0"
140
0.1875
141
12.0
290
     0
  0
SCALE
  5
60
102
{ACAD_REACTORS
330
47
102
}
330
47
100
AcDbScale
 70
     0
300
1/4" = 1'-0"
140
0.25
141
12.0
290
     0
  0
SCALE
  5
61
102
{ACAD_REACTORS
330
47
102
}
330
47
100
AcDbScale
 70
     0
300
3/8" = 1'-0"
140
0.375
141
12.0
290
     0
  0
SCALE
  5
62
102
{ACAD_REACTORS
330
47
102
}
330
47
100
AcDbScale
 70
     0
300
1/2" = 1'-0"
140
0.5
141
12.0
290
     0
  0
SCALE
  5
63
102
{ACAD_REACTORS
330
47
102
}
330
47
100
AcDbScale
 70
     0
300
3/4" = 1'-0"
140
0.75
141
12.0
290
     0
  0
SCALE
  5
64
102
{ACAD_REACTORS
330
47
102
}
330
47
100
AcDbScale
 70
     0
300
1" = 1'-0"
140
1.0
141
12.0
290
     0
  0
SCALE
  5
65
102
{ACAD_REACTORS
330
47
102
}
330
47
100
AcDbScale
 70
     0
300
1-1/2" = 1'-0"
140
1.5
141
12.0
290
     0
  0
SCALE
  5
66
102
{ACAD_REACTORS
330
47
102
}
330
47
100
AcDbScale
 70
     0
300
3" = 1'-0"
140
3.0
141
12.0
290
     0
  0
SCALE
  5
67
102
{ACAD_REACTORS
330
47
102
}
330
47
100
AcDbScale
 70
     0
300
6" = 1'-0"
140
6.0
141
12.0
290
     0
  0
SCALE
  5
68
102
{ACAD_REACTORS
330
47
102
}
330
47
100
AcDbScale
 70
     0
300
1'-0" = 1'-0"
140
12.0
141
12.0
290
     0
  0
ENDSEC
  0
EOF
