  0
SECTION
  2
HEADER
  9
$ACADVER
  1
AC1015
  9
$ACADMAINTVER
 70
     6
  9
$DWGCODEPAGE
  3
ANSI_1252
  9
$INSBASE
 10
0.0
 20
0.0
 30
0.0
  9
$EXTMIN
 10
-1.0826771654
 20
-2.9330708661
 30
0.0
  9
$EXTMAX
 10
5.0196850394
 20
1.0826771654
 30
0.0
  9
$LIMMIN
 10
0.0
 20
0.0
  9
$LIMMAX
 10
12.0
 20
9.0
  9
$ORTHOMODE
 70
     0
  9
$REGENMODE
 70
     1
  9
$FILLMODE
 70
     1
  9
$QTEXTMODE
 70
     0
  9
$MIRRTEXT
 70
     1
  9
$LTSCALE
 40
1.0
  9
$ATTMODE
 70
     1
  9
$TEXTSIZE
 40
0.1377952756
  9
$TRACEWID
 40
0.05
  9
$TEXTSTYLE
  7
Standard
  9
$CLAYER
  8
0
  9
$CELTYPE
  6
ByLayer
  9
$CECOLOR
 62
   256
  9
$CELTSCALE
 40
1.0
  9
$DISPSILH
 70
     0
  9
$DIMSCALE
 40
1.0
  9
$DIMASZ
 40
0.13
  9
$DIMEXO
 40
0.0393700787
  9
$DIMDLI
 40
0.38
  9
$DIMRND
 40
0.0
  9
$DIMDLE
 40
0.0
  9
$DIMEXE
 40
0.0393700787
  9
$DIMTP
 40
0.0
  9
$DIMTM
 40
0.0
  9
$DIMTXT
 40
0.1377952756
  9
$DIMCEN
 40
0.09
  9
$DIMTSZ
 40
0.0
  9
$DIMTOL
 70
     0
  9
$DIMLIM
 70
     0
  9
$DIMTIH
 70
     1
  9
$DIMTOH
 70
     1
  9
$DIMSE1
 70
     0
  9
$DIMSE2
 70
     0
  9
$DIMTAD
 70
     1
  9
$DIMZIN
 70
     1
  9
$DIMBLK
  1

  9
$DIMASO
 70
     1
  9
$DIMSHO
 70
     1
  9
$DIMPOST
  1

  9
$DIMAPOST
  1

  9
$DIMALT
 70
     0
  9
$DIMALTD
 70
     2
  9
$DIMALTF
 40
25.4
  9
$DIMLFAC
 40
1.0
  9
$DIMTOFL
 70
     0
  9
$DIMTVP
 40
0.0
  9
$DIMTIX
 70
     0
  9
$DIMSOXD
 70
     0
  9
$DIMSAH
 70
     0
  9
$DIMBLK1
  1

  9
$DIMBLK2
  1

  9
$DIMSTYLE
  2
Standard
  9
$DIMCLRD
 70
     0
  9
$DIMCLRE
 70
     0
  9
$DIMCLRT
 70
     0
  9
$DIMTFAC
 40
1.0
  9
$DIMGAP
 40
0.06
  9
$DIMJUST
 70
     0
  9
$DIMSD1
 70
     0
  9
$DIMSD2
 70
     0
  9
$DIMTOLJ
 70
     1
  9
$DIMTZIN
 70
     1
  9
$DIMALTZ
 70
     0
  9
$DIMALTTZ
 70
     0
  9
$DIMUPT
 70
     0
  9
$DIMDEC
 70
     2
  9
$DIMTDEC
 70
     2
  9
$DIMALTU
 70
     2
  9
$DIMALTTD
 70
     2
  9
$DIMTXSTY
  7
Standard
  9
$DIMAUNIT
 70
     0
  9
$DIMADEC
 70
     2
  9
$DIMALTRND
 40
0.0
  9
$DIMAZIN
 70
     0
  9
$DIMDSEP
 70
    46
  9
$DIMATFIT
 70
     3
  9
$DIMFRAC
 70
     0
  9
$DIMLDRBLK
  1

  9
$DIMLUNIT
 70
     2
  9
$DIMLWD
 70
    -2
  9
$DIMLWE
 70
    -2
  9
$DIMTMOVE
 70
     0
  9
$LUNITS
 70
     2
  9
$LUPREC
 70
     2
  9
$SKETCHINC
 40
0.1
  9
$FILLETRAD
 40
0.5
  9
$AUNITS
 70
     0
  9
$AUPREC
 70
     2
  9
$MENU
  1
.
  9
$ELEVATION
 40
0.0
  9
$PELEVATION
 40
0.0
  9
$THICKNESS
 40
0.0
  9
$LIMCHECK
 70
     0
  9
$CHAMFERA
 40
0.0
  9
$CHAMFERB
 40
0.0
  9
$CHAMFERC
 40
0.0
  9
$CHAMFERD
 40
0.0
  9
$SKPOLY
 70
     0
  9
$TDCREATE
 40
2460416.486411007
  9
$TDUCREATE
 40
2460416.44474434
  9
$TDUPDATE
 40
2460416.486544884
  9
$TDUUPDATE
 40
2460416.444878218
  9
$TDINDWG
 40
0.0000000116
  9
$TDUSRTIMER
 40
0.0000000116
  9
$USRTIMER
 70
     1
  9
$ANGBASE
 50
0.0
  9
$ANGDIR
 70
     0
  9
$PDMODE
 70
     0
  9
$PDSIZE
 40
-1.0
  9
$PLINEWID
 40
0.0
  9
$SPLFRAME
 70
     0
  9
$SPLINETYPE
 70
     6
  9
$SPLINESEGS
 70
     8
  9
$HANDSEED
  5
1A2
  9
$SURFTAB1
 70
     6
  9
$SURFTAB2
 70
     6
  9
$SURFTYPE
 70
     6
  9
$SURFU
 70
     6
  9
$SURFV
 70
     6
  9
$UCSBASE
  2

  9
$UCSNAME
  2

  9
$UCSORG
 10
0.0
 20
0.0
 30
0.0
  9
$UCSXDIR
 10
1.0
 20
0.0
 30
0.0
  9
$UCSYDIR
 10
0.0
 20
1.0
 30
0.0
  9
$UCSORTHOREF
  2

  9
$UCSORTHOVIEW
 70
     0
  9
$UCSORGTOP
 10
0.0
 20
0.0
 30
0.0
  9
$UCSORGBOTTOM
 10
0.0
 20
0.0
 30
0.0
  9
$UCSORGLEFT
 10
0.0
 20
0.0
 30
0.0
  9
$UCSORGRIGHT
 10
0.0
 20
0.0
 30
0.0
  9
$UCSORGFRONT
 10
0.0
 20
0.0
 30
0.0
  9
$UCSORGBACK
 10
0.0
 20
0.0
 30
0.0
  9
$PUCSBASE
  2

  9
$PUCSNAME
  2

  9
$PUCSORG
 10
0.0
 20
0.0
 30
0.0
  9
$PUCSXDIR
 10
1.0
 20
0.0
 30
0.0
  9
$PUCSYDIR
 10
0.0
 20
1.0
 30
0.0
  9
$PUCSORTHOREF
  2

  9
$PUCSORTHOVIEW
 70
     0
  9
$PUCSORGTOP
 10
0.0
 20
0.0
 30
0.0
  9
$PUCSORGBOTTOM
 10
0.0
 20
0.0
 30
0.0
  9
$PUCSORGLEFT
 10
0.0
 20
0.0
 30
0.0
  9
$PUCSORGRIGHT
 10
0.0
 20
0.0
 30
0.0
  9
$PUCSORGFRONT
 10
0.0
 20
0.0
 30
0.0
  9
$PUCSORGBACK
 10
0.0
 20
0.0
 30
0.0
  9
$USERI1
 70
     0
  9
$USERI2
 70
     0
  9
$USERI3
 70
     0
  9
$USERI4
 70
     0
  9
$USERI5
 70
     0
  9
$USERR1
 40
0.0
  9
$USERR2
 40
0.0
  9
$USERR3
 40
0.0
  9
$USERR4
 40
0.0
  9
$USERR5
 40
0.0
  9
$WORLDVIEW
 70
     1
  9
$SHADEDGE
 70
     3
  9
$SHADEDIF
 70
    70
  9
$TILEMODE
 70
     1
  9
$MAXACTVP
 70
    64
  9
$PINSBASE
 10
0.0
 20
0.0
 30
0.0
  9
$PLIMCHECK
 70
     0
  9
$PEXTMIN
 10
-0.1181102362
 20
-2.9330708661
 30
0.0
  9
$PEXTMAX
 10
7.043703356
 20
1.0826771654
 30
0.0
  9
$PLIMMIN
 10
-0.2886298824
 20
-3.1035902438
  9
$PLIMMAX
 10
7.2142227336
 20
2.6940685959
  9
$UNITMODE
 70
     0
  9
$VISRETAIN
 70
     1
  9
$PLINEGEN
 70
     0
  9
$PSLTSCALE
 70
     1
  9
$TREEDEPTH
 70
  3020
  9
$CMLSTYLE
  2
Standard
  9
$CMLJUST
 70
     0
  9
$CMLSCALE
 40
1.0
  9
$PROXYGRAPHICS
 70
     1
  9
$MEASUREMENT
 70
     0
  9
$CELWEIGHT
370
    -1
  9
$ENDCAPS
280
     0
  9
$JOINSTYLE
280
     0
  9
$LWDISPLAY
290
     1
  9
$INSUNITS
 70
     1
  9
$HYPERLINKBASE
  1

  9
$STYLESHEET
  1

  9
$XEDIT
290
     1
  9
$CEPSNTYPE
380
     0
  9
$PSTYLEMODE
290
     1
  9
$FINGERPRINTGUID
  2
{24ed457d-ea24-4d85-9baf-a562ce39f725}
  9
$VERSIONGUID
  2
{FAEB1C32-E019-11D5-929B-00C0DF256EC4}
  9
$EXTNAMES
290
     1
  9
$PSVPSCALE
 40
0.0
  9
$OLESTARTUP
290
     0
  0
ENDSEC
  0
SECTION
  2
CLASSES
  0
CLASS
  1
ACDBDICTIONARYWDFLT
  2
AcDbDictionaryWithDefault
  3
ObjectDBX Classes
 90
        0
280
     0
281
     0
  0
CLASS
  1
VISUALSTYLE
  2
AcDbVisualStyle
  3
ObjectDBX Classes
 90
     4095
280
     0
281
     0
  0
CLASS
  1
MATERIAL
  2
AcDbMaterial
  3
ObjectDBX Classes
 90
     1153
280
     0
281
     0
  0
CLASS
  1
SCALE
  2
AcDbScale
  3
ObjectDBX Classes
 90
     1153
280
     0
281
     0
  0
CLASS
  1
TABLESTYLE
  2
AcDbTableStyle
  3
ObjectDBX Classes
 90
     4095
280
     0
281
     0
  0
CLASS
  1
MLEADERSTYLE
  2
AcDbMLeaderStyle
  3
ACDB_MLEADERSTYLE_CLASS
 90
     4095
280
     0
281
     0
  0
CLASS
  1
SUN
  2
AcDbSun
  3
SCENEOE
 90
     1153
280
     0
281
     0
  0
CLASS
  1
ACDBPLACEHOLDER
  2
AcDbPlaceHolder
  3
ObjectDBX Classes
 90
        0
280
     0
281
     0
  0
CLASS
  1
LAYOUT
  2
AcDbLayout
  3
ObjectDBX Classes
 90
        0
280
     0
281
     0
  0
ENDSEC
  0
SECTION
  2
TABLES
  0
TABLE
  2
VPORT
  5
8
330
0
100
AcDbSymbolTable
 70
     1
  0
VPORT
  5
29
330
8
100
AcDbSymbolTableRecord
100
AcDbViewportTableRecord
  2
*Active
 70
     0
 10
0.0
 20
0.0
 11
1.0
 21
1.0
 12
1.968503937
 22
-0.9251968504
 13
0.0
 23
0.0
 14
0.5
 24
0.5
 15
0.5
 25
0.5
 16
0.0
 26
0.0
 36
1.0
 17
0.0
 27
0.0
 37
0.0
 40
4.0960629921
 41
1.5196078431
 42
50.0
 43
0.0
 44
0.0
 50
0.0
 51
0.0
 71
     0
 72
   100
 73
     1
 74
     3
 75
     0
 76
     0
 77
     0
 78
     0
281
     0
 65
     1
110
0.0
120
0.0
130
0.0
111
1.0
121
0.0
131
0.0
112
0.0
122
1.0
132
0.0
 79
     0
146
0.0
  0
ENDTAB
  0
TABLE
  2
LTYPE
  5
5
330
0
100
AcDbSymbolTable
 70
     6
  0
LTYPE
  5
14
330
5
100
AcDbSymbolTableRecord
100
AcDbLinetypeTableRecord
  2
ByBlock
 70
     0
  3

 72
    65
 73
     0
 40
0.0
  0
LTYPE
  5
15
330
5
100
AcDbSymbolTableRecord
100
AcDbLinetypeTableRecord
  2
ByLayer
 70
     0
  3

 72
    65
 73
     0
 40
0.0
  0
LTYPE
  5
16
330
5
100
AcDbSymbolTableRecord
100
AcDbLinetypeTableRecord
  2
Continuous
 70
     0
  3
Solid line
 72
    65
 73
     0
 40
0.0
  0
LTYPE
  5
6E
330
5
100
AcDbSymbolTableRecord
100
AcDbLinetypeTableRecord
  2
HIDDEN
 70
     0
  3
Hidden __ __ __ __ __ __ __ __ __ __ __ __ __ __
 72
    65
 73
     2
 40
0.075
 49
0.05
 74
     0
 49
-0.025
 74
     0
  0
LTYPE
  5
6F
330
5
100
AcDbSymbolTableRecord
100
AcDbLinetypeTableRecord
  2
PHANTOM
 70
     0
  3
Phantom ______  __  __  ______  __  __  ______
 72
    65
 73
     6
 40
0.5
 49
0.25
 74
     0
 49
-0.05
 74
     0
 49
0.05
 74
     0
 49
-0.05
 74
     0
 49
0.05
 74
     0
 49
-0.05
 74
     0
  0
LTYPE
  5
70
330
5
100
AcDbSymbolTableRecord
100
AcDbLinetypeTableRecord
  2
CENTER
 70
     0
  3
Center ____ _ ____ _ ____ _ ____ _ ____ _ ____
 72
    65
 73
     4
 40
0.4
 49
0.25
 74
     0
 49
-0.05
 74
     0
 49
0.05
 74
     0
 49
-0.05
 74
     0
  0
LTYPE
  5
71
330
5
100
AcDbSymbolTableRecord
100
AcDbLinetypeTableRecord
  2
CENTERX2
 70
     0
  3
Center (2x) ________  __  ________  __  _____
 72
    65
 73
     4
 40
0.8
 49
0.5
 74
     0
 49
-0.1
 74
     0
 49
0.1
 74
     0
 49
-0.1
 74
     0
  0
LTYPE
  5
72
330
5
100
AcDbSymbolTableRecord
100
AcDbLinetypeTableRecord
  2
DOT2
 70
     0
  3
Dot (.5x) ........................................
 72
    65
 73
     2
 40
0.025
 49
0.0
 74
     0
 49
-0.025
 74
     0
  0
ENDTAB
  0
TABLE
  2
LAYER
  5
2
330
0
100
AcDbSymbolTable
 70
     1
  0
LAYER
  5
10
330
2
100
AcDbSymbolTableRecord
100
AcDbLayerTableRecord
  2
0
 70
     0
 62
     7
  6
Continuous
370
    -3
390
F
  0
ENDTAB
  0
TABLE
  2
STYLE
  5
3
330
0
100
AcDbSymbolTable
 70
     1
  0
STYLE
  5
11
330
3
100
AcDbSymbolTableRecord
100
AcDbTextStyleTableRecord
  2
Standard
 70
     0
 40
0.0
 41
1.0
 50
0.0
 71
     0
 42
0.1377952756
  3
txt
  4

  0
ENDTAB
  0
TABLE
  2
VIEW
  5
6
330
0
100
AcDbSymbolTable
 70
     0
  0
ENDTAB
  0
TABLE
  2
UCS
  5
7
330
0
100
AcDbSymbolTable
 70
     0
  0
ENDTAB
  0
TABLE
  2
APPID
  5
9
330
0
100
AcDbSymbolTable
 70
     1
  0
APPID
  5
12
330
9
100
AcDbSymbolTableRecord
100
AcDbRegAppTableRecord
  2
ACAD
 70
     0
  0
ENDTAB
  0
TABLE
  2
DIMSTYLE
  5
A
330
0
100
AcDbSymbolTable
 70
     1
100
AcDbDimStyleTable
  0
DIMSTYLE
105
27
330
A
100
AcDbSymbolTableRecord
100
AcDbDimStyleTableRecord
  2
Standard
 70
     0
178
     0
340
11
  0
ENDTAB
  0
TABLE
  2
BLOCK_RECORD
  5
1
330
0
100
AcDbSymbolTable
 70
     2
  0
BLOCK_RECORD
  5
1F
330
1
100
AcDbSymbolTableRecord
100
AcDbBlockTableRecord
  2
*Model_Space
340
22
  0
BLOCK_RECORD
  5
1B
330
1
100
AcDbSymbolTableRecord
100
AcDbBlockTableRecord
  2
*Paper_Space
340
1E
  0
BLOCK_RECORD
  5
23
330
1
100
AcDbSymbolTableRecord
100
AcDbBlockTableRecord
  2
*Paper_Space0
340
26
  0
BLOCK_RECORD
  5
130
330
1
100
AcDbSymbolTableRecord
100
AcDbBlockTableRecord
  2
*Paper_Space1
340
131
  0
ENDTAB
  0
ENDSEC
  0
SECTION
  2
BLOCKS
  0
BLOCK
  5
20
330
1F
100
AcDbEntity
  8
0
100
AcDbBlockBegin
  2
*Model_Space
 70
     0
 10
0.0
 20
0.0
 30
0.0
  3
*Model_Space
  1

  0
ENDBLK
  5
21
330
1F
100
AcDbEntity
  8
0
100
AcDbBlockEnd
  0
BLOCK
  5
1C
330
1B
100
AcDbEntity
 67
     1
  8
0
100
AcDbBlockBegin
  2
*Paper_Space
 70
     0
 10
0.0
 20
0.0
 30
0.0
  3
*Paper_Space
  1

  0
ENDBLK
  5
1D
330
1B
100
AcDbEntity
 67
     1
  8
0
100
AcDbBlockEnd
  0
BLOCK
  5
24
330
23
100
AcDbEntity
  8
0
100
AcDbBlockBegin
  2
*Paper_Space0
 70
     0
 10
0.0
 20
0.0
 30
0.0
  3
*Paper_Space0
  1

  0
LWPOLYLINE
  5
FD
330
23
100
AcDbEntity
  8
0
  6
Continuous
 62
     7
370
    25
100
AcDbPolyline
 90
       25
 70
   128
 43
0.0
 10
0.3937007874
 20
-6.6929133858
 10
0.3901879875
 20
-6.7396691129
 10
0.3797122736
 20
-6.785590483
 10
0.3624605853
 20
-6.829858028
 10
0.3387407792
 20
-6.8716817927
 10
0.3089761359
 20
-6.9103154309
 10
0.2736978062
 20
-6.9450695244
 10
0.2335353326
 20
-6.9753238857
 10
0.1892054154
 20
-7.000538625
 10
0.1414991232
 20
-7.0202637845
 10
0.0912677757
 20
-7.0341473685
 10
0.0394077526
 20
-7.0419416239
 10
-0.0131555028
 20
-7.0435074621
 10
-0.0654839979
 20
-7.0388169408
 10
-0.1166439295
 20
-7.0279537623
 10
-0.1657223474
 20
-7.0111117804
 10
-0.2118434461
 20
-6.9885915406
 10
-0.2541841935
 20
-6.9607949171
 10
-0.291989018
 20
-6.9282179413
 10
-0.3245832915
 20
-6.8914419502
 10
-0.3513853684
 20
-6.8511232121
 10
-0.3719169652
 20
-6.8079812159
 10
-0.3858116949
 20
-6.7627858316
 10
-0.3928216058
 20
-6.7163435718
 10
-0.3937007874
 20
-6.6929133858
  0
LWPOLYLINE
  5
102
330
23
100
AcDbEntity
  8
0
  6
Continuous
 62
     7
370
    25
100
AcDbPolyline
 90
       32
 70
   128
 43
0.0
 10
4.625984252
 20
-0.6968503937
 10
4.622449337
 20
-0.7167654177
 10
4.611880865
 20
-0.7364760866
 10
4.594387283
 20
-0.7557801423
 10
4.5701480986
 20
-0.774479499
 10
4.5394120387
 20
-0.7923822761
 10
4.5024944969
 20
-0.8093047668
 10
4.4597742971
 20
-0.8250733234
 10
4.4116898064
 20
-0.8395261392
 10
4.3587344368
 20
-0.8525149088
 10
4.3014515819
 20
-0.8639063499
 10
4.2404290414
 20
-0.8735835708
 10
4.1762929892
 20
-0.8814472701
 10
4.1097015478
 20
-0.8874167557
 10
4.0413380357
 20
-0.8914307725
 10
3.9719039549
 20
-0.8934481313
 10
3.9021117931
 20
-0.8934481313
 10
3.8326777123
 20
-0.8914307725
 10
3.7643142002
 20
-0.8874167557
 10
3.6977227589
 20
-0.8814472701
 10
3.6335867066
 20
-0.8735835708
 10
3.5725641661
 20
-0.8639063499
 10
3.5152813112
 20
-0.8525149088
 10
3.4623259416
 20
-0.8395261392
 10
3.4142414509
 20
-0.8250733234
 10
3.3715212511
 20
-0.8093047668
 10
3.3346037093
 20
-0.7923822761
 10
3.3038676495
 20
-0.774479499
 10
3.2796284651
 20
-0.7557801423
 10
3.262134883
 20
-0.7364760866
 10
3.251566411
 20
-0.7167654177
 10
3.2480314961
 20
-0.6968503937
  0
LWPOLYLINE
  5
113
330
23
100
AcDbEntity
  8
0
  6
Continuous
 62
     8
370
    25
100
AcDbPolyline
 90
       25
 70
   128
 43
0.0
 10
0.3937007874
 20
-6.169750909
 10
0.3901879875
 20
-6.2165066361
 10
0.3797122736
 20
-6.2624280062
 10
0.3624605853
 20
-6.3066955512
 10
0.3387407792
 20
-6.3485193159
 10
0.3089761359
 20
-6.3871529541
 10
0.2736978062
 20
-6.4219070477
 10
0.2335353326
 20
-6.4521614089
 10
0.1892054154
 20
-6.4773761482
 10
0.1414991232
 20
-6.4971013077
 10
0.0912677757
 20
-6.5109848917
 10
0.0394077526
 20
-6.5187791471
 10
-0.0131555028
 20
-6.5203449854
 10
-0.0654839979
 20
-6.515654464
 10
-0.1166439295
 20
-6.5047912855
 10
-0.1657223474
 20
-6.4879493036
 10
-0.2118434461
 20
-6.4654290638
 10
-0.2541841935
 20
-6.4376324403
 10
-0.291989018
 20
-6.4050554645
 10
-0.3245832915
 20
-6.3682794734
 10
-0.3513853684
 20
-6.3279607353
 10
-0.3719169652
 20
-6.2848187391
 10
-0.3858116949
 20
-6.2396233548
 10
-0.3928216058
 20
-6.193181095
 10
-0.3937007874
 20
-6.169750909
  0
LINE
  5
114
330
23
100
AcDbEntity
  8
0
  6
Continuous
 62
     7
370
    25
100
AcDbLine
 10
0.3937007874
 20
-6.6929133858
 30
0.0
 11
0.3937007874
 21
0.0
 31
0.0
  0
LINE
  5
115
330
23
100
AcDbEntity
  8
0
  6
Continuous
 62
     7
370
    25
100
AcDbLine
 10
-0.3937007874
 20
0.0
 30
0.0
 11
-0.3937007874
 21
-6.6929133858
 31
0.0
  0
LINE
  5
116
330
23
100
AcDbEntity
  8
0
  6
Continuous
 62
     7
370
    25
100
AcDbLine
 10
2.8543307087
 20
0.1181102362
 30
0.0
 11
2.8543307087
 21
0.0
 31
0.0
  0
LINE
  5
117
330
23
100
AcDbEntity
  8
0
  6
Continuous
 62
     7
370
    25
100
AcDbLine
 10
5.0196850394
 20
0.0
 30
0.0
 11
5.0196850394
 21
0.1181102362
 31
0.0
  0
LINE
  5
118
330
23
100
AcDbEntity
  8
0
  6
Continuous
 62
     7
370
    25
100
AcDbLine
 10
-1.0826771654
 20
0.1181102362
 30
0.0
 11
-1.0826771654
 21
0.0
 31
0.0
  0
LINE
  5
119
330
23
100
AcDbEntity
  8
0
  6
Continuous
 62
     7
370
    25
100
AcDbLine
 10
1.0826771654
 20
0.0
 30
0.0
 11
1.0826771654
 21
0.1181102362
 31
0.0
  0
LINE
  5
11A
330
23
100
AcDbEntity
  8
0
  6
Continuous
 62
     7
370
    25
100
AcDbLine
 10
3.2480314961
 20
-0.6968503937
 30
0.0
 11
3.2480314961
 21
-1.8385826772
 31
0.0
  0
LINE
  5
11B
330
23
100
AcDbEntity
  8
0
  6
Continuous
 62
     7
370
    25
100
AcDbLine
 10
4.625984252
 20
-1.8385826772
 30
0.0
 11
4.625984252
 21
-0.6968503937
 31
0.0
  0
LINE
  5
11C
330
23
100
AcDbEntity
  8
0
  6
Continuous
 62
     7
370
    25
100
AcDbLine
 10
3.2480314961
 20
0.0
 30
0.0
 11
3.2480314961
 21
-0.657480315
 31
0.0
  0
LINE
  5
11D
330
23
100
AcDbEntity
  8
0
  6
Continuous
 62
     7
370
    25
100
AcDbLine
 10
4.625984252
 20
-0.657480315
 30
0.0
 11
4.625984252
 21
0.0
 31
0.0
  0
LINE
  5
11E
330
23
100
AcDbEntity
  8
0
  6
Continuous
 62
     7
370
    25
100
AcDbLine
 10
3.2677165354
 20
-0.657480315
 30
0.0
 11
3.2677165354
 21
-0.6968503937
 31
0.0
  0
LINE
  5
11F
330
23
100
AcDbEntity
  8
0
  6
Continuous
 62
     7
370
    25
100
AcDbLine
 10
4.6062992126
 20
-0.6968503937
 30
0.0
 11
4.6062992126
 21
-0.657480315
 31
0.0
  0
LINE
  5
120
330
23
100
AcDbEntity
  8
0
  6
Continuous
 62
     7
370
    25
100
AcDbLine
 10
5.0196850394
 20
0.0
 30
0.0
 11
2.8543307087
 21
0.0
 31
0.0
  0
LINE
  5
121
330
23
100
AcDbEntity
  8
0
  6
Continuous
 62
     7
370
    25
100
AcDbLine
 10
5.0196850394
 20
0.1181102362
 30
0.0
 11
2.8543307087
 21
0.1181102362
 31
0.0
  0
LINE
  5
122
330
23
100
AcDbEntity
  8
0
  6
Continuous
 62
     7
370
    25
100
AcDbLine
 10
1.0826771654
 20
0.1181102362
 30
0.0
 11
-1.0826771654
 21
0.1181102362
 31
0.0
  0
LINE
  5
123
330
23
100
AcDbEntity
  8
0
  6
Continuous
 62
     7
370
    25
100
AcDbLine
 10
1.0826771654
 20
0.0
 30
0.0
 11
-1.0826771654
 21
0.0
 31
0.0
  0
LINE
  5
124
330
23
100
AcDbEntity
  8
0
  6
Continuous
 62
     7
370
    25
100
AcDbLine
 10
4.625984252
 20
-0.6968503937
 30
0.0
 11
3.2480314961
 21
-0.6968503937
 31
0.0
  0
LINE
  5
125
330
23
100
AcDbEntity
  8
0
  6
Continuous
 62
     7
370
    25
100
AcDbLine
 10
4.625984252
 20
-1.8385826772
 30
0.0
 11
3.2480314961
 21
-1.8385826772
 31
0.0
  0
LINE
  5
126
330
23
100
AcDbEntity
  8
0
  6
Continuous
 62
     7
370
    25
100
AcDbLine
 10
4.299642885
 20
-1.838976378
 30
0.0
 11
4.299642885
 21
-1.8385826772
 31
0.0
  0
LINE
  5
127
330
23
100
AcDbEntity
  8
0
  6
Continuous
 62
     7
370
    25
100
AcDbLine
 10
4.3265047376
 20
-1.838976378
 30
0.0
 11
4.2119196307
 21
-1.838976378
 31
0.0
  0
LINE
  5
128
330
23
100
AcDbEntity
  8
0
  6
Continuous
 62
     7
370
    25
100
AcDbLine
 10
4.2119196307
 20
-1.838976378
 30
0.0
 11
4.2119196307
 21
-1.8385826772
 31
0.0
  0
LINE
  5
129
330
23
100
AcDbEntity
  8
0
  6
Continuous
 62
     7
370
    25
100
AcDbLine
 10
4.3265047376
 20
-1.838976378
 30
0.0
 11
4.3265047376
 21
-1.8385826772
 31
0.0
  0
LINE
  5
12A
330
23
100
AcDbEntity
  8
0
  6
Continuous
 62
     7
370
    25
100
AcDbLine
 10
3.6620961173
 20
-1.838976378
 30
0.0
 11
3.6620961173
 21
-1.8385826772
 31
0.0
  0
LINE
  5
12B
330
23
100
AcDbEntity
  8
0
  6
Continuous
 62
     7
370
    25
100
AcDbLine
 10
3.6620961173
 20
-1.838976378
 30
0.0
 11
3.5475110104
 21
-1.838976378
 31
0.0
  0
LINE
  5
12C
330
23
100
AcDbEntity
  8
0
  6
Continuous
 62
     7
370
    25
100
AcDbLine
 10
3.574372863
 20
-1.838976378
 30
0.0
 11
3.574372863
 21
-1.8385826772
 31
0.0
  0
LINE
  5
12D
330
23
100
AcDbEntity
  8
0
  6
Continuous
 62
     7
370
    25
100
AcDbLine
 10
3.5475110104
 20
-1.838976378
 30
0.0
 11
3.5475110104
 21
-1.8385826772
 31
0.0
  0
LINE
  5
12E
330
23
100
AcDbEntity
  8
0
  6
Continuous
 62
     7
370
    25
100
AcDbLine
 10
4.625984252
 20
-0.657480315
 30
0.0
 11
3.2480314961
 21
-0.657480315
 31
0.0
  0
LINE
  5
12F
330
23
100
AcDbEntity
  8
0
  6
Continuous
 62
     8
370
    25
100
AcDbLine
 10
0.3937007874
 20
-5.4681709687
 30
0.0
 11
-0.3937007874
 21
-5.4681709687
 31
0.0
  0
VIEWPORT
  5
19E
330
23
100
AcDbEntity
  8
0
100
AcDbViewport
 10
0.0
 20
0.0
 30
0.0
 40
8.4
 41
6.4
 68
     1
 69
     1
 12
1.968503937
 22
-0.9251968504
 13
0.0
 23
0.0
 14
0.5
 24
0.5
 15
0.5
 25
0.5
 16
0.0
 26
0.0
 36
1.0
 17
0.0
 27
0.0
 37
0.0
 42
50.0
 43
0.0
 44
0.0
 45
4.7424071991
 50
0.0
 51
0.0
 72
   100
 90
   557152
  1

281
     0
 71
     1
 74
     0
110
0.0
120
0.0
130
0.0
111
1.0
121
0.0
131
0.0
112
0.0
122
1.0
132
0.0
 79
     0
146
0.0
  0
ENDBLK
  5
25
330
23
100
AcDbEntity
  8
0
100
AcDbBlockEnd
  0
BLOCK
  5
132
330
130
100
AcDbEntity
  8
0
100
AcDbBlockBegin
  2
*Paper_Space1
 70
     0
 10
0.0
 20
0.0
 30
0.0
  3
*Paper_Space1
  1

  0
SPLINE
  5
134
330
130
100
AcDbEntity
  8
0
  6
Continuous
 62
     7
370
    25
100
AcDbSpline
210
0.0
220
0.0
230
1.0
 70
     8
 71
     3
 72
    21
 73
    17
 74
     0
 42
0.000000001
 43
0.00000001
 40
0.0
 40
0.0
 40
0.0
 40
0.0
 40
0.0447789283532768
 40
0.1221392700808076
 40
0.1995413544708333
 40
0.2769250445778908
 40
0.3541152689309756
 40
0.4310357285432064
 40
0.5076824386302454
 40
0.5840996843973468
 40
0.6603617053905327
 40
0.7365604510470006
 40
0.8127979101593464
 40
0.889154759574631
 40
0.9657309263759353
 40
1.0
 40
1.0
 40
1.0
 40
1.0
 10
-4.06341516886921
 20
-1.89116544880745
 30
0.0
 10
-4.076653376843926
 20
-1.89902335978047
 30
0.0
 10
-4.11276199128984
 20
-1.920456644271623
 30
0.0
 10
-4.170226449458732
 20
-1.959745659779511
 30
0.0
 10
-4.235124562559166
 20
-2.01007207023284
 30
0.0
 10
-4.297733635989145
 20
-2.065050888483784
 30
0.0
 10
-4.357815944607643
 20
-2.124185252966355
 30
0.0
 10
-4.415100561506497
 20
-2.18708209631176
 30
0.0
 10
-4.469375593646495
 20
-2.253348058502057
 30
0.0
 10
-4.520453507249468
 20
-2.322628853564075
 30
0.0
 10
-4.56816205387959
 20
-2.394591521555305
 30
0.0
 10
-4.612325597394696
 20
-2.468922495518238
 30
0.0
 10
-4.652784930473581
 20
-2.545310420005678
 30
0.0
 10
-4.689285870062363
 20
-2.623460560206668
 30
0.0
 10
-4.71585058539581
 20
-2.688287339900571
 30
0.0
 10
-4.72977323650831
 20
-2.726995557464426
 30
0.0
 10
-4.734077583309177
 20
-2.738962645563667
 30
0.0
  0
SPLINE
  5
135
330
130
100
AcDbEntity
  8
0
  6
Continuous
 62
     7
370
    25
100
AcDbSpline
210
0.0
220
0.0
230
1.0
 70
     8
 71
     3
 72
    20
 73
    16
 74
     0
 42
0.000000001
 43
0.00000001
 40
0.0
 40
0.0
 40
0.0
 40
0.0
 40
0.0429220144879159
 40
0.127557748326657
 40
0.212780445899604
 40
0.2984934075953686
 40
0.3843977446503983
 40
0.4701319991188186
 40
0.5553668928164571
 40
0.6398268336250676
 40
0.7232646743431257
 40
0.8054804723445793
 40
0.8863496053956537
 40
0.965862069435928
 40
1.0
 40
1.0
 40
1.0
 40
1.0
 10
-3.991267828722214
 20
-3.000180769921331
 30
0.0
 10
-3.988480071228576
 20
-2.992469006369479
 30
0.0
 10
-3.980195276746962
 20
-2.969550809121797
 30
0.0
 10
-3.963962973187737
 20
-2.930786751354794
 30
0.0
 10
-3.941633298315237
 20
-2.884414373782885
 30
0.0
 10
-3.916407079666121
 20
-2.838620564387598
 30
0.0
 10
-3.888740547377586
 20
-2.794236531488592
 30
0.0
 10
-3.859139025542428
 20
-2.752060051891227
 30
0.0
 10
-3.828219302785479
 20
-2.712826704013932
 30
0.0
 10
-3.796662909534082
 20
-2.67716860168786
 30
0.0
 10
-3.76521968711258
 20
-2.645610930358239
 30
0.0
 10
-3.734670249908643
 20
-2.618523720281117
 30
0.0
 10
-3.705903016838788
 20
-2.596212393919065
 30
0.0
 10
-3.684422757936532
 20
-2.581759608022026
 30
0.0
 10
-3.673136504164171
 20
-2.575095445925835
 30
0.0
 10
-3.669746376492808
 20
-2.573093686902475
 30
0.0
  0
LWPOLYLINE
  5
145
330
130
100
AcDbEntity
  8
0
  6
Continuous
 62
     7
370
    25
100
AcDbPolyline
 90
       20
 70
   128
 43
0.0
 10
-4.4542159445
 20
-4.0822338624
 10
-4.4897611608
 20
-4.0804331587
 10
-4.5296399213
 20
-4.0757967103
 10
-4.5731405884
 20
-4.0684072546
 10
-4.6194868917
 20
-4.0583966568
 10
-4.6678517804
 20
-4.045943556
 10
-4.7173721818
 20
-4.0312701783
 10
-4.7671644033
 20
-4.0146383703
 10
-4.8163399014
 20
-3.9963449272
 10
-4.8640211382
 20
-3.9767162958
 10
-4.909357241
 20
-3.9561027494
 10
-4.9515391859
 20
-3.9348721374
 10
-4.989814235
 20
-3.9134033205
 10
-5.0234993693
 20
-3.8920794103
 10
-5.0519934767
 20
-3.8712809324
 10
-5.0747880792
 20
-3.8513790362
 10
-5.0914764066
 20
-3.8327288714
 10
-5.1017606552
 20
-3.8156632508
 10
-5.1054573025
 20
-3.8004867106
 10
-5.1040093183
 20
-3.7909145419
  0
LWPOLYLINE
  5
147
330
130
100
AcDbEntity
  8
0
  6
Continuous
 62
     7
370
    25
100
AcDbPolyline
 90
       19
 70
   128
 43
0.0
 10
0.2783884965
 20
-0.1607102582
 10
0.2759045719
 20
-0.1164281936
 10
0.2684971236
 20
-0.070068465
 10
0.2562983378
 20
-0.022458363
 10
0.2395259021
 20
0.0255525089
 10
0.2184791209
 20
0.0731073958
 10
0.1935335747
 20
0.1193576795
 10
0.1651344173
 20
0.1634780225
 10
0.1337884323
 20
0.2046810963
 10
0.1000549895
 20
0.2422316312
 10
0.0645360631
 20
0.2754595368
 10
0.0278654891
 20
0.3037718605
 10
-0.0093023452
 20
0.3266633681
 10
-0.046304179
 20
0.3437255602
 10
-0.0824797135
 20
0.3546539615
 10
-0.1171833956
 20
0.3592535545
 10
-0.1497959373
 20
0.3574422593
 10
-0.1797353669
 20
0.3492523985
 10
-0.1968343962
 20
0.340964119
  0
LWPOLYLINE
  5
149
330
130
100
AcDbEntity
  8
0
  6
Continuous
 62
     7
370
    25
100
AcDbPolyline
 90
       42
 70
   128
 43
0.0
 10
3.5494533308
 20
-2.0490557925
 10
3.5469708284
 20
-1.9764861969
 10
3.5395394215
 20
-1.9015210069
 10
3.5272073054
 20
-1.8246464005
 10
3.5100544587
 20
-1.7463609389
 10
3.4881921242
 20
-1.6671723334
 10
3.4617620875
 20
-1.5875941525
 10
3.4309357576
 20
-1.5081424913
 10
3.395913055
 20
-1.4293326242
 10
3.3569211153
 20
-1.3516756635
 10
3.3142128163
 20
-1.2756752445
 10
3.2680651377
 20
-1.2018242588
 10
3.2187773649
 20
-1.1306016587
 10
3.166669148
 20
-1.0624693498
 10
3.1120784288
 20
-0.9978691965
 10
3.0553592491
 20
-0.9372201555
 10
2.9968794544
 20
-0.880915559
 10
2.9370183087
 20
-0.8293205641
 10
2.8761640346
 20
-0.782769784
 10
2.8147112953
 20
-0.7415651185
 10
2.7530586353
 20
-0.7059737955
 10
2.691605896
 20
-0.6762266385
 10
2.6307516219
 20
-0.6525165692
 10
2.5708904762
 20
-0.6349973565
 10
2.5124106815
 20
-0.6237826192
 10
2.4556915018
 20
-0.6189450892
 10
2.4011007826
 20
-0.6205161397
 10
2.3489925657
 20
-0.6284855819
 10
2.2997047929
 20
-0.6428017309
 10
2.2535571143
 20
-0.6633717409
 10
2.2108488153
 20
-0.6900622076
 10
2.1718568756
 20
-0.722700033
 10
2.136834173
 20
-0.7610735483
 10
2.1060078431
 20
-0.8049338865
 10
2.0795778064
 20
-0.8539965966
 10
2.0577154719
 20
-0.9079434879
 10
2.0405626252
 20
-0.9664246943
 10
2.0282305091
 20
-1.0290609426
 10
2.0207991022
 20
-1.0954460128
 10
2.0183165998
 20
-1.1651493722
 10
2.0207991022
 20
-1.2377189677
 10
2.0218080941
 20
-1.2515003505
  0
LWPOLYLINE
  5
14A
330
130
100
AcDbEntity
  8
0
  6
Continuous
 62
     7
370
    25
100
AcDbPolyline
 90
       22
 70
   128
 43
0.0
 10
2.7107284807
 20
-2.4448747672
 10
2.7530586353
 20
-2.4726400462
 10
2.8147112953
 20
-2.5082313692
 10
2.8761640346
 20
-2.5379785262
 10
2.9370183087
 20
-2.5616885955
 10
2.9968794544
 20
-2.5792078082
 10
3.0553592491
 20
-2.5904225455
 10
3.1120784288
 20
-2.5952600755
 10
3.166669148
 20
-2.5936890249
 10
3.2187773649
 20
-2.5857195827
 10
3.2680651377
 20
-2.5714034338
 10
3.3142128163
 20
-2.5508334237
 10
3.3569211153
 20
-2.5241429571
 10
3.395913055
 20
-2.4915051317
 10
3.4309357576
 20
-2.4531316164
 10
3.4617620875
 20
-2.4092712781
 10
3.4881921242
 20
-2.3602085681
 10
3.5100544587
 20
-2.3062616767
 10
3.5272073054
 20
-2.2477804703
 10
3.5395394215
 20
-2.185144222
 10
3.5469708284
 20
-2.1187591518
 10
3.5494533308
 20
-2.0490557925
  0
LWPOLYLINE
  5
14B
330
130
100
AcDbEntity
  8
0
  6
Continuous
 62
     7
370
    25
100
AcDbPolyline
 90
       25
 70
   128
 43
0.0
 10
3.2710648342
 20
-1.8883455342
 10
3.2685652719
 20
-1.829987563
 10
3.2610922337
 20
-1.7693424903
 10
3.2487224032
 20
-1.7070326166
 10
3.2315827115
 20
-1.6436973255
 10
3.2098490352
 20
-1.5799865228
 10
3.183744391
 20
-1.5165539676
 10
3.1535366481
 20
-1.4540505637
 10
3.1195357786
 20
-1.3931176806
 10
3.0820906776
 20
-1.3343805722
 10
3.0415855825
 20
-1.2784419607
 10
2.9984361303
 20
-1.2258758519
 10
2.9530850929
 20
-1.1772216452
 10
2.9059978331
 20
-1.1329785986
 10
2.8576575301
 20
-1.0936007058
 10
2.8085602207
 20
-1.059492037
 10
2.7592097099
 20
-1.0310025935
 10
2.7101124005
 20
-1.0084247155
 10
2.6617720975
 20
-0.9919900825
 10
2.6146848377
 20
-0.9818673361
 10
2.5693338003
 20
-0.9781603495
 10
2.5261843481
 20
-0.9809071612
 10
2.485679253
 20
-0.9900795854
 10
2.448234152
 20
-1.0055835005
 10
2.439424772
 20
-1.010415374
  0
LWPOLYLINE
  5
14D
330
130
100
AcDbEntity
  8
0
  6
Continuous
 62
     7
370
    25
100
AcDbPolyline
 90
       31
 70
   128
 43
0.0
 10
3.6329698797
 20
-2.000842715
 10
3.6304873774
 20
-1.9282731195
 10
3.6230559705
 20
-1.8533079295
 10
3.6107238544
 20
-1.776433323
 10
3.5935710077
 20
-1.6981478614
 10
3.5717086732
 20
-1.6189592559
 10
3.5452786365
 20
-1.539381075
 10
3.5144523066
 20
-1.4599294138
 10
3.4794296039
 20
-1.3811195467
 10
3.4404376643
 20
-1.3034625861
 10
3.3977293653
 20
-1.227462167
 10
3.3515816867
 20
-1.1536111814
 10
3.3022939139
 20
-1.0823885812
 10
3.250185697
 20
-1.0142562724
 10
3.1955949778
 20
-0.9496561191
 10
3.138875798
 20
-0.889007078
 10
3.0803960034
 20
-0.8327024816
 10
3.0205348577
 20
-0.7811074866
 10
2.9596805835
 20
-0.7345567065
 10
2.8982278442
 20
-0.693352041
 10
2.8365751843
 20
-0.657760718
 10
2.775122445
 20
-0.628013561
 10
2.7142681708
 20
-0.6043034917
 10
2.6544070252
 20
-0.586784279
 10
2.5959272305
 20
-0.5755695417
 10
2.5392080507
 20
-0.5707320117
 10
2.4846173315
 20
-0.5723030622
 10
2.4325091146
 20
-0.5802725044
 10
2.3832213418
 20
-0.5945886534
 10
2.3370736632
 20
-0.6151586634
 10
2.3261069247
 20
-0.6212381775
  0
LWPOLYLINE
  5
14E
330
130
100
AcDbEntity
  8
0
  6
Continuous
 62
     7
370
    25
100
AcDbPolyline
 90
       11
 70
   128
 43
0.0
 10
3.4086961038
 20
-2.4965408322
 10
3.4404376643
 20
-2.4759298796
 10
3.4794296039
 20
-2.4432920542
 10
3.5144523066
 20
-2.4049185389
 10
3.5452786365
 20
-2.3610582007
 10
3.5717086732
 20
-2.3119954906
 10
3.5935710077
 20
-2.2580485992
 10
3.6107238544
 20
-2.1995673929
 10
3.6230559705
 20
-2.1369311445
 10
3.6304873774
 20
-2.0705460744
 10
3.6329698797
 20
-2.000842715
  0
LWPOLYLINE
  5
14F
330
130
100
AcDbEntity
  8
0
  6
Continuous
 62
     7
370
    25
100
AcDbPolyline
 90
       46
 70
   128
 43
0.0
 10
0.7655683655
 20
-0.4419532101
 10
0.7630858631
 20
-0.3693836146
 10
0.7556544562
 20
-0.2944184246
 10
0.7433223401
 20
-0.2175438181
 10
0.7261694934
 20
-0.1392583565
 10
0.7043071589
 20
-0.060069751
 10
0.6778771222
 20
0.0195084298
 10
0.6470507923
 20
0.0989600911
 10
0.6120280897
 20
0.1777699581
 10
0.57303615
 20
0.2554269188
 10
0.530327851
 20
0.3314273379
 10
0.4841801724
 20
0.4052783235
 10
0.4348923996
 20
0.4765009237
 10
0.3827841827
 20
0.5446332325
 10
0.3281934635
 20
0.6092333858
 10
0.2714742838
 20
0.6698824268
 10
0.2129944891
 20
0.7261870233
 10
0.1531333434
 20
0.7777820182
 10
0.0922790693
 20
0.8243327983
 10
0.03082633
 20
0.8655374639
 10
-0.03082633
 20
0.9011287869
 10
-0.0922790693
 20
0.9308759439
 10
-0.1531333434
 20
0.9545860132
 10
-0.2129944891
 20
0.9721052259
 10
-0.2714742838
 20
0.9833199632
 10
-0.3281934635
 20
0.9881574932
 10
-0.3827841827
 20
0.9865864426
 10
-0.4348923996
 20
0.9786170004
 10
-0.4841801724
 20
0.9643008514
 10
-0.530327851
 20
0.9437308414
 10
-0.57303615
 20
0.9170403747
 10
-0.6120280897
 20
0.8844025493
 10
-0.6470507923
 20
0.846029034
 10
-0.6778771222
 20
0.8021686958
 10
-0.7043071589
 20
0.7531059857
 10
-0.7261694934
 20
0.6991590944
 10
-0.7433223401
 20
0.640677888
 10
-0.7556544562
 20
0.5780416397
 10
-0.7630858631
 20
0.5116565695
 10
-0.7655683655
 20
0.4419532101
 10
-0.7630858631
 20
0.3693836146
 10
-0.7556544562
 20
0.2944184246
 10
-0.7433223401
 20
0.2175438181
 10
-0.7261694934
 20
0.1392583565
 10
-0.7043071589
 20
0.060069751
 10
-0.7011544474
 20
0.0498263505
  0
LWPOLYLINE
  5
150
330
130
100
AcDbEntity
  8
0
  6
Continuous
 62
     7
370
    25
100
AcDbPolyline
 90
       26
 70
   128
 43
0.0
 10
-0.307485655
 20
-0.6321018876
 10
-0.2714742838
 20
-0.6698824268
 10
-0.2129944891
 20
-0.7261870233
 10
-0.1531333434
 20
-0.7777820182
 10
-0.0922790693
 20
-0.8243327983
 10
-0.03082633
 20
-0.8655374639
 10
0.03082633
 20
-0.9011287869
 10
0.0922790693
 20
-0.9308759439
 10
0.1531333434
 20
-0.9545860132
 10
0.2129944891
 20
-0.9721052259
 10
0.2714742838
 20
-0.9833199632
 10
0.3281934635
 20
-0.9881574932
 10
0.3827841827
 20
-0.9865864426
 10
0.4348923996
 20
-0.9786170004
 10
0.4841801724
 20
-0.9643008514
 10
0.530327851
 20
-0.9437308414
 10
0.57303615
 20
-0.9170403747
 10
0.6120280897
 20
-0.8844025493
 10
0.6470507923
 20
-0.846029034
 10
0.6778771222
 20
-0.8021686958
 10
0.7043071589
 20
-0.7531059857
 10
0.7261694934
 20
-0.6991590944
 10
0.7433223401
 20
-0.640677888
 10
0.7556544562
 20
-0.5780416397
 10
0.7630858631
 20
-0.5116565695
 10
0.7655683655
 20
-0.4419532101
  0
LWPOLYLINE
  5
151
330
130
100
AcDbEntity
  8
0
  6
Continuous
 62
     7
370
    25
100
AcDbPolyline
 90
       19
 70
   128
 43
0.0
 10
0.2783884965
 20
-0.1607102582
 10
0.2759045719
 20
-0.1164281936
 10
0.2684971236
 20
-0.070068465
 10
0.2562983378
 20
-0.022458363
 10
0.2395259021
 20
0.0255525089
 10
0.2184791209
 20
0.0731073958
 10
0.1935335747
 20
0.1193576795
 10
0.1651344173
 20
0.1634780225
 10
0.1337884323
 20
0.2046810963
 10
0.1000549895
 20
0.2422316312
 10
0.0645360631
 20
0.2754595368
 10
0.0278654891
 20
0.3037718605
 10
-0.0093023452
 20
0.3266633681
 10
-0.046304179
 20
0.3437255602
 10
-0.0824797135
 20
0.3546539615
 10
-0.1171833956
 20
0.3592535545
 10
-0.1497959373
 20
0.3574422593
 10
-0.1797353669
 20
0.3492523985
 10
-0.1968343962
 20
0.340964119
  0
LWPOLYLINE
  5
153
330
130
100
AcDbEntity
  8
0
  6
Continuous
 62
     7
370
    25
100
AcDbPolyline
 90
       31
 70
   128
 43
0.0
 10
0.8490849144
 20
-0.3937401327
 10
0.8466024121
 20
-0.3211705371
 10
0.8391710052
 20
-0.2462053471
 10
0.8268388891
 20
-0.1693307407
 10
0.8096860424
 20
-0.0910452791
 10
0.7878237079
 20
-0.0118566736
 10
0.7613936712
 20
0.0677215073
 10
0.7305673413
 20
0.1471731685
 10
0.6955446386
 20
0.2259830356
 10
0.656552699
 20
0.3036399963
 10
0.6138444
 20
0.3796404153
 10
0.5676967214
 20
0.453491401
 10
0.5184089486
 20
0.5247140011
 10
0.4663007317
 20
0.59284631
 10
0.4117100125
 20
0.6574464633
 10
0.3549908327
 20
0.7180955043
 10
0.2965110381
 20
0.7744001008
 10
0.2366498924
 20
0.8259950957
 10
0.1757956182
 20
0.8725458758
 10
0.1143428789
 20
0.9137505413
 10
0.052690219
 20
0.9493418643
 10
-0.0087625203
 20
0.9790890213
 10
-0.0696167945
 20
1.0027990906
 10
-0.1294779401
 20
1.0203183033
 10
-0.1879577348
 20
1.0315330406
 10
-0.2446769146
 20
1.0363705706
 10
-0.2992676338
 20
1.0347995201
 10
-0.3513758507
 20
1.0268300779
 10
-0.4006636235
 20
1.0125139289
 10
-0.4468113021
 20
0.9919439189
 10
-0.4577780406
 20
0.9858644049
  0
LWPOLYLINE
  5
154
330
130
100
AcDbEntity
  8
0
  6
Continuous
 62
     7
370
    25
100
AcDbPolyline
 90
       11
 70
   128
 43
0.0
 10
0.6248111385
 20
-0.8894382499
 10
0.656552699
 20
-0.8688272973
 10
0.6955446386
 20
-0.8361894719
 10
0.7305673413
 20
-0.7978159566
 10
0.7613936712
 20
-0.7539556183
 10
0.7878237079
 20
-0.7048929083
 10
0.8096860424
 20
-0.6509460169
 10
0.8268388891
 20
-0.5924648105
 10
0.8391710052
 20
-0.5298285622
 10
0.8466024121
 20
-0.463443492
 10
0.8490849144
 20
-0.3937401327
  0
LWPOLYLINE
  5
159
330
130
100
AcDbEntity
  8
0
  6
Continuous
 62
     7
370
    25
100
AcDbPolyline
 90
       63
 70
   128
 43
0.0
 10
1.4838106865
 20
-2.9201968193
 10
1.5330978564
 20
-2.9457632945
 10
1.5818792731
 20
-2.9652946183
 10
1.6296543735
 20
-2.978590373
 10
1.6759329203
 20
-2.9855141261
 10
1.720240033
 20
-2.9859948305
 10
1.7621210607
 20
-2.9800275536
 10
1.8011462473
 20
-2.9676735277
 10
1.8369151416
 20
-2.9490595218
 10
1.8690607064
 20
-2.9243765408
 10
1.8972530846
 20
-2.8938778655
 10
1.9212029844
 20
-2.8578764536
 10
1.9406646473
 20
-2.8167417283
 10
1.9554383704
 20
-2.7708957875
 10
1.9653725552
 20
-2.7208090726
 10
1.9703652636
 20
-2.6669955411
 10
1.9703652636
 20
-2.6100073926
 10
1.9653725552
 20
-2.5504294028
 10
1.9554383704
 20
-2.4888729222
 10
1.9406646473
 20
-2.4259696039
 10
1.9212029844
 20
-2.3623649208
 10
1.8972530846
 20
-2.2987115432
 10
1.8690607064
 20
-2.2356626409
 10
1.8369151416
 20
-2.1738651808
 10
1.8011462473
 20
-2.1139532886
 10
1.7621210607
 20
-2.0565417413
 10
1.720240033
 20
-2.0022196591
 10
1.6759329203
 20
-1.9515444601
 10
1.6296543735
 20
-1.9050361404
 10
1.5818792731
 20
-1.8631719383
 10
1.5330978564
 20
-1.8263814371
 10
1.4838106865
 20
-1.7950421573
 10
1.4345235167
 20
-1.7694756821
 10
1.3857420999
 20
-1.7499443583
 10
1.3379669995
 20
-1.7366486036
 10
1.2916884527
 20
-1.7297248505
 10
1.24738134
 20
-1.7292441461
 10
1.2055003124
 20
-1.735211423
 10
1.1664751257
 20
-1.7475654489
 10
1.1307062314
 20
-1.7661794548
 10
1.0985606666
 20
-1.7908624358
 10
1.0703682884
 20
-1.821361111
 10
1.0464183886
 20
-1.8573625229
 10
1.0269567257
 20
-1.8984972483
 10
1.0121830026
 20
-1.9443431891
 10
1.0022488178
 20
-1.994429904
 10
0.9972561094
 20
-2.0482434355
 10
0.9972561094
 20
-2.1052315839
 10
1.0022488178
 20
-2.1648095738
 10
1.0121830026
 20
-2.2263660543
 10
1.0269567257
 20
-2.2892693727
 10
1.0464183886
 20
-2.3528740557
 10
1.0703682884
 20
-2.4165274333
 10
1.0985606666
 20
-2.4795763357
 10
1.1307062314
 20
-2.5413737958
 10
1.1664751257
 20
-2.601285688
 10
1.2055003124
 20
-2.6586972353
 10
1.24738134
 20
-2.7130193175
 10
1.2916884527
 20
-2.7636945165
 10
1.3379669995
 20
-2.8102028362
 10
1.3857420999
 20
-2.8520670383
 10
1.4345235167
 20
-2.8888575394
 10
1.4838106865
 20
-2.9201968193
  0
LWPOLYLINE
  5
15A
330
130
100
AcDbEntity
  8
0
  6
Continuous
 62
     7
370
    25
100
AcDbPolyline
 90
       25
 70
   128
 43
0.0
 10
2.7783171954
 20
-2.1728026913
 10
2.7617355845
 20
-2.1225741137
 10
2.7403249987
 20
-2.069975016
 10
2.7143051395
 20
-2.0155451361
 10
2.6839430059
 20
-1.9598429982
 10
2.6495501544
 20
-1.9034401818
 10
2.6114795024
 20
-1.8469154559
 10
2.5701217061
 20
-1.7908488407
 10
2.5259011526
 20
-1.7358156557
 10
2.4792716045
 20
-1.6823806157
 10
2.4307115442
 20
-1.6310920366
 10
2.3807192635
 20
-1.5824762086
 10
2.3298077509
 20
-1.5370319959
 10
2.2784994274
 20
-1.4952257176
 10
2.2273207859
 20
-1.4574863627
 10
2.1767969884
 20
-1.424201188
 10
2.1274464776
 20
-1.3957117445
 10
2.0797756563
 20
-1.3723103724
 10
2.0342736918
 20
-1.3542372014
 10
1.9914074958
 20
-1.3416776869
 10
1.9516169334
 20
-1.3347607063
 10
1.9153103098
 20
-1.3335572372
 10
1.8828601798
 20
-1.3380796289
 10
1.8545995259
 20
-1.3482814755
 10
1.8482439382
 20
-1.351696805
  0
LWPOLYLINE
  5
16B
330
130
100
AcDbEntity
  8
0
  6
Continuous
 62
     7
370
    25
100
AcDbPolyline
 90
       12
 70
   128
 43
0.0
 10
1.6047188681
 20
-4.5854518412
 10
1.6075403354
 20
-4.602583679
 10
1.6175357283
 20
-4.6213762772
 10
1.6342954235
 20
-4.6384890887
 10
1.6570357565
 20
-4.6531219375
 10
1.6846934143
 20
-4.6645906078
 10
1.7159751558
 20
-4.6723588373
 10
1.7494182814
 20
-4.6760633923
 10
1.7834590277
 20
-4.6755310518
 10
1.8165056874
 20
-4.6707867076
 10
1.8470130353
 20
-4.6620521999
 10
1.8735545816
 20
-4.6497359445
  0
LWPOLYLINE
  5
16C
330
130
100
AcDbEntity
  8
0
  6
Continuous
 62
     7
370
    25
100
AcDbPolyline
 90
       25
 70
   128
 43
0.0
 10
2.7632941195
 20
-2.1268290485
 10
2.7629862838
 20
-2.1217756694
 10
2.7567299819
 20
-2.0623630615
 10
2.7455382821
 20
-2.0011398959
 10
2.729529819
 20
-1.9387551533
 10
2.7088742865
 20
-1.8758701277
 10
2.6837906383
 20
-1.8131514158
 10
2.6545447674
 20
-1.7512638517
 10
2.6214466871
 20
-1.6908634588
 10
2.5848472454
 20
-1.6325904965
 10
2.5451344056
 20
-1.5770626726
 10
2.5027291335
 20
-1.5248685958
 10
2.4580809356
 20
-1.4765615364
 10
2.4116630939
 20
-1.4326535611
 10
2.3639676491
 20
-1.3936101055
 10
2.3155001848
 20
-1.3598450399
 10
2.2667744681
 20
-1.3317162824
 10
2.2183070038
 20
-1.3095220048
 10
2.170611559
 20
-1.293497472
 10
2.1241937173
 20
-1.283812548
 10
2.0795455194
 20
-1.2805698955
 10
2.0371402473
 20
-1.2838038872
 10
1.9974274075
 20
-1.2934802422
 10
1.9608279658
 20
-1.3094963887
 10
1.9281394475
 20
-1.3313528411
  0
LWPOLYLINE
  5
16D
330
130
100
AcDbEntity
  8
0
  6
Continuous
 62
     7
370
    25
100
AcDbPolyline
 90
       30
 70
   128
 43
0.0
 10
2.7424706705
 20
-2.3639141336
 10
2.7476092313
 20
-2.3546040894
 10
2.765965568
 20
-2.313079822
 10
2.7795837058
 20
-2.2669169799
 10
2.7883192893
 20
-2.2166049008
 10
2.792079719
 20
-2.1626769053
 10
2.7908251334
 20
-2.1057046436
 10
2.7845688316
 20
-2.0462920356
 10
2.7733771317
 20
-1.98506887
 10
2.7573686687
 20
-1.9226841275
 10
2.7367131362
 20
-1.8597991018
 10
2.711629488
 20
-1.79708039
 10
2.682383617
 20
-1.7351928258
 10
2.6492855367
 20
-1.674792433
 10
2.6126860951
 20
-1.6165194707
 10
2.5729732552
 20
-1.5609916468
 10
2.5305679831
 20
-1.50879757
 10
2.4859197852
 20
-1.4604905105
 10
2.4395019436
 20
-1.4165825353
 10
2.3918064988
 20
-1.3775390797
 10
2.3433390344
 20
-1.3437740141
 10
2.2946133178
 20
-1.3156452566
 10
2.2461458534
 20
-1.293450979
 10
2.1984504086
 20
-1.2774264462
 10
2.152032567
 20
-1.2677415222
 10
2.1073843691
 20
-1.2644988696
 10
2.064979097
 20
-1.2677328614
 10
2.0252662571
 20
-1.2774092164
 10
1.9886668155
 20
-1.2934253628
 10
1.9843577026
 20
-1.2958497112
  0
LWPOLYLINE
  5
16E
330
130
100
AcDbEntity
  8
0
  6
Continuous
 62
     7
370
    25
100
AcDbPolyline
 90
       35
 70
   128
 43
0.0
 10
2.6492356835
 20
-2.4797242235
 10
2.6720806312
 20
-2.4669287471
 10
2.704226196
 20
-2.4422457661
 10
2.7324185742
 20
-2.4117470908
 10
2.756368474
 20
-2.3757456789
 10
2.7758301369
 20
-2.3346109536
 10
2.79060386
 20
-2.2887650128
 10
2.8005380448
 20
-2.2386782979
 10
2.8055307532
 20
-2.1848647664
 10
2.8055307532
 20
-2.1278766179
 10
2.8005380448
 20
-2.0682986281
 10
2.79060386
 20
-2.0067421475
 10
2.7758301369
 20
-1.9438388292
 10
2.756368474
 20
-1.8802341461
 10
2.7324185742
 20
-1.8165807685
 10
2.704226196
 20
-1.7535318662
 10
2.6720806312
 20
-1.6917344061
 10
2.6363117369
 20
-1.6318225139
 10
2.5972865502
 20
-1.5744109666
 10
2.5554055226
 20
-1.5200888844
 10
2.5110984099
 20
-1.4694136854
 10
2.4648198631
 20
-1.4229053657
 10
2.4170447627
 20
-1.3810411636
 10
2.3682633459
 20
-1.3442506624
 10
2.3189761761
 20
-1.3129113826
 10
2.2696890063
 20
-1.2873449074
 10
2.2209075895
 20
-1.2678135836
 10
2.1731324891
 20
-1.2545178289
 10
2.1268539423
 20
-1.2475940758
 10
2.0825468296
 20
-1.2471133714
 10
2.0406658019
 20
-1.2530806483
 10
2.0016406153
 20
-1.2654346742
 10
1.965871721
 20
-1.2840486801
 10
1.9337261562
 20
-1.3087316611
 10
1.9098273726
 20
-1.3338982727
  0
LWPOLYLINE
  5
16F
330
130
100
AcDbEntity
  8
0
  6
Continuous
 62
     7
370
    25
100
AcDbPolyline
 90
       33
 70
   128
 43
0.0
 10
3.1283451586
 20
-2.2037897907
 10
3.1369894204
 20
-2.1985426158
 10
3.1691349852
 20
-2.1738596348
 10
3.1973273634
 20
-2.1433609596
 10
3.2212772632
 20
-2.1073595477
 10
3.2407389261
 20
-2.0662248223
 10
3.2555126492
 20
-2.0203788815
 10
3.265446834
 20
-1.9702921666
 10
3.2704395424
 20
-1.9164786351
 10
3.2704395424
 20
-1.8594904867
 10
3.265446834
 20
-1.7999124968
 10
3.2555126492
 20
-1.7383560163
 10
3.2407389261
 20
-1.6754526979
 10
3.2212772632
 20
-1.6118480149
 10
3.1973273634
 20
-1.5481946373
 10
3.1691349852
 20
-1.4851457349
 10
3.1369894204
 20
-1.4233482748
 10
3.1012205261
 20
-1.3634363826
 10
3.0621953395
 20
-1.3060248353
 10
3.0203143118
 20
-1.2517027531
 10
2.9760071991
 20
-1.2010275541
 10
2.9297286523
 20
-1.1545192344
 10
2.8819535519
 20
-1.1126550323
 10
2.8331721351
 20
-1.0758645312
 10
2.7838849653
 20
-1.0445252513
 10
2.7345977955
 20
-1.0189587761
 10
2.6858163787
 20
-0.9994274523
 10
2.6380412783
 20
-0.9861316976
 10
2.5917627315
 20
-0.9792079445
 10
2.5474556188
 20
-0.9787272401
 10
2.5055745911
 20
-0.984694517
 10
2.4665494045
 20
-0.9970485429
 10
2.439424772
 20
-1.010415374
  0
LWPOLYLINE
  5
170
330
130
100
AcDbEntity
  8
0
  6
Continuous
 62
     8
370
    25
100
AcDbPolyline
 90
       19
 70
   128
 43
0.0
 10
-3.5881922762
 20
-2.3928398261
 10
-3.5906762008
 20
-2.3485577614
 10
-3.5980836491
 20
-2.3021980329
 10
-3.6102824349
 20
-2.2545879309
 10
-3.6270548706
 20
-2.2065770589
 10
-3.6481016517
 20
-2.159022172
 10
-3.6730471979
 20
-2.1127718884
 10
-3.7014463554
 20
-2.0686515454
 10
-3.7327923404
 20
-2.0274484715
 10
-3.7665257832
 20
-1.9898979367
 10
-3.8020447096
 20
-1.956670031
 10
-3.8387152836
 20
-1.9283577074
 10
-3.8758831179
 20
-1.9054661997
 10
-3.9128849516
 20
-1.8884040076
 10
-3.9490604862
 20
-1.8774756063
 10
-3.9837641683
 20
-1.8728760133
 10
-4.01637671
 20
-1.8746873086
 10
-4.0463161396
 20
-1.8828771694
 10
-4.0634501276
 20
-1.8911856372
  0
LWPOLYLINE
  5
172
330
130
100
AcDbEntity
  8
0
  6
Continuous
 62
     8
370
    25
100
AcDbPolyline
 90
       20
 70
   128
 43
0.0
 10
-4.0842842095
 20
-3.030281966
 10
-4.1198294258
 20
-3.0284812623
 10
-4.1597081863
 20
-3.0238448139
 10
-4.2032088534
 20
-3.0164553583
 10
-4.2495551567
 20
-3.0064447604
 10
-4.2979200454
 20
-2.9939916596
 10
-4.3474404468
 20
-2.9793182819
 10
-4.3972326683
 20
-2.962686474
 10
-4.4464081664
 20
-2.9443930308
 10
-4.4940894032
 20
-2.9247643994
 10
-4.539425506
 20
-2.904150853
 10
-4.5816074509
 20
-2.882920241
 10
-4.6198825
 20
-2.8614514242
 10
-4.6535676343
 20
-2.8401275139
 10
-4.6820617417
 20
-2.819329036
 10
-4.7048563442
 20
-2.7994271398
 10
-4.7215446716
 20
-2.780776975
 10
-4.7318289202
 20
-2.7637113544
 10
-4.7355255675
 20
-2.7485348143
 10
-4.7340801692
 20
-2.7389700027
  0
LINE
  5
174
330
130
100
AcDbEntity
  8
0
  6
Continuous
 62
     7
370
    25
100
AcDbLine
 10
-4.3611995637
 20
-4.0521326663
 30
0.0
 11
-3.9912678287
 21
-3.0001807699
 31
0.0
  0
LINE
  5
175
330
130
100
AcDbEntity
  8
0
  6
Continuous
 62
     7
370
    25
100
AcDbLine
 10
-4.7340775833
 20
-2.7389626456
 30
0.0
 11
-5.1040093183
 21
-3.7909145419
 31
0.0
  0
LINE
  5
176
330
130
100
AcDbEntity
  8
0
  6
Continuous
 62
     7
370
    25
100
AcDbLine
 10
-3.6697463765
 20
-2.5730936869
 30
0.0
 11
0.1968343962
 21
-0.340964119
 31
0.0
  0
LINE
  5
177
330
130
100
AcDbEntity
  8
0
  6
Continuous
 62
     7
370
    25
100
AcDbLine
 10
-0.1968343962
 20
0.340964119
 30
0.0
 11
-4.0634151689
 21
-1.8911654488
 31
0.0
  0
LINE
  5
178
330
130
100
AcDbEntity
  8
0
  6
Continuous
 62
     7
370
    25
100
AcDbLine
 10
2.3261069247
 20
-0.6212381775
 30
0.0
 11
2.2425903758
 21
-0.6694512549
 31
0.0
  0
LINE
  5
179
330
130
100
AcDbEntity
  8
0
  6
Continuous
 62
     7
370
    25
100
AcDbLine
 10
3.3251795548
 20
-2.5447539097
 30
0.0
 11
3.4086961038
 21
-2.4965408322
 31
0.0
  0
LINE
  5
17A
330
130
100
AcDbEntity
  8
0
  6
Continuous
 62
     7
370
    25
100
AcDbLine
 10
-0.4577780406
 20
0.9858644049
 30
0.0
 11
-0.5412945895
 21
0.9376513274
 31
0.0
  0
LINE
  5
17B
330
130
100
AcDbEntity
  8
0
  6
Continuous
 62
     7
370
    25
100
AcDbLine
 10
0.5412945895
 20
-0.9376513274
 30
0.0
 11
0.6248111385
 21
-0.8894382499
 31
0.0
  0
LINE
  5
17C
330
130
100
AcDbEntity
  8
0
  6
Continuous
 62
     7
370
    25
100
AcDbLine
 10
1.8482439382
 20
-1.351696805
 30
0.0
 11
1.1393504932
 21
-1.7609322799
 31
0.0
  0
LINE
  5
17D
330
130
100
AcDbEntity
  8
0
  6
Continuous
 62
     7
370
    25
100
AcDbLine
 10
1.8282708798
 20
-2.9543066966
 30
0.0
 11
2.6355975198
 21
-2.4882469477
 31
0.0
  0
LINE
  5
17E
330
130
100
AcDbEntity
  8
0
  6
Continuous
 62
     7
370
    25
100
AcDbLine
 10
1.919679498
 20
-4.5854518412
 30
0.0
 11
1.919679498
 21
-2.9015376246
 31
0.0
  0
LINE
  5
17F
330
130
100
AcDbEntity
  8
0
  6
Continuous
 62
     7
370
    25
100
AcDbLine
 10
1.6047188681
 20
-2.9723948308
 30
0.0
 11
1.6047188681
 21
-4.5854518412
 31
0.0
  0
LINE
  5
180
330
130
100
AcDbEntity
  8
0
  6
Continuous
 62
     7
370
    25
100
AcDbLine
 10
1.9843577026
 20
-1.2958497112
 30
0.0
 11
1.9565188529
 21
-1.311920737
 31
0.0
  0
LINE
  5
181
330
130
100
AcDbEntity
  8
0
  6
Continuous
 62
     7
370
    25
100
AcDbLine
 10
2.439424772
 20
-1.010415374
 30
0.0
 11
1.9745159828
 21
-1.2788015052
 31
0.0
  0
LINE
  5
182
330
130
100
AcDbEntity
  8
0
  6
Continuous
 62
     7
370
    25
100
AcDbLine
 10
2.6634363694
 20
-2.4721759219
 30
0.0
 11
3.1283451586
 21
-2.2037897907
 31
0.0
  0
LINE
  5
183
330
130
100
AcDbEntity
  8
0
  6
Continuous
 62
     7
370
    25
100
AcDbLine
 10
1.75922656
 20
-2.8573963329
 30
0.0
 11
1.7402323619
 21
-2.8229289643
 31
0.0
  0
LINE
  5
184
330
130
100
AcDbEntity
  8
0
  6
Continuous
 62
     7
370
    25
100
AcDbLine
 10
1.2750193141
 20
-2.6360239991
 30
0.0
 11
1.2894187191
 21
-2.616823688
 31
0.0
  0
LINE
  5
185
330
130
100
AcDbEntity
  8
0
  6
Continuous
 62
     7
370
    25
100
AcDbLine
 10
1.6779242654
 20
-2.8414245865
 30
0.0
 11
1.6923236704
 21
-2.8772500967
 31
0.0
  0
LINE
  5
186
330
130
100
AcDbEntity
  8
0
  6
Continuous
 62
     7
370
    25
100
AcDbLine
 10
1.7589481715
 20
-2.8575570431
 30
0.0
 11
1.7399539734
 21
-2.8230896745
 31
0.0
  0
LINE
  5
187
330
130
100
AcDbEntity
  8
0
  6
Continuous
 62
     7
370
    25
100
AcDbLine
 10
1.7589481715
 20
-2.8575570431
 30
0.0
 11
1.75922656
 21
-2.8573963329
 31
0.0
  0
LINE
  5
188
330
130
100
AcDbEntity
  8
0
  6
Continuous
 62
     7
370
    25
100
AcDbLine
 10
1.7399539734
 20
-2.8230896745
 30
0.0
 11
1.7402323619
 21
-2.8229289643
 31
0.0
  0
LINE
  5
189
330
130
100
AcDbEntity
  8
0
  6
Continuous
 62
     7
370
    25
100
AcDbLine
 10
1.6779242654
 20
-2.8414245865
 30
0.0
 11
1.6782026539
 21
-2.8412638762
 31
0.0
  0
LINE
  5
18A
330
130
100
AcDbEntity
  8
0
  6
Continuous
 62
     7
370
    25
100
AcDbLine
 10
1.2891403306
 20
-2.6169843983
 30
0.0
 11
1.2894187191
 21
-2.616823688
 31
0.0
  0
LINE
  5
18B
330
130
100
AcDbEntity
  8
0
  6
Continuous
 62
     7
370
    25
100
AcDbLine
 10
1.2271106227
 20
-2.5270315099
 30
0.0
 11
1.2273890112
 21
-2.5268707997
 31
0.0
  0
LINE
  5
18C
330
130
100
AcDbEntity
  8
0
  6
Continuous
 62
     7
370
    25
100
AcDbLine
 10
1.2747409256
 20
-2.6361847094
 30
0.0
 11
1.2891403306
 21
-2.6169843983
 31
0.0
  0
LINE
  5
18D
330
130
100
AcDbEntity
  8
0
  6
Continuous
 62
     7
370
    25
100
AcDbLine
 10
1.2271106227
 20
-2.5270315099
 30
0.0
 11
1.2081164245
 21
-2.5395686441
 31
0.0
  0
LINE
  5
18E
330
130
100
AcDbEntity
  8
0
  6
Continuous
 62
     7
370
    25
100
AcDbLine
 10
1.2747409256
 20
-2.6361847094
 30
0.0
 11
1.2750193141
 21
-2.6360239991
 31
0.0
  0
ARC
  5
18F
330
130
100
AcDbEntity
  8
0
  6
Continuous
 62
     7
370
    25
100
AcDbCircle
 10
-4.433641646
 20
-3.9870443635
 30
0.0
 40
0.0973875887566831
100
AcDbArc
 50
257.803680059
 51
318.0607030638
  0
ARC
  5
190
330
130
100
AcDbEntity
  8
0
  6
Continuous
 62
     7
370
    25
100
AcDbCircle
 10
0.0810213065
 20
-0.1799895079
 30
0.0
 40
0.1983065737204674
100
AcDbArc
 50
305.7331058618
 51
5.5790745316
  0
ARC
  5
191
330
130
100
AcDbEntity
  8
0
  6
Continuous
 62
     7
370
    25
100
AcDbCircle
 10
2.9280832323
 20
-1.9231750458
 30
0.0
 40
0.3447455208793646
100
AcDbArc
 50
305.5137163071
 51
5.7984640863
  0
ARC
  5
192
330
130
100
AcDbEntity
  8
0
  6
Continuous
 62
     7
370
    25
100
AcDbCircle
 10
1.6566178073
 20
-2.654143885
 30
0.0
 40
0.1883608152849567
100
AcDbArc
 50
276.5801553005
 51
296.3533860567
  0
ARC
  5
193
330
130
100
AcDbEntity
  8
0
  6
Continuous
 62
     7
370
    25
100
AcDbCircle
 10
1.9989718937
 20
-2.0611663821
 30
0.0
 40
0.9012329050188546
100
AcDbArc
 50
211.1139285641
 51
218.0648068588
  0
ARC
  5
194
330
130
100
AcDbEntity
  8
0
  6
Continuous
 62
     7
370
    25
100
AcDbCircle
 10
2.4353355934
 20
-2.2076322029
 30
0.0
 40
0.3447455208793569
100
AcDbArc
 50
305.5137163071
 51
5.7984640863
  0
ARC
  5
195
330
130
100
AcDbEntity
  8
0
  6
Continuous
 62
     7
370
    25
100
AcDbCircle
 10
1.6563394188
 20
-2.6543045952
 30
0.0
 40
0.1883608152849162
100
AcDbArc
 50
276.5801553005
 51
296.3533860567
  0
ARC
  5
196
330
130
100
AcDbEntity
  8
0
  6
Continuous
 62
     7
370
    25
100
AcDbCircle
 10
1.6691399462
 20
-2.6762693653
 30
0.0
 40
0.202313468269021
100
AcDbArc
 50
276.5801553005
 51
296.3533860567
  0
ARC
  5
197
330
130
100
AcDbEntity
  8
0
  6
Continuous
 62
     7
370
    25
100
AcDbCircle
 10
1.9986935052
 20
-2.0613270924
 30
0.0
 40
0.9012329050188411
100
AcDbArc
 50
211.1139285641
 51
218.0648068588
  0
ARC
  5
198
330
130
100
AcDbEntity
  8
0
  6
Continuous
 62
     7
370
    25
100
AcDbCircle
 10
2.0368535946
 20
-2.0393676031
 30
0.0
 40
0.9679908979832162
100
AcDbArc
 50
211.1139285641
 51
218.0648068588
  0
ARC
  5
199
330
130
100
AcDbEntity
  8
0
  6
Continuous
 62
     7
370
    25
100
AcDbCircle
 10
1.8421154605
 20
-4.5784881006
 30
0.0
 40
0.0778760142972696
100
AcDbArc
 50
293.8101498461
 51
354.8697091963
  0
ARC
  5
19A
330
130
100
AcDbEntity
  8
0
  6
Continuous
 62
     8
370
    25
100
AcDbCircle
 10
-3.7855684097
 20
-2.4121175018
 30
0.0
 40
0.1983153218681813
100
AcDbArc
 50
305.7414015565
 51
5.578370739
  0
ARC
  5
19B
330
130
100
AcDbEntity
  8
0
  6
Continuous
 62
     8
370
    25
100
AcDbCircle
 10
-4.0637191897
 20
-2.934997414
 30
0.0
 40
0.097478540654343
100
AcDbArc
 50
257.8208140383
 51
317.9937671203
  0
VIEWPORT
  5
1A0
330
130
100
AcDbEntity
  8
0
100
AcDbViewport
 10
0.0
 20
0.0
 30
0.0
 40
8.4
 41
6.4
 68
     1
 69
     1
 12
1.968503937
 22
-0.9251968504
 13
0.0
 23
0.0
 14
0.5
 24
0.5
 15
0.5
 25
0.5
 16
0.0
 26
0.0
 36
1.0
 17
0.0
 27
0.0
 37
0.0
 42
50.0
 43
0.0
 44
0.0
 45
4.7424071991
 50
0.0
 51
0.0
 72
   100
 90
   557152
  1

281
     0
 71
     1
 74
     0
110
0.0
120
0.0
130
0.0
111
1.0
121
0.0
131
0.0
112
0.0
122
1.0
132
0.0
 79
     0
146
0.0
  0
ENDBLK
  5
133
330
130
100
AcDbEntity
  8
0
100
AcDbBlockEnd
  0
ENDSEC
  0
SECTION
  2
ENTITIES
  0
LWPOLYLINE
  5
7B
330
1F
100
AcDbEntity
  8
0
  6
Continuous
 62
     7
370
    25
100
AcDbPolyline
 90
       48
 70
   128
 43
0.0
 10
0.3937007874
 20
-1.4566929134
 10
0.3901879875
 20
-1.4328696805
 10
0.3797122736
 20
-1.4094715738
 10
0.3624605853
 20
-1.386916133
 10
0.3387407792
 20
-1.3656058605
 10
0.3089761359
 20
-1.3459210387
 10
0.2736978062
 20
-1.3282129435
 10
0.2335353326
 20
-1.3127975765
 10
0.1892054154
 20
-1.2999500251
 10
0.1414991232
 20
-1.2898995543
 10
0.0912677757
 20
-1.282825515
 10
0.0394077526
 20
-1.2788541435
 10
-0.0131555028
 20
-1.2780563091
 10
-0.0654839979
 20
-1.2804462491
 10
-0.1166439295
 20
-1.285981315
 10
-0.1657223474
 20
-1.2945627334
 10
-0.2118434461
 20
-1.3060373687
 10
-0.2541841935
 20
-1.3202004558
 10
-0.291989018
 20
-1.336799254
 10
-0.3245832915
 20
-1.3555375574
 10
-0.3513853684
 20
-1.3760809805
 10
-0.3719169652
 20
-1.3980629255
 10
-0.3858116949
 20
-1.421091124
 10
-0.3928216058
 20
-1.4447546373
 10
-0.3928216058
 20
-1.4686311894
 10
-0.3858116949
 20
-1.4922947027
 10
-0.3719169652
 20
-1.5153229012
 10
-0.3513853684
 20
-1.5373048462
 10
-0.3245832915
 20
-1.5578482694
 10
-0.291989018
 20
-1.5765865728
 10
-0.2541841935
 20
-1.593185371
 10
-0.2118434461
 20
-1.6073484581
 10
-0.1657223474
 20
-1.6188230934
 10
-0.1166439295
 20
-1.6274045118
 10
-0.0654839979
 20
-1.6329395777
 10
-0.0131555028
 20
-1.6353295177
 10
0.0394077526
 20
-1.6345316833
 10
0.0912677757
 20
-1.6305603118
 10
0.1414991232
 20
-1.6234862724
 10
0.1892054154
 20
-1.6134358016
 10
0.2335353326
 20
-1.6005882503
 10
0.2736978062
 20
-1.5851728833
 10
0.3089761359
 20
-1.5674647881
 10
0.3387407792
 20
-1.5477799662
 10
0.3624605853
 20
-1.5264696937
 10
0.3797122736
 20
-1.503914253
 10
0.3901879875
 20
-1.4805161463
 10
0.3937007874
 20
-1.4566929134
  0
LWPOLYLINE
  5
7C
330
1F
100
AcDbEntity
  8
0
  6
Continuous
 62
     7
370
    25
100
AcDbPolyline
 90
       43
 70
   128
 43
0.0
 10
0.0
 20
-1.5996820472
 10
0.046942446
 20
-1.5980849767
 10
0.0928362754
 20
-1.5933294411
 10
0.1366562958
 20
-1.5855216714
 10
0.1774236403
 20
-1.57483608
 10
0.2142276339
 20
-1.5615113656
 10
0.2462461362
 20
-1.5458451801
 10
0.2727639067
 20
-1.5281874803
 10
0.2931885823
 20
-1.50893271
 10
0.3070639093
 20
-1.488510989
 10
0.3140799361
 20
-1.4673785047
 10
0.3140799361
 20
-1.446007322
 10
0.3070639093
 20
-1.4248748378
 10
0.2931885823
 20
-1.4044531168
 10
0.2727639067
 20
-1.3851983465
 10
0.2462461362
 20
-1.3675406467
 10
0.2142276339
 20
-1.3518744612
 10
0.1774236403
 20
-1.3385497468
 10
0.1366562958
 20
-1.3278641554
 10
0.0928362754
 20
-1.3200563856
 10
0.046942446
 20
-1.3153008501
 10
0.0
 20
-1.3137037796
 10
-0.046942446
 20
-1.3153008501
 10
-0.0928362754
 20
-1.3200563856
 10
-0.1366562958
 20
-1.3278641554
 10
-0.1774236403
 20
-1.3385497468
 10
-0.2142276339
 20
-1.3518744612
 10
-0.2462461362
 20
-1.3675406467
 10
-0.2727639067
 20
-1.3851983465
 10
-0.2931885823
 20
-1.4044531168
 10
-0.3070639093
 20
-1.4248748378
 10
-0.3140799361
 20
-1.446007322
 10
-0.3140799361
 20
-1.4673785047
 10
-0.3070639093
 20
-1.488510989
 10
-0.2931885823
 20
-1.50893271
 10
-0.2727639067
 20
-1.5281874803
 10
-0.2462461362
 20
-1.5458451801
 10
-0.2142276339
 20
-1.5615113656
 10
-0.1774236403
 20
-1.57483608
 10
-0.1366562958
 20
-1.5855216714
 10
-0.0928362754
 20
-1.5933294411
 10
-0.046942446
 20
-1.5980849767
 10
0.0
 20
-1.5996820472
  0
CIRCLE
  5
8A
330
1F
100
AcDbEntity
  8
0
  6
Continuous
 62
     7
370
    25
100
AcDbCircle
 10
3.937007874
 20
0.0
 30
0.0
 40
0.6889763779527563
  0
LWPOLYLINE
  5
8C
330
1F
100
AcDbEntity
  8
0
  6
Continuous
 62
     8
370
    25
100
AcDbPolyline
 90
       25
 70
   128
 43
0.0
 10
0.3937007874
 20
-0.4299287404
 10
0.3901879875
 20
-0.4061055075
 10
0.3797122736
 20
-0.3827074008
 10
0.3624605853
 20
-0.36015196
 10
0.3387407792
 20
-0.3388416875
 10
0.3089761359
 20
-0.3191568656
 10
0.2736978062
 20
-0.3014487705
 10
0.2335353326
 20
-0.2860334035
 10
0.1892054154
 20
-0.2731858521
 10
0.1414991232
 20
-0.2631353813
 10
0.0912677757
 20
-0.256061342
 10
0.0394077526
 20
-0.2520899705
 10
-0.0131555028
 20
-0.251292136
 10
-0.0654839979
 20
-0.253682076
 10
-0.1166439295
 20
-0.2592171419
 10
-0.1657223474
 20
-0.2677985603
 10
-0.2118434461
 20
-0.2792731957
 10
-0.2541841935
 20
-0.2934362827
 10
-0.291989018
 20
-0.310035081
 10
-0.3245832915
 20
-0.3287733844
 10
-0.3513853684
 20
-0.3493168075
 10
-0.3719169652
 20
-0.3712987525
 10
-0.3858116949
 20
-0.394326951
 10
-0.3928216058
 20
-0.4179904643
 10
-0.3937007874
 20
-0.4299287404
  0
LINE
  5
8E
330
1F
100
AcDbEntity
  8
0
  6
Continuous
 62
     7
370
    25
100
AcDbLine
 10
0.3937007874
 20
-1.4566929134
 30
0.0
 11
0.3937007874
 21
0.0
 31
0.0
  0
LINE
  5
8F
330
1F
100
AcDbEntity
  8
0
  6
Continuous
 62
     7
370
    25
100
AcDbLine
 10
-0.3937007874
 20
0.0
 30
0.0
 11
-0.3937007874
 21
-1.4566929134
 31
0.0
  0
LINE
  5
90
330
1F
100
AcDbEntity
  8
0
  6
Continuous
 62
     7
370
    25
100
AcDbLine
 10
4.094488189
 20
-2.9251968504
 30
0.0
 11
4.094488189
 21
-0.6707372062
 31
0.0
  0
LINE
  5
91
330
1F
100
AcDbEntity
  8
0
  6
Continuous
 62
     7
370
    25
100
AcDbLine
 10
3.7795275591
 20
-0.671220406
 30
0.0
 11
3.7795275591
 21
-2.9251968504
 31
0.0
  0
LINE
  5
92
330
1F
100
AcDbEntity
  8
0
  6
Continuous
 62
     7
370
    25
100
AcDbLine
 10
4.3265047376
 20
-0.4173491883
 30
0.0
 11
4.299642885
 21
-0.3885664857
 31
0.0
  0
LINE
  5
93
330
1F
100
AcDbEntity
  8
0
  6
Continuous
 62
     7
370
    25
100
AcDbLine
 10
4.2119196307
 20
-0.4548753576
 30
0.0
 11
4.2322834646
 21
-0.4885698286
 31
0.0
  0
LINE
  5
94
330
1F
100
AcDbEntity
  8
0
  6
Continuous
 62
     7
370
    25
100
AcDbLine
 10
3.6417322835
 20
-0.4885698286
 30
0.0
 11
3.6620961173
 21
-0.4548753576
 31
0.0
  0
LINE
  5
95
330
1F
100
AcDbEntity
  8
0
  6
Continuous
 62
     7
370
    25
100
AcDbLine
 10
3.574372863
 20
-0.3885664857
 30
0.0
 11
3.5475110104
 21
-0.4173491883
 31
0.0
  0
LINE
  5
96
330
1F
100
AcDbEntity
  8
0
  6
Continuous
 62
     7
370
    25
100
AcDbLine
 10
4.0866141732
 20
-2.9330708661
 30
0.0
 11
3.7874015928
 21
-2.9330708661
 31
0.0
  0
LINE
  5
97
330
1F
100
AcDbEntity
  8
0
  6
Continuous
 62
     8
370
    25
100
AcDbLine
 10
3.7795275591
 20
-2.9251968504
 30
0.0
 11
4.094488189
 21
-2.9251968504
 31
0.0
  0
ARC
  5
98
330
1F
100
AcDbEntity
  8
0
  6
Continuous
 62
     7
370
    25
100
AcDbCircle
 10
4.0866141732
 20
-2.9251968504
 30
0.0
 40
0.0078740157480324
100
AcDbArc
 50
270.0
 51
0.0
  0
ARC
  5
99
330
1F
100
AcDbEntity
  8
0
  6
Continuous
 62
     7
370
    25
100
AcDbCircle
 10
3.7874015748
 20
-2.9251968504
 30
0.0
 40
0.0078740157480328
100
AcDbArc
 50
180.0
 51
270.0
  0
ARC
  5
9A
330
1F
100
AcDbEntity
  8
0
  6
Continuous
 62
     7
370
    25
100
AcDbCircle
 10
0.0
 20
0.0
 30
0.0
 40
0.3937007874015746
100
AcDbArc
 50
0.0
 51
180.0
  0
ARC
  5
9B
330
1F
100
AcDbEntity
  8
0
  6
Continuous
 62
     7
370
    25
100
AcDbCircle
 10
3.937007874
 20
0.0
 30
0.0
 40
1.082677165354341
100
AcDbArc
 50
278.363601789
 51
261.636398211
  0
ARC
  5
9C
330
1F
100
AcDbEntity
  8
0
  6
Continuous
 62
     7
370
    25
100
AcDbCircle
 10
0.0
 20
0.0
 30
0.0
 40
1.082677165354347
100
AcDbArc
 50
291.3236862635
 51
248.6763137365
  0
ARC
  5
9D
330
1F
100
AcDbEntity
  8
0
  6
Continuous
 62
     7
370
    25
100
AcDbCircle
 10
3.937007874
 20
0.0
 30
0.0
 40
0.5314960629921255
100
AcDbArc
 50
301.1473899215
 51
313.0229348247
  0
ARC
  5
9E
330
1F
100
AcDbEntity
  8
0
  6
Continuous
 62
     7
370
    25
100
AcDbCircle
 10
3.937007874
 20
0.0
 30
0.0
 40
0.5708661417321902
100
AcDbArc
 50
301.1473899215
 51
313.0229348247
  0
ARC
  5
9F
330
1F
100
AcDbEntity
  8
0
  6
Continuous
 62
     7
370
    25
100
AcDbCircle
 10
3.937007874
 20
0.0
 30
0.0
 40
0.5314960629921223
100
AcDbArc
 50
226.9770651753
 51
238.8526100785
  0
ARC
  5
A0
330
1F
100
AcDbEntity
  8
0
  6
Continuous
 62
     7
370
    25
100
AcDbCircle
 10
3.937007874
 20
0.0
 30
0.0
 40
0.5708661417322416
100
AcDbArc
 50
226.9770651753
 51
238.8526100785
  0
SPLINE
  5
BC
330
1B
100
AcDbEntity
 67
     1
  8
0
  6
Continuous
 62
     7
370
    25
100
AcDbSpline
210
0.0
220
0.0
230
1.0
 70
     8
 71
     3
 72
    18
 73
    14
 74
     0
 42
0.000000001
 43
0.00000001
 40
0.0
 40
0.0
 40
0.0
 40
0.0
 40
0.0330029326330749
 40
0.1375027406844311
 40
0.2428448565922488
 40
0.3505724432690538
 40
0.4586463946040401
 40
0.5643144484768818
 40
0.6686170781491741
 40
0.7746755551339398
 40
0.8828942679740959
 40
0.9903562519529212
 40
0.9999999999999999
 40
0.9999999999999999
 40
0.9999999999999999
 40
0.9999999999999999
 10
1.600471481430036
 20
-0.6885483547496463
 30
0.0
 10
1.601012141248372
 20
-0.6886706064982248
 30
0.0
 10
1.60326473521103
 20
-0.6891799536726085
 30
0.0
 10
1.589613696641369
 20
-0.6860600833910477
 30
0.0
 10
1.560810639524522
 20
-0.6803774761752839
 30
0.0
 10
1.517583318105707
 20
-0.6740896082632851
 30
0.0
 10
1.46619656394956
 20
-0.6703620092431197
 30
0.0
 10
1.412756279734287
 20
-0.670840105238657
 30
0.0
 10
1.363546671587743
 20
-0.6751407983976894
 30
0.0
 10
1.32246976909299
 20
-0.6815470232936459
 30
0.0
 10
1.296356408167989
 20
-0.686899520029374
 30
0.0
 10
1.285038001696239
 20
-0.689505819952058
 30
0.0
 10
1.287881644842992
 20
-0.6888687582734607
 30
0.0
 10
1.28811582106621
 20
-0.688816295749103
 30
0.0
  0
LINE
  5
C8
330
1B
100
AcDbEntity
 67
     1
  8
0
  6
Continuous
 62
     7
370
    25
100
AcDbLine
 10
7.043703356
 20
-1.2779564962
 30
0.0
 11
6.5205408792
 21
-0.2511923231
 31
0.0
  0
LINE
  5
C9
330
1B
100
AcDbEntity
 67
     1
  8
0
  6
Continuous
 62
     7
370
    25
100
AcDbLine
 10
5.8189609389
 20
-0.6086651576
 30
0.0
 11
6.3421234157
 21
-1.6354293306
 31
0.0
  0
LINE
  5
CA
330
1B
100
AcDbEntity
 67
     1
  8
0
  6
Continuous
 62
     7
370
    25
100
AcDbLine
 10
5.4681709687
 20
0.3937007874
 30
0.0
 11
0.0
 21
0.3937007874
 31
0.0
  0
LINE
  5
CB
330
1B
100
AcDbEntity
 67
     1
  8
0
  6
Continuous
 62
     7
370
    25
100
AcDbLine
 10
0.0
 20
-0.3937007874
 30
0.0
 11
5.4681709687
 21
-0.3937007874
 31
0.0
  0
LINE
  5
CC
330
1B
100
AcDbEntity
 67
     1
  8
0
  6
Continuous
 62
     7
370
    25
100
AcDbLine
 10
-0.1181102362
 20
-1.0826771654
 30
0.0
 11
0.0
 21
-1.0826771654
 31
0.0
  0
LINE
  5
CD
330
1B
100
AcDbEntity
 67
     1
  8
0
  6
Continuous
 62
     7
370
    25
100
AcDbLine
 10
0.0
 20
1.0826771654
 30
0.0
 11
-0.1181102362
 21
1.0826771654
 31
0.0
  0
LINE
  5
CE
330
1B
100
AcDbEntity
 67
     1
  8
0
  6
Continuous
 62
     7
370
    25
100
AcDbLine
 10
1.6004714814
 20
-0.688976378
 30
0.0
 11
1.8385826772
 21
-0.688976378
 31
0.0
  0
LINE
  5
CF
330
1B
100
AcDbEntity
 67
     1
  8
0
  6
Continuous
 62
     7
370
    25
100
AcDbLine
 10
0.6968503937
 20
-0.688976378
 30
0.0
 11
1.2881158211
 21
-0.688976378
 31
0.0
  0
LINE
  5
D0
330
1B
100
AcDbEntity
 67
     1
  8
0
  6
Continuous
 62
     7
370
    25
100
AcDbLine
 10
1.8385826772
 20
0.688976378
 30
0.0
 11
0.8937007874
 21
0.688976378
 31
0.0
  0
LINE
  5
D1
330
1B
100
AcDbEntity
 67
     1
  8
0
  6
Continuous
 62
     7
370
    25
100
AcDbLine
 10
1.6023622047
 20
-2.9251968504
 30
0.0
 11
1.6023622047
 21
-0.6885500193
 31
0.0
  0
LINE
  5
D2
330
1B
100
AcDbEntity
 67
     1
  8
0
  6
Continuous
 62
     7
370
    25
100
AcDbLine
 10
1.2874015748
 20
-0.6888190633
 30
0.0
 11
1.2874015748
 21
-2.9251968504
 31
0.0
  0
LINE
  5
D3
330
1B
100
AcDbEntity
 67
     1
  8
0
  6
Continuous
 62
     7
370
    25
100
AcDbLine
 10
0.0
 20
-0.688976378
 30
0.0
 11
0.657480315
 21
-0.688976378
 31
0.0
  0
LINE
  5
D4
330
1B
100
AcDbEntity
 67
     1
  8
0
  6
Continuous
 62
     7
370
    25
100
AcDbLine
 10
0.657480315
 20
0.688976378
 30
0.0
 11
0.0
 21
0.688976378
 31
0.0
  0
LINE
  5
D5
330
1B
100
AcDbEntity
 67
     1
  8
0
  6
Continuous
 62
     7
370
    25
100
AcDbLine
 10
0.657480315
 20
-0.6692913386
 30
0.0
 11
0.6968503937
 21
-0.6692913386
 31
0.0
  0
LINE
  5
D6
330
1B
100
AcDbEntity
 67
     1
  8
0
  6
Continuous
 62
     7
370
    25
100
AcDbLine
 10
0.6968503937
 20
0.6692913386
 30
0.0
 11
0.657480315
 21
0.6692913386
 31
0.0
  0
LINE
  5
D7
330
1B
100
AcDbEntity
 67
     1
  8
0
  6
Continuous
 62
     7
370
    25
100
AcDbLine
 10
7.043703356
 20
-1.2779564962
 30
0.0
 11
6.3421234157
 21
-1.6354293306
 31
0.0
  0
LINE
  5
D8
330
1B
100
AcDbEntity
 67
     1
  8
0
  6
Continuous
 62
     7
370
    25
100
AcDbLine
 10
-0.1181102362
 20
1.0826771654
 30
0.0
 11
-0.1181102362
 21
-1.0826771654
 31
0.0
  0
LINE
  5
D9
330
1B
100
AcDbEntity
 67
     1
  8
0
  6
Continuous
 62
     7
370
    25
100
AcDbLine
 10
0.0
 20
1.0826771654
 30
0.0
 11
0.0
 21
-1.0826771654
 31
0.0
  0
LINE
  5
DA
330
1B
100
AcDbEntity
 67
     1
  8
0
  6
Continuous
 62
     7
370
    25
100
AcDbLine
 10
0.8937007874
 20
0.688976378
 30
0.0
 11
0.809336333
 21
0.3937007874
 31
0.0
  0
LINE
  5
DB
330
1B
100
AcDbEntity
 67
     1
  8
0
  6
Continuous
 62
     7
370
    25
100
AcDbLine
 10
0.6968503937
 20
-0.3937007874
 30
0.0
 11
0.6968503937
 21
-0.688976378
 31
0.0
  0
LINE
  5
DC
330
1B
100
AcDbEntity
 67
     1
  8
0
  6
Continuous
 62
     7
370
    25
100
AcDbLine
 10
1.8385826772
 20
0.688976378
 30
0.0
 11
1.8385826772
 21
0.3937007874
 31
0.0
  0
LINE
  5
DD
330
1B
100
AcDbEntity
 67
     1
  8
0
  6
Continuous
 62
     7
370
    25
100
AcDbLine
 10
1.8385826772
 20
-0.3937007874
 30
0.0
 11
1.8385826772
 21
-0.688976378
 31
0.0
  0
LINE
  5
DE
330
1B
100
AcDbEntity
 67
     1
  8
0
  6
Continuous
 62
     7
370
    25
100
AcDbLine
 10
1.838976378
 20
-0.4173491883
 30
0.0
 11
1.8385826772
 21
-0.4173491883
 31
0.0
  0
LINE
  5
DF
330
1B
100
AcDbEntity
 67
     1
  8
0
  6
Continuous
 62
     7
370
    25
100
AcDbLine
 10
1.838976378
 20
-0.3937007874
 30
0.0
 11
1.838976378
 21
-0.4885698286
 31
0.0
  0
LINE
  5
E0
330
1B
100
AcDbEntity
 67
     1
  8
0
  6
Continuous
 62
     7
370
    25
100
AcDbLine
 10
1.838976378
 20
-0.4885698286
 30
0.0
 11
1.8385826772
 21
-0.4885698286
 31
0.0
  0
LINE
  5
E1
330
1B
100
AcDbEntity
 67
     1
  8
0
  6
Continuous
 62
     7
370
    25
100
AcDbLine
 10
1.594488189
 20
-2.9330708661
 30
0.0
 11
1.2952755906
 21
-2.9330708661
 31
0.0
  0
LINE
  5
E2
330
1B
100
AcDbEntity
 67
     1
  8
0
  6
Continuous
 62
     7
370
    25
100
AcDbLine
 10
0.657480315
 20
0.688976378
 30
0.0
 11
0.657480315
 21
0.3937007874
 31
0.0
  0
LINE
  5
E3
330
1B
100
AcDbEntity
 67
     1
  8
0
  6
Continuous
 62
     7
370
    25
100
AcDbLine
 10
0.657480315
 20
-0.3937007874
 30
0.0
 11
0.657480315
 21
-0.688976378
 31
0.0
  0
LINE
  5
E4
330
1B
100
AcDbEntity
 67
     1
  8
0
  6
Continuous
 62
     7
370
    25
100
AcDbLine
 10
0.6968503937
 20
0.6692913386
 30
0.0
 11
0.6968503937
 21
0.3937007874
 31
0.0
  0
LINE
  5
E5
330
1B
100
AcDbEntity
 67
     1
  8
0
  6
Continuous
 62
     8
370
    25
100
AcDbLine
 10
6.5205408792
 20
-0.2511923231
 30
0.0
 11
5.8189609389
 21
-0.6086651576
 31
0.0
  0
LINE
  5
E6
330
1B
100
AcDbEntity
 67
     1
  8
0
  6
Continuous
 62
     8
370
    25
100
AcDbLine
 10
5.4681709687
 20
0.3937007874
 30
0.0
 11
5.4681709687
 21
-0.3937007874
 31
0.0
  0
LINE
  5
E7
330
1B
100
AcDbEntity
 67
     1
  8
0
  6
Continuous
 62
     8
370
    25
100
AcDbLine
 10
1.2874015748
 20
-2.9251968504
 30
0.0
 11
1.6023622047
 21
-2.9251968504
 31
0.0
  0
ARC
  5
E8
330
1B
100
AcDbEntity
 67
     1
  8
0
  6
Continuous
 62
     7
370
    25
100
AcDbCircle
 10
5.4681709687
 20
-0.7874015748
 30
0.0
 40
0.3937007874015753
100
AcDbArc
 50
27.0
 51
90.0
  0
ARC
  5
E9
330
1B
100
AcDbEntity
 67
     1
  8
0
  6
Continuous
 62
     7
370
    25
100
AcDbCircle
 10
5.4681709687
 20
-0.7874015748
 30
0.0
 40
1.18110236220473
100
AcDbArc
 50
27.0
 51
90.0
  0
ARC
  5
EA
330
1B
100
AcDbEntity
 67
     1
  8
0
  6
Continuous
 62
     7
370
    25
100
AcDbCircle
 10
1.594488189
 20
-2.9251968504
 30
0.0
 40
0.0078740157480317
100
AcDbArc
 50
270.0
 51
0.0
  0
ARC
  5
EB
330
1B
100
AcDbEntity
 67
     1
  8
0
  6
Continuous
 62
     7
370
    25
100
AcDbCircle
 10
1.2952755906
 20
-2.9251968504
 30
0.0
 40
0.0078740157480319
100
AcDbArc
 50
180.0
 51
270.0
  0
ARC
  5
EC
330
1B
100
AcDbEntity
 67
     1
  8
0
  6
Continuous
 62
     7
370
    25
100
AcDbCircle
 10
0.6128608924
 20
0.0
 30
0.0
 40
0.6745406824147313
100
AcDbArc
 50
67.1784977333
 51
82.84733125
  0
VIEWPORT
  5
19C
330
1B
100
AcDbEntity
 67
     1
  8
0
100
AcDbViewport
 10
0.0
 20
0.0
 30
0.0
 40
8.4
 41
6.4
 68
     1
 69
     1
 12
1.968503937
 22
-0.9251968504
 13
0.0
 23
0.0
 14
0.5
 24
0.5
 15
0.5
 25
0.5
 16
0.0
 26
0.0
 36
1.0
 17
0.0
 27
0.0
 37
0.0
 42
50.0
 43
0.0
 44
0.0
 45
4.7424071991
 50
0.0
 51
0.0
 72
   100
 90
   557152
  1

281
     0
 71
     1
 74
     0
110
0.0
120
0.0
130
0.0
111
1.0
121
0.0
131
0.0
112
0.0
122
1.0
132
0.0
 79
     0
146
0.0
  0
ENDSEC
  0
SECTION
  2
OBJECTS
  0
DICTIONARY
  5
C
330
0
100
AcDbDictionary
281
     1
  3
ACAD_GROUP
350
D
  3
ACAD_LAYOUT
350
1A
  3
ACAD_MLINESTYLE
350
17
  3
ACAD_PLOTSETTINGS
350
19
  3
ACAD_PLOTSTYLENAME
350
E
  3
ACAD_SCALELIST
350
47
  0
DICTIONARY
  5
D
102
{ACAD_REACTORS
330
C
102
}
330
C
100
AcDbDictionary
281
     1
  0
DICTIONARY
  5
1A
102
{ACAD_REACTORS
330
C
102
}
330
C
100
AcDbDictionary
281
     1
  3
_Isometric
350
131
  3
_Left
350
1E
  3
_Top
350
26
  3
Model
350
22
  0
DICTIONARY
  5
17
102
{ACAD_REACTORS
330
C
102
}
330
C
100
AcDbDictionary
281
     1
  3
Standard
350
18
  0
DICTIONARY
  5
19
102
{ACAD_REACTORS
330
C
102
}
330
C
100
AcDbDictionary
281
     1
  0
ACDBDICTIONARYWDFLT
  5
E
102
{ACAD_REACTORS
330
C
102
}
330
C
100
AcDbDictionary
281
     1
  3
Normal
350
F
100
AcDbDictionaryWithDefault
340
F
  0
DICTIONARY
  5
47
102
{ACAD_REACTORS
330
C
102
}
330
C
100
AcDbDictionary
281
     1
  3
A0
350
48
  3
A1
350
49
  3
A2
350
4A
  3
A3
350
4B
  3
A4
350
4C
  3
A5
350
4D
  3
A6
350
4E
  3
A7
350
4F
  3
A8
350
50
  3
A9
350
51
  3
B0
350
52
  3
B1
350
53
  3
B2
350
54
  3
B3
350
55
  3
B4
350
56
  3
B5
350
57
  3
B6
350
58
  3
B7
350
59
  3
B8
350
5A
  3
B9
350
5B
  3
C0
350
5C
  3
C1
350
5D
  3
C2
350
5E
  3
C3
350
5F
  3
C4
350
60
  3
C5
350
61
  3
C6
350
62
  3
C7
350
63
  3
C8
350
64
  3
C9
350
65
  3
D0
350
66
  3
D1
350
67
  3
D2
350
68
  0
LAYOUT
  5
131
102
{ACAD_REACTORS
330
1A
102
}
330
1A
100
AcDbPlotSettings
  1

  2
none_device
  4
Letter_(8.50_x_11.00_Inches)
  6

 40
6.35
 41
6.35
 42
6.35001
 43
6.35001
 44
215.9
 45
279.4
 46
0.0
 47
0.0
 48
0.0
 49
0.0
140
0.0
141
0.0
142
1.0
143
0.6820775105
 70
   688
 72
     0
 73
     1
 74
     1
  7

 75
     0
147
1.4661090339
148
3.0
149
74.5
100
AcDbLayout
  1
_Isometric
 70
     1
 71
     3
 10
0.0
 20
0.0
 11
0.0
 21
0.0
 12
0.0
 22
0.0
 32
0.0
 14
0.0
 24
0.0
 34
0.0
 15
0.0
 25
0.0
 35
0.0
146
0.0
 13
0.0
 23
0.0
 33
0.0
 16
1.0
 26
0.0
 36
0.0
 17
0.0
 27
1.0
 37
0.0
 76
     0
330
130
331
1A0
  0
LAYOUT
  5
1E
102
{ACAD_REACTORS
330
1A
102
}
330
1A
100
AcDbPlotSettings
  1

  2
none_device
  4
Letter_(8.50_x_11.00_Inches)
  6

 40
6.35
 41
6.35
 42
6.35001
 43
6.35001
 44
215.9
 45
279.4
 46
0.0
 47
0.0
 48
0.0
 49
0.0
140
0.0
141
0.0
142
1.0
143
0.6820775105
 70
   688
 72
     0
 73
     1
 74
     1
  7

 75
     0
147
1.4661090339
148
3.0
149
74.5
100
AcDbLayout
  1
_Left
 70
     1
 71
     1
 10
-0.2886298824
 20
-3.1035902438
 11
7.2142227336
 21
2.6940685959
 12
0.0
 22
0.0
 32
0.0
 14
-0.1181102362
 24
-2.9330708661
 34
0.0
 15
7.043703356
 25
1.0826771654
 35
0.0
146
0.0
 13
0.0
 23
0.0
 33
0.0
 16
1.0
 26
0.0
 36
0.0
 17
0.0
 27
1.0
 37
0.0
 76
     0
330
1B
331
19C
  0
LAYOUT
  5
26
102
{ACAD_REACTORS
330
1A
102
}
330
1A
100
AcDbPlotSettings
  1

  2
none_device
  4
Letter_(8.50_x_11.00_Inches)
  6

 40
6.35
 41
6.35
 42
6.35001
 43
6.35001
 44
215.9
 45
279.4
 46
0.0
 47
0.0
 48
0.0
 49
0.0
140
0.0
141
0.0
142
1.0
143
0.6820775105
 70
   688
 72
     0
 73
     1
 74
     1
  7

 75
     0
147
1.4661090339
148
3.0
149
74.5
100
AcDbLayout
  1
_Top
 70
     1
 71
     2
 10
0.0
 20
0.0
 11
0.0
 21
0.0
 12
0.0
 22
0.0
 32
0.0
 14
0.0
 24
0.0
 34
0.0
 15
0.0
 25
0.0
 35
0.0
146
0.0
 13
0.0
 23
0.0
 33
0.0
 16
1.0
 26
0.0
 36
0.0
 17
0.0
 27
1.0
 37
0.0
 76
     0
330
23
331
19E
  0
LAYOUT
  5
22
102
{ACAD_REACTORS
330
1A
102
}
330
1A
100
AcDbPlotSettings
  1

  2
none_device
  4
ANSI_A_(11.00_x_8.50_Inches)
  6

 40
6.35
 41
19.05
 42
6.35000508
 43
19.05000254
 44
279.4
 45
215.9
 46
44.1222555245
 47
130.8370374397
 48
0.0
 49
0.0
140
0.0
141
0.0
142
1.7845548387
143
1.0
 70
  1696
 72
     0
 73
     0
 74
     0
  7

 75
     0
147
0.5913241897
148
-39.4088153714
149
0.0
100
AcDbLayout
  1
Model
 70
     1
 71
     0
 10
0.0
 20
0.0
 11
12.0
 21
9.0
 12
0.0
 22
0.0
 32
0.0
 14
-1.0826771654
 24
-2.9330708661
 34
0.0
 15
5.0196850394
 25
1.0826771654
 35
0.0
146
0.0
 13
0.0
 23
0.0
 33
0.0
 16
1.0
 26
0.0
 36
0.0
 17
0.0
 27
1.0
 37
0.0
 76
     0
330
1F
331
29
  0
MLINESTYLE
  5
18
102
{ACAD_REACTORS
330
17
102
}
330
17
100
AcDbMlineStyle
  2
Standard
 70
     0
  3

 62
   256
 51
90.0
 52
90.0
 71
     2
 49
0.5
 62
   256
  6
BYLAYER
 49
-0.5
 62
   256
  6
BYLAYER
  0
ACDBPLACEHOLDER
  5
F
102
{ACAD_REACTORS
330
E
102
}
330
E
  0
SCALE
  5
48
102
{ACAD_REACTORS
330
47
102
}
330
47
100
AcDbScale
 70
     0
300
1:1
140
1.0
141
1.0
290
     1
  0
SCALE
  5
49
102
{ACAD_REACTORS
330
47
102
}
330
47
100
AcDbScale
 70
     0
300
1:2
140
1.0
141
2.0
290
     0
  0
SCALE
  5
4A
102
{ACAD_REACTORS
330
47
102
}
330
47
100
AcDbScale
 70
     0
300
1:4
140
1.0
141
4.0
290
     0
  0
SCALE
  5
4B
102
{ACAD_REACTORS
330
47
102
}
330
47
100
AcDbScale
 70
     0
300
1:5
140
1.0
141
5.0
290
     0
  0
SCALE
  5
4C
102
{ACAD_REACTORS
330
47
102
}
330
47
100
AcDbScale
 70
     0
300
1:8
140
1.0
141
8.0
290
     0
  0
SCALE
  5
4D
102
{ACAD_REACTORS
330
47
102
}
330
47
100
AcDbScale
 70
     0
300
1:10
140
1.0
141
10.0
290
     0
  0
SCALE
  5
4E
102
{ACAD_REACTORS
330
47
102
}
330
47
100
AcDbScale
 70
     0
300
1:16
140
1.0
141
16.0
290
     0
  0
SCALE
  5
4F
102
{ACAD_REACTORS
330
47
102
}
330
47
100
AcDbScale
 70
     0
300
1:20
140
1.0
141
20.0
290
     0
  0
SCALE
  5
50
102
{ACAD_REACTORS
330
47
102
}
330
47
100
AcDbScale
 70
     0
300
1:30
140
1.0
141
30.0
290
     0
  0
SCALE
  5
51
102
{ACAD_REACTORS
330
47
102
}
330
47
100
AcDbScale
 70
     0
300
1:40
140
1.0
141
40.0
290
     0
  0
SCALE
  5
52
102
{ACAD_REACTORS
330
47
102
}
330
47
100
AcDbScale
 70
     0
300
1:50
140
1.0
141
50.0
290
     0
  0
SCALE
  5
53
102
{ACAD_REACTORS
330
47
102
}
330
47
100
AcDbScale
 70
     0
300
1:100
140
1.0
141
100.0
290
     0
  0
SCALE
  5
54
102
{ACAD_REACTORS
330
47
102
}
330
47
100
AcDbScale
 70
     0
300
2:1
140
2.0
141
1.0
290
     0
  0
SCALE
  5
55
102
{ACAD_REACTORS
330
47
102
}
330
47
100
AcDbScale
 70
     0
300
4:1
140
4.0
141
1.0
290
     0
  0
SCALE
  5
56
102
{ACAD_REACTORS
330
47
102
}
330
47
100
AcDbScale
 70
     0
300
8:1
140
8.0
141
1.0
290
     0
  0
SCALE
  5
57
102
{ACAD_REACTORS
330
47
102
}
330
47
100
AcDbScale
 70
     0
300
10:1
140
10.0
141
1.0
290
     0
  0
SCALE
  5
58
102
{ACAD_REACTORS
330
47
102
}
330
47
100
AcDbScale
 70
     0
300
100:1
140
100.0
141
1.0
290
     0
  0
SCALE
  5
59
102
{ACAD_REACTORS
330
47
102
}
330
47
100
AcDbScale
 70
     0
300
1/128" = 1'-0"
140
0.0078125
141
12.0
290
     0
  0
SCALE
  5
5A
102
{ACAD_REACTORS
330
47
102
}
330
47
100
AcDbScale
 70
     0
300
1/64" = 1'-0"
140
0.015625
141
12.0
290
     0
  0
SCALE
  5
5B
102
{ACAD_REACTORS
330
47
102
}
330
47
100
AcDbScale
 70
     0
300
1/32" = 1'-0"
140
0.03125
141
12.0
290
     0
  0
SCALE
  5
5C
102
{ACAD_REACTORS
330
47
102
}
330
47
100
AcDbScale
 70
     0
300
1/16" = 1'-0"
140
0.0625
141
12.0
290
     0
  0
SCALE
  5
5D
102
{ACAD_REACTORS
330
47
102
}
330
47
100
AcDbScale
 70
     0
300
3/32" = 1'-0"
140
0.09375
141
12.0
290
     0
  0
SCALE
  5
5E
102
{ACAD_REACTORS
330
47
102
}
330
47
100
AcDbScale
 70
     0
300
1/8" = 1'-0"
140
0.125
141
12.0
290
     0
  0
SCALE
  5
5F
102
{ACAD_REACTORS
330
47
102
}
330
47
100
AcDbScale
 70
     0
300
3/16" = 1'-0"
140
0.1875
141
12.0
290
     0
  0
SCALE
  5
60
102
{ACAD_REACTORS
330
47
102
}
330
47
100
AcDbScale
 70
     0
300
1/4" = 1'-0"
140
0.25
141
12.0
290
     0
  0
SCALE
  5
61
102
{ACAD_REACTORS
330
47
102
}
330
47
100
AcDbScale
 70
     0
300
3/8" = 1'-0"
140
0.375
141
12.0
290
     0
  0
SCALE
  5
62
102
{ACAD_REACTORS
330
47
102
}
330
47
100
AcDbScale
 70
     0
300
1/2" = 1'-0"
140
0.5
141
12.0
290
     0
  0
SCALE
  5
63
102
{ACAD_REACTORS
330
47
102
}
330
47
100
AcDbScale
 70
     0
300
3/4" = 1'-0"
140
0.75
141
12.0
290
     0
  0
SCALE
  5
64
102
{ACAD_REACTORS
330
47
102
}
330
47
100
AcDbScale
 70
     0
300
1" = 1'-0"
140
1.0
141
12.0
290
     0
  0
SCALE
  5
65
102
{ACAD_REACTORS
330
47
102
}
330
47
100
AcDbScale
 70
     0
300
1-1/2" = 1'-0"
140
1.5
141
12.0
290
     0
  0
SCALE
  5
66
102
{ACAD_REACTORS
330
47
102
}
330
47
100
AcDbScale
 70
     0
300
3" = 1'-0"
140
3.0
141
12.0
290
     0
  0
SCALE
  5
67
102
{ACAD_REACTORS
330
47
102
}
330
47
100
AcDbScale
 70
     0
300
6" = 1'-0"
140
6.0
141
12.0
290
     0
  0
SCALE
  5
68
102
{ACAD_REACTORS
330
47
102
}
330
47
100
AcDbScale
 70
     0
300
1'-0" = 1'-0"
140
12.0
141
12.0
290
     0
  0
ENDSEC
  0
EOF
