  0
SECTION
  2
HEADER
  9
$ACADVER
  1
AC1015
  9
$ACADMAINTVER
 70
     6
  9
$DWGCODEPAGE
  3
ANSI_1252
  9
$INSBASE
 10
0.0
 20
0.0
 30
0.0
  9
$EXTMIN
 10
-1.0826771654
 20
-2.9330708661
 30
0.0
  9
$EXTMAX
 10
5.0196850394
 20
1.0826771654
 30
0.0
  9
$LIMMIN
 10
0.0
 20
0.0
  9
$LIMMAX
 10
12.0
 20
9.0
  9
$ORTHOMODE
 70
     0
  9
$REGENMODE
 70
     1
  9
$FILLMODE
 70
     1
  9
$QTEXTMODE
 70
     0
  9
$MIRRTEXT
 70
     1
  9
$LTSCALE
 40
1.0
  9
$ATTMODE
 70
     1
  9
$TEXTSIZE
 40
0.1377952756
  9
$TRACEWID
 40
0.05
  9
$TEXTSTYLE
  7
Standard
  9
$CLAYER
  8
0
  9
$CELTYPE
  6
ByLayer
  9
$CECOLOR
 62
   256
  9
$CELTSCALE
 40
1.0
  9
$DISPSILH
 70
     0
  9
$DIMSCALE
 40
1.0
  9
$DIMASZ
 40
0.13
  9
$DIMEXO
 40
0.0393700787
  9
$DIMDLI
 40
0.38
  9
$DIMRND
 40
0.0
  9
$DIMDLE
 40
0.0
  9
$DIMEXE
 40
0.0393700787
  9
$DIMTP
 40
0.0
  9
$DIMTM
 40
0.0
  9
$DIMTXT
 40
0.1377952756
  9
$DIMCEN
 40
0.09
  9
$DIMTSZ
 40
0.0
  9
$DIMTOL
 70
     0
  9
$DIMLIM
 70
     0
  9
$DIMTIH
 70
     1
  9
$DIMTOH
 70
     1
  9
$DIMSE1
 70
     0
  9
$DIMSE2
 70
     0
  9
$DIMTAD
 70
     1
  9
$DIMZIN
 70
     1
  9
$DIMBLK
  1

  9
$DIMASO
 70
     1
  9
$DIMSHO
 70
     1
  9
$DIMPOST
  1

  9
$DIMAPOST
  1

  9
$DIMALT
 70
     0
  9
$DIMALTD
 70
     2
  9
$DIMALTF
 40
25.4
  9
$DIMLFAC
 40
1.0
  9
$DIMTOFL
 70
     0
  9
$DIMTVP
 40
0.0
  9
$DIMTIX
 70
     0
  9
$DIMSOXD
 70
     0
  9
$DIMSAH
 70
     0
  9
$DIMBLK1
  1

  9
$DIMBLK2
  1

  9
$DIMSTYLE
  2
Standard
  9
$DIMCLRD
 70
     0
  9
$DIMCLRE
 70
     0
  9
$DIMCLRT
 70
     0
  9
$DIMTFAC
 40
1.0
  9
$DIMGAP
 40
0.06
  9
$DIMJUST
 70
     0
  9
$DIMSD1
 70
     0
  9
$DIMSD2
 70
     0
  9
$DIMTOLJ
 70
     1
  9
$DIMTZIN
 70
     1
  9
$DIMALTZ
 70
     0
  9
$DIMALTTZ
 70
     0
  9
$DIMUPT
 70
     0
  9
$DIMDEC
 70
     2
  9
$DIMTDEC
 70
     2
  9
$DIMALTU
 70
     2
  9
$DIMALTTD
 70
     2
  9
$DIMTXSTY
  7
Standard
  9
$DIMAUNIT
 70
     0
  9
$DIMADEC
 70
     2
  9
$DIMALTRND
 40
0.0
  9
$DIMAZIN
 70
     0
  9
$DIMDSEP
 70
    46
  9
$DIMATFIT
 70
     3
  9
$DIMFRAC
 70
     0
  9
$DIMLDRBLK
  1

  9
$DIMLUNIT
 70
     2
  9
$DIMLWD
 70
    -2
  9
$DIMLWE
 70
    -2
  9
$DIMTMOVE
 70
     0
  9
$LUNITS
 70
     2
  9
$LUPREC
 70
     2
  9
$SKETCHINC
 40
0.1
  9
$FILLETRAD
 40
0.5
  9
$AUNITS
 70
     0
  9
$AUPREC
 70
     2
  9
$MENU
  1
.
  9
$ELEVATION
 40
0.0
  9
$PELEVATION
 40
0.0
  9
$THICKNESS
 40
0.0
  9
$LIMCHECK
 70
     0
  9
$CHAMFERA
 40
0.0
  9
$CHAMFERB
 40
0.0
  9
$CHAMFERC
 40
0.0
  9
$CHAMFERD
 40
0.0
  9
$SKPOLY
 70
     0
  9
$TDCREATE
 40
2460416.492220474
  9
$TDUCREATE
 40
2460416.450553808
  9
$TDUPDATE
 40
2460416.492237477
  9
$TDUUPDATE
 40
2460416.45057081
  9
$TDINDWG
 40
0.0000000116
  9
$TDUSRTIMER
 40
0.0000000116
  9
$USRTIMER
 70
     1
  9
$ANGBASE
 50
0.0
  9
$ANGDIR
 70
     0
  9
$PDMODE
 70
     0
  9
$PDSIZE
 40
-1.0
  9
$PLINEWID
 40
0.0
  9
$SPLFRAME
 70
     0
  9
$SPLINETYPE
 70
     6
  9
$SPLINESEGS
 70
     8
  9
$HANDSEED
  5
1A0
  9
$SURFTAB1
 70
     6
  9
$SURFTAB2
 70
     6
  9
$SURFTYPE
 70
     6
  9
$SURFU
 70
     6
  9
$SURFV
 70
     6
  9
$UCSBASE
  2

  9
$UCSNAME
  2

  9
$UCSORG
 10
0.0
 20
0.0
 30
0.0
  9
$UCSXDIR
 10
1.0
 20
0.0
 30
0.0
  9
$UCSYDIR
 10
0.0
 20
1.0
 30
0.0
  9
$UCSORTHOREF
  2

  9
$UCSORTHOVIEW
 70
     0
  9
$UCSORGTOP
 10
0.0
 20
0.0
 30
0.0
  9
$UCSORGBOTTOM
 10
0.0
 20
0.0
 30
0.0
  9
$UCSORGLEFT
 10
0.0
 20
0.0
 30
0.0
  9
$UCSORGRIGHT
 10
0.0
 20
0.0
 30
0.0
  9
$UCSORGFRONT
 10
0.0
 20
0.0
 30
0.0
  9
$UCSORGBACK
 10
0.0
 20
0.0
 30
0.0
  9
$PUCSBASE
  2

  9
$PUCSNAME
  2

  9
$PUCSORG
 10
0.0
 20
0.0
 30
0.0
  9
$PUCSXDIR
 10
1.0
 20
0.0
 30
0.0
  9
$PUCSYDIR
 10
0.0
 20
1.0
 30
0.0
  9
$PUCSORTHOREF
  2

  9
$PUCSORTHOVIEW
 70
     0
  9
$PUCSORGTOP
 10
0.0
 20
0.0
 30
0.0
  9
$PUCSORGBOTTOM
 10
0.0
 20
0.0
 30
0.0
  9
$PUCSORGLEFT
 10
0.0
 20
0.0
 30
0.0
  9
$PUCSORGRIGHT
 10
0.0
 20
0.0
 30
0.0
  9
$PUCSORGFRONT
 10
0.0
 20
0.0
 30
0.0
  9
$PUCSORGBACK
 10
0.0
 20
0.0
 30
0.0
  9
$USERI1
 70
     0
  9
$USERI2
 70
     0
  9
$USERI3
 70
     0
  9
$USERI4
 70
     0
  9
$USERI5
 70
     0
  9
$USERR1
 40
0.0
  9
$USERR2
 40
0.0
  9
$USERR3
 40
0.0
  9
$USERR4
 40
0.0
  9
$USERR5
 40
0.0
  9
$WORLDVIEW
 70
     1
  9
$SHADEDGE
 70
     3
  9
$SHADEDIF
 70
    70
  9
$TILEMODE
 70
     1
  9
$MAXACTVP
 70
    64
  9
$PINSBASE
 10
0.0
 20
0.0
 30
0.0
  9
$PLIMCHECK
 70
     0
  9
$PEXTMIN
 10
-0.1181102362
 20
-2.9330708661
 30
0.0
  9
$PEXTMAX
 10
5.4689002064
 20
1.0826771654
 30
0.0
  9
$PLIMMIN
 10
-0.2511345089
 20
-3.0660949293
  9
$PLIMMAX
 10
5.6019242695
 20
1.4567232176
  9
$UNITMODE
 70
     0
  9
$VISRETAIN
 70
     1
  9
$PLINEGEN
 70
     0
  9
$PSLTSCALE
 70
     1
  9
$TREEDEPTH
 70
  3020
  9
$CMLSTYLE
  2
Standard
  9
$CMLJUST
 70
     0
  9
$CMLSCALE
 40
1.0
  9
$PROXYGRAPHICS
 70
     1
  9
$MEASUREMENT
 70
     0
  9
$CELWEIGHT
370
    -1
  9
$ENDCAPS
280
     0
  9
$JOINSTYLE
280
     0
  9
$LWDISPLAY
290
     1
  9
$INSUNITS
 70
     1
  9
$HYPERLINKBASE
  1

  9
$STYLESHEET
  1

  9
$XEDIT
290
     1
  9
$CEPSNTYPE
380
     0
  9
$PSTYLEMODE
290
     1
  9
$FINGERPRINTGUID
  2
{86fa2263-737d-408a-b5e6-94af8f3d107b}
  9
$VERSIONGUID
  2
{FAEB1C32-E019-11D5-929B-00C0DF256EC4}
  9
$EXTNAMES
290
     1
  9
$PSVPSCALE
 40
0.0
  9
$OLESTARTUP
290
     0
  0
ENDSEC
  0
SECTION
  2
CLASSES
  0
CLASS
  1
ACDBDICTIONARYWDFLT
  2
AcDbDictionaryWithDefault
  3
ObjectDBX Classes
 90
        0
280
     0
281
     0
  0
CLASS
  1
VISUALSTYLE
  2
AcDbVisualStyle
  3
ObjectDBX Classes
 90
     4095
280
     0
281
     0
  0
CLASS
  1
MATERIAL
  2
AcDbMaterial
  3
ObjectDBX Classes
 90
     1153
280
     0
281
     0
  0
CLASS
  1
SCALE
  2
AcDbScale
  3
ObjectDBX Classes
 90
     1153
280
     0
281
     0
  0
CLASS
  1
TABLESTYLE
  2
AcDbTableStyle
  3
ObjectDBX Classes
 90
     4095
280
     0
281
     0
  0
CLASS
  1
MLEADERSTYLE
  2
AcDbMLeaderStyle
  3
ACDB_MLEADERSTYLE_CLASS
 90
     4095
280
     0
281
     0
  0
CLASS
  1
SUN
  2
AcDbSun
  3
SCENEOE
 90
     1153
280
     0
281
     0
  0
CLASS
  1
ACDBPLACEHOLDER
  2
AcDbPlaceHolder
  3
ObjectDBX Classes
 90
        0
280
     0
281
     0
  0
CLASS
  1
LAYOUT
  2
AcDbLayout
  3
ObjectDBX Classes
 90
        0
280
     0
281
     0
  0
ENDSEC
  0
SECTION
  2
TABLES
  0
TABLE
  2
VPORT
  5
8
330
0
100
AcDbSymbolTable
 70
     1
  0
VPORT
  5
29
330
8
100
AcDbSymbolTableRecord
100
AcDbViewportTableRecord
  2
*Active
 70
     0
 10
0.0
 20
0.0
 11
1.0
 21
1.0
 12
1.968503937
 22
-0.9251968504
 13
0.0
 23
0.0
 14
0.5
 24
0.5
 15
0.5
 25
0.5
 16
0.0
 26
0.0
 36
1.0
 17
0.0
 27
0.0
 37
0.0
 40
4.0960629921
 41
1.5196078431
 42
50.0
 43
0.0
 44
0.0
 50
0.0
 51
0.0
 71
     0
 72
   100
 73
     1
 74
     3
 75
     0
 76
     0
 77
     0
 78
     0
281
     0
 65
     1
110
0.0
120
0.0
130
0.0
111
1.0
121
0.0
131
0.0
112
0.0
122
1.0
132
0.0
 79
     0
146
0.0
  0
ENDTAB
  0
TABLE
  2
LTYPE
  5
5
330
0
100
AcDbSymbolTable
 70
     6
  0
LTYPE
  5
14
330
5
100
AcDbSymbolTableRecord
100
AcDbLinetypeTableRecord
  2
ByBlock
 70
     0
  3

 72
    65
 73
     0
 40
0.0
  0
LTYPE
  5
15
330
5
100
AcDbSymbolTableRecord
100
AcDbLinetypeTableRecord
  2
ByLayer
 70
     0
  3

 72
    65
 73
     0
 40
0.0
  0
LTYPE
  5
16
330
5
100
AcDbSymbolTableRecord
100
AcDbLinetypeTableRecord
  2
Continuous
 70
     0
  3
Solid line
 72
    65
 73
     0
 40
0.0
  0
LTYPE
  5
6E
330
5
100
AcDbSymbolTableRecord
100
AcDbLinetypeTableRecord
  2
HIDDEN
 70
     0
  3
Hidden __ __ __ __ __ __ __ __ __ __ __ __ __ __
 72
    65
 73
     2
 40
0.075
 49
0.05
 74
     0
 49
-0.025
 74
     0
  0
LTYPE
  5
6F
330
5
100
AcDbSymbolTableRecord
100
AcDbLinetypeTableRecord
  2
PHANTOM
 70
     0
  3
Phantom ______  __  __  ______  __  __  ______
 72
    65
 73
     6
 40
0.5
 49
0.25
 74
     0
 49
-0.05
 74
     0
 49
0.05
 74
     0
 49
-0.05
 74
     0
 49
0.05
 74
     0
 49
-0.05
 74
     0
  0
LTYPE
  5
70
330
5
100
AcDbSymbolTableRecord
100
AcDbLinetypeTableRecord
  2
CENTER
 70
     0
  3
Center ____ _ ____ _ ____ _ ____ _ ____ _ ____
 72
    65
 73
     4
 40
0.4
 49
0.25
 74
     0
 49
-0.05
 74
     0
 49
0.05
 74
     0
 49
-0.05
 74
     0
  0
LTYPE
  5
71
330
5
100
AcDbSymbolTableRecord
100
AcDbLinetypeTableRecord
  2
CENTERX2
 70
     0
  3
Center (2x) ________  __  ________  __  _____
 72
    65
 73
     4
 40
0.8
 49
0.5
 74
     0
 49
-0.1
 74
     0
 49
0.1
 74
     0
 49
-0.1
 74
     0
  0
LTYPE
  5
72
330
5
100
AcDbSymbolTableRecord
100
AcDbLinetypeTableRecord
  2
DOT2
 70
     0
  3
Dot (.5x) ........................................
 72
    65
 73
     2
 40
0.025
 49
0.0
 74
     0
 49
-0.025
 74
     0
  0
ENDTAB
  0
TABLE
  2
LAYER
  5
2
330
0
100
AcDbSymbolTable
 70
     1
  0
LAYER
  5
10
330
2
100
AcDbSymbolTableRecord
100
AcDbLayerTableRecord
  2
0
 70
     0
 62
     7
  6
Continuous
370
    -3
390
F
  0
ENDTAB
  0
TABLE
  2
STYLE
  5
3
330
0
100
AcDbSymbolTable
 70
     1
  0
STYLE
  5
11
330
3
100
AcDbSymbolTableRecord
100
AcDbTextStyleTableRecord
  2
Standard
 70
     0
 40
0.0
 41
1.0
 50
0.0
 71
     0
 42
0.1377952756
  3
txt
  4

  0
ENDTAB
  0
TABLE
  2
VIEW
  5
6
330
0
100
AcDbSymbolTable
 70
     0
  0
ENDTAB
  0
TABLE
  2
UCS
  5
7
330
0
100
AcDbSymbolTable
 70
     0
  0
ENDTAB
  0
TABLE
  2
APPID
  5
9
330
0
100
AcDbSymbolTable
 70
     1
  0
APPID
  5
12
330
9
100
AcDbSymbolTableRecord
100
AcDbRegAppTableRecord
  2
ACAD
 70
     0
  0
ENDTAB
  0
TABLE
  2
DIMSTYLE
  5
A
330
0
100
AcDbSymbolTable
 70
     1
100
AcDbDimStyleTable
  0
DIMSTYLE
105
27
330
A
100
AcDbSymbolTableRecord
100
AcDbDimStyleTableRecord
  2
Standard
 70
     0
178
     0
340
11
  0
ENDTAB
  0
TABLE
  2
BLOCK_RECORD
  5
1
330
0
100
AcDbSymbolTable
 70
     2
  0
BLOCK_RECORD
  5
1F
330
1
100
AcDbSymbolTableRecord
100
AcDbBlockTableRecord
  2
*Model_Space
340
22
  0
BLOCK_RECORD
  5
1B
330
1
100
AcDbSymbolTableRecord
100
AcDbBlockTableRecord
  2
*Paper_Space
340
1E
  0
BLOCK_RECORD
  5
23
330
1
100
AcDbSymbolTableRecord
100
AcDbBlockTableRecord
  2
*Paper_Space0
340
26
  0
BLOCK_RECORD
  5
130
330
1
100
AcDbSymbolTableRecord
100
AcDbBlockTableRecord
  2
*Paper_Space1
340
131
  0
ENDTAB
  0
ENDSEC
  0
SECTION
  2
BLOCKS
  0
BLOCK
  5
20
330
1F
100
AcDbEntity
  8
0
100
AcDbBlockBegin
  2
*Model_Space
 70
     0
 10
0.0
 20
0.0
 30
0.0
  3
*Model_Space
  1

  0
ENDBLK
  5
21
330
1F
100
AcDbEntity
  8
0
100
AcDbBlockEnd
  0
BLOCK
  5
1C
330
1B
100
AcDbEntity
 67
     1
  8
0
100
AcDbBlockBegin
  2
*Paper_Space
 70
     0
 10
0.0
 20
0.0
 30
0.0
  3
*Paper_Space
  1

  0
ENDBLK
  5
1D
330
1B
100
AcDbEntity
 67
     1
  8
0
100
AcDbBlockEnd
  0
BLOCK
  5
24
330
23
100
AcDbEntity
  8
0
100
AcDbBlockBegin
  2
*Paper_Space0
 70
     0
 10
0.0
 20
0.0
 30
0.0
  3
*Paper_Space0
  1

  0
LWPOLYLINE
  5
FD
330
23
100
AcDbEntity
  8
0
  6
Continuous
 62
     7
370
    25
100
AcDbPolyline
 90
       26
 70
   128
 43
0.0
 10
0.3937007874
 20
-5.1181102362
 10
0.3904685094
 20
-5.162968262
 10
0.3808247492
 20
-5.2070897201
 10
0.3649278572
 20
-5.2497501377
 10
0.3430388599
 20
-5.2902490316
 10
0.315517174
 20
-5.3279214114
 10
0.2828147048
 20
-5.3621486974
 10
0.2454684259
 20
-5.3923688786
 10
0.2040915623
 20
-5.4180857405
 10
0.1593635209
 20
-5.438877013
 10
0.1120187349
 20
-5.4544013038
 10
0.0628346043
 20
-5.4644037046
 10
0.0126187313
 20
-5.4687199762
 10
-0.0378043409
 20
-5.4672792455
 10
-0.0876066669
 20
-5.4601051694
 10
-0.1359704939
 20
-5.447315546
 10
-0.1821016891
 20
-5.4291203804
 10
-0.2252427796
 20
-5.4058184369
 10
-0.2646853899
 20
-5.3777923327
 10
-0.2997818734
 20
-5.3455022557
 10
-0.3299559468
 20
-5.3094784079
 10
-0.3547121527
 20
-5.2703123001
 10
-0.3736439949
 20
-5.2286470386
 10
-0.386440613
 20
-5.1851667659
 10
-0.3928918869
 20
-5.1405854268
 10
-0.3937007874
 20
-5.1181102362
  0
LWPOLYLINE
  5
102
330
23
100
AcDbEntity
  8
0
  6
Continuous
 62
     7
370
    25
100
AcDbPolyline
 90
       34
 70
   128
 43
0.0
 10
4.625984252
 20
-0.6968503937
 10
4.6228645136
 20
-0.7155622132
 10
4.6135335513
 20
-0.7341045757
 10
4.5980758676
 20
-0.7523095584
 10
4.5766314499
 20
-0.7700122944
 10
4.549394502
 20
-0.7870524649
 10
4.516611686
 20
-0.8032757515
 10
4.4785798881
 20
-0.8185352335
 10
4.4356435302
 20
-0.8326927188
 10
4.3881914506
 20
-0.845619995
 10
4.3366533826
 20
-0.8571999906
 10
4.281496063
 20
-0.8673278354
 10
4.223219005
 20
-0.8759118101
 10
4.1623499747
 20
-0.8828741769
 10
4.0994402115
 20
-0.8881518835
 10
4.0350594358
 20
-0.8916971342
 10
3.96979069
 20
-0.8934778227
 10
3.904225058
 20
-0.8934778227
 10
3.8389563122
 20
-0.8916971342
 10
3.7745755366
 20
-0.8881518835
 10
3.7116657733
 20
-0.8828741769
 10
3.650796743
 20
-0.8759118101
 10
3.592519685
 20
-0.8673278354
 10
3.5373623655
 20
-0.8571999906
 10
3.4858242975
 20
-0.845619995
 10
3.4383722178
 20
-0.8326927188
 10
3.3954358599
 20
-0.8185352335
 10
3.357404062
 20
-0.8032757515
 10
3.324621246
 20
-0.7870524649
 10
3.2973842981
 20
-0.7700122944
 10
3.2759398804
 20
-0.7523095584
 10
3.2604821968
 20
-0.7341045757
 10
3.2511512344
 20
-0.7155622132
 10
3.2480314961
 20
-0.6968503937
  0
LWPOLYLINE
  5
113
330
23
100
AcDbEntity
  8
0
  6
Continuous
 62
     8
370
    25
100
AcDbPolyline
 90
       26
 70
   128
 43
0.0
 10
0.3937007874
 20
-4.5949477594
 10
0.3904685094
 20
-4.6398057852
 10
0.3808247492
 20
-4.6839272434
 10
0.3649278572
 20
-4.7265876609
 10
0.3430388599
 20
-4.7670865549
 10
0.315517174
 20
-4.8047589346
 10
0.2828147048
 20
-4.8389862206
 10
0.2454684259
 20
-4.8692064018
 10
0.2040915623
 20
-4.8949232637
 10
0.1593635209
 20
-4.9157145362
 10
0.1120187349
 20
-4.931238827
 10
0.0628346043
 20
-4.9412412278
 10
0.0126187313
 20
-4.9455574994
 10
-0.0378043409
 20
-4.9441167688
 10
-0.0876066669
 20
-4.9369426927
 10
-0.1359704939
 20
-4.9241530692
 10
-0.1821016891
 20
-4.9059579037
 10
-0.2252427796
 20
-4.8826559601
 10
-0.2646853899
 20
-4.8546298559
 10
-0.2997818734
 20
-4.8223397789
 10
-0.3299559468
 20
-4.7863159311
 10
-0.3547121527
 20
-4.7471498233
 10
-0.3736439949
 20
-4.7054845618
 10
-0.386440613
 20
-4.6620042891
 10
-0.3928918869
 20
-4.61742295
 10
-0.3937007874
 20
-4.5949477594
  0
LINE
  5
114
330
23
100
AcDbEntity
  8
0
  6
Continuous
 62
     7
370
    25
100
AcDbLine
 10
0.3937007874
 20
-5.1181102362
 30
0.0
 11
0.3937007874
 21
0.0
 31
0.0
  0
LINE
  5
115
330
23
100
AcDbEntity
  8
0
  6
Continuous
 62
     7
370
    25
100
AcDbLine
 10
-0.3937007874
 20
0.0
 30
0.0
 11
-0.3937007874
 21
-5.1181102362
 31
0.0
  0
LINE
  5
116
330
23
100
AcDbEntity
  8
0
  6
Continuous
 62
     7
370
    25
100
AcDbLine
 10
2.8543307087
 20
0.1181102362
 30
0.0
 11
2.8543307087
 21
0.0
 31
0.0
  0
LINE
  5
117
330
23
100
AcDbEntity
  8
0
  6
Continuous
 62
     7
370
    25
100
AcDbLine
 10
5.0196850394
 20
0.0
 30
0.0
 11
5.0196850394
 21
0.1181102362
 31
0.0
  0
LINE
  5
118
330
23
100
AcDbEntity
  8
0
  6
Continuous
 62
     7
370
    25
100
AcDbLine
 10
-1.0826771654
 20
0.1181102362
 30
0.0
 11
-1.0826771654
 21
0.0
 31
0.0
  0
LINE
  5
119
330
23
100
AcDbEntity
  8
0
  6
Continuous
 62
     7
370
    25
100
AcDbLine
 10
1.0826771654
 20
0.0
 30
0.0
 11
1.0826771654
 21
0.1181102362
 31
0.0
  0
LINE
  5
11A
330
23
100
AcDbEntity
  8
0
  6
Continuous
 62
     7
370
    25
100
AcDbLine
 10
3.2480314961
 20
-0.6968503937
 30
0.0
 11
3.2480314961
 21
-1.8385826772
 31
0.0
  0
LINE
  5
11B
330
23
100
AcDbEntity
  8
0
  6
Continuous
 62
     7
370
    25
100
AcDbLine
 10
4.625984252
 20
-1.8385826772
 30
0.0
 11
4.625984252
 21
-0.6968503937
 31
0.0
  0
LINE
  5
11C
330
23
100
AcDbEntity
  8
0
  6
Continuous
 62
     7
370
    25
100
AcDbLine
 10
3.2480314961
 20
0.0
 30
0.0
 11
3.2480314961
 21
-0.657480315
 31
0.0
  0
LINE
  5
11D
330
23
100
AcDbEntity
  8
0
  6
Continuous
 62
     7
370
    25
100
AcDbLine
 10
4.625984252
 20
-0.657480315
 30
0.0
 11
4.625984252
 21
0.0
 31
0.0
  0
LINE
  5
11E
330
23
100
AcDbEntity
  8
0
  6
Continuous
 62
     7
370
    25
100
AcDbLine
 10
3.2677165354
 20
-0.657480315
 30
0.0
 11
3.2677165354
 21
-0.6968503937
 31
0.0
  0
LINE
  5
11F
330
23
100
AcDbEntity
  8
0
  6
Continuous
 62
     7
370
    25
100
AcDbLine
 10
4.6062992126
 20
-0.6968503937
 30
0.0
 11
4.6062992126
 21
-0.657480315
 31
0.0
  0
LINE
  5
120
330
23
100
AcDbEntity
  8
0
  6
Continuous
 62
     7
370
    25
100
AcDbLine
 10
5.0196850394
 20
0.0
 30
0.0
 11
2.8543307087
 21
0.0
 31
0.0
  0
LINE
  5
121
330
23
100
AcDbEntity
  8
0
  6
Continuous
 62
     7
370
    25
100
AcDbLine
 10
5.0196850394
 20
0.1181102362
 30
0.0
 11
2.8543307087
 21
0.1181102362
 31
0.0
  0
LINE
  5
122
330
23
100
AcDbEntity
  8
0
  6
Continuous
 62
     7
370
    25
100
AcDbLine
 10
1.0826771654
 20
0.1181102362
 30
0.0
 11
-1.0826771654
 21
0.1181102362
 31
0.0
  0
LINE
  5
123
330
23
100
AcDbEntity
  8
0
  6
Continuous
 62
     7
370
    25
100
AcDbLine
 10
1.0826771654
 20
0.0
 30
0.0
 11
-1.0826771654
 21
0.0
 31
0.0
  0
LINE
  5
124
330
23
100
AcDbEntity
  8
0
  6
Continuous
 62
     7
370
    25
100
AcDbLine
 10
4.625984252
 20
-0.6968503937
 30
0.0
 11
3.2480314961
 21
-0.6968503937
 31
0.0
  0
LINE
  5
125
330
23
100
AcDbEntity
  8
0
  6
Continuous
 62
     7
370
    25
100
AcDbLine
 10
4.625984252
 20
-1.8385826772
 30
0.0
 11
3.2480314961
 21
-1.8385826772
 31
0.0
  0
LINE
  5
126
330
23
100
AcDbEntity
  8
0
  6
Continuous
 62
     7
370
    25
100
AcDbLine
 10
4.299642885
 20
-1.838976378
 30
0.0
 11
4.299642885
 21
-1.8385826772
 31
0.0
  0
LINE
  5
127
330
23
100
AcDbEntity
  8
0
  6
Continuous
 62
     7
370
    25
100
AcDbLine
 10
4.3265047376
 20
-1.838976378
 30
0.0
 11
4.2119196307
 21
-1.838976378
 31
0.0
  0
LINE
  5
128
330
23
100
AcDbEntity
  8
0
  6
Continuous
 62
     7
370
    25
100
AcDbLine
 10
4.2119196307
 20
-1.838976378
 30
0.0
 11
4.2119196307
 21
-1.8385826772
 31
0.0
  0
LINE
  5
129
330
23
100
AcDbEntity
  8
0
  6
Continuous
 62
     7
370
    25
100
AcDbLine
 10
4.3265047376
 20
-1.838976378
 30
0.0
 11
4.3265047376
 21
-1.8385826772
 31
0.0
  0
LINE
  5
12A
330
23
100
AcDbEntity
  8
0
  6
Continuous
 62
     7
370
    25
100
AcDbLine
 10
3.6620961173
 20
-1.838976378
 30
0.0
 11
3.6620961173
 21
-1.8385826772
 31
0.0
  0
LINE
  5
12B
330
23
100
AcDbEntity
  8
0
  6
Continuous
 62
     7
370
    25
100
AcDbLine
 10
3.6620961173
 20
-1.838976378
 30
0.0
 11
3.5475110104
 21
-1.838976378
 31
0.0
  0
LINE
  5
12C
330
23
100
AcDbEntity
  8
0
  6
Continuous
 62
     7
370
    25
100
AcDbLine
 10
3.574372863
 20
-1.838976378
 30
0.0
 11
3.574372863
 21
-1.8385826772
 31
0.0
  0
LINE
  5
12D
330
23
100
AcDbEntity
  8
0
  6
Continuous
 62
     7
370
    25
100
AcDbLine
 10
3.5475110104
 20
-1.838976378
 30
0.0
 11
3.5475110104
 21
-1.8385826772
 31
0.0
  0
LINE
  5
12E
330
23
100
AcDbEntity
  8
0
  6
Continuous
 62
     7
370
    25
100
AcDbLine
 10
4.625984252
 20
-0.657480315
 30
0.0
 11
3.2480314961
 21
-0.657480315
 31
0.0
  0
LINE
  5
12F
330
23
100
AcDbEntity
  8
0
  6
Continuous
 62
     8
370
    25
100
AcDbLine
 10
0.3937007874
 20
-3.8933678191
 30
0.0
 11
-0.3937007874
 21
-3.8933678191
 31
0.0
  0
VIEWPORT
  5
19C
330
23
100
AcDbEntity
  8
0
100
AcDbViewport
 10
0.0
 20
0.0
 30
0.0
 40
8.4
 41
6.4
 68
     1
 69
     1
 12
1.968503937
 22
-0.9251968504
 13
0.0
 23
0.0
 14
0.5
 24
0.5
 15
0.5
 25
0.5
 16
0.0
 26
0.0
 36
1.0
 17
0.0
 27
0.0
 37
0.0
 42
50.0
 43
0.0
 44
0.0
 45
4.7424071991
 50
0.0
 51
0.0
 72
   100
 90
   557152
  1

281
     0
 71
     1
 74
     0
110
0.0
120
0.0
130
0.0
111
1.0
121
0.0
131
0.0
112
0.0
122
1.0
132
0.0
 79
     0
146
0.0
  0
ENDBLK
  5
25
330
23
100
AcDbEntity
  8
0
100
AcDbBlockEnd
  0
BLOCK
  5
132
330
130
100
AcDbEntity
  8
0
100
AcDbBlockBegin
  2
*Paper_Space1
 70
     0
 10
0.0
 20
0.0
 30
0.0
  3
*Paper_Space1
  1

  0
SPLINE
  5
134
330
130
100
AcDbEntity
  8
0
  6
Continuous
 62
     7
370
    25
100
AcDbSpline
210
0.0
220
0.0
230
1.0
 70
     8
 71
     3
 72
    22
 73
    18
 74
     0
 42
0.000000001
 43
0.00000001
 40
0.0
 40
0.0
 40
0.0
 40
0.0
 40
0.0424705384832278
 40
0.115853889421503
 40
0.1892738626389331
 40
0.2626939028628099
 40
0.3359492285911237
 40
0.4089629115893272
 40
0.4817205982591931
 40
0.554251259224233
 40
0.6266117579053619
 40
0.6988760535923625
 40
0.7711281958967267
 40
0.8434506998783105
 40
0.9159126618533164
 40
0.9847518601204573
 40
1.0
 40
1.0
 40
1.0
 40
1.0
 10
-2.94986118274866
 20
-1.248324415876183
 30
0.0
 10
-2.962420127329049
 20
-1.255768546311101
 30
0.0
 10
-2.996679230901324
 20
-1.276075128121615
 30
0.0
 10
-3.051277340417162
 20
-1.313100343140444
 30
0.0
 10
-3.1130544684291
 20
-1.360356736290441
 30
0.0
 10
-3.172799439965056
 20
-1.411841894445347
 30
0.0
 10
-3.230309511198411
 20
-1.467128202943062
 30
0.0
 10
-3.285345475104264
 20
-1.525875985940108
 30
0.0
 10
-3.337721531143961
 20
-1.58774378165032
 30
0.0
 10
-3.387275010634651
 20
-1.652423647784154
 30
0.0
 10
-3.433856703198529
 20
-1.719626327513013
 30
0.0
 10
-3.477322626995949
 20
-1.78907905979356
 30
0.0
 10
-3.517523344302553
 20
-1.860519050912755
 30
0.0
 10
-3.554314275138876
 20
-1.933684013368949
 30
0.0
 10
-3.586911400571108
 20
-2.006999853467409
 30
0.0
 10
-3.608188895254366
 20
-2.061411429519639
 30
0.0
 10
-3.618630202560613
 20
-2.090793549206681
 30
0.0
 10
-3.620523597188627
 20
-2.096121612632401
 30
0.0
  0
SPLINE
  5
135
330
130
100
AcDbEntity
  8
0
  6
Continuous
 62
     7
370
    25
100
AcDbSpline
210
0.0
220
0.0
230
1.0
 70
     8
 71
     3
 72
    21
 73
    17
 74
     0
 42
0.000000001
 43
0.00000001
 40
0.0
 40
0.0
 40
0.0
 40
0.0
 40
0.0406971925039504
 40
0.1209269507688236
 40
0.2016925477867884
 40
0.2829230432065071
 40
0.364363923985021
 40
0.445722234586768
 40
0.5266991814940999
 40
0.6070544705895371
 40
0.6865669290419664
 40
0.7650467785872398
 40
0.8423540888477165
 40
0.9184248973442547
 40
0.9882687597845956
 40
0.9999999999999999
 40
0.9999999999999999
 40
0.9999999999999999
 40
0.9999999999999999
 10
-2.877713842601664
 20
-2.357339736990065
 30
0.0
 10
-2.875074636265801
 20
-2.350028647610875
 30
0.0
 10
-2.867232543113681
 20
-2.328304600053102
 30
0.0
 10
-2.851982771655858
 20
-2.291581100680142
 30
0.0
 10
-2.831105502335175
 20
-2.247594361708227
 30
0.0
 10
-2.807584862440733
 20
-2.204034509162577
 30
0.0
 10
-2.78179743787479
 20
-2.161611164296105
 30
0.0
 10
-2.754157085664583
 20
-2.121014183313501
 30
0.0
 10
-2.725171043553114
 20
-2.082887012795968
 30
0.0
 10
-2.695404061245609
 20
-2.047796991420987
 30
0.0
 10
-2.665472231920632
 20
-2.016221430278997
 30
0.0
 10
-2.636039887017616
 20
-1.98854194683649
 30
0.0
 10
-2.607796091429527
 20
-1.965013271097654
 30
0.0
 10
-2.582059691968507
 20
-1.946217691169279
 30
0.0
 10
-2.56534175277705
 20
-1.935578288714111
 30
0.0
 10
-2.557342723403064
 20
-1.930922236537045
 30
0.0
 10
-2.556192390372259
 20
-1.930252653971209
 30
0.0
  0
LWPOLYLINE
  5
145
330
130
100
AcDbEntity
  8
0
  6
Continuous
 62
     7
370
    25
100
AcDbPolyline
 90
       21
 70
   128
 43
0.0
 10
-3.3406619584
 20
-3.4393928294
 10
-3.3746669383
 20
-3.437721522
 10
-3.4126846887
 20
-3.4334387995
 10
-3.4540909594
 20
-3.4266149839
 10
-3.4982058604
 20
-3.4173621222
 10
-3.5443050263
 20
-3.4058321462
 10
-3.5916315101
 20
-3.3922143776
 10
-3.6394082122
 20
-3.3767324199
 10
-3.6868506405
 20
-3.3596404864
 10
-3.7331797916
 20
-3.3412192261
 10
-3.7776349421
 20
-3.3217711158
 10
-3.8194861398
 20
-3.3016154927
 10
-3.8580461891
 20
-3.2810833116
 10
-3.892681935
 20
-3.2605117105
 10
-3.9228246596
 20
-3.2402384744
 10
-3.9479794201
 20
-3.2205964893
 10
-3.9677331761
 20
-3.2019082761
 10
-3.9817615715
 20
-3.1844806947
 10
-3.9898342603
 20
-3.1685999055
 10
-3.9918186894
 20
-3.1545266706
 10
-3.9904553322
 20
-3.148073509
  0
LWPOLYLINE
  5
147
330
130
100
AcDbEntity
  8
0
  6
Continuous
 62
     7
370
    25
100
AcDbPolyline
 90
       20
 70
   128
 43
0.0
 10
0.2783884965
 20
-0.1607102582
 10
0.2761029308
 20
-0.1182818051
 10
0.2692837626
 20
-0.0739111679
 10
0.2580429625
 20
-0.0283269114
 10
0.242565104
 20
0.0177224722
 10
0.2231043333
 20
0.0634808533
 10
0.1999801956
 20
0.1081968805
 10
0.1735723885
 20
0.1511363179
 10
0.1443145277
 20
0.1915941012
 10
0.1126870263
 20
0.2289059146
 10
0.0792092071
 20
0.2624590993
 10
0.0444307748
 20
0.2917027128
 10
0.0089227905
 20
0.3161565758
 10
-0.0267317058
 20
0.3354191566
 10
-0.0619472683
 20
0.3491741641
 10
-0.0961456583
 20
0.3571957414
 10
-0.1287653392
 20
0.3593521746
 10
-0.1592706969
 20
0.355608055
 10
-0.1871608341
 20
0.346024861
 10
-0.1968343962
 20
0.340964119
  0
LWPOLYLINE
  5
149
330
130
100
AcDbEntity
  8
0
  6
Continuous
 62
     7
370
    25
100
AcDbPolyline
 90
       44
 70
   128
 43
0.0
 10
3.5494533308
 20
-2.0490557925
 10
3.547207001
 20
-1.9800856399
 10
3.5404811939
 20
-1.9089266744
 10
3.5293153794
 20
-1.8359964852
 10
3.5137750828
 20
-1.7617230555
 10
3.4939515007
 20
-1.6865422514
 10
3.4699609659
 20
-1.6108952637
 10
3.4419442643
 20
-1.5352260191
 10
3.4100658091
 20
-1.4599785747
 10
3.3745126757
 20
-1.3855945125
 10
3.335493504
 20
-1.3125103477
 10
3.2932372741
 20
-1.2411549673
 10
3.2479919623
 20
-1.1719471131
 10
3.2000230861
 20
-1.1052929241
 10
3.1496121459
 20
-1.0415835538
 10
3.0970549732
 20
-0.981192874
 10
3.0426599944
 20
-0.9244752812
 10
2.9867464208
 20
-0.8717636169
 10
2.9296423755
 20
-0.823367214
 10
2.8716829678
 20
-0.7795700819
 10
2.8132083265
 20
-0.7406292395
 10
2.7545616041
 20
-0.7067732073
 10
2.6960869628
 20
-0.6782006659
 10
2.6381275551
 20
-0.6550792902
 10
2.5810235098
 20
-0.6375447658
 10
2.5251099362
 20
-0.6256999922
 10
2.4707149574
 20
-0.6196144792
 10
2.4181577847
 20
-0.6193239391
 10
2.3677468445
 20
-0.6248300768
 10
2.3197779683
 20
-0.6361005802
 10
2.2745326565
 20
-0.6530693094
 10
2.2322764266
 20
-0.6756366852
 10
2.1932572549
 20
-0.7036702733
 10
2.1577041215
 20
-0.7370055614
 10
2.1258256663
 20
-0.7754469248
 10
2.0978089647
 20
-0.8187687743
 10
2.0738184299
 20
-0.86671688
 10
2.0539948478
 20
-0.9190098635
 10
2.0384545512
 20
-0.9753408486
 10
2.0272887367
 20
-1.0353792628
 10
2.0205629296
 20
-1.0987727768
 10
2.0183165998
 20
-1.1651493722
 10
2.0205629296
 20
-1.2341195248
 10
2.0218080941
 20
-1.2515003505
  0
LWPOLYLINE
  5
14A
330
130
100
AcDbEntity
  8
0
  6
Continuous
 62
     7
370
    25
100
AcDbPolyline
 90
       23
 70
   128
 43
0.0
 10
2.7107284807
 20
-2.4448747672
 10
2.7545616041
 20
-2.4735759251
 10
2.8132083265
 20
-2.5074319573
 10
2.8716829678
 20
-2.5360044988
 10
2.9296423755
 20
-2.5591258744
 10
2.9867464208
 20
-2.5766603988
 10
3.0426599944
 20
-2.5885051725
 10
3.0970549732
 20
-2.5945906854
 10
3.1496121459
 20
-2.5948812256
 10
3.2000230861
 20
-2.5893750878
 10
3.2479919623
 20
-2.5781045845
 10
3.2932372741
 20
-2.5611358553
 10
3.335493504
 20
-2.5385684794
 10
3.3745126757
 20
-2.5105348914
 10
3.4100658091
 20
-2.4771996033
 10
3.4419442643
 20
-2.4387582399
 10
3.4699609659
 20
-2.3954363904
 10
3.4939515007
 20
-2.3474882846
 10
3.5137750828
 20
-2.2951953012
 10
3.5293153794
 20
-2.238864316
 10
3.5404811939
 20
-2.1788259018
 10
3.547207001
 20
-2.1154323879
 10
3.5494533308
 20
-2.0490557925
  0
LWPOLYLINE
  5
14B
330
130
100
AcDbEntity
  8
0
  6
Continuous
 62
     7
370
    25
100
AcDbPolyline
 90
       26
 70
   128
 43
0.0
 10
3.2710648342
 20
-1.8883455342
 10
3.2687905006
 20
-1.8327360454
 10
3.2619887347
 20
-1.7750198777
 10
3.2507230427
 20
-1.7157359114
 10
3.2350986094
 20
-1.655437665
 10
3.2152613158
 20
-1.594688127
 10
3.1913963775
 20
-1.5340544994
 10
3.1637266149
 20
-1.474102902
 10
3.1325103732
 20
-1.4153930869
 10
3.09803911
 20
-1.3584732116
 10
3.0606346742
 20
-1.3038747218
 10
3.0206463009
 20
-1.2521073889
 10
2.9784473508
 20
-1.2036545504
 10
2.9344318241
 20
-1.1589685974
 10
2.889010682
 20
-1.1184667508
 10
2.8426080094
 20
-1.0825271652
 10
2.7956570555
 20
-1.051485399
 10
2.7485961889
 20
-1.0256312807
 10
2.701864804
 20
-1.0052062033
 10
2.6558992192
 20
-0.9904008702
 10
2.6111286029
 20
-0.9813535149
 10
2.5679709662
 20
-0.9781486099
 10
2.5268292603
 20
-0.9808160788
 10
2.4880876143
 20
-0.989331016
 10
2.4521077485
 20
-1.0036139199
 10
2.439424772
 20
-1.010415374
  0
LWPOLYLINE
  5
14C
330
130
100
AcDbEntity
  8
0
  6
Continuous
 62
     7
370
    25
100
AcDbPolyline
 90
       10
 70
   128
 43
0.0
 10
3.1283451586
 20
-2.2037897907
 10
3.1325103732
 20
-2.201326406
 10
3.1637266149
 20
-2.1786580963
 10
3.1913963775
 20
-2.1506533269
 10
3.2152613158
 20
-2.1175735706
 10
3.2350986094
 20
-2.0797276842
 10
3.2507230427
 20
-2.0374690245
 10
3.2619887347
 20
-1.9911921494
 10
3.2687905006
 20
-1.9413291334
 10
3.2710648342
 20
-1.8883455342
  0
LWPOLYLINE
  5
14D
330
130
100
AcDbEntity
  8
0
  6
Continuous
 62
     7
370
    25
100
AcDbPolyline
 90
       32
 70
   128
 43
0.0
 10
3.6329698797
 20
-2.000842715
 10
3.6307235499
 20
-1.9318725624
 10
3.6239977429
 20
-1.860713597
 10
3.6128319284
 20
-1.7877834077
 10
3.5972916318
 20
-1.713509978
 10
3.5774680497
 20
-1.6383291739
 10
3.5534775149
 20
-1.5626821863
 10
3.5254608133
 20
-1.4870129416
 10
3.493582358
 20
-1.4117654972
 10
3.4580292246
 20
-1.337381435
 10
3.419010053
 20
-1.2642972703
 10
3.376753823
 20
-1.1929418899
 10
3.3315085112
 20
-1.1237340356
 10
3.283539635
 20
-1.0570798466
 10
3.2331286949
 20
-0.9933704763
 10
3.1805715222
 20
-0.9329797965
 10
3.1261765434
 20
-0.8762622037
 10
3.0702629698
 20
-0.8235505394
 10
3.0131589245
 20
-0.7751541365
 10
2.9551995168
 20
-0.7313570044
 10
2.8967248755
 20
-0.6924161621
 10
2.838078153
 20
-0.6585601298
 10
2.7796035117
 20
-0.6299875884
 10
2.721644104
 20
-0.6068662128
 10
2.6645400587
 20
-0.5893316883
 10
2.6086264852
 20
-0.5774869147
 10
2.5542315063
 20
-0.5714014018
 10
2.5016743337
 20
-0.5711108616
 10
2.4512633935
 20
-0.5766169993
 10
2.4032945173
 20
-0.5878875027
 10
2.3580492055
 20
-0.6048562319
 10
2.3261069247
 20
-0.6212381775
  0
LWPOLYLINE
  5
14E
330
130
100
AcDbEntity
  8
0
  6
Continuous
 62
     7
370
    25
100
AcDbPolyline
 90
       12
 70
   128
 43
0.0
 10
3.4086961038
 20
-2.4965408322
 10
3.419010053
 20
-2.490355402
 10
3.4580292246
 20
-2.4623218139
 10
3.493582358
 20
-2.4289865258
 10
3.5254608133
 20
-2.3905451624
 10
3.5534775149
 20
-2.3472233129
 10
3.5774680497
 20
-2.2992752071
 10
3.5972916318
 20
-2.2469822237
 10
3.6128319284
 20
-2.1906512386
 10
3.6239977429
 20
-2.1306128244
 10
3.6307235499
 20
-2.0672193104
 10
3.6329698797
 20
-2.000842715
  0
LWPOLYLINE
  5
14F
330
130
100
AcDbEntity
  8
0
  6
Continuous
 62
     7
370
    25
100
AcDbPolyline
 90
       48
 70
   128
 43
0.0
 10
0.7655683655
 20
-0.4419532101
 10
0.7633220357
 20
-0.3729830576
 10
0.7565962286
 20
-0.3018240921
 10
0.7454304141
 20
-0.2288939029
 10
0.7298901175
 20
-0.1546204732
 10
0.7100665354
 20
-0.0794396691
 10
0.6860760006
 20
-0.0037926814
 10
0.658059299
 20
0.0718765632
 10
0.6261808438
 20
0.1471240076
 10
0.5906277104
 20
0.2215080698
 10
0.5516085387
 20
0.2945922346
 10
0.5093523088
 20
0.365947615
 10
0.464106997
 20
0.4351554693
 10
0.4161381208
 20
0.5018096582
 10
0.3657271806
 20
0.5655190286
 10
0.3131700079
 20
0.6259097084
 10
0.2587750291
 20
0.6826273011
 10
0.2028614555
 20
0.7353389655
 10
0.1457574102
 20
0.7837353683
 10
0.0877980025
 20
0.8275325005
 10
0.0293233612
 20
0.8664733428
 10
-0.0293233612
 20
0.900329375
 10
-0.0877980025
 20
0.9289019165
 10
-0.1457574102
 20
0.9520232921
 10
-0.2028614555
 20
0.9695578165
 10
-0.2587750291
 20
0.9814025901
 10
-0.3131700079
 20
0.9874881031
 10
-0.3657271806
 20
0.9877786432
 10
-0.4161381208
 20
0.9822725055
 10
-0.464106997
 20
0.9710020022
 10
-0.5093523088
 20
0.9540332729
 10
-0.5516085387
 20
0.9314658971
 10
-0.5906277104
 20
0.903432309
 10
-0.6261808438
 20
0.8700970209
 10
-0.658059299
 20
0.8316556575
 10
-0.6860760006
 20
0.788333808
 10
-0.7100665354
 20
0.7403857023
 10
-0.7298901175
 20
0.6880927188
 10
-0.7454304141
 20
0.6317617337
 10
-0.7565962286
 20
0.5717233195
 10
-0.7633220357
 20
0.5083298055
 10
-0.7655683655
 20
0.4419532101
 10
-0.7633220357
 20
0.3729830576
 10
-0.7565962286
 20
0.3018240921
 10
-0.7454304141
 20
0.2288939029
 10
-0.7298901175
 20
0.1546204732
 10
-0.7100665354
 20
0.0794396691
 10
-0.7011544474
 20
0.0498263505
  0
LWPOLYLINE
  5
150
330
130
100
AcDbEntity
  8
0
  6
Continuous
 62
     7
370
    25
100
AcDbPolyline
 90
       27
 70
   128
 43
0.0
 10
-0.307485655
 20
-0.6321018876
 10
-0.2587750291
 20
-0.6826273011
 10
-0.2028614555
 20
-0.7353389655
 10
-0.1457574102
 20
-0.7837353683
 10
-0.0877980025
 20
-0.8275325005
 10
-0.0293233612
 20
-0.8664733428
 10
0.0293233612
 20
-0.900329375
 10
0.0877980025
 20
-0.9289019165
 10
0.1457574102
 20
-0.9520232921
 10
0.2028614555
 20
-0.9695578165
 10
0.2587750291
 20
-0.9814025901
 10
0.3131700079
 20
-0.9874881031
 10
0.3657271806
 20
-0.9877786432
 10
0.4161381208
 20
-0.9822725055
 10
0.464106997
 20
-0.9710020022
 10
0.5093523088
 20
-0.9540332729
 10
0.5516085387
 20
-0.9314658971
 10
0.5906277104
 20
-0.903432309
 10
0.6261808438
 20
-0.8700970209
 10
0.658059299
 20
-0.8316556575
 10
0.6860760006
 20
-0.788333808
 10
0.7100665354
 20
-0.7403857023
 10
0.7298901175
 20
-0.6880927188
 10
0.7454304141
 20
-0.6317617337
 10
0.7565962286
 20
-0.5717233195
 10
0.7633220357
 20
-0.5083298055
 10
0.7655683655
 20
-0.4419532101
  0
LWPOLYLINE
  5
151
330
130
100
AcDbEntity
  8
0
  6
Continuous
 62
     7
370
    25
100
AcDbPolyline
 90
       20
 70
   128
 43
0.0
 10
0.2783884965
 20
-0.1607102582
 10
0.2761029308
 20
-0.1182818051
 10
0.2692837626
 20
-0.0739111679
 10
0.2580429625
 20
-0.0283269114
 10
0.242565104
 20
0.0177224722
 10
0.2231043333
 20
0.0634808533
 10
0.1999801956
 20
0.1081968805
 10
0.1735723885
 20
0.1511363179
 10
0.1443145277
 20
0.1915941012
 10
0.1126870263
 20
0.2289059146
 10
0.0792092071
 20
0.2624590993
 10
0.0444307748
 20
0.2917027128
 10
0.0089227905
 20
0.3161565758
 10
-0.0267317058
 20
0.3354191566
 10
-0.0619472683
 20
0.3491741641
 10
-0.0961456583
 20
0.3571957414
 10
-0.1287653392
 20
0.3593521746
 10
-0.1592706969
 20
0.355608055
 10
-0.1871608341
 20
0.346024861
 10
-0.1968343962
 20
0.340964119
  0
LWPOLYLINE
  5
153
330
130
100
AcDbEntity
  8
0
  6
Continuous
 62
     7
370
    25
100
AcDbPolyline
 90
       32
 70
   128
 43
0.0
 10
0.8490849144
 20
-0.3937401327
 10
0.8468385846
 20
-0.3247699801
 10
0.8401127776
 20
-0.2536110146
 10
0.8289469631
 20
-0.1806808254
 10
0.8134066665
 20
-0.1064073957
 10
0.7935830844
 20
-0.0312265916
 10
0.7695925496
 20
0.0444203961
 10
0.741575848
 20
0.1200896407
 10
0.7096973927
 20
0.1953370851
 10
0.6741442593
 20
0.2697211473
 10
0.6351250876
 20
0.3428053121
 10
0.5928688577
 20
0.4141606924
 10
0.5476235459
 20
0.4833685467
 10
0.4996546697
 20
0.5500227357
 10
0.4492437296
 20
0.613732106
 10
0.3966865569
 20
0.6741227858
 10
0.3422915781
 20
0.7308403786
 10
0.2863780045
 20
0.7835520429
 10
0.2292739592
 20
0.8319484458
 10
0.1713145515
 20
0.8757455779
 10
0.1128399102
 20
0.9146864203
 10
0.0541931877
 20
0.9485424525
 10
-0.0042814536
 20
0.9771149939
 10
-0.0622408613
 20
1.0002363696
 10
-0.1193449066
 20
1.017770894
 10
-0.1752584801
 20
1.0296156676
 10
-0.229653459
 20
1.0357011806
 10
-0.2822106316
 20
1.0359917207
 10
-0.3326215718
 20
1.030485583
 10
-0.380590448
 20
1.0192150796
 10
-0.4258357598
 20
1.0022463504
 10
-0.4577780406
 20
0.9858644049
  0
LWPOLYLINE
  5
154
330
130
100
AcDbEntity
  8
0
  6
Continuous
 62
     7
370
    25
100
AcDbPolyline
 90
       12
 70
   128
 43
0.0
 10
0.6248111385
 20
-0.8894382499
 10
0.6351250876
 20
-0.8832528196
 10
0.6741442593
 20
-0.8552192316
 10
0.7096973927
 20
-0.8218839435
 10
0.741575848
 20
-0.7834425801
 10
0.7695925496
 20
-0.7401207306
 10
0.7935830844
 20
-0.6921726248
 10
0.8134066665
 20
-0.6398796414
 10
0.8289469631
 20
-0.5835486562
 10
0.8401127776
 20
-0.523510242
 10
0.8468385846
 20
-0.4601167281
 10
0.8490849144
 20
-0.3937401327
  0
LWPOLYLINE
  5
159
330
130
100
AcDbEntity
  8
0
  6
Continuous
 62
     7
370
    25
100
AcDbPolyline
 90
       66
 70
   128
 43
0.0
 10
1.4838106865
 20
-2.9201968193
 10
1.5308303258
 20
-2.9447143628
 10
1.5774109555
 20
-2.9637503597
 10
1.6231176646
 20
-2.977127076
 10
1.6675237021
 20
-2.9847196168
 10
1.7102144605
 20
-2.9864570927
 10
1.750791348
 20
-2.9823232812
 10
1.788875509
 20
-2.9723567788
 10
1.8241113619
 20
-2.95665064
 10
1.8561699191
 20
-2.9353515087
 10
1.8847518584
 20
-2.9086582492
 10
1.9095903181
 20
-2.8768200892
 10
1.9304533881
 20
-2.8401342931
 10
1.9471462755
 20
-2.7989433863
 10
1.9595131233
 20
-2.7536319571
 10
1.9674384657
 20
-2.7046230663
 10
1.9708483058
 20
-2.6523742965
 10
1.9697108068
 20
-2.5973734805
 10
1.9640365894
 20
-2.5401341461
 10
1.9538786321
 20
-2.4811907215
 10
1.9393317771
 20
-2.4210935455
 10
1.9205318443
 20
-2.3604037294
 10
1.8976543638
 20
-2.2996879176
 10
1.8709129364
 20
-2.2395129973
 10
1.8405572395
 20
-2.1804408054
 10
1.8068706962
 20
-2.1230228832
 10
1.7701678287
 20
-2.0677953263
 10
1.7307913216
 20
-2.0152737794
 10
1.689108823
 20
-1.9659486223
 10
1.6455095109
 20
-1.9202803904
 10
1.6004004605
 20
-1.8786954759
 10
1.5542028427
 20
-1.8415821459
 10
1.5073479924
 20
-1.8092869174
 10
1.4602733806
 20
-1.7821113225
 10
1.4134185303
 20
-1.7603090922
 10
1.3672209125
 20
-1.7440837882
 10
1.3221118621
 20
-1.7335869017
 10
1.2785125501
 20
-1.7289164393
 10
1.2368300514
 20
-1.7301160079
 10
1.1974535443
 20
-1.7371744074
 10
1.1607506768
 20
-1.7500257354
 10
1.1270641335
 20
-1.7685500027
 10
1.0967084366
 20
-1.792574253
 10
1.0699670092
 20
-1.8218741784
 10
1.0470895287
 20
-1.8561762134
 10
1.0282895959
 20
-1.8951600892
 10
1.0137427409
 20
-1.9384618238
 10
1.0035847836
 20
-1.9856771205
 10
0.9979105662
 20
-2.036365143
 10
0.9967730672
 20
-2.0900526307
 10
1.0001829073
 20
-2.146238318
 10
1.0081082497
 20
-2.2043976144
 10
1.0204750976
 20
-2.2639875021
 10
1.037167985
 20
-2.3244516065
 10
1.0580310549
 20
-2.3852253905
 10
1.0828695146
 20
-2.4457414255
 10
1.111451454
 20
-2.5054346898
 10
1.1435100111
 20
-2.5637478434
 10
1.178745864
 20
-2.6201364321
 10
1.216830025
 20
-2.6740739707
 10
1.2574069125
 20
-2.7250568592
 10
1.300097671
 20
-2.7726090839
 10
1.3445037084
 20
-2.8162866626
 10
1.3902104175
 20
-2.8556817895
 10
1.4367910472
 20
-2.8904266428
 10
1.4838106865
 20
-2.9201968193
  0
LWPOLYLINE
  5
15A
330
130
100
AcDbEntity
  8
0
  6
Continuous
 62
     7
370
    25
100
AcDbPolyline
 90
       26
 70
   128
 43
0.0
 10
2.7783171954
 20
-2.1728026913
 10
2.7628799527
 20
-2.1256910669
 10
2.7431705358
 20
-2.076459113
 10
2.7193674361
 20
-2.0255526817
 10
2.6916862182
 20
-1.9734327896
 10
2.6603775676
 20
-1.9205714425
 10
2.6257250201
 20
-1.8674473608
 10
2.5880423947
 20
-1.8145416447
 10
2.547670951
 20
-1.7623334163
 10
2.5049762991
 20
-1.7112954815
 10
2.4603450883
 20
-1.6618900477
 10
2.4141815058
 20
-1.6145645382
 10
2.3669036162
 20
-1.5697475402
 10
2.3189395754
 20
-1.5278449233
 10
2.270723753
 20
-1.489236164
 10
2.2226927992
 20
-1.4542709094
 10
2.1752816896
 20
-1.4232658101
 10
2.1289197865
 20
-1.3965016532
 10
2.0840269507
 20
-1.374220819
 10
2.0410097384
 20
-1.3566250861
 10
2.0002577204
 20
-1.3438738043
 10
1.9621399531
 20
-1.3360824512
 10
1.9270016369
 20
-1.3333215863
 10
1.89516099
 20
-1.3356162127
 10
1.866906366
 20
-1.3429455497
 10
1.8482439382
 20
-1.351696805
  0
LWPOLYLINE
  5
15B
330
130
100
AcDbEntity
  8
0
  6
Continuous
 62
     7
370
    25
100
AcDbPolyline
 90
       10
 70
   128
 43
0.0
 10
2.6355975198
 20
-2.4882469477
 10
2.6356255154
 20
-2.4882307836
 10
2.6677324578
 20
-2.4658587618
 10
2.6962125832
 20
-2.4379559265
 10
2.7207916124
 20
-2.4047909972
 10
2.741232836
 20
-2.3666833703
 10
2.7573393938
 20
-2.3240000432
 10
2.7689561708
 20
-2.2771520795
 10
2.7759712911
 20
-2.2265906508
 10
2.7783171954
 20
-2.1728026913
  0
LWPOLYLINE
  5
16B
330
130
100
AcDbEntity
  8
0
  6
Continuous
 62
     7
370
    25
100
AcDbPolyline
 90
       13
 70
   128
 43
0.0
 10
1.6047188681
 20
-4.5854518412
 10
1.60598073
 20
-4.5969374661
 10
1.6131835344
 20
-4.6148560578
 10
1.6264870569
 20
-4.6315708374
 10
1.6453466499
 20
-4.6463974999
 10
1.6689901993
 20
-4.6587290399
 10
1.6964497354
 20
-4.6680606029
 10
1.7266010617
 20
-4.6740101534
 10
1.7582097792
 20
-4.6763341162
 10
1.7899818234
 20
-4.674937348
 10
1.820616443
 20
-4.6698770326
 10
1.8488594532
 20
-4.66136034
 10
1.8735545816
 20
-4.6497359445
  0
LWPOLYLINE
  5
16C
330
130
100
AcDbEntity
  8
0
  6
Continuous
 62
     7
370
    25
100
AcDbPolyline
 90
       26
 70
   128
 43
0.0
 10
2.7632941195
 20
-2.1268290485
 10
2.7621188922
 20
-2.1098848807
 10
2.7553042038
 20
-2.0528999926
 10
2.7440193347
 20
-1.9943613097
 10
2.7283729643
 20
-1.9348325914
 10
2.7085157757
 20
-1.8748871319
 10
2.6846390044
 20
-1.8151022387
 10
2.6569725969
 20
-1.7560536731
 10
2.6257829957
 20
-1.6983101049
 10
2.5913705738
 20
-1.6424276364
 10
2.5540667417
 20
-1.5889444462
 10
2.5142307555
 20
-1.5383756067
 10
2.4722462576
 20
-1.4912081235
 10
2.4285175817
 20
-1.4478962452
 10
2.3834658589
 20
-1.4088570889
 10
2.3375249618
 20
-1.3744666229
 10
2.2911373264
 20
-1.3450560464
 10
2.2447496911
 20
-1.3209085992
 10
2.198808794
 20
-1.3022568344
 10
2.1537570712
 20
-1.2892803787
 10
2.1100283953
 20
-1.2821042025
 10
2.0680438974
 20
-1.2807974163
 10
2.0282079112
 20
-1.2853726051
 10
1.990904079
 20
-1.2957857074
 10
1.9564916572
 20
-1.3119364394
 10
1.9281394475
 20
-1.3313528411
  0
LWPOLYLINE
  5
16D
330
130
100
AcDbEntity
  8
0
  6
Continuous
 62
     7
370
    25
100
AcDbPolyline
 90
       30
 70
   128
 43
0.0
 10
2.7424706705
 20
-2.3639141336
 10
2.7562118139
 20
-2.3370373836
 10
2.7718581844
 20
-2.2955735801
 10
2.7831430535
 20
-2.2500641297
 10
2.7899577418
 20
-2.2009473132
 10
2.7922366202
 20
-2.1486961526
 10
2.7899577418
 20
-2.0938138549
 10
2.7831430535
 20
-2.0368289668
 10
2.7718581844
 20
-1.9782902838
 10
2.7562118139
 20
-1.9187615656
 10
2.7363546253
 20
-1.8588161061
 10
2.7124778541
 20
-1.7990312129
 10
2.6848114465
 20
-1.7399826473
 10
2.6536218454
 20
-1.6822390791
 10
2.6192094235
 20
-1.6263566106
 10
2.5819055913
 20
-1.5728734204
 10
2.5420696051
 20
-1.5223045809
 10
2.5000851072
 20
-1.4751370977
 10
2.4563564314
 20
-1.4318252194
 10
2.4113047085
 20
-1.3927860631
 10
2.3653638115
 20
-1.3583955971
 10
2.3189761761
 20
-1.3289850206
 10
2.2725885407
 20
-1.3048375734
 10
2.2266476437
 20
-1.2861858086
 10
2.1815959208
 20
-1.2732093529
 10
2.1378672449
 20
-1.2660331767
 10
2.0958827471
 20
-1.2647263905
 10
2.0560467609
 20
-1.2693015793
 10
2.0187429287
 20
-1.2797146816
 10
1.9843577026
 20
-1.2958497112
  0
LWPOLYLINE
  5
16E
330
130
100
AcDbEntity
  8
0
  6
Continuous
 62
     7
370
    25
100
AcDbPolyline
 90
       37
 70
   128
 43
0.0
 10
2.6492356835
 20
-2.4797242235
 10
2.6592768515
 20
-2.4745198653
 10
2.6913354087
 20
-2.453220734
 10
2.719917348
 20
-2.4265274745
 10
2.7447558077
 20
-2.3946893145
 10
2.7656188776
 20
-2.3580035184
 10
2.782311765
 20
-2.3168126116
 10
2.7946786129
 20
-2.2715011824
 10
2.8026039553
 20
-2.2224922916
 10
2.8060137954
 20
-2.1702435218
 10
2.8048762964
 20
-2.1152427058
 10
2.799202079
 20
-2.0580033714
 10
2.7890441217
 20
-1.9990599468
 10
2.7744972667
 20
-1.9389627708
 10
2.7556973339
 20
-1.8782729547
 10
2.7328198534
 20
-1.8175571429
 10
2.706078426
 20
-1.7573822226
 10
2.6757227291
 20
-1.6983100307
 10
2.6420361858
 20
-1.6408921085
 10
2.6053333183
 20
-1.5856645516
 10
2.5659568112
 20
-1.5331430047
 10
2.5242743125
 20
-1.4838178476
 10
2.4806750005
 20
-1.4381496157
 10
2.4355659501
 20
-1.3965647012
 10
2.3893683323
 20
-1.3594513712
 10
2.342513482
 20
-1.3271561427
 10
2.2954388702
 20
-1.2999805478
 10
2.2485840199
 20
-1.2781783175
 10
2.2023864021
 20
-1.2619530135
 10
2.1572773517
 20
-1.251456127
 10
2.1136780396
 20
-1.2467856646
 10
2.071995541
 20
-1.2479852332
 10
2.0326190339
 20
-1.2550436327
 10
1.9959161664
 20
-1.2678949607
 10
1.9622296231
 20
-1.286419228
 10
1.9318739262
 20
-1.3104434783
 10
1.9098273726
 20
-1.3338982727
  0
LWPOLYLINE
  5
16F
330
130
100
AcDbEntity
  8
0
  6
Continuous
 62
     7
370
    25
100
AcDbPolyline
 90
       34
 70
   128
 43
0.0
 10
3.1283451586
 20
-2.2037897907
 10
3.1562441979
 20
-2.1848346027
 10
3.1848261372
 20
-2.1581413432
 10
3.2096645969
 20
-2.1263031832
 10
3.2305276668
 20
-2.0896173872
 10
3.2472205543
 20
-2.0484264803
 10
3.2595874021
 20
-2.0031150512
 10
3.2675127445
 20
-1.9541061603
 10
3.2709225846
 20
-1.9018573906
 10
3.2697850856
 20
-1.8468565746
 10
3.2641108682
 20
-1.7896172401
 10
3.2539529109
 20
-1.7306738155
 10
3.2394060559
 20
-1.6705766396
 10
3.2206061231
 20
-1.6098868235
 10
3.1977286426
 20
-1.5491710117
 10
3.1709872152
 20
-1.4889960913
 10
3.1406315183
 20
-1.4299238995
 10
3.106944975
 20
-1.3725059773
 10
3.0702421075
 20
-1.3172784203
 10
3.0308656004
 20
-1.2647568735
 10
2.9891831018
 20
-1.2154317163
 10
2.9455837897
 20
-1.1697634845
 10
2.9004747393
 20
-1.12817857
 10
2.8542771215
 20
-1.0910652399
 10
2.8074222712
 20
-1.0587700115
 10
2.7603476594
 20
-1.0315944165
 10
2.7134928091
 20
-1.0097921863
 10
2.6672951913
 20
-0.9935668822
 10
2.6221861409
 20
-0.9830699957
 10
2.5785868289
 20
-0.9783995333
 10
2.5369043302
 20
-0.9795991019
 10
2.4975278231
 20
-0.9866575014
 10
2.4608249556
 20
-0.9995088295
 10
2.439424772
 20
-1.010415374
  0
LWPOLYLINE
  5
170
330
130
100
AcDbEntity
  8
0
  6
Continuous
 62
     8
370
    25
100
AcDbPolyline
 90
       20
 70
   128
 43
0.0
 10
-2.47463829
 20
-1.7499987932
 10
-2.4769238557
 20
-1.70757034
 10
-2.4837430239
 20
-1.6631997028
 10
-2.4949838241
 20
-1.6176154463
 10
-2.5104616825
 20
-1.5715660628
 10
-2.5299224533
 20
-1.5258076817
 10
-2.553046591
 20
-1.4810916544
 10
-2.579454398
 20
-1.438152217
 10
-2.6087122589
 20
-1.3976944337
 10
-2.6403397602
 20
-1.3603826203
 10
-2.6738175795
 20
-1.3268294356
 10
-2.7085960117
 20
-1.2975858222
 10
-2.7441039961
 20
-1.2731319591
 10
-2.7797584924
 20
-1.2538693784
 10
-2.8149740548
 20
-1.2401143709
 10
-2.8491724448
 20
-1.2320927935
 10
-2.8817921258
 20
-1.2299363603
 10
-2.9122974834
 20
-1.2336804799
 10
-2.9401876206
 20
-1.2432636739
 10
-2.949843135
 20
-1.248313999
  0
LWPOLYLINE
  5
172
330
130
100
AcDbEntity
  8
0
  6
Continuous
 62
     8
370
    25
100
AcDbPolyline
 90
       21
 70
   128
 43
0.0
 10
-2.9707302234
 20
-2.387440933
 10
-3.0047352033
 20
-2.3857696257
 10
-3.0427529537
 20
-2.3814869031
 10
-3.0841592244
 20
-2.3746630875
 10
-3.1282741254
 20
-2.3654102259
 10
-3.1743732913
 20
-2.3538802498
 10
-3.2216997751
 20
-2.3402624812
 10
-3.2694764772
 20
-2.3247805235
 10
-3.3169189055
 20
-2.30768859
 10
-3.3632480566
 20
-2.2892673298
 10
-3.4077032072
 20
-2.2698192194
 10
-3.4495544048
 20
-2.2496635963
 10
-3.4881144541
 20
-2.2291314153
 10
-3.5227502
 20
-2.2085598141
 10
-3.5528929246
 20
-2.188286578
 10
-3.5780476851
 20
-2.168644593
 10
-3.5978014411
 20
-2.1499563797
 10
-3.6118298365
 20
-2.1325287983
 10
-3.6199025253
 20
-2.1166480091
 10
-3.6218869544
 20
-2.1025747742
 10
-3.6205203742
 20
-2.0961124534
  0
LINE
  5
174
330
130
100
AcDbEntity
  8
0
  6
Continuous
 62
     7
370
    25
100
AcDbLine
 10
-3.2476455776
 20
-3.4092916334
 30
0.0
 11
-2.8777138426
 21
-2.357339737
 31
0.0
  0
LINE
  5
175
330
130
100
AcDbEntity
  8
0
  6
Continuous
 62
     7
370
    25
100
AcDbLine
 10
-3.6205235972
 20
-2.0961216126
 30
0.0
 11
-3.9904553322
 21
-3.148073509
 31
0.0
  0
LINE
  5
176
330
130
100
AcDbEntity
  8
0
  6
Continuous
 62
     7
370
    25
100
AcDbLine
 10
-2.5561923904
 20
-1.930252654
 30
0.0
 11
0.1968343962
 21
-0.340964119
 31
0.0
  0
LINE
  5
177
330
130
100
AcDbEntity
  8
0
  6
Continuous
 62
     7
370
    25
100
AcDbLine
 10
-0.1968343962
 20
0.340964119
 30
0.0
 11
-2.9498611827
 21
-1.2483244159
 31
0.0
  0
LINE
  5
178
330
130
100
AcDbEntity
  8
0
  6
Continuous
 62
     7
370
    25
100
AcDbLine
 10
2.3261069247
 20
-0.6212381775
 30
0.0
 11
2.2425903758
 21
-0.6694512549
 31
0.0
  0
LINE
  5
179
330
130
100
AcDbEntity
  8
0
  6
Continuous
 62
     7
370
    25
100
AcDbLine
 10
3.3251795548
 20
-2.5447539097
 30
0.0
 11
3.4086961038
 21
-2.4965408322
 31
0.0
  0
LINE
  5
17A
330
130
100
AcDbEntity
  8
0
  6
Continuous
 62
     7
370
    25
100
AcDbLine
 10
-0.4577780406
 20
0.9858644049
 30
0.0
 11
-0.5412945895
 21
0.9376513274
 31
0.0
  0
LINE
  5
17B
330
130
100
AcDbEntity
  8
0
  6
Continuous
 62
     7
370
    25
100
AcDbLine
 10
0.5412945895
 20
-0.9376513274
 30
0.0
 11
0.6248111385
 21
-0.8894382499
 31
0.0
  0
LINE
  5
17C
330
130
100
AcDbEntity
  8
0
  6
Continuous
 62
     7
370
    25
100
AcDbLine
 10
1.8482439382
 20
-1.351696805
 30
0.0
 11
1.1393504932
 21
-1.7609322799
 31
0.0
  0
LINE
  5
17D
330
130
100
AcDbEntity
  8
0
  6
Continuous
 62
     7
370
    25
100
AcDbLine
 10
1.8282708798
 20
-2.9543066966
 30
0.0
 11
2.6355975198
 21
-2.4882469477
 31
0.0
  0
LINE
  5
17E
330
130
100
AcDbEntity
  8
0
  6
Continuous
 62
     7
370
    25
100
AcDbLine
 10
1.919679498
 20
-4.5854518412
 30
0.0
 11
1.919679498
 21
-2.9015376246
 31
0.0
  0
LINE
  5
17F
330
130
100
AcDbEntity
  8
0
  6
Continuous
 62
     7
370
    25
100
AcDbLine
 10
1.6047188681
 20
-2.9723948308
 30
0.0
 11
1.6047188681
 21
-4.5854518412
 31
0.0
  0
LINE
  5
180
330
130
100
AcDbEntity
  8
0
  6
Continuous
 62
     7
370
    25
100
AcDbLine
 10
1.9843577026
 20
-1.2958497112
 30
0.0
 11
1.9565188529
 21
-1.311920737
 31
0.0
  0
LINE
  5
181
330
130
100
AcDbEntity
  8
0
  6
Continuous
 62
     7
370
    25
100
AcDbLine
 10
2.439424772
 20
-1.010415374
 30
0.0
 11
1.9745159828
 21
-1.2788015052
 31
0.0
  0
LINE
  5
182
330
130
100
AcDbEntity
  8
0
  6
Continuous
 62
     7
370
    25
100
AcDbLine
 10
2.6634363694
 20
-2.4721759219
 30
0.0
 11
3.1283451586
 21
-2.2037897907
 31
0.0
  0
LINE
  5
183
330
130
100
AcDbEntity
  8
0
  6
Continuous
 62
     7
370
    25
100
AcDbLine
 10
1.75922656
 20
-2.8573963329
 30
0.0
 11
1.7402323619
 21
-2.8229289643
 31
0.0
  0
LINE
  5
184
330
130
100
AcDbEntity
  8
0
  6
Continuous
 62
     7
370
    25
100
AcDbLine
 10
1.2750193141
 20
-2.6360239991
 30
0.0
 11
1.2894187191
 21
-2.616823688
 31
0.0
  0
LINE
  5
185
330
130
100
AcDbEntity
  8
0
  6
Continuous
 62
     7
370
    25
100
AcDbLine
 10
1.7589481715
 20
-2.8575570431
 30
0.0
 11
1.75922656
 21
-2.8573963329
 31
0.0
  0
LINE
  5
186
330
130
100
AcDbEntity
  8
0
  6
Continuous
 62
     7
370
    25
100
AcDbLine
 10
1.7589481715
 20
-2.8575570431
 30
0.0
 11
1.7399539734
 21
-2.8230896745
 31
0.0
  0
LINE
  5
187
330
130
100
AcDbEntity
  8
0
  6
Continuous
 62
     7
370
    25
100
AcDbLine
 10
1.7399539734
 20
-2.8230896745
 30
0.0
 11
1.7402323619
 21
-2.8229289643
 31
0.0
  0
LINE
  5
188
330
130
100
AcDbEntity
  8
0
  6
Continuous
 62
     7
370
    25
100
AcDbLine
 10
1.6779242654
 20
-2.8414245865
 30
0.0
 11
1.6923236704
 21
-2.8772500967
 31
0.0
  0
LINE
  5
189
330
130
100
AcDbEntity
  8
0
  6
Continuous
 62
     7
370
    25
100
AcDbLine
 10
1.6779242654
 20
-2.8414245865
 30
0.0
 11
1.6782026539
 21
-2.8412638762
 31
0.0
  0
LINE
  5
18A
330
130
100
AcDbEntity
  8
0
  6
Continuous
 62
     7
370
    25
100
AcDbLine
 10
1.2891403306
 20
-2.6169843983
 30
0.0
 11
1.2894187191
 21
-2.616823688
 31
0.0
  0
LINE
  5
18B
330
130
100
AcDbEntity
  8
0
  6
Continuous
 62
     7
370
    25
100
AcDbLine
 10
1.2271106227
 20
-2.5270315099
 30
0.0
 11
1.2273890112
 21
-2.5268707997
 31
0.0
  0
LINE
  5
18C
330
130
100
AcDbEntity
  8
0
  6
Continuous
 62
     7
370
    25
100
AcDbLine
 10
1.2747409256
 20
-2.6361847094
 30
0.0
 11
1.2891403306
 21
-2.6169843983
 31
0.0
  0
LINE
  5
18D
330
130
100
AcDbEntity
  8
0
  6
Continuous
 62
     7
370
    25
100
AcDbLine
 10
1.2271106227
 20
-2.5270315099
 30
0.0
 11
1.2081164245
 21
-2.5395686441
 31
0.0
  0
LINE
  5
18E
330
130
100
AcDbEntity
  8
0
  6
Continuous
 62
     7
370
    25
100
AcDbLine
 10
1.2747409256
 20
-2.6361847094
 30
0.0
 11
1.2750193141
 21
-2.6360239991
 31
0.0
  0
ARC
  5
18F
330
130
100
AcDbEntity
  8
0
  6
Continuous
 62
     7
370
    25
100
AcDbCircle
 10
-3.3206870145
 20
-3.3423512515
 30
0.0
 40
0.0990760628769938
100
AcDbArc
 50
258.3687475444
 51
317.4956355784
  0
ARC
  5
190
330
130
100
AcDbEntity
  8
0
  6
Continuous
 62
     7
370
    25
100
AcDbCircle
 10
0.0796647049
 20
-0.1793757268
 30
0.0
 40
0.1995984596282362
100
AcDbArc
 50
305.9463199687
 51
5.3658604247
  0
ARC
  5
191
330
130
100
AcDbEntity
  8
0
  6
Continuous
 62
     7
370
    25
100
AcDbCircle
 10
1.6566178073
 20
-2.654143885
 30
0.0
 40
0.1883608152849519
100
AcDbArc
 50
276.5801553005
 51
296.3533860567
  0
ARC
  5
192
330
130
100
AcDbEntity
  8
0
  6
Continuous
 62
     7
370
    25
100
AcDbCircle
 10
1.9989718937
 20
-2.0611663821
 30
0.0
 40
0.9012329050188546
100
AcDbArc
 50
211.1139285641
 51
218.0648068588
  0
ARC
  5
193
330
130
100
AcDbEntity
  8
0
  6
Continuous
 62
     7
370
    25
100
AcDbCircle
 10
1.6563394188
 20
-2.6543045952
 30
0.0
 40
0.1883608152849162
100
AcDbArc
 50
276.5801553005
 51
296.3533860567
  0
ARC
  5
194
330
130
100
AcDbEntity
  8
0
  6
Continuous
 62
     7
370
    25
100
AcDbCircle
 10
1.6691399462
 20
-2.6762693653
 30
0.0
 40
0.202313468269021
100
AcDbArc
 50
276.5801553005
 51
296.3533860567
  0
ARC
  5
195
330
130
100
AcDbEntity
  8
0
  6
Continuous
 62
     7
370
    25
100
AcDbCircle
 10
1.9986935052
 20
-2.0613270924
 30
0.0
 40
0.9012329050188411
100
AcDbArc
 50
211.1139285641
 51
218.0648068588
  0
ARC
  5
196
330
130
100
AcDbEntity
  8
0
  6
Continuous
 62
     7
370
    25
100
AcDbCircle
 10
2.0368535946
 20
-2.0393676031
 30
0.0
 40
0.9679908979832162
100
AcDbArc
 50
211.1139285641
 51
218.0648068588
  0
ARC
  5
197
330
130
100
AcDbEntity
  8
0
  6
Continuous
 62
     7
370
    25
100
AcDbCircle
 10
1.8412644657
 20
-4.5778774976
 30
0.0
 40
0.0787799972972336
100
AcDbArc
 50
294.1971139655
 51
354.4827450769
  0
ARC
  5
198
330
130
100
AcDbEntity
  8
0
  6
Continuous
 62
     8
370
    25
100
AcDbCircle
 10
-2.6733780457
 20
-1.7686615633
 30
0.0
 40
0.199614101350338
100
AcDbArc
 50
305.9608283374
 51
5.3646607887
  0
ARC
  5
199
330
130
100
AcDbEntity
  8
0
  6
Continuous
 62
     8
370
    25
100
AcDbCircle
 10
-2.950763537
 20
-2.2903105201
 30
0.0
 40
0.0991614123062996
100
AcDbArc
 50
258.3837693858
 51
317.4349957484
  0
VIEWPORT
  5
19E
330
130
100
AcDbEntity
  8
0
100
AcDbViewport
 10
0.0
 20
0.0
 30
0.0
 40
8.4
 41
6.4
 68
     1
 69
     1
 12
1.968503937
 22
-0.9251968504
 13
0.0
 23
0.0
 14
0.5
 24
0.5
 15
0.5
 25
0.5
 16
0.0
 26
0.0
 36
1.0
 17
0.0
 27
0.0
 37
0.0
 42
50.0
 43
0.0
 44
0.0
 45
4.7424071991
 50
0.0
 51
0.0
 72
   100
 90
   557152
  1

281
     0
 71
     1
 74
     0
110
0.0
120
0.0
130
0.0
111
1.0
121
0.0
131
0.0
112
0.0
122
1.0
132
0.0
 79
     0
146
0.0
  0
ENDBLK
  5
133
330
130
100
AcDbEntity
  8
0
100
AcDbBlockEnd
  0
ENDSEC
  0
SECTION
  2
ENTITIES
  0
LWPOLYLINE
  5
7B
330
1F
100
AcDbEntity
  8
0
  6
Continuous
 62
     7
370
    25
100
AcDbPolyline
 90
       50
 70
   128
 43
0.0
 10
0.3937007874
 20
-1.4566929134
 10
0.3904685094
 20
-1.4338366077
 10
0.3808247492
 20
-1.4113556018
 10
0.3649278572
 20
-1.3896190334
 10
0.3430388599
 20
-1.3689838163
 10
0.315517174
 20
-1.3497887801
 10
0.2828147048
 20
-1.3323491068
 10
0.2454684259
 20
-1.3169511553
 10
0.2040915623
 20
-1.3038477597
 10
0.1593635209
 20
-1.2932540773
 10
0.1120187349
 20
-1.285344056
 10
0.0628346043
 20
-1.2802475783
 10
0.0126187313
 20
-1.278048328
 10
-0.0378043409
 20
-1.278782417
 10
-0.0876066669
 20
-1.2824377913
 10
-0.1359704939
 20
-1.28895443
 10
-0.1821016891
 20
-1.2982253299
 10
-0.2252427796
 20
-1.3100982631
 10
-0.2646853899
 20
-1.3243782764
 10
-0.2997818734
 20
-1.3408308925
 10
-0.3299559468
 20
-1.3591859597
 10
-0.3547121527
 20
-1.3791420884
 10
-0.3736439949
 20
-1.4003715995
 10
-0.386440613
 20
-1.422525905
 10
-0.3928918869
 20
-1.4452412318
 10
-0.3928918869
 20
-1.468144595
 10
-0.386440613
 20
-1.4908599218
 10
-0.3736439949
 20
-1.5130142273
 10
-0.3547121527
 20
-1.5342437384
 10
-0.3299559468
 20
-1.5541998671
 10
-0.2997818734
 20
-1.5725549343
 10
-0.2646853899
 20
-1.5890075503
 10
-0.2252427796
 20
-1.6032875637
 10
-0.1821016891
 20
-1.6151604969
 10
-0.1359704939
 20
-1.6244313968
 10
-0.0876066669
 20
-1.6309480355
 10
-0.0378043409
 20
-1.6346034098
 10
0.0126187313
 20
-1.6353374987
 10
0.0628346043
 20
-1.6331382485
 10
0.1120187349
 20
-1.6280417707
 10
0.1593635209
 20
-1.6201317495
 10
0.2040915623
 20
-1.6095380671
 10
0.2454684259
 20
-1.5964346714
 10
0.2828147048
 20
-1.58103672
 10
0.315517174
 20
-1.5635970467
 10
0.3430388599
 20
-1.5444020105
 10
0.3649278572
 20
-1.5237667933
 10
0.3808247492
 20
-1.5020302249
 10
0.3904685094
 20
-1.4795492191
 10
0.3937007874
 20
-1.4566929134
  0
LWPOLYLINE
  5
7C
330
1F
100
AcDbEntity
  8
0
  6
Continuous
 62
     7
370
    25
100
AcDbPolyline
 90
       45
 70
   128
 43
0.0
 10
0.0
 20
-1.5996820472
 10
0.0448235711
 20
-1.598226624
 10
0.0887346636
 20
-1.5938899825
 10
0.1308393742
 20
-1.5867604045
 10
0.1702805724
 20
-1.5769830273
 10
0.2062553493
 20
-1.5647568904
 10
0.238031362
 20
-1.5503308825
 10
0.2649617426
 20
-1.5339986756
 10
0.2864982663
 20
-1.5160927463
 10
0.3022025114
 20
-1.4969776076
 10
0.3117547848
 20
-1.4770423888
 10
0.3149606299
 20
-1.4566929134
 10
0.3117547848
 20
-1.4363434379
 10
0.3022025114
 20
-1.4164082191
 10
0.2864982663
 20
-1.3972930805
 10
0.2649617426
 20
-1.3793871512
 10
0.238031362
 20
-1.3630549443
 10
0.2062553493
 20
-1.3486289364
 10
0.1702805724
 20
-1.3364027994
 10
0.1308393742
 20
-1.3266254223
 10
0.0887346636
 20
-1.3194958442
 10
0.0448235711
 20
-1.3151592028
 10
0.0
 20
-1.3137037796
 10
-0.0448235711
 20
-1.3151592028
 10
-0.0887346636
 20
-1.3194958442
 10
-0.1308393742
 20
-1.3266254223
 10
-0.1702805724
 20
-1.3364027994
 10
-0.2062553493
 20
-1.3486289364
 10
-0.238031362
 20
-1.3630549443
 10
-0.2649617426
 20
-1.3793871512
 10
-0.2864982663
 20
-1.3972930805
 10
-0.3022025114
 20
-1.4164082191
 10
-0.3117547848
 20
-1.4363434379
 10
-0.3149606299
 20
-1.4566929134
 10
-0.3117547848
 20
-1.4770423888
 10
-0.3022025114
 20
-1.4969776076
 10
-0.2864982663
 20
-1.5160927463
 10
-0.2649617426
 20
-1.5339986756
 10
-0.238031362
 20
-1.5503308825
 10
-0.2062553493
 20
-1.5647568904
 10
-0.1702805724
 20
-1.5769830273
 10
-0.1308393742
 20
-1.5867604045
 10
-0.0887346636
 20
-1.5938899825
 10
-0.0448235711
 20
-1.598226624
 10
0.0
 20
-1.5996820472
  0
CIRCLE
  5
8A
330
1F
100
AcDbEntity
  8
0
  6
Continuous
 62
     7
370
    25
100
AcDbCircle
 10
3.937007874
 20
0.0
 30
0.0
 40
0.6889763779527586
  0
LWPOLYLINE
  5
8C
330
1F
100
AcDbEntity
  8
0
  6
Continuous
 62
     8
370
    25
100
AcDbPolyline
 90
       26
 70
   128
 43
0.0
 10
0.3937007874
 20
-0.4299287404
 10
0.3904685094
 20
-0.4070724346
 10
0.3808247492
 20
-0.3845914288
 10
0.3649278572
 20
-0.3628548604
 10
0.3430388599
 20
-0.3422196433
 10
0.315517174
 20
-0.323024607
 10
0.2828147048
 20
-0.3055849337
 10
0.2454684259
 20
-0.2901869823
 10
0.2040915623
 20
-0.2770835867
 10
0.1593635209
 20
-0.2664899043
 10
0.1120187349
 20
-0.258579883
 10
0.0628346043
 20
-0.2534834052
 10
0.0126187313
 20
-0.251284155
 10
-0.0378043409
 20
-0.2520182439
 10
-0.0876066669
 20
-0.2556736183
 10
-0.1359704939
 20
-0.2621902569
 10
-0.1821016891
 20
-0.2714611568
 10
-0.2252427796
 20
-0.2833340901
 10
-0.2646853899
 20
-0.2976141034
 10
-0.2997818734
 20
-0.3140667194
 10
-0.3299559468
 20
-0.3324217867
 10
-0.3547121527
 20
-0.3523779153
 10
-0.3736439949
 20
-0.3736074264
 10
-0.386440613
 20
-0.3957617319
 10
-0.3928918869
 20
-0.4184770588
 10
-0.3937007874
 20
-0.4299287404
  0
LINE
  5
8E
330
1F
100
AcDbEntity
  8
0
  6
Continuous
 62
     7
370
    25
100
AcDbLine
 10
0.3937007874
 20
-1.4566929134
 30
0.0
 11
0.3937007874
 21
0.0
 31
0.0
  0
LINE
  5
8F
330
1F
100
AcDbEntity
  8
0
  6
Continuous
 62
     7
370
    25
100
AcDbLine
 10
-0.3937007874
 20
0.0
 30
0.0
 11
-0.3937007874
 21
-1.4566929134
 31
0.0
  0
LINE
  5
90
330
1F
100
AcDbEntity
  8
0
  6
Continuous
 62
     7
370
    25
100
AcDbLine
 10
4.094488189
 20
-2.9251968504
 30
0.0
 11
4.094488189
 21
-0.6707372062
 31
0.0
  0
LINE
  5
91
330
1F
100
AcDbEntity
  8
0
  6
Continuous
 62
     7
370
    25
100
AcDbLine
 10
3.7795275591
 20
-0.671220406
 30
0.0
 11
3.7795275591
 21
-2.9251968504
 31
0.0
  0
LINE
  5
92
330
1F
100
AcDbEntity
  8
0
  6
Continuous
 62
     7
370
    25
100
AcDbLine
 10
4.3265047376
 20
-0.4173491883
 30
0.0
 11
4.299642885
 21
-0.3885664857
 31
0.0
  0
LINE
  5
93
330
1F
100
AcDbEntity
  8
0
  6
Continuous
 62
     7
370
    25
100
AcDbLine
 10
4.2119196307
 20
-0.4548753576
 30
0.0
 11
4.2322834646
 21
-0.4885698286
 31
0.0
  0
LINE
  5
94
330
1F
100
AcDbEntity
  8
0
  6
Continuous
 62
     7
370
    25
100
AcDbLine
 10
3.6417322835
 20
-0.4885698286
 30
0.0
 11
3.6620961173
 21
-0.4548753576
 31
0.0
  0
LINE
  5
95
330
1F
100
AcDbEntity
  8
0
  6
Continuous
 62
     7
370
    25
100
AcDbLine
 10
3.574372863
 20
-0.3885664857
 30
0.0
 11
3.5475110104
 21
-0.4173491883
 31
0.0
  0
LINE
  5
96
330
1F
100
AcDbEntity
  8
0
  6
Continuous
 62
     7
370
    25
100
AcDbLine
 10
4.0866141732
 20
-2.9330708661
 30
0.0
 11
3.7874015748
 21
-2.9330708661
 31
0.0
  0
LINE
  5
97
330
1F
100
AcDbEntity
  8
0
  6
Continuous
 62
     8
370
    25
100
AcDbLine
 10
3.7795275591
 20
-2.9251968504
 30
0.0
 11
4.094488189
 21
-2.9251968504
 31
0.0
  0
ARC
  5
98
330
1F
100
AcDbEntity
  8
0
  6
Continuous
 62
     7
370
    25
100
AcDbCircle
 10
4.0866141732
 20
-2.9251968504
 30
0.0
 40
0.0078740157480324
100
AcDbArc
 50
270.0
 51
0.0
  0
ARC
  5
99
330
1F
100
AcDbEntity
  8
0
  6
Continuous
 62
     7
370
    25
100
AcDbCircle
 10
3.7874015748
 20
-2.9251968504
 30
0.0
 40
0.0078740157480328
100
AcDbArc
 50
180.0
 51
270.0
  0
ARC
  5
9A
330
1F
100
AcDbEntity
  8
0
  6
Continuous
 62
     7
370
    25
100
AcDbCircle
 10
0.0
 20
0.0
 30
0.0
 40
0.3937007874015746
100
AcDbArc
 50
0.0
 51
180.0
  0
ARC
  5
9B
330
1F
100
AcDbEntity
  8
0
  6
Continuous
 62
     7
370
    25
100
AcDbCircle
 10
3.937007874
 20
0.0
 30
0.0
 40
1.082677165354333
100
AcDbArc
 50
278.363601789
 51
261.636398211
  0
ARC
  5
9C
330
1F
100
AcDbEntity
  8
0
  6
Continuous
 62
     7
370
    25
100
AcDbCircle
 10
0.0
 20
0.0
 30
0.0
 40
1.082677165354335
100
AcDbArc
 50
291.3236862635
 51
248.6763137365
  0
ARC
  5
9D
330
1F
100
AcDbEntity
  8
0
  6
Continuous
 62
     7
370
    25
100
AcDbCircle
 10
3.937007874
 20
0.0
 30
0.0
 40
0.5314960629921255
100
AcDbArc
 50
301.1473899215
 51
313.0229348247
  0
ARC
  5
9E
330
1F
100
AcDbEntity
  8
0
  6
Continuous
 62
     7
370
    25
100
AcDbCircle
 10
3.937007874
 20
0.0
 30
0.0
 40
0.5708661417321902
100
AcDbArc
 50
301.1473899215
 51
313.0229348247
  0
ARC
  5
9F
330
1F
100
AcDbEntity
  8
0
  6
Continuous
 62
     7
370
    25
100
AcDbCircle
 10
3.937007874
 20
0.0
 30
0.0
 40
0.5314960629921223
100
AcDbArc
 50
226.9770651753
 51
238.8526100785
  0
ARC
  5
A0
330
1F
100
AcDbEntity
  8
0
  6
Continuous
 62
     7
370
    25
100
AcDbCircle
 10
3.937007874
 20
0.0
 30
0.0
 40
0.5708661417322416
100
AcDbArc
 50
226.9770651753
 51
238.8526100785
  0
SPLINE
  5
BC
330
1B
100
AcDbEntity
 67
     1
  8
0
  6
Continuous
 62
     7
370
    25
100
AcDbSpline
210
0.0
220
0.0
230
1.0
 70
     8
 71
     3
 72
    18
 73
    14
 74
     0
 42
0.000000001
 43
0.00000001
 40
0.0
 40
0.0
 40
0.0
 40
0.0
 40
0.0330029326330749
 40
0.1375027406844311
 40
0.2428448565922488
 40
0.3505724432690538
 40
0.4586463946040401
 40
0.5643144484768818
 40
0.6686170781491741
 40
0.7746755551339398
 40
0.8828942679740959
 40
0.9903562519529212
 40
0.9999999999999999
 40
0.9999999999999999
 40
0.9999999999999999
 40
0.9999999999999999
 10
1.600471481430036
 20
-0.6885483547496463
 30
0.0
 10
1.601012141248372
 20
-0.6886706064982248
 30
0.0
 10
1.60326473521103
 20
-0.6891799536726085
 30
0.0
 10
1.589613696641369
 20
-0.6860600833910477
 30
0.0
 10
1.560810639524522
 20
-0.6803774761752839
 30
0.0
 10
1.517583318105707
 20
-0.6740896082632851
 30
0.0
 10
1.46619656394956
 20
-0.6703620092431197
 30
0.0
 10
1.412756279734287
 20
-0.670840105238657
 30
0.0
 10
1.363546671587743
 20
-0.6751407983976894
 30
0.0
 10
1.32246976909299
 20
-0.6815470232936459
 30
0.0
 10
1.296356408167989
 20
-0.686899520029374
 30
0.0
 10
1.285038001696239
 20
-0.689505819952058
 30
0.0
 10
1.287881644842992
 20
-0.6888687582734607
 30
0.0
 10
1.28811582106621
 20
-0.688816295749103
 30
0.0
  0
LINE
  5
C8
330
1B
100
AcDbEntity
 67
     1
  8
0
  6
Continuous
 62
     7
370
    25
100
AcDbLine
 10
5.4689002064
 20
-1.2779564962
 30
0.0
 11
4.9457377296
 21
-0.2511923231
 31
0.0
  0
LINE
  5
C9
330
1B
100
AcDbEntity
 67
     1
  8
0
  6
Continuous
 62
     7
370
    25
100
AcDbLine
 10
4.2441577893
 20
-0.6086651576
 30
0.0
 11
4.7673202661
 21
-1.6354293306
 31
0.0
  0
LINE
  5
CA
330
1B
100
AcDbEntity
 67
     1
  8
0
  6
Continuous
 62
     7
370
    25
100
AcDbLine
 10
3.8933678191
 20
0.3937007874
 30
0.0
 11
0.0
 21
0.3937007874
 31
0.0
  0
LINE
  5
CB
330
1B
100
AcDbEntity
 67
     1
  8
0
  6
Continuous
 62
     7
370
    25
100
AcDbLine
 10
0.0
 20
-0.3937007874
 30
0.0
 11
3.8933678191
 21
-0.3937007874
 31
0.0
  0
LINE
  5
CC
330
1B
100
AcDbEntity
 67
     1
  8
0
  6
Continuous
 62
     7
370
    25
100
AcDbLine
 10
-0.1181102362
 20
-1.0826771654
 30
0.0
 11
0.0
 21
-1.0826771654
 31
0.0
  0
LINE
  5
CD
330
1B
100
AcDbEntity
 67
     1
  8
0
  6
Continuous
 62
     7
370
    25
100
AcDbLine
 10
0.0
 20
1.0826771654
 30
0.0
 11
-0.1181102362
 21
1.0826771654
 31
0.0
  0
LINE
  5
CE
330
1B
100
AcDbEntity
 67
     1
  8
0
  6
Continuous
 62
     7
370
    25
100
AcDbLine
 10
1.6004714814
 20
-0.688976378
 30
0.0
 11
1.8385826772
 21
-0.688976378
 31
0.0
  0
LINE
  5
CF
330
1B
100
AcDbEntity
 67
     1
  8
0
  6
Continuous
 62
     7
370
    25
100
AcDbLine
 10
0.6968503937
 20
-0.688976378
 30
0.0
 11
1.2881158211
 21
-0.688976378
 31
0.0
  0
LINE
  5
D0
330
1B
100
AcDbEntity
 67
     1
  8
0
  6
Continuous
 62
     7
370
    25
100
AcDbLine
 10
1.8385826772
 20
0.688976378
 30
0.0
 11
0.8937007874
 21
0.688976378
 31
0.0
  0
LINE
  5
D1
330
1B
100
AcDbEntity
 67
     1
  8
0
  6
Continuous
 62
     7
370
    25
100
AcDbLine
 10
1.6023622047
 20
-2.9251968504
 30
0.0
 11
1.6023622047
 21
-0.6885500193
 31
0.0
  0
LINE
  5
D2
330
1B
100
AcDbEntity
 67
     1
  8
0
  6
Continuous
 62
     7
370
    25
100
AcDbLine
 10
1.2874015748
 20
-0.6888190633
 30
0.0
 11
1.2874015748
 21
-2.9251968504
 31
0.0
  0
LINE
  5
D3
330
1B
100
AcDbEntity
 67
     1
  8
0
  6
Continuous
 62
     7
370
    25
100
AcDbLine
 10
0.0
 20
-0.688976378
 30
0.0
 11
0.657480315
 21
-0.688976378
 31
0.0
  0
LINE
  5
D4
330
1B
100
AcDbEntity
 67
     1
  8
0
  6
Continuous
 62
     7
370
    25
100
AcDbLine
 10
0.657480315
 20
0.688976378
 30
0.0
 11
0.0
 21
0.688976378
 31
0.0
  0
LINE
  5
D5
330
1B
100
AcDbEntity
 67
     1
  8
0
  6
Continuous
 62
     7
370
    25
100
AcDbLine
 10
0.657480315
 20
-0.6692913386
 30
0.0
 11
0.6968503937
 21
-0.6692913386
 31
0.0
  0
LINE
  5
D6
330
1B
100
AcDbEntity
 67
     1
  8
0
  6
Continuous
 62
     7
370
    25
100
AcDbLine
 10
0.6968503937
 20
0.6692913386
 30
0.0
 11
0.657480315
 21
0.6692913386
 31
0.0
  0
LINE
  5
D7
330
1B
100
AcDbEntity
 67
     1
  8
0
  6
Continuous
 62
     7
370
    25
100
AcDbLine
 10
5.4689002064
 20
-1.2779564962
 30
0.0
 11
4.7673202661
 21
-1.6354293306
 31
0.0
  0
LINE
  5
D8
330
1B
100
AcDbEntity
 67
     1
  8
0
  6
Continuous
 62
     7
370
    25
100
AcDbLine
 10
-0.1181102362
 20
1.0826771654
 30
0.0
 11
-0.1181102362
 21
-1.0826771654
 31
0.0
  0
LINE
  5
D9
330
1B
100
AcDbEntity
 67
     1
  8
0
  6
Continuous
 62
     7
370
    25
100
AcDbLine
 10
0.0
 20
1.0826771654
 30
0.0
 11
0.0
 21
-1.0826771654
 31
0.0
  0
LINE
  5
DA
330
1B
100
AcDbEntity
 67
     1
  8
0
  6
Continuous
 62
     7
370
    25
100
AcDbLine
 10
0.8937007874
 20
0.688976378
 30
0.0
 11
0.809336333
 21
0.3937007874
 31
0.0
  0
LINE
  5
DB
330
1B
100
AcDbEntity
 67
     1
  8
0
  6
Continuous
 62
     7
370
    25
100
AcDbLine
 10
0.6968503937
 20
-0.3937007874
 30
0.0
 11
0.6968503937
 21
-0.688976378
 31
0.0
  0
LINE
  5
DC
330
1B
100
AcDbEntity
 67
     1
  8
0
  6
Continuous
 62
     7
370
    25
100
AcDbLine
 10
1.8385826772
 20
0.688976378
 30
0.0
 11
1.8385826772
 21
0.3937007874
 31
0.0
  0
LINE
  5
DD
330
1B
100
AcDbEntity
 67
     1
  8
0
  6
Continuous
 62
     7
370
    25
100
AcDbLine
 10
1.8385826772
 20
-0.3937007874
 30
0.0
 11
1.8385826772
 21
-0.688976378
 31
0.0
  0
LINE
  5
DE
330
1B
100
AcDbEntity
 67
     1
  8
0
  6
Continuous
 62
     7
370
    25
100
AcDbLine
 10
1.838976378
 20
-0.4173491883
 30
0.0
 11
1.8385826772
 21
-0.4173491883
 31
0.0
  0
LINE
  5
DF
330
1B
100
AcDbEntity
 67
     1
  8
0
  6
Continuous
 62
     7
370
    25
100
AcDbLine
 10
1.838976378
 20
-0.3937007874
 30
0.0
 11
1.838976378
 21
-0.4885698286
 31
0.0
  0
LINE
  5
E0
330
1B
100
AcDbEntity
 67
     1
  8
0
  6
Continuous
 62
     7
370
    25
100
AcDbLine
 10
1.838976378
 20
-0.4885698286
 30
0.0
 11
1.8385826772
 21
-0.4885698286
 31
0.0
  0
LINE
  5
E1
330
1B
100
AcDbEntity
 67
     1
  8
0
  6
Continuous
 62
     7
370
    25
100
AcDbLine
 10
1.594488189
 20
-2.9330708661
 30
0.0
 11
1.2952755906
 21
-2.9330708661
 31
0.0
  0
LINE
  5
E2
330
1B
100
AcDbEntity
 67
     1
  8
0
  6
Continuous
 62
     7
370
    25
100
AcDbLine
 10
0.657480315
 20
0.688976378
 30
0.0
 11
0.657480315
 21
0.3937007874
 31
0.0
  0
LINE
  5
E3
330
1B
100
AcDbEntity
 67
     1
  8
0
  6
Continuous
 62
     7
370
    25
100
AcDbLine
 10
0.657480315
 20
-0.3937007874
 30
0.0
 11
0.657480315
 21
-0.688976378
 31
0.0
  0
LINE
  5
E4
330
1B
100
AcDbEntity
 67
     1
  8
0
  6
Continuous
 62
     7
370
    25
100
AcDbLine
 10
0.6968503937
 20
0.6692913386
 30
0.0
 11
0.6968503937
 21
0.3937007874
 31
0.0
  0
LINE
  5
E5
330
1B
100
AcDbEntity
 67
     1
  8
0
  6
Continuous
 62
     8
370
    25
100
AcDbLine
 10
4.9457377296
 20
-0.2511923231
 30
0.0
 11
4.2441577893
 21
-0.6086651576
 31
0.0
  0
LINE
  5
E6
330
1B
100
AcDbEntity
 67
     1
  8
0
  6
Continuous
 62
     8
370
    25
100
AcDbLine
 10
3.8933678191
 20
0.3937007874
 30
0.0
 11
3.8933678191
 21
-0.3937007874
 31
0.0
  0
LINE
  5
E7
330
1B
100
AcDbEntity
 67
     1
  8
0
  6
Continuous
 62
     8
370
    25
100
AcDbLine
 10
1.2874015748
 20
-2.9251968504
 30
0.0
 11
1.6023622047
 21
-2.9251968504
 31
0.0
  0
ARC
  5
E8
330
1B
100
AcDbEntity
 67
     1
  8
0
  6
Continuous
 62
     7
370
    25
100
AcDbCircle
 10
3.8933678191
 20
-0.7874015748
 30
0.0
 40
0.393700787401576
100
AcDbArc
 50
27.0
 51
90.0
  0
ARC
  5
E9
330
1B
100
AcDbEntity
 67
     1
  8
0
  6
Continuous
 62
     7
370
    25
100
AcDbCircle
 10
3.8933678191
 20
-0.7874015748
 30
0.0
 40
1.181102362204726
100
AcDbArc
 50
27.0
 51
90.0
  0
ARC
  5
EA
330
1B
100
AcDbEntity
 67
     1
  8
0
  6
Continuous
 62
     7
370
    25
100
AcDbCircle
 10
1.594488189
 20
-2.9251968504
 30
0.0
 40
0.0078740157480317
100
AcDbArc
 50
270.0
 51
0.0
  0
ARC
  5
EB
330
1B
100
AcDbEntity
 67
     1
  8
0
  6
Continuous
 62
     7
370
    25
100
AcDbCircle
 10
1.2952755906
 20
-2.9251968504
 30
0.0
 40
0.0078740157480319
100
AcDbArc
 50
180.0
 51
270.0
  0
ARC
  5
EC
330
1B
100
AcDbEntity
 67
     1
  8
0
  6
Continuous
 62
     7
370
    25
100
AcDbCircle
 10
0.6128608924
 20
0.0
 30
0.0
 40
0.6745406824147333
100
AcDbArc
 50
67.1784977333
 51
82.84733125
  0
VIEWPORT
  5
19A
330
1B
100
AcDbEntity
 67
     1
  8
0
100
AcDbViewport
 10
0.0
 20
0.0
 30
0.0
 40
8.4
 41
6.4
 68
     1
 69
     1
 12
1.968503937
 22
-0.9251968504
 13
0.0
 23
0.0
 14
0.5
 24
0.5
 15
0.5
 25
0.5
 16
0.0
 26
0.0
 36
1.0
 17
0.0
 27
0.0
 37
0.0
 42
50.0
 43
0.0
 44
0.0
 45
4.7424071991
 50
0.0
 51
0.0
 72
   100
 90
   557152
  1

281
     0
 71
     1
 74
     0
110
0.0
120
0.0
130
0.0
111
1.0
121
0.0
131
0.0
112
0.0
122
1.0
132
0.0
 79
     0
146
0.0
  0
ENDSEC
  0
SECTION
  2
OBJECTS
  0
DICTIONARY
  5
C
330
0
100
AcDbDictionary
281
     1
  3
ACAD_GROUP
350
D
  3
ACAD_LAYOUT
350
1A
  3
ACAD_MLINESTYLE
350
17
  3
ACAD_PLOTSETTINGS
350
19
  3
ACAD_PLOTSTYLENAME
350
E
  3
ACAD_SCALELIST
350
47
  0
DICTIONARY
  5
D
102
{ACAD_REACTORS
330
C
102
}
330
C
100
AcDbDictionary
281
     1
  0
DICTIONARY
  5
1A
102
{ACAD_REACTORS
330
C
102
}
330
C
100
AcDbDictionary
281
     1
  3
_Isometric
350
131
  3
_Left
350
1E
  3
_Top
350
26
  3
Model
350
22
  0
DICTIONARY
  5
17
102
{ACAD_REACTORS
330
C
102
}
330
C
100
AcDbDictionary
281
     1
  3
Standard
350
18
  0
DICTIONARY
  5
19
102
{ACAD_REACTORS
330
C
102
}
330
C
100
AcDbDictionary
281
     1
  0
ACDBDICTIONARYWDFLT
  5
E
102
{ACAD_REACTORS
330
C
102
}
330
C
100
AcDbDictionary
281
     1
  3
Normal
350
F
100
AcDbDictionaryWithDefault
340
F
  0
DICTIONARY
  5
47
102
{ACAD_REACTORS
330
C
102
}
330
C
100
AcDbDictionary
281
     1
  3
A0
350
48
  3
A1
350
49
  3
A2
350
4A
  3
A3
350
4B
  3
A4
350
4C
  3
A5
350
4D
  3
A6
350
4E
  3
A7
350
4F
  3
A8
350
50
  3
A9
350
51
  3
B0
350
52
  3
B1
350
53
  3
B2
350
54
  3
B3
350
55
  3
B4
350
56
  3
B5
350
57
  3
B6
350
58
  3
B7
350
59
  3
B8
350
5A
  3
B9
350
5B
  3
C0
350
5C
  3
C1
350
5D
  3
C2
350
5E
  3
C3
350
5F
  3
C4
350
60
  3
C5
350
61
  3
C6
350
62
  3
C7
350
63
  3
C8
350
64
  3
C9
350
65
  3
D0
350
66
  3
D1
350
67
  3
D2
350
68
  0
LAYOUT
  5
131
102
{ACAD_REACTORS
330
1A
102
}
330
1A
100
AcDbPlotSettings
  1

  2
none_device
  4
Letter_(8.50_x_11.00_Inches)
  6

 40
6.35
 41
6.35
 42
6.35001
 43
6.35001
 44
215.9
 45
279.4
 46
0.0
 47
0.0
 48
0.0
 49
0.0
140
0.0
141
0.0
142
1.0
143
0.5320962526
 70
   688
 72
     0
 73
     1
 74
     1
  7

 75
     0
147
1.8793592234
148
3.0
149
74.5
100
AcDbLayout
  1
_Isometric
 70
     1
 71
     3
 10
0.0
 20
0.0
 11
0.0
 21
0.0
 12
0.0
 22
0.0
 32
0.0
 14
0.0
 24
0.0
 34
0.0
 15
0.0
 25
0.0
 35
0.0
146
0.0
 13
0.0
 23
0.0
 33
0.0
 16
1.0
 26
0.0
 36
0.0
 17
0.0
 27
1.0
 37
0.0
 76
     0
330
130
331
19E
  0
LAYOUT
  5
1E
102
{ACAD_REACTORS
330
1A
102
}
330
1A
100
AcDbPlotSettings
  1

  2
none_device
  4
Letter_(8.50_x_11.00_Inches)
  6

 40
6.35
 41
6.35
 42
6.35001
 43
6.35001
 44
215.9
 45
279.4
 46
0.0
 47
0.0
 48
0.0
 49
0.0
140
0.0
141
0.0
142
1.0
143
0.5320962526
 70
   688
 72
     0
 73
     1
 74
     1
  7

 75
     0
147
1.8793592234
148
3.0
149
74.5
100
AcDbLayout
  1
_Left
 70
     1
 71
     1
 10
-0.2511345089
 20
-3.0660949293
 11
5.6019242695
 21
1.4567232176
 12
0.0
 22
0.0
 32
0.0
 14
-0.1181102362
 24
-2.9330708661
 34
0.0
 15
5.4689002064
 25
1.0826771654
 35
0.0
146
0.0
 13
0.0
 23
0.0
 33
0.0
 16
1.0
 26
0.0
 36
0.0
 17
0.0
 27
1.0
 37
0.0
 76
     0
330
1B
331
19A
  0
LAYOUT
  5
26
102
{ACAD_REACTORS
330
1A
102
}
330
1A
100
AcDbPlotSettings
  1

  2
none_device
  4
Letter_(8.50_x_11.00_Inches)
  6

 40
6.35
 41
6.35
 42
6.35001
 43
6.35001
 44
215.9
 45
279.4
 46
0.0
 47
0.0
 48
0.0
 49
0.0
140
0.0
141
0.0
142
1.0
143
0.5320962526
 70
   688
 72
     0
 73
     1
 74
     1
  7

 75
     0
147
1.8793592234
148
3.0
149
74.5
100
AcDbLayout
  1
_Top
 70
     1
 71
     2
 10
0.0
 20
0.0
 11
0.0
 21
0.0
 12
0.0
 22
0.0
 32
0.0
 14
0.0
 24
0.0
 34
0.0
 15
0.0
 25
0.0
 35
0.0
146
0.0
 13
0.0
 23
0.0
 33
0.0
 16
1.0
 26
0.0
 36
0.0
 17
0.0
 27
1.0
 37
0.0
 76
     0
330
23
331
19C
  0
LAYOUT
  5
22
102
{ACAD_REACTORS
330
1A
102
}
330
1A
100
AcDbPlotSettings
  1

  2
none_device
  4
ANSI_A_(11.00_x_8.50_Inches)
  6

 40
6.35
 41
19.05
 42
6.35000508
 43
19.05000254
 44
279.4
 45
215.9
 46
44.1222555245
 47
130.8370374397
 48
0.0
 49
0.0
140
0.0
141
0.0
142
1.7845548387
143
1.0
 70
  1696
 72
     0
 73
     0
 74
     0
  7

 75
     0
147
0.5913241897
148
-39.4088153714
149
0.0
100
AcDbLayout
  1
Model
 70
     1
 71
     0
 10
0.0
 20
0.0
 11
12.0
 21
9.0
 12
0.0
 22
0.0
 32
0.0
 14
-1.0826771654
 24
-2.9330708661
 34
0.0
 15
5.0196850394
 25
1.0826771654
 35
0.0
146
0.0
 13
0.0
 23
0.0
 33
0.0
 16
1.0
 26
0.0
 36
0.0
 17
0.0
 27
1.0
 37
0.0
 76
     0
330
1F
331
29
  0
MLINESTYLE
  5
18
102
{ACAD_REACTORS
330
17
102
}
330
17
100
AcDbMlineStyle
  2
Standard
 70
     0
  3

 62
   256
 51
90.0
 52
90.0
 71
     2
 49
0.5
 62
   256
  6
BYLAYER
 49
-0.5
 62
   256
  6
BYLAYER
  0
ACDBPLACEHOLDER
  5
F
102
{ACAD_REACTORS
330
E
102
}
330
E
  0
SCALE
  5
48
102
{ACAD_REACTORS
330
47
102
}
330
47
100
AcDbScale
 70
     0
300
1:1
140
1.0
141
1.0
290
     1
  0
SCALE
  5
49
102
{ACAD_REACTORS
330
47
102
}
330
47
100
AcDbScale
 70
     0
300
1:2
140
1.0
141
2.0
290
     0
  0
SCALE
  5
4A
102
{ACAD_REACTORS
330
47
102
}
330
47
100
AcDbScale
 70
     0
300
1:4
140
1.0
141
4.0
290
     0
  0
SCALE
  5
4B
102
{ACAD_REACTORS
330
47
102
}
330
47
100
AcDbScale
 70
     0
300
1:5
140
1.0
141
5.0
290
     0
  0
SCALE
  5
4C
102
{ACAD_REACTORS
330
47
102
}
330
47
100
AcDbScale
 70
     0
300
1:8
140
1.0
141
8.0
290
     0
  0
SCALE
  5
4D
102
{ACAD_REACTORS
330
47
102
}
330
47
100
AcDbScale
 70
     0
300
1:10
140
1.0
141
10.0
290
     0
  0
SCALE
  5
4E
102
{ACAD_REACTORS
330
47
102
}
330
47
100
AcDbScale
 70
     0
300
1:16
140
1.0
141
16.0
290
     0
  0
SCALE
  5
4F
102
{ACAD_REACTORS
330
47
102
}
330
47
100
AcDbScale
 70
     0
300
1:20
140
1.0
141
20.0
290
     0
  0
SCALE
  5
50
102
{ACAD_REACTORS
330
47
102
}
330
47
100
AcDbScale
 70
     0
300
1:30
140
1.0
141
30.0
290
     0
  0
SCALE
  5
51
102
{ACAD_REACTORS
330
47
102
}
330
47
100
AcDbScale
 70
     0
300
1:40
140
1.0
141
40.0
290
     0
  0
SCALE
  5
52
102
{ACAD_REACTORS
330
47
102
}
330
47
100
AcDbScale
 70
     0
300
1:50
140
1.0
141
50.0
290
     0
  0
SCALE
  5
53
102
{ACAD_REACTORS
330
47
102
}
330
47
100
AcDbScale
 70
     0
300
1:100
140
1.0
141
100.0
290
     0
  0
SCALE
  5
54
102
{ACAD_REACTORS
330
47
102
}
330
47
100
AcDbScale
 70
     0
300
2:1
140
2.0
141
1.0
290
     0
  0
SCALE
  5
55
102
{ACAD_REACTORS
330
47
102
}
330
47
100
AcDbScale
 70
     0
300
4:1
140
4.0
141
1.0
290
     0
  0
SCALE
  5
56
102
{ACAD_REACTORS
330
47
102
}
330
47
100
AcDbScale
 70
     0
300
8:1
140
8.0
141
1.0
290
     0
  0
SCALE
  5
57
102
{ACAD_REACTORS
330
47
102
}
330
47
100
AcDbScale
 70
     0
300
10:1
140
10.0
141
1.0
290
     0
  0
SCALE
  5
58
102
{ACAD_REACTORS
330
47
102
}
330
47
100
AcDbScale
 70
     0
300
100:1
140
100.0
141
1.0
290
     0
  0
SCALE
  5
59
102
{ACAD_REACTORS
330
47
102
}
330
47
100
AcDbScale
 70
     0
300
1/128" = 1'-0"
140
0.0078125
141
12.0
290
     0
  0
SCALE
  5
5A
102
{ACAD_REACTORS
330
47
102
}
330
47
100
AcDbScale
 70
     0
300
1/64" = 1'-0"
140
0.015625
141
12.0
290
     0
  0
SCALE
  5
5B
102
{ACAD_REACTORS
330
47
102
}
330
47
100
AcDbScale
 70
     0
300
1/32" = 1'-0"
140
0.03125
141
12.0
290
     0
  0
SCALE
  5
5C
102
{ACAD_REACTORS
330
47
102
}
330
47
100
AcDbScale
 70
     0
300
1/16" = 1'-0"
140
0.0625
141
12.0
290
     0
  0
SCALE
  5
5D
102
{ACAD_REACTORS
330
47
102
}
330
47
100
AcDbScale
 70
     0
300
3/32" = 1'-0"
140
0.09375
141
12.0
290
     0
  0
SCALE
  5
5E
102
{ACAD_REACTORS
330
47
102
}
330
47
100
AcDbScale
 70
     0
300
1/8" = 1'-0"
140
0.125
141
12.0
290
     0
  0
SCALE
  5
5F
102
{ACAD_REACTORS
330
47
102
}
330
47
100
AcDbScale
 70
     0
300
3/16" = 1'-0"
140
0.1875
141
12.0
290
     0
  0
SCALE
  5
60
102
{ACAD_REACTORS
330
47
102
}
330
47
100
AcDbScale
 70
     0
300
1/4" = 1'-0"
140
0.25
141
12.0
290
     0
  0
SCALE
  5
61
102
{ACAD_REACTORS
330
47
102
}
330
47
100
AcDbScale
 70
     0
300
3/8" = 1'-0"
140
0.375
141
12.0
290
     0
  0
SCALE
  5
62
102
{ACAD_REACTORS
330
47
102
}
330
47
100
AcDbScale
 70
     0
300
1/2" = 1'-0"
140
0.5
141
12.0
290
     0
  0
SCALE
  5
63
102
{ACAD_REACTORS
330
47
102
}
330
47
100
AcDbScale
 70
     0
300
3/4" = 1'-0"
140
0.75
141
12.0
290
     0
  0
SCALE
  5
64
102
{ACAD_REACTORS
330
47
102
}
330
47
100
AcDbScale
 70
     0
300
1" = 1'-0"
140
1.0
141
12.0
290
     0
  0
SCALE
  5
65
102
{ACAD_REACTORS
330
47
102
}
330
47
100
AcDbScale
 70
     0
300
1-1/2" = 1'-0"
140
1.5
141
12.0
290
     0
  0
SCALE
  5
66
102
{ACAD_REACTORS
330
47
102
}
330
47
100
AcDbScale
 70
     0
300
3" = 1'-0"
140
3.0
141
12.0
290
     0
  0
SCALE
  5
67
102
{ACAD_REACTORS
330
47
102
}
330
47
100
AcDbScale
 70
     0
300
6" = 1'-0"
140
6.0
141
12.0
290
     0
  0
SCALE
  5
68
102
{ACAD_REACTORS
330
47
102
}
330
47
100
AcDbScale
 70
     0
300
1'-0" = 1'-0"
140
12.0
141
12.0
290
     0
  0
ENDSEC
  0
EOF
