  0
SECTION
  2
HEADER
  9
$ACADVER
  1
AC1015
  9
$ACADMAINTVER
 70
     6
  9
$DWGCODEPAGE
  3
ANSI_1252
  9
$INSBASE
 10
0.0
 20
0.0
 30
0.0
  9
$EXTMIN
 10
-1.0826771654
 20
-2.9330708661
 30
0.0
  9
$EXTMAX
 10
5.0196850394
 20
1.0826771654
 30
0.0
  9
$LIMMIN
 10
0.0
 20
0.0
  9
$LIMMAX
 10
12.0
 20
9.0
  9
$ORTHOMODE
 70
     0
  9
$REGENMODE
 70
     1
  9
$FILLMODE
 70
     1
  9
$QTEXTMODE
 70
     0
  9
$MIRRTEXT
 70
     1
  9
$LTSCALE
 40
1.0
  9
$ATTMODE
 70
     1
  9
$TEXTSIZE
 40
0.1377952756
  9
$TRACEWID
 40
0.05
  9
$TEXTSTYLE
  7
Standard
  9
$CLAYER
  8
0
  9
$CELTYPE
  6
ByLayer
  9
$CECOLOR
 62
   256
  9
$CELTSCALE
 40
1.0
  9
$DISPSILH
 70
     0
  9
$DIMSCALE
 40
1.0
  9
$DIMASZ
 40
0.13
  9
$DIMEXO
 40
0.0393700787
  9
$DIMDLI
 40
0.38
  9
$DIMRND
 40
0.0
  9
$DIMDLE
 40
0.0
  9
$DIMEXE
 40
0.0393700787
  9
$DIMTP
 40
0.0
  9
$DIMTM
 40
0.0
  9
$DIMTXT
 40
0.1377952756
  9
$DIMCEN
 40
0.09
  9
$DIMTSZ
 40
0.0
  9
$DIMTOL
 70
     0
  9
$DIMLIM
 70
     0
  9
$DIMTIH
 70
     1
  9
$DIMTOH
 70
     1
  9
$DIMSE1
 70
     0
  9
$DIMSE2
 70
     0
  9
$DIMTAD
 70
     1
  9
$DIMZIN
 70
     1
  9
$DIMBLK
  1

  9
$DIMASO
 70
     1
  9
$DIMSHO
 70
     1
  9
$DIMPOST
  1

  9
$DIMAPOST
  1

  9
$DIMALT
 70
     0
  9
$DIMALTD
 70
     2
  9
$DIMALTF
 40
25.4
  9
$DIMLFAC
 40
1.0
  9
$DIMTOFL
 70
     0
  9
$DIMTVP
 40
0.0
  9
$DIMTIX
 70
     0
  9
$DIMSOXD
 70
     0
  9
$DIMSAH
 70
     0
  9
$DIMBLK1
  1

  9
$DIMBLK2
  1

  9
$DIMSTYLE
  2
Standard
  9
$DIMCLRD
 70
     0
  9
$DIMCLRE
 70
     0
  9
$DIMCLRT
 70
     0
  9
$DIMTFAC
 40
1.0
  9
$DIMGAP
 40
0.06
  9
$DIMJUST
 70
     0
  9
$DIMSD1
 70
     0
  9
$DIMSD2
 70
     0
  9
$DIMTOLJ
 70
     1
  9
$DIMTZIN
 70
     1
  9
$DIMALTZ
 70
     0
  9
$DIMALTTZ
 70
     0
  9
$DIMUPT
 70
     0
  9
$DIMDEC
 70
     2
  9
$DIMTDEC
 70
     2
  9
$DIMALTU
 70
     2
  9
$DIMALTTD
 70
     2
  9
$DIMTXSTY
  7
Standard
  9
$DIMAUNIT
 70
     0
  9
$DIMADEC
 70
     2
  9
$DIMALTRND
 40
0.0
  9
$DIMAZIN
 70
     0
  9
$DIMDSEP
 70
    46
  9
$DIMATFIT
 70
     3
  9
$DIMFRAC
 70
     0
  9
$DIMLDRBLK
  1

  9
$DIMLUNIT
 70
     2
  9
$DIMLWD
 70
    -2
  9
$DIMLWE
 70
    -2
  9
$DIMTMOVE
 70
     0
  9
$LUNITS
 70
     2
  9
$LUPREC
 70
     2
  9
$SKETCHINC
 40
0.1
  9
$FILLETRAD
 40
0.5
  9
$AUNITS
 70
     0
  9
$AUPREC
 70
     2
  9
$MENU
  1
.
  9
$ELEVATION
 40
0.0
  9
$PELEVATION
 40
0.0
  9
$THICKNESS
 40
0.0
  9
$LIMCHECK
 70
     0
  9
$CHAMFERA
 40
0.0
  9
$CHAMFERB
 40
0.0
  9
$CHAMFERC
 40
0.0
  9
$CHAMFERD
 40
0.0
  9
$SKPOLY
 70
     0
  9
$TDCREATE
 40
2460416.489748877
  9
$TDUCREATE
 40
2460416.44808221
  9
$TDUPDATE
 40
2460416.489801123
  9
$TDUUPDATE
 40
2460416.448134456
  9
$TDINDWG
 40
0.0000000116
  9
$TDUSRTIMER
 40
0.0000000116
  9
$USRTIMER
 70
     1
  9
$ANGBASE
 50
0.0
  9
$ANGDIR
 70
     0
  9
$PDMODE
 70
     0
  9
$PDSIZE
 40
-1.0
  9
$PLINEWID
 40
0.0
  9
$SPLFRAME
 70
     0
  9
$SPLINETYPE
 70
     6
  9
$SPLINESEGS
 70
     8
  9
$HANDSEED
  5
1A0
  9
$SURFTAB1
 70
     6
  9
$SURFTAB2
 70
     6
  9
$SURFTYPE
 70
     6
  9
$SURFU
 70
     6
  9
$SURFV
 70
     6
  9
$UCSBASE
  2

  9
$UCSNAME
  2

  9
$UCSORG
 10
0.0
 20
0.0
 30
0.0
  9
$UCSXDIR
 10
1.0
 20
0.0
 30
0.0
  9
$UCSYDIR
 10
0.0
 20
1.0
 30
0.0
  9
$UCSORTHOREF
  2

  9
$UCSORTHOVIEW
 70
     0
  9
$UCSORGTOP
 10
0.0
 20
0.0
 30
0.0
  9
$UCSORGBOTTOM
 10
0.0
 20
0.0
 30
0.0
  9
$UCSORGLEFT
 10
0.0
 20
0.0
 30
0.0
  9
$UCSORGRIGHT
 10
0.0
 20
0.0
 30
0.0
  9
$UCSORGFRONT
 10
0.0
 20
0.0
 30
0.0
  9
$UCSORGBACK
 10
0.0
 20
0.0
 30
0.0
  9
$PUCSBASE
  2

  9
$PUCSNAME
  2

  9
$PUCSORG
 10
0.0
 20
0.0
 30
0.0
  9
$PUCSXDIR
 10
1.0
 20
0.0
 30
0.0
  9
$PUCSYDIR
 10
0.0
 20
1.0
 30
0.0
  9
$PUCSORTHOREF
  2

  9
$PUCSORTHOVIEW
 70
     0
  9
$PUCSORGTOP
 10
0.0
 20
0.0
 30
0.0
  9
$PUCSORGBOTTOM
 10
0.0
 20
0.0
 30
0.0
  9
$PUCSORGLEFT
 10
0.0
 20
0.0
 30
0.0
  9
$PUCSORGRIGHT
 10
0.0
 20
0.0
 30
0.0
  9
$PUCSORGFRONT
 10
0.0
 20
0.0
 30
0.0
  9
$PUCSORGBACK
 10
0.0
 20
0.0
 30
0.0
  9
$USERI1
 70
     0
  9
$USERI2
 70
     0
  9
$USERI3
 70
     0
  9
$USERI4
 70
     0
  9
$USERI5
 70
     0
  9
$USERR1
 40
0.0
  9
$USERR2
 40
0.0
  9
$USERR3
 40
0.0
  9
$USERR4
 40
0.0
  9
$USERR5
 40
0.0
  9
$WORLDVIEW
 70
     1
  9
$SHADEDGE
 70
     3
  9
$SHADEDIF
 70
    70
  9
$TILEMODE
 70
     1
  9
$MAXACTVP
 70
    64
  9
$PINSBASE
 10
0.0
 20
0.0
 30
0.0
  9
$PLIMCHECK
 70
     0
  9
$PEXTMIN
 10
-0.1181102362
 20
-2.9330708661
 30
0.0
  9
$PEXTMAX
 10
9.012207293
 20
1.0826771654
 30
0.0
  9
$PLIMMIN
 10
-0.3354990993
 20
-3.1504593869
  9
$PLIMMAX
 10
9.2295958137
 20
4.2407503186
  9
$UNITMODE
 70
     0
  9
$VISRETAIN
 70
     1
  9
$PLINEGEN
 70
     0
  9
$PSLTSCALE
 70
     1
  9
$TREEDEPTH
 70
  3020
  9
$CMLSTYLE
  2
Standard
  9
$CMLJUST
 70
     0
  9
$CMLSCALE
 40
1.0
  9
$PROXYGRAPHICS
 70
     1
  9
$MEASUREMENT
 70
     0
  9
$CELWEIGHT
370
    -1
  9
$ENDCAPS
280
     0
  9
$JOINSTYLE
280
     0
  9
$LWDISPLAY
290
     1
  9
$INSUNITS
 70
     1
  9
$HYPERLINKBASE
  1

  9
$STYLESHEET
  1

  9
$XEDIT
290
     1
  9
$CEPSNTYPE
380
     0
  9
$PSTYLEMODE
290
     1
  9
$FINGERPRINTGUID
  2
{c7f9019e-1cf8-4dbf-a2fc-2cfdc1d43726}
  9
$VERSIONGUID
  2
{FAEB1C32-E019-11D5-929B-00C0DF256EC4}
  9
$EXTNAMES
290
     1
  9
$PSVPSCALE
 40
0.0
  9
$OLESTARTUP
290
     0
  0
ENDSEC
  0
SECTION
  2
CLASSES
  0
CLASS
  1
ACDBDICTIONARYWDFLT
  2
AcDbDictionaryWithDefault
  3
ObjectDBX Classes
 90
        0
280
     0
281
     0
  0
CLASS
  1
VISUALSTYLE
  2
AcDbVisualStyle
  3
ObjectDBX Classes
 90
     4095
280
     0
281
     0
  0
CLASS
  1
MATERIAL
  2
AcDbMaterial
  3
ObjectDBX Classes
 90
     1153
280
     0
281
     0
  0
CLASS
  1
SCALE
  2
AcDbScale
  3
ObjectDBX Classes
 90
     1153
280
     0
281
     0
  0
CLASS
  1
TABLESTYLE
  2
AcDbTableStyle
  3
ObjectDBX Classes
 90
     4095
280
     0
281
     0
  0
CLASS
  1
MLEADERSTYLE
  2
AcDbMLeaderStyle
  3
ACDB_MLEADERSTYLE_CLASS
 90
     4095
280
     0
281
     0
  0
CLASS
  1
SUN
  2
AcDbSun
  3
SCENEOE
 90
     1153
280
     0
281
     0
  0
CLASS
  1
ACDBPLACEHOLDER
  2
AcDbPlaceHolder
  3
ObjectDBX Classes
 90
        0
280
     0
281
     0
  0
CLASS
  1
LAYOUT
  2
AcDbLayout
  3
ObjectDBX Classes
 90
        0
280
     0
281
     0
  0
ENDSEC
  0
SECTION
  2
TABLES
  0
TABLE
  2
VPORT
  5
8
330
0
100
AcDbSymbolTable
 70
     1
  0
VPORT
  5
29
330
8
100
AcDbSymbolTableRecord
100
AcDbViewportTableRecord
  2
*Active
 70
     0
 10
0.0
 20
0.0
 11
1.0
 21
1.0
 12
1.968503937
 22
-0.9251968504
 13
0.0
 23
0.0
 14
0.5
 24
0.5
 15
0.5
 25
0.5
 16
0.0
 26
0.0
 36
1.0
 17
0.0
 27
0.0
 37
0.0
 40
4.0960629921
 41
1.5196078431
 42
50.0
 43
0.0
 44
0.0
 50
0.0
 51
0.0
 71
     0
 72
   100
 73
     1
 74
     3
 75
     0
 76
     0
 77
     0
 78
     0
281
     0
 65
     1
110
0.0
120
0.0
130
0.0
111
1.0
121
0.0
131
0.0
112
0.0
122
1.0
132
0.0
 79
     0
146
0.0
  0
ENDTAB
  0
TABLE
  2
LTYPE
  5
5
330
0
100
AcDbSymbolTable
 70
     6
  0
LTYPE
  5
14
330
5
100
AcDbSymbolTableRecord
100
AcDbLinetypeTableRecord
  2
ByBlock
 70
     0
  3

 72
    65
 73
     0
 40
0.0
  0
LTYPE
  5
15
330
5
100
AcDbSymbolTableRecord
100
AcDbLinetypeTableRecord
  2
ByLayer
 70
     0
  3

 72
    65
 73
     0
 40
0.0
  0
LTYPE
  5
16
330
5
100
AcDbSymbolTableRecord
100
AcDbLinetypeTableRecord
  2
Continuous
 70
     0
  3
Solid line
 72
    65
 73
     0
 40
0.0
  0
LTYPE
  5
6E
330
5
100
AcDbSymbolTableRecord
100
AcDbLinetypeTableRecord
  2
HIDDEN
 70
     0
  3
Hidden __ __ __ __ __ __ __ __ __ __ __ __ __ __
 72
    65
 73
     2
 40
0.075
 49
0.05
 74
     0
 49
-0.025
 74
     0
  0
LTYPE
  5
6F
330
5
100
AcDbSymbolTableRecord
100
AcDbLinetypeTableRecord
  2
PHANTOM
 70
     0
  3
Phantom ______  __  __  ______  __  __  ______
 72
    65
 73
     6
 40
0.5
 49
0.25
 74
     0
 49
-0.05
 74
     0
 49
0.05
 74
     0
 49
-0.05
 74
     0
 49
0.05
 74
     0
 49
-0.05
 74
     0
  0
LTYPE
  5
70
330
5
100
AcDbSymbolTableRecord
100
AcDbLinetypeTableRecord
  2
CENTER
 70
     0
  3
Center ____ _ ____ _ ____ _ ____ _ ____ _ ____
 72
    65
 73
     4
 40
0.4
 49
0.25
 74
     0
 49
-0.05
 74
     0
 49
0.05
 74
     0
 49
-0.05
 74
     0
  0
LTYPE
  5
71
330
5
100
AcDbSymbolTableRecord
100
AcDbLinetypeTableRecord
  2
CENTERX2
 70
     0
  3
Center (2x) ________  __  ________  __  _____
 72
    65
 73
     4
 40
0.8
 49
0.5
 74
     0
 49
-0.1
 74
     0
 49
0.1
 74
     0
 49
-0.1
 74
     0
  0
LTYPE
  5
72
330
5
100
AcDbSymbolTableRecord
100
AcDbLinetypeTableRecord
  2
DOT2
 70
     0
  3
Dot (.5x) ........................................
 72
    65
 73
     2
 40
0.025
 49
0.0
 74
     0
 49
-0.025
 74
     0
  0
ENDTAB
  0
TABLE
  2
LAYER
  5
2
330
0
100
AcDbSymbolTable
 70
     1
  0
LAYER
  5
10
330
2
100
AcDbSymbolTableRecord
100
AcDbLayerTableRecord
  2
0
 70
     0
 62
     7
  6
Continuous
370
    -3
390
F
  0
ENDTAB
  0
TABLE
  2
STYLE
  5
3
330
0
100
AcDbSymbolTable
 70
     1
  0
STYLE
  5
11
330
3
100
AcDbSymbolTableRecord
100
AcDbTextStyleTableRecord
  2
Standard
 70
     0
 40
0.0
 41
1.0
 50
0.0
 71
     0
 42
0.1377952756
  3
txt
  4

  0
ENDTAB
  0
TABLE
  2
VIEW
  5
6
330
0
100
AcDbSymbolTable
 70
     0
  0
ENDTAB
  0
TABLE
  2
UCS
  5
7
330
0
100
AcDbSymbolTable
 70
     0
  0
ENDTAB
  0
TABLE
  2
APPID
  5
9
330
0
100
AcDbSymbolTable
 70
     1
  0
APPID
  5
12
330
9
100
AcDbSymbolTableRecord
100
AcDbRegAppTableRecord
  2
ACAD
 70
     0
  0
ENDTAB
  0
TABLE
  2
DIMSTYLE
  5
A
330
0
100
AcDbSymbolTable
 70
     1
100
AcDbDimStyleTable
  0
DIMSTYLE
105
27
330
A
100
AcDbSymbolTableRecord
100
AcDbDimStyleTableRecord
  2
Standard
 70
     0
178
     0
340
11
  0
ENDTAB
  0
TABLE
  2
BLOCK_RECORD
  5
1
330
0
100
AcDbSymbolTable
 70
     2
  0
BLOCK_RECORD
  5
1F
330
1
100
AcDbSymbolTableRecord
100
AcDbBlockTableRecord
  2
*Model_Space
340
22
  0
BLOCK_RECORD
  5
1B
330
1
100
AcDbSymbolTableRecord
100
AcDbBlockTableRecord
  2
*Paper_Space
340
1E
  0
BLOCK_RECORD
  5
23
330
1
100
AcDbSymbolTableRecord
100
AcDbBlockTableRecord
  2
*Paper_Space0
340
26
  0
BLOCK_RECORD
  5
130
330
1
100
AcDbSymbolTableRecord
100
AcDbBlockTableRecord
  2
*Paper_Space1
340
131
  0
ENDTAB
  0
ENDSEC
  0
SECTION
  2
BLOCKS
  0
BLOCK
  5
20
330
1F
100
AcDbEntity
  8
0
100
AcDbBlockBegin
  2
*Model_Space
 70
     0
 10
0.0
 20
0.0
 30
0.0
  3
*Model_Space
  1

  0
ENDBLK
  5
21
330
1F
100
AcDbEntity
  8
0
100
AcDbBlockEnd
  0
BLOCK
  5
1C
330
1B
100
AcDbEntity
 67
     1
  8
0
100
AcDbBlockBegin
  2
*Paper_Space
 70
     0
 10
0.0
 20
0.0
 30
0.0
  3
*Paper_Space
  1

  0
ENDBLK
  5
1D
330
1B
100
AcDbEntity
 67
     1
  8
0
100
AcDbBlockEnd
  0
BLOCK
  5
24
330
23
100
AcDbEntity
  8
0
100
AcDbBlockBegin
  2
*Paper_Space0
 70
     0
 10
0.0
 20
0.0
 30
0.0
  3
*Paper_Space0
  1

  0
LWPOLYLINE
  5
FD
330
23
100
AcDbEntity
  8
0
  6
Continuous
 62
     7
370
    25
100
AcDbPolyline
 90
       23
 70
   128
 43
0.0
 10
0.3937007874
 20
-8.6614173228
 10
0.3896934811
 20
-8.7113399407
 10
0.3777531392
 20
-8.760246278
 10
0.3581228328
 20
-8.8071407428
 10
0.3312021783
 20
-8.8510686991
 10
0.2975392025
 20
-8.8911359001
 10
0.2578191866
 20
-8.9265266935
 10
0.2128507155
 20
-8.9565206245
 10
0.1635492177
 20
-8.9805071033
 10
0.1109183295
 20
-8.9979978344
 10
0.0560294639
 20
-9.0086367569
 10
0.0
 20
-9.012207293
 10
-0.0560294639
 20
-9.0086367569
 10
-0.1109183295
 20
-8.9979978344
 10
-0.1635492177
 20
-8.9805071033
 10
-0.2128507155
 20
-8.9565206245
 10
-0.2578191866
 20
-8.9265266935
 10
-0.2975392025
 20
-8.8911359001
 10
-0.3312021783
 20
-8.8510686991
 10
-0.3581228328
 20
-8.8071407428
 10
-0.3777531392
 20
-8.760246278
 10
-0.3896934811
 20
-8.7113399407
 10
-0.3937007874
 20
-8.6614173228
  0
LWPOLYLINE
  5
102
330
23
100
AcDbEntity
  8
0
  6
Continuous
 62
     7
370
    25
100
AcDbPolyline
 90
       30
 70
   128
 43
0.0
 10
4.625984252
 20
-0.6968503937
 10
4.6219454429
 20
-0.718133665
 10
4.6098763671
 20
-0.7391674095
 10
4.5899185235
 20
-0.7597050256
 10
4.5623058994
 20
-0.7795057287
 10
4.5273622277
 20
-0.7983373735
 10
4.4854971909
 20
-0.8159791762
 10
4.4372016185
 20
-0.8322243029
 10
4.3830417316
 20
-0.8468822943
 10
4.3236525057
 20
-0.8597812988
 10
4.2597302249
 20
-0.8707700875
 10
4.1920243196
 20
-0.8797198267
 10
4.1213285797
 20
-0.8865255891
 10
4.048471848
 20
-0.8911075832
 10
3.9743083032
 20
-0.8934120893
 10
3.8997074449
 20
-0.8934120893
 10
3.8255439
 20
-0.8911075832
 10
3.7526871683
 20
-0.8865255891
 10
3.6819914284
 20
-0.8797198267
 10
3.6142855231
 20
-0.8707700875
 10
3.5503632424
 20
-0.8597812988
 10
3.4909740164
 20
-0.8468822943
 10
3.4368141296
 20
-0.8322243029
 10
3.3885185571
 20
-0.8159791762
 10
3.3466535204
 20
-0.7983373735
 10
3.3117098487
 20
-0.7795057287
 10
3.2840972246
 20
-0.7597050256
 10
3.2641393809
 20
-0.7391674095
 10
3.2520703051
 20
-0.718133665
 10
3.2480314961
 20
-0.6968503937
  0
LWPOLYLINE
  5
113
330
23
100
AcDbEntity
  8
0
  6
Continuous
 62
     8
370
    25
100
AcDbPolyline
 90
       23
 70
   128
 43
0.0
 10
0.3937007874
 20
-8.1382548461
 10
0.3896934811
 20
-8.1881774639
 10
0.3777531392
 20
-8.2370838013
 10
0.3581228328
 20
-8.2839782661
 10
0.3312021783
 20
-8.3279062223
 10
0.2975392025
 20
-8.3679734234
 10
0.2578191866
 20
-8.4033642167
 10
0.2128507155
 20
-8.4333581477
 10
0.1635492177
 20
-8.4573446266
 10
0.1109183295
 20
-8.4748353576
 10
0.0560294639
 20
-8.4854742801
 10
0.0
 20
-8.4890448162
 10
-0.0560294639
 20
-8.4854742801
 10
-0.1109183295
 20
-8.4748353576
 10
-0.1635492177
 20
-8.4573446266
 10
-0.2128507155
 20
-8.4333581477
 10
-0.2578191866
 20
-8.4033642167
 10
-0.2975392025
 20
-8.3679734234
 10
-0.3312021783
 20
-8.3279062223
 10
-0.3581228328
 20
-8.2839782661
 10
-0.3777531392
 20
-8.2370838013
 10
-0.3896934811
 20
-8.1881774639
 10
-0.3937007874
 20
-8.1382548461
  0
LINE
  5
114
330
23
100
AcDbEntity
  8
0
  6
Continuous
 62
     7
370
    25
100
AcDbLine
 10
0.3937007874
 20
-8.6614173228
 30
0.0
 11
0.3937007874
 21
0.0
 31
0.0
  0
LINE
  5
115
330
23
100
AcDbEntity
  8
0
  6
Continuous
 62
     7
370
    25
100
AcDbLine
 10
-0.3937007874
 20
0.0
 30
0.0
 11
-0.3937007874
 21
-8.6614173228
 31
0.0
  0
LINE
  5
116
330
23
100
AcDbEntity
  8
0
  6
Continuous
 62
     7
370
    25
100
AcDbLine
 10
2.8543307087
 20
0.1181102362
 30
0.0
 11
2.8543307087
 21
0.0
 31
0.0
  0
LINE
  5
117
330
23
100
AcDbEntity
  8
0
  6
Continuous
 62
     7
370
    25
100
AcDbLine
 10
5.0196850394
 20
0.0
 30
0.0
 11
5.0196850394
 21
0.1181102362
 31
0.0
  0
LINE
  5
118
330
23
100
AcDbEntity
  8
0
  6
Continuous
 62
     7
370
    25
100
AcDbLine
 10
-1.0826771654
 20
0.1181102362
 30
0.0
 11
-1.0826771654
 21
0.0
 31
0.0
  0
LINE
  5
119
330
23
100
AcDbEntity
  8
0
  6
Continuous
 62
     7
370
    25
100
AcDbLine
 10
1.0826771654
 20
0.0
 30
0.0
 11
1.0826771654
 21
0.1181102362
 31
0.0
  0
LINE
  5
11A
330
23
100
AcDbEntity
  8
0
  6
Continuous
 62
     7
370
    25
100
AcDbLine
 10
3.2480314961
 20
-0.6968503937
 30
0.0
 11
3.2480314961
 21
-1.8385826772
 31
0.0
  0
LINE
  5
11B
330
23
100
AcDbEntity
  8
0
  6
Continuous
 62
     7
370
    25
100
AcDbLine
 10
4.625984252
 20
-1.8385826772
 30
0.0
 11
4.625984252
 21
-0.6968503937
 31
0.0
  0
LINE
  5
11C
330
23
100
AcDbEntity
  8
0
  6
Continuous
 62
     7
370
    25
100
AcDbLine
 10
3.2480314961
 20
0.0
 30
0.0
 11
3.2480314961
 21
-0.657480315
 31
0.0
  0
LINE
  5
11D
330
23
100
AcDbEntity
  8
0
  6
Continuous
 62
     7
370
    25
100
AcDbLine
 10
4.625984252
 20
-0.657480315
 30
0.0
 11
4.625984252
 21
0.0
 31
0.0
  0
LINE
  5
11E
330
23
100
AcDbEntity
  8
0
  6
Continuous
 62
     7
370
    25
100
AcDbLine
 10
3.2677165354
 20
-0.657480315
 30
0.0
 11
3.2677165354
 21
-0.6968503937
 31
0.0
  0
LINE
  5
11F
330
23
100
AcDbEntity
  8
0
  6
Continuous
 62
     7
370
    25
100
AcDbLine
 10
4.6062992126
 20
-0.6968503937
 30
0.0
 11
4.6062992126
 21
-0.657480315
 31
0.0
  0
LINE
  5
120
330
23
100
AcDbEntity
  8
0
  6
Continuous
 62
     7
370
    25
100
AcDbLine
 10
5.0196850394
 20
0.0
 30
0.0
 11
2.8543307087
 21
0.0
 31
0.0
  0
LINE
  5
121
330
23
100
AcDbEntity
  8
0
  6
Continuous
 62
     7
370
    25
100
AcDbLine
 10
5.0196850394
 20
0.1181102362
 30
0.0
 11
2.8543307087
 21
0.1181102362
 31
0.0
  0
LINE
  5
122
330
23
100
AcDbEntity
  8
0
  6
Continuous
 62
     7
370
    25
100
AcDbLine
 10
1.0826771654
 20
0.1181102362
 30
0.0
 11
-1.0826771654
 21
0.1181102362
 31
0.0
  0
LINE
  5
123
330
23
100
AcDbEntity
  8
0
  6
Continuous
 62
     7
370
    25
100
AcDbLine
 10
1.0826771654
 20
0.0
 30
0.0
 11
-1.0826771654
 21
0.0
 31
0.0
  0
LINE
  5
124
330
23
100
AcDbEntity
  8
0
  6
Continuous
 62
     7
370
    25
100
AcDbLine
 10
4.625984252
 20
-0.6968503937
 30
0.0
 11
3.2480314961
 21
-0.6968503937
 31
0.0
  0
LINE
  5
125
330
23
100
AcDbEntity
  8
0
  6
Continuous
 62
     7
370
    25
100
AcDbLine
 10
4.625984252
 20
-1.8385826772
 30
0.0
 11
3.2480314961
 21
-1.8385826772
 31
0.0
  0
LINE
  5
126
330
23
100
AcDbEntity
  8
0
  6
Continuous
 62
     7
370
    25
100
AcDbLine
 10
4.299642885
 20
-1.838976378
 30
0.0
 11
4.299642885
 21
-1.8385826772
 31
0.0
  0
LINE
  5
127
330
23
100
AcDbEntity
  8
0
  6
Continuous
 62
     7
370
    25
100
AcDbLine
 10
4.3265047376
 20
-1.838976378
 30
0.0
 11
4.2119196307
 21
-1.838976378
 31
0.0
  0
LINE
  5
128
330
23
100
AcDbEntity
  8
0
  6
Continuous
 62
     7
370
    25
100
AcDbLine
 10
4.2119196307
 20
-1.838976378
 30
0.0
 11
4.2119196307
 21
-1.8385826772
 31
0.0
  0
LINE
  5
129
330
23
100
AcDbEntity
  8
0
  6
Continuous
 62
     7
370
    25
100
AcDbLine
 10
4.3265047376
 20
-1.838976378
 30
0.0
 11
4.3265047376
 21
-1.8385826772
 31
0.0
  0
LINE
  5
12A
330
23
100
AcDbEntity
  8
0
  6
Continuous
 62
     7
370
    25
100
AcDbLine
 10
3.6620961173
 20
-1.838976378
 30
0.0
 11
3.6620961173
 21
-1.8385826772
 31
0.0
  0
LINE
  5
12B
330
23
100
AcDbEntity
  8
0
  6
Continuous
 62
     7
370
    25
100
AcDbLine
 10
3.6620961173
 20
-1.838976378
 30
0.0
 11
3.5475110104
 21
-1.838976378
 31
0.0
  0
LINE
  5
12C
330
23
100
AcDbEntity
  8
0
  6
Continuous
 62
     7
370
    25
100
AcDbLine
 10
3.574372863
 20
-1.838976378
 30
0.0
 11
3.574372863
 21
-1.8385826772
 31
0.0
  0
LINE
  5
12D
330
23
100
AcDbEntity
  8
0
  6
Continuous
 62
     7
370
    25
100
AcDbLine
 10
3.5475110104
 20
-1.838976378
 30
0.0
 11
3.5475110104
 21
-1.8385826772
 31
0.0
  0
LINE
  5
12E
330
23
100
AcDbEntity
  8
0
  6
Continuous
 62
     7
370
    25
100
AcDbLine
 10
4.625984252
 20
-0.657480315
 30
0.0
 11
3.2480314961
 21
-0.657480315
 31
0.0
  0
LINE
  5
12F
330
23
100
AcDbEntity
  8
0
  6
Continuous
 62
     8
370
    25
100
AcDbLine
 10
0.3937007874
 20
-7.4366749057
 30
0.0
 11
-0.3937007874
 21
-7.4366749057
 31
0.0
  0
VIEWPORT
  5
19C
330
23
100
AcDbEntity
  8
0
100
AcDbViewport
 10
0.0
 20
0.0
 30
0.0
 40
8.4
 41
6.4
 68
     1
 69
     1
 12
1.968503937
 22
-0.9251968504
 13
0.0
 23
0.0
 14
0.5
 24
0.5
 15
0.5
 25
0.5
 16
0.0
 26
0.0
 36
1.0
 17
0.0
 27
0.0
 37
0.0
 42
50.0
 43
0.0
 44
0.0
 45
4.7424071991
 50
0.0
 51
0.0
 72
   100
 90
   557152
  1

281
     0
 71
     1
 74
     0
110
0.0
120
0.0
130
0.0
111
1.0
121
0.0
131
0.0
112
0.0
122
1.0
132
0.0
 79
     0
146
0.0
  0
ENDBLK
  5
25
330
23
100
AcDbEntity
  8
0
100
AcDbBlockEnd
  0
BLOCK
  5
132
330
130
100
AcDbEntity
  8
0
100
AcDbBlockBegin
  2
*Paper_Space1
 70
     0
 10
0.0
 20
0.0
 30
0.0
  3
*Paper_Space1
  1

  0
SPLINE
  5
134
330
130
100
AcDbEntity
  8
0
  6
Continuous
 62
     7
370
    25
100
AcDbSpline
210
0.0
220
0.0
230
1.0
 70
     8
 71
     3
 72
    20
 73
    16
 74
     0
 42
0.000000001
 43
0.00000001
 40
0.0
 40
0.0
 40
0.0
 40
0.0
 40
0.0478528529625135
 40
0.1305085863177125
 40
0.2132058304172836
 40
0.2958635760897618
 40
0.3782877635691894
 40
0.4604064046392005
 40
0.5422333943288393
 40
0.6238372644515382
 40
0.705318868455792
 40
0.786797293636402
 40
0.8683863279904017
 40
0.9501905630808074
 40
1.0
 40
1.0
 40
1.0
 40
1.0
 10
-5.455357651519896
 20
-2.694716739971532
 30
0.0
 10
-5.469499827526962
 20
-2.703127104822843
 30
0.0
 10
-5.508069636511691
 20
-2.726064605080574
 30
0.0
 10
-5.569333016065183
 20
-2.768406293289662
 30
0.0
 10
-5.638345295443694
 20
-2.82289417818096
 30
0.0
 10
-5.704698808187871
 20
-2.882621788687046
 30
0.0
 10
-5.768105717955049
 20
-2.946991809778961
 30
0.0
 10
-5.82824712231096
 20
-3.01553067059165
 30
0.0
 10
-5.884871654520182
 20
-3.087768900011826
 30
0.0
 10
-5.937756964220313
 20
-3.163283688893602
 30
0.0
 10
-5.986684669504156
 20
-3.241678858239499
 30
0.0
 10
-6.031466902574207
 20
-3.322571053413141
 30
0.0
 10
-6.071783869588194
 20
-3.405597856467697
 30
0.0
 10
-6.103027015146306
 20
-3.479188849115218
 30
0.0
 10
-6.119707359045955
 20
-3.525128130832004
 30
0.0
 10
-6.126020065959864
 20
-3.54251393672775
 30
0.0
  0
SPLINE
  5
135
330
130
100
AcDbEntity
  8
0
  6
Continuous
 62
     7
370
    25
100
AcDbSpline
210
0.0
220
0.0
230
1.0
 70
     8
 71
     3
 72
    19
 73
    15
 74
     0
 42
0.000000001
 43
0.00000001
 40
0.0
 40
0.0
 40
0.0
 40
0.0
 40
0.0458869048495881
 40
0.1363976095613415
 40
0.2275652318545487
 40
0.3192521501223419
 40
0.4110929168111858
 40
0.5026208786482325
 40
0.5934660417389676
 40
0.6833042854477291
 40
0.771858515701497
 40
0.8589306207969333
 40
0.944448842237597
 40
1.0
 40
1.0
 40
1.0
 40
1.0
 10
-5.383210311372899
 20
-3.803732061085413
 30
0.0
 10
-5.380223925208395
 20
-3.79548624567495
 30
0.0
 10
-5.371346971415134
 20
-3.770975777719924
 30
0.0
 10
-5.353781831735122
 20
-3.729489578428794
 30
0.0
 10
-5.329471332203294
 20
-3.679954595391901
 30
0.0
 10
-5.301919514184342
 20
-3.631237886939211
 30
0.0
 10
-5.271706995341615
 20
-3.584351293629491
 30
0.0
 10
-5.239483417999661
 20
-3.54025040047629
 30
0.0
 10
-5.206033906902994
 20
-3.499796985807322
 30
0.0
 10
-5.172230631465168
 20
-3.46371843618445
 30
0.0
 10
-5.138993920139991
 20
-3.432549730008752
 30
0.0
 10
-5.10740902111919
 20
-3.406773086606405
 30
0.0
 10
-5.081441343199335
 20
-3.388457327894691
 30
0.0
 10
-5.067269524189579
 20
-3.379982318707442
 30
0.0
 10
-5.061688859143495
 20
-3.376644978066557
 30
0.0
  0
LWPOLYLINE
  5
145
330
130
100
AcDbEntity
  8
0
  6
Continuous
 62
     7
370
    25
100
AcDbPolyline
 90
       19
 70
   128
 43
0.0
 10
-5.8461584271
 20
-4.8857851535
 10
-5.8842926423
 20
-4.8837577484
 10
-5.9273177417
 20
-4.878500018
 10
-5.9743578585
 20
-4.8701189946
 10
-6.0244553916
 20
-4.8587852915
 10
-6.0765904997
 20
-4.8447296304
 10
-6.1297018622
 20
-4.8282381439
 10
-6.1827082851
 20
-4.8096465512
 10
-6.2345307104
 20
-4.7893333235
 10
-6.2841141829
 20
-4.7677119794
 10
-6.3304493262
 20
-4.7452226673
 10
-6.3725928903
 20
-4.7223232046
 10
-6.4096869539
 20
-4.6994797585
 10
-6.4409763887
 20
-4.6771573555
 10
-6.4658242322
 20
-4.6558104154
 10
-6.4837246538
 20
-4.6358735004
 10
-6.4943132526
 20
-4.6177524686
 10
-6.4973744752
 20
-4.6018162119
 10
-6.495951801
 20
-4.5944658331
  0
LWPOLYLINE
  5
146
330
130
100
AcDbEntity
  8
0
  6
Continuous
 62
     7
370
    25
100
AcDbPolyline
 90
        6
 70
   128
 43
0.0
 10
-5.7531420464
 20
-4.8556839575
 10
-5.7562478433
 20
-4.8617606441
 10
-5.7682738216
 20
-4.8724051818
 10
-5.7875524929
 20
-4.8800504997
 10
-5.813691399
 20
-4.8845409612
 10
-5.8461584271
 20
-4.8857851535
  0
LWPOLYLINE
  5
147
330
130
100
AcDbEntity
  8
0
  6
Continuous
 62
     7
370
    25
100
AcDbPolyline
 90
       18
 70
   128
 43
0.0
 10
0.2783884965
 20
-0.1607102582
 10
0.275554903
 20
-0.1133241156
 10
0.2671118064
 20
-0.0636310208
 10
0.2532310836
 20
-0.0126425819
 10
0.2341953062
 20
0.0386032236
 10
0.2103919878
 20
0.0890631787
 10
0.1823056952
 20
0.1377100643
 10
0.1505081843
 20
0.1835535702
 10
0.1156467609
 20
0.2256604546
 10
0.0784311029
 20
0.263173543
 10
0.0396188139
 20
0.295329177
 10
0.0
 20
0.3214727606
 10
-0.0396188139
 20
0.3410720858
 10
-0.0784311029
 20
0.353728167
 10
-0.1156467609
 20
0.3591833627
 10
-0.1505081843
 20
0.3573266209
 10
-0.1823056952
 20
0.3481957396
 10
-0.1968343962
 20
0.340964119
  0
LWPOLYLINE
  5
149
330
130
100
AcDbEntity
  8
0
  6
Continuous
 62
     7
370
    25
100
AcDbPolyline
 90
       39
 70
   128
 43
0.0
 10
3.5494533308
 20
-2.0490557925
 10
3.5466193306
 20
-1.9714225708
 10
3.538138312
 20
-1.8910920514
 10
3.5240730656
 20
-1.8086589733
 10
3.5045277254
 20
-1.7247336423
 10
3.4796469984
 20
-1.639937412
 10
3.4496150927
 20
-1.5548980841
 10
3.4146543541
 20
-1.4702452601
 10
3.3750236196
 20
-1.3866056798
 10
3.3310163013
 20
-1.3045985814
 10
3.282958214
 20
-1.2248311168
 10
3.231205163
 20
-1.1478938564
 10
3.1761403098
 20
-1.0743564167
 10
3.1181713352
 20
-1.0047632433
 10
3.0577274213
 20
-0.9396295796
 10
2.9952560737
 20
-0.8794376524
 10
2.9312198083
 20
-0.8246331018
 10
2.8660927273
 20
-0.7756216815
 10
2.8003570088
 20
-0.7327662549
 10
2.7344993371
 20
-0.6963841085
 10
2.6690072993
 20
-0.6667446031
 10
2.6043657755
 20
-0.6440671792
 10
2.541053349
 20
-0.6285197324
 10
2.4795387628
 20
-0.6202173707
 10
2.4202774494
 20
-0.6192215618
 10
2.3637081588
 20
-0.6255396784
 10
2.3102497104
 20
-0.6391249433
 10
2.2602978916
 20
-0.6598767759
 10
2.2142225283
 20
-0.6876415371
 10
2.1723647464
 20
-0.7222136661
 10
2.1350344463
 20
-0.763337203
 10
2.1025080084
 20
-0.8107076836
 10
2.0750262471
 20
-0.8639743935
 10
2.0527926277
 20
-0.9227429644
 10
2.0359717602
 20
-0.9865782945
 10
2.0246881804
 20
-1.0550077693
 10
2.019025428
 20
-1.127524761
 10
2.019025428
 20
-1.203592379
 10
2.0218080941
 20
-1.2515003505
  0
LWPOLYLINE
  5
14A
330
130
100
AcDbEntity
  8
0
  6
Continuous
 62
     7
370
    25
100
AcDbPolyline
 90
       21
 70
   128
 43
0.0
 10
2.7107284807
 20
-2.4448747672
 10
2.7344993371
 20
-2.4608016235
 10
2.8003570088
 20
-2.5004571264
 10
2.8660927273
 20
-2.5334985449
 10
2.9312198083
 20
-2.5596812517
 10
2.9952560737
 20
-2.5788113994
 10
3.0577274213
 20
-2.5907473549
 10
3.1181713352
 20
-2.5954007487
 10
3.1761403098
 20
-2.5927371287
 10
3.231205163
 20
-2.5827762153
 10
3.282958214
 20
-2.5655917557
 10
3.3310163013
 20
-2.5413109776
 10
3.3750236196
 20
-2.5101136474
 10
3.4146543541
 20
-2.4722307392
 10
3.4496150927
 20
-2.4279427248
 10
3.4796469984
 20
-2.3775774972
 10
3.5045277254
 20
-2.3215079429
 10
3.5240730656
 20
-2.2601491812
 10
3.538138312
 20
-2.193955491
 10
3.5466193306
 20
-2.1234169472
 10
3.5494533308
 20
-2.0490557925
  0
LWPOLYLINE
  5
14B
330
130
100
AcDbEntity
  8
0
  6
Continuous
 62
     7
370
    25
100
AcDbPolyline
 90
       23
 70
   128
 43
0.0
 10
3.2710648342
 20
-1.8883455342
 10
3.268208965
 20
-1.8258715672
 10
3.2596748396
 20
-1.7608327338
 10
3.245562513
 20
-1.693991555
 10
3.2260374393
 20
-1.6261316824
 10
3.2013285321
 20
-1.5580487109
 10
3.1717254807
 20
-1.4905408513
 10
3.1375753539
 20
-1.4243995714
 10
3.0992785307
 20
-1.3604003173
 10
3.0572840062
 20
-1.2992934217
 10
3.012084128
 20
-1.241795307
 10
2.9642088233
 20
-1.1885800861
 10
2.9142193862
 20
-1.1402716589
 10
2.8627018972
 20
-1.0974363974
 10
2.8102603517
 20
-1.0605765059
 10
2.7575095789
 20
-1.030124133
 10
2.7050680334
 20
-1.0064363048
 10
2.6535505444
 20
-0.9897907396
 10
2.6035611073
 20
-0.9803825913
 10
2.5556858026
 20
-0.9783221619
 10
2.5104859244
 20
-0.983633608
 10
2.4684913999
 20
-0.9962546578
 10
2.439424772
 20
-1.010415374
  0
LWPOLYLINE
  5
14C
330
130
100
AcDbEntity
  8
0
  6
Continuous
 62
     7
370
    25
100
AcDbPolyline
 90
        9
 70
   128
 43
0.0
 10
3.1283451586
 20
-2.2037897907
 10
3.1375753539
 20
-2.1981678237
 10
3.1717254807
 20
-2.1714554409
 10
3.2013285321
 20
-2.1381265369
 10
3.2260374393
 20
-2.0985718625
 10
3.245562513
 20
-2.0532551602
 10
3.2596748396
 20
-2.0027077268
 10
3.268208965
 20
-1.9475221848
 10
3.2710648342
 20
-1.8883455342
  0
LWPOLYLINE
  5
14D
330
130
100
AcDbEntity
  8
0
  6
Continuous
 62
     7
370
    25
100
AcDbPolyline
 90
       29
 70
   128
 43
0.0
 10
3.6329698797
 20
-2.000842715
 10
3.6301358796
 20
-1.9232094933
 10
3.621654861
 20
-1.8428789739
 10
3.6075896146
 20
-1.7604458959
 10
3.5880442744
 20
-1.6765205648
 10
3.5631635474
 20
-1.5917243345
 10
3.5331316417
 20
-1.5066850066
 10
3.498170903
 20
-1.4220321826
 10
3.4585401685
 20
-1.3383926023
 10
3.4145328502
 20
-1.2563855039
 10
3.366474763
 20
-1.1766180393
 10
3.314721712
 20
-1.0996807789
 10
3.2596568588
 20
-1.0261433392
 10
3.2016878842
 20
-0.9565501658
 10
3.1412439703
 20
-0.8914165021
 10
3.0787726227
 20
-0.8312245749
 10
3.0147363573
 20
-0.7764200244
 10
2.9496092763
 20
-0.7274086041
 10
2.8838735578
 20
-0.6845531774
 10
2.8180158861
 20
-0.6481710311
 10
2.7525238482
 20
-0.6185315256
 10
2.6878823244
 20
-0.5958541017
 10
2.6245698979
 20
-0.580306655
 10
2.5630553117
 20
-0.5720042932
 10
2.5037939983
 20
-0.5710084844
 10
2.4472247078
 20
-0.5773266009
 10
2.3937662593
 20
-0.5909118658
 10
2.3438144405
 20
-0.6116636985
 10
2.3261069247
 20
-0.6212381775
  0
LWPOLYLINE
  5
14E
330
130
100
AcDbEntity
  8
0
  6
Continuous
 62
     7
370
    25
100
AcDbPolyline
 90
       11
 70
   128
 43
0.0
 10
3.4086961038
 20
-2.4965408322
 10
3.4145328502
 20
-2.4930979001
 10
3.4585401685
 20
-2.4619005699
 10
3.498170903
 20
-2.4240176617
 10
3.5331316417
 20
-2.3797296473
 10
3.5631635474
 20
-2.3293644197
 10
3.5880442744
 20
-2.2732948654
 10
3.6075896146
 20
-2.2119361037
 10
3.621654861
 20
-2.1457424135
 10
3.6301358796
 20
-2.0752038697
 10
3.6329698797
 20
-2.000842715
  0
LWPOLYLINE
  5
14F
330
130
100
AcDbEntity
  8
0
  6
Continuous
 62
     7
370
    25
100
AcDbPolyline
 90
       43
 70
   128
 43
0.0
 10
0.7655683655
 20
-0.4419532101
 10
0.7627343653
 20
-0.3643199885
 10
0.7542533467
 20
-0.2839894691
 10
0.7401881003
 20
-0.201556391
 10
0.7206427601
 20
-0.1176310599
 10
0.6957620331
 20
-0.0328348296
 10
0.6657301274
 20
0.0522044982
 10
0.6307693888
 20
0.1368573223
 10
0.5911386543
 20
0.2204969026
 10
0.547131336
 20
0.3025040009
 10
0.4990732487
 20
0.3822714655
 10
0.4473201977
 20
0.4592087259
 10
0.3922553445
 20
0.5327461656
 10
0.3342863699
 20
0.6023393391
 10
0.273842456
 20
0.6674730028
 10
0.2113711084
 20
0.7276649299
 10
0.147334843
 20
0.7824694805
 10
0.082207762
 20
0.8314809008
 10
0.0164720435
 20
0.8743363274
 10
-0.0493856282
 20
0.9107184738
 10
-0.114877666
 20
0.9403579792
 10
-0.1795191898
 20
0.9630354032
 10
-0.2428316163
 20
0.9785828499
 10
-0.3043462025
 20
0.9868852116
 10
-0.3636075159
 20
0.9878810205
 10
-0.4201768065
 20
0.9815629039
 10
-0.473635255
 20
0.967977639
 10
-0.5235870737
 20
0.9472258064
 10
-0.569662437
 20
0.9194610453
 10
-0.6115202189
 20
0.8848889162
 10
-0.648850519
 20
0.8437653793
 10
-0.6813769569
 20
0.7963948987
 10
-0.7088587182
 20
0.7431281889
 10
-0.7310923376
 20
0.6843596179
 10
-0.7479132051
 20
0.6205242878
 10
-0.7591967849
 20
0.552094813
 10
-0.7648595373
 20
0.4795778214
 10
-0.7648595373
 20
0.4035102033
 10
-0.7591967849
 20
0.3244551369
 10
-0.7479132051
 20
0.2429979181
 10
-0.7310923376
 20
0.1597416278
 10
-0.7088587182
 20
0.0753026664
 10
-0.7011544474
 20
0.0498263505
  0
LWPOLYLINE
  5
150
330
130
100
AcDbEntity
  8
0
  6
Continuous
 62
     7
370
    25
100
AcDbPolyline
 90
       25
 70
   128
 43
0.0
 10
-0.307485655
 20
-0.6321018876
 10
-0.3043462025
 20
-0.6354945657
 10
-0.2428316163
 20
-0.6982154335
 10
-0.1795191898
 20
-0.7557669584
 10
-0.114877666
 20
-0.8077230492
 10
-0.0493856282
 20
-0.8536990412
 10
0.0164720435
 20
-0.8933545441
 10
0.082207762
 20
-0.9263959625
 10
0.147334843
 20
-0.9525786694
 10
0.2113711084
 20
-0.9717088171
 10
0.273842456
 20
-0.9836447726
 10
0.3342863699
 20
-0.9882981664
 10
0.3922553445
 20
-0.9856345464
 10
0.4473201977
 20
-0.975673633
 10
0.4990732487
 20
-0.9584891734
 10
0.547131336
 20
-0.9342083953
 10
0.5911386543
 20
-0.9030110651
 10
0.6307693888
 20
-0.8651281569
 10
0.6657301274
 20
-0.8208401425
 10
0.6957620331
 20
-0.7704749149
 10
0.7206427601
 20
-0.7144053605
 10
0.7401881003
 20
-0.6530465989
 10
0.7542533467
 20
-0.5868529087
 10
0.7627343653
 20
-0.5163143649
 10
0.7655683655
 20
-0.4419532101
  0
LWPOLYLINE
  5
151
330
130
100
AcDbEntity
  8
0
  6
Continuous
 62
     7
370
    25
100
AcDbPolyline
 90
       18
 70
   128
 43
0.0
 10
0.2783884965
 20
-0.1607102582
 10
0.275554903
 20
-0.1133241156
 10
0.2671118064
 20
-0.0636310208
 10
0.2532310836
 20
-0.0126425819
 10
0.2341953062
 20
0.0386032236
 10
0.2103919878
 20
0.0890631787
 10
0.1823056952
 20
0.1377100643
 10
0.1505081843
 20
0.1835535702
 10
0.1156467609
 20
0.2256604546
 10
0.0784311029
 20
0.263173543
 10
0.0396188139
 20
0.295329177
 10
0.0
 20
0.3214727606
 10
-0.0396188139
 20
0.3410720858
 10
-0.0784311029
 20
0.353728167
 10
-0.1156467609
 20
0.3591833627
 10
-0.1505081843
 20
0.3573266209
 10
-0.1823056952
 20
0.3481957396
 10
-0.1968343962
 20
0.340964119
  0
LWPOLYLINE
  5
153
330
130
100
AcDbEntity
  8
0
  6
Continuous
 62
     7
370
    25
100
AcDbPolyline
 90
       29
 70
   128
 43
0.0
 10
0.8490849144
 20
-0.3937401327
 10
0.8462509143
 20
-0.316106911
 10
0.8377698957
 20
-0.2357763916
 10
0.8237046493
 20
-0.1533433135
 10
0.8041593091
 20
-0.0694179825
 10
0.7792785821
 20
0.0153782478
 10
0.7492466764
 20
0.1004175757
 10
0.7142859377
 20
0.1850703997
 10
0.6746552032
 20
0.26870998
 10
0.6306478849
 20
0.3507170784
 10
0.5825897977
 20
0.430484543
 10
0.5308367467
 20
0.5074218034
 10
0.4757718934
 20
0.5809592431
 10
0.4178029189
 20
0.6505524165
 10
0.357359005
 20
0.7156860802
 10
0.2948876574
 20
0.7758780074
 10
0.230851392
 20
0.830682558
 10
0.165724311
 20
0.8796939783
 10
0.0999885925
 20
0.9225494049
 10
0.0341309208
 20
0.9589315513
 10
-0.0313611171
 20
0.9885710567
 10
-0.0960026409
 20
1.0112484806
 10
-0.1593150674
 20
1.0267959274
 10
-0.2208296536
 20
1.0350982891
 10
-0.280090967
 20
1.036094098
 10
-0.3366602575
 20
1.0297759814
 10
-0.390118706
 20
1.0161907165
 10
-0.4400705248
 20
0.9954388839
 10
-0.4577780406
 20
0.9858644049
  0
LWPOLYLINE
  5
154
330
130
100
AcDbEntity
  8
0
  6
Continuous
 62
     7
370
    25
100
AcDbPolyline
 90
       11
 70
   128
 43
0.0
 10
0.6248111385
 20
-0.8894382499
 10
0.6306478849
 20
-0.8859953178
 10
0.6746552032
 20
-0.8547979876
 10
0.7142859377
 20
-0.8169150794
 10
0.7492466764
 20
-0.772627065
 10
0.7792785821
 20
-0.7222618374
 10
0.8041593091
 20
-0.6661922831
 10
0.8237046493
 20
-0.6048335214
 10
0.8377698957
 20
-0.5386398312
 10
0.8462509143
 20
-0.4681012874
 10
0.8490849144
 20
-0.3937401327
  0
LWPOLYLINE
  5
159
330
130
100
AcDbEntity
  8
0
  6
Continuous
 62
     7
370
    25
100
AcDbPolyline
 90
       59
 70
   128
 43
0.0
 10
1.4838106865
 20
-2.9201968193
 10
1.5364840957
 20
-2.9473066788
 10
1.5885399574
 20
-2.9675029951
 10
1.6393679641
 20
-2.9805489849
 10
1.688372204
 20
-2.986291696
 10
1.7349781471
 20
-2.9846638002
 10
1.7786393813
 20
-2.9756843831
 10
1.8188440187
 20
-2.9594587203
 10
1.8551206966
 20
-2.9361770427
 10
1.8870441041
 20
-2.9061123068
 10
1.9142399685
 20
-2.8696169941
 10
1.9363894431
 20
-2.8271189788
 10
1.9532328456
 20
-2.7791165111
 10
1.9645727024
 20
-2.7261723763
 10
1.9702760642
 20
-2.6689072959
 10
1.9702760642
 20
-2.6079926505
 10
1.9645727024
 20
-2.5441426087
 10
1.9532328456
 20
-2.4781057538
 10
1.9363894431
 20
-2.4106563077
 10
1.9142399685
 20
-2.3425850533
 10
1.8870441041
 20
-2.2746900639
 10
1.8551206966
 20
-2.2077673463
 10
1.8188440187
 20
-2.1426015079
 10
1.7786393813
 20
-2.0799565588
 10
1.7349781471
 20
-2.0205669537
 10
1.688372204
 20
-1.9651289814
 10
1.6393679641
 20
-1.9142926014
 10
1.5885399574
 20
-1.8686538238
 10
1.5364840957
 20
-1.8287477216
 10
1.4838106865
 20
-1.7950421573
 10
1.4311372773
 20
-1.7679322978
 10
1.3790814156
 20
-1.7477359814
 10
1.3282534089
 20
-1.7346899916
 10
1.279249169
 20
-1.7289472806
 10
1.2326432259
 20
-1.7305751764
 10
1.1889819917
 20
-1.7395545934
 10
1.1487773543
 20
-1.7557802563
 10
1.1125006764
 20
-1.7790619338
 10
1.0805772689
 20
-1.8091266697
 10
1.0533814045
 20
-1.8456219825
 10
1.0312319299
 20
-1.8881199978
 10
1.0143885274
 20
-1.9361224654
 10
1.0030486706
 20
-1.9890666002
 10
0.9973453088
 20
-2.0463316807
 10
0.9973453088
 20
-2.1072463261
 10
1.0030486706
 20
-2.1710963679
 10
1.0143885274
 20
-2.2371332227
 10
1.0312319299
 20
-2.3045826689
 10
1.0533814045
 20
-2.3726539232
 10
1.0805772689
 20
-2.4405489126
 10
1.1125006764
 20
-2.5074716303
 10
1.1487773543
 20
-2.5726374686
 10
1.1889819917
 20
-2.6352824177
 10
1.2326432259
 20
-2.6946720229
 10
1.279249169
 20
-2.7501099952
 10
1.3282534089
 20
-2.8009463752
 10
1.3790814156
 20
-2.8465851528
 10
1.4311372773
 20
-2.886491255
 10
1.4838106865
 20
-2.9201968193
  0
LWPOLYLINE
  5
15A
330
130
100
AcDbEntity
  8
0
  6
Continuous
 62
     7
370
    25
100
AcDbPolyline
 90
       23
 70
   128
 43
0.0
 10
2.7783171954
 20
-2.1728026913
 10
2.7604117806
 20
-2.1190166419
 10
2.7370045519
 20
-2.0625638684
 10
2.7083699377
 20
-2.0041062277
 10
2.6748436526
 20
-1.9443290824
 10
2.6368187616
 20
-1.8839332648
 10
2.5947410719
 20
-1.8236268606
 10
2.5491039058
 20
-1.7641169073
 10
2.5004423175
 20
-1.7061011047
 10
2.4493268195
 20
-1.650259635
 10
2.3963566943
 20
-1.5972471885
 10
2.3421529683
 20
-1.5476852875
 10
2.2873511305
 20
-1.502155
 10
2.2325936823
 20
-1.4611901271
 10
2.1785226049
 20
-1.4252709444
 10
2.1257718321
 20
-1.3948185714
 10
2.0749598186
 20
-1.3701900345
 10
2.0266822887
 20
-1.3516740807
 10
1.9815052523
 20
-1.3394877926
 10
1.9399583688
 20
-1.3337740434
 10
1.9025287376
 20
-1.3345998214
 10
1.8696551868
 20
-1.3419554452
 10
1.8482439382
 20
-1.351696805
  0
LWPOLYLINE
  5
15B
330
130
100
AcDbEntity
  8
0
  6
Continuous
 62
     7
370
    25
100
AcDbPolyline
 90
        9
 70
   128
 43
0.0
 10
2.6355975198
 20
-2.4882469477
 10
2.644827715
 20
-2.4826249807
 10
2.6789778418
 20
-2.455912598
 10
2.7085808932
 20
-2.422583694
 10
2.7332898004
 20
-2.3830290196
 10
2.7528148742
 20
-2.3377123173
 10
2.7669272008
 20
-2.2871648839
 10
2.7754613261
 20
-2.2319793419
 10
2.7783171954
 20
-2.1728026913
  0
LWPOLYLINE
  5
16B
330
130
100
AcDbEntity
  8
0
  6
Continuous
 62
     7
370
    25
100
AcDbPolyline
 90
       12
 70
   128
 43
0.0
 10
1.6047188681
 20
-4.5854518412
 10
1.6047854901
 20
-4.5880959752
 10
1.6100848797
 20
-4.6089814561
 10
1.6235847907
 20
-4.6285984493
 10
1.6445574395
 20
-4.6458893978
 10
1.6718721852
 20
-4.6599221419
 10
1.7040564827
 20
-4.6699401728
 10
1.7393752682
 20
-4.675403416
 10
1.7759244969
 20
-4.6760173464
 10
1.8117337903
 20
-4.671748867
 10
1.8448726603
 20
-4.6628280926
 10
1.8735545816
 20
-4.6497359445
  0
LWPOLYLINE
  5
16D
330
130
100
AcDbEntity
  8
0
  6
Continuous
 62
     7
370
    25
100
AcDbPolyline
 90
       24
 70
   128
 43
0.0
 10
2.7632941195
 20
-2.1268290485
 10
2.7627813462
 20
-2.1187041192
 10
2.755619496
 20
-2.05492902
 10
2.7428194615
 20
-1.9891708391
 10
2.7245366177
 20
-1.9222277916
 10
2.7009928936
 20
-1.8549124756
 10
2.6724740782
 20
-1.7880420076
 10
2.6393263511
 20
-1.7224281048
 10
2.601952081
 20
-1.6588672308
 10
2.5608049408
 20
-1.5981309287
 10
2.516384401
 20
-1.5409564548
 10
2.4692296669
 20
-1.4880378299
 10
2.4199131331
 20
-1.4400174144
 10
2.3690334353
 20
-1.3974781109
 10
2.3172081844
 20
-1.3609362892
 10
2.2650664685
 20
-1.3308355174
 10
2.2132412176
 20
-1.307541178
 10
2.1623615198
 20
-1.2913360328
 10
2.113044986
 20
-1.2824167903
 10
2.0658902518
 20
-1.2808917181
 10
2.0214697121
 20
-1.2867793284
 10
1.9803225719
 20
-1.3000081537
 10
1.9429483017
 20
-1.3204176139
 10
1.9281394475
 20
-1.3313528411
  0
LWPOLYLINE
  5
16E
330
130
100
AcDbEntity
  8
0
  6
Continuous
 62
     7
370
    25
100
AcDbPolyline
 90
       27
 70
   128
 43
0.0
 10
2.7424706705
 20
-2.3639141336
 10
2.762189902
 20
-2.3229752702
 10
2.7777549765
 20
-2.2744948029
 10
2.7877510978
 20
-2.2211709422
 10
2.7920569265
 20
-2.1636509675
 10
2.7906201958
 20
-2.1026330934
 10
2.7834583457
 20
-2.0388579942
 10
2.7706583111
 20
-1.9730998133
 10
2.7523754674
 20
-1.9061567658
 10
2.7288317433
 20
-1.8388414498
 10
2.7003129278
 20
-1.7719709818
 10
2.6671652008
 20
-1.7063570789
 10
2.6297909307
 20
-1.642796205
 10
2.5886437904
 20
-1.5820599028
 10
2.5442232507
 20
-1.524885429
 10
2.4970685166
 20
-1.4719668041
 10
2.4477519827
 20
-1.4239463885
 10
2.396872285
 20
-1.3814070851
 10
2.345047034
 20
-1.3448652634
 10
2.2929053182
 20
-1.3147644915
 10
2.2410800672
 20
-1.2914701522
 10
2.1902003695
 20
-1.275265007
 10
2.1408838356
 20
-1.2663457645
 10
2.0937291015
 20
-1.2648206923
 10
2.0493085617
 20
-1.2707083026
 10
2.0081614215
 20
-1.2839371279
 10
1.9843577026
 20
-1.2958497112
  0
LWPOLYLINE
  5
16F
330
130
100
AcDbEntity
  8
0
  6
Continuous
 62
     7
370
    25
100
AcDbPolyline
 90
       34
 70
   128
 43
0.0
 10
2.6492356835
 20
-2.4797242235
 10
2.6540095083
 20
-2.4773279456
 10
2.6902861862
 20
-2.454046268
 10
2.7222095937
 20
-2.4239815321
 10
2.7494054581
 20
-2.3874862194
 10
2.7715549327
 20
-2.3449882041
 10
2.7883983352
 20
-2.2969857364
 10
2.799738192
 20
-2.2440416016
 10
2.8054415538
 20
-2.1867765212
 10
2.8054415538
 20
-2.1258618758
 10
2.799738192
 20
-2.062011834
 10
2.7883983352
 20
-1.9959749791
 10
2.7715549327
 20
-1.928525533
 10
2.7494054581
 20
-1.8604542786
 10
2.7222095937
 20
-1.7925592892
 10
2.6902861862
 20
-1.7256365716
 10
2.6540095083
 20
-1.6604707332
 10
2.6138048709
 20
-1.5978257841
 10
2.5701436367
 20
-1.538436179
 10
2.5235376936
 20
-1.4829982067
 10
2.4745334537
 20
-1.4321618267
 10
2.423705447
 20
-1.3865230491
 10
2.3716495853
 20
-1.3466169469
 10
2.3189761761
 20
-1.3129113826
 10
2.2663027669
 20
-1.2858015231
 10
2.2142469052
 20
-1.2656052067
 10
2.1634188985
 20
-1.2525592169
 10
2.1144146586
 20
-1.2468165059
 10
2.0678087155
 20
-1.2484444017
 10
2.0241474813
 20
-1.2574238187
 10
1.9839428439
 20
-1.2736494816
 10
1.947666166
 20
-1.2969311591
 10
1.9157427585
 20
-1.326995895
 10
1.9098273726
 20
-1.3338982727
  0
LWPOLYLINE
  5
170
330
130
100
AcDbEntity
  8
0
  6
Continuous
 62
     7
370
    25
100
AcDbPolyline
 90
       31
 70
   128
 43
0.0
 10
3.1283451586
 20
-2.2037897907
 10
3.1551949754
 20
-2.1856601368
 10
3.1871183829
 20
-2.1555954009
 10
3.2143142473
 20
-2.1191000882
 10
3.2364637219
 20
-2.0766020728
 10
3.2533071244
 20
-2.0285996052
 10
3.2646469812
 20
-1.9756554704
 10
3.270350343
 20
-1.9183903899
 10
3.270350343
 20
-1.8574757445
 10
3.2646469812
 20
-1.7936257027
 10
3.2533071244
 20
-1.7275888479
 10
3.2364637219
 20
-1.6601394017
 10
3.2143142473
 20
-1.5920681474
 10
3.1871183829
 20
-1.524173158
 10
3.1551949754
 20
-1.4572504403
 10
3.1189182975
 20
-1.392084602
 10
3.0787136601
 20
-1.3294396529
 10
3.0350524259
 20
-1.2700500478
 10
2.9884464828
 20
-1.2146120754
 10
2.9394422429
 20
-1.1637756954
 10
2.8886142362
 20
-1.1181369179
 10
2.8365583745
 20
-1.0782308156
 10
2.7838849653
 20
-1.0445252513
 10
2.7312115561
 20
-1.0174153918
 10
2.6791556944
 20
-0.9972190755
 10
2.6283276877
 20
-0.9841730857
 10
2.5793234478
 20
-0.9784303746
 10
2.5327175047
 20
-0.9800582704
 10
2.4890562705
 20
-0.9890376875
 10
2.4488516331
 20
-1.0052633503
 10
2.439424772
 20
-1.010415374
  0
LWPOLYLINE
  5
171
330
130
100
AcDbEntity
  8
0
  6
Continuous
 62
     8
370
    25
100
AcDbPolyline
 90
       18
 70
   128
 43
0.0
 10
-4.9801347588
 20
-3.1963911173
 10
-4.9829683523
 20
-3.1490049746
 10
-4.991411449
 20
-3.0993118798
 10
-5.0052921717
 20
-3.0483234409
 10
-5.0243279491
 20
-2.9970776354
 10
-5.0481312676
 20
-2.9466176803
 10
-5.0762175602
 20
-2.8979707947
 10
-5.108015071
 20
-2.8521272889
 10
-5.1428764944
 20
-2.8100204044
 10
-5.1800921524
 20
-2.772507316
 10
-5.2189044415
 20
-2.740351682
 10
-5.2585232553
 20
-2.7142080984
 10
-5.2981420692
 20
-2.6946087732
 10
-5.3369543583
 20
-2.6819526921
 10
-5.3741700162
 20
-2.6764974963
 10
-5.4090314397
 20
-2.6783542381
 10
-5.4408289505
 20
-2.6874851194
 10
-5.4553250974
 20
-2.6946979531
  0
LWPOLYLINE
  5
173
330
130
100
AcDbEntity
  8
0
  6
Continuous
 62
     8
370
    25
100
AcDbPolyline
 90
       19
 70
   128
 43
0.0
 10
-5.4762266921
 20
-3.8338332571
 10
-5.5143609073
 20
-3.831805852
 10
-5.5573860067
 20
-3.8265481216
 10
-5.6044261236
 20
-3.8181670982
 10
-5.6545236566
 20
-3.8068333951
 10
-5.7066587647
 20
-3.792777734
 10
-5.7597701272
 20
-3.7762862475
 10
-5.8127765501
 20
-3.7576946548
 10
-5.8645989754
 20
-3.7373814271
 10
-5.9141824479
 20
-3.715760083
 10
-5.9605175912
 20
-3.6932707709
 10
-6.0026611553
 20
-3.6703713083
 10
-6.0397552189
 20
-3.6475278621
 10
-6.0710446537
 20
-3.6252054591
 10
-6.0958924972
 20
-3.603858519
 10
-6.1137929188
 20
-3.583921604
 10
-6.1243815176
 20
-3.5658005722
 10
-6.1274427402
 20
-3.5498643155
 10
-6.126013548
 20
-3.5424954253
  0
LWPOLYLINE
  5
174
330
130
100
AcDbEntity
  8
0
  6
Continuous
 62
     8
370
    25
100
AcDbPolyline
 90
        6
 70
   128
 43
0.0
 10
-5.3832424798
 20
-3.8038229768
 10
-5.3863161083
 20
-3.8098087477
 10
-5.3983420866
 20
-3.8204532854
 10
-5.4176207579
 20
-3.8280986033
 10
-5.443759664
 20
-3.8325890648
 10
-5.4762266921
 20
-3.8338332571
  0
LINE
  5
175
330
130
100
AcDbEntity
  8
0
  6
Continuous
 62
     7
370
    25
100
AcDbLine
 10
-5.7531420464
 20
-4.8556839575
 30
0.0
 11
-5.3832103114
 21
-3.8037320611
 31
0.0
  0
LINE
  5
176
330
130
100
AcDbEntity
  8
0
  6
Continuous
 62
     7
370
    25
100
AcDbLine
 10
-6.126020066
 20
-3.5425139367
 30
0.0
 11
-6.495951801
 21
-4.5944658331
 31
0.0
  0
LINE
  5
177
330
130
100
AcDbEntity
  8
0
  6
Continuous
 62
     7
370
    25
100
AcDbLine
 10
-5.0616888591
 20
-3.3766449781
 30
0.0
 11
0.1968343962
 21
-0.340964119
 31
0.0
  0
LINE
  5
178
330
130
100
AcDbEntity
  8
0
  6
Continuous
 62
     7
370
    25
100
AcDbLine
 10
-0.1968343962
 20
0.340964119
 30
0.0
 11
-5.4553576515
 21
-2.69471674
 31
0.0
  0
LINE
  5
179
330
130
100
AcDbEntity
  8
0
  6
Continuous
 62
     7
370
    25
100
AcDbLine
 10
2.3261069247
 20
-0.6212381775
 30
0.0
 11
2.2425903758
 21
-0.6694512549
 31
0.0
  0
LINE
  5
17A
330
130
100
AcDbEntity
  8
0
  6
Continuous
 62
     7
370
    25
100
AcDbLine
 10
3.3251795548
 20
-2.5447539097
 30
0.0
 11
3.4086961038
 21
-2.4965408322
 31
0.0
  0
LINE
  5
17B
330
130
100
AcDbEntity
  8
0
  6
Continuous
 62
     7
370
    25
100
AcDbLine
 10
-0.4577780406
 20
0.9858644049
 30
0.0
 11
-0.5412945895
 21
0.9376513274
 31
0.0
  0
LINE
  5
17C
330
130
100
AcDbEntity
  8
0
  6
Continuous
 62
     7
370
    25
100
AcDbLine
 10
0.5412945895
 20
-0.9376513274
 30
0.0
 11
0.6248111385
 21
-0.8894382499
 31
0.0
  0
LINE
  5
17D
330
130
100
AcDbEntity
  8
0
  6
Continuous
 62
     7
370
    25
100
AcDbLine
 10
1.8482439382
 20
-1.351696805
 30
0.0
 11
1.1393504932
 21
-1.7609322799
 31
0.0
  0
LINE
  5
17E
330
130
100
AcDbEntity
  8
0
  6
Continuous
 62
     7
370
    25
100
AcDbLine
 10
1.8282708798
 20
-2.9543066966
 30
0.0
 11
2.6355975198
 21
-2.4882469477
 31
0.0
  0
LINE
  5
17F
330
130
100
AcDbEntity
  8
0
  6
Continuous
 62
     7
370
    25
100
AcDbLine
 10
1.919679498
 20
-4.5854518412
 30
0.0
 11
1.919679498
 21
-2.9015376246
 31
0.0
  0
LINE
  5
180
330
130
100
AcDbEntity
  8
0
  6
Continuous
 62
     7
370
    25
100
AcDbLine
 10
1.6047188681
 20
-2.9723948308
 30
0.0
 11
1.6047188681
 21
-4.5854518412
 31
0.0
  0
LINE
  5
181
330
130
100
AcDbEntity
  8
0
  6
Continuous
 62
     7
370
    25
100
AcDbLine
 10
1.9843577026
 20
-1.2958497112
 30
0.0
 11
1.9565188529
 21
-1.311920737
 31
0.0
  0
LINE
  5
182
330
130
100
AcDbEntity
  8
0
  6
Continuous
 62
     7
370
    25
100
AcDbLine
 10
2.439424772
 20
-1.010415374
 30
0.0
 11
1.9745159828
 21
-1.2788015052
 31
0.0
  0
LINE
  5
183
330
130
100
AcDbEntity
  8
0
  6
Continuous
 62
     7
370
    25
100
AcDbLine
 10
2.6634363694
 20
-2.4721759219
 30
0.0
 11
3.1283451586
 21
-2.2037897907
 31
0.0
  0
LINE
  5
184
330
130
100
AcDbEntity
  8
0
  6
Continuous
 62
     7
370
    25
100
AcDbLine
 10
1.75922656
 20
-2.8573963329
 30
0.0
 11
1.7402323619
 21
-2.8229289643
 31
0.0
  0
LINE
  5
185
330
130
100
AcDbEntity
  8
0
  6
Continuous
 62
     7
370
    25
100
AcDbLine
 10
1.2750193141
 20
-2.6360239991
 30
0.0
 11
1.2894187191
 21
-2.616823688
 31
0.0
  0
LINE
  5
186
330
130
100
AcDbEntity
  8
0
  6
Continuous
 62
     7
370
    25
100
AcDbLine
 10
1.6779242654
 20
-2.8414245865
 30
0.0
 11
1.6923236704
 21
-2.8772500967
 31
0.0
  0
LINE
  5
187
330
130
100
AcDbEntity
  8
0
  6
Continuous
 62
     7
370
    25
100
AcDbLine
 10
1.7589481715
 20
-2.8575570431
 30
0.0
 11
1.7399539734
 21
-2.8230896745
 31
0.0
  0
LINE
  5
188
330
130
100
AcDbEntity
  8
0
  6
Continuous
 62
     7
370
    25
100
AcDbLine
 10
1.7589481715
 20
-2.8575570431
 30
0.0
 11
1.75922656
 21
-2.8573963329
 31
0.0
  0
LINE
  5
189
330
130
100
AcDbEntity
  8
0
  6
Continuous
 62
     7
370
    25
100
AcDbLine
 10
1.7399539734
 20
-2.8230896745
 30
0.0
 11
1.7402323619
 21
-2.8229289643
 31
0.0
  0
LINE
  5
18A
330
130
100
AcDbEntity
  8
0
  6
Continuous
 62
     7
370
    25
100
AcDbLine
 10
1.6779242654
 20
-2.8414245865
 30
0.0
 11
1.6782026539
 21
-2.8412638762
 31
0.0
  0
LINE
  5
18B
330
130
100
AcDbEntity
  8
0
  6
Continuous
 62
     7
370
    25
100
AcDbLine
 10
1.2891403306
 20
-2.6169843983
 30
0.0
 11
1.2894187191
 21
-2.616823688
 31
0.0
  0
LINE
  5
18C
330
130
100
AcDbEntity
  8
0
  6
Continuous
 62
     7
370
    25
100
AcDbLine
 10
1.2271106227
 20
-2.5270315099
 30
0.0
 11
1.2273890112
 21
-2.5268707997
 31
0.0
  0
LINE
  5
18D
330
130
100
AcDbEntity
  8
0
  6
Continuous
 62
     7
370
    25
100
AcDbLine
 10
1.2747409256
 20
-2.6361847094
 30
0.0
 11
1.2891403306
 21
-2.6169843983
 31
0.0
  0
LINE
  5
18E
330
130
100
AcDbEntity
  8
0
  6
Continuous
 62
     7
370
    25
100
AcDbLine
 10
1.2271106227
 20
-2.5270315099
 30
0.0
 11
1.2081164245
 21
-2.5395686441
 31
0.0
  0
LINE
  5
18F
330
130
100
AcDbEntity
  8
0
  6
Continuous
 62
     7
370
    25
100
AcDbLine
 10
1.2747409256
 20
-2.6361847094
 30
0.0
 11
1.2750193141
 21
-2.6360239991
 31
0.0
  0
ARC
  5
190
330
130
100
AcDbEntity
  8
0
  6
Continuous
 62
     7
370
    25
100
AcDbCircle
 10
0.083200675
 20
-0.1809755419
 30
0.0
 40
0.1962370184331516
100
AcDbArc
 50
305.3847106268
 51
5.9274697666
  0
ARC
  5
191
330
130
100
AcDbEntity
  8
0
  6
Continuous
 62
     7
370
    25
100
AcDbCircle
 10
1.6566178073
 20
-2.654143885
 30
0.0
 40
0.1883608152849463
100
AcDbArc
 50
276.5801553005
 51
296.3533860567
  0
ARC
  5
192
330
130
100
AcDbEntity
  8
0
  6
Continuous
 62
     7
370
    25
100
AcDbCircle
 10
1.9989718937
 20
-2.0611663821
 30
0.0
 40
0.9012329050189576
100
AcDbArc
 50
211.1139285641
 51
218.0648068588
  0
ARC
  5
193
330
130
100
AcDbEntity
  8
0
  6
Continuous
 62
     7
370
    25
100
AcDbCircle
 10
1.6563394188
 20
-2.6543045952
 30
0.0
 40
0.1883608152849162
100
AcDbArc
 50
276.5801553005
 51
296.3533860567
  0
ARC
  5
194
330
130
100
AcDbEntity
  8
0
  6
Continuous
 62
     7
370
    25
100
AcDbCircle
 10
1.6691399462
 20
-2.6762693653
 30
0.0
 40
0.202313468269021
100
AcDbArc
 50
276.5801553005
 51
296.3533860567
  0
ARC
  5
195
330
130
100
AcDbEntity
  8
0
  6
Continuous
 62
     7
370
    25
100
AcDbCircle
 10
1.9986935052
 20
-2.0613270924
 30
0.0
 40
0.9012329050188411
100
AcDbArc
 50
211.1139285641
 51
218.0648068588
  0
ARC
  5
196
330
130
100
AcDbEntity
  8
0
  6
Continuous
 62
     7
370
    25
100
AcDbCircle
 10
2.0368535946
 20
-2.0393676031
 30
0.0
 40
0.9679908979832162
100
AcDbArc
 50
211.1139285641
 51
218.0648068588
  0
ARC
  5
197
330
130
100
AcDbEntity
  8
0
  6
Continuous
 62
     7
370
    25
100
AcDbCircle
 10
1.8430485106
 20
-4.5791575796
 30
0.0
 40
0.0768890496165868
100
AcDbArc
 50
293.3754383356
 51
355.3044207067
  0
ARC
  5
198
330
130
100
AcDbEntity
  8
0
  6
Continuous
 62
     7
370
    25
100
AcDbCircle
 10
1.7623424185
 20
-4.4523462618
 30
0.0
 40
0.2267224665947286
100
AcDbArc
 50
241.3623583679
 51
297.7725957031
  0
ARC
  5
199
330
130
100
AcDbEntity
  8
0
  6
Continuous
 62
     8
370
    25
100
AcDbCircle
 10
-5.1755754808
 20
-3.2166089722
 30
0.0
 40
0.196483682489241
100
AcDbArc
 50
305.6267906802
 51
5.9060973726
  0
VIEWPORT
  5
19E
330
130
100
AcDbEntity
  8
0
100
AcDbViewport
 10
0.0
 20
0.0
 30
0.0
 40
8.4
 41
6.4
 68
     1
 69
     1
 12
1.968503937
 22
-0.9251968504
 13
0.0
 23
0.0
 14
0.5
 24
0.5
 15
0.5
 25
0.5
 16
0.0
 26
0.0
 36
1.0
 17
0.0
 27
0.0
 37
0.0
 42
50.0
 43
0.0
 44
0.0
 45
4.7424071991
 50
0.0
 51
0.0
 72
   100
 90
   557152
  1

281
     0
 71
     1
 74
     0
110
0.0
120
0.0
130
0.0
111
1.0
121
0.0
131
0.0
112
0.0
122
1.0
132
0.0
 79
     0
146
0.0
  0
ENDBLK
  5
133
330
130
100
AcDbEntity
  8
0
100
AcDbBlockEnd
  0
ENDSEC
  0
SECTION
  2
ENTITIES
  0
LWPOLYLINE
  5
7B
330
1F
100
AcDbEntity
  8
0
  6
Continuous
 62
     7
370
    25
100
AcDbPolyline
 90
       45
 70
   128
 43
0.0
 10
0.3937007874
 20
-1.4566929134
 10
0.3896934811
 20
-1.4312560691
 10
0.3777531392
 20
-1.4063370456
 10
0.3581228328
 20
-1.3824431223
 10
0.3312021783
 20
-1.3600607107
 10
0.2975392025
 20
-1.339645452
 10
0.2578191866
 20
-1.3216129421
 10
0.2128507155
 20
-1.306330271
 10
0.1635492177
 20
-1.2941085495
 10
0.1109183295
 20
-1.2851965769
 10
0.0560294639
 20
-1.2797757752
 10
0.0
 20
-1.2779564962
 10
-0.0560294639
 20
-1.2797757752
 10
-0.1109183295
 20
-1.2851965769
 10
-0.1635492177
 20
-1.2941085495
 10
-0.2128507155
 20
-1.306330271
 10
-0.2578191866
 20
-1.3216129421
 10
-0.2975392025
 20
-1.339645452
 10
-0.3312021783
 20
-1.3600607107
 10
-0.3581228328
 20
-1.3824431223
 10
-0.3777531392
 20
-1.4063370456
 10
-0.3896934811
 20
-1.4312560691
 10
-0.3937007874
 20
-1.4566929134
 10
-0.3896934811
 20
-1.4821297577
 10
-0.3777531392
 20
-1.5070487812
 10
-0.3581228328
 20
-1.5309427045
 10
-0.3312021783
 20
-1.5533251161
 10
-0.2975392025
 20
-1.5737403747
 10
-0.2578191866
 20
-1.5917728846
 10
-0.2128507155
 20
-1.6070555558
 10
-0.1635492177
 20
-1.6192772772
 10
-0.1109183295
 20
-1.6281892498
 10
-0.0560294639
 20
-1.6336100516
 10
0.0
 20
-1.6354293306
 10
0.0560294639
 20
-1.6336100516
 10
0.1109183295
 20
-1.6281892498
 10
0.1635492177
 20
-1.6192772772
 10
0.2128507155
 20
-1.6070555558
 10
0.2578191866
 20
-1.5917728846
 10
0.2975392025
 20
-1.5737403747
 10
0.3312021783
 20
-1.5533251161
 10
0.3581228328
 20
-1.5309427045
 10
0.3777531392
 20
-1.5070487812
 10
0.3896934811
 20
-1.4821297577
 10
0.3937007874
 20
-1.4566929134
  0
LWPOLYLINE
  5
7C
330
1F
100
AcDbEntity
  8
0
  6
Continuous
 62
     7
370
    25
100
AcDbPolyline
 90
       40
 70
   128
 43
0.0
 10
0.0
 20
-1.5996820472
 10
0.0505232381
 20
-1.5978303754
 10
0.0997379508
 20
-1.5923233176
 10
0.146369503
 20
-1.5833035035
 10
0.189210162
 20
-1.5710045416
 10
0.2271503771
 20
-1.5557449686
 10
0.2592075168
 20
-1.5379199994
 10
0.284551318
 20
-1.5179912914
 10
0.3025253895
 20
-1.4964749876
 10
0.3126642123
 20
-1.4739283489
 10
0.3147051963
 20
-1.4509353215
 10
0.308595481
 20
-1.4280914127
 10
0.2944933048
 20
-1.4059882678
 10
0.2727639067
 20
-1.3851983465
 10
0.2439700667
 20
-1.366260097
 10
0.2088575302
 20
-1.3496640099
 10
0.1683356933
 20
-1.3358399152
 10
0.1234540503
 20
-1.3251458496
 10
0.0753750124
 20
-1.317858784
 10
0.0253438012
 20
-1.3141674493
 10
-0.0253438012
 20
-1.3141674493
 10
-0.0753750124
 20
-1.317858784
 10
-0.1234540503
 20
-1.3251458496
 10
-0.1683356933
 20
-1.3358399152
 10
-0.2088575302
 20
-1.3496640099
 10
-0.2439700667
 20
-1.366260097
 10
-0.2727639067
 20
-1.3851983465
 10
-0.2944933048
 20
-1.4059882678
 10
-0.308595481
 20
-1.4280914127
 10
-0.3147051963
 20
-1.4509353215
 10
-0.3126642123
 20
-1.4739283489
 10
-0.3025253895
 20
-1.4964749876
 10
-0.284551318
 20
-1.5179912914
 10
-0.2592075168
 20
-1.5379199994
 10
-0.2271503771
 20
-1.5557449686
 10
-0.189210162
 20
-1.5710045416
 10
-0.146369503
 20
-1.5833035035
 10
-0.0997379508
 20
-1.5923233176
 10
-0.0505232381
 20
-1.5978303754
 10
0.0
 20
-1.5996820472
  0
CIRCLE
  5
8A
330
1F
100
AcDbEntity
  8
0
  6
Continuous
 62
     7
370
    25
100
AcDbCircle
 10
3.937007874
 20
0.0
 30
0.0
 40
0.6889763779527558
  0
LWPOLYLINE
  5
8C
330
1F
100
AcDbEntity
  8
0
  6
Continuous
 62
     8
370
    25
100
AcDbPolyline
 90
       23
 70
   128
 43
0.0
 10
0.3937007874
 20
-0.4299287404
 10
0.3896934811
 20
-0.4044918961
 10
0.3777531392
 20
-0.3795728725
 10
0.3581228328
 20
-0.3556789493
 10
0.3312021783
 20
-0.3332965376
 10
0.2975392025
 20
-0.312881279
 10
0.2578191866
 20
-0.2948487691
 10
0.2128507155
 20
-0.2795660979
 10
0.1635492177
 20
-0.2673443765
 10
0.1109183295
 20
-0.2584324039
 10
0.0560294639
 20
-0.2530116022
 10
0.0
 20
-0.2511923231
 10
-0.0560294639
 20
-0.2530116022
 10
-0.1109183295
 20
-0.2584324039
 10
-0.1635492177
 20
-0.2673443765
 10
-0.2128507155
 20
-0.2795660979
 10
-0.2578191866
 20
-0.2948487691
 10
-0.2975392025
 20
-0.312881279
 10
-0.3312021783
 20
-0.3332965376
 10
-0.3581228328
 20
-0.3556789493
 10
-0.3777531392
 20
-0.3795728725
 10
-0.3896934811
 20
-0.4044918961
 10
-0.3937007874
 20
-0.4299287404
  0
LINE
  5
8E
330
1F
100
AcDbEntity
  8
0
  6
Continuous
 62
     7
370
    25
100
AcDbLine
 10
0.3937007874
 20
-1.4566929134
 30
0.0
 11
0.3937007874
 21
0.0
 31
0.0
  0
LINE
  5
8F
330
1F
100
AcDbEntity
  8
0
  6
Continuous
 62
     7
370
    25
100
AcDbLine
 10
-0.3937007874
 20
0.0
 30
0.0
 11
-0.3937007874
 21
-1.4566929134
 31
0.0
  0
LINE
  5
90
330
1F
100
AcDbEntity
  8
0
  6
Continuous
 62
     7
370
    25
100
AcDbLine
 10
4.094488189
 20
-2.9251968504
 30
0.0
 11
4.094488189
 21
-0.6707372062
 31
0.0
  0
LINE
  5
91
330
1F
100
AcDbEntity
  8
0
  6
Continuous
 62
     7
370
    25
100
AcDbLine
 10
3.7795275591
 20
-0.6708180117
 30
0.0
 11
3.7795275591
 21
-2.9251968504
 31
0.0
  0
LINE
  5
92
330
1F
100
AcDbEntity
  8
0
  6
Continuous
 62
     7
370
    25
100
AcDbLine
 10
4.3265047376
 20
-0.4173491883
 30
0.0
 11
4.299642885
 21
-0.3885664857
 31
0.0
  0
LINE
  5
93
330
1F
100
AcDbEntity
  8
0
  6
Continuous
 62
     7
370
    25
100
AcDbLine
 10
4.2119196307
 20
-0.4548753576
 30
0.0
 11
4.2322834646
 21
-0.4885698286
 31
0.0
  0
LINE
  5
94
330
1F
100
AcDbEntity
  8
0
  6
Continuous
 62
     7
370
    25
100
AcDbLine
 10
3.6417322835
 20
-0.4885698286
 30
0.0
 11
3.6620961173
 21
-0.4548753576
 31
0.0
  0
LINE
  5
95
330
1F
100
AcDbEntity
  8
0
  6
Continuous
 62
     7
370
    25
100
AcDbLine
 10
3.574372863
 20
-0.3885664857
 30
0.0
 11
3.5475110104
 21
-0.4173491883
 31
0.0
  0
LINE
  5
96
330
1F
100
AcDbEntity
  8
0
  6
Continuous
 62
     7
370
    25
100
AcDbLine
 10
4.0866141732
 20
-2.9330708661
 30
0.0
 11
3.7874015928
 21
-2.9330708661
 31
0.0
  0
LINE
  5
97
330
1F
100
AcDbEntity
  8
0
  6
Continuous
 62
     8
370
    25
100
AcDbLine
 10
3.7795275591
 20
-2.9251968504
 30
0.0
 11
4.094488189
 21
-2.9251968504
 31
0.0
  0
ARC
  5
98
330
1F
100
AcDbEntity
  8
0
  6
Continuous
 62
     7
370
    25
100
AcDbCircle
 10
4.0866141732
 20
-2.9251968504
 30
0.0
 40
0.0078740157480324
100
AcDbArc
 50
270.0
 51
0.0
  0
ARC
  5
99
330
1F
100
AcDbEntity
  8
0
  6
Continuous
 62
     7
370
    25
100
AcDbCircle
 10
3.7874015748
 20
-2.9251968504
 30
0.0
 40
0.0078740157480328
100
AcDbArc
 50
180.0
 51
270.0
  0
ARC
  5
9A
330
1F
100
AcDbEntity
  8
0
  6
Continuous
 62
     7
370
    25
100
AcDbCircle
 10
0.0
 20
0.0
 30
0.0
 40
0.3937007874015748
100
AcDbArc
 50
0.0
 51
180.0
  0
ARC
  5
9B
330
1F
100
AcDbEntity
  8
0
  6
Continuous
 62
     7
370
    25
100
AcDbCircle
 10
3.937007874
 20
0.0
 30
0.0
 40
1.082677165354332
100
AcDbArc
 50
278.363601789
 51
261.636398211
  0
ARC
  5
9C
330
1F
100
AcDbEntity
  8
0
  6
Continuous
 62
     7
370
    25
100
AcDbCircle
 10
0.0
 20
0.0
 30
0.0
 40
1.082677165354331
100
AcDbArc
 50
291.3236862635
 51
248.6763137365
  0
ARC
  5
9D
330
1F
100
AcDbEntity
  8
0
  6
Continuous
 62
     7
370
    25
100
AcDbCircle
 10
3.937007874
 20
0.0
 30
0.0
 40
0.5314960629921255
100
AcDbArc
 50
301.1473899215
 51
313.0229348247
  0
ARC
  5
9E
330
1F
100
AcDbEntity
  8
0
  6
Continuous
 62
     7
370
    25
100
AcDbCircle
 10
3.937007874
 20
0.0
 30
0.0
 40
0.5708661417321902
100
AcDbArc
 50
301.1473899215
 51
313.0229348247
  0
ARC
  5
9F
330
1F
100
AcDbEntity
  8
0
  6
Continuous
 62
     7
370
    25
100
AcDbCircle
 10
3.937007874
 20
0.0
 30
0.0
 40
0.5314960629921223
100
AcDbArc
 50
226.9770651753
 51
238.8526100785
  0
ARC
  5
A0
330
1F
100
AcDbEntity
  8
0
  6
Continuous
 62
     7
370
    25
100
AcDbCircle
 10
3.937007874
 20
0.0
 30
0.0
 40
0.5708661417322416
100
AcDbArc
 50
226.9770651753
 51
238.8526100785
  0
SPLINE
  5
BC
330
1B
100
AcDbEntity
 67
     1
  8
0
  6
Continuous
 62
     7
370
    25
100
AcDbSpline
210
0.0
220
0.0
230
1.0
 70
     8
 71
     3
 72
    27
 73
    23
 74
     0
 42
0.000000001
 43
0.00000001
 40
0.0
 40
0.0
 40
0.0
 40
0.0
 40
0.0328427902950375
 40
0.0843671637617164
 40
0.137365140617383
 40
0.1893212457867066
 40
0.2427191993188458
 40
0.2958329297615369
 40
0.3504739594113309
 40
0.4037287301915051
 40
0.4585961404972862
 40
0.5106737639494096
 40
0.5643035394313577
 40
0.6157399338595174
 40
0.6686221589128999
 40
0.7209299862534987
 40
0.7746943629562635
 40
0.8280389156876007
 40
0.8829486041857044
 40
0.9359005761105199
 40
0.9904588027824999
 40
0.9999999999999999
 40
0.9999999999999999
 40
0.9999999999999999
 40
0.9999999999999999
 10
1.601817860147161
 20
-0.6888522000055125
 30
0.0
 10
1.601869662262882
 20
-0.688863887241863
 30
0.0
 10
1.602002732490503
 20
-0.6888939096295545
 30
0.0
 10
1.597332441336614
 20
-0.6878333578827859
 30
0.0
 10
1.588613913180026
 20
-0.6859378911132717
 30
0.0
 10
1.575711518558859
 20
-0.6833273963323221
 30
0.0
 10
1.559302382827921
 20
-0.6803482221990165
 30
0.0
 10
1.539408860724961
 20
-0.6772553463240728
 30
0.0
 10
1.5168260798997
 20
-0.6744454917563195
 30
0.0
 10
1.491883789024742
 20
-0.6722194344520392
 30
0.0
 10
1.465923803955781
 20
-0.6708936111224928
 30
0.0
 10
1.439294741882297
 20
-0.6705878918749106
 30
0.0
 10
1.413383447021462
 20
-0.67131365865492
 30
0.0
 10
1.388262493968184
 20
-0.6729784360542737
 30
0.0
 10
1.364916263115276
 20
-0.6753642768098799
 30
0.0
 10
1.343459850876699
 20
-0.6782641376558796
 30
0.0
 10
1.32473650109537
 20
-0.6813429287045915
 30
0.0
 10
1.309123600624785
 20
-0.6842934042219686
 30
0.0
 10
1.297322955502254
 20
-0.6867565836222209
 30
0.0
 10
1.290052186172725
 20
-0.6883688078471405
 30
0.0
 10
1.286954408344705
 20
-0.6890782152912083
 30
0.0
 10
1.287617629991151
 20
-0.6889271627308109
 30
0.0
 10
1.287716350512236
 20
-0.6889046785619757
 30
0.0
  0
LINE
  5
C8
330
1B
100
AcDbEntity
 67
     1
  8
0
  6
Continuous
 62
     7
370
    25
100
AcDbLine
 10
9.012207293
 20
-1.2779564962
 30
0.0
 11
8.4890448162
 21
-0.2511923231
 31
0.0
  0
LINE
  5
C9
330
1B
100
AcDbEntity
 67
     1
  8
0
  6
Continuous
 62
     7
370
    25
100
AcDbLine
 10
7.7874648759
 20
-0.6086651576
 30
0.0
 11
8.3106273527
 21
-1.6354293306
 31
0.0
  0
LINE
  5
CA
330
1B
100
AcDbEntity
 67
     1
  8
0
  6
Continuous
 62
     7
370
    25
100
AcDbLine
 10
7.4366749057
 20
0.3937007874
 30
0.0
 11
0.0
 21
0.3937007874
 31
0.0
  0
LINE
  5
CB
330
1B
100
AcDbEntity
 67
     1
  8
0
  6
Continuous
 62
     7
370
    25
100
AcDbLine
 10
0.0
 20
-0.3937007874
 30
0.0
 11
7.4366749057
 21
-0.3937007874
 31
0.0
  0
LINE
  5
CC
330
1B
100
AcDbEntity
 67
     1
  8
0
  6
Continuous
 62
     7
370
    25
100
AcDbLine
 10
-0.1181102362
 20
-1.0826771654
 30
0.0
 11
0.0
 21
-1.0826771654
 31
0.0
  0
LINE
  5
CD
330
1B
100
AcDbEntity
 67
     1
  8
0
  6
Continuous
 62
     7
370
    25
100
AcDbLine
 10
0.0
 20
1.0826771654
 30
0.0
 11
-0.1181102362
 21
1.0826771654
 31
0.0
  0
LINE
  5
CE
330
1B
100
AcDbEntity
 67
     1
  8
0
  6
Continuous
 62
     7
370
    25
100
AcDbLine
 10
1.6018178601
 20
-0.688976378
 30
0.0
 11
1.8385826772
 21
-0.688976378
 31
0.0
  0
LINE
  5
CF
330
1B
100
AcDbEntity
 67
     1
  8
0
  6
Continuous
 62
     7
370
    25
100
AcDbLine
 10
0.6968503937
 20
-0.688976378
 30
0.0
 11
1.2877163505
 21
-0.688976378
 31
0.0
  0
LINE
  5
D0
330
1B
100
AcDbEntity
 67
     1
  8
0
  6
Continuous
 62
     7
370
    25
100
AcDbLine
 10
1.8385826772
 20
0.688976378
 30
0.0
 11
0.8937007874
 21
0.688976378
 31
0.0
  0
LINE
  5
D1
330
1B
100
AcDbEntity
 67
     1
  8
0
  6
Continuous
 62
     7
370
    25
100
AcDbLine
 10
1.6023622047
 20
-2.9251968504
 30
0.0
 11
1.6023622047
 21
-0.6888522398
 31
0.0
  0
LINE
  5
D2
330
1B
100
AcDbEntity
 67
     1
  8
0
  6
Continuous
 62
     7
370
    25
100
AcDbLine
 10
1.2874015748
 20
-0.6889048591
 30
0.0
 11
1.2874015748
 21
-2.9251968504
 31
0.0
  0
LINE
  5
D3
330
1B
100
AcDbEntity
 67
     1
  8
0
  6
Continuous
 62
     7
370
    25
100
AcDbLine
 10
0.0
 20
-0.688976378
 30
0.0
 11
0.657480315
 21
-0.688976378
 31
0.0
  0
LINE
  5
D4
330
1B
100
AcDbEntity
 67
     1
  8
0
  6
Continuous
 62
     7
370
    25
100
AcDbLine
 10
0.657480315
 20
0.688976378
 30
0.0
 11
0.0
 21
0.688976378
 31
0.0
  0
LINE
  5
D5
330
1B
100
AcDbEntity
 67
     1
  8
0
  6
Continuous
 62
     7
370
    25
100
AcDbLine
 10
0.657480315
 20
-0.6692913386
 30
0.0
 11
0.6968503937
 21
-0.6692913386
 31
0.0
  0
LINE
  5
D6
330
1B
100
AcDbEntity
 67
     1
  8
0
  6
Continuous
 62
     7
370
    25
100
AcDbLine
 10
0.6968503937
 20
0.6692913386
 30
0.0
 11
0.657480315
 21
0.6692913386
 31
0.0
  0
LINE
  5
D7
330
1B
100
AcDbEntity
 67
     1
  8
0
  6
Continuous
 62
     7
370
    25
100
AcDbLine
 10
9.012207293
 20
-1.2779564962
 30
0.0
 11
8.3106273527
 21
-1.6354293306
 31
0.0
  0
LINE
  5
D8
330
1B
100
AcDbEntity
 67
     1
  8
0
  6
Continuous
 62
     7
370
    25
100
AcDbLine
 10
-0.1181102362
 20
1.0826771654
 30
0.0
 11
-0.1181102362
 21
-1.0826771654
 31
0.0
  0
LINE
  5
D9
330
1B
100
AcDbEntity
 67
     1
  8
0
  6
Continuous
 62
     7
370
    25
100
AcDbLine
 10
0.0
 20
1.0826771654
 30
0.0
 11
0.0
 21
-1.0826771654
 31
0.0
  0
LINE
  5
DA
330
1B
100
AcDbEntity
 67
     1
  8
0
  6
Continuous
 62
     7
370
    25
100
AcDbLine
 10
0.8937007874
 20
0.688976378
 30
0.0
 11
0.809336333
 21
0.3937007874
 31
0.0
  0
LINE
  5
DB
330
1B
100
AcDbEntity
 67
     1
  8
0
  6
Continuous
 62
     7
370
    25
100
AcDbLine
 10
0.6968503937
 20
-0.3937007874
 30
0.0
 11
0.6968503937
 21
-0.688976378
 31
0.0
  0
LINE
  5
DC
330
1B
100
AcDbEntity
 67
     1
  8
0
  6
Continuous
 62
     7
370
    25
100
AcDbLine
 10
1.8385826772
 20
0.688976378
 30
0.0
 11
1.8385826772
 21
0.3937007874
 31
0.0
  0
LINE
  5
DD
330
1B
100
AcDbEntity
 67
     1
  8
0
  6
Continuous
 62
     7
370
    25
100
AcDbLine
 10
1.8385826772
 20
-0.3937007874
 30
0.0
 11
1.8385826772
 21
-0.688976378
 31
0.0
  0
LINE
  5
DE
330
1B
100
AcDbEntity
 67
     1
  8
0
  6
Continuous
 62
     7
370
    25
100
AcDbLine
 10
1.838976378
 20
-0.4173491883
 30
0.0
 11
1.8385826772
 21
-0.4173491883
 31
0.0
  0
LINE
  5
DF
330
1B
100
AcDbEntity
 67
     1
  8
0
  6
Continuous
 62
     7
370
    25
100
AcDbLine
 10
1.838976378
 20
-0.3937007874
 30
0.0
 11
1.838976378
 21
-0.4885698286
 31
0.0
  0
LINE
  5
E0
330
1B
100
AcDbEntity
 67
     1
  8
0
  6
Continuous
 62
     7
370
    25
100
AcDbLine
 10
1.838976378
 20
-0.4885698286
 30
0.0
 11
1.8385826772
 21
-0.4885698286
 31
0.0
  0
LINE
  5
E1
330
1B
100
AcDbEntity
 67
     1
  8
0
  6
Continuous
 62
     7
370
    25
100
AcDbLine
 10
1.594488189
 20
-2.9330708661
 30
0.0
 11
1.2952755906
 21
-2.9330708661
 31
0.0
  0
LINE
  5
E2
330
1B
100
AcDbEntity
 67
     1
  8
0
  6
Continuous
 62
     7
370
    25
100
AcDbLine
 10
0.657480315
 20
0.688976378
 30
0.0
 11
0.657480315
 21
0.3937007874
 31
0.0
  0
LINE
  5
E3
330
1B
100
AcDbEntity
 67
     1
  8
0
  6
Continuous
 62
     7
370
    25
100
AcDbLine
 10
0.657480315
 20
-0.3937007874
 30
0.0
 11
0.657480315
 21
-0.688976378
 31
0.0
  0
LINE
  5
E4
330
1B
100
AcDbEntity
 67
     1
  8
0
  6
Continuous
 62
     7
370
    25
100
AcDbLine
 10
0.6968503937
 20
0.6692913386
 30
0.0
 11
0.6968503937
 21
0.3937007874
 31
0.0
  0
LINE
  5
E5
330
1B
100
AcDbEntity
 67
     1
  8
0
  6
Continuous
 62
     8
370
    25
100
AcDbLine
 10
8.4890448162
 20
-0.2511923231
 30
0.0
 11
7.7874648759
 21
-0.6086651576
 31
0.0
  0
LINE
  5
E6
330
1B
100
AcDbEntity
 67
     1
  8
0
  6
Continuous
 62
     8
370
    25
100
AcDbLine
 10
7.4366749057
 20
0.3937007874
 30
0.0
 11
7.4366749057
 21
-0.3937007874
 31
0.0
  0
LINE
  5
E7
330
1B
100
AcDbEntity
 67
     1
  8
0
  6
Continuous
 62
     8
370
    25
100
AcDbLine
 10
1.2874015748
 20
-2.9251968504
 30
0.0
 11
1.6023622047
 21
-2.9251968504
 31
0.0
  0
ARC
  5
E8
330
1B
100
AcDbEntity
 67
     1
  8
0
  6
Continuous
 62
     7
370
    25
100
AcDbCircle
 10
7.4366749057
 20
-0.7874015748
 30
0.0
 40
0.3937007874015759
100
AcDbArc
 50
27.0
 51
90.0
  0
ARC
  5
E9
330
1B
100
AcDbEntity
 67
     1
  8
0
  6
Continuous
 62
     7
370
    25
100
AcDbCircle
 10
7.4366749057
 20
-0.7874015748
 30
0.0
 40
1.181102362204723
100
AcDbArc
 50
27.0
 51
90.0
  0
ARC
  5
EA
330
1B
100
AcDbEntity
 67
     1
  8
0
  6
Continuous
 62
     7
370
    25
100
AcDbCircle
 10
1.594488189
 20
-2.9251968504
 30
0.0
 40
0.0078740157480315
100
AcDbArc
 50
270.0
 51
0.0
  0
ARC
  5
EB
330
1B
100
AcDbEntity
 67
     1
  8
0
  6
Continuous
 62
     7
370
    25
100
AcDbCircle
 10
1.2952755906
 20
-2.9251968504
 30
0.0
 40
0.0078740157480319
100
AcDbArc
 50
180.0
 51
270.0
  0
ARC
  5
EC
330
1B
100
AcDbEntity
 67
     1
  8
0
  6
Continuous
 62
     7
370
    25
100
AcDbCircle
 10
0.6128608924
 20
0.0
 30
0.0
 40
0.6745406824147313
100
AcDbArc
 50
67.1784977333
 51
82.84733125
  0
VIEWPORT
  5
19A
330
1B
100
AcDbEntity
 67
     1
  8
0
100
AcDbViewport
 10
0.0
 20
0.0
 30
0.0
 40
8.4
 41
6.4
 68
     1
 69
     1
 12
1.968503937
 22
-0.9251968504
 13
0.0
 23
0.0
 14
0.5
 24
0.5
 15
0.5
 25
0.5
 16
0.0
 26
0.0
 36
1.0
 17
0.0
 27
0.0
 37
0.0
 42
50.0
 43
0.0
 44
0.0
 45
4.7424071991
 50
0.0
 51
0.0
 72
   100
 90
   557152
  1

281
     0
 71
     1
 74
     0
110
0.0
120
0.0
130
0.0
111
1.0
121
0.0
131
0.0
112
0.0
122
1.0
132
0.0
 79
     0
146
0.0
  0
ENDSEC
  0
SECTION
  2
OBJECTS
  0
DICTIONARY
  5
C
330
0
100
AcDbDictionary
281
     1
  3
ACAD_GROUP
350
D
  3
ACAD_LAYOUT
350
1A
  3
ACAD_MLINESTYLE
350
17
  3
ACAD_PLOTSETTINGS
350
19
  3
ACAD_PLOTSTYLENAME
350
E
  3
ACAD_SCALELIST
350
47
  0
DICTIONARY
  5
D
102
{ACAD_REACTORS
330
C
102
}
330
C
100
AcDbDictionary
281
     1
  0
DICTIONARY
  5
1A
102
{ACAD_REACTORS
330
C
102
}
330
C
100
AcDbDictionary
281
     1
  3
_Isometric
350
131
  3
_Left
350
1E
  3
_Top
350
26
  3
Model
350
22
  0
DICTIONARY
  5
17
102
{ACAD_REACTORS
330
C
102
}
330
C
100
AcDbDictionary
281
     1
  3
Standard
350
18
  0
DICTIONARY
  5
19
102
{ACAD_REACTORS
330
C
102
}
330
C
100
AcDbDictionary
281
     1
  0
ACDBDICTIONARYWDFLT
  5
E
102
{ACAD_REACTORS
330
C
102
}
330
C
100
AcDbDictionary
281
     1
  3
Normal
350
F
100
AcDbDictionaryWithDefault
340
F
  0
DICTIONARY
  5
47
102
{ACAD_REACTORS
330
C
102
}
330
C
100
AcDbDictionary
281
     1
  3
A0
350
48
  3
A1
350
49
  3
A2
350
4A
  3
A3
350
4B
  3
A4
350
4C
  3
A5
350
4D
  3
A6
350
4E
  3
A7
350
4F
  3
A8
350
50
  3
A9
350
51
  3
B0
350
52
  3
B1
350
53
  3
B2
350
54
  3
B3
350
55
  3
B4
350
56
  3
B5
350
57
  3
B6
350
58
  3
B7
350
59
  3
B8
350
5A
  3
B9
350
5B
  3
C0
350
5C
  3
C1
350
5D
  3
C2
350
5E
  3
C3
350
5F
  3
C4
350
60
  3
C5
350
61
  3
C6
350
62
  3
C7
350
63
  3
C8
350
64
  3
C9
350
65
  3
D0
350
66
  3
D1
350
67
  3
D2
350
68
  0
LAYOUT
  5
131
102
{ACAD_REACTORS
330
1A
102
}
330
1A
100
AcDbPlotSettings
  1

  2
none_device
  4
Letter_(8.50_x_11.00_Inches)
  6

 40
6.35
 41
6.35
 42
6.35001
 43
6.35001
 44
215.9
 45
279.4
 46
0.0
 47
0.0
 48
0.0
 49
0.0
140
0.0
141
0.0
142
1.0
143
0.869554083
 70
   688
 72
     0
 73
     1
 74
     1
  7

 75
     0
147
1.1500147254
148
3.0
149
74.5
100
AcDbLayout
  1
_Isometric
 70
     1
 71
     3
 10
0.0
 20
0.0
 11
0.0
 21
0.0
 12
0.0
 22
0.0
 32
0.0
 14
0.0
 24
0.0
 34
0.0
 15
0.0
 25
0.0
 35
0.0
146
0.0
 13
0.0
 23
0.0
 33
0.0
 16
1.0
 26
0.0
 36
0.0
 17
0.0
 27
1.0
 37
0.0
 76
     0
330
130
331
19E
  0
LAYOUT
  5
1E
102
{ACAD_REACTORS
330
1A
102
}
330
1A
100
AcDbPlotSettings
  1

  2
none_device
  4
Letter_(8.50_x_11.00_Inches)
  6

 40
6.35
 41
6.35
 42
6.35001
 43
6.35001
 44
215.9
 45
279.4
 46
0.0
 47
0.0
 48
0.0
 49
0.0
140
0.0
141
0.0
142
1.0
143
0.869554083
 70
   688
 72
     0
 73
     1
 74
     1
  7

 75
     0
147
1.1500147254
148
3.0
149
74.5
100
AcDbLayout
  1
_Left
 70
     1
 71
     1
 10
-0.3354990993
 20
-3.1504593869
 11
9.2295958137
 21
4.2407503186
 12
0.0
 22
0.0
 32
0.0
 14
-0.1181102362
 24
-2.9330708661
 34
0.0
 15
9.012207293
 25
1.0826771654
 35
0.0
146
0.0
 13
0.0
 23
0.0
 33
0.0
 16
1.0
 26
0.0
 36
0.0
 17
0.0
 27
1.0
 37
0.0
 76
     0
330
1B
331
19A
  0
LAYOUT
  5
26
102
{ACAD_REACTORS
330
1A
102
}
330
1A
100
AcDbPlotSettings
  1

  2
none_device
  4
Letter_(8.50_x_11.00_Inches)
  6

 40
6.35
 41
6.35
 42
6.35001
 43
6.35001
 44
215.9
 45
279.4
 46
0.0
 47
0.0
 48
0.0
 49
0.0
140
0.0
141
0.0
142
1.0
143
0.869554083
 70
   688
 72
     0
 73
     1
 74
     1
  7

 75
     0
147
1.1500147254
148
3.0
149
74.5
100
AcDbLayout
  1
_Top
 70
     1
 71
     2
 10
0.0
 20
0.0
 11
0.0
 21
0.0
 12
0.0
 22
0.0
 32
0.0
 14
0.0
 24
0.0
 34
0.0
 15
0.0
 25
0.0
 35
0.0
146
0.0
 13
0.0
 23
0.0
 33
0.0
 16
1.0
 26
0.0
 36
0.0
 17
0.0
 27
1.0
 37
0.0
 76
     0
330
23
331
19C
  0
LAYOUT
  5
22
102
{ACAD_REACTORS
330
1A
102
}
330
1A
100
AcDbPlotSettings
  1

  2
none_device
  4
ANSI_A_(11.00_x_8.50_Inches)
  6

 40
6.35
 41
19.05
 42
6.35000508
 43
19.05000254
 44
279.4
 45
215.9
 46
44.1222555245
 47
130.8370374397
 48
0.0
 49
0.0
140
0.0
141
0.0
142
1.7845548387
143
1.0
 70
  1696
 72
     0
 73
     0
 74
     0
  7

 75
     0
147
0.5913241897
148
-39.4088153714
149
0.0
100
AcDbLayout
  1
Model
 70
     1
 71
     0
 10
0.0
 20
0.0
 11
12.0
 21
9.0
 12
0.0
 22
0.0
 32
0.0
 14
-1.0826771654
 24
-2.9330708661
 34
0.0
 15
5.0196850394
 25
1.0826771654
 35
0.0
146
0.0
 13
0.0
 23
0.0
 33
0.0
 16
1.0
 26
0.0
 36
0.0
 17
0.0
 27
1.0
 37
0.0
 76
     0
330
1F
331
29
  0
MLINESTYLE
  5
18
102
{ACAD_REACTORS
330
17
102
}
330
17
100
AcDbMlineStyle
  2
Standard
 70
     0
  3

 62
   256
 51
90.0
 52
90.0
 71
     2
 49
0.5
 62
   256
  6
BYLAYER
 49
-0.5
 62
   256
  6
BYLAYER
  0
ACDBPLACEHOLDER
  5
F
102
{ACAD_REACTORS
330
E
102
}
330
E
  0
SCALE
  5
48
102
{ACAD_REACTORS
330
47
102
}
330
47
100
AcDbScale
 70
     0
300
1:1
140
1.0
141
1.0
290
     1
  0
SCALE
  5
49
102
{ACAD_REACTORS
330
47
102
}
330
47
100
AcDbScale
 70
     0
300
1:2
140
1.0
141
2.0
290
     0
  0
SCALE
  5
4A
102
{ACAD_REACTORS
330
47
102
}
330
47
100
AcDbScale
 70
     0
300
1:4
140
1.0
141
4.0
290
     0
  0
SCALE
  5
4B
102
{ACAD_REACTORS
330
47
102
}
330
47
100
AcDbScale
 70
     0
300
1:5
140
1.0
141
5.0
290
     0
  0
SCALE
  5
4C
102
{ACAD_REACTORS
330
47
102
}
330
47
100
AcDbScale
 70
     0
300
1:8
140
1.0
141
8.0
290
     0
  0
SCALE
  5
4D
102
{ACAD_REACTORS
330
47
102
}
330
47
100
AcDbScale
 70
     0
300
1:10
140
1.0
141
10.0
290
     0
  0
SCALE
  5
4E
102
{ACAD_REACTORS
330
47
102
}
330
47
100
AcDbScale
 70
     0
300
1:16
140
1.0
141
16.0
290
     0
  0
SCALE
  5
4F
102
{ACAD_REACTORS
330
47
102
}
330
47
100
AcDbScale
 70
     0
300
1:20
140
1.0
141
20.0
290
     0
  0
SCALE
  5
50
102
{ACAD_REACTORS
330
47
102
}
330
47
100
AcDbScale
 70
     0
300
1:30
140
1.0
141
30.0
290
     0
  0
SCALE
  5
51
102
{ACAD_REACTORS
330
47
102
}
330
47
100
AcDbScale
 70
     0
300
1:40
140
1.0
141
40.0
290
     0
  0
SCALE
  5
52
102
{ACAD_REACTORS
330
47
102
}
330
47
100
AcDbScale
 70
     0
300
1:50
140
1.0
141
50.0
290
     0
  0
SCALE
  5
53
102
{ACAD_REACTORS
330
47
102
}
330
47
100
AcDbScale
 70
     0
300
1:100
140
1.0
141
100.0
290
     0
  0
SCALE
  5
54
102
{ACAD_REACTORS
330
47
102
}
330
47
100
AcDbScale
 70
     0
300
2:1
140
2.0
141
1.0
290
     0
  0
SCALE
  5
55
102
{ACAD_REACTORS
330
47
102
}
330
47
100
AcDbScale
 70
     0
300
4:1
140
4.0
141
1.0
290
     0
  0
SCALE
  5
56
102
{ACAD_REACTORS
330
47
102
}
330
47
100
AcDbScale
 70
     0
300
8:1
140
8.0
141
1.0
290
     0
  0
SCALE
  5
57
102
{ACAD_REACTORS
330
47
102
}
330
47
100
AcDbScale
 70
     0
300
10:1
140
10.0
141
1.0
290
     0
  0
SCALE
  5
58
102
{ACAD_REACTORS
330
47
102
}
330
47
100
AcDbScale
 70
     0
300
100:1
140
100.0
141
1.0
290
     0
  0
SCALE
  5
59
102
{ACAD_REACTORS
330
47
102
}
330
47
100
AcDbScale
 70
     0
300
1/128" = 1'-0"
140
0.0078125
141
12.0
290
     0
  0
SCALE
  5
5A
102
{ACAD_REACTORS
330
47
102
}
330
47
100
AcDbScale
 70
     0
300
1/64" = 1'-0"
140
0.015625
141
12.0
290
     0
  0
SCALE
  5
5B
102
{ACAD_REACTORS
330
47
102
}
330
47
100
AcDbScale
 70
     0
300
1/32" = 1'-0"
140
0.03125
141
12.0
290
     0
  0
SCALE
  5
5C
102
{ACAD_REACTORS
330
47
102
}
330
47
100
AcDbScale
 70
     0
300
1/16" = 1'-0"
140
0.0625
141
12.0
290
     0
  0
SCALE
  5
5D
102
{ACAD_REACTORS
330
47
102
}
330
47
100
AcDbScale
 70
     0
300
3/32" = 1'-0"
140
0.09375
141
12.0
290
     0
  0
SCALE
  5
5E
102
{ACAD_REACTORS
330
47
102
}
330
47
100
AcDbScale
 70
     0
300
1/8" = 1'-0"
140
0.125
141
12.0
290
     0
  0
SCALE
  5
5F
102
{ACAD_REACTORS
330
47
102
}
330
47
100
AcDbScale
 70
     0
300
3/16" = 1'-0"
140
0.1875
141
12.0
290
     0
  0
SCALE
  5
60
102
{ACAD_REACTORS
330
47
102
}
330
47
100
AcDbScale
 70
     0
300
1/4" = 1'-0"
140
0.25
141
12.0
290
     0
  0
SCALE
  5
61
102
{ACAD_REACTORS
330
47
102
}
330
47
100
AcDbScale
 70
     0
300
3/8" = 1'-0"
140
0.375
141
12.0
290
     0
  0
SCALE
  5
62
102
{ACAD_REACTORS
330
47
102
}
330
47
100
AcDbScale
 70
     0
300
1/2" = 1'-0"
140
0.5
141
12.0
290
     0
  0
SCALE
  5
63
102
{ACAD_REACTORS
330
47
102
}
330
47
100
AcDbScale
 70
     0
300
3/4" = 1'-0"
140
0.75
141
12.0
290
     0
  0
SCALE
  5
64
102
{ACAD_REACTORS
330
47
102
}
330
47
100
AcDbScale
 70
     0
300
1" = 1'-0"
140
1.0
141
12.0
290
     0
  0
SCALE
  5
65
102
{ACAD_REACTORS
330
47
102
}
330
47
100
AcDbScale
 70
     0
300
1-1/2" = 1'-0"
140
1.5
141
12.0
290
     0
  0
SCALE
  5
66
102
{ACAD_REACTORS
330
47
102
}
330
47
100
AcDbScale
 70
     0
300
3" = 1'-0"
140
3.0
141
12.0
290
     0
  0
SCALE
  5
67
102
{ACAD_REACTORS
330
47
102
}
330
47
100
AcDbScale
 70
     0
300
6" = 1'-0"
140
6.0
141
12.0
290
     0
  0
SCALE
  5
68
102
{ACAD_REACTORS
330
47
102
}
330
47
100
AcDbScale
 70
     0
300
1'-0" = 1'-0"
140
12.0
141
12.0
290
     0
  0
ENDSEC
  0
EOF
