  0
SECTION
  2
HEADER
  9
$ACADVER
  1
AC1015
  9
$ACADMAINTVER
 70
     6
  9
$DWGCODEPAGE
  3
ANSI_1252
  9
$INSBASE
 10
0.0
 20
0.0
 30
0.0
  9
$EXTMIN
 10
-5.8070866142
 20
-1.6354293306
 30
0.0
  9
$EXTMAX
 10
5.8070866142
 20
1.062992126
 30
0.0
  9
$LIMMIN
 10
0.0
 20
0.0
  9
$LIMMAX
 10
12.0
 20
9.0
  9
$ORTHOMODE
 70
     0
  9
$REGENMODE
 70
     1
  9
$FILLMODE
 70
     1
  9
$QTEXTMODE
 70
     0
  9
$MIRRTEXT
 70
     1
  9
$LTSCALE
 40
1.0
  9
$ATTMODE
 70
     1
  9
$TEXTSIZE
 40
0.1377952756
  9
$TRACEWID
 40
0.05
  9
$TEXTSTYLE
  7
Standard
  9
$CLAYER
  8
0
  9
$CELTYPE
  6
ByLayer
  9
$CECOLOR
 62
   256
  9
$CELTSCALE
 40
1.0
  9
$DISPSILH
 70
     0
  9
$DIMSCALE
 40
1.0
  9
$DIMASZ
 40
0.13
  9
$DIMEXO
 40
0.0393700787
  9
$DIMDLI
 40
0.38
  9
$DIMRND
 40
0.0
  9
$DIMDLE
 40
0.0
  9
$DIMEXE
 40
0.0393700787
  9
$DIMTP
 40
0.0
  9
$DIMTM
 40
0.0
  9
$DIMTXT
 40
0.1377952756
  9
$DIMCEN
 40
0.09
  9
$DIMTSZ
 40
0.0
  9
$DIMTOL
 70
     0
  9
$DIMLIM
 70
     0
  9
$DIMTIH
 70
     1
  9
$DIMTOH
 70
     1
  9
$DIMSE1
 70
     0
  9
$DIMSE2
 70
     0
  9
$DIMTAD
 70
     1
  9
$DIMZIN
 70
     1
  9
$DIMBLK
  1

  9
$DIMASO
 70
     1
  9
$DIMSHO
 70
     1
  9
$DIMPOST
  1

  9
$DIMAPOST
  1

  9
$DIMALT
 70
     0
  9
$DIMALTD
 70
     2
  9
$DIMALTF
 40
25.4
  9
$DIMLFAC
 40
1.0
  9
$DIMTOFL
 70
     0
  9
$DIMTVP
 40
0.0
  9
$DIMTIX
 70
     0
  9
$DIMSOXD
 70
     0
  9
$DIMSAH
 70
     0
  9
$DIMBLK1
  1

  9
$DIMBLK2
  1

  9
$DIMSTYLE
  2
Standard
  9
$DIMCLRD
 70
     0
  9
$DIMCLRE
 70
     0
  9
$DIMCLRT
 70
     0
  9
$DIMTFAC
 40
1.0
  9
$DIMGAP
 40
0.06
  9
$DIMJUST
 70
     0
  9
$DIMSD1
 70
     0
  9
$DIMSD2
 70
     0
  9
$DIMTOLJ
 70
     1
  9
$DIMTZIN
 70
     1
  9
$DIMALTZ
 70
     0
  9
$DIMALTTZ
 70
     0
  9
$DIMUPT
 70
     0
  9
$DIMDEC
 70
     2
  9
$DIMTDEC
 70
     2
  9
$DIMALTU
 70
     2
  9
$DIMALTTD
 70
     2
  9
$DIMTXSTY
  7
Standard
  9
$DIMAUNIT
 70
     0
  9
$DIMADEC
 70
     2
  9
$DIMALTRND
 40
0.0
  9
$DIMAZIN
 70
     0
  9
$DIMDSEP
 70
    46
  9
$DIMATFIT
 70
     3
  9
$DIMFRAC
 70
     0
  9
$DIMLDRBLK
  1

  9
$DIMLUNIT
 70
     2
  9
$DIMLWD
 70
    -2
  9
$DIMLWE
 70
    -2
  9
$DIMTMOVE
 70
     0
  9
$LUNITS
 70
     2
  9
$LUPREC
 70
     2
  9
$SKETCHINC
 40
0.1
  9
$FILLETRAD
 40
0.5
  9
$AUNITS
 70
     0
  9
$AUPREC
 70
     2
  9
$MENU
  1
.
  9
$ELEVATION
 40
0.0
  9
$PELEVATION
 40
0.0
  9
$THICKNESS
 40
0.0
  9
$LIMCHECK
 70
     0
  9
$CHAMFERA
 40
0.0
  9
$CHAMFERB
 40
0.0
  9
$CHAMFERC
 40
0.0
  9
$CHAMFERD
 40
0.0
  9
$SKPOLY
 70
     0
  9
$TDCREATE
 40
2460416.468047014
  9
$TDUCREATE
 40
2460416.426380347
  9
$TDUPDATE
 40
2460416.468076319
  9
$TDUUPDATE
 40
2460416.426409653
  9
$TDINDWG
 40
0.0000000116
  9
$TDUSRTIMER
 40
0.0000000116
  9
$USRTIMER
 70
     1
  9
$ANGBASE
 50
0.0
  9
$ANGDIR
 70
     0
  9
$PDMODE
 70
     0
  9
$PDSIZE
 40
-1.0
  9
$PLINEWID
 40
0.0
  9
$SPLFRAME
 70
     0
  9
$SPLINETYPE
 70
     6
  9
$SPLINESEGS
 70
     8
  9
$HANDSEED
  5
1C6
  9
$SURFTAB1
 70
     6
  9
$SURFTAB2
 70
     6
  9
$SURFTYPE
 70
     6
  9
$SURFU
 70
     6
  9
$SURFV
 70
     6
  9
$UCSBASE
  2

  9
$UCSNAME
  2

  9
$UCSORG
 10
0.0
 20
0.0
 30
0.0
  9
$UCSXDIR
 10
1.0
 20
0.0
 30
0.0
  9
$UCSYDIR
 10
0.0
 20
1.0
 30
0.0
  9
$UCSORTHOREF
  2

  9
$UCSORTHOVIEW
 70
     0
  9
$UCSORGTOP
 10
0.0
 20
0.0
 30
0.0
  9
$UCSORGBOTTOM
 10
0.0
 20
0.0
 30
0.0
  9
$UCSORGLEFT
 10
0.0
 20
0.0
 30
0.0
  9
$UCSORGRIGHT
 10
0.0
 20
0.0
 30
0.0
  9
$UCSORGFRONT
 10
0.0
 20
0.0
 30
0.0
  9
$UCSORGBACK
 10
0.0
 20
0.0
 30
0.0
  9
$PUCSBASE
  2

  9
$PUCSNAME
  2

  9
$PUCSORG
 10
0.0
 20
0.0
 30
0.0
  9
$PUCSXDIR
 10
1.0
 20
0.0
 30
0.0
  9
$PUCSYDIR
 10
0.0
 20
1.0
 30
0.0
  9
$PUCSORTHOREF
  2

  9
$PUCSORTHOVIEW
 70
     0
  9
$PUCSORGTOP
 10
0.0
 20
0.0
 30
0.0
  9
$PUCSORGBOTTOM
 10
0.0
 20
0.0
 30
0.0
  9
$PUCSORGLEFT
 10
0.0
 20
0.0
 30
0.0
  9
$PUCSORGRIGHT
 10
0.0
 20
0.0
 30
0.0
  9
$PUCSORGFRONT
 10
0.0
 20
0.0
 30
0.0
  9
$PUCSORGBACK
 10
0.0
 20
0.0
 30
0.0
  9
$USERI1
 70
     0
  9
$USERI2
 70
     0
  9
$USERI3
 70
     0
  9
$USERI4
 70
     0
  9
$USERI5
 70
     0
  9
$USERR1
 40
0.0
  9
$USERR2
 40
0.0
  9
$USERR3
 40
0.0
  9
$USERR4
 40
0.0
  9
$USERR5
 40
0.0
  9
$WORLDVIEW
 70
     1
  9
$SHADEDGE
 70
     3
  9
$SHADEDIF
 70
    70
  9
$TILEMODE
 70
     1
  9
$MAXACTVP
 70
    64
  9
$PINSBASE
 10
0.0
 20
0.0
 30
0.0
  9
$PLIMCHECK
 70
     0
  9
$PEXTMIN
 10
0.0
 20
-1.6354293306
 30
0.0
  9
$PEXTMAX
 10
7.1618135922
 20
1.062992126
 30
0.0
  9
$PLIMMIN
 10
-0.1705196462
 20
-1.8059487082
  9
$PLIMMAX
 10
7.3323329698
 20
3.9917101314
  9
$UNITMODE
 70
     0
  9
$VISRETAIN
 70
     1
  9
$PLINEGEN
 70
     0
  9
$PSLTSCALE
 70
     1
  9
$TREEDEPTH
 70
  3020
  9
$CMLSTYLE
  2
Standard
  9
$CMLJUST
 70
     0
  9
$CMLSCALE
 40
1.0
  9
$PROXYGRAPHICS
 70
     1
  9
$MEASUREMENT
 70
     0
  9
$CELWEIGHT
370
    -1
  9
$ENDCAPS
280
     0
  9
$JOINSTYLE
280
     0
  9
$LWDISPLAY
290
     1
  9
$INSUNITS
 70
     1
  9
$HYPERLINKBASE
  1

  9
$STYLESHEET
  1

  9
$XEDIT
290
     1
  9
$CEPSNTYPE
380
     0
  9
$PSTYLEMODE
290
     1
  9
$FINGERPRINTGUID
  2
{c6509a94-8cb1-4a82-bcdf-808960cc9a8e}
  9
$VERSIONGUID
  2
{FAEB1C32-E019-11D5-929B-00C0DF256EC4}
  9
$EXTNAMES
290
     1
  9
$PSVPSCALE
 40
0.0
  9
$OLESTARTUP
290
     0
  0
ENDSEC
  0
SECTION
  2
CLASSES
  0
CLASS
  1
ACDBDICTIONARYWDFLT
  2
AcDbDictionaryWithDefault
  3
ObjectDBX Classes
 90
        0
280
     0
281
     0
  0
CLASS
  1
VISUALSTYLE
  2
AcDbVisualStyle
  3
ObjectDBX Classes
 90
     4095
280
     0
281
     0
  0
CLASS
  1
MATERIAL
  2
AcDbMaterial
  3
ObjectDBX Classes
 90
     1153
280
     0
281
     0
  0
CLASS
  1
SCALE
  2
AcDbScale
  3
ObjectDBX Classes
 90
     1153
280
     0
281
     0
  0
CLASS
  1
TABLESTYLE
  2
AcDbTableStyle
  3
ObjectDBX Classes
 90
     4095
280
     0
281
     0
  0
CLASS
  1
MLEADERSTYLE
  2
AcDbMLeaderStyle
  3
ACDB_MLEADERSTYLE_CLASS
 90
     4095
280
     0
281
     0
  0
CLASS
  1
SUN
  2
AcDbSun
  3
SCENEOE
 90
     1153
280
     0
281
     0
  0
CLASS
  1
ACDBPLACEHOLDER
  2
AcDbPlaceHolder
  3
ObjectDBX Classes
 90
        0
280
     0
281
     0
  0
CLASS
  1
LAYOUT
  2
AcDbLayout
  3
ObjectDBX Classes
 90
        0
280
     0
281
     0
  0
ENDSEC
  0
SECTION
  2
TABLES
  0
TABLE
  2
VPORT
  5
8
330
0
100
AcDbSymbolTable
 70
     1
  0
VPORT
  5
29
330
8
100
AcDbSymbolTableRecord
100
AcDbViewportTableRecord
  2
*Active
 70
     0
 10
0.0
 20
0.0
 11
1.0
 21
1.0
 12
0.0
 22
-0.2862186023
 13
0.0
 23
0.0
 14
0.5
 24
0.5
 15
0.5
 25
0.5
 16
0.0
 26
0.0
 36
1.0
 17
0.0
 27
0.0
 37
0.0
 40
2.7523898857
 41
4.3040619915
 42
50.0
 43
0.0
 44
0.0
 50
0.0
 51
0.0
 71
     0
 72
   100
 73
     1
 74
     3
 75
     0
 76
     0
 77
     0
 78
     0
281
     0
 65
     1
110
0.0
120
0.0
130
0.0
111
1.0
121
0.0
131
0.0
112
0.0
122
1.0
132
0.0
 79
     0
146
0.0
  0
ENDTAB
  0
TABLE
  2
LTYPE
  5
5
330
0
100
AcDbSymbolTable
 70
     6
  0
LTYPE
  5
14
330
5
100
AcDbSymbolTableRecord
100
AcDbLinetypeTableRecord
  2
ByBlock
 70
     0
  3

 72
    65
 73
     0
 40
0.0
  0
LTYPE
  5
15
330
5
100
AcDbSymbolTableRecord
100
AcDbLinetypeTableRecord
  2
ByLayer
 70
     0
  3

 72
    65
 73
     0
 40
0.0
  0
LTYPE
  5
16
330
5
100
AcDbSymbolTableRecord
100
AcDbLinetypeTableRecord
  2
Continuous
 70
     0
  3
Solid line
 72
    65
 73
     0
 40
0.0
  0
LTYPE
  5
6E
330
5
100
AcDbSymbolTableRecord
100
AcDbLinetypeTableRecord
  2
HIDDEN
 70
     0
  3
Hidden __ __ __ __ __ __ __ __ __ __ __ __ __ __
 72
    65
 73
     2
 40
0.075
 49
0.05
 74
     0
 49
-0.025
 74
     0
  0
LTYPE
  5
6F
330
5
100
AcDbSymbolTableRecord
100
AcDbLinetypeTableRecord
  2
PHANTOM
 70
     0
  3
Phantom ______  __  __  ______  __  __  ______
 72
    65
 73
     6
 40
0.5
 49
0.25
 74
     0
 49
-0.05
 74
     0
 49
0.05
 74
     0
 49
-0.05
 74
     0
 49
0.05
 74
     0
 49
-0.05
 74
     0
  0
LTYPE
  5
70
330
5
100
AcDbSymbolTableRecord
100
AcDbLinetypeTableRecord
  2
CENTER
 70
     0
  3
Center ____ _ ____ _ ____ _ ____ _ ____ _ ____
 72
    65
 73
     4
 40
0.4
 49
0.25
 74
     0
 49
-0.05
 74
     0
 49
0.05
 74
     0
 49
-0.05
 74
     0
  0
LTYPE
  5
71
330
5
100
AcDbSymbolTableRecord
100
AcDbLinetypeTableRecord
  2
CENTERX2
 70
     0
  3
Center (2x) ________  __  ________  __  _____
 72
    65
 73
     4
 40
0.8
 49
0.5
 74
     0
 49
-0.1
 74
     0
 49
0.1
 74
     0
 49
-0.1
 74
     0
  0
LTYPE
  5
72
330
5
100
AcDbSymbolTableRecord
100
AcDbLinetypeTableRecord
  2
DOT2
 70
     0
  3
Dot (.5x) ........................................
 72
    65
 73
     2
 40
0.025
 49
0.0
 74
     0
 49
-0.025
 74
     0
  0
ENDTAB
  0
TABLE
  2
LAYER
  5
2
330
0
100
AcDbSymbolTable
 70
     1
  0
LAYER
  5
10
330
2
100
AcDbSymbolTableRecord
100
AcDbLayerTableRecord
  2
0
 70
     0
 62
     7
  6
Continuous
370
    -3
390
F
  0
ENDTAB
  0
TABLE
  2
STYLE
  5
3
330
0
100
AcDbSymbolTable
 70
     1
  0
STYLE
  5
11
330
3
100
AcDbSymbolTableRecord
100
AcDbTextStyleTableRecord
  2
Standard
 70
     0
 40
0.0
 41
1.0
 50
0.0
 71
     0
 42
0.1377952756
  3
txt
  4

  0
ENDTAB
  0
TABLE
  2
VIEW
  5
6
330
0
100
AcDbSymbolTable
 70
     0
  0
ENDTAB
  0
TABLE
  2
UCS
  5
7
330
0
100
AcDbSymbolTable
 70
     0
  0
ENDTAB
  0
TABLE
  2
APPID
  5
9
330
0
100
AcDbSymbolTable
 70
     1
  0
APPID
  5
12
330
9
100
AcDbSymbolTableRecord
100
AcDbRegAppTableRecord
  2
ACAD
 70
     0
  0
ENDTAB
  0
TABLE
  2
DIMSTYLE
  5
A
330
0
100
AcDbSymbolTable
 70
     1
100
AcDbDimStyleTable
  0
DIMSTYLE
105
27
330
A
100
AcDbSymbolTableRecord
100
AcDbDimStyleTableRecord
  2
Standard
 70
     0
178
     0
340
11
  0
ENDTAB
  0
TABLE
  2
BLOCK_RECORD
  5
1
330
0
100
AcDbSymbolTable
 70
     2
  0
BLOCK_RECORD
  5
1F
330
1
100
AcDbSymbolTableRecord
100
AcDbBlockTableRecord
  2
*Model_Space
340
22
  0
BLOCK_RECORD
  5
1B
330
1
100
AcDbSymbolTableRecord
100
AcDbBlockTableRecord
  2
*Paper_Space
340
1E
  0
BLOCK_RECORD
  5
23
330
1
100
AcDbSymbolTableRecord
100
AcDbBlockTableRecord
  2
*Paper_Space0
340
26
  0
BLOCK_RECORD
  5
149
330
1
100
AcDbSymbolTableRecord
100
AcDbBlockTableRecord
  2
*Paper_Space1
340
14A
  0
ENDTAB
  0
ENDSEC
  0
SECTION
  2
BLOCKS
  0
BLOCK
  5
20
330
1F
100
AcDbEntity
  8
0
100
AcDbBlockBegin
  2
*Model_Space
 70
     0
 10
0.0
 20
0.0
 30
0.0
  3
*Model_Space
  1

  0
ENDBLK
  5
21
330
1F
100
AcDbEntity
  8
0
100
AcDbBlockEnd
  0
BLOCK
  5
1C
330
1B
100
AcDbEntity
 67
     1
  8
0
100
AcDbBlockBegin
  2
*Paper_Space
 70
     0
 10
0.0
 20
0.0
 30
0.0
  3
*Paper_Space
  1

  0
ENDBLK
  5
1D
330
1B
100
AcDbEntity
 67
     1
  8
0
100
AcDbBlockEnd
  0
BLOCK
  5
24
330
23
100
AcDbEntity
  8
0
100
AcDbBlockBegin
  2
*Paper_Space0
 70
     0
 10
0.0
 20
0.0
 30
0.0
  3
*Paper_Space0
  1

  0
LWPOLYLINE
  5
FC
330
23
100
AcDbEntity
  8
0
  6
Continuous
 62
     7
370
    25
100
AcDbPolyline
 90
       22
 70
   128
 43
0.0
 10
0.3937007874
 20
-6.811023622
 10
0.3888536774
 20
-6.8658992634
 10
0.3744316993
 20
-6.9194236843
 10
0.3507899702
 20
-6.9702789359
 10
0.3185106277
 20
-7.0172127932
 10
0.2783884965
 20
-7.0590695887
 10
0.2314115167
 20
-7.0948186694
 10
0.1787364172
 20
-7.1235797741
 10
0.121660234
 20
-7.144644709
 10
0.0615883721
 20
-7.1574947856
 10
0.0
 20
-7.1618135922
 10
-0.0615883721
 20
-7.1574947856
 10
-0.121660234
 20
-7.144644709
 10
-0.1787364172
 20
-7.1235797741
 10
-0.2314115167
 20
-7.0948186694
 10
-0.2783884965
 20
-7.0590695887
 10
-0.3185106277
 20
-7.0172127932
 10
-0.3507899702
 20
-6.9702789359
 10
-0.3744316993
 20
-6.9194236843
 10
-0.3888536774
 20
-6.8658992634
 10
-0.3937007874
 20
-6.811023622
 10
-0.3937007874
 20
-6.811023622
  0
SPLINE
  5
102
330
23
100
AcDbEntity
  8
0
  6
Continuous
 62
     7
370
    25
100
AcDbSpline
210
0.0
220
0.0
230
1.0
 70
     8
 71
     3
 72
    18
 73
    14
 74
     0
 42
0.000000001
 43
0.00000001
 40
0.0
 40
0.0
 40
0.0
 40
0.0
 40
0.0330029326330741
 40
0.1375027406844306
 40
0.2428448565922488
 40
0.3505724432690546
 40
0.4586463946040424
 40
0.5643144484768812
 40
0.6686170781491747
 40
0.7746755551339407
 40
0.8828942679740953
 40
0.990356251952922
 40
1.0
 40
1.0
 40
1.0
 40
1.0
 10
-4.625556228765395
 20
-1.769762820012711
 30
0.0
 10
-4.625678480513973
 20
-1.770303479831048
 30
0.0
 10
-4.626187827688355
 20
-1.772556073793704
 30
0.0
 10
-4.623067957406795
 20
-1.758905035224045
 30
0.0
 10
-4.617385350191031
 20
-1.730101978107197
 30
0.0
 10
-4.611097482279032
 20
-1.686874656688381
 30
0.0
 10
-4.607369883258868
 20
-1.635487902532235
 30
0.0
 10
-4.607847979254407
 20
-1.582047618316963
 30
0.0
 10
-4.612148672413436
 20
-1.532838010170418
 30
0.0
 10
-4.618554897309395
 20
-1.491761107675665
 30
0.0
 10
-4.623907394045122
 20
-1.465647746750668
 30
0.0
 10
-4.626513693967805
 20
-1.454329340278913
 30
0.0
 10
-4.625876632289209
 20
-1.457172983425668
 30
0.0
 10
-4.625824169764851
 20
-1.457407159648886
 30
0.0
  0
SPLINE
  5
108
330
23
100
AcDbEntity
  8
0
  6
Continuous
 62
     7
370
    25
100
AcDbSpline
210
0.0
220
0.0
230
1.0
 70
     8
 71
     3
 72
    12
 73
     8
 74
     0
 42
0.000000001
 43
0.00000001
 40
0.0
 40
0.0
 40
0.0
 40
0.0
 40
0.2109971605708302
 40
0.4218589487901402
 40
0.6362153946268254
 40
0.8529942333973072
 40
1.0
 40
1.0
 40
1.0
 40
1.0
 10
4.607745080212632
 20
-1.614173228346455
 30
0.0
 10
4.608152525064229
 20
-1.631612973137228
 30
0.0
 10
4.608967153357423
 20
-1.666481273661746
 30
0.0
 10
4.614659228426428
 20
-1.713222096169271
 30
0.0
 10
4.620894340333555
 20
-1.748752456617413
 30
0.0
 10
4.625485647208822
 20
-1.769496838597644
 30
0.0
 10
4.625535915352296
 20
-1.769686270406514
 30
0.0
 10
4.625556228765394
 20
-1.769762820012711
 30
0.0
  0
SPLINE
  5
109
330
23
100
AcDbEntity
  8
0
  6
Continuous
 62
     7
370
    25
100
AcDbSpline
210
0.0
220
0.0
230
1.0
 70
     8
 71
     3
 72
    12
 73
     8
 74
     0
 42
0.000000001
 43
0.00000001
 40
0.0
 40
0.0
 40
0.0
 40
0.0
 40
0.1908195116499242
 40
0.4001746573178209
 40
0.613854127572442
 40
0.83060944462563
 40
0.9999999999999999
 40
0.9999999999999999
 40
0.9999999999999999
 40
0.9999999999999999
 10
4.625824169764852
 20
-1.457407159648886
 30
0.0
 10
4.625565600076874
 20
-1.458507106993387
 30
0.0
 10
4.625023344018339
 20
-1.460813847262489
 30
0.0
 10
4.619823618704162
 20
-1.485020993124428
 30
0.0
 10
4.613524176115689
 20
-1.522764351364687
 30
0.0
 10
4.608603323392701
 20
-1.568317970705549
 30
0.0
 10
4.608006770142658
 20
-1.600191341345163
 30
0.0
 10
4.607745080212633
 20
-1.614173228346455
 30
0.0
  0
LWPOLYLINE
  5
110
330
23
100
AcDbEntity
  8
0
  6
Continuous
 62
     8
370
    25
100
AcDbPolyline
 90
       22
 70
   128
 43
0.0
 10
0.3937007874
 20
-6.2878611453
 10
0.3888536774
 20
-6.3427367866
 10
0.3744316993
 20
-6.3962612075
 10
0.3507899702
 20
-6.4471164591
 10
0.3185106277
 20
-6.4940503164
 10
0.2783884965
 20
-6.5359071119
 10
0.2314115167
 20
-6.5716561926
 10
0.1787364172
 20
-6.6004172973
 10
0.121660234
 20
-6.6214822322
 10
0.0615883721
 20
-6.6343323088
 10
0.0
 20
-6.6386511154
 10
-0.0615883721
 20
-6.6343323088
 10
-0.121660234
 20
-6.6214822322
 10
-0.1787364172
 20
-6.6004172973
 10
-0.2314115167
 20
-6.5716561926
 10
-0.2783884965
 20
-6.5359071119
 10
-0.3185106277
 20
-6.4940503164
 10
-0.3507899702
 20
-6.4471164591
 10
-0.3744316993
 20
-6.3962612075
 10
-0.3888536774
 20
-6.3427367866
 10
-0.3937007874
 20
-6.2878611453
 10
-0.3937007874
 20
-6.2878611453
  0
LINE
  5
114
330
23
100
AcDbEntity
  8
0
  6
Continuous
 62
     7
370
    25
100
AcDbLine
 10
-1.062992126
 20
-0.0196850394
 30
0.0
 11
-1.062992126
 21
-0.0984251969
 31
0.0
  0
LINE
  5
115
330
23
100
AcDbEntity
  8
0
  6
Continuous
 62
     7
370
    25
100
AcDbLine
 10
1.062992126
 20
-0.0984251969
 30
0.0
 11
1.062992126
 21
-0.0196850394
 31
0.0
  0
LINE
  5
116
330
23
100
AcDbEntity
  8
0
  6
Continuous
 62
     7
370
    25
100
AcDbLine
 10
0.3937007874
 20
-6.811023622
 30
0.0
 11
0.3937007874
 21
-0.1181102362
 31
0.0
  0
LINE
  5
117
330
23
100
AcDbEntity
  8
0
  6
Continuous
 62
     7
370
    25
100
AcDbLine
 10
-0.3937007874
 20
-0.1181102362
 30
0.0
 11
-0.3937007874
 21
-6.811023622
 31
0.0
  0
LINE
  5
118
330
23
100
AcDbEntity
  8
0
  6
Continuous
 62
     7
370
    25
100
AcDbLine
 10
-2.874015748
 20
-0.1968503937
 30
0.0
 11
-2.874015748
 21
0.0
 31
0.0
  0
LINE
  5
119
330
23
100
AcDbEntity
  8
0
  6
Continuous
 62
     7
370
    25
100
AcDbLine
 10
-5.0
 20
0.0
 30
0.0
 11
-5.0
 21
-0.1968503937
 31
0.0
  0
LINE
  5
11A
330
23
100
AcDbEntity
  8
0
  6
Continuous
 62
     7
370
    25
100
AcDbLine
 10
-3.2480314961
 20
-0.8267716535
 30
0.0
 11
-3.2480314961
 21
-0.1968503937
 31
0.0
  0
LINE
  5
11B
330
23
100
AcDbEntity
  8
0
  6
Continuous
 62
     7
370
    25
100
AcDbLine
 10
-4.625984252
 20
-0.1968503937
 30
0.0
 11
-4.625984252
 21
-0.8267716535
 31
0.0
  0
LINE
  5
11C
330
23
100
AcDbEntity
  8
0
  6
Continuous
 62
     7
370
    25
100
AcDbLine
 10
-4.625984252
 20
-1.76976282
 30
0.0
 11
-4.625984252
 21
-2.0078740157
 31
0.0
  0
LINE
  5
11D
330
23
100
AcDbEntity
  8
0
  6
Continuous
 62
     7
370
    25
100
AcDbLine
 10
-4.625984252
 20
-0.8661417323
 30
0.0
 11
-4.625984252
 21
-1.4574071596
 31
0.0
  0
LINE
  5
11E
330
23
100
AcDbEntity
  8
0
  6
Continuous
 62
     7
370
    25
100
AcDbLine
 10
-3.2480314961
 20
-2.0078740157
 30
0.0
 11
-3.2480314961
 21
-0.8661417323
 31
0.0
  0
LINE
  5
11F
330
23
100
AcDbEntity
  8
0
  6
Continuous
 62
     7
370
    25
100
AcDbLine
 10
-3.2677165354
 20
-0.8661417323
 30
0.0
 11
-3.2677165354
 21
-0.8267716535
 31
0.0
  0
LINE
  5
120
330
23
100
AcDbEntity
  8
0
  6
Continuous
 62
     7
370
    25
100
AcDbLine
 10
-4.6062992126
 20
-0.8267716535
 30
0.0
 11
-4.6062992126
 21
-0.8661417323
 31
0.0
  0
LINE
  5
121
330
23
100
AcDbEntity
  8
0
  6
Continuous
 62
     7
370
    25
100
AcDbLine
 10
-5.7992125984
 20
-1.7716535433
 30
0.0
 11
-4.6255578934
 21
-1.7716535433
 31
0.0
  0
LINE
  5
122
330
23
100
AcDbEntity
  8
0
  6
Continuous
 62
     7
370
    25
100
AcDbLine
 10
-4.6258269373
 20
-1.4566929134
 30
0.0
 11
-5.7992125984
 21
-1.4566929134
 31
0.0
  0
LINE
  5
123
330
23
100
AcDbEntity
  8
0
  6
Continuous
 62
     7
370
    25
100
AcDbLine
 10
5.0
 20
-0.1968503937
 30
0.0
 11
5.0
 21
0.0
 31
0.0
  0
LINE
  5
124
330
23
100
AcDbEntity
  8
0
  6
Continuous
 62
     7
370
    25
100
AcDbLine
 10
2.874015748
 20
0.0
 30
0.0
 11
2.874015748
 21
-0.1968503937
 31
0.0
  0
LINE
  5
125
330
23
100
AcDbEntity
  8
0
  6
Continuous
 62
     7
370
    25
100
AcDbLine
 10
3.2480314961
 20
-0.8661417323
 30
0.0
 11
3.2480314961
 21
-2.0078740157
 31
0.0
  0
LINE
  5
126
330
23
100
AcDbEntity
  8
0
  6
Continuous
 62
     7
370
    25
100
AcDbLine
 10
4.625984252
 20
-1.4574071596
 30
0.0
 11
4.625984252
 21
-0.8661417323
 31
0.0
  0
LINE
  5
127
330
23
100
AcDbEntity
  8
0
  6
Continuous
 62
     7
370
    25
100
AcDbLine
 10
4.625984252
 20
-2.0078740157
 30
0.0
 11
4.625984252
 21
-1.76976282
 31
0.0
  0
LINE
  5
128
330
23
100
AcDbEntity
  8
0
  6
Continuous
 62
     7
370
    25
100
AcDbLine
 10
4.625984252
 20
-0.8267716535
 30
0.0
 11
4.625984252
 21
-0.1968503937
 31
0.0
  0
LINE
  5
129
330
23
100
AcDbEntity
  8
0
  6
Continuous
 62
     7
370
    25
100
AcDbLine
 10
3.2480314961
 20
-0.1968503937
 30
0.0
 11
3.2480314961
 21
-0.8267716535
 31
0.0
  0
LINE
  5
12A
330
23
100
AcDbEntity
  8
0
  6
Continuous
 62
     7
370
    25
100
AcDbLine
 10
4.6062992126
 20
-0.8661417323
 30
0.0
 11
4.6062992126
 21
-0.8267716535
 31
0.0
  0
LINE
  5
12B
330
23
100
AcDbEntity
  8
0
  6
Continuous
 62
     7
370
    25
100
AcDbLine
 10
3.2677165354
 20
-0.8267716535
 30
0.0
 11
3.2677165354
 21
-0.8661417323
 31
0.0
  0
LINE
  5
12C
330
23
100
AcDbEntity
  8
0
  6
Continuous
 62
     7
370
    25
100
AcDbLine
 10
5.7992125984
 20
-1.4566929134
 30
0.0
 11
4.6258269373
 21
-1.4566929134
 31
0.0
  0
LINE
  5
12D
330
23
100
AcDbEntity
  8
0
  6
Continuous
 62
     7
370
    25
100
AcDbLine
 10
4.6255578934
 20
-1.7716535433
 30
0.0
 11
5.7992125984
 21
-1.7716535433
 31
0.0
  0
LINE
  5
12E
330
23
100
AcDbEntity
  8
0
  6
Continuous
 62
     7
370
    25
100
AcDbLine
 10
1.0433070866
 20
-0.1181102362
 30
0.0
 11
-1.0433070865
 21
-0.1181102362
 31
0.0
  0
LINE
  5
12F
330
23
100
AcDbEntity
  8
0
  6
Continuous
 62
     7
370
    25
100
AcDbLine
 10
-1.0433070865
 20
0.0
 30
0.0
 11
1.0433070866
 21
0.0
 31
0.0
  0
LINE
  5
130
330
23
100
AcDbEntity
  8
0
  6
Continuous
 62
     7
370
    25
100
AcDbLine
 10
-5.0
 20
-0.1968503937
 30
0.0
 11
-2.874015748
 21
-0.1968503937
 31
0.0
  0
LINE
  5
131
330
23
100
AcDbEntity
  8
0
  6
Continuous
 62
     7
370
    25
100
AcDbLine
 10
-5.0
 20
0.0
 30
0.0
 11
-2.874015748
 21
0.0
 31
0.0
  0
LINE
  5
132
330
23
100
AcDbEntity
  8
0
  6
Continuous
 62
     7
370
    25
100
AcDbLine
 10
-4.625984252
 20
-0.8267716535
 30
0.0
 11
-3.2480314961
 21
-0.8267716535
 31
0.0
  0
LINE
  5
133
330
23
100
AcDbEntity
  8
0
  6
Continuous
 62
     7
370
    25
100
AcDbLine
 10
-3.2480314961
 20
-0.8661417323
 30
0.0
 11
-4.625984252
 21
-0.8661417323
 31
0.0
  0
LINE
  5
134
330
23
100
AcDbEntity
  8
0
  6
Continuous
 62
     7
370
    25
100
AcDbLine
 10
-3.2480314961
 20
-2.0078740157
 30
0.0
 11
-4.625984252
 21
-2.0078740157
 31
0.0
  0
LINE
  5
135
330
23
100
AcDbEntity
  8
0
  6
Continuous
 62
     7
370
    25
100
AcDbLine
 10
-5.8070866142
 20
-1.7637795276
 30
0.0
 11
-5.8070866142
 21
-1.4645669291
 31
0.0
  0
LINE
  5
136
330
23
100
AcDbEntity
  8
0
  6
Continuous
 62
     7
370
    25
100
AcDbLine
 10
2.874015748
 20
-0.1968503937
 30
0.0
 11
5.0
 21
-0.1968503937
 31
0.0
  0
LINE
  5
137
330
23
100
AcDbEntity
  8
0
  6
Continuous
 62
     7
370
    25
100
AcDbLine
 10
2.874015748
 20
0.0
 30
0.0
 11
5.0
 21
0.0
 31
0.0
  0
LINE
  5
138
330
23
100
AcDbEntity
  8
0
  6
Continuous
 62
     7
370
    25
100
AcDbLine
 10
4.625984252
 20
-0.8661417323
 30
0.0
 11
3.2480314961
 21
-0.8661417323
 31
0.0
  0
LINE
  5
139
330
23
100
AcDbEntity
  8
0
  6
Continuous
 62
     7
370
    25
100
AcDbLine
 10
4.625984252
 20
-2.0078740157
 30
0.0
 11
3.2480314961
 21
-2.0078740157
 31
0.0
  0
LINE
  5
13A
330
23
100
AcDbEntity
  8
0
  6
Continuous
 62
     7
370
    25
100
AcDbLine
 10
3.2480314961
 20
-0.8267716535
 30
0.0
 11
4.625984252
 21
-0.8267716535
 31
0.0
  0
LINE
  5
13B
330
23
100
AcDbEntity
  8
0
  6
Continuous
 62
     7
370
    25
100
AcDbLine
 10
5.8070866142
 20
-1.4645669291
 30
0.0
 11
5.8070866142
 21
-1.7637795276
 31
0.0
  0
LINE
  5
13C
330
23
100
AcDbEntity
  8
0
  6
Continuous
 62
     8
370
    25
100
AcDbLine
 10
-1.062992126
 20
-0.0984251969
 30
0.0
 11
1.062992126
 21
-0.0984251969
 31
0.0
  0
LINE
  5
13D
330
23
100
AcDbEntity
  8
0
  6
Continuous
 62
     8
370
    25
100
AcDbLine
 10
1.062992126
 20
-0.0196850394
 30
0.0
 11
-1.062992126
 21
-0.0196850394
 31
0.0
  0
LINE
  5
13E
330
23
100
AcDbEntity
  8
0
  6
Continuous
 62
     8
370
    25
100
AcDbLine
 10
0.3937007874
 20
-5.586281205
 30
0.0
 11
-0.3937007874
 21
-5.586281205
 31
0.0
  0
LINE
  5
13F
330
23
100
AcDbEntity
  8
0
  6
Continuous
 62
     8
370
    25
100
AcDbLine
 10
-5.7992125984
 20
-1.4566929134
 30
0.0
 11
-5.7992125984
 21
-1.7716535433
 31
0.0
  0
LINE
  5
140
330
23
100
AcDbEntity
  8
0
  6
Continuous
 62
     8
370
    25
100
AcDbLine
 10
5.7992125984
 20
-1.7716535433
 30
0.0
 11
5.7992125984
 21
-1.4566929134
 31
0.0
  0
ARC
  5
141
330
23
100
AcDbEntity
  8
0
  6
Continuous
 62
     7
370
    25
100
AcDbCircle
 10
1.0433070866
 20
-0.0984251969
 30
0.0
 40
0.0196850393700794
100
AcDbArc
 50
270.0
 51
360.0
  0
ARC
  5
142
330
23
100
AcDbEntity
  8
0
  6
Continuous
 62
     7
370
    25
100
AcDbCircle
 10
-1.0433070866
 20
-0.0984251969
 30
0.0
 40
0.0196850393700794
100
AcDbArc
 50
180.0
 51
270.0
  0
ARC
  5
143
330
23
100
AcDbEntity
  8
0
  6
Continuous
 62
     7
370
    25
100
AcDbCircle
 10
1.0433070866
 20
-0.0196850394
 30
0.0
 40
0.0196850393700788
100
AcDbArc
 50
0.0
 51
90.0
  0
ARC
  5
144
330
23
100
AcDbEntity
  8
0
  6
Continuous
 62
     7
370
    25
100
AcDbCircle
 10
-1.0433070866
 20
-0.0196850394
 30
0.0
 40
0.0196850393700788
100
AcDbArc
 50
90.0
 51
180.0
  0
ARC
  5
145
330
23
100
AcDbEntity
  8
0
  6
Continuous
 62
     7
370
    25
100
AcDbCircle
 10
-5.7992125984
 20
-1.7637795276
 30
0.0
 40
0.0078740157480306
100
AcDbArc
 50
180.0
 51
270.0
  0
ARC
  5
146
330
23
100
AcDbEntity
  8
0
  6
Continuous
 62
     7
370
    25
100
AcDbCircle
 10
-5.7992125984
 20
-1.4645669291
 30
0.0
 40
0.0078740157480315
100
AcDbArc
 50
90.0
 51
180.0
  0
ARC
  5
147
330
23
100
AcDbEntity
  8
0
  6
Continuous
 62
     7
370
    25
100
AcDbCircle
 10
5.7992125984
 20
-1.4645669291
 30
0.0
 40
0.0078740157480306
100
AcDbArc
 50
360.0
 51
90.0
  0
ARC
  5
148
330
23
100
AcDbEntity
  8
0
  6
Continuous
 62
     7
370
    25
100
AcDbCircle
 10
5.7992125984
 20
-1.7637795276
 30
0.0
 40
0.007874015748031
100
AcDbArc
 50
270.0
 51
0.0
  0
VIEWPORT
  5
1C2
330
23
100
AcDbEntity
  8
0
100
AcDbViewport
 10
0.0
 20
0.0
 30
0.0
 40
8.4
 41
6.4
 68
     1
 69
     1
 12
0.0
 22
-0.2862186023
 13
0.0
 23
0.0
 14
0.5
 24
0.5
 15
0.5
 25
0.5
 16
0.0
 26
0.0
 36
1.0
 17
0.0
 27
0.0
 37
0.0
 42
50.0
 43
0.0
 44
0.0
 45
9.025871766
 50
0.0
 51
0.0
 72
   100
 90
   557152
  1

281
     0
 71
     1
 74
     0
110
0.0
120
0.0
130
0.0
111
1.0
121
0.0
131
0.0
112
0.0
122
1.0
132
0.0
 79
     0
146
0.0
  0
ENDBLK
  5
25
330
23
100
AcDbEntity
  8
0
100
AcDbBlockEnd
  0
BLOCK
  5
14B
330
149
100
AcDbEntity
  8
0
100
AcDbBlockBegin
  2
*Paper_Space1
 70
     0
 10
0.0
 20
0.0
 30
0.0
  3
*Paper_Space1
  1

  0
SPLINE
  5
14D
330
149
100
AcDbEntity
  8
0
  6
Continuous
 62
     7
370
    25
100
AcDbSpline
210
0.0
220
0.0
230
1.0
 70
     8
 71
     3
 72
    16
 73
    12
 74
     0
 42
0.000000001
 43
0.00000001
 40
0.0
 40
0.0
 40
0.0
 40
0.0
 40
0.1112363895443161
 40
0.2243235126575636
 40
0.3376809450817547
 40
0.4511922522367066
 40
0.5647693557858322
 40
0.6783467316360241
 40
0.7918944352649648
 40
0.9054021012838648
 40
1.0
 40
1.0
 40
1.0
 40
1.0
 10
-0.768895308409614
 20
0.6877555834645154
 30
0.0
 10
-0.7770073770958665
 20
0.6681766355062673
 30
0.0
 10
-0.7933664817923984
 20
0.6286929881303865
 30
0.0
 10
-0.8105261348183214
 20
0.5624994903940026
 30
0.0
 10
-0.8221703374953977
 20
0.4915390321437247
 30
0.0
 10
-0.8275830497639151
 20
0.4161552443322537
 30
0.0
 10
-0.826859623137835
 20
0.3371268014296215
 30
0.0
 10
-0.8200346652890123
 20
0.2550764070101012
 30
0.0
 10
-0.8069899555923135
 20
0.1706684689291485
 30
0.0
 10
-0.7896124303175839
 20
0.0894113386470069
 30
0.0
 10
-0.7738887899014005
 20
0.0361669687366049
 30
0.0
 10
-0.7667413436260796
 20
0.0119638412594437
 30
0.0
  0
SPLINE
  5
14E
330
149
100
AcDbEntity
  8
0
  6
Continuous
 62
     7
370
    25
100
AcDbSpline
210
0.0
220
0.0
230
1.0
 70
     8
 71
     3
 72
    17
 73
    13
 74
     0
 42
0.000000001
 43
0.00000001
 40
0.0
 40
0.0
 40
0.0
 40
0.0
 40
0.080987562386106
 40
0.1951791422854653
 40
0.3094235369614561
 40
0.4237264859823918
 40
0.538088692850793
 40
0.6525018511630742
 40
0.7669400195708903
 40
0.8813377977796665
 40
0.9956055523845116
 40
0.9999999999999999
 40
0.9999999999999999
 40
0.9999999999999999
 40
0.9999999999999999
 10
-0.3729153392394117
 20
-0.6698736402738623
 30
0.0
 10
-0.3581847030073358
 20
-0.6855673521995181
 30
0.0
 10
-0.3226840303066472
 20
-0.7233890268206349
 30
0.0
 10
-0.2638671828711233
 20
-0.7771566591126984
 30
0.0
 10
-0.1974680441278073
 20
-0.8314607218836076
 30
0.0
 10
-0.1298988095015012
 20
-0.8792160061467005
 30
0.0
 10
-0.0617867645917996
 20
-0.9202800898191054
 30
0.0
 10
0.006343963593701
 20
-0.9541533788973322
 30
0.0
 10
0.074033695342556
 20
-0.9808636098888551
 30
0.0
 10
0.1404104812684843
 20
-0.9989775503027433
 30
0.0
 10
0.1851072919050551
 20
-1.008306833787203
 30
0.0
 10
0.2068553694091698
 20
-1.009302104882932
 30
0.0
 10
0.2076607715131354
 20
-1.009338963011398
 30
0.0
  0
SPLINE
  5
151
330
149
100
AcDbEntity
  8
0
  6
Continuous
 62
     7
370
    25
100
AcDbSpline
210
0.0
220
0.0
230
1.0
 70
     8
 71
     3
 72
    12
 73
     8
 74
     0
 42
0.000000001
 43
0.00000001
 40
0.0
 40
0.0
 40
0.0
 40
0.0
 40
0.2316748346927154
 40
0.4644754429317089
 40
0.6978091638689113
 40
0.9314405507888894
 40
1.0
 40
1.0
 40
1.0
 40
1.0
 10
0.6874543377477177
 20
-0.7314373794755364
 30
0.0
 10
0.6954903712644628
 20
-0.7114588808324223
 30
0.0
 10
0.7116014876576389
 20
-0.6714048023707752
 30
0.0
 10
0.7283102239040402
 20
-0.6045089586095285
 30
0.0
 10
0.7393613941442937
 20
-0.5331122193787783
 30
0.0
 10
0.743196329713081
 20
-0.4752840362491952
 30
0.0
 10
0.743439875887969
 20
-0.441567194831862
 30
0.0
 10
0.7434951303484336
 20
-0.4339176972286057
 30
0.0
  0
SPLINE
  5
152
330
149
100
AcDbEntity
  8
0
  6
Continuous
 62
     7
370
    25
100
AcDbSpline
210
0.0
220
0.0
230
1.0
 70
     8
 71
     3
 72
    30
 73
    26
 74
     0
 42
0.000000001
 43
0.00000001
 40
0.0
 40
0.0
 40
0.0
 40
0.0
 40
0.0243089424055247
 40
0.0704438362455427
 40
0.1165734836374953
 40
0.1626870657388423
 40
0.208783853799953
 40
0.2548654038010923
 40
0.3009345261451151
 40
0.3469946853367108
 40
0.393049671485286
 40
0.4391034345882585
 40
0.4851595388879829
 40
0.5312211908570607
 40
0.5772924975571772
 40
0.6233775284447753
 40
0.6694801769707655
 40
0.7156038779321422
 40
0.7617510762074928
 40
0.8079222938339187
 40
0.8541145911870156
 40
0.90031874537945
 40
0.946509144950494
 40
0.9926509099890691
 40
1.0
 40
1.0
 40
1.0
 40
1.0
 10
0.7434951303484336
 20
-0.4339176972286057
 30
0.0
 10
0.7433234244799528
 20
-0.4200270049409007
 30
0.0
 10
0.7428258454458733
 20
-0.3797737665840581
 30
0.0
 10
0.737307219041398
 20
-0.3107516048341057
 30
0.0
 10
0.7249955839957307
 20
-0.2265799579657438
 30
0.0
 10
0.7066437102335161
 20
-0.1406277067732934
 30
0.0
 10
0.6825183941820029
 20
-0.0536477375657346
 30
0.0
 10
0.6527950141935125
 20
0.0336834259046066
 30
0.0
 10
0.6177266692036754
 20
0.1206663154751405
 30
0.0
 10
0.5775969522793036
 20
0.2066098983738055
 30
0.0
 10
0.5327301491298506
 20
0.2908294630678804
 30
0.0
 10
0.4834857460434137
 20
0.3726534626398273
 30
0.0
 10
0.4302567508904915
 20
0.4514280358232701
 30
0.0
 10
0.3734660420194302
 20
0.5265228769487587
 30
0.0
 10
0.3135626816930877
 20
0.5973362931475281
 30
0.0
 10
0.2510178313258233
 20
0.6632999729293615
 30
0.0
 10
0.1863213514031014
 20
0.7238819289645926
 30
0.0
 10
0.1199773233069939
 20
0.7785920527451319
 30
0.0
 10
0.052502525261437
 20
0.8269770425286053
 30
0.0
 10
-0.0155847195580059
 20
0.8686519805061694
 30
0.0
 10
-0.0837363673118285
 20
0.9031920443134941
 30
0.0
 10
-0.1514836733846448
 20
0.9305431649016662
 30
0.0
 10
-0.2180192648048856
 20
0.9494968499938671
 30
0.0
 10
-0.2653731412376422
 20
0.9595166969216059
 30
0.0
 10
-0.28969811823964
 20
0.9607694219597099
 30
0.0
 10
-0.2930401183878158
 20
0.9609415334179291
 30
0.0
  0
SPLINE
  5
153
330
149
100
AcDbEntity
  8
0
  6
Continuous
 62
     7
370
    25
100
AcDbSpline
210
0.0
220
0.0
230
1.0
 70
     8
 71
     3
 72
    19
 73
    15
 74
     0
 42
0.000000001
 43
0.00000001
 40
0.0
 40
0.0
 40
0.0
 40
0.0
 40
0.0521582156593418
 40
0.1422302887018475
 40
0.2323413693178621
 40
0.3223788823763921
 40
0.4121246833721747
 40
0.5015203986724054
 40
0.590613307428971
 40
0.6795135899685156
 40
0.7683663288207164
 40
0.8573312255165785
 40
0.9465277757653581
 40
0.9999999999999999
 40
0.9999999999999999
 40
0.9999999999999999
 40
0.9999999999999999
 10
-4.146931717828251
 20
-1.939378526277296
 30
0.0
 10
-4.162338922169758
 20
-1.94856544672272
 30
0.0
 10
-4.204352842582474
 20
-1.973617268966175
 30
0.0
 10
-4.270905899152931
 20
-2.020309811753242
 30
0.0
 10
-4.34560255300807
 20
-2.080768205177817
 30
0.0
 10
-4.417067470958102
 20
-2.147331304067367
 30
0.0
 10
-4.484932769440821
 20
-2.219241018362509
 30
0.0
 10
-4.548802466695389
 20
-2.295895069057678
 30
0.0
 10
-4.60836486258799
 20
-2.37670262918132
 30
0.0
 10
-4.663325912030345
 20
-2.461133340439501
 30
0.0
 10
-4.713439673183276
 20
-2.548682753919215
 30
0.0
 10
-4.758302605436292
 20
-2.638872796225001
 30
0.0
 10
-4.792681176256542
 20
-2.718724084720485
 30
0.0
 10
-4.810802328520349
 20
-2.76851434485646
 30
0.0
 10
-4.817594132268217
 20
-2.787175723033513
 30
0.0
  0
SPLINE
  5
154
330
149
100
AcDbEntity
  8
0
  6
Continuous
 62
     7
370
    25
100
AcDbSpline
210
0.0
220
0.0
230
1.0
 70
     8
 71
     3
 72
    18
 73
    14
 74
     0
 42
0.000000001
 43
0.00000001
 40
0.0
 40
0.0
 40
0.0
 40
0.0
 40
0.0500438314768514
 40
0.148798111938141
 40
0.24831019503843
 40
0.3483712444224697
 40
0.4484905574351112
 40
0.5480596213698292
 40
0.6466368073285327
 40
0.743831646516462
 40
0.8393446705530621
 40
0.9330307997445735
 40
1.0
 40
1.0
 40
1.0
 40
1.0
 10
-4.074784377681254
 20
-3.048393847391176
 30
0.0
 10
-4.071518229028706
 20
-3.039399077146292
 30
0.0
 10
-4.061806807291681
 20
-3.012654425702584
 30
0.0
 10
-4.042327957921453
 20
-2.967347076465411
 30
0.0
 10
-4.015155359690633
 20
-2.913414954066324
 30
0.0
 10
-3.984250238838995
 20
-2.860718167580534
 30
0.0
 10
-3.950407124090499
 20
-2.81055698731659
 30
0.0
 10
-3.914521181556255
 20
-2.764127543943802
 30
0.0
 10
-3.87767691587916
 20
-2.722489840299709
 30
0.0
 10
-3.84102286642107
 20
-2.686436764321221
 30
0.0
 10
-3.805942151141491
 20
-2.656688347091641
 30
0.0
 10
-3.776269614039685
 20
-2.635157345369905
 30
0.0
 10
-3.760031701810301
 20
-2.625381730869535
 30
0.0
 10
-3.753262925451849
 20
-2.621306764372321
 30
0.0
  0
LWPOLYLINE
  5
16F
330
149
100
AcDbEntity
  8
0
  6
Continuous
 62
     7
370
    25
100
AcDbPolyline
 90
       17
 70
   128
 43
0.0
 10
-4.5377324934
 20
-4.1304469398
 10
-4.5799628559
 20
-4.1280378706
 10
-4.6280082154
 20
-4.1217309007
 10
-4.6806855357
 20
-4.1116813288
 10
-4.7366977263
 20
-4.0981366085
 10
-4.7946655813
 20
-4.0814302559
 10
-4.8531617397
 20
-4.0619736368
 10
-4.9107458319
 20
-4.0402458377
 10
-4.9659999464
 20
-4.0167818692
 10
-5.0175635437
 20
-3.9921594921
 10
-5.0641669566
 20
-3.966984991
 10
-5.1046626547
 20
-3.9418782456
 10
-5.1380534994
 20
-3.9174574673
 10
-5.1635172972
 20
-3.8943239768
 10
-5.1804270451
 20
-3.8730473974
 10
-5.1883663687
 20
-3.8541516291
 10
-5.1875258673
 20
-3.8391276194
  0
LWPOLYLINE
  5
170
330
149
100
AcDbEntity
  8
0
  6
Continuous
 62
     7
370
    25
100
AcDbPolyline
 90
        6
 70
   128
 43
0.0
 10
-4.4447161127
 20
-4.1003457438
 10
-4.4451022041
 20
-4.1013714149
 10
-4.4554645109
 20
-4.1141798116
 10
-4.4747073772
 20
-4.1234315391
 10
-4.5023569797
 20
-4.1288987891
 10
-4.5377324934
 20
-4.1304469398
  0
LWPOLYLINE
  5
171
330
149
100
AcDbEntity
  8
0
  6
Continuous
 62
     7
370
    25
100
AcDbPolyline
 90
       16
 70
   128
 43
0.0
 10
0.1948719476
 20
-0.2089233357
 10
0.1914445232
 20
-0.1566553064
 10
0.1812466447
 20
-0.1017170695
 10
0.1645294177
 20
-0.0454613868
 10
0.1417044758
 20
0.0107265401
 10
0.1133338447
 20
0.0654631781
 10
0.0801161037
 20
0.1174007294
 10
0.0428691837
 20
0.1652603191
 10
0.0025102275
 20
0.2078634853
 10
-0.0399669934
 20
0.2441611967
 10
-0.083516549
 20
0.2732596831
 10
-0.1270661045
 20
0.2944424433
 10
-0.1695433254
 20
0.3071878873
 10
-0.2099022816
 20
0.31118218
 10
-0.2471492016
 20
0.3063269688
 10
-0.2803509451
 20
0.2927510416
  0
LWPOLYLINE
  5
173
330
149
100
AcDbEntity
  8
0
  6
Continuous
 62
     7
370
    25
100
AcDbPolyline
 90
       29
 70
   128
 43
0.0
 10
-3.0518794643
 20
0.6568528059
 10
-3.0467845662
 20
0.6598823364
 10
-3.0091025751
 20
0.6886207983
 10
-2.9768565437
 20
0.7252894876
 10
-2.9504991358
 20
0.7693736565
 10
-2.9304003515
 20
0.8202544597
 10
-2.9168423337
 20
0.8772176423
 10
-2.9100154073
 20
0.939463566
 10
-2.9100154073
 20
1.0061184347
 10
-2.9168423337
 20
1.07624656
 10
-2.9304003515
 20
1.1488634967
 10
-2.9504991358
 20
1.2229498623
 10
-2.9768565437
 20
1.2974656466
 10
-3.0091025751
 20
1.3713648113
 10
-3.0467845662
 20
1.4436099741
 10
-3.0893735446
 20
1.5131869713
 10
-3.1362716544
 20
1.5791190944
 10
-3.1868205488
 20
1.6404808009
 10
-3.2403106322
 20
1.6964107069
 10
-3.2959910212
 20
1.7461236791
 10
-3.353080085
 20
1.7889218565
 10
-3.4107764184
 20
1.8242044464
 10
-3.4682700914
 20
1.8514761586
 10
-3.5247540187
 20
1.870354158
 10
-3.5794352899
 20
1.8805734389
 10
-3.6315462997
 20
1.8819905449
 10
-3.6803555239
 20
1.8745855831
 10
-3.7251777879
 20
1.8584625029
 10
-3.740799851
 20
1.8502272225
  0
LWPOLYLINE
  5
174
330
149
100
AcDbEntity
  8
0
  6
Continuous
 62
     7
370
    25
100
AcDbPolyline
 90
       54
 70
   128
 43
0.0
 10
-4.6908461665
 20
1.0687232172
 10
-4.6874266978
 20
1.0002113951
 10
-4.6772162935
 20
0.9287132943
 10
-4.6603582852
 20
0.8552325913
 10
-4.6370893226
 20
0.7808007942
 10
-4.6077360507
 20
0.7064627622
 10
-4.5727105253
 20
0.6332620383
 10
-4.5325044278
 20
0.5622262003
 10
-4.4876821638
 20
0.4943524356
 10
-4.4388729397
 20
0.4305935431
 10
-4.3867619298
 20
0.3718445579
 10
-4.3320806586
 20
0.3189301869
 10
-4.2755967313
 20
0.272593232
 10
-4.2181030584
 20
0.2334841623
 10
-4.160406725
 20
0.2021519836
 10
-4.1033176611
 20
0.1790365309
 10
-4.0476372722
 20
0.1644622945
 10
-3.9941471887
 20
0.1586338647
 10
-3.9435982943
 20
0.16163306
 10
-3.8967001846
 20
0.1734177781
 10
-3.8541112062
 20
0.1938225875
 10
-3.816429215
 20
0.2225610494
 10
-3.7841831837
 20
0.2592297388
 10
-3.7578257757
 20
0.3033139076
 10
-3.7377269914
 20
0.3541947108
 10
-3.7241689736
 20
0.4111578934
 10
-3.7173420472
 20
0.4734038172
 10
-3.7173420472
 20
0.5400586858
 10
-3.7241689736
 20
0.6101868111
 10
-3.7377269914
 20
0.6828037478
 10
-3.7578257757
 20
0.7568901134
 10
-3.7841831837
 20
0.8314058977
 10
-3.816429215
 20
0.9053050624
 10
-3.8541112062
 20
0.9775502252
 10
-3.8967001846
 20
1.0471272224
 10
-3.9435982943
 20
1.1130593455
 10
-3.9941471887
 20
1.174421052
 10
-4.0476372722
 20
1.230350958
 10
-4.1033176611
 20
1.2800639303
 10
-4.160406725
 20
1.3228621076
 10
-4.2181030584
 20
1.3581446975
 10
-4.2755967313
 20
1.3854164097
 10
-4.3320806586
 20
1.4042944091
 10
-4.3867619298
 20
1.41451369
 10
-4.4388729397
 20
1.4159307961
 10
-4.4876821638
 20
1.4085258343
 10
-4.5325044278
 20
1.392402754
 10
-4.5727105253
 20
1.3677878881
 10
-4.6077360507
 20
1.3350267751
 10
-4.6370893226
 20
1.2945793094
 10
-4.6603582852
 20
1.2470132847
 10
-4.6772162935
 20
1.1929964237
 10
-4.6874266978
 20
1.1332870048
 10
-4.6908461665
 20
1.0687232172
  0
LWPOLYLINE
  5
175
330
149
100
AcDbEntity
  8
0
  6
Continuous
 62
     7
370
    25
100
AcDbPolyline
 90
       19
 70
   128
 43
0.0
 10
-2.1714302729
 20
1.092829756
 10
-2.1748337975
 20
1.0122881616
 10
-2.1850135485
 20
0.9364055901
 10
-2.2018773364
 20
0.865869246
 10
-2.2252724402
 20
0.8013179173
 10
-2.2549869902
 20
0.7433361909
 10
-2.2907518868
 20
0.6924491581
 10
-2.3322432376
 20
0.6491176598
 10
-2.3790852905
 20
0.6137341129
 10
-2.4308538366
 20
0.5866189562
 10
-2.487080052
 20
0.5680177487
 10
-2.5472547433
 20
0.5580989459
 10
-2.6108329591
 20
0.556952374
 10
-2.6772389254
 20
0.5645884165
 10
-2.7458712594
 20
0.5809379202
 10
-2.8161084161
 20
0.6058528215
 10
-2.8873143169
 20
0.6391074872
 10
-2.9588441102
 20
0.6804007579
 10
-2.9833937444
 20
0.6963887704
  0
LWPOLYLINE
  5
176
330
149
100
AcDbEntity
  8
0
  6
Continuous
 62
     7
370
    25
100
AcDbPolyline
 90
       36
 70
   128
 43
0.0
 10
-3.6723141311
 20
1.8897631871
 10
-3.6747281542
 20
1.9606651504
 10
-3.6713246296
 20
2.0412067449
 10
-3.6611448786
 20
2.1170893163
 10
-3.6442810907
 20
2.1876256604
 10
-3.6208859869
 20
2.2521769891
 10
-3.5911714369
 20
2.3101587156
 10
-3.5554065403
 20
2.3610457484
 10
-3.5139151895
 20
2.4043772466
 10
-3.4670731366
 20
2.4397607935
 10
-3.4153045905
 20
2.4668759502
 10
-3.3590783752
 20
2.4854771577
 10
-3.2989036839
 20
2.4953959605
 10
-3.235325468
 20
2.4965425324
 10
-3.1689195017
 20
2.4889064899
 10
-3.1002871677
 20
2.4725569862
 10
-3.030050011
 20
2.4476420849
 10
-2.9588441102
 20
2.4143874192
 10
-2.8873143169
 20
2.3730941485
 10
-2.8161084161
 20
2.3241362311
 10
-2.7458712594
 20
2.2679570374
 10
-2.6772389254
 20
2.205065335
 10
-2.6108329591
 20
2.1360306808
 10
-2.5472547433
 20
2.0614782633
 10
-2.487080052
 20
1.9820832408
 10
-2.4308538366
 20
1.8985646269
 10
-2.3790852905
 20
1.8116787791
 10
-2.3322432376
 20
1.722212549
 10
-2.2907518868
 20
1.6309761569
 10
-2.2549869902
 20
1.5387958534
 10
-2.2252724402
 20
1.4465064377
 10
-2.2018773364
 20
1.3549436971
 10
-2.1850135485
 20
1.264936838
 10
-2.1748337975
 20
1.1773009763
 10
-2.1714302729
 20
1.092829756
 10
-2.1714302729
 20
1.092829756
  0
LWPOLYLINE
  5
177
330
149
100
AcDbEntity
  8
0
  6
Continuous
 62
     7
370
    25
100
AcDbPolyline
 90
       10
 70
   128
 43
0.0
 10
-2.0322360247
 20
1.1731848851
 10
-2.0356395493
 20
1.0926432907
 10
-2.0458193002
 20
1.0167607193
 10
-2.0626830881
 20
0.9462243752
 10
-2.0860781919
 20
0.8816730465
 10
-2.1157927419
 20
0.82369132
 10
-2.1515576385
 20
0.7728042872
 10
-2.1930489894
 20
0.7294727889
 10
-2.2398910423
 20
0.694089242
 10
-2.2524320956
 20
0.6864994609
  0
LWPOLYLINE
  5
178
330
149
100
AcDbEntity
  8
0
  6
Continuous
 62
     7
370
    25
100
AcDbPolyline
 90
       26
 70
   128
 43
0.0
 10
-3.315337835
 20
2.5277057038
 10
-3.2761103422
 20
2.5472310793
 10
-3.2198841269
 20
2.5658322868
 10
-3.1597094356
 20
2.5757510896
 10
-3.0961312197
 20
2.5768976616
 10
-3.0297252534
 20
2.5692616191
 10
-2.9610929194
 20
2.5529121153
 10
-2.8908557627
 20
2.527997214
 10
-2.8196498619
 20
2.4947425483
 10
-2.7481200687
 20
2.4534492776
 10
-2.6769141679
 20
2.4044913602
 10
-2.6066770112
 20
2.3483121666
 10
-2.5380446772
 20
2.2854204641
 10
-2.4716387109
 20
2.2163858099
 10
-2.408060495
 20
2.1418333924
 10
-2.3478858037
 20
2.0624383699
 10
-2.2916595884
 20
1.978919756
 10
-2.2398910423
 20
1.8920339082
 10
-2.1930489894
 20
1.8025676782
 10
-2.1515576385
 20
1.711331286
 10
-2.1157927419
 20
1.6191509825
 10
-2.0860781919
 20
1.5268615668
 10
-2.0626830881
 20
1.4352988263
 10
-2.0458193002
 20
1.3452919671
 10
-2.0356395493
 20
1.2576561054
 10
-2.0322360247
 20
1.1731848851
  0
LWPOLYLINE
  5
179
330
149
100
AcDbEntity
  8
0
  6
Continuous
 62
     7
370
    25
100
AcDbPolyline
 90
        8
 70
   128
 43
0.0
 10
-2.4358993446
 20
1.2455045013
 10
-2.4393188134
 20
1.1809407138
 10
-2.4495292177
 20
1.1212312948
 10
-2.4663872259
 20
1.0672144338
 10
-2.4896561886
 20
1.0196484091
 10
-2.5190094604
 20
0.9792009434
 10
-2.5540349859
 20
0.9464398305
 10
-2.5786190202
 20
0.9300602449
  0
LWPOLYLINE
  5
17A
330
149
100
AcDbEntity
  8
0
  6
Continuous
 62
     7
370
    25
100
AcDbPolyline
 90
       21
 70
   128
 43
0.0
 10
-3.2675394069
 20
2.1234346615
 10
-3.2300453266
 20
2.1408099405
 10
-3.1831472169
 20
2.1525946586
 10
-3.1325983224
 20
2.1555938538
 10
-3.079108239
 20
2.1497654241
 10
-3.02342785
 20
2.1351911877
 10
-2.9663387862
 20
2.112075735
 10
-2.9086424528
 20
2.0807435562
 10
-2.8511487799
 20
2.0416344866
 10
-2.7946648525
 20
1.9952975316
 10
-2.7399835814
 20
1.9423831606
 10
-2.6878725715
 20
1.8836341754
 10
-2.6390633473
 20
1.8198752829
 10
-2.5942410834
 20
1.7520015182
 10
-2.5540349859
 20
1.6809656802
 10
-2.5190094604
 20
1.6077649564
 10
-2.4896561886
 20
1.5334269244
 10
-2.4663872259
 20
1.4589951273
 10
-2.4495292177
 20
1.3855144243
 10
-2.4393188134
 20
1.3140163234
 10
-2.4358993446
 20
1.2455045013
  0
LWPOLYLINE
  5
17C
330
149
100
AcDbEntity
  8
0
  6
Continuous
 62
     7
370
    25
100
AcDbPolyline
 90
       18
 70
   128
 43
0.0
 10
-3.5796850492
 20
1.8806005604
 10
-3.5363212743
 20
1.8774815627
 10
-3.4817594456
 20
1.8656171487
 10
-3.4255460508
 20
1.8450616235
 10
-3.368500808
 20
1.816114733
 10
-3.3114555652
 20
1.7791985881
 10
-3.2552421705
 20
1.7348515092
 10
-3.2006803417
 20
1.6837201766
 10
-3.1485657132
 20
1.6265502004
 10
-3.0996582337
 20
1.5641752474
 10
-3.0546710843
 20
1.497504885
 10
-3.0142602789
 20
1.4275113171
 10
-2.9790150982
 20
1.3552152077
 10
-2.9494494961
 20
1.2816707967
 10
-2.9259946058
 20
1.2079505273
 10
-2.9089924523
 20
1.135129407
 10
-2.8986909654
 20
1.0642693318
 10
-2.8952403639
 20
0.996403601
  0
LWPOLYLINE
  5
17D
330
149
100
AcDbEntity
  8
0
  6
Continuous
 62
     7
370
    25
100
AcDbPolyline
 90
        8
 70
   128
 43
0.0
 10
-2.8813209391
 20
0.9883680881
 10
-2.8847404078
 20
0.9238043006
 10
-2.8949508121
 20
0.8640948816
 10
-2.9118088204
 20
0.8100780206
 10
-2.935077783
 20
0.7625119959
 10
-2.9644310549
 20
0.7220645302
 10
-2.9994565803
 20
0.6893034173
 10
-3.0382413006
 20
0.6653755302
  0
LWPOLYLINE
  5
17E
330
149
100
AcDbEntity
  8
0
  6
Continuous
 62
     7
370
    25
100
AcDbPolyline
 90
       22
 70
   128
 43
0.0
 10
-3.726599165
 20
1.8577755241
 10
-3.7180558995
 20
1.8632687179
 10
-3.6754669211
 20
1.8836735273
 10
-3.6285688113
 20
1.8954582454
 10
-3.5780199169
 20
1.8984574407
 10
-3.5245298334
 20
1.8926290109
 10
-3.4688494445
 20
1.8780547745
 10
-3.4117603807
 20
1.8549393218
 10
-3.3540640473
 20
1.823607143
 10
-3.2965703743
 20
1.7844980734
 10
-3.240086447
 20
1.7381611184
 10
-3.1854051758
 20
1.6852467475
 10
-3.133294166
 20
1.6264977622
 10
-3.0844849418
 20
1.5627388698
 10
-3.0396626778
 20
1.4948651051
 10
-2.9994565803
 20
1.4238292671
 10
-2.9644310549
 20
1.3506285432
 10
-2.935077783
 20
1.2762905112
 10
-2.9118088204
 20
1.2018587141
 10
-2.8949508121
 20
1.1283780111
 10
-2.8847404078
 20
1.0568799102
 10
-2.8813209391
 20
0.9883680881
  0
LWPOLYLINE
  5
17F
330
149
100
AcDbEntity
  8
0
  6
Continuous
 62
     7
370
    25
100
AcDbPolyline
 90
       14
 70
   128
 43
0.0
 10
-5.1633216312
 20
1.8447356926
 10
-5.1766023286
 20
1.8501660635
 10
-5.2010627334
 20
1.8515737272
 10
-5.2280988575
 20
1.8439821203
 10
-5.2560119218
 20
1.8278682512
 10
-5.283048046
 20
1.8042446137
 10
-5.3075084507
 20
1.7745955678
 10
-5.3278561989
 20
1.740784072
 10
-5.3428127668
 20
1.704934627
 10
-5.351438378
 20
1.6692997853
 10
-5.3531910538
 20
1.6361186151
 10
-5.3479606671
 20
1.6074760112
 10
-5.3360758624
 20
1.5851716938
 10
-5.3207891481
 20
1.5719643974
  0
LWPOLYLINE
  5
181
330
149
100
AcDbEntity
  8
0
  6
Continuous
 62
     7
370
    25
100
AcDbPolyline
 90
       11
 70
   128
 43
0.0
 10
2.928020269
 20
-3.1651651597
 10
2.937457635
 20
-3.1631915803
 10
2.964837488
 20
-3.1515480167
 10
2.9922173411
 20
-3.1315794749
 10
3.0177313024
 20
-3.104646778
 10
3.0396406377
 20
-3.0725853448
 10
3.0564522619
 20
-3.037580109
 10
3.0670204907
 20
-3.0020166196
 10
3.0706251167
 20
-2.9683184696
 10
3.0670204907
 20
-2.9387821322
 10
3.057861032
 20
-2.9175158049
  0
LWPOLYLINE
  5
183
330
149
100
AcDbEntity
  8
0
  6
Continuous
 62
     7
370
    25
100
AcDbPolyline
 90
       11
 70
   128
 43
0.0
 10
2.8805359596
 20
-3.1625598101
 10
2.8734689088
 20
-3.1576716953
 10
2.858512341
 20
-3.1390907359
 10
2.8498867298
 20
-3.113414813
 10
2.8481340539
 20
-3.0822572392
 10
2.8533644406
 20
-3.0475757594
 10
2.8652492454
 20
-3.0115495385
 10
2.8830417023
 20
-2.9764422366
 10
2.9056238457
 20
-2.9444597745
 10
2.9315767566
 20
-2.9176117279
 10
2.9592697181
 20
-2.8975850583
  0
SPLINE
  5
184
330
149
100
AcDbEntity
  8
0
  6
Continuous
 62
     7
370
    25
100
AcDbSpline
210
0.0
220
0.0
230
1.0
 70
     8
 71
     3
 72
    15
 73
    11
 74
     0
 42
0.000000001
 43
0.00000001
 40
0.0
 40
0.0
 40
0.0
 40
0.0
 40
0.1406225033700454
 40
0.2811547856257102
 40
0.424016139520287
 40
0.5684919367446926
 40
0.7104843988938596
 40
0.8498623063039747
 40
0.9903636522028099
 40
1.0
 40
1.0
 40
1.0
 40
1.0
 10
2.116774956423737
 20
-2.411223184868959
 30
0.0
 10
2.104726142907301
 20
-2.419896976094589
 30
0.0
 10
2.080636246197504
 20
-2.437238993582266
 30
0.0
 10
2.051688143650471
 20
-2.480085947999668
 30
0.0
 10
2.030672013665749
 20
-2.529409717622975
 30
0.0
 10
2.01908060281557
 20
-2.580376672053401
 30
0.0
 10
2.017017160692451
 20
-2.626174395265048
 30
0.0
 10
2.025409835873031
 20
-2.659514715999433
 30
0.0
 10
2.035086082406974
 20
-2.677363479982123
 30
0.0
 10
2.044203139216379
 20
-2.679323611323967
 30
0.0
 10
2.044788302929363
 20
-2.67944941921986
 30
0.0
  0
SPLINE
  5
185
330
149
100
AcDbEntity
  8
0
  6
Continuous
 62
     7
370
    25
100
AcDbSpline
210
0.0
220
0.0
230
1.0
 70
     8
 71
     3
 72
    10
 73
     6
 74
     0
 42
0.000000001
 43
0.00000001
 40
0.0
 40
0.0
 40
0.0
 40
0.0
 40
0.2280700709698104
 40
0.66137760694813
 40
1.0
 40
1.0
 40
1.0
 40
1.0
 10
2.200919126359643
 20
-2.409076874278382
 30
0.0
 10
2.195644916365591
 20
-2.405629729496447
 30
0.0
 10
2.180350299366632
 20
-2.395633396540591
 30
0.0
 10
2.149623438194816
 20
-2.396125001359965
 30
0.0
 10
2.126790901899038
 20
-2.406619544924317
 30
0.0
 10
2.116774956423737
 20
-2.411223184868959
 30
0.0
  0
LWPOLYLINE
  5
186
330
149
100
AcDbEntity
  8
0
  6
Continuous
 62
     7
370
    25
100
AcDbPolyline
 90
       21
 70
   128
 43
0.0
 10
2.6586101419
 20
-2.2419081023
 10
2.6551906731
 20
-2.1733962802
 10
2.6449802688
 20
-2.1018981794
 10
2.6281222606
 20
-2.0284174764
 10
2.6048532979
 20
-1.9539856793
 10
2.5755000261
 20
-1.8796476473
 10
2.5404745006
 20
-1.8064469234
 10
2.5002684031
 20
-1.7354110854
 10
2.4554461392
 20
-1.6675373207
 10
2.406636915
 20
-1.6037784282
 10
2.3545259051
 20
-1.545029443
 10
2.299844634
 20
-1.492115072
 10
2.2433607066
 20
-1.4457781171
 10
2.1858670337
 20
-1.4066690474
 10
2.1281707003
 20
-1.3753368687
 10
2.0710816365
 20
-1.352221416
 10
2.0154012475
 20
-1.3376471796
 10
1.9619111641
 20
-1.3318187498
 10
1.9113622696
 20
-1.3348179451
 10
1.8644641599
 20
-1.3466026632
 10
1.8269700796
 20
-1.3639779421
  0
LWPOLYLINE
  5
187
330
149
100
AcDbEntity
  8
0
  6
Continuous
 62
     7
370
    25
100
AcDbPolyline
 90
        8
 70
   128
 43
0.0
 10
2.5158904663
 20
-2.5573523588
 10
2.5404745006
 20
-2.5409727732
 10
2.5755000261
 20
-2.5082116602
 10
2.6048532979
 20
-2.4677641945
 10
2.6281222606
 20
-2.4201981698
 10
2.6449802688
 20
-2.3661813088
 10
2.6551906731
 20
-2.3064718899
 10
2.6586101419
 20
-2.2419081023
  0
LWPOLYLINE
  5
188
330
149
100
AcDbEntity
  8
0
  6
Continuous
 62
     7
370
    25
100
AcDbPolyline
 90
       54
 70
   128
 43
0.0
 10
1.8512835019
 20
-2.7079678512
 10
1.8478640332
 20
-2.6394560291
 10
1.8376536289
 20
-2.5679579283
 10
1.8207956206
 20
-2.4944772253
 10
1.797526658
 20
-2.4200454281
 10
1.7681733861
 20
-2.3457073961
 10
1.7331478607
 20
-2.2725066723
 10
1.6929417632
 20
-2.2014708343
 10
1.6481194992
 20
-2.1335970696
 10
1.599310275
 20
-2.0698381771
 10
1.5471992652
 20
-2.0110891919
 10
1.492517994
 20
-1.9581748209
 10
1.4360340667
 20
-1.911837866
 10
1.3785403938
 20
-1.8727287963
 10
1.3208440604
 20
-1.8413966176
 10
1.2637549965
 20
-1.8182811649
 10
1.2080746076
 20
-1.8037069284
 10
1.1545845241
 20
-1.7978784987
 10
1.1040356297
 20
-1.8008776939
 10
1.0571375199
 20
-1.8126624121
 10
1.0145485416
 20
-1.8330672215
 10
0.9768665504
 20
-1.8618056834
 10
0.9446205191
 20
-1.8984743727
 10
0.9182631111
 20
-1.9425585416
 10
0.8981643268
 20
-1.9934393448
 10
0.884606309
 20
-2.0504025274
 10
0.8777793826
 20
-2.1126484511
 10
0.8777793826
 20
-2.1793033198
 10
0.884606309
 20
-2.2494314451
 10
0.8981643268
 20
-2.3220483818
 10
0.9182631111
 20
-2.3961347474
 10
0.9446205191
 20
-2.4706505317
 10
0.9768665504
 20
-2.5445496964
 10
1.0145485416
 20
-2.6167948592
 10
1.0571375199
 20
-2.6863718564
 10
1.1040356297
 20
-2.7523039795
 10
1.1545845241
 20
-2.813665686
 10
1.2080746076
 20
-2.869595592
 10
1.2637549965
 20
-2.9193085642
 10
1.3208440604
 20
-2.9621067416
 10
1.3785403938
 20
-2.9973893315
 10
1.4360340667
 20
-3.0246610437
 10
1.492517994
 20
-3.0435390431
 10
1.5471992652
 20
-3.053758324
 10
1.599310275
 20
-3.05517543
 10
1.6481194992
 20
-3.0477704682
 10
1.6929417632
 20
-3.031647388
 10
1.7331478607
 20
-3.007032522
 10
1.7681733861
 20
-2.9742714091
 10
1.797526658
 20
-2.9338239434
 10
1.8207956206
 20
-2.8862579187
 10
1.8376536289
 20
-2.8322410577
 10
1.8478640332
 20
-2.7725316388
 10
1.8512835019
 20
-2.7079678512
  0
LWPOLYLINE
  5
189
330
149
100
AcDbEntity
  8
0
  6
Continuous
 62
     7
370
    25
100
AcDbPolyline
 90
       53
 70
   128
 43
0.0
 10
1.8954557995
 20
-1.3244419775
 10
1.8930417764
 20
-1.2535400142
 10
1.896445301
 20
-1.1729984198
 10
1.906625052
 20
-1.0971158484
 10
1.9234888399
 20
-1.0265795043
 10
1.9468839437
 20
-0.9620281756
 10
1.9765984937
 20
-0.9040464491
 10
2.0123633903
 20
-0.8531594163
 10
2.0538547411
 20
-0.8098279181
 10
2.100696794
 20
-0.7744443711
 10
2.1524653401
 20
-0.7473292144
 10
2.2086915555
 20
-0.728728007
 10
2.2688662467
 20
-0.7188092041
 10
2.3324444626
 20
-0.7176626322
 10
2.3988504289
 20
-0.7252986747
 10
2.4674827629
 20
-0.7416481784
 10
2.5377199196
 20
-0.7665630797
 10
2.6089258204
 20
-0.7998177454
 10
2.6804556137
 20
-0.8411110161
 10
2.7516615145
 20
-0.8900689335
 10
2.8218986712
 20
-0.9462481272
 10
2.8905310052
 20
-1.0091398297
 10
2.9569369715
 20
-1.0781744839
 10
3.0205151874
 20
-1.1527269014
 10
3.0806898786
 20
-1.2321219239
 10
3.136916094
 20
-1.3156405378
 10
3.1886846401
 20
-1.4025263856
 10
3.235526693
 20
-1.4919926156
 10
3.2770180438
 20
-1.5832290078
 10
3.3127829404
 20
-1.6754093113
 10
3.3424974904
 20
-1.7676987269
 10
3.3658925942
 20
-1.8592614675
 10
3.3827563821
 20
-1.9492683267
 10
3.3929361331
 20
-2.0369041884
 10
3.3963396577
 20
-2.1213754087
 10
3.3929361331
 20
-2.2019170031
 10
3.3827563821
 20
-2.2777995745
 10
3.3658925942
 20
-2.3483359186
 10
3.3424974904
 20
-2.4128872473
 10
3.3127829404
 20
-2.4708689738
 10
3.2770180438
 20
-2.5217560066
 10
3.235526693
 20
-2.5650875048
 10
3.1886846401
 20
-2.6004710517
 10
3.136916094
 20
-2.6275862085
 10
3.0806898786
 20
-2.6461874159
 10
3.0205151874
 20
-2.6561062187
 10
2.9569369715
 20
-2.6572527907
 10
2.8905310052
 20
-2.6496167482
 10
2.8218986712
 20
-2.6332672445
 10
2.7516615145
 20
-2.6083523432
 10
2.6804556137
 20
-2.5750976774
 10
2.6089258204
 20
-2.5338044068
 10
2.5843761862
 20
-2.5178163942
  0
LWPOLYLINE
  5
18A
330
149
100
AcDbEntity
  8
0
  6
Continuous
 62
     7
370
    25
100
AcDbPolyline
 90
       35
 70
   128
 43
0.0
 10
2.2524320956
 20
-0.6864994609
 10
2.2916595884
 20
-0.6669740853
 10
2.3478858037
 20
-0.6483728778
 10
2.408060495
 20
-0.638454075
 10
2.4716387109
 20
-0.6373075031
 10
2.5380446772
 20
-0.6449435456
 10
2.6066770112
 20
-0.6612930493
 10
2.6769141679
 20
-0.6862079506
 10
2.7481200687
 20
-0.7194626163
 10
2.8196498619
 20
-0.760755887
 10
2.8908557627
 20
-0.8097138044
 10
2.9610929194
 20
-0.8658929981
 10
3.0297252534
 20
-0.9287847006
 10
3.0961312197
 20
-0.9978193548
 10
3.1597094356
 20
-1.0723717723
 10
3.2198841269
 20
-1.1517667948
 10
3.2761103422
 20
-1.2352854087
 10
3.3278788883
 20
-1.3221712565
 10
3.3747209412
 20
-1.4116374865
 10
3.4162122921
 20
-1.5028738787
 10
3.4519771887
 20
-1.5950541822
 10
3.4816917387
 20
-1.6873435978
 10
3.5050868425
 20
-1.7789063384
 10
3.5219506304
 20
-1.8689131976
 10
3.5321303813
 20
-1.9565490593
 10
3.5355339059
 20
-2.0410202796
 10
3.5321303813
 20
-2.121561874
 10
3.5219506304
 20
-2.1974444454
 10
3.5050868425
 20
-2.2679807895
 10
3.4816917387
 20
-2.3325321182
 10
3.4519771887
 20
-2.3905138447
 10
3.4162122921
 20
-2.4414008775
 10
3.3747209412
 20
-2.4847323757
 10
3.3278788883
 20
-2.5201159226
 10
3.315337835
 20
-2.5277057038
  0
LWPOLYLINE
  5
18B
330
149
100
AcDbEntity
  8
0
  6
Continuous
 62
     7
370
    25
100
AcDbPolyline
 90
       29
 70
   128
 43
0.0
 10
2.3002305237
 20
-1.0907705031
 10
2.3158525868
 20
-1.0825352227
 10
2.3606748508
 20
-1.0664121425
 10
2.409484075
 20
-1.0590071807
 10
2.4615950848
 20
-1.0604242868
 10
2.516276356
 20
-1.0706435677
 10
2.5727602833
 20
-1.0895215671
 10
2.6302539563
 20
-1.1167932793
 10
2.6879502897
 20
-1.1520758691
 10
2.7450393535
 20
-1.1948740465
 10
2.8007197425
 20
-1.2445870188
 10
2.8542098259
 20
-1.3005169248
 10
2.9047587203
 20
-1.3618786313
 10
2.9516568301
 20
-1.4278107544
 10
2.9942458085
 20
-1.4973877516
 10
3.0319277996
 20
-1.5696329144
 10
3.064173831
 20
-1.6435320791
 10
3.0905312389
 20
-1.7180478633
 10
3.1106300232
 20
-1.7921342289
 10
3.124188041
 20
-1.8647511657
 10
3.1310149674
 20
-1.934879291
 10
3.1310149674
 20
-2.0015341596
 10
3.124188041
 20
-2.0637800834
 10
3.1106300232
 20
-2.120743266
 10
3.0905312389
 20
-2.1716240692
 10
3.064173831
 20
-2.215708238
 10
3.0319277996
 20
-2.2523769274
 10
2.9942458085
 20
-2.2811153893
 10
2.9891509104
 20
-2.2841449198
  0
LWPOLYLINE
  5
18C
330
149
100
AcDbEntity
  8
0
  6
Continuous
 62
     7
370
    25
100
AcDbPolyline
 90
       22
 70
   128
 43
0.0
 10
1.9880848814
 20
-1.3336046042
 10
2.0314486563
 20
-1.3367236019
 10
2.086010485
 20
-1.348588016
 10
2.1422238798
 20
-1.3691435411
 10
2.1992691226
 20
-1.3980904316
 10
2.2563143654
 20
-1.4350065766
 10
2.3125277601
 20
-1.4793536555
 10
2.3670895889
 20
-1.530484988
 10
2.4192042174
 20
-1.5876549643
 10
2.4681116969
 20
-1.6500299173
 10
2.5130988463
 20
-1.7167002797
 10
2.5535096517
 20
-1.7866938475
 10
2.5887548324
 20
-1.858989957
 10
2.6183204345
 20
-1.932534368
 10
2.6417753248
 20
-2.0062546374
 10
2.6587774783
 20
-2.0790757576
 10
2.6690789652
 20
-2.1499358329
 10
2.6725295667
 20
-2.2178015636
 10
2.6690789652
 20
-2.2816833147
 10
2.6587774783
 20
-2.3406495463
 10
2.6417753248
 20
-2.393840398
 10
2.622763617
 20
-2.4330195446
  0
LWPOLYLINE
  5
18D
330
149
100
AcDbEntity
  8
0
  6
Continuous
 62
     7
370
    25
100
AcDbPolyline
 90
       29
 70
   128
 43
0.0
 10
1.8411707656
 20
-1.3564296406
 10
1.8704309924
 20
-1.3396716359
 10
1.9152532564
 20
-1.3235485557
 10
1.9640624805
 20
-1.3161435939
 10
2.0161734904
 20
-1.3175607
 10
2.0708547616
 20
-1.3277799809
 10
2.1273386889
 20
-1.3466579803
 10
2.1848323618
 20
-1.3739296924
 10
2.2425286952
 20
-1.4092122823
 10
2.2996177591
 20
-1.4520104597
 10
2.355298148
 20
-1.501723432
 10
2.4087882315
 20
-1.557653338
 10
2.4593371259
 20
-1.6190150445
 10
2.5062352356
 20
-1.6849471675
 10
2.548824214
 20
-1.7545241648
 10
2.5865062052
 20
-1.8267693276
 10
2.6187522365
 20
-1.9006684922
 10
2.6451096444
 20
-1.9751842765
 10
2.6652084288
 20
-2.0492706421
 10
2.6787664465
 20
-2.1218875789
 10
2.685593373
 20
-2.1920157041
 10
2.685593373
 20
-2.2586705728
 10
2.6787664465
 20
-2.3209164966
 10
2.6652084288
 20
-2.3778796792
 10
2.6451096444
 20
-2.4287604824
 10
2.6187522365
 20
-2.4728446512
 10
2.5865062052
 20
-2.5095133406
 10
2.548824214
 20
-2.5382518025
 10
2.52952863
 20
-2.5488296345
  0
LWPOLYLINE
  5
18F
330
149
100
AcDbEntity
  8
0
  6
Continuous
 62
     8
370
    25
100
AcDbPolyline
 90
       26
 70
   128
 43
0.0
 10
0.1521127452
 20
0.6230417504
 10
0.1444544087
 20
0.630389814
 10
0.075673822
 20
0.6917211817
 10
0.0054069178
 20
0.7461439827
 10
-0.0656902409
 20
0.7931500859
 10
-0.136953839
 20
0.8323006078
 10
-0.2077185076
 20
0.8632300108
 10
-0.2773235359
 20
0.8856495151
 10
-0.3451190406
 20
0.8993497961
 10
-0.4104720333
 20
0.9042029379
 10
-0.4727723308
 20
0.9001636279
 10
-0.5314382519
 20
0.8872695801
 10
-0.5859220487
 20
0.8656411828
 10
-0.6357150208
 20
0.8354803746
 10
-0.6803522645
 20
0.7970687586
 10
-0.7194170139
 20
0.7507649739
 10
-0.7525445321
 20
0.6970013464
 10
-0.7794255162
 20
0.6362798526
 10
-0.7998089858
 20
0.5691674328
 10
-0.8135046259
 20
0.4962906975
 10
-0.820384564
 20
0.4183300771
 10
-0.820384564
 20
0.336013469
 10
-0.8135046259
 20
0.2501094412
 10
-0.7998089858
 20
0.1614200564
 10
-0.7794255162
 20
0.0707733835
 10
-0.7634764685
 20
0.0138486136
  0
LWPOLYLINE
  5
190
330
149
100
AcDbEntity
  8
0
  6
Continuous
 62
     8
370
    25
100
AcDbPolyline
 90
       22
 70
   128
 43
0.0
 10
-0.3698076761
 20
-0.6680796245
 10
-0.3451190406
 20
-0.6937361433
 10
-0.2773235359
 20
-0.758310886
 10
-0.2077185076
 20
-0.8162556367
 10
-0.136953839
 20
-0.8670293809
 10
-0.0656902409
 20
-0.910158058
 10
0.0054069178
 20
-0.945238987
 10
0.075673822
 20
-0.9719446268
 10
0.1444544087
 20
-0.990025634
 10
0.2111064919
 20
-0.9993131911
 10
0.2750077592
 20
-0.9997205827
 10
0.3355615816
 20
-0.9912440051
 10
0.3922025844
 20
-0.9739626019
 10
0.4444019259
 20
-0.9480377247
 10
0.4916722347
 20
-0.9137114273
 10
0.5335721609
 20
-0.8713042049
 10
0.5697104961
 20
-0.8212120025
 10
0.5997498264
 20
-0.7639025174
 10
0.6234096826
 20
-0.6999108328
 10
0.640469159
 20
-0.6298344219
 10
0.650768976
 20
-0.5543275692
 10
0.6542129668
 20
-0.4740952618
  0
LWPOLYLINE
  5
192
330
149
100
AcDbEntity
  8
0
  6
Continuous
 62
     8
370
    25
100
AcDbPolyline
 90
       22
 70
   128
 43
0.0
 10
-0.3531505802
 20
0.9273601751
 10
-0.3154374123
 20
0.9219814722
 10
-0.2468050783
 20
0.9056319685
 10
-0.1765679216
 20
0.8807170671
 10
-0.1053620208
 20
0.8474624014
 10
-0.0338322275
 20
0.8061691308
 10
0.0373736733
 20
0.7572112133
 10
0.10761083
 20
0.7010320197
 10
0.176243164
 20
0.6381403172
 10
0.2426491303
 20
0.569105663
 10
0.3062273462
 20
0.4945532455
 10
0.3664020375
 20
0.415158223
 10
0.4226282528
 20
0.3316396091
 10
0.4743967989
 20
0.2447537613
 10
0.5212388518
 20
0.1552875313
 10
0.5627302026
 20
0.0640511391
 10
0.5984950992
 20
-0.0281291644
 10
0.6282096492
 20
-0.12041858
 10
0.651604753
 20
-0.2119813206
 10
0.6684685409
 20
-0.3019881798
 10
0.6786482919
 20
-0.3896240415
 10
0.6820518165
 20
-0.4740952618
  0
LWPOLYLINE
  5
193
330
149
100
AcDbEntity
  8
0
  6
Continuous
 62
     8
370
    25
100
AcDbPolyline
 90
       22
 70
   128
 43
0.0
 10
0.7377295158
 20
-0.4419532101
 10
0.7343259912
 20
-0.3574819899
 10
0.7241462402
 20
-0.2698461282
 10
0.7072824523
 20
-0.179839269
 10
0.6838873485
 20
-0.0882765284
 10
0.6541727986
 20
0.0040128873
 10
0.6184079019
 20
0.0961931907
 10
0.5769165511
 20
0.1874295829
 10
0.5300744982
 20
0.2768958129
 10
0.4783059521
 20
0.3637816608
 10
0.4220797368
 20
0.4473002747
 10
0.3619050455
 20
0.5266952972
 10
0.2983268296
 20
0.6012477146
 10
0.2319208633
 20
0.6702823689
 10
0.1632885293
 20
0.7331740713
 10
0.0930513726
 20
0.789353265
 10
0.0218454718
 20
0.8383111824
 10
-0.0496843214
 20
0.8796044531
 10
-0.1208902223
 20
0.9128591188
 10
-0.1911273789
 20
0.9377740201
 10
-0.259759713
 20
0.9541235238
 10
-0.3004910854
 20
0.9598160738
  0
LWPOLYLINE
  5
195
330
149
100
AcDbEntity
  8
0
  6
Continuous
 62
     8
370
    25
100
AcDbPolyline
 90
       17
 70
   128
 43
0.0
 10
-3.6717088251
 20
-2.4410529036
 10
-3.6751362495
 20
-2.3887848743
 10
-3.685334128
 20
-2.3338466374
 10
-3.702051355
 20
-2.2775909547
 10
-3.7248762969
 20
-2.2214030277
 10
-3.7532469279
 20
-2.1666663898
 10
-3.786464669
 20
-2.1147288385
 10
-3.823711589
 20
-2.0668692487
 10
-3.8640705452
 20
-2.0242660825
 10
-3.9065477661
 20
-1.9879683711
 10
-3.9500973216
 20
-1.9588698847
 10
-3.9936468772
 20
-1.9376871246
 10
-4.0361240981
 20
-1.9249416806
 10
-4.0764830543
 20
-1.9209473878
 10
-4.1137299743
 20
-1.9258025991
 10
-4.1469477153
 20
-1.9393877629
 10
-4.1469627303
 20
-1.939396435
  0
LWPOLYLINE
  5
197
330
149
100
AcDbEntity
  8
0
  6
Continuous
 62
     8
370
    25
100
AcDbPolyline
 90
       17
 70
   128
 43
0.0
 10
-4.1678007584
 20
-3.0784950434
 10
-4.2100311209
 20
-3.0760859742
 10
-4.2580764804
 20
-3.0697790044
 10
-4.3107538007
 20
-3.0597294324
 10
-4.3667659913
 20
-3.0461847121
 10
-4.4247338464
 20
-3.0294783595
 10
-4.4832300047
 20
-3.0100217404
 10
-4.5408140969
 20
-2.9882939413
 10
-4.5960682114
 20
-2.9648299729
 10
-4.6476318087
 20
-2.9402075957
 10
-4.6942352216
 20
-2.9150330946
 10
-4.7347309197
 20
-2.8899263492
 10
-4.7681217644
 20
-2.8655055709
 10
-4.7935855622
 20
-2.8423720805
 10
-4.8104953101
 20
-2.821095501
 10
-4.8184346338
 20
-2.8021997327
 10
-4.817597566
 20
-2.7871854938
  0
LWPOLYLINE
  5
198
330
149
100
AcDbEntity
  8
0
  6
Continuous
 62
     8
370
    25
100
AcDbPolyline
 90
        6
 70
   128
 43
0.0
 10
-4.0748059769
 20
-3.0484550145
 10
-4.0751704691
 20
-3.0494195185
 10
-4.0855327759
 20
-3.0622279152
 10
-4.1047756422
 20
-3.0714796427
 10
-4.1324252447
 20
-3.0769468927
 10
-4.1678007584
 20
-3.0784950434
  0
LWPOLYLINE
  5
199
330
149
100
AcDbEntity
  8
0
  6
Continuous
 62
     8
370
    25
100
AcDbPolyline
 90
       12
 70
   128
 43
0.0
 10
2.964837488
 20
-2.9072287187
 10
2.937457635
 20
-2.9271972605
 10
2.9119436737
 20
-2.9541299574
 10
2.8900343384
 20
-2.9861913906
 10
2.8732227142
 20
-3.0211966264
 10
2.8626544854
 20
-3.0567601158
 10
2.8590498594
 20
-3.0904582658
 10
2.8626544854
 20
-3.1199946032
 10
2.8732227142
 20
-3.1433562754
 10
2.8900343384
 20
-3.158951223
 10
2.9119436737
 20
-3.1657166761
 10
2.928020269
 20
-3.1651651597
  0
LINE
  5
19B
330
149
100
AcDbEntity
  8
0
  6
Continuous
 62
     7
370
    25
100
AcDbLine
 10
-0.5453722945
 20
0.9125676085
 30
0.0
 11
-0.6010499938
 21
0.8804255569
 31
0.0
  0
LINE
  5
19C
330
149
100
AcDbEntity
  8
0
  6
Continuous
 62
     7
370
    25
100
AcDbLine
 10
0.4618557456
 20
-0.960780686
 30
0.0
 11
0.5175334449
 21
-0.9286386343
 31
0.0
  0
LINE
  5
19D
330
149
100
AcDbEntity
  8
0
  6
Continuous
 62
     7
370
    25
100
AcDbLine
 10
-4.4447161127
 20
-4.1003457438
 30
0.0
 11
-4.0747843777
 21
-3.0483938474
 31
0.0
  0
LINE
  5
19E
330
149
100
AcDbEntity
  8
0
  6
Continuous
 62
     7
370
    25
100
AcDbLine
 10
-4.8175941323
 20
-2.787175723
 30
0.0
 11
-5.1875258673
 21
-3.8391276194
 31
0.0
  0
LINE
  5
19F
330
149
100
AcDbEntity
  8
0
  6
Continuous
 62
     7
370
    25
100
AcDbLine
 10
-3.7532629255
 20
-2.6213067644
 30
0.0
 11
0.1133178472
 21
-0.3891771965
 31
0.0
  0
LINE
  5
1A0
330
149
100
AcDbEntity
  8
0
  6
Continuous
 62
     7
370
    25
100
AcDbLine
 10
-0.2803509451
 20
0.2927510416
 30
0.0
 11
-4.1469317178
 21
-1.9393785263
 31
0.0
  0
LINE
  5
1A1
330
149
100
AcDbEntity
  8
0
  6
Continuous
 62
     7
370
    25
100
AcDbLine
 10
-3.740799851
 20
1.8502272225
 30
0.0
 11
-4.5481264909
 21
1.3841674737
 31
0.0
  0
LINE
  5
1A2
330
149
100
AcDbEntity
  8
0
  6
Continuous
 62
     7
370
    25
100
AcDbLine
 10
-3.8592061043
 20
0.190793057
 30
0.0
 11
-3.0518794643
 21
0.6568528059
 31
0.0
  0
LINE
  5
1A3
330
149
100
AcDbEntity
  8
0
  6
Continuous
 62
     7
370
    25
100
AcDbLine
 10
-2.3916263439
 20
0.6061443318
 30
0.0
 11
-2.2524320956
 21
0.6864994609
 31
0.0
  0
LINE
  5
1A4
330
149
100
AcDbEntity
  8
0
  6
Continuous
 62
     7
370
    25
100
AcDbLine
 10
-3.315337835
 20
2.5277057038
 30
0.0
 11
-3.4545320833
 21
2.4473505746
 31
0.0
  0
LINE
  5
1A5
330
149
100
AcDbEntity
  8
0
  6
Continuous
 62
     7
370
    25
100
AcDbLine
 10
-3.0240406147
 20
0.6729238317
 30
0.0
 11
-2.5786190202
 21
0.9300602449
 31
0.0
  0
LINE
  5
1A6
330
149
100
AcDbEntity
  8
0
  6
Continuous
 62
     7
370
    25
100
AcDbLine
 10
-3.2675394069
 20
2.1234346615
 30
0.0
 11
-3.7129610013
 21
1.8662982484
 31
0.0
  0
LINE
  5
1A7
330
149
100
AcDbEntity
  8
0
  6
Continuous
 62
     7
370
    25
100
AcDbLine
 10
-5.3207891481
 20
1.5719643974
 30
0.0
 11
-4.6756125671
 21
1.1995118851
 31
0.0
  0
LINE
  5
1A8
330
149
100
AcDbEntity
  8
0
  6
Continuous
 62
     7
370
    25
100
AcDbLine
 10
-4.4568170609
 20
1.4368792857
 30
0.0
 11
-5.1633216312
 21
1.8447356926
 31
0.0
  0
LINE
  5
1A9
330
149
100
AcDbEntity
  8
0
  6
Continuous
 62
     7
370
    25
100
AcDbLine
 10
3.0380034766
 20
-2.8897885149
 30
0.0
 11
2.2020008699
 21
-2.4071744828
 31
0.0
  0
LINE
  5
1AA
330
149
100
AcDbEntity
  8
0
  6
Continuous
 62
     7
370
    25
100
AcDbLine
 10
2.0445506382
 20
-2.6799557566
 30
0.0
 11
2.8805359596
 21
-3.1625598101
 31
0.0
  0
LINE
  5
1AB
330
149
100
AcDbEntity
  8
0
  6
Continuous
 62
     7
370
    25
100
AcDbLine
 10
1.8269700796
 20
-1.3639779421
 30
0.0
 11
1.0196434397
 21
-1.830037691
 31
0.0
  0
LINE
  5
1AC
330
149
100
AcDbEntity
  8
0
  6
Continuous
 62
     7
370
    25
100
AcDbLine
 10
1.7085638263
 20
-3.0234121076
 30
0.0
 11
2.1740313893
 21
-2.7547034032
 31
0.0
  0
LINE
  5
1AD
330
149
100
AcDbEntity
  8
0
  6
Continuous
 62
     7
370
    25
100
AcDbLine
 10
2.4890176173
 20
-2.5728657242
 30
0.0
 11
2.5158904663
 21
-2.5573523588
 31
0.0
  0
LINE
  5
1AE
330
149
100
AcDbEntity
  8
0
  6
Continuous
 62
     7
370
    25
100
AcDbLine
 10
3.1761435867
 20
-2.6080608329
 30
0.0
 11
3.315337835
 21
-2.5277057038
 31
0.0
  0
LINE
  5
1AF
330
149
100
AcDbEntity
  8
0
  6
Continuous
 62
     7
370
    25
100
AcDbLine
 10
2.2524320956
 20
-0.6864994609
 30
0.0
 11
2.1132378473
 21
-0.76685459
 31
0.0
  0
LINE
  5
1B0
330
149
100
AcDbEntity
  8
0
  6
Continuous
 62
     7
370
    25
100
AcDbLine
 10
2.5437293159
 20
-2.541281333
 30
0.0
 11
2.9891509104
 21
-2.2841449198
 31
0.0
  0
LINE
  5
1B1
330
149
100
AcDbEntity
  8
0
  6
Continuous
 62
     7
370
    25
100
AcDbLine
 10
2.3002305237
 20
-1.0907705031
 30
0.0
 11
1.8548089293
 21
-1.3479069163
 31
0.0
  0
ARC
  5
1B2
330
149
100
AcDbEntity
  8
0
  6
Continuous
 62
     7
370
    25
100
AcDbCircle
 10
-1.0523846665
 20
-0.6067550934
 30
0.0
 40
1.721398934571883
100
AcDbArc
 50
12.9148231851
 51
45.5954491724
  0
ARC
  5
1B3
330
149
100
AcDbEntity
  8
0
  6
Continuous
 62
     7
370
    25
100
AcDbCircle
 10
0.2674374307
 20
-0.6240988312
 30
0.0
 40
0.3872938826103829
100
AcDbArc
 50
262.2157566218
 51
337.5054076109
  0
ARC
  5
1B4
330
149
100
AcDbEntity
  8
0
  6
Continuous
 62
     7
370
    25
100
AcDbCircle
 10
-0.4065836827
 20
0.5437837536
 30
0.0
 40
0.3872802184602727
100
AcDbArc
 50
82.0695965418
 51
157.3024087869
  0
ARC
  5
1B5
330
149
100
AcDbEntity
  8
0
  6
Continuous
 62
     7
370
    25
100
AcDbCircle
 10
-0.350145403
 20
0.5589522026
 30
0.0
 40
0.4039274619015444
100
AcDbArc
 50
82.9388378121
 51
118.9025705676
  0
ARC
  5
1B6
330
149
100
AcDbEntity
  8
0
  6
Continuous
 62
     7
370
    25
100
AcDbCircle
 10
0.3100067255
 20
-0.5834796971
 30
0.0
 40
0.4027431330578354
100
AcDbArc
 50
301.0163778784
 51
337.6037131612
  0
ARC
  5
1B7
330
149
100
AcDbEntity
  8
0
  6
Continuous
 62
     7
370
    25
100
AcDbCircle
 10
0.0028746272
 20
-0.2306321305
 30
0.0
 40
0.1932207101064523
100
AcDbArc
 50
304.8612461181
 51
6.4509342753
  0
ARC
  5
1B8
330
149
100
AcDbEntity
  8
0
  6
Continuous
 62
     7
370
    25
100
AcDbCircle
 10
-3.3247829728
 20
0.9823661183
 30
0.0
 40
0.4297719206264637
100
AcDbArc
 50
332.0883230209
 51
1.8717639606
  0
ARC
  5
1B9
330
149
100
AcDbEntity
  8
0
  6
Continuous
 62
     7
370
    25
100
AcDbCircle
 10
-5.1280043539
 20
1.6425097839
 30
0.0
 40
0.2254225424098426
100
AcDbArc
 50
121.233680238
 51
178.7716982582
  0
ARC
  5
1BA
330
149
100
AcDbEntity
  8
0
  6
Continuous
 62
     7
370
    25
100
AcDbCircle
 10
3.0050105514
 20
-2.9580544601
 30
0.0
 40
0.0758206593920264
100
AcDbArc
 50
64.2055258977
 51
127.1049325314
  0
ARC
  5
1BB
330
149
100
AcDbEntity
  8
0
  6
Continuous
 62
     8
370
    25
100
AcDbCircle
 10
-0.5391180509
 20
-0.4824931725
 30
0.0
 40
1.193360567002732
100
AcDbArc
 50
0.4032048852
 51
12.6074359641
  0
ARC
  5
1BC
330
149
100
AcDbEntity
  8
0
  6
Continuous
 62
     8
370
    25
100
AcDbCircle
 10
-0.0241565836
 20
-0.4940981471
 30
0.0
 40
0.7064916274971695
100
AcDbArc
 50
336.8122459441
 51
1.6224312332
  0
ARC
  5
1BD
330
149
100
AcDbEntity
  8
0
  6
Continuous
 62
     8
370
    25
100
AcDbCircle
 10
0.0167066726
 20
-0.4593209277
 30
0.0
 40
0.7212319862522552
100
AcDbArc
 50
337.3619578526
 51
1.3798516078
  0
ARC
  5
1BE
330
149
100
AcDbEntity
  8
0
  6
Continuous
 62
     8
370
    25
100
AcDbCircle
 10
-3.8723181927
 20
-2.4589683261
 30
0.0
 40
0.2014077474607714
100
AcDbArc
 50
306.4974135686
 51
5.1032623436
  0
ARC
  5
1BF
330
149
100
AcDbEntity
  8
0
  6
Continuous
 62
     8
370
    25
100
AcDbCircle
 10
3.0063872971
 20
-2.9572420499
 30
0.0
 40
0.0650209191392442
100
AcDbArc
 50
37.6601341946
 51
129.7189439629
  0
VIEWPORT
  5
1C4
330
149
100
AcDbEntity
  8
0
100
AcDbViewport
 10
0.0
 20
0.0
 30
0.0
 40
8.4
 41
6.4
 68
     1
 69
     1
 12
0.0
 22
-0.2862186023
 13
0.0
 23
0.0
 14
0.5
 24
0.5
 15
0.5
 25
0.5
 16
0.0
 26
0.0
 36
1.0
 17
0.0
 27
0.0
 37
0.0
 42
50.0
 43
0.0
 44
0.0
 45
9.025871766
 50
0.0
 51
0.0
 72
   100
 90
   557152
  1

281
     0
 71
     1
 74
     0
110
0.0
120
0.0
130
0.0
111
1.0
121
0.0
131
0.0
112
0.0
122
1.0
132
0.0
 79
     0
146
0.0
  0
ENDBLK
  5
14C
330
149
100
AcDbEntity
  8
0
100
AcDbBlockEnd
  0
ENDSEC
  0
SECTION
  2
ENTITIES
  0
LWPOLYLINE
  5
81
330
1F
100
AcDbEntity
  8
0
  6
Continuous
 62
     7
370
    25
100
AcDbPolyline
 90
       41
 70
   128
 43
0.0
 10
0.3937007874
 20
-1.4566929134
 10
0.3888536774
 20
-1.4287323776
 10
0.3744316993
 20
-1.401460323
 10
0.3507899702
 20
-1.375548278
 10
0.3185106277
 20
-1.3516342833
 10
0.2783884965
 20
-1.3303071807
 10
0.2314115167
 20
-1.3120921143
 10
0.1787364172
 20
-1.2974375995
 10
0.121660234
 20
-1.2867044791
 10
0.0615883721
 20
-1.2801570381
 10
0.0
 20
-1.2779564962
 10
-0.0615883721
 20
-1.2801570381
 10
-0.121660234
 20
-1.2867044791
 10
-0.1787364172
 20
-1.2974375995
 10
-0.2314115167
 20
-1.3120921143
 10
-0.2783884965
 20
-1.3303071807
 10
-0.3185106277
 20
-1.3516342833
 10
-0.3507899702
 20
-1.375548278
 10
-0.3744316993
 20
-1.401460323
 10
-0.3888536774
 20
-1.4287323776
 10
-0.3937007874
 20
-1.4566929134
 10
-0.3888536774
 20
-1.4846534492
 10
-0.3744316993
 20
-1.5119255038
 10
-0.3507899702
 20
-1.5378375488
 10
-0.3185106277
 20
-1.5617515435
 10
-0.2783884965
 20
-1.583078646
 10
-0.2314115167
 20
-1.6012937124
 10
-0.1787364172
 20
-1.6159482272
 10
-0.121660234
 20
-1.6266813477
 10
-0.0615883721
 20
-1.6332287887
 10
0.0
 20
-1.6354293306
 10
0.0615883721
 20
-1.6332287887
 10
0.121660234
 20
-1.6266813477
 10
0.1787364172
 20
-1.6159482272
 10
0.2314115167
 20
-1.6012937124
 10
0.2783884965
 20
-1.583078646
 10
0.3185106277
 20
-1.5617515435
 10
0.3507899702
 20
-1.5378375488
 10
0.3744316993
 20
-1.5119255038
 10
0.3888536774
 20
-1.4846534492
 10
0.3937007874
 20
-1.4566929134
  0
LWPOLYLINE
  5
82
330
1F
100
AcDbEntity
  8
0
  6
Continuous
 62
     7
370
    25
100
AcDbPolyline
 90
       37
 70
   128
 43
0.0
 10
0.0
 20
-1.5996820472
 10
0.0546923394
 20
-1.5975097209
 10
0.1077228798
 20
-1.5910587472
 10
0.157480315
 20
-1.5805251357
 10
0.2024527905
 20
-1.5662289447
 10
0.2412738404
 20
-1.5486045569
 10
0.2727639067
 20
-1.5281874803
 10
0.2959661798
 20
-1.5055980774
 10
0.3101756702
 20
-1.4815227159
 10
0.3149606299
 20
-1.4566929134
 10
0.3101756702
 20
-1.4318631109
 10
0.2959661798
 20
-1.4077877494
 10
0.2727639067
 20
-1.3851983465
 10
0.2412738404
 20
-1.3647812699
 10
0.2024527905
 20
-1.347156882
 10
0.157480315
 20
-1.3328606911
 10
0.1077228798
 20
-1.3223270795
 10
0.0546923394
 20
-1.3158761058
 10
0.0
 20
-1.3137037796
 10
-0.0546923394
 20
-1.3158761058
 10
-0.1077228798
 20
-1.3223270795
 10
-0.157480315
 20
-1.3328606911
 10
-0.2024527905
 20
-1.347156882
 10
-0.2412738404
 20
-1.3647812699
 10
-0.2727639067
 20
-1.3851983465
 10
-0.2959661798
 20
-1.4077877494
 10
-0.3101756702
 20
-1.4318631109
 10
-0.3149606299
 20
-1.4566929134
 10
-0.3101756702
 20
-1.4815227159
 10
-0.2959661798
 20
-1.5055980774
 10
-0.2727639067
 20
-1.5281874803
 10
-0.2412738404
 20
-1.5486045569
 10
-0.2024527905
 20
-1.5662289447
 10
-0.157480315
 20
-1.5805251357
 10
-0.1077228798
 20
-1.5910587472
 10
-0.0546923394
 20
-1.5975097209
 10
0.0
 20
-1.5996820472
  0
CIRCLE
  5
84
330
1F
100
AcDbEntity
  8
0
  6
Continuous
 62
     7
370
    25
100
AcDbCircle
 10
-3.937007874
 20
0.0
 30
0.0
 40
0.6889763779527551
  0
CIRCLE
  5
88
330
1F
100
AcDbEntity
  8
0
  6
Continuous
 62
     7
370
    25
100
AcDbCircle
 10
3.937007874
 20
0.0
 30
0.0
 40
0.6889763779527565
  0
LWPOLYLINE
  5
8E
330
1F
100
AcDbEntity
  8
0
  6
Continuous
 62
     8
370
    25
100
AcDbPolyline
 90
       22
 70
   128
 43
0.0
 10
0.3937007874
 20
-0.4299287404
 10
0.3888536774
 20
-0.4019682046
 10
0.3744316993
 20
-0.3746961499
 10
0.3507899702
 20
-0.348784105
 10
0.3185106277
 20
-0.3248701103
 10
0.2783884965
 20
-0.3035430077
 10
0.2314115167
 20
-0.2853279413
 10
0.1787364172
 20
-0.2706734265
 10
0.121660234
 20
-0.2599403061
 10
0.0615883721
 20
-0.253392865
 10
0.0
 20
-0.2511923231
 10
-0.0615883721
 20
-0.253392865
 10
-0.121660234
 20
-0.2599403061
 10
-0.1787364172
 20
-0.2706734265
 10
-0.2314115167
 20
-0.2853279413
 10
-0.2783884965
 20
-0.3035430077
 10
-0.3185106277
 20
-0.3248701103
 10
-0.3507899702
 20
-0.348784105
 10
-0.3744316993
 20
-0.3746961499
 10
-0.3888536774
 20
-0.4019682046
 10
-0.3937007874
 20
-0.4299287404
 10
-0.3937007874
 20
-0.4299287404
  0
LINE
  5
91
330
1F
100
AcDbEntity
  8
0
  6
Continuous
 62
     7
370
    25
100
AcDbLine
 10
0.3937007874
 20
-1.4566929134
 30
0.0
 11
0.3937007874
 21
0.0
 31
0.0
  0
LINE
  5
92
330
1F
100
AcDbEntity
  8
0
  6
Continuous
 62
     7
370
    25
100
AcDbLine
 10
-0.3937007874
 20
0.0
 30
0.0
 11
-0.3937007874
 21
-1.4566929134
 31
0.0
  0
LINE
  5
93
330
1F
100
AcDbEntity
  8
0
  6
Continuous
 62
     7
370
    25
100
AcDbLine
 10
-5.7992125984
 20
-0.157480315
 30
0.0
 11
-4.6077450802
 21
-0.157480315
 31
0.0
  0
LINE
  5
94
330
1F
100
AcDbEntity
  8
0
  6
Continuous
 62
     7
370
    25
100
AcDbLine
 10
-4.60822828
 20
0.157480315
 30
0.0
 11
-5.7992125984
 21
0.157480315
 31
0.0
  0
LINE
  5
95
330
1F
100
AcDbEntity
  8
0
  6
Continuous
 62
     7
370
    25
100
AcDbLine
 10
5.7992125984
 20
0.157480315
 30
0.0
 11
4.6077450802
 21
0.157480315
 31
0.0
  0
LINE
  5
96
330
1F
100
AcDbEntity
  8
0
  6
Continuous
 62
     7
370
    25
100
AcDbLine
 10
4.60822828
 20
-0.157480315
 30
0.0
 11
5.7992125984
 21
-0.157480315
 31
0.0
  0
LINE
  5
97
330
1F
100
AcDbEntity
  8
0
  6
Continuous
 62
     7
370
    25
100
AcDbLine
 10
-5.8070866142
 20
-0.1496062992
 30
0.0
 11
-5.8070866142
 21
0.1496062992
 31
0.0
  0
LINE
  5
98
330
1F
100
AcDbEntity
  8
0
  6
Continuous
 62
     7
370
    25
100
AcDbLine
 10
5.8070866142
 20
0.1496062992
 30
0.0
 11
5.8070866142
 21
-0.1496062992
 31
0.0
  0
LINE
  5
99
330
1F
100
AcDbEntity
  8
0
  6
Continuous
 62
     8
370
    25
100
AcDbLine
 10
-5.7992125984
 20
0.157480315
 30
0.0
 11
-5.7992125984
 21
-0.157480315
 31
0.0
  0
LINE
  5
9A
330
1F
100
AcDbEntity
  8
0
  6
Continuous
 62
     8
370
    25
100
AcDbLine
 10
5.7992125984
 20
-0.157480315
 30
0.0
 11
5.7992125984
 21
0.157480315
 31
0.0
  0
ARC
  5
9B
330
1F
100
AcDbEntity
  8
0
  6
Continuous
 62
     7
370
    25
100
AcDbCircle
 10
-5.7992125984
 20
-0.1496062992
 30
0.0
 40
0.0078740157480306
100
AcDbArc
 50
180.0
 51
270.0
  0
ARC
  5
9C
330
1F
100
AcDbEntity
  8
0
  6
Continuous
 62
     7
370
    25
100
AcDbCircle
 10
-5.7992125984
 20
0.1496062992
 30
0.0
 40
0.0078740157480311
100
AcDbArc
 50
90.0
 51
180.0
  0
ARC
  5
9D
330
1F
100
AcDbEntity
  8
0
  6
Continuous
 62
     7
370
    25
100
AcDbCircle
 10
5.7992125984
 20
0.1496062992
 30
0.0
 40
0.0078740157480306
100
AcDbArc
 50
360.0
 51
90.0
  0
ARC
  5
9E
330
1F
100
AcDbEntity
  8
0
  6
Continuous
 62
     7
370
    25
100
AcDbCircle
 10
5.7992125984
 20
-0.1496062992
 30
0.0
 40
0.0078740157480311
100
AcDbArc
 50
270.0
 51
0.0
  0
ARC
  5
9F
330
1F
100
AcDbEntity
  8
0
  6
Continuous
 62
     7
370
    25
100
AcDbCircle
 10
0.0
 20
0.0
 30
0.0
 40
1.062992125984252
100
AcDbArc
 50
291.7384607915
 51
248.2615392085
  0
ARC
  5
A0
330
1F
100
AcDbEntity
  8
0
  6
Continuous
 62
     7
370
    25
100
AcDbCircle
 10
0.0
 20
0.0
 30
0.0
 40
0.3937007874015746
100
AcDbArc
 50
0.0
 51
180.0
  0
ARC
  5
A1
330
1F
100
AcDbEntity
  8
0
  6
Continuous
 62
     7
370
    25
100
AcDbCircle
 10
-3.937007874
 20
0.0
 30
0.0
 40
1.062992125984252
100
AcDbArc
 50
188.5196242541
 51
171.4803757459
  0
ARC
  5
A2
330
1F
100
AcDbEntity
  8
0
  6
Continuous
 62
     7
370
    25
100
AcDbCircle
 10
3.937007874
 20
0.0
 30
0.0
 40
1.062992125984253
100
AcDbArc
 50
8.5196242541
 51
351.4803757459
  0
ARC
  5
A3
330
1F
100
AcDbEntity
  8
0
  6
Continuous
 62
     8
370
    25
100
AcDbCircle
 10
0.0
 20
0.0
 30
0.0
 40
1.043307086614174
100
AcDbArc
 50
292.1701571635
 51
247.8298428365
  0
CIRCLE
  5
B3
330
1B
100
AcDbEntity
 67
     1
  8
0
  6
Continuous
 62
     7
370
    25
100
AcDbCircle
 10
1.6141732283
 20
0.0
 30
0.0
 40
0.1496062992125986
  0
CIRCLE
  5
B4
330
1B
100
AcDbEntity
 67
     1
  8
0
  6
Continuous
 62
     7
370
    25
100
AcDbCircle
 10
1.6141732283
 20
0.0
 30
0.0
 40
0.1574803149606299
  0
LINE
  5
BE
330
1B
100
AcDbEntity
 67
     1
  8
0
  6
Continuous
 62
     7
370
    25
100
AcDbLine
 10
5.586281205
 20
0.3937007874
 30
0.0
 11
2.0078740157
 21
0.3937007874
 31
0.0
  0
LINE
  5
BF
330
1B
100
AcDbEntity
 67
     1
  8
0
  6
Continuous
 62
     7
370
    25
100
AcDbLine
 10
2.0078740157
 20
-0.3937007874
 30
0.0
 11
5.586281205
 21
-0.3937007874
 31
0.0
  0
LINE
  5
C0
330
1B
100
AcDbEntity
 67
     1
  8
0
  6
Continuous
 62
     7
370
    25
100
AcDbLine
 10
7.1618135922
 20
-1.2779564962
 30
0.0
 11
6.6386511154
 21
-0.2511923231
 31
0.0
  0
LINE
  5
C1
330
1B
100
AcDbEntity
 67
     1
  8
0
  6
Continuous
 62
     7
370
    25
100
AcDbLine
 10
5.9370711751
 20
-0.6086651576
 30
0.0
 11
6.4602336519
 21
-1.6354293306
 31
0.0
  0
LINE
  5
C2
330
1B
100
AcDbEntity
 67
     1
  8
0
  6
Continuous
 62
     7
370
    25
100
AcDbLine
 10
0.1968503937
 20
1.062992126
 30
0.0
 11
0.0
 21
1.062992126
 31
0.0
  0
LINE
  5
C3
330
1B
100
AcDbEntity
 67
     1
  8
0
  6
Continuous
 62
     7
370
    25
100
AcDbLine
 10
0.0
 20
-1.062992126
 30
0.0
 11
0.1968503937
 21
-1.062992126
 31
0.0
  0
LINE
  5
C4
330
1B
100
AcDbEntity
 67
     1
  8
0
  6
Continuous
 62
     7
370
    25
100
AcDbLine
 10
0.8661417323
 20
-0.688976378
 30
0.0
 11
2.0078740157
 21
-0.688976378
 31
0.0
  0
LINE
  5
C5
330
1B
100
AcDbEntity
 67
     1
  8
0
  6
Continuous
 62
     7
370
    25
100
AcDbLine
 10
2.0078740157
 20
0.688976378
 30
0.0
 11
0.8661417323
 21
0.688976378
 31
0.0
  0
LINE
  5
C6
330
1B
100
AcDbEntity
 67
     1
  8
0
  6
Continuous
 62
     7
370
    25
100
AcDbLine
 10
0.8267716535
 20
0.688976378
 30
0.0
 11
0.1968503937
 21
0.688976378
 31
0.0
  0
LINE
  5
C7
330
1B
100
AcDbEntity
 67
     1
  8
0
  6
Continuous
 62
     7
370
    25
100
AcDbLine
 10
0.1968503937
 20
-0.688976378
 30
0.0
 11
0.8267716535
 21
-0.688976378
 31
0.0
  0
LINE
  5
C8
330
1B
100
AcDbEntity
 67
     1
  8
0
  6
Continuous
 62
     7
370
    25
100
AcDbLine
 10
0.8661417323
 20
0.6692913386
 30
0.0
 11
0.8267716535
 21
0.6692913386
 31
0.0
  0
LINE
  5
C9
330
1B
100
AcDbEntity
 67
     1
  8
0
  6
Continuous
 62
     7
370
    25
100
AcDbLine
 10
0.8267716535
 20
-0.6692913386
 30
0.0
 11
0.8661417323
 21
-0.6692913386
 31
0.0
  0
LINE
  5
CA
330
1B
100
AcDbEntity
 67
     1
  8
0
  6
Continuous
 62
     7
370
    25
100
AcDbLine
 10
7.1618135922
 20
-1.2779564962
 30
0.0
 11
6.4602336519
 21
-1.6354293306
 31
0.0
  0
LINE
  5
CB
330
1B
100
AcDbEntity
 67
     1
  8
0
  6
Continuous
 62
     7
370
    25
100
AcDbLine
 10
0.1968503937
 20
-1.062992126
 30
0.0
 11
0.1968503937
 21
1.062992126
 31
0.0
  0
LINE
  5
CC
330
1B
100
AcDbEntity
 67
     1
  8
0
  6
Continuous
 62
     7
370
    25
100
AcDbLine
 10
0.0
 20
-1.062992126
 30
0.0
 11
0.0
 21
1.062992126
 31
0.0
  0
LINE
  5
CD
330
1B
100
AcDbEntity
 67
     1
  8
0
  6
Continuous
 62
     7
370
    25
100
AcDbLine
 10
2.0078740157
 20
0.688976378
 30
0.0
 11
2.0078740157
 21
-0.688976378
 31
0.0
  0
LINE
  5
CE
330
1B
100
AcDbEntity
 67
     1
  8
0
  6
Continuous
 62
     7
370
    25
100
AcDbLine
 10
0.8661417323
 20
0.688976378
 30
0.0
 11
0.8661417323
 21
-0.688976378
 31
0.0
  0
LINE
  5
CF
330
1B
100
AcDbEntity
 67
     1
  8
0
  6
Continuous
 62
     7
370
    25
100
AcDbLine
 10
0.8267716535
 20
-0.688976378
 30
0.0
 11
0.8267716535
 21
0.688976378
 31
0.0
  0
LINE
  5
D0
330
1B
100
AcDbEntity
 67
     1
  8
0
  6
Continuous
 62
     8
370
    25
100
AcDbLine
 10
5.586281205
 20
0.3937007874
 30
0.0
 11
5.586281205
 21
-0.3937007874
 31
0.0
  0
LINE
  5
D1
330
1B
100
AcDbEntity
 67
     1
  8
0
  6
Continuous
 62
     8
370
    25
100
AcDbLine
 10
6.6386511154
 20
-0.2511923231
 30
0.0
 11
5.9370711751
 21
-0.6086651576
 31
0.0
  0
ARC
  5
D2
330
1B
100
AcDbEntity
 67
     1
  8
0
  6
Continuous
 62
     7
370
    25
100
AcDbCircle
 10
5.586281205
 20
-0.7874015748
 30
0.0
 40
0.3937007874015733
100
AcDbArc
 50
27.0
 51
90.0
  0
ARC
  5
D3
330
1B
100
AcDbEntity
 67
     1
  8
0
  6
Continuous
 62
     7
370
    25
100
AcDbCircle
 10
5.586281205
 20
-0.7874015748
 30
0.0
 40
1.181102362204722
100
AcDbArc
 50
27.0
 51
90.0
  0
VIEWPORT
  5
1C0
330
1B
100
AcDbEntity
 67
     1
  8
0
100
AcDbViewport
 10
0.0
 20
0.0
 30
0.0
 40
8.4
 41
6.4
 68
     1
 69
     1
 12
0.0
 22
-0.2862186023
 13
0.0
 23
0.0
 14
0.5
 24
0.5
 15
0.5
 25
0.5
 16
0.0
 26
0.0
 36
1.0
 17
0.0
 27
0.0
 37
0.0
 42
50.0
 43
0.0
 44
0.0
 45
9.025871766
 50
0.0
 51
0.0
 72
   100
 90
   557152
  1

281
     0
 71
     1
 74
     0
110
0.0
120
0.0
130
0.0
111
1.0
121
0.0
131
0.0
112
0.0
122
1.0
132
0.0
 79
     0
146
0.0
  0
ENDSEC
  0
SECTION
  2
OBJECTS
  0
DICTIONARY
  5
C
330
0
100
AcDbDictionary
281
     1
  3
ACAD_GROUP
350
D
  3
ACAD_LAYOUT
350
1A
  3
ACAD_MLINESTYLE
350
17
  3
ACAD_PLOTSETTINGS
350
19
  3
ACAD_PLOTSTYLENAME
350
E
  3
ACAD_SCALELIST
350
47
  0
DICTIONARY
  5
D
102
{ACAD_REACTORS
330
C
102
}
330
C
100
AcDbDictionary
281
     1
  0
DICTIONARY
  5
1A
102
{ACAD_REACTORS
330
C
102
}
330
C
100
AcDbDictionary
281
     1
  3
_Isometric
350
14A
  3
_Left
350
1E
  3
_Top
350
26
  3
Model
350
22
  0
DICTIONARY
  5
17
102
{ACAD_REACTORS
330
C
102
}
330
C
100
AcDbDictionary
281
     1
  3
Standard
350
18
  0
DICTIONARY
  5
19
102
{ACAD_REACTORS
330
C
102
}
330
C
100
AcDbDictionary
281
     1
  0
ACDBDICTIONARYWDFLT
  5
E
102
{ACAD_REACTORS
330
C
102
}
330
C
100
AcDbDictionary
281
     1
  3
Normal
350
F
100
AcDbDictionaryWithDefault
340
F
  0
DICTIONARY
  5
47
102
{ACAD_REACTORS
330
C
102
}
330
C
100
AcDbDictionary
281
     1
  3
A0
350
48
  3
A1
350
49
  3
A2
350
4A
  3
A3
350
4B
  3
A4
350
4C
  3
A5
350
4D
  3
A6
350
4E
  3
A7
350
4F
  3
A8
350
50
  3
A9
350
51
  3
B0
350
52
  3
B1
350
53
  3
B2
350
54
  3
B3
350
55
  3
B4
350
56
  3
B5
350
57
  3
B6
350
58
  3
B7
350
59
  3
B8
350
5A
  3
B9
350
5B
  3
C0
350
5C
  3
C1
350
5D
  3
C2
350
5E
  3
C3
350
5F
  3
C4
350
60
  3
C5
350
61
  3
C6
350
62
  3
C7
350
63
  3
C8
350
64
  3
C9
350
65
  3
D0
350
66
  3
D1
350
67
  3
D2
350
68
  0
LAYOUT
  5
14A
102
{ACAD_REACTORS
330
1A
102
}
330
1A
100
AcDbPlotSettings
  1

  2
none_device
  4
Letter_(8.50_x_11.00_Inches)
  6

 40
6.35
 41
6.35
 42
6.35001
 43
6.35001
 44
215.9
 45
279.4
 46
0.0
 47
0.0
 48
0.0
 49
0.0
140
0.0
141
0.0
142
1.0
143
0.6820775105
 70
   688
 72
     0
 73
     1
 74
     1
  7

 75
     0
147
1.4661090339
148
0.0
149
41.5399049974
100
AcDbLayout
  1
_Isometric
 70
     1
 71
     3
 10
0.0
 20
0.0
 11
0.0
 21
0.0
 12
0.0
 22
0.0
 32
0.0
 14
0.0
 24
0.0
 34
0.0
 15
0.0
 25
0.0
 35
0.0
146
0.0
 13
0.0
 23
0.0
 33
0.0
 16
1.0
 26
0.0
 36
0.0
 17
0.0
 27
1.0
 37
0.0
 76
     0
330
149
331
1C4
  0
LAYOUT
  5
1E
102
{ACAD_REACTORS
330
1A
102
}
330
1A
100
AcDbPlotSettings
  1

  2
none_device
  4
Letter_(8.50_x_11.00_Inches)
  6

 40
6.35
 41
6.35
 42
6.35001
 43
6.35001
 44
215.9
 45
279.4
 46
0.0
 47
0.0
 48
0.0
 49
0.0
140
0.0
141
0.0
142
1.0
143
0.6820775105
 70
   688
 72
     0
 73
     1
 74
     1
  7

 75
     0
147
1.4661090339
148
0.0
149
41.5399049974
100
AcDbLayout
  1
_Left
 70
     1
 71
     1
 10
-0.1705196462
 20
-1.8059487082
 11
7.3323329698
 21
3.9917101314
 12
0.0
 22
0.0
 32
0.0
 14
0.0
 24
-1.6354293306
 34
0.0
 15
7.1618135922
 25
1.062992126
 35
0.0
146
0.0
 13
0.0
 23
0.0
 33
0.0
 16
1.0
 26
0.0
 36
0.0
 17
0.0
 27
1.0
 37
0.0
 76
     0
330
1B
331
1C0
  0
LAYOUT
  5
26
102
{ACAD_REACTORS
330
1A
102
}
330
1A
100
AcDbPlotSettings
  1

  2
none_device
  4
Letter_(8.50_x_11.00_Inches)
  6

 40
6.35
 41
6.35
 42
6.35001
 43
6.35001
 44
215.9
 45
279.4
 46
0.0
 47
0.0
 48
0.0
 49
0.0
140
0.0
141
0.0
142
1.0
143
0.6820775105
 70
   688
 72
     0
 73
     1
 74
     1
  7

 75
     0
147
1.4661090339
148
0.0
149
41.5399049974
100
AcDbLayout
  1
_Top
 70
     1
 71
     2
 10
0.0
 20
0.0
 11
0.0
 21
0.0
 12
0.0
 22
0.0
 32
0.0
 14
0.0
 24
0.0
 34
0.0
 15
0.0
 25
0.0
 35
0.0
146
0.0
 13
0.0
 23
0.0
 33
0.0
 16
1.0
 26
0.0
 36
0.0
 17
0.0
 27
1.0
 37
0.0
 76
     0
330
23
331
1C2
  0
LAYOUT
  5
22
102
{ACAD_REACTORS
330
1A
102
}
330
1A
100
AcDbPlotSettings
  1

  2
none_device
  4
ANSI_A_(11.00_x_8.50_Inches)
  6

 40
6.35
 41
19.05
 42
6.35000508
 43
19.05000254
 44
279.4
 45
215.9
 46
133.34999746
 47
95.7166512075
 48
0.0
 49
0.0
140
0.0
141
0.0
142
0.9376474576
143
1.0
 70
  1696
 72
     0
 73
     0
 74
     0
  7

 75
     0
147
0.5913241897
148
-39.4088153714
149
0.0
100
AcDbLayout
  1
Model
 70
     1
 71
     0
 10
0.0
 20
0.0
 11
12.0
 21
9.0
 12
0.0
 22
0.0
 32
0.0
 14
-5.8070866142
 24
-1.6354293306
 34
0.0
 15
5.8070866142
 25
1.062992126
 35
0.0
146
0.0
 13
0.0
 23
0.0
 33
0.0
 16
1.0
 26
0.0
 36
0.0
 17
0.0
 27
1.0
 37
0.0
 76
     0
330
1F
331
29
  0
MLINESTYLE
  5
18
102
{ACAD_REACTORS
330
17
102
}
330
17
100
AcDbMlineStyle
  2
Standard
 70
     0
  3

 62
   256
 51
90.0
 52
90.0
 71
     2
 49
0.5
 62
   256
  6
BYLAYER
 49
-0.5
 62
   256
  6
BYLAYER
  0
ACDBPLACEHOLDER
  5
F
102
{ACAD_REACTORS
330
E
102
}
330
E
  0
SCALE
  5
48
102
{ACAD_REACTORS
330
47
102
}
330
47
100
AcDbScale
 70
     0
300
1:1
140
1.0
141
1.0
290
     1
  0
SCALE
  5
49
102
{ACAD_REACTORS
330
47
102
}
330
47
100
AcDbScale
 70
     0
300
1:2
140
1.0
141
2.0
290
     0
  0
SCALE
  5
4A
102
{ACAD_REACTORS
330
47
102
}
330
47
100
AcDbScale
 70
     0
300
1:4
140
1.0
141
4.0
290
     0
  0
SCALE
  5
4B
102
{ACAD_REACTORS
330
47
102
}
330
47
100
AcDbScale
 70
     0
300
1:5
140
1.0
141
5.0
290
     0
  0
SCALE
  5
4C
102
{ACAD_REACTORS
330
47
102
}
330
47
100
AcDbScale
 70
     0
300
1:8
140
1.0
141
8.0
290
     0
  0
SCALE
  5
4D
102
{ACAD_REACTORS
330
47
102
}
330
47
100
AcDbScale
 70
     0
300
1:10
140
1.0
141
10.0
290
     0
  0
SCALE
  5
4E
102
{ACAD_REACTORS
330
47
102
}
330
47
100
AcDbScale
 70
     0
300
1:16
140
1.0
141
16.0
290
     0
  0
SCALE
  5
4F
102
{ACAD_REACTORS
330
47
102
}
330
47
100
AcDbScale
 70
     0
300
1:20
140
1.0
141
20.0
290
     0
  0
SCALE
  5
50
102
{ACAD_REACTORS
330
47
102
}
330
47
100
AcDbScale
 70
     0
300
1:30
140
1.0
141
30.0
290
     0
  0
SCALE
  5
51
102
{ACAD_REACTORS
330
47
102
}
330
47
100
AcDbScale
 70
     0
300
1:40
140
1.0
141
40.0
290
     0
  0
SCALE
  5
52
102
{ACAD_REACTORS
330
47
102
}
330
47
100
AcDbScale
 70
     0
300
1:50
140
1.0
141
50.0
290
     0
  0
SCALE
  5
53
102
{ACAD_REACTORS
330
47
102
}
330
47
100
AcDbScale
 70
     0
300
1:100
140
1.0
141
100.0
290
     0
  0
SCALE
  5
54
102
{ACAD_REACTORS
330
47
102
}
330
47
100
AcDbScale
 70
     0
300
2:1
140
2.0
141
1.0
290
     0
  0
SCALE
  5
55
102
{ACAD_REACTORS
330
47
102
}
330
47
100
AcDbScale
 70
     0
300
4:1
140
4.0
141
1.0
290
     0
  0
SCALE
  5
56
102
{ACAD_REACTORS
330
47
102
}
330
47
100
AcDbScale
 70
     0
300
8:1
140
8.0
141
1.0
290
     0
  0
SCALE
  5
57
102
{ACAD_REACTORS
330
47
102
}
330
47
100
AcDbScale
 70
     0
300
10:1
140
10.0
141
1.0
290
     0
  0
SCALE
  5
58
102
{ACAD_REACTORS
330
47
102
}
330
47
100
AcDbScale
 70
     0
300
100:1
140
100.0
141
1.0
290
     0
  0
SCALE
  5
59
102
{ACAD_REACTORS
330
47
102
}
330
47
100
AcDbScale
 70
     0
300
1/128" = 1'-0"
140
0.0078125
141
12.0
290
     0
  0
SCALE
  5
5A
102
{ACAD_REACTORS
330
47
102
}
330
47
100
AcDbScale
 70
     0
300
1/64" = 1'-0"
140
0.015625
141
12.0
290
     0
  0
SCALE
  5
5B
102
{ACAD_REACTORS
330
47
102
}
330
47
100
AcDbScale
 70
     0
300
1/32" = 1'-0"
140
0.03125
141
12.0
290
     0
  0
SCALE
  5
5C
102
{ACAD_REACTORS
330
47
102
}
330
47
100
AcDbScale
 70
     0
300
1/16" = 1'-0"
140
0.0625
141
12.0
290
     0
  0
SCALE
  5
5D
102
{ACAD_REACTORS
330
47
102
}
330
47
100
AcDbScale
 70
     0
300
3/32" = 1'-0"
140
0.09375
141
12.0
290
     0
  0
SCALE
  5
5E
102
{ACAD_REACTORS
330
47
102
}
330
47
100
AcDbScale
 70
     0
300
1/8" = 1'-0"
140
0.125
141
12.0
290
     0
  0
SCALE
  5
5F
102
{ACAD_REACTORS
330
47
102
}
330
47
100
AcDbScale
 70
     0
300
3/16" = 1'-0"
140
0.1875
141
12.0
290
     0
  0
SCALE
  5
60
102
{ACAD_REACTORS
330
47
102
}
330
47
100
AcDbScale
 70
     0
300
1/4" = 1'-0"
140
0.25
141
12.0
290
     0
  0
SCALE
  5
61
102
{ACAD_REACTORS
330
47
102
}
330
47
100
AcDbScale
 70
     0
300
3/8" = 1'-0"
140
0.375
141
12.0
290
     0
  0
SCALE
  5
62
102
{ACAD_REACTORS
330
47
102
}
330
47
100
AcDbScale
 70
     0
300
1/2" = 1'-0"
140
0.5
141
12.0
290
     0
  0
SCALE
  5
63
102
{ACAD_REACTORS
330
47
102
}
330
47
100
AcDbScale
 70
     0
300
3/4" = 1'-0"
140
0.75
141
12.0
290
     0
  0
SCALE
  5
64
102
{ACAD_REACTORS
330
47
102
}
330
47
100
AcDbScale
 70
     0
300
1" = 1'-0"
140
1.0
141
12.0
290
     0
  0
SCALE
  5
65
102
{ACAD_REACTORS
330
47
102
}
330
47
100
AcDbScale
 70
     0
300
1-1/2" = 1'-0"
140
1.5
141
12.0
290
     0
  0
SCALE
  5
66
102
{ACAD_REACTORS
330
47
102
}
330
47
100
AcDbScale
 70
     0
300
3" = 1'-0"
140
3.0
141
12.0
290
     0
  0
SCALE
  5
67
102
{ACAD_REACTORS
330
47
102
}
330
47
100
AcDbScale
 70
     0
300
6" = 1'-0"
140
6.0
141
12.0
290
     0
  0
SCALE
  5
68
102
{ACAD_REACTORS
330
47
102
}
330
47
100
AcDbScale
 70
     0
300
1'-0" = 1'-0"
140
12.0
141
12.0
290
     0
  0
ENDSEC
  0
EOF
