  0
SECTION
  2
HEADER
  9
$ACADVER
  1
AC1015
  9
$ACADMAINTVER
 70
     6
  9
$DWGCODEPAGE
  3
ANSI_1252
  9
$INSBASE
 10
0.0
 20
0.0
 30
0.0
  9
$EXTMIN
 10
-5.8070866142
 20
-1.6352981704
 30
0.0
  9
$EXTMAX
 10
5.8070866142
 20
1.062992126
 30
0.0
  9
$LIMMIN
 10
0.0
 20
0.0
  9
$LIMMAX
 10
12.0
 20
9.0
  9
$ORTHOMODE
 70
     0
  9
$REGENMODE
 70
     1
  9
$FILLMODE
 70
     1
  9
$QTEXTMODE
 70
     0
  9
$MIRRTEXT
 70
     1
  9
$LTSCALE
 40
1.0
  9
$ATTMODE
 70
     1
  9
$TEXTSIZE
 40
0.1377952756
  9
$TRACEWID
 40
0.05
  9
$TEXTSTYLE
  7
Standard
  9
$CLAYER
  8
0
  9
$CELTYPE
  6
ByLayer
  9
$CECOLOR
 62
   256
  9
$CELTSCALE
 40
1.0
  9
$DISPSILH
 70
     0
  9
$DIMSCALE
 40
1.0
  9
$DIMASZ
 40
0.13
  9
$DIMEXO
 40
0.0393700787
  9
$DIMDLI
 40
0.38
  9
$DIMRND
 40
0.0
  9
$DIMDLE
 40
0.0
  9
$DIMEXE
 40
0.0393700787
  9
$DIMTP
 40
0.0
  9
$DIMTM
 40
0.0
  9
$DIMTXT
 40
0.1377952756
  9
$DIMCEN
 40
0.09
  9
$DIMTSZ
 40
0.0
  9
$DIMTOL
 70
     0
  9
$DIMLIM
 70
     0
  9
$DIMTIH
 70
     1
  9
$DIMTOH
 70
     1
  9
$DIMSE1
 70
     0
  9
$DIMSE2
 70
     0
  9
$DIMTAD
 70
     1
  9
$DIMZIN
 70
     1
  9
$DIMBLK
  1

  9
$DIMASO
 70
     1
  9
$DIMSHO
 70
     1
  9
$DIMPOST
  1

  9
$DIMAPOST
  1

  9
$DIMALT
 70
     0
  9
$DIMALTD
 70
     2
  9
$DIMALTF
 40
25.4
  9
$DIMLFAC
 40
1.0
  9
$DIMTOFL
 70
     0
  9
$DIMTVP
 40
0.0
  9
$DIMTIX
 70
     0
  9
$DIMSOXD
 70
     0
  9
$DIMSAH
 70
     0
  9
$DIMBLK1
  1

  9
$DIMBLK2
  1

  9
$DIMSTYLE
  2
Standard
  9
$DIMCLRD
 70
     0
  9
$DIMCLRE
 70
     0
  9
$DIMCLRT
 70
     0
  9
$DIMTFAC
 40
1.0
  9
$DIMGAP
 40
0.06
  9
$DIMJUST
 70
     0
  9
$DIMSD1
 70
     0
  9
$DIMSD2
 70
     0
  9
$DIMTOLJ
 70
     1
  9
$DIMTZIN
 70
     1
  9
$DIMALTZ
 70
     0
  9
$DIMALTTZ
 70
     0
  9
$DIMUPT
 70
     0
  9
$DIMDEC
 70
     2
  9
$DIMTDEC
 70
     2
  9
$DIMALTU
 70
     2
  9
$DIMALTTD
 70
     2
  9
$DIMTXSTY
  7
Standard
  9
$DIMAUNIT
 70
     0
  9
$DIMADEC
 70
     2
  9
$DIMALTRND
 40
0.0
  9
$DIMAZIN
 70
     0
  9
$DIMDSEP
 70
    46
  9
$DIMATFIT
 70
     3
  9
$DIMFRAC
 70
     0
  9
$DIMLDRBLK
  1

  9
$DIMLUNIT
 70
     2
  9
$DIMLWD
 70
    -2
  9
$DIMLWE
 70
    -2
  9
$DIMTMOVE
 70
     0
  9
$LUNITS
 70
     2
  9
$LUPREC
 70
     2
  9
$SKETCHINC
 40
0.1
  9
$FILLETRAD
 40
0.5
  9
$AUNITS
 70
     0
  9
$AUPREC
 70
     2
  9
$MENU
  1
.
  9
$ELEVATION
 40
0.0
  9
$PELEVATION
 40
0.0
  9
$THICKNESS
 40
0.0
  9
$LIMCHECK
 70
     0
  9
$CHAMFERA
 40
0.0
  9
$CHAMFERB
 40
0.0
  9
$CHAMFERC
 40
0.0
  9
$CHAMFERD
 40
0.0
  9
$SKPOLY
 70
     0
  9
$TDCREATE
 40
2460416.484494236
  9
$TDUCREATE
 40
2460416.442827569
  9
$TDUPDATE
 40
2460416.484534665
  9
$TDUUPDATE
 40
2460416.442867998
  9
$TDINDWG
 40
0.0000000116
  9
$TDUSRTIMER
 40
0.0000000116
  9
$USRTIMER
 70
     1
  9
$ANGBASE
 50
0.0
  9
$ANGDIR
 70
     0
  9
$PDMODE
 70
     0
  9
$PDSIZE
 40
-1.0
  9
$PLINEWID
 40
0.0
  9
$SPLFRAME
 70
     0
  9
$SPLINETYPE
 70
     6
  9
$SPLINESEGS
 70
     8
  9
$HANDSEED
  5
1C8
  9
$SURFTAB1
 70
     6
  9
$SURFTAB2
 70
     6
  9
$SURFTYPE
 70
     6
  9
$SURFU
 70
     6
  9
$SURFV
 70
     6
  9
$UCSBASE
  2

  9
$UCSNAME
  2

  9
$UCSORG
 10
0.0
 20
0.0
 30
0.0
  9
$UCSXDIR
 10
1.0
 20
0.0
 30
0.0
  9
$UCSYDIR
 10
0.0
 20
1.0
 30
0.0
  9
$UCSORTHOREF
  2

  9
$UCSORTHOVIEW
 70
     0
  9
$UCSORGTOP
 10
0.0
 20
0.0
 30
0.0
  9
$UCSORGBOTTOM
 10
0.0
 20
0.0
 30
0.0
  9
$UCSORGLEFT
 10
0.0
 20
0.0
 30
0.0
  9
$UCSORGRIGHT
 10
0.0
 20
0.0
 30
0.0
  9
$UCSORGFRONT
 10
0.0
 20
0.0
 30
0.0
  9
$UCSORGBACK
 10
0.0
 20
0.0
 30
0.0
  9
$PUCSBASE
  2

  9
$PUCSNAME
  2

  9
$PUCSORG
 10
0.0
 20
0.0
 30
0.0
  9
$PUCSXDIR
 10
1.0
 20
0.0
 30
0.0
  9
$PUCSYDIR
 10
0.0
 20
1.0
 30
0.0
  9
$PUCSORTHOREF
  2

  9
$PUCSORTHOVIEW
 70
     0
  9
$PUCSORGTOP
 10
0.0
 20
0.0
 30
0.0
  9
$PUCSORGBOTTOM
 10
0.0
 20
0.0
 30
0.0
  9
$PUCSORGLEFT
 10
0.0
 20
0.0
 30
0.0
  9
$PUCSORGRIGHT
 10
0.0
 20
0.0
 30
0.0
  9
$PUCSORGFRONT
 10
0.0
 20
0.0
 30
0.0
  9
$PUCSORGBACK
 10
0.0
 20
0.0
 30
0.0
  9
$USERI1
 70
     0
  9
$USERI2
 70
     0
  9
$USERI3
 70
     0
  9
$USERI4
 70
     0
  9
$USERI5
 70
     0
  9
$USERR1
 40
0.0
  9
$USERR2
 40
0.0
  9
$USERR3
 40
0.0
  9
$USERR4
 40
0.0
  9
$USERR5
 40
0.0
  9
$WORLDVIEW
 70
     1
  9
$SHADEDGE
 70
     3
  9
$SHADEDIF
 70
    70
  9
$TILEMODE
 70
     1
  9
$MAXACTVP
 70
    64
  9
$PINSBASE
 10
0.0
 20
0.0
 30
0.0
  9
$PLIMCHECK
 70
     0
  9
$PEXTMIN
 10
0.0
 20
-1.6354293306
 30
0.0
  9
$PEXTMAX
 10
5.5870104426
 20
1.062992126
 30
0.0
  9
$PLIMMIN
 10
-0.1330242726
 20
-1.7684533938
  9
$PLIMMAX
 10
5.7200345057
 20
2.7543647532
  9
$UNITMODE
 70
     0
  9
$VISRETAIN
 70
     1
  9
$PLINEGEN
 70
     0
  9
$PSLTSCALE
 70
     1
  9
$TREEDEPTH
 70
  3020
  9
$CMLSTYLE
  2
Standard
  9
$CMLJUST
 70
     0
  9
$CMLSCALE
 40
1.0
  9
$PROXYGRAPHICS
 70
     1
  9
$MEASUREMENT
 70
     0
  9
$CELWEIGHT
370
    -1
  9
$ENDCAPS
280
     0
  9
$JOINSTYLE
280
     0
  9
$LWDISPLAY
290
     1
  9
$INSUNITS
 70
     1
  9
$HYPERLINKBASE
  1

  9
$STYLESHEET
  1

  9
$XEDIT
290
     1
  9
$CEPSNTYPE
380
     0
  9
$PSTYLEMODE
290
     1
  9
$FINGERPRINTGUID
  2
{d5c4edf9-9de5-4baa-aee7-1fae8e042664}
  9
$VERSIONGUID
  2
{FAEB1C32-E019-11D5-929B-00C0DF256EC4}
  9
$EXTNAMES
290
     1
  9
$PSVPSCALE
 40
0.0
  9
$OLESTARTUP
290
     0
  0
ENDSEC
  0
SECTION
  2
CLASSES
  0
CLASS
  1
ACDBDICTIONARYWDFLT
  2
AcDbDictionaryWithDefault
  3
ObjectDBX Classes
 90
        0
280
     0
281
     0
  0
CLASS
  1
VISUALSTYLE
  2
AcDbVisualStyle
  3
ObjectDBX Classes
 90
     4095
280
     0
281
     0
  0
CLASS
  1
MATERIAL
  2
AcDbMaterial
  3
ObjectDBX Classes
 90
     1153
280
     0
281
     0
  0
CLASS
  1
SCALE
  2
AcDbScale
  3
ObjectDBX Classes
 90
     1153
280
     0
281
     0
  0
CLASS
  1
TABLESTYLE
  2
AcDbTableStyle
  3
ObjectDBX Classes
 90
     4095
280
     0
281
     0
  0
CLASS
  1
MLEADERSTYLE
  2
AcDbMLeaderStyle
  3
ACDB_MLEADERSTYLE_CLASS
 90
     4095
280
     0
281
     0
  0
CLASS
  1
SUN
  2
AcDbSun
  3
SCENEOE
 90
     1153
280
     0
281
     0
  0
CLASS
  1
ACDBPLACEHOLDER
  2
AcDbPlaceHolder
  3
ObjectDBX Classes
 90
        0
280
     0
281
     0
  0
CLASS
  1
LAYOUT
  2
AcDbLayout
  3
ObjectDBX Classes
 90
        0
280
     0
281
     0
  0
ENDSEC
  0
SECTION
  2
TABLES
  0
TABLE
  2
VPORT
  5
8
330
0
100
AcDbSymbolTable
 70
     1
  0
VPORT
  5
29
330
8
100
AcDbSymbolTableRecord
100
AcDbViewportTableRecord
  2
*Active
 70
     0
 10
0.0
 20
0.0
 11
1.0
 21
1.0
 12
0.0
 22
-0.2861530222
 13
0.0
 23
0.0
 14
0.5
 24
0.5
 15
0.5
 25
0.5
 16
0.0
 26
0.0
 36
1.0
 17
0.0
 27
0.0
 37
0.0
 40
2.7522561023
 41
4.304271206
 42
50.0
 43
0.0
 44
0.0
 50
0.0
 51
0.0
 71
     0
 72
   100
 73
     1
 74
     3
 75
     0
 76
     0
 77
     0
 78
     0
281
     0
 65
     1
110
0.0
120
0.0
130
0.0
111
1.0
121
0.0
131
0.0
112
0.0
122
1.0
132
0.0
 79
     0
146
0.0
  0
ENDTAB
  0
TABLE
  2
LTYPE
  5
5
330
0
100
AcDbSymbolTable
 70
     6
  0
LTYPE
  5
14
330
5
100
AcDbSymbolTableRecord
100
AcDbLinetypeTableRecord
  2
ByBlock
 70
     0
  3

 72
    65
 73
     0
 40
0.0
  0
LTYPE
  5
15
330
5
100
AcDbSymbolTableRecord
100
AcDbLinetypeTableRecord
  2
ByLayer
 70
     0
  3

 72
    65
 73
     0
 40
0.0
  0
LTYPE
  5
16
330
5
100
AcDbSymbolTableRecord
100
AcDbLinetypeTableRecord
  2
Continuous
 70
     0
  3
Solid line
 72
    65
 73
     0
 40
0.0
  0
LTYPE
  5
6E
330
5
100
AcDbSymbolTableRecord
100
AcDbLinetypeTableRecord
  2
HIDDEN
 70
     0
  3
Hidden __ __ __ __ __ __ __ __ __ __ __ __ __ __
 72
    65
 73
     2
 40
0.075
 49
0.05
 74
     0
 49
-0.025
 74
     0
  0
LTYPE
  5
6F
330
5
100
AcDbSymbolTableRecord
100
AcDbLinetypeTableRecord
  2
PHANTOM
 70
     0
  3
Phantom ______  __  __  ______  __  __  ______
 72
    65
 73
     6
 40
0.5
 49
0.25
 74
     0
 49
-0.05
 74
     0
 49
0.05
 74
     0
 49
-0.05
 74
     0
 49
0.05
 74
     0
 49
-0.05
 74
     0
  0
LTYPE
  5
70
330
5
100
AcDbSymbolTableRecord
100
AcDbLinetypeTableRecord
  2
CENTER
 70
     0
  3
Center ____ _ ____ _ ____ _ ____ _ ____ _ ____
 72
    65
 73
     4
 40
0.4
 49
0.25
 74
     0
 49
-0.05
 74
     0
 49
0.05
 74
     0
 49
-0.05
 74
     0
  0
LTYPE
  5
71
330
5
100
AcDbSymbolTableRecord
100
AcDbLinetypeTableRecord
  2
CENTERX2
 70
     0
  3
Center (2x) ________  __  ________  __  _____
 72
    65
 73
     4
 40
0.8
 49
0.5
 74
     0
 49
-0.1
 74
     0
 49
0.1
 74
     0
 49
-0.1
 74
     0
  0
LTYPE
  5
72
330
5
100
AcDbSymbolTableRecord
100
AcDbLinetypeTableRecord
  2
DOT2
 70
     0
  3
Dot (.5x) ........................................
 72
    65
 73
     2
 40
0.025
 49
0.0
 74
     0
 49
-0.025
 74
     0
  0
ENDTAB
  0
TABLE
  2
LAYER
  5
2
330
0
100
AcDbSymbolTable
 70
     1
  0
LAYER
  5
10
330
2
100
AcDbSymbolTableRecord
100
AcDbLayerTableRecord
  2
0
 70
     0
 62
     7
  6
Continuous
370
    -3
390
F
  0
ENDTAB
  0
TABLE
  2
STYLE
  5
3
330
0
100
AcDbSymbolTable
 70
     1
  0
STYLE
  5
11
330
3
100
AcDbSymbolTableRecord
100
AcDbTextStyleTableRecord
  2
Standard
 70
     0
 40
0.0
 41
1.0
 50
0.0
 71
     0
 42
0.1377952756
  3
txt
  4

  0
ENDTAB
  0
TABLE
  2
VIEW
  5
6
330
0
100
AcDbSymbolTable
 70
     0
  0
ENDTAB
  0
TABLE
  2
UCS
  5
7
330
0
100
AcDbSymbolTable
 70
     0
  0
ENDTAB
  0
TABLE
  2
APPID
  5
9
330
0
100
AcDbSymbolTable
 70
     1
  0
APPID
  5
12
330
9
100
AcDbSymbolTableRecord
100
AcDbRegAppTableRecord
  2
ACAD
 70
     0
  0
ENDTAB
  0
TABLE
  2
DIMSTYLE
  5
A
330
0
100
AcDbSymbolTable
 70
     1
100
AcDbDimStyleTable
  0
DIMSTYLE
105
27
330
A
100
AcDbSymbolTableRecord
100
AcDbDimStyleTableRecord
  2
Standard
 70
     0
178
     0
340
11
  0
ENDTAB
  0
TABLE
  2
BLOCK_RECORD
  5
1
330
0
100
AcDbSymbolTable
 70
     2
  0
BLOCK_RECORD
  5
1F
330
1
100
AcDbSymbolTableRecord
100
AcDbBlockTableRecord
  2
*Model_Space
340
22
  0
BLOCK_RECORD
  5
1B
330
1
100
AcDbSymbolTableRecord
100
AcDbBlockTableRecord
  2
*Paper_Space
340
1E
  0
BLOCK_RECORD
  5
23
330
1
100
AcDbSymbolTableRecord
100
AcDbBlockTableRecord
  2
*Paper_Space0
340
26
  0
BLOCK_RECORD
  5
149
330
1
100
AcDbSymbolTableRecord
100
AcDbBlockTableRecord
  2
*Paper_Space1
340
14A
  0
ENDTAB
  0
ENDSEC
  0
SECTION
  2
BLOCKS
  0
BLOCK
  5
20
330
1F
100
AcDbEntity
  8
0
100
AcDbBlockBegin
  2
*Model_Space
 70
     0
 10
0.0
 20
0.0
 30
0.0
  3
*Model_Space
  1

  0
ENDBLK
  5
21
330
1F
100
AcDbEntity
  8
0
100
AcDbBlockEnd
  0
BLOCK
  5
1C
330
1B
100
AcDbEntity
 67
     1
  8
0
100
AcDbBlockBegin
  2
*Paper_Space
 70
     0
 10
0.0
 20
0.0
 30
0.0
  3
*Paper_Space
  1

  0
ENDBLK
  5
1D
330
1B
100
AcDbEntity
 67
     1
  8
0
100
AcDbBlockEnd
  0
BLOCK
  5
24
330
23
100
AcDbEntity
  8
0
100
AcDbBlockBegin
  2
*Paper_Space0
 70
     0
 10
0.0
 20
0.0
 30
0.0
  3
*Paper_Space0
  1

  0
LWPOLYLINE
  5
FC
330
23
100
AcDbEntity
  8
0
  6
Continuous
 62
     7
370
    25
100
AcDbPolyline
 90
       22
 70
   128
 43
0.0
 10
0.3937007874
 20
-5.2362204724
 10
0.389086781
 20
-5.2897683103
 10
0.3753529103
 20
-5.3420610322
 10
0.3528210854
 20
-5.3918729411
 10
0.3220194334
 20
-5.4380364881
 10
0.2836699187
 20
-5.4794696387
 10
0.2386714216
 20
-5.515201235
 10
0.1880786687
 20
-5.5443937587
 10
0.1330775112
 20
-5.5663629618
 10
0.0749571296
 20
-5.5805939047
 10
0.0150798164
 20
-5.5867530263
 10
-0.0451509549
 20
-5.5846959619
 10
-0.1043234261
 20
-5.5744709273
 10
-0.1610506446
 20
-5.5563175888
 10
-0.2140029724
 20
-5.5306614452
 10
-0.261939252
 20
-5.4981038548
 10
-0.3037358976
 20
-5.4594079398
 10
-0.3384132311
 20
-5.4154806998
 10
-0.3651584453
 20
-5.3673517519
 10
-0.3833446551
 20
-5.316149198
 10
-0.392545591
 20
-5.2630731826
 10
-0.3937007874
 20
-5.2362204724
  0
SPLINE
  5
102
330
23
100
AcDbEntity
  8
0
  6
Continuous
 62
     7
370
    25
100
AcDbSpline
210
0.0
220
0.0
230
1.0
 70
     8
 71
     3
 72
    27
 73
    23
 74
     0
 42
0.000000001
 43
0.00000001
 40
0.0
 40
0.0
 40
0.0
 40
0.0
 40
0.0328427902950367
 40
0.0843671637617157
 40
0.1373651406173823
 40
0.1893212457867054
 40
0.2427191993188452
 40
0.2958329297615361
 40
0.350473959411331
 40
0.4037287301915055
 40
0.4585961404972876
 40
0.5106737639494094
 40
0.5643035394313558
 40
0.6157399338595156
 40
0.6686221589128993
 40
0.7209299862534986
 40
0.7746943629562634
 40
0.828038915687599
 40
0.8829486041857032
 40
0.9359005761105198
 40
0.9904588027825005
 40
1.0
 40
1.0
 40
1.0
 40
1.0
 10
-4.625860074021261
 20
-1.771109198729836
 30
0.0
 10
-4.62587176125761
 20
-1.771161000845557
 30
0.0
 10
-4.625901783645301
 20
-1.771294071073178
 30
0.0
 10
-4.624841231898536
 20
-1.766623779919288
 30
0.0
 10
-4.622945765129018
 20
-1.757905251762702
 30
0.0
 10
-4.620335270348071
 20
-1.745002857141532
 30
0.0
 10
-4.617356096214763
 20
-1.728593721410596
 30
0.0
 10
-4.614263220339822
 20
-1.708700199307635
 30
0.0
 10
-4.611453365772068
 20
-1.686117418482376
 30
0.0
 10
-4.609227308467789
 20
-1.661175127607416
 30
0.0
 10
-4.607901485138242
 20
-1.635215142538456
 30
0.0
 10
-4.607595765890661
 20
-1.608586080464972
 30
0.0
 10
-4.608321532670667
 20
-1.582674785604139
 30
0.0
 10
-4.609986310070024
 20
-1.55755383255086
 30
0.0
 10
-4.612372150825626
 20
-1.534207601697952
 30
0.0
 10
-4.615272011671629
 20
-1.512751189459373
 30
0.0
 10
-4.618350802720339
 20
-1.494027839678047
 30
0.0
 10
-4.621301278237716
 20
-1.478414939207459
 30
0.0
 10
-4.623764457637969
 20
-1.466614294084934
 30
0.0
 10
-4.625376681862889
 20
-1.459343524755397
 30
0.0
 10
-4.626086089306956
 20
-1.456245746927381
 30
0.0
 10
-4.62593503674656
 20
-1.456908968573826
 30
0.0
 10
-4.625912552577724
 20
-1.457007689094912
 30
0.0
  0
SPLINE
  5
108
330
23
100
AcDbEntity
  8
0
  6
Continuous
 62
     7
370
    25
100
AcDbSpline
210
0.0
220
0.0
230
1.0
 70
     8
 71
     3
 72
    17
 73
    13
 74
     0
 42
0.000000001
 43
0.00000001
 40
0.0
 40
0.0
 40
0.0
 40
0.0
 40
0.1039329999260045
 40
0.2109310664532909
 40
0.314849994155814
 40
0.4216904751238805
 40
0.5273254198150378
 40
0.635951317845695
 40
0.7427161749064004
 40
0.8526795768613658
 40
0.9576023320381275
 40
1.0
 40
1.0
 40
1.0
 40
1.0
 10
4.607745080212632
 20
-1.614173228346455
 30
0.0
 10
4.607841647863375
 20
-1.622771711582214
 30
0.0
 10
4.608037631021475
 20
-1.640222254144159
 30
0.0
 10
4.609569095774537
 20
-1.665528702359077
 30
0.0
 10
4.611839015371078
 20
-1.689586304079329
 30
0.0
 10
4.614658933588551
 20
-1.711443151611014
 30
0.0
 10
4.617749754777425
 20
-1.730898787154561
 30
0.0
 10
4.620736097623431
 20
-1.747074157597299
 30
0.0
 10
4.623339281772099
 20
-1.759763130849871
 30
0.0
 10
4.625124170737065
 20
-1.767885798568673
 30
0.0
 10
4.626001333569442
 20
-1.771728778060247
 30
0.0
 10
4.625891642309693
 20
-1.771247660584341
 30
0.0
 10
4.625860074021261
 20
-1.771109198729836
 30
0.0
  0
SPLINE
  5
109
330
23
100
AcDbEntity
  8
0
  6
Continuous
 62
     7
370
    25
100
AcDbSpline
210
0.0
220
0.0
230
1.0
 70
     8
 71
     3
 72
    16
 73
    12
 74
     0
 42
0.000000001
 43
0.00000001
 40
0.0
 40
0.0
 40
0.0
 40
0.0
 40
0.0844970817639727
 40
0.1911147593924747
 40
0.2943804822301059
 40
0.4005257967845675
 40
0.5059152787470023
 40
0.6142718630012338
 40
0.7211149478718176
 40
0.8311413887895939
 40
1.0
 40
1.0
 40
1.0
 40
1.0
 10
4.625912552577724
 20
-1.457007689094912
 30
0.0
 10
4.625879360146942
 20
-1.45715150052441
 30
0.0
 10
4.625804285797743
 20
-1.457476771955951
 30
0.0
 10
4.624537549066157
 20
-1.463084594759775
 30
0.0
 10
4.62246511448428
 20
-1.472735595654892
 30
0.0
 10
4.619775715873743
 20
-1.486266596080011
 30
0.0
 10
4.616733389317302
 20
-1.503486703112712
 30
0.0
 10
4.613679420710791
 20
-1.523847546749594
 30
0.0
 10
4.61096079959818
 20
-1.547110049431258
 30
0.0
 10
4.608415181314337
 20
-1.577057180776791
 30
0.0
 10
4.607997797002772
 20
-1.600175566828478
 30
0.0
 10
4.607745080212633
 20
-1.614173228346455
 30
0.0
  0
LWPOLYLINE
  5
110
330
23
100
AcDbEntity
  8
0
  6
Continuous
 62
     8
370
    25
100
AcDbPolyline
 90
       22
 70
   128
 43
0.0
 10
0.3937007874
 20
-4.7130579957
 10
0.389086781
 20
-4.7666058335
 10
0.3753529103
 20
-4.8188985554
 10
0.3528210854
 20
-4.8687104643
 10
0.3220194334
 20
-4.9148740113
 10
0.2836699187
 20
-4.9563071619
 10
0.2386714216
 20
-4.9920387582
 10
0.1880786687
 20
-5.0212312819
 10
0.1330775112
 20
-5.043200485
 10
0.0749571296
 20
-5.0574314279
 10
0.0150798164
 20
-5.0635905495
 10
-0.0451509549
 20
-5.0615334851
 10
-0.1043234261
 20
-5.0513084505
 10
-0.1610506446
 20
-5.033155112
 10
-0.2140029724
 20
-5.0074989684
 10
-0.261939252
 20
-4.974941378
 10
-0.3037358976
 20
-4.936245463
 10
-0.3384132311
 20
-4.892318223
 10
-0.3651584453
 20
-4.8441892751
 10
-0.3833446551
 20
-4.7929867212
 10
-0.392545591
 20
-4.7399107058
 10
-0.3937007874
 20
-4.7130579957
  0
LINE
  5
114
330
23
100
AcDbEntity
  8
0
  6
Continuous
 62
     7
370
    25
100
AcDbLine
 10
-1.062992126
 20
-0.0196850394
 30
0.0
 11
-1.062992126
 21
-0.0984251969
 31
0.0
  0
LINE
  5
115
330
23
100
AcDbEntity
  8
0
  6
Continuous
 62
     7
370
    25
100
AcDbLine
 10
1.062992126
 20
-0.0984251969
 30
0.0
 11
1.062992126
 21
-0.0196850394
 31
0.0
  0
LINE
  5
116
330
23
100
AcDbEntity
  8
0
  6
Continuous
 62
     7
370
    25
100
AcDbLine
 10
0.3937007874
 20
-5.2362204724
 30
0.0
 11
0.3937007874
 21
-0.1181102362
 31
0.0
  0
LINE
  5
117
330
23
100
AcDbEntity
  8
0
  6
Continuous
 62
     7
370
    25
100
AcDbLine
 10
-0.3937007874
 20
-0.1181102362
 30
0.0
 11
-0.3937007874
 21
-5.2362204724
 31
0.0
  0
LINE
  5
118
330
23
100
AcDbEntity
  8
0
  6
Continuous
 62
     7
370
    25
100
AcDbLine
 10
-2.874015748
 20
-0.1968503937
 30
0.0
 11
-2.874015748
 21
0.0
 31
0.0
  0
LINE
  5
119
330
23
100
AcDbEntity
  8
0
  6
Continuous
 62
     7
370
    25
100
AcDbLine
 10
-5.0
 20
0.0
 30
0.0
 11
-5.0
 21
-0.1968503937
 31
0.0
  0
LINE
  5
11A
330
23
100
AcDbEntity
  8
0
  6
Continuous
 62
     7
370
    25
100
AcDbLine
 10
-3.2480314961
 20
-0.8267716535
 30
0.0
 11
-3.2480314961
 21
-0.1968503937
 31
0.0
  0
LINE
  5
11B
330
23
100
AcDbEntity
  8
0
  6
Continuous
 62
     7
370
    25
100
AcDbLine
 10
-4.625984252
 20
-0.1968503937
 30
0.0
 11
-4.625984252
 21
-0.8267716535
 31
0.0
  0
LINE
  5
11C
330
23
100
AcDbEntity
  8
0
  6
Continuous
 62
     7
370
    25
100
AcDbLine
 10
-4.625984252
 20
-1.7711091987
 30
0.0
 11
-4.625984252
 21
-2.0078740157
 31
0.0
  0
LINE
  5
11D
330
23
100
AcDbEntity
  8
0
  6
Continuous
 62
     7
370
    25
100
AcDbLine
 10
-4.625984252
 20
-0.8661417323
 30
0.0
 11
-4.625984252
 21
-1.4570076891
 31
0.0
  0
LINE
  5
11E
330
23
100
AcDbEntity
  8
0
  6
Continuous
 62
     7
370
    25
100
AcDbLine
 10
-3.2480314961
 20
-2.0078740157
 30
0.0
 11
-3.2480314961
 21
-0.8661417323
 31
0.0
  0
LINE
  5
11F
330
23
100
AcDbEntity
  8
0
  6
Continuous
 62
     7
370
    25
100
AcDbLine
 10
-3.2677165354
 20
-0.8661417323
 30
0.0
 11
-3.2677165354
 21
-0.8267716535
 31
0.0
  0
LINE
  5
120
330
23
100
AcDbEntity
  8
0
  6
Continuous
 62
     7
370
    25
100
AcDbLine
 10
-4.6062992126
 20
-0.8267716535
 30
0.0
 11
-4.6062992126
 21
-0.8661417323
 31
0.0
  0
LINE
  5
121
330
23
100
AcDbEntity
  8
0
  6
Continuous
 62
     7
370
    25
100
AcDbLine
 10
-5.7992125984
 20
-1.7716535433
 30
0.0
 11
-4.6258601138
 21
-1.7716535433
 31
0.0
  0
LINE
  5
122
330
23
100
AcDbEntity
  8
0
  6
Continuous
 62
     7
370
    25
100
AcDbLine
 10
-4.6259127331
 20
-1.4566929134
 30
0.0
 11
-5.7992125984
 21
-1.4566929134
 31
0.0
  0
LINE
  5
123
330
23
100
AcDbEntity
  8
0
  6
Continuous
 62
     7
370
    25
100
AcDbLine
 10
5.0
 20
-0.1968503937
 30
0.0
 11
5.0
 21
0.0
 31
0.0
  0
LINE
  5
124
330
23
100
AcDbEntity
  8
0
  6
Continuous
 62
     7
370
    25
100
AcDbLine
 10
2.874015748
 20
0.0
 30
0.0
 11
2.874015748
 21
-0.1968503937
 31
0.0
  0
LINE
  5
125
330
23
100
AcDbEntity
  8
0
  6
Continuous
 62
     7
370
    25
100
AcDbLine
 10
3.2480314961
 20
-0.8661417323
 30
0.0
 11
3.2480314961
 21
-2.0078740157
 31
0.0
  0
LINE
  5
126
330
23
100
AcDbEntity
  8
0
  6
Continuous
 62
     7
370
    25
100
AcDbLine
 10
4.625984252
 20
-1.4570076891
 30
0.0
 11
4.625984252
 21
-0.8661417323
 31
0.0
  0
LINE
  5
127
330
23
100
AcDbEntity
  8
0
  6
Continuous
 62
     7
370
    25
100
AcDbLine
 10
4.625984252
 20
-2.0078740157
 30
0.0
 11
4.625984252
 21
-1.7711091987
 31
0.0
  0
LINE
  5
128
330
23
100
AcDbEntity
  8
0
  6
Continuous
 62
     7
370
    25
100
AcDbLine
 10
4.625984252
 20
-0.8267716535
 30
0.0
 11
4.625984252
 21
-0.1968503937
 31
0.0
  0
LINE
  5
129
330
23
100
AcDbEntity
  8
0
  6
Continuous
 62
     7
370
    25
100
AcDbLine
 10
3.2480314961
 20
-0.1968503937
 30
0.0
 11
3.2480314961
 21
-0.8267716535
 31
0.0
  0
LINE
  5
12A
330
23
100
AcDbEntity
  8
0
  6
Continuous
 62
     7
370
    25
100
AcDbLine
 10
4.6062992126
 20
-0.8661417323
 30
0.0
 11
4.6062992126
 21
-0.8267716535
 31
0.0
  0
LINE
  5
12B
330
23
100
AcDbEntity
  8
0
  6
Continuous
 62
     7
370
    25
100
AcDbLine
 10
3.2677165354
 20
-0.8267716535
 30
0.0
 11
3.2677165354
 21
-0.8661417323
 31
0.0
  0
LINE
  5
12C
330
23
100
AcDbEntity
  8
0
  6
Continuous
 62
     7
370
    25
100
AcDbLine
 10
5.7992125984
 20
-1.4566929134
 30
0.0
 11
4.6259127331
 21
-1.4566929134
 31
0.0
  0
LINE
  5
12D
330
23
100
AcDbEntity
  8
0
  6
Continuous
 62
     7
370
    25
100
AcDbLine
 10
4.6258601138
 20
-1.7716535433
 30
0.0
 11
5.7992125984
 21
-1.7716535433
 31
0.0
  0
LINE
  5
12E
330
23
100
AcDbEntity
  8
0
  6
Continuous
 62
     7
370
    25
100
AcDbLine
 10
1.0433070866
 20
-0.1181102362
 30
0.0
 11
-1.043307086
 21
-0.1181102362
 31
0.0
  0
LINE
  5
12F
330
23
100
AcDbEntity
  8
0
  6
Continuous
 62
     7
370
    25
100
AcDbLine
 10
-1.043307086
 20
0.0
 30
0.0
 11
1.0433070866
 21
0.0
 31
0.0
  0
LINE
  5
130
330
23
100
AcDbEntity
  8
0
  6
Continuous
 62
     7
370
    25
100
AcDbLine
 10
-5.0
 20
-0.1968503937
 30
0.0
 11
-2.874015748
 21
-0.1968503937
 31
0.0
  0
LINE
  5
131
330
23
100
AcDbEntity
  8
0
  6
Continuous
 62
     7
370
    25
100
AcDbLine
 10
-5.0
 20
0.0
 30
0.0
 11
-2.874015748
 21
0.0
 31
0.0
  0
LINE
  5
132
330
23
100
AcDbEntity
  8
0
  6
Continuous
 62
     7
370
    25
100
AcDbLine
 10
-4.625984252
 20
-0.8267716535
 30
0.0
 11
-3.2480314961
 21
-0.8267716535
 31
0.0
  0
LINE
  5
133
330
23
100
AcDbEntity
  8
0
  6
Continuous
 62
     7
370
    25
100
AcDbLine
 10
-3.2480314961
 20
-0.8661417323
 30
0.0
 11
-4.625984252
 21
-0.8661417323
 31
0.0
  0
LINE
  5
134
330
23
100
AcDbEntity
  8
0
  6
Continuous
 62
     7
370
    25
100
AcDbLine
 10
-3.2480314961
 20
-2.0078740157
 30
0.0
 11
-4.625984252
 21
-2.0078740157
 31
0.0
  0
LINE
  5
135
330
23
100
AcDbEntity
  8
0
  6
Continuous
 62
     7
370
    25
100
AcDbLine
 10
-5.8070866142
 20
-1.7637795276
 30
0.0
 11
-5.8070866142
 21
-1.4645669291
 31
0.0
  0
LINE
  5
136
330
23
100
AcDbEntity
  8
0
  6
Continuous
 62
     7
370
    25
100
AcDbLine
 10
2.874015748
 20
-0.1968503937
 30
0.0
 11
5.0
 21
-0.1968503937
 31
0.0
  0
LINE
  5
137
330
23
100
AcDbEntity
  8
0
  6
Continuous
 62
     7
370
    25
100
AcDbLine
 10
2.874015748
 20
0.0
 30
0.0
 11
5.0
 21
0.0
 31
0.0
  0
LINE
  5
138
330
23
100
AcDbEntity
  8
0
  6
Continuous
 62
     7
370
    25
100
AcDbLine
 10
4.625984252
 20
-0.8661417323
 30
0.0
 11
3.2480314961
 21
-0.8661417323
 31
0.0
  0
LINE
  5
139
330
23
100
AcDbEntity
  8
0
  6
Continuous
 62
     7
370
    25
100
AcDbLine
 10
4.625984252
 20
-2.0078740157
 30
0.0
 11
3.2480314961
 21
-2.0078740157
 31
0.0
  0
LINE
  5
13A
330
23
100
AcDbEntity
  8
0
  6
Continuous
 62
     7
370
    25
100
AcDbLine
 10
3.2480314961
 20
-0.8267716535
 30
0.0
 11
4.625984252
 21
-0.8267716535
 31
0.0
  0
LINE
  5
13B
330
23
100
AcDbEntity
  8
0
  6
Continuous
 62
     7
370
    25
100
AcDbLine
 10
5.8070866142
 20
-1.4645669291
 30
0.0
 11
5.8070866142
 21
-1.7637795276
 31
0.0
  0
LINE
  5
13C
330
23
100
AcDbEntity
  8
0
  6
Continuous
 62
     8
370
    25
100
AcDbLine
 10
-1.062992126
 20
-0.0984251969
 30
0.0
 11
1.062992126
 21
-0.0984251969
 31
0.0
  0
LINE
  5
13D
330
23
100
AcDbEntity
  8
0
  6
Continuous
 62
     8
370
    25
100
AcDbLine
 10
1.062992126
 20
-0.0196850394
 30
0.0
 11
-1.062992126
 21
-0.0196850394
 31
0.0
  0
LINE
  5
13E
330
23
100
AcDbEntity
  8
0
  6
Continuous
 62
     8
370
    25
100
AcDbLine
 10
0.3937007874
 20
-4.0114780554
 30
0.0
 11
-0.3937007874
 21
-4.0114780554
 31
0.0
  0
LINE
  5
13F
330
23
100
AcDbEntity
  8
0
  6
Continuous
 62
     8
370
    25
100
AcDbLine
 10
-5.7992125984
 20
-1.4566929134
 30
0.0
 11
-5.7992125984
 21
-1.7716535433
 31
0.0
  0
LINE
  5
140
330
23
100
AcDbEntity
  8
0
  6
Continuous
 62
     8
370
    25
100
AcDbLine
 10
5.7992125984
 20
-1.7716535433
 30
0.0
 11
5.7992125984
 21
-1.4566929134
 31
0.0
  0
ARC
  5
141
330
23
100
AcDbEntity
  8
0
  6
Continuous
 62
     7
370
    25
100
AcDbCircle
 10
1.0433070866
 20
-0.0984251969
 30
0.0
 40
0.0196850393700794
100
AcDbArc
 50
270.0
 51
360.0
  0
ARC
  5
142
330
23
100
AcDbEntity
  8
0
  6
Continuous
 62
     7
370
    25
100
AcDbCircle
 10
-1.0433070866
 20
-0.0984251969
 30
0.0
 40
0.0196850393700794
100
AcDbArc
 50
180.0
 51
270.0
  0
ARC
  5
143
330
23
100
AcDbEntity
  8
0
  6
Continuous
 62
     7
370
    25
100
AcDbCircle
 10
1.0433070866
 20
-0.0196850394
 30
0.0
 40
0.0196850393700788
100
AcDbArc
 50
0.0
 51
90.0
  0
ARC
  5
144
330
23
100
AcDbEntity
  8
0
  6
Continuous
 62
     7
370
    25
100
AcDbCircle
 10
-1.0433070866
 20
-0.0196850394
 30
0.0
 40
0.0196850393700788
100
AcDbArc
 50
90.0
 51
180.0
  0
ARC
  5
145
330
23
100
AcDbEntity
  8
0
  6
Continuous
 62
     7
370
    25
100
AcDbCircle
 10
-5.7992125984
 20
-1.7637795276
 30
0.0
 40
0.0078740157480306
100
AcDbArc
 50
180.0
 51
270.0
  0
ARC
  5
146
330
23
100
AcDbEntity
  8
0
  6
Continuous
 62
     7
370
    25
100
AcDbCircle
 10
-5.7992125984
 20
-1.4645669291
 30
0.0
 40
0.0078740157480315
100
AcDbArc
 50
90.0
 51
180.0
  0
ARC
  5
147
330
23
100
AcDbEntity
  8
0
  6
Continuous
 62
     7
370
    25
100
AcDbCircle
 10
5.7992125984
 20
-1.4645669291
 30
0.0
 40
0.0078740157480306
100
AcDbArc
 50
360.0
 51
90.0
  0
ARC
  5
148
330
23
100
AcDbEntity
  8
0
  6
Continuous
 62
     7
370
    25
100
AcDbCircle
 10
5.7992125984
 20
-1.7637795276
 30
0.0
 40
0.007874015748031
100
AcDbArc
 50
270.0
 51
0.0
  0
VIEWPORT
  5
1C4
330
23
100
AcDbEntity
  8
0
100
AcDbViewport
 10
0.0
 20
0.0
 30
0.0
 40
8.4
 41
6.4
 68
     1
 69
     1
 12
0.0
 22
-0.2861530222
 13
0.0
 23
0.0
 14
0.5
 24
0.5
 15
0.5
 25
0.5
 16
0.0
 26
0.0
 36
1.0
 17
0.0
 27
0.0
 37
0.0
 42
50.0
 43
0.0
 44
0.0
 45
9.025871766
 50
0.0
 51
0.0
 72
   100
 90
   557152
  1

281
     0
 71
     1
 74
     0
110
0.0
120
0.0
130
0.0
111
1.0
121
0.0
131
0.0
112
0.0
122
1.0
132
0.0
 79
     0
146
0.0
  0
ENDBLK
  5
25
330
23
100
AcDbEntity
  8
0
100
AcDbBlockEnd
  0
BLOCK
  5
14B
330
149
100
AcDbEntity
  8
0
100
AcDbBlockBegin
  2
*Paper_Space1
 70
     0
 10
0.0
 20
0.0
 30
0.0
  3
*Paper_Space1
  1

  0
SPLINE
  5
14D
330
149
100
AcDbEntity
  8
0
  6
Continuous
 62
     7
370
    25
100
AcDbSpline
210
0.0
220
0.0
230
1.0
 70
     8
 71
     3
 72
    17
 73
    13
 74
     0
 42
0.000000001
 43
0.00000001
 40
0.0
 40
0.0
 40
0.0
 40
0.0
 40
0.0409490251150233
 40
0.1477749134827494
 40
0.2549475086443968
 40
0.3623546634697587
 40
0.4698940734029681
 40
0.5774891425074956
 40
0.6850821759003519
 40
0.7926474537556463
 40
0.9001756658945295
 40
1.0
 40
1.0
 40
1.0
 40
1.0
 10
-0.7618555429126548
 20
0.7008152351682859
 30
0.0
 10
-0.7654564283140318
 20
0.6939488604219797
 30
0.0
 10
-0.7784511339793089
 20
0.6691698105856196
 30
0.0
 10
-0.7951865974981128
 20
0.6207581184347053
 30
0.0
 10
-0.811940622004548
 20
0.5561410178398821
 30
0.0
 10
-0.8226339029781429
 20
0.4865749928819376
 30
0.0
 10
-0.8276258953057916
 20
0.4130665853820593
 30
0.0
 10
-0.8267558013850527
 20
0.3360794942131264
 30
0.0
 10
-0.8201172182440639
 20
0.2562549471270967
 30
0.0
 10
-0.8076139313402712
 20
0.1741893853394964
 30
0.0
 10
-0.7903540808042677
 20
0.0925453502767963
 30
0.0
 10
-0.7745344217245907
 20
0.0380816696804216
 30
0.0
 10
-0.7669184702351729
 20
0.0118615882445312
 30
0.0
  0
SPLINE
  5
14E
330
149
100
AcDbEntity
  8
0
  6
Continuous
 62
     7
370
    25
100
AcDbSpline
210
0.0
220
0.0
230
1.0
 70
     8
 71
     3
 72
    17
 73
    13
 74
     0
 42
0.000000001
 43
0.00000001
 40
0.0
 40
0.0
 40
0.0
 40
0.0
 40
0.0407680561877782
 40
0.1478525685390782
 40
0.2549827098793218
 40
0.3621645691455643
 40
0.4694007825814541
 40
0.5766877462112772
 40
0.6840112912595321
 40
0.7913293799997104
 40
0.8985742921093819
 40
0.9999999999999999
 40
0.9999999999999999
 40
0.9999999999999999
 40
0.9999999999999999
 10
-0.3728756139574987
 20
-0.6698507073567553
 30
0.0
 10
-0.3652660085319627
 20
-0.6782087363188853
 30
0.0
 10
-0.3376684281481406
 20
-0.7085206070709034
 30
0.0
 10
-0.2877570736063528
 20
-0.7557111881280578
 30
0.0
 10
-0.2237414641032083
 20
-0.8108811528362967
 30
0.0
 10
-0.1583553841162352
 20
-0.859882722001914
 30
0.0
 10
-0.0922687521985167
 20
-0.9027254350168415
 30
0.0
 10
-0.0259202881951832
 20
-0.9389462742083642
 30
0.0
 10
0.0401989876375099
 20
-0.9683284937224539
 30
0.0
 10
0.1055338969633773
 20
-0.9903977178897206
 30
0.0
 10
0.1686613027617511
 20
-1.005467590873674
 30
0.0
 10
0.2088956264755427
 20
-1.009232602693996
 30
0.0
 10
0.2284517803996836
 20
-1.011062611101946
 30
0.0
  0
SPLINE
  5
151
330
149
100
AcDbEntity
  8
0
  6
Continuous
 62
     7
370
    25
100
AcDbSpline
210
0.0
220
0.0
230
1.0
 70
     8
 71
     3
 72
    13
 73
     9
 74
     0
 42
0.000000001
 43
0.00000001
 40
0.0
 40
0.0
 40
0.0
 40
0.0
 40
0.1119472078883556
 40
0.320927909488365
 40
0.5305611967726637
 40
0.7406271296696648
 40
0.9401315678790909
 40
1.0
 40
1.0
 40
1.0
 40
1.0
 10
0.6774231598911429
 20
-0.75079458413806
 30
0.0
 10
0.682370902765999
 20
-0.741103696980972
 30
0.0
 10
0.6965549883494199
 20
-0.7133220647716758
 30
0.0
 10
0.7139944956949943
 20
-0.6614859495624092
 30
0.0
 10
0.730016988878613
 20
-0.5962294854954616
 30
0.0
 10
0.7398216587694961
 20
-0.5273457797203963
 30
0.0
 10
0.7432345335522504
 20
-0.4724335749382448
 30
0.0
 10
0.7434462597246028
 20
-0.4411407137760618
 30
0.0
 10
0.7434951303484333
 20
-0.4339176972286058
 30
0.0
  0
SPLINE
  5
152
330
149
100
AcDbEntity
  8
0
  6
Continuous
 62
     7
370
    25
100
AcDbSpline
210
0.0
220
0.0
230
1.0
 70
     8
 71
     3
 72
    31
 73
    27
 74
     0
 42
0.000000001
 43
0.00000001
 40
0.0
 40
0.0
 40
0.0
 40
0.0
 40
0.0233683575529675
 40
0.0677162062299452
 40
0.1120588733739403
 40
0.1563865144678445
 40
0.2006983173951868
 40
0.244995573311618
 40
0.2892807512555949
 40
0.3335569480129985
 40
0.3778275796999037
 40
0.4220962212602231
 40
0.466366398468784
 40
0.5106407230568486
 40
0.5549229278825453
 40
0.5992167320906119
 40
0.6435257467339669
 40
0.6878532803729822
 40
0.7322019701566581
 40
0.7765731288915877
 40
0.8209656559652768
 40
0.865374332870818
 40
0.9097836726964542
 40
0.9541665780050379
 40
0.9984853358264482
 40
1.0
 40
1.0
 40
1.0
 40
1.0
 10
0.7434951303484333
 20
-0.4339176972286058
 30
0.0
 10
0.7433325547122046
 20
-0.4204038990804887
 30
0.0
 10
0.7428614473489308
 20
-0.3812439735156071
 30
0.0
 10
0.737636455704945
 20
-0.3141551739807162
 30
0.0
 10
0.7259772922504245
 20
-0.232372688432411
 30
0.0
 10
0.7085915023885921
 20
-0.1488612516102678
 30
0.0
 10
0.6857242238931653
 20
-0.0643149330789752
 30
0.0
 10
0.6575319908634781
 20
0.0206441163635162
 30
0.0
 10
0.624242962460024
 20
0.1053716214815141
 30
0.0
 10
0.5861123747392837
 20
0.1892304599437462
 30
0.0
 10
0.5434324023387204
 20
0.2715882671412919
 30
0.0
 10
0.4965270939111935
 20
0.3518236969057705
 30
0.0
 10
0.4457512332529363
 20
0.4293299510922611
 30
0.0
 10
0.3914871482884483
 20
0.5035201488253501
 30
0.0
 10
0.3341416868724059
 20
0.573831732726055
 30
0.0
 10
0.2741424966339502
 20
0.6397308903881561
 30
0.0
 10
0.2119350302545865
 20
0.7007157315977606
 30
0.0
 10
0.1479793264414909
 20
0.7563188068020588
 30
0.0
 10
0.0827459711211852
 20
0.8061122653775955
 30
0.0
 10
0.0167158964116904
 20
0.8497006409526633
 30
0.0
 10
-0.0496321259608094
 20
0.8867572861208122
 30
0.0
 10
-0.1157824385740415
 20
0.9168949592994533
 30
0.0
 10
-0.1813241947888638
 20
0.9401537852248941
 30
0.0
 10
-0.2454169640545763
 20
0.9551963532211295
 30
0.0
 10
-0.2884271228490147
 20
0.9625732214322578
 30
0.0
 10
-0.309259796495448
 20
0.9627711145646402
 30
0.0
 10
-0.3099482570780994
 20
0.9627776543695418
 30
0.0
  0
SPLINE
  5
153
330
149
100
AcDbEntity
  8
0
  6
Continuous
 62
     7
370
    25
100
AcDbSpline
210
0.0
220
0.0
230
1.0
 70
     8
 71
     3
 72
    19
 73
    15
 74
     0
 42
0.000000001
 43
0.00000001
 40
0.0
 40
0.0
 40
0.0
 40
0.0
 40
0.0507595361873874
 40
0.1384222840027835
 40
0.2261250698536204
 40
0.3137659720802318
 40
0.4011341929929493
 40
0.4881658952194343
 40
0.5748964064759239
 40
0.661421368268633
 40
0.7478705780762677
 40
0.8343922585255381
 40
0.9210997239918476
 40
1.0
 40
1.0
 40
1.0
 40
1.0
 10
-3.033377731707701
 20
-1.296537493346029
 30
0.0
 10
-3.048374023374066
 20
-1.305471728389445
 30
0.0
 10
-3.089269214700617
 20
-1.329835568436404
 30
0.0
 10
-3.154107427209323
 20
-1.375104740672836
 30
0.0
 10
-3.22696705598417
 20
-1.433605065365729
 30
0.0
 10
-3.296788288669879
 20
-1.497923818144588
 30
0.0
 10
-3.363230704358494
 20
-1.567357797864409
 30
0.0
 10
-3.425924205713433
 20
-1.641348704481823
 30
0.0
 10
-3.484579139198601
 20
-1.719346817682577
 30
0.0
 10
-3.538921396831236
 20
-1.800859266277038
 30
0.0
 10
-3.58873354407124
 20
-1.885416284275798
 30
0.0
 10
-3.633618104326273
 20
-1.972583042621232
 30
0.0
 10
-3.672546737038762
 20
-2.059054172480094
 30
0.0
 10
-3.693877540042914
 20
-2.116815525504774
 30
0.0
 10
-3.704040146147669
 20
-2.144334690102247
 30
0.0
  0
SPLINE
  5
154
330
149
100
AcDbEntity
  8
0
  6
Continuous
 62
     7
370
    25
100
AcDbSpline
210
0.0
220
0.0
230
1.0
 70
     8
 71
     3
 72
    18
 73
    14
 74
     0
 42
0.000000001
 43
0.00000001
 40
0.0
 40
0.0
 40
0.0
 40
0.0
 40
0.0486941802867868
 40
0.1447711138782916
 40
0.2415727763186011
 40
0.3389153368326854
 40
0.4363583333237361
 40
0.5333279106787973
 40
0.6294127236871683
 40
0.7242431960094832
 40
0.8175235676625906
 40
0.9090830394279537
 40
0.9999999999999999
 40
0.9999999999999999
 40
0.9999999999999999
 40
0.9999999999999999
 10
-2.961230391560705
 20
-2.405552814459911
 30
0.0
 10
-2.958055347178913
 20
-2.396801527262483
 30
0.0
 10
-2.948615724023581
 20
-2.370783354495658
 30
0.0
 10
-2.929764699947595
 20
-2.326718639246138
 30
0.0
 10
-2.903533179114751
 20
-2.274210764753231
 30
0.0
 10
-2.873728764553285
 20
-2.222790758699258
 30
0.0
 10
-2.841071856166915
 20
-2.173662134134938
 30
0.0
 10
-2.806370457423275
 20
-2.12793869970091
 30
0.0
 10
-2.770609573700332
 20
-2.086621515230338
 30
0.0
 10
-2.734825281904796
 20
-2.050464664991021
 30
0.0
 10
-2.70029637042344
 20
-2.020202978401197
 30
0.0
 10
-2.667686741398454
 20
-1.995532009065436
 30
0.0
 10
-2.649012956156148
 20
-1.984141121300975
 30
0.0
 10
-2.6397089393313
 20
-1.978465731441055
 30
0.0
  0
LWPOLYLINE
  5
16F
330
149
100
AcDbEntity
  8
0
  6
Continuous
 62
     7
370
    25
100
AcDbPolyline
 90
       18
 70
   128
 43
0.0
 10
-3.4241785073
 20
-3.4876059069
 10
-3.4653051418
 20
-3.4853024072
 10
-3.5119929932
 20
-3.4792859873
 10
-3.5631477379
 20
-3.469697667
 10
-3.6175703521
 20
-3.4567621885
 10
-3.6739852157
 20
-3.4407827483
 10
-3.7310700122
 20
-3.4221338911
 10
-3.7874867223
 20
-3.4012527301
 10
-3.8419129862
 20
-3.3786287022
 10
-3.8930730984
 20
-3.3547920954
 10
-3.9397679092
 20
-3.3303016195
 10
-3.9809029319
 20
-3.3057313105
 10
-4.0155139962
 20
-3.2816570757
 10
-4.0427898484
 20
-3.2586431947
 10
-4.0620911654
 20
-3.2372290933
 10
-4.0729655407
 20
-3.2179167001
 10
-4.0751580884
 20
-3.201158681
 10
-4.0739718811
 20
-3.1962865865
  0
LWPOLYLINE
  5
170
330
149
100
AcDbEntity
  8
0
  6
Continuous
 62
     7
370
    25
100
AcDbPolyline
 90
        6
 70
   128
 43
0.0
 10
-3.3311621266
 20
-3.4575047108
 10
-3.3321594056
 20
-3.4599283864
 10
-3.3430219057
 20
-3.4721396265
 10
-3.3623118381
 20
-3.4809464708
 10
-3.3895770633
 20
-3.4861424944
 10
-3.4241785073
 20
-3.4876059069
  0
LWPOLYLINE
  5
171
330
149
100
AcDbEntity
  8
0
  6
Continuous
 62
     7
370
    25
100
AcDbPolyline
 90
       17
 70
   128
 43
0.0
 10
0.1948719476
 20
-0.2089233357
 10
0.1916093524
 20
-0.1579672928
 10
0.1818980392
 20
-0.1044387041
 10
0.1659656331
 20
-0.0495922343
 10
0.1441855761
 20
0.0052865617
 10
0.1170683742
 20
0.0589113715
 10
0.0852496318
 20
0.110025275
 10
0.0494751531
 20
0.1574302056
 10
0.0105834616
 20
0.200015032
 10
-0.0305138543
 20
0.2367816019
 10
-0.0728535085
 20
0.2668681381
 10
-0.1154430953
 20
0.2895694376
 10
-0.157284351
 20
0.3043534013
 10
-0.1973965518
 20
0.3108735055
 10
-0.234839502
 20
0.3089769245
 10
-0.2687355703
 20
0.2987081127
 10
-0.2803509451
 20
0.2927510416
  0
LWPOLYLINE
  5
173
330
149
100
AcDbEntity
  8
0
  6
Continuous
 62
     7
370
    25
100
AcDbPolyline
 90
       29
 70
   128
 43
0.0
 10
-3.0518794643
 20
0.6568528059
 10
-3.0231382263
 20
0.6764776759
 10
-2.9893068152
 20
0.7094236616
 10
-2.9609798251
 20
0.7497278876
 10
-2.9385403298
 20
0.7968453083
 10
-2.9222917852
 20
0.8501387414
 10
-2.9124539247
 20
0.9088874848
 10
-2.9091597887
 20
0.9722970623
 10
-2.9124539247
 20
1.0395099683
 10
-2.9222917852
 20
1.1096172635
 10
-2.9385403298
 20
1.181670867
 10
-2.9609798251
 20
1.2546963775
 10
-2.9893068152
 20
1.3277062501
 10
-3.0231382263
 20
1.3997131516
 10
-3.0620165465
 20
1.4697433122
 10
-3.1054160132
 20
1.5368496941
 10
-3.1527497232
 20
1.6001247985
 10
-3.2033775692
 20
1.6587129383
 10
-3.2566148963
 20
1.7118218094
 10
-3.3117417612
 20
1.7587332054
 10
-3.3680126675
 20
1.7988127301
 10
-3.4246666478
 20
1.8315183768
 10
-3.4809375541
 20
1.8564078576
 10
-3.536064419
 20
1.873144585
 10
-3.5893017462
 20
1.8815022235
 10
-3.6399295921
 20
1.8813677504
 10
-3.6872633021
 20
1.8727429842
 10
-3.7306627689
 20
1.8557445601
 10
-3.740799851
 20
1.8502272225
  0
LWPOLYLINE
  5
174
330
149
100
AcDbEntity
  8
0
  6
Continuous
 62
     7
370
    25
100
AcDbPolyline
 90
       55
 70
   128
 43
0.0
 10
-4.6908461665
 20
1.0687232172
 10
-4.6875520305
 20
1.0015103112
 10
-4.6777141701
 20
0.931403016
 10
-4.6614656254
 20
0.8593494125
 10
-4.6390261302
 20
0.7863239021
 10
-4.6106991401
 20
0.7133140294
 10
-4.576867729
 20
0.6413071279
 10
-4.5379894088
 20
0.5712769674
 10
-4.494589942
 20
0.5041705855
 10
-4.4472562321
 20
0.440895481
 10
-4.3966283861
 20
0.3823073412
 10
-4.3433910589
 20
0.3291984701
 10
-4.288264194
 20
0.2822870742
 10
-4.2319932877
 20
0.2422075494
 10
-4.1753393075
 20
0.2095019028
 10
-4.1190684012
 20
0.184612422
 10
-4.0639415363
 20
0.1678756946
 10
-4.0107042091
 20
0.159518056
 10
-3.9600763631
 20
0.1596525291
 10
-3.9127426532
 20
0.1682772953
 10
-3.8693431864
 20
0.1852757195
 10
-3.8304648662
 20
0.210417927
 10
-3.7966334552
 20
0.2433639127
 10
-3.768306465
 20
0.2836681387
 10
-3.7458669698
 20
0.3307855594
 10
-3.7296184251
 20
0.3840789925
 10
-3.7197805647
 20
0.4428277359
 10
-3.7164864287
 20
0.5062373134
 10
-3.7197805647
 20
0.5734502194
 10
-3.7296184251
 20
0.6435575147
 10
-3.7458669698
 20
0.7156111182
 10
-3.768306465
 20
0.7886366286
 10
-3.7966334552
 20
0.8616465012
 10
-3.8304648662
 20
0.9336534027
 10
-3.8693431864
 20
1.0036835633
 10
-3.9127426532
 20
1.0707899452
 10
-3.9600763631
 20
1.1340650496
 10
-4.0107042091
 20
1.1926531895
 10
-4.0639415363
 20
1.2457620605
 10
-4.1190684012
 20
1.2926734565
 10
-4.1753393075
 20
1.3327529812
 10
-4.2319932877
 20
1.3654586279
 10
-4.288264194
 20
1.3903481087
 10
-4.3433910589
 20
1.4070848361
 10
-4.3966283861
 20
1.4154424746
 10
-4.4472562321
 20
1.4153080016
 10
-4.494589942
 20
1.4066832354
 10
-4.5379894088
 20
1.3896848112
 10
-4.576867729
 20
1.3645426037
 10
-4.6106991401
 20
1.331596618
 10
-4.6390261302
 20
1.291292392
 10
-4.6614656254
 20
1.2441749713
 10
-4.6777141701
 20
1.1908815381
 10
-4.6875520305
 20
1.1321327948
 10
-4.6908461665
 20
1.0687232172
  0
LWPOLYLINE
  5
175
330
149
100
AcDbEntity
  8
0
  6
Continuous
 62
     7
370
    25
100
AcDbPolyline
 90
       19
 70
   128
 43
0.0
 10
-2.1714302729
 20
1.092829756
 10
-2.1746366748
 20
1.014594009
 10
-2.1842285245
 20
0.9407277745
 10
-2.2001239878
 20
0.8718612534
 10
-2.2221874502
 20
0.8085819904
 10
-2.2502306739
 20
0.7514298619
 10
-2.2840144042
 20
0.7008924697
 10
-2.3232504101
 20
0.6574009811
 10
-2.3676039438
 20
0.6213264501
 10
-2.4166965967
 20
0.5929766518
 10
-2.4701095275
 20
0.5725934567
 10
-2.527387036
 20
0.5603507671
 10
-2.5880404506
 20
0.5563530333
 10
-2.6515522979
 20
0.5606343625
 10
-2.717380717
 20
0.573158228
 10
-2.7849640832
 20
0.5938177805
 10
-2.8537257989
 20
0.6224367601
 10
-2.9230792136
 20
0.6587709996
 10
-2.9833937444
 20
0.6963887704
  0
LWPOLYLINE
  5
176
330
149
100
AcDbEntity
  8
0
  6
Continuous
 62
     7
370
    25
100
AcDbPolyline
 90
       37
 70
   128
 43
0.0
 10
-3.6723141311
 20
1.8897631871
 10
-3.6747281542
 20
1.9606651504
 10
-3.6715217523
 20
2.0389008975
 10
-3.6619299026
 20
2.1127671319
 10
-3.6460344393
 20
2.181633653
 10
-3.623970977
 20
2.244912916
 10
-3.5959277532
 20
2.3020650445
 10
-3.5621440229
 20
2.3526024367
 10
-3.5229080171
 20
2.3960939253
 10
-3.4785544833
 20
2.4321684564
 10
-3.4294618304
 20
2.4605182547
 10
-3.3760488996
 20
2.4809014497
 10
-3.3187713911
 20
2.4931441393
 10
-3.2581179765
 20
2.4971418731
 10
-3.1946061293
 20
2.4928605439
 10
-3.1287777101
 20
2.4803366784
 10
-3.061194344
 20
2.4596771259
 10
-2.9924326282
 20
2.4310581463
 10
-2.9230792136
 20
2.3947239068
 10
-2.8537257989
 20
2.3509843982
 10
-2.7849640832
 20
2.3002127906
 10
-2.717380717
 20
2.2428422495
 10
-2.6515522979
 20
2.17936224
 10
-2.5880404506
 20
2.1103143513
 10
-2.527387036
 20
2.0362876756
 10
-2.4701095275
 20
1.9579137824
 10
-2.4166965967
 20
1.87586133
 10
-2.3676039438
 20
1.7908303612
 10
-2.3232504101
 20
1.7035463301
 10
-2.2840144042
 20
1.6147539133
 10
-2.2502306739
 20
1.5252106565
 10
-2.2221874502
 20
1.435680511
 10
-2.2001239878
 20
1.3469273166
 10
-2.1842285245
 20
1.2597082842
 10
-2.1746366748
 20
1.1747675358
 10
-2.1714302729
 20
1.092829756
 10
-2.1714302729
 20
1.092829756
  0
LWPOLYLINE
  5
177
330
149
100
AcDbEntity
  8
0
  6
Continuous
 62
     7
370
    25
100
AcDbPolyline
 90
       10
 70
   128
 43
0.0
 10
-2.0322360247
 20
1.1731848851
 10
-2.0354424265
 20
1.0949491381
 10
-2.0450342763
 20
1.0210829037
 10
-2.0609297395
 20
0.9522163825
 10
-2.0829932019
 20
0.8889371195
 10
-2.1110364257
 20
0.831784991
 10
-2.1448201559
 20
0.7812475989
 10
-2.1840561618
 20
0.7377561102
 10
-2.2284096956
 20
0.7016815792
 10
-2.2524320956
 20
0.6864994609
  0
LWPOLYLINE
  5
178
330
149
100
AcDbEntity
  8
0
  6
Continuous
 62
     7
370
    25
100
AcDbPolyline
 90
       27
 70
   128
 43
0.0
 10
-3.315337835
 20
2.5277057038
 10
-3.2902675822
 20
2.5408733838
 10
-3.2368546513
 20
2.5612565788
 10
-3.1795771428
 20
2.5734992684
 10
-3.1189237282
 20
2.5774970022
 10
-3.055411881
 20
2.573215673
 10
-2.9895834619
 20
2.5606918075
 10
-2.9220000957
 20
2.540032255
 10
-2.8532383799
 20
2.5114132754
 10
-2.7838849653
 20
2.4750790359
 10
-2.7145315507
 20
2.4313395273
 10
-2.6457698349
 20
2.3805679197
 10
-2.5781864687
 20
2.3231973786
 10
-2.5123580496
 20
2.2597173691
 10
-2.4488462024
 20
2.1906694804
 10
-2.3881927878
 20
2.1166428047
 10
-2.3309152793
 20
2.0382689115
 10
-2.2775023484
 20
1.9562164591
 10
-2.2284096956
 20
1.8711854903
 10
-2.1840561618
 20
1.7839014592
 10
-2.1448201559
 20
1.6951090424
 10
-2.1110364257
 20
1.6055657856
 10
-2.0829932019
 20
1.5160356401
 10
-2.0609297395
 20
1.4272824457
 10
-2.0450342763
 20
1.3400634133
 10
-2.0354424265
 20
1.2551226649
 10
-2.0322360247
 20
1.1731848851
  0
LWPOLYLINE
  5
179
330
149
100
AcDbEntity
  8
0
  6
Continuous
 62
     7
370
    25
100
AcDbPolyline
 90
        8
 70
   128
 43
0.0
 10
-2.4358993446
 20
1.2455045013
 10
-2.4391934806
 20
1.1820949238
 10
-2.4490313411
 20
1.1233461804
 10
-2.4652798857
 20
1.0700527473
 10
-2.487719381
 20
1.0229353266
 10
-2.5160463711
 20
0.9826311006
 10
-2.5498777822
 20
0.9496851149
 10
-2.5786190202
 20
0.9300602449
  0
LWPOLYLINE
  5
17A
330
149
100
AcDbEntity
  8
0
  6
Continuous
 62
     7
370
    25
100
AcDbPolyline
 90
       22
 70
   128
 43
0.0
 10
-3.2675394069
 20
2.1234346615
 10
-3.2574023248
 20
2.1289519991
 10
-3.214002858
 20
2.1459504232
 10
-3.166669148
 20
2.1545751894
 10
-3.1160413021
 20
2.1547096625
 10
-3.0628039749
 20
2.146352024
 10
-3.00767711
 20
2.1296152966
 10
-2.9514062037
 20
2.1047258158
 10
-2.8947522234
 20
2.0720201691
 10
-2.8384813171
 20
2.0319406444
 10
-2.7833544522
 20
1.9850292484
 10
-2.7301171251
 20
1.9319203773
 10
-2.6794892791
 20
1.8733322375
 10
-2.6321555691
 20
1.8100571331
 10
-2.5887561024
 20
1.7429507512
 10
-2.5498777822
 20
1.6729205906
 10
-2.5160463711
 20
1.6009136891
 10
-2.487719381
 20
1.5279038165
 10
-2.4652798857
 20
1.454878306
 10
-2.4490313411
 20
1.3828247025
 10
-2.4391934806
 20
1.3127174073
 10
-2.4358993446
 20
1.2455045013
  0
LWPOLYLINE
  5
17C
330
149
100
AcDbEntity
  8
0
  6
Continuous
 62
     7
370
    25
100
AcDbPolyline
 90
       19
 70
   128
 43
0.0
 10
-3.5796850492
 20
1.8806005604
 10
-3.555949694
 20
1.8796314719
 10
-3.5042334333
 20
1.8715126231
 10
-3.4506816217
 20
1.8552540879
 10
-3.3960184556
 20
1.8310757351
 10
-3.3409831605
 20
1.7993045355
 10
-3.2863199943
 20
1.76037014
 10
-3.2327681827
 20
1.7147990697
 10
-3.181051922
 20
1.6632075949
 10
-3.131870586
 20
1.6062934019
 10
-3.0858892677
 20
1.5448261576
 10
-3.0437297857
 20
1.4796371009
 10
-3.0059622747
 20
1.4116078021
 10
-2.9730974753
 20
1.3416582406
 10
-2.9455798278
 20
1.2707343644
 10
-2.923781461
 20
1.1997952971
 10
-2.9079971604
 20
1.1298003679
 10
-2.8984403817
 20
1.0616961383
 10
-2.8952403639
 20
0.996403601
  0
LWPOLYLINE
  5
17D
330
149
100
AcDbEntity
  8
0
  6
Continuous
 62
     7
370
    25
100
AcDbPolyline
 90
        9
 70
   128
 43
0.0
 10
-2.8813209391
 20
0.9883680881
 10
-2.8846150751
 20
0.9249585106
 10
-2.8944529355
 20
0.8662097672
 10
-2.9107014802
 20
0.8129163341
 10
-2.9331409754
 20
0.7657989134
 10
-2.9614679656
 20
0.7254946874
 10
-2.9952993766
 20
0.6925487017
 10
-3.0341776968
 20
0.6674064942
 10
-3.0382413006
 20
0.6653755302
  0
LWPOLYLINE
  5
17E
330
149
100
AcDbEntity
  8
0
  6
Continuous
 62
     7
370
    25
100
AcDbPolyline
 90
       22
 70
   128
 43
0.0
 10
-3.726599165
 20
1.8577755241
 10
-3.7028239192
 20
1.8718155859
 10
-3.6594244524
 20
1.8888140101
 10
-3.6120907425
 20
1.8974387763
 10
-3.5614628965
 20
1.8975732493
 10
-3.5082255693
 20
1.8892156108
 10
-3.4530987044
 20
1.8724788834
 10
-3.3968277981
 20
1.8475894026
 10
-3.3401738179
 20
1.8148837559
 10
-3.2839029116
 20
1.7748042312
 10
-3.2287760467
 20
1.7278928352
 10
-3.1755387195
 20
1.6747839642
 10
-3.1249108736
 20
1.6161958243
 10
-3.0775771636
 20
1.5529207199
 10
-3.0341776968
 20
1.485814338
 10
-2.9952993766
 20
1.4157841774
 10
-2.9614679656
 20
1.3437772759
 10
-2.9331409754
 20
1.2707674033
 10
-2.9107014802
 20
1.1977418929
 10
-2.8944529355
 20
1.1256882894
 10
-2.8846150751
 20
1.0555809941
 10
-2.8813209391
 20
0.9883680881
  0
LWPOLYLINE
  5
17F
330
149
100
AcDbEntity
  8
0
  6
Continuous
 62
     7
370
    25
100
AcDbPolyline
 90
       15
 70
   128
 43
0.0
 10
-5.1633216312
 20
1.8447356926
 10
-5.1682131017
 20
1.8472286171
 10
-5.1903059556
 20
1.8520843546
 10
-5.2154062985
 20
1.8485867765
 10
-5.2420553897
 20
1.8369391492
 10
-5.2687044809
 20
1.8178183907
 10
-5.2938048237
 20
1.7923357298
 10
-5.3158976776
 20
1.7619721262
 10
-5.3336990861
 20
1.7284922021
 10
-5.3461744961
 20
1.6938416891
 10
-5.352598882
 20
1.660034349
 10
-5.352598882
 20
1.6290349415
 10
-5.3461744961
 20
1.6026450395
 10
-5.3336990861
 20
1.5823983282
 10
-5.3207891481
 20
1.5719643974
  0
LWPOLYLINE
  5
181
330
149
100
AcDbEntity
  8
0
  6
Continuous
 62
     7
370
    25
100
AcDbPolyline
 90
       10
 70
   128
 43
0.0
 10
2.964837488
 20
-2.9072287187
 10
2.9385291746
 20
-2.9262540548
 10
2.9138739093
 20
-2.951759699
 10
2.892420873
 20
-2.982143038
 10
2.875518039
 20
-3.0154949749
 10
2.8642274744
 20
-3.0497198847
 10
2.8592586071
 20
-3.0826672905
 10
2.8609236491
 20
-3.1122669856
 10
2.8691179798
 20
-3.1366591124
 10
2.8751936129
 20
-3.1460009896
  0
LWPOLYLINE
  5
182
330
149
100
AcDbEntity
  8
0
  6
Continuous
 62
     7
370
    25
100
AcDbPolyline
 90
       11
 70
   128
 43
0.0
 10
2.9287192602
 20
-3.1650580644
 10
2.9515787825
 20
-3.1582388392
 10
2.9780961936
 20
-3.1429306636
 10
3.0037805115
 20
-3.1204882079
 10
3.0270178961
 20
-3.0923216143
 10
3.0463482569
 20
-3.0602006933
 10
3.0605569963
 20
-3.0261437206
 10
3.068751327
 20
-2.992290621
 10
3.070416369
 20
-2.9607685092
 10
3.0654475016
 20
-2.9335580355
 10
3.057861032
 20
-2.9175158049
  0
LWPOLYLINE
  5
184
330
149
100
AcDbEntity
  8
0
  6
Continuous
 62
     7
370
    25
100
AcDbPolyline
 90
       11
 70
   128
 43
0.0
 10
2.8805359596
 20
-3.1625598101
 10
2.8676260217
 20
-3.1521258793
 10
2.8551506117
 20
-3.131879168
 10
2.8487262257
 20
-3.1054892661
 10
2.8487262257
 20
-3.0744898586
 10
2.8551506117
 20
-3.0406825185
 10
2.8676260217
 20
-3.0060320054
 10
2.8854274302
 20
-2.9725520814
 10
2.907520284
 20
-2.9421884777
 10
2.9326206269
 20
-2.9167058168
 10
2.9592697181
 20
-2.8975850583
  0
SPLINE
  5
185
330
149
100
AcDbEntity
  8
0
  6
Continuous
 62
     7
370
    25
100
AcDbSpline
210
0.0
220
0.0
230
1.0
 70
     8
 71
     3
 72
    22
 73
    18
 74
     0
 42
0.000000001
 43
0.00000001
 40
0.0
 40
0.0
 40
0.0
 40
0.0
 40
0.0692894522164558
 40
0.1406223053350407
 40
0.2099023759628078
 40
0.2811301708507696
 40
0.3515542657751628
 40
0.4239723522002967
 40
0.4951497305783988
 40
0.5684594963962054
 40
0.6384087929277695
 40
0.7104643421881386
 40
0.7791630828437632
 40
0.8498266158925408
 40
0.9191009952658673
 40
0.9902978272587475
 40
1.0
 40
1.0
 40
1.0
 40
1.0
 10
2.116774956423737
 20
-2.411223184868959
 30
0.0
 10
2.110763197114237
 20
-2.415106041805845
 30
0.0
 10
2.098562386945031
 20
-2.422986264210337
 30
0.0
 10
2.081750890926744
 20
-2.439378419750436
 30
0.0
 10
2.066344838180769
 20
-2.458701407637595
 30
0.0
 10
2.052883069272006
 20
-2.48046203778359
 30
0.0
 10
2.041313748927164
 20
-2.504322311117714
 30
0.0
 10
2.031978758591289
 20
-2.529271058425337
 30
0.0
 10
2.024880360795752
 20
-2.554864562470507
 30
0.0
 10
2.020273319169382
 20
-2.579693869831417
 30
0.0
 10
2.018095975204401
 20
-2.603332220555931
 30
0.0
 10
2.018355574654082
 20
-2.624527946888251
 30
0.0
 10
2.021008998465598
 20
-2.643197050736021
 30
0.0
 10
2.0258724083721
 20
-2.658747680231358
 30
0.0
 10
2.033289171887362
 20
-2.670747552784303
 30
0.0
 10
2.039606553373775
 20
-2.677696882897052
 30
0.0
 10
2.04411524830702
 20
-2.67950302655831
 30
0.0
 10
2.044655973588173
 20
-2.679719636365249
 30
0.0
  0
SPLINE
  5
186
330
149
100
AcDbEntity
  8
0
  6
Continuous
 62
     7
370
    25
100
AcDbSpline
210
0.0
220
0.0
230
1.0
 70
     8
 71
     3
 72
    12
 73
     8
 74
     0
 42
0.000000001
 43
0.00000001
 40
0.0
 40
0.0
 40
0.0
 40
0.0
 40
0.0114402353248577
 40
0.2282390044908361
 40
0.4420095792395887
 40
0.662149380903331
 40
1.0
 40
1.0
 40
1.0
 40
1.0
 10
2.201938323871731
 20
-2.407265084119454
 30
0.0
 10
2.201684643840799
 20
-2.40707679841995
 30
0.0
 10
2.196623587308733
 20
-2.403320394867525
 30
0.0
 10
2.184677156781676
 20
-2.399525010360391
 30
0.0
 10
2.166513932528837
 20
-2.396702359950548
 30
0.0
 10
2.143475397701872
 20
-2.398659417007054
 30
0.0
 10
2.126844556067678
 20
-2.406484981815649
 30
0.0
 10
2.116774956423737
 20
-2.411223184868959
 30
0.0
  0
LWPOLYLINE
  5
187
330
149
100
AcDbEntity
  8
0
  6
Continuous
 62
     7
370
    25
100
AcDbPolyline
 90
       22
 70
   128
 43
0.0
 10
2.6586101419
 20
-2.2419081023
 10
2.6553160059
 20
-2.1746951963
 10
2.6454781454
 20
-2.1045879011
 10
2.6292296008
 20
-2.0325342976
 10
2.6067901055
 20
-1.9595087872
 10
2.5784631154
 20
-1.8864989145
 10
2.5446317043
 20
-1.814492013
 10
2.5057533841
 20
-1.7444618525
 10
2.4623539174
 20
-1.6773554706
 10
2.4150202074
 20
-1.6140803661
 10
2.3643923614
 20
-1.5554922263
 10
2.3111550343
 20
-1.5023833552
 10
2.2560281694
 20
-1.4554719593
 10
2.1997572631
 20
-1.4153924345
 10
2.1431032828
 20
-1.3826867879
 10
2.0868323765
 20
-1.3577973071
 10
2.0317055116
 20
-1.3410605797
 10
1.9784681844
 20
-1.3327029411
 10
1.9278403385
 20
-1.3328374142
 10
1.8805066285
 20
-1.3414621804
 10
1.8371071617
 20
-1.3584606046
 10
1.8269700796
 20
-1.3639779421
  0
LWPOLYLINE
  5
188
330
149
100
AcDbEntity
  8
0
  6
Continuous
 62
     7
370
    25
100
AcDbPolyline
 90
        8
 70
   128
 43
0.0
 10
2.5158904663
 20
-2.5573523588
 10
2.5446317043
 20
-2.5377274888
 10
2.5784631154
 20
-2.5047815031
 10
2.6067901055
 20
-2.4644772771
 10
2.6292296008
 20
-2.4173598564
 10
2.6454781454
 20
-2.3640664232
 10
2.6553160059
 20
-2.3053176799
 10
2.6586101419
 20
-2.2419081023
  0
LWPOLYLINE
  5
189
330
149
100
AcDbEntity
  8
0
  6
Continuous
 62
     7
370
    25
100
AcDbPolyline
 90
       55
 70
   128
 43
0.0
 10
1.8512835019
 20
-2.7079678512
 10
1.8479893659
 20
-2.6407549452
 10
1.8381515055
 20
-2.57064765
 10
1.8219029608
 20
-2.4985940465
 10
1.7994634656
 20
-2.425568536
 10
1.7711364755
 20
-2.3525586634
 10
1.7373050644
 20
-2.2805517619
 10
1.6984267442
 20
-2.2105216013
 10
1.6550272774
 20
-2.1434152195
 10
1.6076935675
 20
-2.080140115
 10
1.5570657215
 20
-2.0215519752
 10
1.5038283943
 20
-1.9684431041
 10
1.4487015294
 20
-1.9215317081
 10
1.3924306231
 20
-1.8814521834
 10
1.3357766429
 20
-1.8487465368
 10
1.2795057366
 20
-1.823857056
 10
1.2243788717
 20
-1.8071203285
 10
1.1711415445
 20
-1.79876269
 10
1.1205136985
 20
-1.7988971631
 10
1.0731799886
 20
-1.8075219293
 10
1.0297805218
 20
-1.8245203534
 10
0.9909022016
 20
-1.849662561
 10
0.9570707905
 20
-1.8826085467
 10
0.9287438004
 20
-1.9229127727
 10
0.9063043052
 20
-1.9700301934
 10
0.8900557605
 20
-2.0233236265
 10
0.8802179001
 20
-2.0820723699
 10
0.8769237641
 20
-2.1454819474
 10
0.8802179001
 20
-2.2126948534
 10
0.8900557605
 20
-2.2828021486
 10
0.9063043052
 20
-2.3548557521
 10
0.9287438004
 20
-2.4278812626
 10
0.9570707905
 20
-2.5008911352
 10
0.9909022016
 20
-2.5728980367
 10
1.0297805218
 20
-2.6429281973
 10
1.0731799886
 20
-2.7100345792
 10
1.1205136985
 20
-2.7733096836
 10
1.1711415445
 20
-2.8318978234
 10
1.2243788717
 20
-2.8850066945
 10
1.2795057366
 20
-2.9319180905
 10
1.3357766429
 20
-2.9719976152
 10
1.3924306231
 20
-3.0047032619
 10
1.4487015294
 20
-3.0295927427
 10
1.5038283943
 20
-3.0463294701
 10
1.5570657215
 20
-3.0546871086
 10
1.6076935675
 20
-3.0545526355
 10
1.6550272774
 20
-3.0459278693
 10
1.6984267442
 20
-3.0289294452
 10
1.7373050644
 20
-3.0037872377
 10
1.7711364755
 20
-2.9708412519
 10
1.7994634656
 20
-2.930537026
 10
1.8219029608
 20
-2.8834196053
 10
1.8381515055
 20
-2.8301261721
 10
1.8479893659
 20
-2.7713774288
 10
1.8512835019
 20
-2.7079678512
  0
LWPOLYLINE
  5
18A
330
149
100
AcDbEntity
  8
0
  6
Continuous
 62
     7
370
    25
100
AcDbPolyline
 90
       54
 70
   128
 43
0.0
 10
1.8954557995
 20
-1.3244419775
 10
1.8930417764
 20
-1.2535400142
 10
1.8962481783
 20
-1.1753042672
 10
1.905840028
 20
-1.1014380328
 10
1.9217354913
 20
-1.0325715116
 10
1.9437989536
 20
-0.9692922486
 10
1.9718421774
 20
-0.9121401201
 10
2.0056259077
 20
-0.861602728
 10
2.0448619135
 20
-0.8181112393
 10
2.0892154473
 20
-0.7820367083
 10
2.1383081002
 20
-0.75368691
 10
2.191721031
 20
-0.7333037149
 10
2.2489985395
 20
-0.7210610253
 10
2.3096519541
 20
-0.7170632915
 10
2.3731638013
 20
-0.7213446208
 10
2.4389922205
 20
-0.7338684863
 10
2.5065755866
 20
-0.7545280388
 10
2.5753373024
 20
-0.7831470183
 10
2.644690717
 20
-0.8194812579
 10
2.7140441317
 20
-0.8632207665
 10
2.7828058474
 20
-0.9139923741
 10
2.8503892136
 20
-0.9713629152
 10
2.9162176327
 20
-1.0348429246
 10
2.97972948
 20
-1.1038908133
 10
3.0403828946
 20
-1.1779174891
 10
3.0976604031
 20
-1.2562913823
 10
3.1510733339
 20
-1.3383438346
 10
3.2001659868
 20
-1.4233748035
 10
3.2445195205
 20
-1.5106588346
 10
3.2837555264
 20
-1.5994512513
 10
3.3175392567
 20
-1.6889945082
 10
3.3455824804
 20
-1.7785246537
 10
3.3676459428
 20
-1.8672778481
 10
3.3835414061
 20
-1.9544968805
 10
3.3931332558
 20
-2.0394376288
 10
3.3963396577
 20
-2.1213754087
 10
3.3931332558
 20
-2.1996111557
 10
3.3835414061
 20
-2.2734773901
 10
3.3676459428
 20
-2.3423439113
 10
3.3455824804
 20
-2.4056231743
 10
3.3175392567
 20
-2.4627753027
 10
3.2837555264
 20
-2.5133126949
 10
3.2445195205
 20
-2.5568041835
 10
3.2001659868
 20
-2.5928787146
 10
3.1510733339
 20
-2.6212285129
 10
3.0976604031
 20
-2.641611708
 10
3.0403828946
 20
-2.6538543976
 10
2.97972948
 20
-2.6578521314
 10
2.9162176327
 20
-2.6535708021
 10
2.8503892136
 20
-2.6410469366
 10
2.7828058474
 20
-2.6203873841
 10
2.7140441317
 20
-2.5917684046
 10
2.644690717
 20
-2.555434165
 10
2.5843761862
 20
-2.5178163942
  0
LWPOLYLINE
  5
18B
330
149
100
AcDbEntity
  8
0
  6
Continuous
 62
     7
370
    25
100
AcDbPolyline
 90
       29
 70
   128
 43
0.0
 10
2.3002305237
 20
-1.0907705031
 10
2.3103676058
 20
-1.0852531656
 10
2.3537670726
 20
-1.0682547414
 10
2.4011007826
 20
-1.0596299752
 10
2.4517286285
 20
-1.0594955021
 10
2.5049659557
 20
-1.0678531407
 10
2.5600928206
 20
-1.0845898681
 10
2.6163637269
 20
-1.1094793489
 10
2.6730177072
 20
-1.1421849955
 10
2.7292886135
 20
-1.1822645203
 10
2.7844154784
 20
-1.2291759162
 10
2.8376528055
 20
-1.2822847873
 10
2.8882806515
 20
-1.3408729271
 10
2.9356143615
 20
-1.4041480316
 10
2.9790138282
 20
-1.4712544135
 10
3.0178921484
 20
-1.541284574
 10
3.0517235595
 20
-1.6132914756
 10
3.0800505496
 20
-1.6863013482
 10
3.1024900449
 20
-1.7593268586
 10
3.1187385895
 20
-1.8313804621
 10
3.12857645
 20
-1.9014877573
 10
3.131870586
 20
-1.9687006634
 10
3.12857645
 20
-2.0321102409
 10
3.1187385895
 20
-2.0908589842
 10
3.1024900449
 20
-2.1441524174
 10
3.0800505496
 20
-2.1912698381
 10
3.0517235595
 20
-2.2315740641
 10
3.0178921484
 20
-2.2645200498
 10
2.9891509104
 20
-2.2841449198
  0
LWPOLYLINE
  5
18C
330
149
100
AcDbEntity
  8
0
  6
Continuous
 62
     7
370
    25
100
AcDbPolyline
 90
       36
 70
   128
 43
0.0
 10
2.2524320956
 20
-0.6864994609
 10
2.2775023484
 20
-0.6733317809
 10
2.3309152793
 20
-0.6529485858
 10
2.3881927878
 20
-0.6407058962
 10
2.4488462024
 20
-0.6367081624
 10
2.5123580496
 20
-0.6409894917
 10
2.5781864687
 20
-0.6535133571
 10
2.6457698349
 20
-0.6741729097
 10
2.7145315507
 20
-0.7027918892
 10
2.7838849653
 20
-0.7391261287
 10
2.8532383799
 20
-0.7828656373
 10
2.9220000957
 20
-0.8336372449
 10
2.9895834619
 20
-0.8910077861
 10
3.055411881
 20
-0.9544877955
 10
3.1189237282
 20
-1.0235356842
 10
3.1795771428
 20
-1.0975623599
 10
3.2368546513
 20
-1.1759362532
 10
3.2902675822
 20
-1.2579887055
 10
3.339360235
 20
-1.3430196744
 10
3.3837137688
 20
-1.4303037054
 10
3.4229497747
 20
-1.5190961222
 10
3.4567335049
 20
-1.6086393791
 10
3.4847767287
 20
-1.6981695245
 10
3.5068401911
 20
-1.786922719
 10
3.5227356543
 20
-1.8741417514
 10
3.5323275041
 20
-1.9590824997
 10
3.5355339059
 20
-2.0410202796
 10
3.5323275041
 20
-2.1192560266
 10
3.5227356543
 20
-2.193122261
 10
3.5068401911
 20
-2.2619887821
 10
3.4847767287
 20
-2.3252680451
 10
3.4567335049
 20
-2.3824201736
 10
3.4229497747
 20
-2.4329575658
 10
3.3837137688
 20
-2.4764490544
 10
3.339360235
 20
-2.5125235855
 10
3.315337835
 20
-2.5277057038
  0
LWPOLYLINE
  5
18D
330
149
100
AcDbEntity
  8
0
  6
Continuous
 62
     7
370
    25
100
AcDbPolyline
 90
       23
 70
   128
 43
0.0
 10
1.9880848814
 20
-1.3336046042
 10
2.0118202366
 20
-1.3345736927
 10
2.0635364973
 20
-1.3426925416
 10
2.1170883089
 20
-1.3589510768
 10
2.171751475
 20
-1.3831294296
 10
2.2267867701
 20
-1.4149006292
 10
2.2814499363
 20
-1.4538350246
 10
2.3350017479
 20
-1.499406095
 10
2.3867180086
 20
-1.5509975698
 10
2.4358993446
 20
-1.6079117627
 10
2.4818806629
 20
-1.6693790071
 10
2.5240401449
 20
-1.7345680637
 10
2.5618076559
 20
-1.8025973626
 10
2.5946724553
 20
-1.872546924
 10
2.6221901028
 20
-1.9434708003
 10
2.6439884696
 20
-2.0144098676
 10
2.6597727702
 20
-2.0844047967
 10
2.6693295489
 20
-2.1525090263
 10
2.6725295667
 20
-2.2178015636
 10
2.6693295489
 20
-2.2793994389
 10
2.6597727702
 20
-2.3364696468
 10
2.6439884696
 20
-2.3882404104
 10
2.622763617
 20
-2.4330195446
  0
LWPOLYLINE
  5
18E
330
149
100
AcDbEntity
  8
0
  6
Continuous
 62
     7
370
    25
100
AcDbPolyline
 90
       30
 70
   128
 43
0.0
 10
1.8411707656
 20
-1.3564296406
 10
1.8649460114
 20
-1.3423895787
 10
1.9083454782
 20
-1.3253911546
 10
1.9556791881
 20
-1.3167663884
 10
2.0063070341
 20
-1.3166319153
 10
2.0595443613
 20
-1.3249895538
 10
2.1146712262
 20
-1.3417262813
 10
2.1709421325
 20
-1.3666157621
 10
2.2275961127
 20
-1.3993214087
 10
2.283867019
 20
-1.4394009334
 10
2.3389938839
 20
-1.4863123294
 10
2.3922312111
 20
-1.5394212005
 10
2.4428590571
 20
-1.5980093403
 10
2.490192767
 20
-1.6612844448
 10
2.5335922338
 20
-1.7283908266
 10
2.572470554
 20
-1.7984209872
 10
2.606301965
 20
-1.8704278887
 10
2.6346289552
 20
-1.9434377613
 10
2.6570684504
 20
-2.0164632718
 10
2.6733169951
 20
-2.0885168753
 10
2.6831548555
 20
-2.1586241705
 10
2.6864489915
 20
-2.2258370765
 10
2.6831548555
 20
-2.2892466541
 10
2.6733169951
 20
-2.3479953974
 10
2.6570684504
 20
-2.4012888306
 10
2.6346289552
 20
-2.4484062513
 10
2.606301965
 20
-2.4887104772
 10
2.572470554
 20
-2.521656463
 10
2.5335922338
 20
-2.5467986705
 10
2.52952863
 20
-2.5488296345
  0
LWPOLYLINE
  5
190
330
149
100
AcDbEntity
  8
0
  6
Continuous
 62
     8
370
    25
100
AcDbPolyline
 90
       29
 70
   128
 43
0.0
 10
0.2956540404
 20
0.46366576
 10
0.2952885192
 20
0.4641295075
 10
0.234344353
 20
0.5370613087
 10
0.1706068137
 20
0.6048496976
 10
0.1046360292
 20
0.6668989473
 10
0.0370117531
 20
0.7226637669
 10
-0.0316717301
 20
0.771654093
 10
-0.1008108274
 20
0.813439397
 10
-0.169797942
 20
0.847652468
 10
-0.2380268126
 20
0.8739926404
 10
-0.3048978414
 20
0.8922284357
 10
-0.3698233635
 20
0.9021995973
 10
-0.432232811
 20
0.9038184981
 10
-0.4915777275
 20
0.8970709112
 10
-0.5473365876
 20
0.8820161346
 10
-0.5990193806
 20
0.8587864702
 10
-0.6461719161
 20
0.8275860612
 10
-0.6883798161
 20
0.7886890979
 10
-0.7252721559
 20
0.7424374081
 10
-0.7565247243
 20
0.6892374535
 10
-0.7818628727
 20
0.6295567571
 10
-0.8010639286
 20
0.563919795
 10
-0.8139591522
 20
0.4929033872
 10
-0.82043522
 20
0.4171316285
 10
-0.82043522
 20
0.3372704037
 10
-0.8139591522
 20
0.2540215363
 10
-0.8010639286
 20
0.1681166202
 10
-0.7818628727
 20
0.080310591
 10
-0.7634764685
 20
0.0138486136
  0
LWPOLYLINE
  5
191
330
149
100
AcDbEntity
  8
0
  6
Continuous
 62
     8
370
    25
100
AcDbPolyline
 90
       22
 70
   128
 43
0.0
 10
-0.3698076761
 20
-0.6680796245
 10
-0.3048978414
 20
-0.733053191
 10
-0.2380268126
 20
-0.7920250421
 10
-0.169797942
 20
-0.8444602469
 10
-0.1008108274
 20
-0.889898003
 10
-0.0316717301
 20
-0.9279390017
 10
0.0370117531
 20
-0.9582489373
 10
0.1046360292
 20
-0.980561445
 10
0.1706068137
 20
-0.9946804418
 10
0.234344353
 20
-1.0004818494
 10
0.2952885192
 20
-0.9979146847
 10
0.3529037329
 20
-0.9870015082
 10
0.4066836694
 20
-0.9678382251
 10
0.4561557088
 20
-0.9405932433
 10
0.500885089
 20
-0.9055059924
 10
0.5404787266
 20
-0.8628848206
 10
0.5745886712
 20
-0.8131042842
 10
0.6029151636
 20
-0.7566018564
 10
0.6252092693
 20
-0.6938740825
 10
0.6412750671
 20
-0.6254722165
 10
0.6509713701
 20
-0.5519973764
 10
0.6542129668
 20
-0.4740952618
  0
LWPOLYLINE
  5
193
330
149
100
AcDbEntity
  8
0
  6
Continuous
 62
     8
370
    25
100
AcDbPolyline
 90
       23
 70
   128
 43
0.0
 10
-0.376290636
 20
0.9293089415
 10
-0.3411240398
 20
0.9259355261
 10
-0.2752956207
 20
0.9134116606
 10
-0.2077122545
 20
0.8927521081
 10
-0.1389505388
 20
0.8641331286
 10
-0.0695971241
 20
0.827798889
 10
-0.0002437095
 20
0.7840593804
 10
0.0685180063
 20
0.7332877728
 10
0.1361013724
 20
0.6759172317
 10
0.2019297916
 20
0.6124372222
 10
0.2654416388
 20
0.5433893335
 10
0.3260950534
 20
0.4693626578
 10
0.3833725619
 20
0.3909887646
 10
0.4367854927
 20
0.3089363123
 10
0.4858781456
 20
0.2239053434
 10
0.5302316794
 20
0.1366213123
 10
0.5694676852
 20
0.0478288955
 10
0.6032514155
 20
-0.0417143613
 10
0.6312946393
 20
-0.1312445068
 10
0.6533581016
 20
-0.2199977012
 10
0.6692535649
 20
-0.3072167336
 10
0.6788454146
 20
-0.392157482
 10
0.6820518165
 20
-0.4740952618
  0
LWPOLYLINE
  5
194
330
149
100
AcDbEntity
  8
0
  6
Continuous
 62
     8
370
    25
100
AcDbPolyline
 90
       23
 70
   128
 43
0.0
 10
0.7377295158
 20
-0.4419532101
 10
0.7345231139
 20
-0.3600154303
 10
0.7249312642
 20
-0.2750746819
 10
0.7090358009
 20
-0.1878556495
 10
0.6869723386
 20
-0.0991024551
 10
0.6589291148
 20
-0.0095723097
 10
0.6251453846
 20
0.0799709472
 10
0.5859093787
 20
0.168763364
 10
0.5415558449
 20
0.2560473951
 10
0.492463192
 20
0.3410783639
 10
0.4390502612
 20
0.4231308162
 10
0.3817727527
 20
0.5015047095
 10
0.3211193381
 20
0.5755313852
 10
0.2576074909
 20
0.6445792739
 10
0.1917790718
 20
0.7080592833
 10
0.1241957056
 20
0.7654298245
 10
0.0554339898
 20
0.8162014321
 10
-0.0139194248
 20
0.8599409407
 10
-0.0832728395
 20
0.8962751802
 10
-0.1520345552
 20
0.9248941598
 10
-0.2196179214
 20
0.9455537123
 10
-0.2854463405
 20
0.9580775778
 10
-0.3168955964
 20
0.9612095879
  0
LWPOLYLINE
  5
196
330
149
100
AcDbEntity
  8
0
  6
Continuous
 62
     8
370
    25
100
AcDbPolyline
 90
       17
 70
   128
 43
0.0
 10
-2.558154839
 20
-1.7982118706
 10
-2.5614174342
 20
-1.7472558277
 10
-2.5711287473
 20
-1.693727239
 10
-2.5870611535
 20
-1.6388807693
 10
-2.6088412105
 20
-1.5840019733
 10
-2.6359584124
 20
-1.5303771635
 10
-2.6677771548
 20
-1.4792632599
 10
-2.7035516335
 20
-1.4318583293
 10
-2.7424433249
 20
-1.3892735029
 10
-2.7835406409
 20
-1.352506933
 10
-2.8258802951
 20
-1.3224203968
 10
-2.8684698819
 20
-1.2997190973
 10
-2.9103111375
 20
-1.2849351337
 10
-2.9504233384
 20
-1.2784150294
 10
-2.9878662885
 20
-1.2803116104
 10
-3.0217623569
 20
-1.2905804222
 10
-3.0334324717
 20
-1.2965691117
  0
LWPOLYLINE
  5
198
330
149
100
AcDbEntity
  8
0
  6
Continuous
 62
     8
370
    25
100
AcDbPolyline
 90
       18
 70
   128
 43
0.0
 10
-3.0542467723
 20
-2.4356540105
 10
-3.0953734068
 20
-2.4333505108
 10
-3.1420612582
 20
-2.4273340909
 10
-3.1932160029
 20
-2.4177457706
 10
-3.2476386171
 20
-2.4048102921
 10
-3.3040534807
 20
-2.3888308519
 10
-3.3611382772
 20
-2.3701819947
 10
-3.4175549873
 20
-2.3493008337
 10
-3.4719812512
 20
-2.3266768058
 10
-3.5231413634
 20
-2.302840199
 10
-3.5698361742
 20
-2.2783497231
 10
-3.6109711969
 20
-2.2537794141
 10
-3.6455822613
 20
-2.2297051793
 10
-3.6728581134
 20
-2.2066912983
 10
-3.6921594304
 20
-2.185277197
 10
-3.7030338057
 20
-2.1659648037
 10
-3.7052263534
 20
-2.1492067846
 10
-3.7040464621
 20
-2.1443526724
  0
LWPOLYLINE
  5
199
330
149
100
AcDbEntity
  8
0
  6
Continuous
 62
     8
370
    25
100
AcDbPolyline
 90
        6
 70
   128
 43
0.0
 10
-2.9612626961
 20
-2.4056441124
 10
-2.9622276706
 20
-2.40797649
 10
-2.9730901707
 20
-2.4201877301
 10
-2.9923801031
 20
-2.4289945744
 10
-3.0196453283
 20
-2.434190598
 10
-3.0542467723
 20
-2.4356540105
  0
LINE
  5
19C
330
149
100
AcDbEntity
  8
0
  6
Continuous
 62
     7
370
    25
100
AcDbLine
 10
-0.5453722945
 20
0.9125676085
 30
0.0
 11
-0.6010499938
 21
0.8804255569
 31
0.0
  0
LINE
  5
19D
330
149
100
AcDbEntity
  8
0
  6
Continuous
 62
     7
370
    25
100
AcDbLine
 10
0.4618557456
 20
-0.960780686
 30
0.0
 11
0.5175334449
 21
-0.9286386343
 31
0.0
  0
LINE
  5
19E
330
149
100
AcDbEntity
  8
0
  6
Continuous
 62
     7
370
    25
100
AcDbLine
 10
-3.3311621266
 20
-3.4575047108
 30
0.0
 11
-2.9612303916
 21
-2.4055528145
 31
0.0
  0
LINE
  5
19F
330
149
100
AcDbEntity
  8
0
  6
Continuous
 62
     7
370
    25
100
AcDbLine
 10
-3.7040401461
 20
-2.1443346901
 30
0.0
 11
-4.0739718811
 21
-3.1962865865
 31
0.0
  0
LINE
  5
1A0
330
149
100
AcDbEntity
  8
0
  6
Continuous
 62
     7
370
    25
100
AcDbLine
 10
-2.6397089393
 20
-1.9784657314
 30
0.0
 11
0.1133178472
 21
-0.3891771965
 31
0.0
  0
LINE
  5
1A1
330
149
100
AcDbEntity
  8
0
  6
Continuous
 62
     7
370
    25
100
AcDbLine
 10
-0.2803509451
 20
0.2927510416
 30
0.0
 11
-3.0333777317
 21
-1.2965374933
 31
0.0
  0
LINE
  5
1A2
330
149
100
AcDbEntity
  8
0
  6
Continuous
 62
     7
370
    25
100
AcDbLine
 10
-3.740799851
 20
1.8502272225
 30
0.0
 11
-4.5481264909
 21
1.3841674737
 31
0.0
  0
LINE
  5
1A3
330
149
100
AcDbEntity
  8
0
  6
Continuous
 62
     7
370
    25
100
AcDbLine
 10
-3.8592061043
 20
0.190793057
 30
0.0
 11
-3.0518794643
 21
0.6568528059
 31
0.0
  0
LINE
  5
1A4
330
149
100
AcDbEntity
  8
0
  6
Continuous
 62
     7
370
    25
100
AcDbLine
 10
-2.3916263439
 20
0.6061443318
 30
0.0
 11
-2.2524320956
 21
0.6864994609
 31
0.0
  0
LINE
  5
1A5
330
149
100
AcDbEntity
  8
0
  6
Continuous
 62
     7
370
    25
100
AcDbLine
 10
-3.315337835
 20
2.5277057038
 30
0.0
 11
-3.4545320833
 21
2.4473505746
 31
0.0
  0
LINE
  5
1A6
330
149
100
AcDbEntity
  8
0
  6
Continuous
 62
     7
370
    25
100
AcDbLine
 10
-3.0240406147
 20
0.6729238317
 30
0.0
 11
-2.5786190202
 21
0.9300602449
 31
0.0
  0
LINE
  5
1A7
330
149
100
AcDbEntity
  8
0
  6
Continuous
 62
     7
370
    25
100
AcDbLine
 10
-3.2675394069
 20
2.1234346615
 30
0.0
 11
-3.7129610013
 21
1.8662982484
 31
0.0
  0
LINE
  5
1A8
330
149
100
AcDbEntity
  8
0
  6
Continuous
 62
     7
370
    25
100
AcDbLine
 10
-5.3207891481
 20
1.5719643974
 30
0.0
 11
-4.6756125671
 21
1.1995118851
 31
0.0
  0
LINE
  5
1A9
330
149
100
AcDbEntity
  8
0
  6
Continuous
 62
     7
370
    25
100
AcDbLine
 10
-4.4568170609
 20
1.4368792857
 30
0.0
 11
-5.1633216312
 21
1.8447356926
 31
0.0
  0
LINE
  5
1AA
330
149
100
AcDbEntity
  8
0
  6
Continuous
 62
     7
370
    25
100
AcDbLine
 10
3.0380034766
 20
-2.8897885149
 30
0.0
 11
2.2019972284
 21
-2.4071723806
 31
0.0
  0
LINE
  5
1AB
330
149
100
AcDbEntity
  8
0
  6
Continuous
 62
     7
370
    25
100
AcDbLine
 10
2.0445351752
 20
-2.67994683
 30
0.0
 11
2.8805359596
 21
-3.1625598101
 31
0.0
  0
LINE
  5
1AC
330
149
100
AcDbEntity
  8
0
  6
Continuous
 62
     7
370
    25
100
AcDbLine
 10
1.8269700796
 20
-1.3639779421
 30
0.0
 11
1.0196434397
 21
-1.830037691
 31
0.0
  0
LINE
  5
1AD
330
149
100
AcDbEntity
  8
0
  6
Continuous
 62
     7
370
    25
100
AcDbLine
 10
1.7085638263
 20
-3.0234121076
 30
0.0
 11
2.1740313893
 21
-2.7547034032
 31
0.0
  0
LINE
  5
1AE
330
149
100
AcDbEntity
  8
0
  6
Continuous
 62
     7
370
    25
100
AcDbLine
 10
2.4890176173
 20
-2.5728657242
 30
0.0
 11
2.5158904663
 21
-2.5573523588
 31
0.0
  0
LINE
  5
1AF
330
149
100
AcDbEntity
  8
0
  6
Continuous
 62
     7
370
    25
100
AcDbLine
 10
3.1761435867
 20
-2.6080608329
 30
0.0
 11
3.315337835
 21
-2.5277057038
 31
0.0
  0
LINE
  5
1B0
330
149
100
AcDbEntity
  8
0
  6
Continuous
 62
     7
370
    25
100
AcDbLine
 10
2.2524320956
 20
-0.6864994609
 30
0.0
 11
2.1132378473
 21
-0.76685459
 31
0.0
  0
LINE
  5
1B1
330
149
100
AcDbEntity
  8
0
  6
Continuous
 62
     7
370
    25
100
AcDbLine
 10
2.5437293159
 20
-2.541281333
 30
0.0
 11
2.9891509104
 21
-2.2841449198
 31
0.0
  0
LINE
  5
1B2
330
149
100
AcDbEntity
  8
0
  6
Continuous
 62
     7
370
    25
100
AcDbLine
 10
2.3002305237
 20
-1.0907705031
 30
0.0
 11
1.8548089293
 21
-1.3479069163
 31
0.0
  0
ARC
  5
1B3
330
149
100
AcDbEntity
  8
0
  6
Continuous
 62
     7
370
    25
100
AcDbCircle
 10
-1.0959404287
 20
-0.6321611605
 30
0.0
 40
1.771262771570324
100
AcDbArc
 50
18.6959207652
 51
38.2190667517
  0
ARC
  5
1B4
330
149
100
AcDbEntity
  8
0
  6
Continuous
 62
     7
370
    25
100
AcDbCircle
 10
0.269558474
 20
-0.6275054181
 30
0.0
 40
0.3835761570641363
100
AcDbArc
 50
264.8894322812
 51
335.6593555118
  0
ARC
  5
1B5
330
149
100
AcDbEntity
  8
0
  6
Continuous
 62
     7
370
    25
100
AcDbCircle
 10
-0.4089073056
 20
0.5474162373
 30
0.0
 40
0.3832830346356756
100
AcDbArc
 50
85.1183322489
 51
155.4463196847
  0
ARC
  5
1B6
330
149
100
AcDbEntity
  8
0
  6
Continuous
 62
     7
370
    25
100
AcDbCircle
 10
-0.3522777296
 20
0.5664923262
 30
0.0
 40
0.396299901609247
100
AcDbArc
 50
84.8777432315
 51
119.1595675713
  0
ARC
  5
1B7
330
149
100
AcDbEntity
  8
0
  6
Continuous
 62
     7
370
    25
100
AcDbCircle
 10
0.3116349927
 20
-0.5859374512
 30
0.0
 40
0.3997977908225427
100
AcDbArc
 50
300.9978879807
 51
334.7090026249
  0
ARC
  5
1B8
330
149
100
AcDbEntity
  8
0
  6
Continuous
 62
     7
370
    25
100
AcDbCircle
 10
0.0020458919
 20
-0.2302571773
 30
0.0
 40
0.1940026302337016
100
AcDbArc
 50
304.9987806782
 51
6.3133997151
  0
ARC
  5
1B9
330
149
100
AcDbEntity
  8
0
  6
Continuous
 62
     7
370
    25
100
AcDbCircle
 10
-3.3268933428
 20
0.9828541099
 30
0.0
 40
0.4318655843119408
100
AcDbArc
 50
332.1621755419
 51
1.7979114397
  0
ARC
  5
1BA
330
149
100
AcDbEntity
  8
0
  6
Continuous
 62
     7
370
    25
100
AcDbCircle
 10
-5.1283374917
 20
1.6427021002
 30
0.0
 40
0.225085434730677
100
AcDbArc
 50
121.1865549203
 51
178.818823576
  0
ARC
  5
1BB
330
149
100
AcDbEntity
  8
0
  6
Continuous
 62
     7
370
    25
100
AcDbCircle
 10
3.0050738731
 20
-2.9586939174
 30
0.0
 40
0.0763695834612415
100
AcDbArc
 50
64.457059734
 51
126.8533986951
  0
ARC
  5
1BC
330
149
100
AcDbEntity
  8
0
  6
Continuous
 62
     8
370
    25
100
AcDbCircle
 10
-0.6655078853
 20
-0.495919461
 30
0.0
 40
1.31990129298937
100
AcDbArc
 50
0.947412883
 51
19.0831588362
  0
ARC
  5
1BD
330
149
100
AcDbEntity
  8
0
  6
Continuous
 62
     8
370
    25
100
AcDbCircle
 10
-0.0185137888
 20
-0.4945072129
 30
0.0
 40
0.700862907499792
100
AcDbArc
 50
335.45955285
 51
1.6689198928
  0
ARC
  5
1BE
330
149
100
AcDbEntity
  8
0
  6
Continuous
 62
     8
370
    25
100
AcDbCircle
 10
0.0270704286
 20
-0.4600965984
 30
0.0
 40
0.7108906531538844
100
AcDbArc
 50
335.3369890087
 51
1.4624646626
  0
ARC
  5
1BF
330
149
100
AcDbEntity
  8
0
  6
Continuous
 62
     8
370
    25
100
AcDbCircle
 10
-2.7512369154
 20
-1.8194943975
 30
0.0
 40
0.1942514714619624
100
AcDbArc
 50
305.2536499535
 51
6.290051728
  0
ARC
  5
1C0
330
149
100
AcDbEntity
  8
0
  6
Continuous
 62
     8
370
    25
100
AcDbCircle
 10
2.9179516801
 20
-3.1106036519
 30
0.0
 40
0.055508772555063
100
AcDbArc
 50
219.6197145958
 51
281.1851319432
  0
ARC
  5
1C1
330
149
100
AcDbEntity
  8
0
  6
Continuous
 62
     8
370
    25
100
AcDbCircle
 10
3.0063523852
 20
-2.9575577493
 30
0.0
 40
0.0652418424873309
100
AcDbArc
 50
37.8608861676
 51
129.5181919899
  0
VIEWPORT
  5
1C6
330
149
100
AcDbEntity
  8
0
100
AcDbViewport
 10
0.0
 20
0.0
 30
0.0
 40
8.4
 41
6.4
 68
     1
 69
     1
 12
0.0
 22
-0.2861530222
 13
0.0
 23
0.0
 14
0.5
 24
0.5
 15
0.5
 25
0.5
 16
0.0
 26
0.0
 36
1.0
 17
0.0
 27
0.0
 37
0.0
 42
50.0
 43
0.0
 44
0.0
 45
9.025871766
 50
0.0
 51
0.0
 72
   100
 90
   557152
  1

281
     0
 71
     1
 74
     0
110
0.0
120
0.0
130
0.0
111
1.0
121
0.0
131
0.0
112
0.0
122
1.0
132
0.0
 79
     0
146
0.0
  0
ENDBLK
  5
14C
330
149
100
AcDbEntity
  8
0
100
AcDbBlockEnd
  0
ENDSEC
  0
SECTION
  2
ENTITIES
  0
LWPOLYLINE
  5
81
330
1F
100
AcDbEntity
  8
0
  6
Continuous
 62
     7
370
    25
100
AcDbPolyline
 90
       42
 70
   128
 43
0.0
 10
0.3937007874
 20
-1.4566929134
 10
0.389086781
 20
-1.4294089272
 10
0.3753529103
 20
-1.4027644546
 10
0.3528210854
 20
-1.3773840193
 10
0.3220194334
 20
-1.3538625173
 10
0.2836699187
 20
-1.3327512726
 10
0.2386714216
 20
-1.3145451149
 10
0.1880786687
 20
-1.2996707812
 10
0.1330775112
 20
-1.2884769131
 10
0.0749571296
 20
-1.2812258855
 10
0.0150798164
 20
-1.2780876563
 10
-0.0451509549
 20
-1.279135783
 10
-0.1043234261
 20
-1.2843456983
 10
-0.1610506446
 20
-1.2935952863
 10
-0.2140029724
 20
-1.3066677444
 10
-0.261939252
 20
-1.3232566653
 10
-0.3037358976
 20
-1.3429732188
 10
-0.3384132311
 20
-1.3653552655
 10
-0.3651584453
 20
-1.3898781893
 10
-0.3833446551
 20
-1.4159671936
 10
-0.392545591
 20
-1.4430107742
 10
-0.392545591
 20
-1.4703750526
 10
-0.3833446551
 20
-1.4974186332
 10
-0.3651584453
 20
-1.5235076375
 10
-0.3384132311
 20
-1.5480305613
 10
-0.3037358976
 20
-1.570412608
 10
-0.261939252
 20
-1.5901291615
 10
-0.2140029724
 20
-1.6067180824
 10
-0.1610506446
 20
-1.6197905405
 10
-0.1043234261
 20
-1.6290401285
 10
-0.0451509549
 20
-1.6342500438
 10
0.0150798164
 20
-1.6352981704
 10
0.0749571296
 20
-1.6321599413
 10
0.1330775112
 20
-1.6249089137
 10
0.1880786687
 20
-1.6137150456
 10
0.2386714216
 20
-1.5988407118
 10
0.2836699187
 20
-1.5806345542
 10
0.3220194334
 20
-1.5595233095
 10
0.3528210854
 20
-1.5360018075
 10
0.3753529103
 20
-1.5106213722
 10
0.389086781
 20
-1.4839768995
 10
0.3937007874
 20
-1.4566929134
  0
LWPOLYLINE
  5
82
330
1F
100
AcDbEntity
  8
0
  6
Continuous
 62
     7
370
    25
100
AcDbPolyline
 90
       38
 70
   128
 43
0.0
 10
0.0
 20
-1.5996820472
 10
0.0532286048
 20
-1.5976252786
 10
0.1049259196
 20
-1.5915141426
 10
0.1536047067
 20
-1.5815244452
 10
0.1978645661
 20
-1.5679435719
 10
0.2364322221
 20
-1.5511622198
 10
0.2681981536
 20
-1.5316631577
 10
0.2922485125
 20
-1.5100073382
 10
0.3078914138
 20
-1.4868177597
 10
0.3146768397
 20
-1.4627615443
 10
0.3124095859
 20
-1.4385307454
 10
0.3011548771
 20
-1.414822439
 10
0.2812364908
 20
-1.3923186699
 10
0.2532274426
 20
-1.3716668306
 10
0.217933502
 20
-1.3534610369
 10
0.1763700114
 20
-1.3382250363
 10
0.1297326766
 20
-1.3263971409
 10
0.0793631689
 20
-1.3183176176
 10
0.0267105274
 20
-1.3142188996
 10
-0.0267105274
 20
-1.3142188996
 10
-0.0793631689
 20
-1.3183176176
 10
-0.1297326766
 20
-1.3263971409
 10
-0.1763700114
 20
-1.3382250363
 10
-0.217933502
 20
-1.3534610369
 10
-0.2532274426
 20
-1.3716668306
 10
-0.2812364908
 20
-1.3923186699
 10
-0.3011548771
 20
-1.414822439
 10
-0.3124095859
 20
-1.4385307454
 10
-0.3146768397
 20
-1.4627615443
 10
-0.3078914138
 20
-1.4868177597
 10
-0.2922485125
 20
-1.5100073382
 10
-0.2681981536
 20
-1.5316631577
 10
-0.2364322221
 20
-1.5511622198
 10
-0.1978645661
 20
-1.5679435719
 10
-0.1536047067
 20
-1.5815244452
 10
-0.1049259196
 20
-1.5915141426
 10
-0.0532286048
 20
-1.5976252786
 10
0.0
 20
-1.5996820472
  0
CIRCLE
  5
84
330
1F
100
AcDbEntity
  8
0
  6
Continuous
 62
     7
370
    25
100
AcDbCircle
 10
-3.937007874
 20
0.0
 30
0.0
 40
0.6889763779527551
  0
CIRCLE
  5
88
330
1F
100
AcDbEntity
  8
0
  6
Continuous
 62
     7
370
    25
100
AcDbCircle
 10
3.937007874
 20
0.0
 30
0.0
 40
0.688976377952756
  0
LWPOLYLINE
  5
8E
330
1F
100
AcDbEntity
  8
0
  6
Continuous
 62
     8
370
    25
100
AcDbPolyline
 90
       22
 70
   128
 43
0.0
 10
0.3937007874
 20
-0.4299287404
 10
0.389086781
 20
-0.4026447542
 10
0.3753529103
 20
-0.3760002816
 10
0.3528210854
 20
-0.3506198463
 10
0.3220194334
 20
-0.3270983443
 10
0.2836699187
 20
-0.3059870996
 10
0.2386714216
 20
-0.2877809419
 10
0.1880786687
 20
-0.2729066082
 10
0.1330775112
 20
-0.2617127401
 10
0.0749571296
 20
-0.2544617125
 10
0.0150798164
 20
-0.2513234833
 10
-0.0451509549
 20
-0.25237161
 10
-0.1043234261
 20
-0.2575815253
 10
-0.1610506446
 20
-0.2668311133
 10
-0.2140029724
 20
-0.2799035714
 10
-0.261939252
 20
-0.2964924923
 10
-0.3037358976
 20
-0.3162090457
 10
-0.3384132311
 20
-0.3385910925
 10
-0.3651584453
 20
-0.3631140162
 10
-0.3833446551
 20
-0.3892030205
 10
-0.392545591
 20
-0.4162466012
 10
-0.3937007874
 20
-0.4299287404
  0
LINE
  5
91
330
1F
100
AcDbEntity
  8
0
  6
Continuous
 62
     7
370
    25
100
AcDbLine
 10
0.3937007874
 20
-1.4566929134
 30
0.0
 11
0.3937007874
 21
0.0
 31
0.0
  0
LINE
  5
92
330
1F
100
AcDbEntity
  8
0
  6
Continuous
 62
     7
370
    25
100
AcDbLine
 10
-0.3937007874
 20
0.0
 30
0.0
 11
-0.3937007874
 21
-1.4566929134
 31
0.0
  0
LINE
  5
93
330
1F
100
AcDbEntity
  8
0
  6
Continuous
 62
     7
370
    25
100
AcDbLine
 10
-5.7992125984
 20
-0.157480315
 30
0.0
 11
-4.6077450802
 21
-0.157480315
 31
0.0
  0
LINE
  5
94
330
1F
100
AcDbEntity
  8
0
  6
Continuous
 62
     7
370
    25
100
AcDbLine
 10
-4.6078258857
 20
0.157480315
 30
0.0
 11
-5.7992125984
 21
0.157480315
 31
0.0
  0
LINE
  5
95
330
1F
100
AcDbEntity
  8
0
  6
Continuous
 62
     7
370
    25
100
AcDbLine
 10
5.7992125984
 20
0.157480315
 30
0.0
 11
4.6077450802
 21
0.157480315
 31
0.0
  0
LINE
  5
96
330
1F
100
AcDbEntity
  8
0
  6
Continuous
 62
     7
370
    25
100
AcDbLine
 10
4.6078258857
 20
-0.157480315
 30
0.0
 11
5.7992125984
 21
-0.157480315
 31
0.0
  0
LINE
  5
97
330
1F
100
AcDbEntity
  8
0
  6
Continuous
 62
     7
370
    25
100
AcDbLine
 10
-5.8070866142
 20
-0.1496062992
 30
0.0
 11
-5.8070866142
 21
0.1496062812
 31
0.0
  0
LINE
  5
98
330
1F
100
AcDbEntity
  8
0
  6
Continuous
 62
     7
370
    25
100
AcDbLine
 10
5.8070866142
 20
0.1496062992
 30
0.0
 11
5.8070866142
 21
-0.1496062812
 31
0.0
  0
LINE
  5
99
330
1F
100
AcDbEntity
  8
0
  6
Continuous
 62
     8
370
    25
100
AcDbLine
 10
-5.7992125984
 20
0.157480315
 30
0.0
 11
-5.7992125984
 21
-0.157480315
 31
0.0
  0
LINE
  5
9A
330
1F
100
AcDbEntity
  8
0
  6
Continuous
 62
     8
370
    25
100
AcDbLine
 10
5.7992125984
 20
-0.157480315
 30
0.0
 11
5.7992125984
 21
0.157480315
 31
0.0
  0
ARC
  5
9B
330
1F
100
AcDbEntity
  8
0
  6
Continuous
 62
     7
370
    25
100
AcDbCircle
 10
-5.7992125984
 20
-0.1496062992
 30
0.0
 40
0.0078740157480306
100
AcDbArc
 50
180.0
 51
270.0
  0
ARC
  5
9C
330
1F
100
AcDbEntity
  8
0
  6
Continuous
 62
     7
370
    25
100
AcDbCircle
 10
-5.7992125984
 20
0.1496062992
 30
0.0
 40
0.0078740157480311
100
AcDbArc
 50
90.0
 51
180.0
  0
ARC
  5
9D
330
1F
100
AcDbEntity
  8
0
  6
Continuous
 62
     7
370
    25
100
AcDbCircle
 10
5.7992125984
 20
0.1496062992
 30
0.0
 40
0.0078740157480306
100
AcDbArc
 50
360.0
 51
90.0
  0
ARC
  5
9E
330
1F
100
AcDbEntity
  8
0
  6
Continuous
 62
     7
370
    25
100
AcDbCircle
 10
5.7992125984
 20
-0.1496062992
 30
0.0
 40
0.0078740157480311
100
AcDbArc
 50
270.0
 51
0.0
  0
ARC
  5
9F
330
1F
100
AcDbEntity
  8
0
  6
Continuous
 62
     7
370
    25
100
AcDbCircle
 10
0.0
 20
0.0
 30
0.0
 40
1.062992125984254
100
AcDbArc
 50
291.7384607915
 51
248.2615392085
  0
ARC
  5
A0
330
1F
100
AcDbEntity
  8
0
  6
Continuous
 62
     7
370
    25
100
AcDbCircle
 10
0.0
 20
0.0
 30
0.0
 40
0.3937007874015748
100
AcDbArc
 50
0.0
 51
180.0
  0
ARC
  5
A1
330
1F
100
AcDbEntity
  8
0
  6
Continuous
 62
     7
370
    25
100
AcDbCircle
 10
-3.937007874
 20
0.0
 30
0.0
 40
1.062992125984253
100
AcDbArc
 50
188.5196242541
 51
171.4803757459
  0
ARC
  5
A2
330
1F
100
AcDbEntity
  8
0
  6
Continuous
 62
     7
370
    25
100
AcDbCircle
 10
3.937007874
 20
0.0
 30
0.0
 40
1.062992125984252
100
AcDbArc
 50
8.5196242541
 51
351.4803757459
  0
ARC
  5
A3
330
1F
100
AcDbEntity
  8
0
  6
Continuous
 62
     8
370
    25
100
AcDbCircle
 10
0.0
 20
0.0
 30
0.0
 40
1.043307086614173
100
AcDbArc
 50
292.1701571635
 51
247.8298428365
  0
CIRCLE
  5
B3
330
1B
100
AcDbEntity
 67
     1
  8
0
  6
Continuous
 62
     7
370
    25
100
AcDbCircle
 10
1.6141732283
 20
0.0
 30
0.0
 40
0.1496062992125988
  0
CIRCLE
  5
B4
330
1B
100
AcDbEntity
 67
     1
  8
0
  6
Continuous
 62
     7
370
    25
100
AcDbCircle
 10
1.6141732283
 20
0.0
 30
0.0
 40
0.1574803149606299
  0
LINE
  5
BE
330
1B
100
AcDbEntity
 67
     1
  8
0
  6
Continuous
 62
     7
370
    25
100
AcDbLine
 10
4.0114780554
 20
0.3937007874
 30
0.0
 11
2.0078740157
 21
0.3937007874
 31
0.0
  0
LINE
  5
BF
330
1B
100
AcDbEntity
 67
     1
  8
0
  6
Continuous
 62
     7
370
    25
100
AcDbLine
 10
2.0078740157
 20
-0.3937007874
 30
0.0
 11
4.0114780554
 21
-0.3937007874
 31
0.0
  0
LINE
  5
C0
330
1B
100
AcDbEntity
 67
     1
  8
0
  6
Continuous
 62
     7
370
    25
100
AcDbLine
 10
5.5870104426
 20
-1.2779564962
 30
0.0
 11
5.0638479658
 21
-0.2511923231
 31
0.0
  0
LINE
  5
C1
330
1B
100
AcDbEntity
 67
     1
  8
0
  6
Continuous
 62
     7
370
    25
100
AcDbLine
 10
4.3622680255
 20
-0.6086651576
 30
0.0
 11
4.8854305023
 21
-1.6354293306
 31
0.0
  0
LINE
  5
C2
330
1B
100
AcDbEntity
 67
     1
  8
0
  6
Continuous
 62
     7
370
    25
100
AcDbLine
 10
0.1968503937
 20
1.062992126
 30
0.0
 11
0.0
 21
1.062992126
 31
0.0
  0
LINE
  5
C3
330
1B
100
AcDbEntity
 67
     1
  8
0
  6
Continuous
 62
     7
370
    25
100
AcDbLine
 10
0.0
 20
-1.062992126
 30
0.0
 11
0.1968503937
 21
-1.062992126
 31
0.0
  0
LINE
  5
C4
330
1B
100
AcDbEntity
 67
     1
  8
0
  6
Continuous
 62
     7
370
    25
100
AcDbLine
 10
0.8661417323
 20
-0.688976378
 30
0.0
 11
2.0078740157
 21
-0.688976378
 31
0.0
  0
LINE
  5
C5
330
1B
100
AcDbEntity
 67
     1
  8
0
  6
Continuous
 62
     7
370
    25
100
AcDbLine
 10
2.0078740157
 20
0.688976378
 30
0.0
 11
0.8661417323
 21
0.688976378
 31
0.0
  0
LINE
  5
C6
330
1B
100
AcDbEntity
 67
     1
  8
0
  6
Continuous
 62
     7
370
    25
100
AcDbLine
 10
0.8267716535
 20
0.688976378
 30
0.0
 11
0.1968503937
 21
0.688976378
 31
0.0
  0
LINE
  5
C7
330
1B
100
AcDbEntity
 67
     1
  8
0
  6
Continuous
 62
     7
370
    25
100
AcDbLine
 10
0.1968503937
 20
-0.688976378
 30
0.0
 11
0.8267716535
 21
-0.688976378
 31
0.0
  0
LINE
  5
C8
330
1B
100
AcDbEntity
 67
     1
  8
0
  6
Continuous
 62
     7
370
    25
100
AcDbLine
 10
0.8661417323
 20
0.6692913386
 30
0.0
 11
0.8267716535
 21
0.6692913386
 31
0.0
  0
LINE
  5
C9
330
1B
100
AcDbEntity
 67
     1
  8
0
  6
Continuous
 62
     7
370
    25
100
AcDbLine
 10
0.8267716535
 20
-0.6692913386
 30
0.0
 11
0.8661417323
 21
-0.6692913386
 31
0.0
  0
LINE
  5
CA
330
1B
100
AcDbEntity
 67
     1
  8
0
  6
Continuous
 62
     7
370
    25
100
AcDbLine
 10
5.5870104426
 20
-1.2779564962
 30
0.0
 11
4.8854305023
 21
-1.6354293306
 31
0.0
  0
LINE
  5
CB
330
1B
100
AcDbEntity
 67
     1
  8
0
  6
Continuous
 62
     7
370
    25
100
AcDbLine
 10
0.1968503937
 20
-1.062992126
 30
0.0
 11
0.1968503937
 21
1.062992126
 31
0.0
  0
LINE
  5
CC
330
1B
100
AcDbEntity
 67
     1
  8
0
  6
Continuous
 62
     7
370
    25
100
AcDbLine
 10
0.0
 20
-1.062992126
 30
0.0
 11
0.0
 21
1.062992126
 31
0.0
  0
LINE
  5
CD
330
1B
100
AcDbEntity
 67
     1
  8
0
  6
Continuous
 62
     7
370
    25
100
AcDbLine
 10
2.0078740157
 20
0.688976378
 30
0.0
 11
2.0078740157
 21
-0.688976378
 31
0.0
  0
LINE
  5
CE
330
1B
100
AcDbEntity
 67
     1
  8
0
  6
Continuous
 62
     7
370
    25
100
AcDbLine
 10
0.8661417323
 20
0.688976378
 30
0.0
 11
0.8661417323
 21
-0.688976378
 31
0.0
  0
LINE
  5
CF
330
1B
100
AcDbEntity
 67
     1
  8
0
  6
Continuous
 62
     7
370
    25
100
AcDbLine
 10
0.8267716535
 20
-0.688976378
 30
0.0
 11
0.8267716535
 21
0.688976378
 31
0.0
  0
LINE
  5
D0
330
1B
100
AcDbEntity
 67
     1
  8
0
  6
Continuous
 62
     8
370
    25
100
AcDbLine
 10
4.0114780554
 20
0.3937007874
 30
0.0
 11
4.0114780554
 21
-0.3937007874
 31
0.0
  0
LINE
  5
D1
330
1B
100
AcDbEntity
 67
     1
  8
0
  6
Continuous
 62
     8
370
    25
100
AcDbLine
 10
5.0638479658
 20
-0.2511923231
 30
0.0
 11
4.3622680255
 21
-0.6086651576
 31
0.0
  0
ARC
  5
D2
330
1B
100
AcDbEntity
 67
     1
  8
0
  6
Continuous
 62
     7
370
    25
100
AcDbCircle
 10
4.0114780554
 20
-0.7874015748
 30
0.0
 40
0.3937007874015763
100
AcDbArc
 50
27.0
 51
90.0
  0
ARC
  5
D3
330
1B
100
AcDbEntity
 67
     1
  8
0
  6
Continuous
 62
     7
370
    25
100
AcDbCircle
 10
4.0114780554
 20
-0.7874015748
 30
0.0
 40
1.181102362204724
100
AcDbArc
 50
27.0
 51
90.0
  0
VIEWPORT
  5
1C2
330
1B
100
AcDbEntity
 67
     1
  8
0
100
AcDbViewport
 10
0.0
 20
0.0
 30
0.0
 40
8.4
 41
6.4
 68
     1
 69
     1
 12
0.0
 22
-0.2861530222
 13
0.0
 23
0.0
 14
0.5
 24
0.5
 15
0.5
 25
0.5
 16
0.0
 26
0.0
 36
1.0
 17
0.0
 27
0.0
 37
0.0
 42
50.0
 43
0.0
 44
0.0
 45
9.025871766
 50
0.0
 51
0.0
 72
   100
 90
   557152
  1

281
     0
 71
     1
 74
     0
110
0.0
120
0.0
130
0.0
111
1.0
121
0.0
131
0.0
112
0.0
122
1.0
132
0.0
 79
     0
146
0.0
  0
ENDSEC
  0
SECTION
  2
OBJECTS
  0
DICTIONARY
  5
C
330
0
100
AcDbDictionary
281
     1
  3
ACAD_GROUP
350
D
  3
ACAD_LAYOUT
350
1A
  3
ACAD_MLINESTYLE
350
17
  3
ACAD_PLOTSETTINGS
350
19
  3
ACAD_PLOTSTYLENAME
350
E
  3
ACAD_SCALELIST
350
47
  0
DICTIONARY
  5
D
102
{ACAD_REACTORS
330
C
102
}
330
C
100
AcDbDictionary
281
     1
  0
DICTIONARY
  5
1A
102
{ACAD_REACTORS
330
C
102
}
330
C
100
AcDbDictionary
281
     1
  3
_Isometric
350
14A
  3
_Left
350
1E
  3
_Top
350
26
  3
Model
350
22
  0
DICTIONARY
  5
17
102
{ACAD_REACTORS
330
C
102
}
330
C
100
AcDbDictionary
281
     1
  3
Standard
350
18
  0
DICTIONARY
  5
19
102
{ACAD_REACTORS
330
C
102
}
330
C
100
AcDbDictionary
281
     1
  0
ACDBDICTIONARYWDFLT
  5
E
102
{ACAD_REACTORS
330
C
102
}
330
C
100
AcDbDictionary
281
     1
  3
Normal
350
F
100
AcDbDictionaryWithDefault
340
F
  0
DICTIONARY
  5
47
102
{ACAD_REACTORS
330
C
102
}
330
C
100
AcDbDictionary
281
     1
  3
A0
350
48
  3
A1
350
49
  3
A2
350
4A
  3
A3
350
4B
  3
A4
350
4C
  3
A5
350
4D
  3
A6
350
4E
  3
A7
350
4F
  3
A8
350
50
  3
A9
350
51
  3
B0
350
52
  3
B1
350
53
  3
B2
350
54
  3
B3
350
55
  3
B4
350
56
  3
B5
350
57
  3
B6
350
58
  3
B7
350
59
  3
B8
350
5A
  3
B9
350
5B
  3
C0
350
5C
  3
C1
350
5D
  3
C2
350
5E
  3
C3
350
5F
  3
C4
350
60
  3
C5
350
61
  3
C6
350
62
  3
C7
350
63
  3
C8
350
64
  3
C9
350
65
  3
D0
350
66
  3
D1
350
67
  3
D2
350
68
  0
LAYOUT
  5
14A
102
{ACAD_REACTORS
330
1A
102
}
330
1A
100
AcDbPlotSettings
  1

  2
none_device
  4
Letter_(8.50_x_11.00_Inches)
  6

 40
6.35
 41
6.35
 42
6.35001
 43
6.35001
 44
215.9
 45
279.4
 46
0.0
 47
0.0
 48
0.0
 49
0.0
140
0.0
141
0.0
142
1.0
143
0.5320962526
 70
   688
 72
     0
 73
     1
 74
     1
  7

 75
     0
147
1.8793592234
148
0.0
149
41.5399049974
100
AcDbLayout
  1
_Isometric
 70
     1
 71
     3
 10
0.0
 20
0.0
 11
0.0
 21
0.0
 12
0.0
 22
0.0
 32
0.0
 14
0.0
 24
0.0
 34
0.0
 15
0.0
 25
0.0
 35
0.0
146
0.0
 13
0.0
 23
0.0
 33
0.0
 16
1.0
 26
0.0
 36
0.0
 17
0.0
 27
1.0
 37
0.0
 76
     0
330
149
331
1C6
  0
LAYOUT
  5
1E
102
{ACAD_REACTORS
330
1A
102
}
330
1A
100
AcDbPlotSettings
  1

  2
none_device
  4
Letter_(8.50_x_11.00_Inches)
  6

 40
6.35
 41
6.35
 42
6.35001
 43
6.35001
 44
215.9
 45
279.4
 46
0.0
 47
0.0
 48
0.0
 49
0.0
140
0.0
141
0.0
142
1.0
143
0.5320962526
 70
   688
 72
     0
 73
     1
 74
     1
  7

 75
     0
147
1.8793592234
148
0.0
149
41.5399049974
100
AcDbLayout
  1
_Left
 70
     1
 71
     1
 10
-0.1330242726
 20
-1.7684533938
 11
5.7200345057
 21
2.7543647532
 12
0.0
 22
0.0
 32
0.0
 14
0.0
 24
-1.6354293306
 34
0.0
 15
5.5870104426
 25
1.062992126
 35
0.0
146
0.0
 13
0.0
 23
0.0
 33
0.0
 16
1.0
 26
0.0
 36
0.0
 17
0.0
 27
1.0
 37
0.0
 76
     0
330
1B
331
1C2
  0
LAYOUT
  5
26
102
{ACAD_REACTORS
330
1A
102
}
330
1A
100
AcDbPlotSettings
  1

  2
none_device
  4
Letter_(8.50_x_11.00_Inches)
  6

 40
6.35
 41
6.35
 42
6.35001
 43
6.35001
 44
215.9
 45
279.4
 46
0.0
 47
0.0
 48
0.0
 49
0.0
140
0.0
141
0.0
142
1.0
143
0.5320962526
 70
   688
 72
     0
 73
     1
 74
     1
  7

 75
     0
147
1.8793592234
148
0.0
149
41.5399049974
100
AcDbLayout
  1
_Top
 70
     1
 71
     2
 10
0.0
 20
0.0
 11
0.0
 21
0.0
 12
0.0
 22
0.0
 32
0.0
 14
0.0
 24
0.0
 34
0.0
 15
0.0
 25
0.0
 35
0.0
146
0.0
 13
0.0
 23
0.0
 33
0.0
 16
1.0
 26
0.0
 36
0.0
 17
0.0
 27
1.0
 37
0.0
 76
     0
330
23
331
1C4
  0
LAYOUT
  5
22
102
{ACAD_REACTORS
330
1A
102
}
330
1A
100
AcDbPlotSettings
  1

  2
none_device
  4
ANSI_A_(11.00_x_8.50_Inches)
  6

 40
6.35
 41
19.05
 42
6.35000508
 43
19.05000254
 44
279.4
 45
215.9
 46
133.34999746
 47
95.7150893361
 48
0.0
 49
0.0
140
0.0
141
0.0
142
0.9376474576
143
1.0
 70
  1696
 72
     0
 73
     0
 74
     0
  7

 75
     0
147
0.5913241897
148
-39.4088153714
149
0.0
100
AcDbLayout
  1
Model
 70
     1
 71
     0
 10
0.0
 20
0.0
 11
12.0
 21
9.0
 12
0.0
 22
0.0
 32
0.0
 14
-5.8070866142
 24
-1.6352981704
 34
0.0
 15
5.8070866142
 25
1.062992126
 35
0.0
146
0.0
 13
0.0
 23
0.0
 33
0.0
 16
1.0
 26
0.0
 36
0.0
 17
0.0
 27
1.0
 37
0.0
 76
     0
330
1F
331
29
  0
MLINESTYLE
  5
18
102
{ACAD_REACTORS
330
17
102
}
330
17
100
AcDbMlineStyle
  2
Standard
 70
     0
  3

 62
   256
 51
90.0
 52
90.0
 71
     2
 49
0.5
 62
   256
  6
BYLAYER
 49
-0.5
 62
   256
  6
BYLAYER
  0
ACDBPLACEHOLDER
  5
F
102
{ACAD_REACTORS
330
E
102
}
330
E
  0
SCALE
  5
48
102
{ACAD_REACTORS
330
47
102
}
330
47
100
AcDbScale
 70
     0
300
1:1
140
1.0
141
1.0
290
     1
  0
SCALE
  5
49
102
{ACAD_REACTORS
330
47
102
}
330
47
100
AcDbScale
 70
     0
300
1:2
140
1.0
141
2.0
290
     0
  0
SCALE
  5
4A
102
{ACAD_REACTORS
330
47
102
}
330
47
100
AcDbScale
 70
     0
300
1:4
140
1.0
141
4.0
290
     0
  0
SCALE
  5
4B
102
{ACAD_REACTORS
330
47
102
}
330
47
100
AcDbScale
 70
     0
300
1:5
140
1.0
141
5.0
290
     0
  0
SCALE
  5
4C
102
{ACAD_REACTORS
330
47
102
}
330
47
100
AcDbScale
 70
     0
300
1:8
140
1.0
141
8.0
290
     0
  0
SCALE
  5
4D
102
{ACAD_REACTORS
330
47
102
}
330
47
100
AcDbScale
 70
     0
300
1:10
140
1.0
141
10.0
290
     0
  0
SCALE
  5
4E
102
{ACAD_REACTORS
330
47
102
}
330
47
100
AcDbScale
 70
     0
300
1:16
140
1.0
141
16.0
290
     0
  0
SCALE
  5
4F
102
{ACAD_REACTORS
330
47
102
}
330
47
100
AcDbScale
 70
     0
300
1:20
140
1.0
141
20.0
290
     0
  0
SCALE
  5
50
102
{ACAD_REACTORS
330
47
102
}
330
47
100
AcDbScale
 70
     0
300
1:30
140
1.0
141
30.0
290
     0
  0
SCALE
  5
51
102
{ACAD_REACTORS
330
47
102
}
330
47
100
AcDbScale
 70
     0
300
1:40
140
1.0
141
40.0
290
     0
  0
SCALE
  5
52
102
{ACAD_REACTORS
330
47
102
}
330
47
100
AcDbScale
 70
     0
300
1:50
140
1.0
141
50.0
290
     0
  0
SCALE
  5
53
102
{ACAD_REACTORS
330
47
102
}
330
47
100
AcDbScale
 70
     0
300
1:100
140
1.0
141
100.0
290
     0
  0
SCALE
  5
54
102
{ACAD_REACTORS
330
47
102
}
330
47
100
AcDbScale
 70
     0
300
2:1
140
2.0
141
1.0
290
     0
  0
SCALE
  5
55
102
{ACAD_REACTORS
330
47
102
}
330
47
100
AcDbScale
 70
     0
300
4:1
140
4.0
141
1.0
290
     0
  0
SCALE
  5
56
102
{ACAD_REACTORS
330
47
102
}
330
47
100
AcDbScale
 70
     0
300
8:1
140
8.0
141
1.0
290
     0
  0
SCALE
  5
57
102
{ACAD_REACTORS
330
47
102
}
330
47
100
AcDbScale
 70
     0
300
10:1
140
10.0
141
1.0
290
     0
  0
SCALE
  5
58
102
{ACAD_REACTORS
330
47
102
}
330
47
100
AcDbScale
 70
     0
300
100:1
140
100.0
141
1.0
290
     0
  0
SCALE
  5
59
102
{ACAD_REACTORS
330
47
102
}
330
47
100
AcDbScale
 70
     0
300
1/128" = 1'-0"
140
0.0078125
141
12.0
290
     0
  0
SCALE
  5
5A
102
{ACAD_REACTORS
330
47
102
}
330
47
100
AcDbScale
 70
     0
300
1/64" = 1'-0"
140
0.015625
141
12.0
290
     0
  0
SCALE
  5
5B
102
{ACAD_REACTORS
330
47
102
}
330
47
100
AcDbScale
 70
     0
300
1/32" = 1'-0"
140
0.03125
141
12.0
290
     0
  0
SCALE
  5
5C
102
{ACAD_REACTORS
330
47
102
}
330
47
100
AcDbScale
 70
     0
300
1/16" = 1'-0"
140
0.0625
141
12.0
290
     0
  0
SCALE
  5
5D
102
{ACAD_REACTORS
330
47
102
}
330
47
100
AcDbScale
 70
     0
300
3/32" = 1'-0"
140
0.09375
141
12.0
290
     0
  0
SCALE
  5
5E
102
{ACAD_REACTORS
330
47
102
}
330
47
100
AcDbScale
 70
     0
300
1/8" = 1'-0"
140
0.125
141
12.0
290
     0
  0
SCALE
  5
5F
102
{ACAD_REACTORS
330
47
102
}
330
47
100
AcDbScale
 70
     0
300
3/16" = 1'-0"
140
0.1875
141
12.0
290
     0
  0
SCALE
  5
60
102
{ACAD_REACTORS
330
47
102
}
330
47
100
AcDbScale
 70
     0
300
1/4" = 1'-0"
140
0.25
141
12.0
290
     0
  0
SCALE
  5
61
102
{ACAD_REACTORS
330
47
102
}
330
47
100
AcDbScale
 70
     0
300
3/8" = 1'-0"
140
0.375
141
12.0
290
     0
  0
SCALE
  5
62
102
{ACAD_REACTORS
330
47
102
}
330
47
100
AcDbScale
 70
     0
300
1/2" = 1'-0"
140
0.5
141
12.0
290
     0
  0
SCALE
  5
63
102
{ACAD_REACTORS
330
47
102
}
330
47
100
AcDbScale
 70
     0
300
3/4" = 1'-0"
140
0.75
141
12.0
290
     0
  0
SCALE
  5
64
102
{ACAD_REACTORS
330
47
102
}
330
47
100
AcDbScale
 70
     0
300
1" = 1'-0"
140
1.0
141
12.0
290
     0
  0
SCALE
  5
65
102
{ACAD_REACTORS
330
47
102
}
330
47
100
AcDbScale
 70
     0
300
1-1/2" = 1'-0"
140
1.5
141
12.0
290
     0
  0
SCALE
  5
66
102
{ACAD_REACTORS
330
47
102
}
330
47
100
AcDbScale
 70
     0
300
3" = 1'-0"
140
3.0
141
12.0
290
     0
  0
SCALE
  5
67
102
{ACAD_REACTORS
330
47
102
}
330
47
100
AcDbScale
 70
     0
300
6" = 1'-0"
140
6.0
141
12.0
290
     0
  0
SCALE
  5
68
102
{ACAD_REACTORS
330
47
102
}
330
47
100
AcDbScale
 70
     0
300
1'-0" = 1'-0"
140
12.0
141
12.0
290
     0
  0
ENDSEC
  0
EOF
