  0
SECTION
  2
HEADER
  9
$ACADVER
  1
AC1015
  9
$ACADMAINTVER
 70
     6
  9
$DWGCODEPAGE
  3
ANSI_1252
  9
$INSBASE
 10
0.0
 20
0.0
 30
0.0
  9
$EXTMIN
 10
-5.8070866142
 20
-1.6348188551
 30
0.0
  9
$EXTMAX
 10
5.8070866142
 20
1.062992126
 30
0.0
  9
$LIMMIN
 10
0.0
 20
0.0
  9
$LIMMAX
 10
12.0
 20
9.0
  9
$ORTHOMODE
 70
     0
  9
$REGENMODE
 70
     1
  9
$FILLMODE
 70
     1
  9
$QTEXTMODE
 70
     0
  9
$MIRRTEXT
 70
     1
  9
$LTSCALE
 40
1.0
  9
$ATTMODE
 70
     1
  9
$TEXTSIZE
 40
0.1377952756
  9
$TRACEWID
 40
0.05
  9
$TEXTSTYLE
  7
Standard
  9
$CLAYER
  8
0
  9
$CELTYPE
  6
ByLayer
  9
$CECOLOR
 62
   256
  9
$CELTSCALE
 40
1.0
  9
$DISPSILH
 70
     0
  9
$DIMSCALE
 40
1.0
  9
$DIMASZ
 40
0.13
  9
$DIMEXO
 40
0.0393700787
  9
$DIMDLI
 40
0.38
  9
$DIMRND
 40
0.0
  9
$DIMDLE
 40
0.0
  9
$DIMEXE
 40
0.0393700787
  9
$DIMTP
 40
0.0
  9
$DIMTM
 40
0.0
  9
$DIMTXT
 40
0.1377952756
  9
$DIMCEN
 40
0.09
  9
$DIMTSZ
 40
0.0
  9
$DIMTOL
 70
     0
  9
$DIMLIM
 70
     0
  9
$DIMTIH
 70
     1
  9
$DIMTOH
 70
     1
  9
$DIMSE1
 70
     0
  9
$DIMSE2
 70
     0
  9
$DIMTAD
 70
     1
  9
$DIMZIN
 70
     1
  9
$DIMBLK
  1

  9
$DIMASO
 70
     1
  9
$DIMSHO
 70
     1
  9
$DIMPOST
  1

  9
$DIMAPOST
  1

  9
$DIMALT
 70
     0
  9
$DIMALTD
 70
     2
  9
$DIMALTF
 40
25.4
  9
$DIMLFAC
 40
1.0
  9
$DIMTOFL
 70
     0
  9
$DIMTVP
 40
0.0
  9
$DIMTIX
 70
     0
  9
$DIMSOXD
 70
     0
  9
$DIMSAH
 70
     0
  9
$DIMBLK1
  1

  9
$DIMBLK2
  1

  9
$DIMSTYLE
  2
Standard
  9
$DIMCLRD
 70
     0
  9
$DIMCLRE
 70
     0
  9
$DIMCLRT
 70
     0
  9
$DIMTFAC
 40
1.0
  9
$DIMGAP
 40
0.06
  9
$DIMJUST
 70
     0
  9
$DIMSD1
 70
     0
  9
$DIMSD2
 70
     0
  9
$DIMTOLJ
 70
     1
  9
$DIMTZIN
 70
     1
  9
$DIMALTZ
 70
     0
  9
$DIMALTTZ
 70
     0
  9
$DIMUPT
 70
     0
  9
$DIMDEC
 70
     2
  9
$DIMTDEC
 70
     2
  9
$DIMALTU
 70
     2
  9
$DIMALTTD
 70
     2
  9
$DIMTXSTY
  7
Standard
  9
$DIMAUNIT
 70
     0
  9
$DIMADEC
 70
     2
  9
$DIMALTRND
 40
0.0
  9
$DIMAZIN
 70
     0
  9
$DIMDSEP
 70
    46
  9
$DIMATFIT
 70
     3
  9
$DIMFRAC
 70
     0
  9
$DIMLDRBLK
  1

  9
$DIMLUNIT
 70
     2
  9
$DIMLWD
 70
    -2
  9
$DIMLWE
 70
    -2
  9
$DIMTMOVE
 70
     0
  9
$LUNITS
 70
     2
  9
$LUPREC
 70
     2
  9
$SKETCHINC
 40
0.1
  9
$FILLETRAD
 40
0.5
  9
$AUNITS
 70
     0
  9
$AUPREC
 70
     2
  9
$MENU
  1
.
  9
$ELEVATION
 40
0.0
  9
$PELEVATION
 40
0.0
  9
$THICKNESS
 40
0.0
  9
$LIMCHECK
 70
     0
  9
$CHAMFERA
 40
0.0
  9
$CHAMFERB
 40
0.0
  9
$CHAMFERC
 40
0.0
  9
$CHAMFERD
 40
0.0
  9
$SKPOLY
 70
     0
  9
$TDCREATE
 40
2460416.469801505
  9
$TDUCREATE
 40
2460416.428134838
  9
$TDUPDATE
 40
2460416.469854005
  9
$TDUUPDATE
 40
2460416.428187338
  9
$TDINDWG
 40
0.0000000116
  9
$TDUSRTIMER
 40
0.0000000116
  9
$USRTIMER
 70
     1
  9
$ANGBASE
 50
0.0
  9
$ANGDIR
 70
     0
  9
$PDMODE
 70
     0
  9
$PDSIZE
 40
-1.0
  9
$PLINEWID
 40
0.0
  9
$SPLFRAME
 70
     0
  9
$SPLINETYPE
 70
     6
  9
$SPLINESEGS
 70
     8
  9
$HANDSEED
  5
1C6
  9
$SURFTAB1
 70
     6
  9
$SURFTAB2
 70
     6
  9
$SURFTYPE
 70
     6
  9
$SURFU
 70
     6
  9
$SURFV
 70
     6
  9
$UCSBASE
  2

  9
$UCSNAME
  2

  9
$UCSORG
 10
0.0
 20
0.0
 30
0.0
  9
$UCSXDIR
 10
1.0
 20
0.0
 30
0.0
  9
$UCSYDIR
 10
0.0
 20
1.0
 30
0.0
  9
$UCSORTHOREF
  2

  9
$UCSORTHOVIEW
 70
     0
  9
$UCSORGTOP
 10
0.0
 20
0.0
 30
0.0
  9
$UCSORGBOTTOM
 10
0.0
 20
0.0
 30
0.0
  9
$UCSORGLEFT
 10
0.0
 20
0.0
 30
0.0
  9
$UCSORGRIGHT
 10
0.0
 20
0.0
 30
0.0
  9
$UCSORGFRONT
 10
0.0
 20
0.0
 30
0.0
  9
$UCSORGBACK
 10
0.0
 20
0.0
 30
0.0
  9
$PUCSBASE
  2

  9
$PUCSNAME
  2

  9
$PUCSORG
 10
0.0
 20
0.0
 30
0.0
  9
$PUCSXDIR
 10
1.0
 20
0.0
 30
0.0
  9
$PUCSYDIR
 10
0.0
 20
1.0
 30
0.0
  9
$PUCSORTHOREF
  2

  9
$PUCSORTHOVIEW
 70
     0
  9
$PUCSORGTOP
 10
0.0
 20
0.0
 30
0.0
  9
$PUCSORGBOTTOM
 10
0.0
 20
0.0
 30
0.0
  9
$PUCSORGLEFT
 10
0.0
 20
0.0
 30
0.0
  9
$PUCSORGRIGHT
 10
0.0
 20
0.0
 30
0.0
  9
$PUCSORGFRONT
 10
0.0
 20
0.0
 30
0.0
  9
$PUCSORGBACK
 10
0.0
 20
0.0
 30
0.0
  9
$USERI1
 70
     0
  9
$USERI2
 70
     0
  9
$USERI3
 70
     0
  9
$USERI4
 70
     0
  9
$USERI5
 70
     0
  9
$USERR1
 40
0.0
  9
$USERR2
 40
0.0
  9
$USERR3
 40
0.0
  9
$USERR4
 40
0.0
  9
$USERR5
 40
0.0
  9
$WORLDVIEW
 70
     1
  9
$SHADEDGE
 70
     3
  9
$SHADEDIF
 70
    70
  9
$TILEMODE
 70
     1
  9
$MAXACTVP
 70
    64
  9
$PINSBASE
 10
0.0
 20
0.0
 30
0.0
  9
$PLIMCHECK
 70
     0
  9
$PEXTMIN
 10
0.0
 20
-1.6354293306
 30
0.0
  9
$PEXTMAX
 10
9.1303175292
 20
1.062992126
 30
0.0
  9
$PLIMMIN
 10
-0.2173888631
 20
-1.8528178514
  9
$PLIMMAX
 10
9.34770605
 20
5.5383918542
  9
$UNITMODE
 70
     0
  9
$VISRETAIN
 70
     1
  9
$PLINEGEN
 70
     0
  9
$PSLTSCALE
 70
     1
  9
$TREEDEPTH
 70
  3020
  9
$CMLSTYLE
  2
Standard
  9
$CMLJUST
 70
     0
  9
$CMLSCALE
 40
1.0
  9
$PROXYGRAPHICS
 70
     1
  9
$MEASUREMENT
 70
     0
  9
$CELWEIGHT
370
    -1
  9
$ENDCAPS
280
     0
  9
$JOINSTYLE
280
     0
  9
$LWDISPLAY
290
     1
  9
$INSUNITS
 70
     1
  9
$HYPERLINKBASE
  1

  9
$STYLESHEET
  1

  9
$XEDIT
290
     1
  9
$CEPSNTYPE
380
     0
  9
$PSTYLEMODE
290
     1
  9
$FINGERPRINTGUID
  2
{647447c2-2953-4107-9612-15b4dad9d03e}
  9
$VERSIONGUID
  2
{FAEB1C32-E019-11D5-929B-00C0DF256EC4}
  9
$EXTNAMES
290
     1
  9
$PSVPSCALE
 40
0.0
  9
$OLESTARTUP
290
     0
  0
ENDSEC
  0
SECTION
  2
CLASSES
  0
CLASS
  1
ACDBDICTIONARYWDFLT
  2
AcDbDictionaryWithDefault
  3
ObjectDBX Classes
 90
        0
280
     0
281
     0
  0
CLASS
  1
VISUALSTYLE
  2
AcDbVisualStyle
  3
ObjectDBX Classes
 90
     4095
280
     0
281
     0
  0
CLASS
  1
MATERIAL
  2
AcDbMaterial
  3
ObjectDBX Classes
 90
     1153
280
     0
281
     0
  0
CLASS
  1
SCALE
  2
AcDbScale
  3
ObjectDBX Classes
 90
     1153
280
     0
281
     0
  0
CLASS
  1
TABLESTYLE
  2
AcDbTableStyle
  3
ObjectDBX Classes
 90
     4095
280
     0
281
     0
  0
CLASS
  1
MLEADERSTYLE
  2
AcDbMLeaderStyle
  3
ACDB_MLEADERSTYLE_CLASS
 90
     4095
280
     0
281
     0
  0
CLASS
  1
SUN
  2
AcDbSun
  3
SCENEOE
 90
     1153
280
     0
281
     0
  0
CLASS
  1
ACDBPLACEHOLDER
  2
AcDbPlaceHolder
  3
ObjectDBX Classes
 90
        0
280
     0
281
     0
  0
CLASS
  1
LAYOUT
  2
AcDbLayout
  3
ObjectDBX Classes
 90
        0
280
     0
281
     0
  0
ENDSEC
  0
SECTION
  2
TABLES
  0
TABLE
  2
VPORT
  5
8
330
0
100
AcDbSymbolTable
 70
     1
  0
VPORT
  5
29
330
8
100
AcDbSymbolTableRecord
100
AcDbViewportTableRecord
  2
*Active
 70
     0
 10
0.0
 20
0.0
 11
1.0
 21
1.0
 12
0.0
 22
-0.2859133646
 13
0.0
 23
0.0
 14
0.5
 24
0.5
 15
0.5
 25
0.5
 16
0.0
 26
0.0
 36
1.0
 17
0.0
 27
0.0
 37
0.0
 40
2.7517672007
 41
4.3050359383
 42
50.0
 43
0.0
 44
0.0
 50
0.0
 51
0.0
 71
     0
 72
   100
 73
     1
 74
     3
 75
     0
 76
     0
 77
     0
 78
     0
281
     0
 65
     1
110
0.0
120
0.0
130
0.0
111
1.0
121
0.0
131
0.0
112
0.0
122
1.0
132
0.0
 79
     0
146
0.0
  0
ENDTAB
  0
TABLE
  2
LTYPE
  5
5
330
0
100
AcDbSymbolTable
 70
     6
  0
LTYPE
  5
14
330
5
100
AcDbSymbolTableRecord
100
AcDbLinetypeTableRecord
  2
ByBlock
 70
     0
  3

 72
    65
 73
     0
 40
0.0
  0
LTYPE
  5
15
330
5
100
AcDbSymbolTableRecord
100
AcDbLinetypeTableRecord
  2
ByLayer
 70
     0
  3

 72
    65
 73
     0
 40
0.0
  0
LTYPE
  5
16
330
5
100
AcDbSymbolTableRecord
100
AcDbLinetypeTableRecord
  2
Continuous
 70
     0
  3
Solid line
 72
    65
 73
     0
 40
0.0
  0
LTYPE
  5
6E
330
5
100
AcDbSymbolTableRecord
100
AcDbLinetypeTableRecord
  2
HIDDEN
 70
     0
  3
Hidden __ __ __ __ __ __ __ __ __ __ __ __ __ __
 72
    65
 73
     2
 40
0.075
 49
0.05
 74
     0
 49
-0.025
 74
     0
  0
LTYPE
  5
6F
330
5
100
AcDbSymbolTableRecord
100
AcDbLinetypeTableRecord
  2
PHANTOM
 70
     0
  3
Phantom ______  __  __  ______  __  __  ______
 72
    65
 73
     6
 40
0.5
 49
0.25
 74
     0
 49
-0.05
 74
     0
 49
0.05
 74
     0
 49
-0.05
 74
     0
 49
0.05
 74
     0
 49
-0.05
 74
     0
  0
LTYPE
  5
70
330
5
100
AcDbSymbolTableRecord
100
AcDbLinetypeTableRecord
  2
CENTER
 70
     0
  3
Center ____ _ ____ _ ____ _ ____ _ ____ _ ____
 72
    65
 73
     4
 40
0.4
 49
0.25
 74
     0
 49
-0.05
 74
     0
 49
0.05
 74
     0
 49
-0.05
 74
     0
  0
LTYPE
  5
71
330
5
100
AcDbSymbolTableRecord
100
AcDbLinetypeTableRecord
  2
CENTERX2
 70
     0
  3
Center (2x) ________  __  ________  __  _____
 72
    65
 73
     4
 40
0.8
 49
0.5
 74
     0
 49
-0.1
 74
     0
 49
0.1
 74
     0
 49
-0.1
 74
     0
  0
LTYPE
  5
72
330
5
100
AcDbSymbolTableRecord
100
AcDbLinetypeTableRecord
  2
DOT2
 70
     0
  3
Dot (.5x) ........................................
 72
    65
 73
     2
 40
0.025
 49
0.0
 74
     0
 49
-0.025
 74
     0
  0
ENDTAB
  0
TABLE
  2
LAYER
  5
2
330
0
100
AcDbSymbolTable
 70
     1
  0
LAYER
  5
10
330
2
100
AcDbSymbolTableRecord
100
AcDbLayerTableRecord
  2
0
 70
     0
 62
     7
  6
Continuous
370
    -3
390
F
  0
ENDTAB
  0
TABLE
  2
STYLE
  5
3
330
0
100
AcDbSymbolTable
 70
     1
  0
STYLE
  5
11
330
3
100
AcDbSymbolTableRecord
100
AcDbTextStyleTableRecord
  2
Standard
 70
     0
 40
0.0
 41
1.0
 50
0.0
 71
     0
 42
0.1377952756
  3
txt
  4

  0
ENDTAB
  0
TABLE
  2
VIEW
  5
6
330
0
100
AcDbSymbolTable
 70
     0
  0
ENDTAB
  0
TABLE
  2
UCS
  5
7
330
0
100
AcDbSymbolTable
 70
     0
  0
ENDTAB
  0
TABLE
  2
APPID
  5
9
330
0
100
AcDbSymbolTable
 70
     1
  0
APPID
  5
12
330
9
100
AcDbSymbolTableRecord
100
AcDbRegAppTableRecord
  2
ACAD
 70
     0
  0
ENDTAB
  0
TABLE
  2
DIMSTYLE
  5
A
330
0
100
AcDbSymbolTable
 70
     1
100
AcDbDimStyleTable
  0
DIMSTYLE
105
27
330
A
100
AcDbSymbolTableRecord
100
AcDbDimStyleTableRecord
  2
Standard
 70
     0
178
     0
340
11
  0
ENDTAB
  0
TABLE
  2
BLOCK_RECORD
  5
1
330
0
100
AcDbSymbolTable
 70
     2
  0
BLOCK_RECORD
  5
1F
330
1
100
AcDbSymbolTableRecord
100
AcDbBlockTableRecord
  2
*Model_Space
340
22
  0
BLOCK_RECORD
  5
1B
330
1
100
AcDbSymbolTableRecord
100
AcDbBlockTableRecord
  2
*Paper_Space
340
1E
  0
BLOCK_RECORD
  5
23
330
1
100
AcDbSymbolTableRecord
100
AcDbBlockTableRecord
  2
*Paper_Space0
340
26
  0
BLOCK_RECORD
  5
148
330
1
100
AcDbSymbolTableRecord
100
AcDbBlockTableRecord
  2
*Paper_Space1
340
149
  0
ENDTAB
  0
ENDSEC
  0
SECTION
  2
BLOCKS
  0
BLOCK
  5
20
330
1F
100
AcDbEntity
  8
0
100
AcDbBlockBegin
  2
*Model_Space
 70
     0
 10
0.0
 20
0.0
 30
0.0
  3
*Model_Space
  1

  0
ENDBLK
  5
21
330
1F
100
AcDbEntity
  8
0
100
AcDbBlockEnd
  0
BLOCK
  5
1C
330
1B
100
AcDbEntity
 67
     1
  8
0
100
AcDbBlockBegin
  2
*Paper_Space
 70
     0
 10
0.0
 20
0.0
 30
0.0
  3
*Paper_Space
  1

  0
ENDBLK
  5
1D
330
1B
100
AcDbEntity
 67
     1
  8
0
100
AcDbBlockEnd
  0
BLOCK
  5
24
330
23
100
AcDbEntity
  8
0
100
AcDbBlockBegin
  2
*Paper_Space0
 70
     0
 10
0.0
 20
0.0
 30
0.0
  3
*Paper_Space0
  1

  0
LWPOLYLINE
  5
FB
330
23
100
AcDbEntity
  8
0
  6
Continuous
 62
     7
370
    25
100
AcDbPolyline
 90
       21
 70
   128
 43
0.0
 10
0.3937007874
 20
-8.7795275591
 10
0.3883312218
 20
-8.8372656905
 10
0.3723689928
 20
-8.8934288762
 10
0.3462495083
 20
-8.9464851309
 10
0.3106852399
 20
-8.9949872182
 10
0.266646288
 20
-9.0376121277
 10
0.2153339205
 20
-9.073197163
 10
0.158147805
 20
-9.100771657
 10
0.0966478296
 20
-9.1195834494
 10
0.0325115533
 20
-9.1291194036
 10
-0.0325115533
 20
-9.1291194036
 10
-0.0966478296
 20
-9.1195834494
 10
-0.158147805
 20
-9.100771657
 10
-0.2153339205
 20
-9.073197163
 10
-0.266646288
 20
-9.0376121277
 10
-0.3106852399
 20
-8.9949872182
 10
-0.3462495083
 20
-8.9464851309
 10
-0.3723689928
 20
-8.8934288762
 10
-0.3883312218
 20
-8.8372656905
 10
-0.3937007874
 20
-8.7795275591
 10
-0.3937007874
 20
-8.7795275591
  0
SPLINE
  5
101
330
23
100
AcDbEntity
  8
0
  6
Continuous
 62
     7
370
    25
100
AcDbSpline
210
0.0
220
0.0
230
1.0
 70
     8
 71
     3
 72
    27
 73
    23
 74
     0
 42
0.000000001
 43
0.00000001
 40
0.0
 40
0.0
 40
0.0
 40
0.0
 40
0.0328427902950367
 40
0.0843671637617157
 40
0.1373651406173823
 40
0.1893212457867054
 40
0.2427191993188452
 40
0.2958329297615361
 40
0.350473959411331
 40
0.4037287301915055
 40
0.4585961404972876
 40
0.5106737639494094
 40
0.5643035394313558
 40
0.6157399338595156
 40
0.6686221589128993
 40
0.7209299862534986
 40
0.7746943629562634
 40
0.828038915687599
 40
0.8829486041857032
 40
0.9359005761105198
 40
0.9904588027825005
 40
1.0
 40
1.0
 40
1.0
 40
1.0
 10
-4.625860074021261
 20
-1.771109198729836
 30
0.0
 10
-4.62587176125761
 20
-1.771161000845557
 30
0.0
 10
-4.625901783645301
 20
-1.771294071073178
 30
0.0
 10
-4.624841231898536
 20
-1.766623779919288
 30
0.0
 10
-4.622945765129018
 20
-1.757905251762702
 30
0.0
 10
-4.620335270348071
 20
-1.745002857141532
 30
0.0
 10
-4.617356096214763
 20
-1.728593721410596
 30
0.0
 10
-4.614263220339822
 20
-1.708700199307635
 30
0.0
 10
-4.611453365772068
 20
-1.686117418482376
 30
0.0
 10
-4.609227308467789
 20
-1.661175127607416
 30
0.0
 10
-4.607901485138242
 20
-1.635215142538456
 30
0.0
 10
-4.607595765890661
 20
-1.608586080464972
 30
0.0
 10
-4.608321532670667
 20
-1.582674785604139
 30
0.0
 10
-4.609986310070024
 20
-1.55755383255086
 30
0.0
 10
-4.612372150825626
 20
-1.534207601697952
 30
0.0
 10
-4.615272011671629
 20
-1.512751189459373
 30
0.0
 10
-4.618350802720339
 20
-1.494027839678046
 30
0.0
 10
-4.621301278237716
 20
-1.478414939207459
 30
0.0
 10
-4.623764457637969
 20
-1.466614294084934
 30
0.0
 10
-4.625376681862889
 20
-1.459343524755397
 30
0.0
 10
-4.626086089306956
 20
-1.456245746927381
 30
0.0
 10
-4.62593503674656
 20
-1.456908968573826
 30
0.0
 10
-4.625912552577724
 20
-1.457007689094911
 30
0.0
  0
SPLINE
  5
107
330
23
100
AcDbEntity
  8
0
  6
Continuous
 62
     7
370
    25
100
AcDbSpline
210
0.0
220
0.0
230
1.0
 70
     8
 71
     3
 72
    17
 73
    13
 74
     0
 42
0.000000001
 43
0.00000001
 40
0.0
 40
0.0
 40
0.0
 40
0.0
 40
0.1039329999260045
 40
0.2109310664532909
 40
0.314849994155814
 40
0.4216904751238805
 40
0.5273254198150378
 40
0.635951317845695
 40
0.7427161749064004
 40
0.8526795768613658
 40
0.9576023320381275
 40
1.0
 40
1.0
 40
1.0
 40
1.0
 10
4.607745080212632
 20
-1.614173228346455
 30
0.0
 10
4.607841647863375
 20
-1.622771711582214
 30
0.0
 10
4.608037631021475
 20
-1.640222254144159
 30
0.0
 10
4.609569095774537
 20
-1.665528702359077
 30
0.0
 10
4.611839015371078
 20
-1.689586304079329
 30
0.0
 10
4.614658933588551
 20
-1.711443151611013
 30
0.0
 10
4.617749754777425
 20
-1.730898787154561
 30
0.0
 10
4.620736097623431
 20
-1.747074157597299
 30
0.0
 10
4.623339281772099
 20
-1.759763130849871
 30
0.0
 10
4.625124170737065
 20
-1.767885798568673
 30
0.0
 10
4.626001333569442
 20
-1.771728778060247
 30
0.0
 10
4.625891642309693
 20
-1.771247660584341
 30
0.0
 10
4.625860074021261
 20
-1.771109198729836
 30
0.0
  0
SPLINE
  5
108
330
23
100
AcDbEntity
  8
0
  6
Continuous
 62
     7
370
    25
100
AcDbSpline
210
0.0
220
0.0
230
1.0
 70
     8
 71
     3
 72
    16
 73
    12
 74
     0
 42
0.000000001
 43
0.00000001
 40
0.0
 40
0.0
 40
0.0
 40
0.0
 40
0.0844970817639727
 40
0.1911147593924747
 40
0.2943804822301059
 40
0.4005257967845675
 40
0.5059152787470023
 40
0.6142718630012338
 40
0.7211149478718176
 40
0.8311413887895939
 40
1.0
 40
1.0
 40
1.0
 40
1.0
 10
4.625912552577724
 20
-1.457007689094912
 30
0.0
 10
4.625879360146942
 20
-1.45715150052441
 30
0.0
 10
4.625804285797743
 20
-1.457476771955951
 30
0.0
 10
4.624537549066157
 20
-1.463084594759775
 30
0.0
 10
4.62246511448428
 20
-1.472735595654891
 30
0.0
 10
4.619775715873743
 20
-1.486266596080011
 30
0.0
 10
4.616733389317302
 20
-1.503486703112712
 30
0.0
 10
4.613679420710791
 20
-1.523847546749594
 30
0.0
 10
4.61096079959818
 20
-1.547110049431258
 30
0.0
 10
4.608415181314337
 20
-1.577057180776791
 30
0.0
 10
4.607997797002772
 20
-1.600175566828478
 30
0.0
 10
4.607745080212633
 20
-1.614173228346455
 30
0.0
  0
LWPOLYLINE
  5
10F
330
23
100
AcDbEntity
  8
0
  6
Continuous
 62
     8
370
    25
100
AcDbPolyline
 90
       21
 70
   128
 43
0.0
 10
0.3937007874
 20
-8.2563650823
 10
0.3883312218
 20
-8.3141032137
 10
0.3723689928
 20
-8.3702663994
 10
0.3462495083
 20
-8.4233226541
 10
0.3106852399
 20
-8.4718247414
 10
0.266646288
 20
-8.5144496509
 10
0.2153339205
 20
-8.5500346862
 10
0.158147805
 20
-8.5776091802
 10
0.0966478296
 20
-8.5964209726
 10
0.0325115533
 20
-8.6059569268
 10
-0.0325115533
 20
-8.6059569268
 10
-0.0966478296
 20
-8.5964209726
 10
-0.158147805
 20
-8.5776091802
 10
-0.2153339205
 20
-8.5500346862
 10
-0.266646288
 20
-8.5144496509
 10
-0.3106852399
 20
-8.4718247414
 10
-0.3462495083
 20
-8.4233226541
 10
-0.3723689928
 20
-8.3702663994
 10
-0.3883312218
 20
-8.3141032137
 10
-0.3937007874
 20
-8.2563650823
 10
-0.3937007874
 20
-8.2563650823
  0
LINE
  5
113
330
23
100
AcDbEntity
  8
0
  6
Continuous
 62
     7
370
    25
100
AcDbLine
 10
-1.062992126
 20
-0.0196850394
 30
0.0
 11
-1.062992126
 21
-0.0984251969
 31
0.0
  0
LINE
  5
114
330
23
100
AcDbEntity
  8
0
  6
Continuous
 62
     7
370
    25
100
AcDbLine
 10
1.062992126
 20
-0.0984251969
 30
0.0
 11
1.062992126
 21
-0.0196850394
 31
0.0
  0
LINE
  5
115
330
23
100
AcDbEntity
  8
0
  6
Continuous
 62
     7
370
    25
100
AcDbLine
 10
0.3937007874
 20
-8.7795275591
 30
0.0
 11
0.3937007874
 21
-0.1181102362
 31
0.0
  0
LINE
  5
116
330
23
100
AcDbEntity
  8
0
  6
Continuous
 62
     7
370
    25
100
AcDbLine
 10
-0.3937007874
 20
-0.1181102362
 30
0.0
 11
-0.3937007874
 21
-8.7795275591
 31
0.0
  0
LINE
  5
117
330
23
100
AcDbEntity
  8
0
  6
Continuous
 62
     7
370
    25
100
AcDbLine
 10
-2.874015748
 20
-0.1968503937
 30
0.0
 11
-2.874015748
 21
0.0
 31
0.0
  0
LINE
  5
118
330
23
100
AcDbEntity
  8
0
  6
Continuous
 62
     7
370
    25
100
AcDbLine
 10
-5.0
 20
0.0
 30
0.0
 11
-5.0
 21
-0.1968503937
 31
0.0
  0
LINE
  5
119
330
23
100
AcDbEntity
  8
0
  6
Continuous
 62
     7
370
    25
100
AcDbLine
 10
-3.2480314961
 20
-0.8267716535
 30
0.0
 11
-3.2480314961
 21
-0.1968503937
 31
0.0
  0
LINE
  5
11A
330
23
100
AcDbEntity
  8
0
  6
Continuous
 62
     7
370
    25
100
AcDbLine
 10
-4.625984252
 20
-0.1968503937
 30
0.0
 11
-4.625984252
 21
-0.8267716535
 31
0.0
  0
LINE
  5
11B
330
23
100
AcDbEntity
  8
0
  6
Continuous
 62
     7
370
    25
100
AcDbLine
 10
-4.625984252
 20
-1.7711091987
 30
0.0
 11
-4.625984252
 21
-2.0078740157
 31
0.0
  0
LINE
  5
11C
330
23
100
AcDbEntity
  8
0
  6
Continuous
 62
     7
370
    25
100
AcDbLine
 10
-4.625984252
 20
-0.8661417323
 30
0.0
 11
-4.625984252
 21
-1.4570076891
 31
0.0
  0
LINE
  5
11D
330
23
100
AcDbEntity
  8
0
  6
Continuous
 62
     7
370
    25
100
AcDbLine
 10
-3.2480314961
 20
-2.0078740157
 30
0.0
 11
-3.2480314961
 21
-0.8661417323
 31
0.0
  0
LINE
  5
11E
330
23
100
AcDbEntity
  8
0
  6
Continuous
 62
     7
370
    25
100
AcDbLine
 10
-3.2677165354
 20
-0.8661417323
 30
0.0
 11
-3.2677165354
 21
-0.8267716535
 31
0.0
  0
LINE
  5
11F
330
23
100
AcDbEntity
  8
0
  6
Continuous
 62
     7
370
    25
100
AcDbLine
 10
-4.6062992126
 20
-0.8267716535
 30
0.0
 11
-4.6062992126
 21
-0.8661417323
 31
0.0
  0
LINE
  5
120
330
23
100
AcDbEntity
  8
0
  6
Continuous
 62
     7
370
    25
100
AcDbLine
 10
-5.7992125984
 20
-1.7716535433
 30
0.0
 11
-4.6258601138
 21
-1.7716535433
 31
0.0
  0
LINE
  5
121
330
23
100
AcDbEntity
  8
0
  6
Continuous
 62
     7
370
    25
100
AcDbLine
 10
-4.6259127331
 20
-1.4566929134
 30
0.0
 11
-5.7992125984
 21
-1.4566929134
 31
0.0
  0
LINE
  5
122
330
23
100
AcDbEntity
  8
0
  6
Continuous
 62
     7
370
    25
100
AcDbLine
 10
5.0
 20
-0.1968503937
 30
0.0
 11
5.0
 21
0.0
 31
0.0
  0
LINE
  5
123
330
23
100
AcDbEntity
  8
0
  6
Continuous
 62
     7
370
    25
100
AcDbLine
 10
2.874015748
 20
0.0
 30
0.0
 11
2.874015748
 21
-0.1968503937
 31
0.0
  0
LINE
  5
124
330
23
100
AcDbEntity
  8
0
  6
Continuous
 62
     7
370
    25
100
AcDbLine
 10
3.2480314961
 20
-0.8661417323
 30
0.0
 11
3.2480314961
 21
-2.0078740157
 31
0.0
  0
LINE
  5
125
330
23
100
AcDbEntity
  8
0
  6
Continuous
 62
     7
370
    25
100
AcDbLine
 10
4.625984252
 20
-1.4570076891
 30
0.0
 11
4.625984252
 21
-0.8661417323
 31
0.0
  0
LINE
  5
126
330
23
100
AcDbEntity
  8
0
  6
Continuous
 62
     7
370
    25
100
AcDbLine
 10
4.625984252
 20
-2.0078740157
 30
0.0
 11
4.625984252
 21
-1.7711091987
 31
0.0
  0
LINE
  5
127
330
23
100
AcDbEntity
  8
0
  6
Continuous
 62
     7
370
    25
100
AcDbLine
 10
4.625984252
 20
-0.8267716535
 30
0.0
 11
4.625984252
 21
-0.1968503937
 31
0.0
  0
LINE
  5
128
330
23
100
AcDbEntity
  8
0
  6
Continuous
 62
     7
370
    25
100
AcDbLine
 10
3.2480314961
 20
-0.1968503937
 30
0.0
 11
3.2480314961
 21
-0.8267716535
 31
0.0
  0
LINE
  5
129
330
23
100
AcDbEntity
  8
0
  6
Continuous
 62
     7
370
    25
100
AcDbLine
 10
4.6062992126
 20
-0.8661417323
 30
0.0
 11
4.6062992126
 21
-0.8267716535
 31
0.0
  0
LINE
  5
12A
330
23
100
AcDbEntity
  8
0
  6
Continuous
 62
     7
370
    25
100
AcDbLine
 10
3.2677165354
 20
-0.8267716535
 30
0.0
 11
3.2677165354
 21
-0.8661417323
 31
0.0
  0
LINE
  5
12B
330
23
100
AcDbEntity
  8
0
  6
Continuous
 62
     7
370
    25
100
AcDbLine
 10
5.7992125984
 20
-1.4566929134
 30
0.0
 11
4.6259127331
 21
-1.4566929134
 31
0.0
  0
LINE
  5
12C
330
23
100
AcDbEntity
  8
0
  6
Continuous
 62
     7
370
    25
100
AcDbLine
 10
4.6258601138
 20
-1.7716535433
 30
0.0
 11
5.7992125984
 21
-1.7716535433
 31
0.0
  0
LINE
  5
12D
330
23
100
AcDbEntity
  8
0
  6
Continuous
 62
     7
370
    25
100
AcDbLine
 10
1.0433070866
 20
-0.1181102362
 30
0.0
 11
-1.0433070848
 21
-0.1181102362
 31
0.0
  0
LINE
  5
12E
330
23
100
AcDbEntity
  8
0
  6
Continuous
 62
     7
370
    25
100
AcDbLine
 10
-1.0433070848
 20
0.0
 30
0.0
 11
1.0433070866
 21
0.0
 31
0.0
  0
LINE
  5
12F
330
23
100
AcDbEntity
  8
0
  6
Continuous
 62
     7
370
    25
100
AcDbLine
 10
-5.0
 20
-0.1968503937
 30
0.0
 11
-2.874015748
 21
-0.1968503937
 31
0.0
  0
LINE
  5
130
330
23
100
AcDbEntity
  8
0
  6
Continuous
 62
     7
370
    25
100
AcDbLine
 10
-5.0
 20
0.0
 30
0.0
 11
-2.874015748
 21
0.0
 31
0.0
  0
LINE
  5
131
330
23
100
AcDbEntity
  8
0
  6
Continuous
 62
     7
370
    25
100
AcDbLine
 10
-4.625984252
 20
-0.8267716535
 30
0.0
 11
-3.2480314961
 21
-0.8267716535
 31
0.0
  0
LINE
  5
132
330
23
100
AcDbEntity
  8
0
  6
Continuous
 62
     7
370
    25
100
AcDbLine
 10
-3.2480314961
 20
-0.8661417323
 30
0.0
 11
-4.625984252
 21
-0.8661417323
 31
0.0
  0
LINE
  5
133
330
23
100
AcDbEntity
  8
0
  6
Continuous
 62
     7
370
    25
100
AcDbLine
 10
-3.2480314961
 20
-2.0078740157
 30
0.0
 11
-4.625984252
 21
-2.0078740157
 31
0.0
  0
LINE
  5
134
330
23
100
AcDbEntity
  8
0
  6
Continuous
 62
     7
370
    25
100
AcDbLine
 10
-5.8070866142
 20
-1.7637795276
 30
0.0
 11
-5.8070866142
 21
-1.4645669291
 31
0.0
  0
LINE
  5
135
330
23
100
AcDbEntity
  8
0
  6
Continuous
 62
     7
370
    25
100
AcDbLine
 10
2.874015748
 20
-0.1968503937
 30
0.0
 11
5.0
 21
-0.1968503937
 31
0.0
  0
LINE
  5
136
330
23
100
AcDbEntity
  8
0
  6
Continuous
 62
     7
370
    25
100
AcDbLine
 10
2.874015748
 20
0.0
 30
0.0
 11
5.0
 21
0.0
 31
0.0
  0
LINE
  5
137
330
23
100
AcDbEntity
  8
0
  6
Continuous
 62
     7
370
    25
100
AcDbLine
 10
4.625984252
 20
-0.8661417323
 30
0.0
 11
3.2480314961
 21
-0.8661417323
 31
0.0
  0
LINE
  5
138
330
23
100
AcDbEntity
  8
0
  6
Continuous
 62
     7
370
    25
100
AcDbLine
 10
4.625984252
 20
-2.0078740157
 30
0.0
 11
3.2480314961
 21
-2.0078740157
 31
0.0
  0
LINE
  5
139
330
23
100
AcDbEntity
  8
0
  6
Continuous
 62
     7
370
    25
100
AcDbLine
 10
3.2480314961
 20
-0.8267716535
 30
0.0
 11
4.625984252
 21
-0.8267716535
 31
0.0
  0
LINE
  5
13A
330
23
100
AcDbEntity
  8
0
  6
Continuous
 62
     7
370
    25
100
AcDbLine
 10
5.8070866142
 20
-1.4645669291
 30
0.0
 11
5.8070866142
 21
-1.7637795276
 31
0.0
  0
LINE
  5
13B
330
23
100
AcDbEntity
  8
0
  6
Continuous
 62
     8
370
    25
100
AcDbLine
 10
-1.062992126
 20
-0.0984251969
 30
0.0
 11
1.062992126
 21
-0.0984251969
 31
0.0
  0
LINE
  5
13C
330
23
100
AcDbEntity
  8
0
  6
Continuous
 62
     8
370
    25
100
AcDbLine
 10
1.062992126
 20
-0.0196850394
 30
0.0
 11
-1.062992126
 21
-0.0196850394
 31
0.0
  0
LINE
  5
13D
330
23
100
AcDbEntity
  8
0
  6
Continuous
 62
     8
370
    25
100
AcDbLine
 10
0.3937007874
 20
-7.554785142
 30
0.0
 11
-0.3937007874
 21
-7.554785142
 31
0.0
  0
LINE
  5
13E
330
23
100
AcDbEntity
  8
0
  6
Continuous
 62
     8
370
    25
100
AcDbLine
 10
-5.7992125984
 20
-1.4566929134
 30
0.0
 11
-5.7992125984
 21
-1.7716535433
 31
0.0
  0
LINE
  5
13F
330
23
100
AcDbEntity
  8
0
  6
Continuous
 62
     8
370
    25
100
AcDbLine
 10
5.7992125984
 20
-1.7716535433
 30
0.0
 11
5.7992125984
 21
-1.4566929134
 31
0.0
  0
ARC
  5
140
330
23
100
AcDbEntity
  8
0
  6
Continuous
 62
     7
370
    25
100
AcDbCircle
 10
1.0433070866
 20
-0.0984251969
 30
0.0
 40
0.0196850393700794
100
AcDbArc
 50
270.0
 51
360.0
  0
ARC
  5
141
330
23
100
AcDbEntity
  8
0
  6
Continuous
 62
     7
370
    25
100
AcDbCircle
 10
-1.0433070866
 20
-0.0984251969
 30
0.0
 40
0.0196850393700794
100
AcDbArc
 50
180.0
 51
270.0
  0
ARC
  5
142
330
23
100
AcDbEntity
  8
0
  6
Continuous
 62
     7
370
    25
100
AcDbCircle
 10
1.0433070866
 20
-0.0196850394
 30
0.0
 40
0.0196850393700788
100
AcDbArc
 50
0.0
 51
90.0
  0
ARC
  5
143
330
23
100
AcDbEntity
  8
0
  6
Continuous
 62
     7
370
    25
100
AcDbCircle
 10
-1.0433070866
 20
-0.0196850394
 30
0.0
 40
0.0196850393700788
100
AcDbArc
 50
90.0
 51
180.0
  0
ARC
  5
144
330
23
100
AcDbEntity
  8
0
  6
Continuous
 62
     7
370
    25
100
AcDbCircle
 10
-5.7992125984
 20
-1.7637795276
 30
0.0
 40
0.0078740157480306
100
AcDbArc
 50
180.0
 51
270.0
  0
ARC
  5
145
330
23
100
AcDbEntity
  8
0
  6
Continuous
 62
     7
370
    25
100
AcDbCircle
 10
-5.7992125984
 20
-1.4645669291
 30
0.0
 40
0.0078740157480308
100
AcDbArc
 50
90.0
 51
180.0
  0
ARC
  5
146
330
23
100
AcDbEntity
  8
0
  6
Continuous
 62
     7
370
    25
100
AcDbCircle
 10
5.7992125984
 20
-1.4645669291
 30
0.0
 40
0.0078740157480308
100
AcDbArc
 50
360.0
 51
90.0
  0
ARC
  5
147
330
23
100
AcDbEntity
  8
0
  6
Continuous
 62
     7
370
    25
100
AcDbCircle
 10
5.7992125984
 20
-1.7637795276
 30
0.0
 40
0.0078740157480315
100
AcDbArc
 50
270.0
 51
0.0
  0
VIEWPORT
  5
1C2
330
23
100
AcDbEntity
  8
0
100
AcDbViewport
 10
0.0
 20
0.0
 30
0.0
 40
8.4
 41
6.4
 68
     1
 69
     1
 12
0.0
 22
-0.2859133646
 13
0.0
 23
0.0
 14
0.5
 24
0.5
 15
0.5
 25
0.5
 16
0.0
 26
0.0
 36
1.0
 17
0.0
 27
0.0
 37
0.0
 42
50.0
 43
0.0
 44
0.0
 45
9.025871766
 50
0.0
 51
0.0
 72
   100
 90
   557152
  1

281
     0
 71
     1
 74
     0
110
0.0
120
0.0
130
0.0
111
1.0
121
0.0
131
0.0
112
0.0
122
1.0
132
0.0
 79
     0
146
0.0
  0
ENDBLK
  5
25
330
23
100
AcDbEntity
  8
0
100
AcDbBlockEnd
  0
BLOCK
  5
14A
330
148
100
AcDbEntity
  8
0
100
AcDbBlockBegin
  2
*Paper_Space1
 70
     0
 10
0.0
 20
0.0
 30
0.0
  3
*Paper_Space1
  1

  0
SPLINE
  5
14C
330
148
100
AcDbEntity
  8
0
  6
Continuous
 62
     7
370
    25
100
AcDbSpline
210
0.0
220
0.0
230
1.0
 70
     8
 71
     3
 72
    16
 73
    12
 74
     0
 42
0.000000001
 43
0.00000001
 40
0.0
 40
0.0
 40
0.0
 40
0.0
 40
0.0674567609933272
 40
0.1939597685782731
 40
0.3207500729308132
 40
0.4476933033360648
 40
0.5746926166627896
 40
0.7016757247956226
 40
0.828618953530106
 40
0.9555145923956148
 40
1.0
 40
1.0
 40
1.0
 40
1.0
 10
-0.7834277673315189
 20
0.6497477009792874
 30
0.0
 10
-0.7877517522619989
 20
0.6384823676301294
 30
0.0
 10
-0.8001845922635341
 20
0.6060909302532915
 30
0.0
 10
-0.8137193769298527
 20
0.5463016052801882
 30
0.0
 10
-0.824372254814994
 20
0.471513062477993
 30
0.0
 10
-0.8280944437344346
 20
0.3919613470752142
 30
0.0
 10
-0.8252259217698129
 20
0.3087339634988161
 30
0.0
 10
-0.8158404895732773
 20
0.2224850139345612
 30
0.0
 10
-0.7995484508249824
 20
0.1339655242824502
 30
0.0
 10
-0.783003905496138
 20
0.0635135298550781
 30
0.0
 10
-0.7698943485709923
 20
0.0227016264620734
 30
0.0
 10
-0.7664914986331467
 20
0.0121080737037901
 30
0.0
  0
SPLINE
  5
14D
330
148
100
AcDbEntity
  8
0
  6
Continuous
 62
     7
370
    25
100
AcDbSpline
210
0.0
220
0.0
230
1.0
 70
     8
 71
     3
 72
    16
 73
    12
 74
     0
 42
0.000000001
 43
0.00000001
 40
0.0
 40
0.0
 40
0.0
 40
0.0
 40
0.0644696255649475
 40
0.1913577147541166
 40
0.318305536128536
 40
0.4453206640582611
 40
0.5724049159593572
 40
0.6995494792474966
 40
0.8267243947473268
 40
0.9538509624818579
 40
1.0
 40
1.0
 40
1.0
 40
1.0
 10
-0.3727667905176524
 20
-0.669787884922144
 30
0.0
 10
-0.3618784223550676
 20
-0.6816228280307257
 30
0.0
 10
-0.3295597415695761
 20
-0.7167511174795553
 30
0.0
 10
-0.2731252676357548
 20
-0.7690395681320912
 30
0.0
 10
-0.2043348176862208
 20
-0.8263152608567317
 30
0.0
 10
-0.134176753792554
 20
-0.8764972772922575
 30
0.0
 10
-0.0634227687577379
 20
-0.9194425742150556
 30
0.0
 10
0.007423341711187
 20
-0.9548497997368208
 30
0.0
 10
0.0775796042144013
 20
-0.9816826378573069
 30
0.0
 10
0.1323238927650975
 20
-0.9979618756144482
 30
0.0
 10
0.1628058823022024
 20
-1.002272232223391
 30
0.0
 10
0.1709242465504428
 20
-1.00342022307053
 30
0.0
  0
SPLINE
  5
150
330
148
100
AcDbEntity
  8
0
  6
Continuous
 62
     7
370
    25
100
AcDbSpline
210
0.0
220
0.0
230
1.0
 70
     8
 71
     3
 72
    11
 73
     7
 74
     0
 42
0.000000001
 43
0.00000001
 40
0.0
 40
0.0
 40
0.0
 40
0.0
 40
0.2687397093969282
 40
0.5427087673913148
 40
0.817173718103098
 40
1.0
 40
1.0
 40
1.0
 40
1.0
 10
0.699579806068392
 20
-0.7015200722955532
 30
0.0
 10
0.7068296998664575
 20
-0.6801152846919362
 30
0.0
 10
0.7214705615972958
 20
-0.6368891982951754
 30
0.0
 10
0.7352511403274347
 20
-0.5648631244481959
 30
0.0
 10
0.7424878846353115
 20
-0.4967669858347402
 30
0.0
 10
0.7432074472519489
 20
-0.4518683101947263
 30
0.0
 10
0.7434951303484331
 20
-0.433917697228606
 30
0.0
  0
SPLINE
  5
151
330
148
100
AcDbEntity
  8
0
  6
Continuous
 62
     7
370
    25
100
AcDbSpline
210
0.0
220
0.0
230
1.0
 70
     8
 71
     3
 72
    28
 73
    24
 74
     0
 42
0.000000001
 43
0.00000001
 40
0.0
 40
0.0
 40
0.0
 40
0.0
 40
0.0259567192246955
 40
0.0752221208226479
 40
0.1244821764548218
 40
0.1737244206800352
 40
0.2229482751508187
 40
0.2721557484581629
 40
0.3213502291453241
 40
0.370535802977732
 40
0.4197168926404115
 40
0.4688980842715536
 40
0.5180830028312208
 40
0.5672758703530719
 40
0.6164814230248701
 40
0.6657043000696651
 40
0.7149488057212089
 40
0.7642184297885571
 40
0.8135149574249619
 40
0.8628369254340144
 40
0.9121771330495343
 40
0.9615124958446062
 40
1.0
 40
1.0
 40
1.0
 40
1.0
 10
0.7434951303484331
 20
-0.433917697228606
 30
0.0
 10
0.7433097773749537
 20
-0.4194816190725252
 30
0.0
 10
0.7427726276818353
 20
-0.3776461156769831
 30
0.0
 10
0.7368150454671301
 20
-0.3058206724497055
 30
0.0
 10
0.7235285335005247
 20
-0.218184541160533
 30
0.0
 10
0.703734518681858
 20
-0.1286973953480115
 30
0.0
 10
0.67773369767996
 20
-0.0382029949756565
 30
0.0
 10
0.6457315503176102
 20
0.0525380465004015
 30
0.0
 10
0.6080207634074082
 20
0.1427411357828881
 30
0.0
 10
0.5649299437232848
 20
0.2316323375591968
 30
0.0
 10
0.5168342501278737
 20
0.3184467850468248
 30
0.0
 10
0.4641492067940458
 20
0.402436473045956
 30
0.0
 10
0.4073280827532289
 20
0.4828763968427633
 30
0.0
 10
0.3468574663937004
 20
0.5590712352564176
 30
0.0
 10
0.2832524735686949
 20
0.6303613474620142
 30
0.0
 10
0.2170520455264056
 20
0.6961283504925695
 30
0.0
 10
0.1488150076860304
 20
0.7557965871248787
 30
0.0
 10
0.0791131281462699
 20
0.8088473863880394
 30
0.0
 10
0.0085355523236017
 20
0.8547829027179484
 30
0.0
 10
-0.0623464236823213
 20
0.8932744446628311
 30
0.0
 10
-0.1328578395699274
 20
0.9236174756243203
 30
0.0
 10
-0.197568559199452
 20
0.9450820039847411
 30
0.0
 10
-0.2377873017249257
 20
0.9524101802360859
 30
0.0
 10
-0.2554127684606793
 20
0.9556216811095903
 30
0.0
  0
SPLINE
  5
152
330
148
100
AcDbEntity
  8
0
  6
Continuous
 62
     7
370
    25
100
AcDbSpline
210
0.0
220
0.0
230
1.0
 70
     8
 71
     3
 72
    19
 73
    15
 74
     0
 42
0.000000001
 43
0.00000001
 40
0.0
 40
0.0
 40
0.0
 40
0.0
 40
0.0541811066305894
 40
0.1477378072671603
 40
0.2413316517024061
 40
0.3348340533920615
 40
0.4280172177951775
 40
0.5208325573831025
 40
0.6133465711455063
 40
0.7056922178486066
 40
0.7980382872030984
 40
0.8905485656696448
 40
0.9784481466564601
 40
1.0
 40
1.0
 40
1.0
 40
1.0
 10
-5.538874200478937
 20
-2.742929817441378
 30
0.0
 10
-5.554875318387404
 20
-2.752482707741397
 30
0.0
 10
-5.598506211527663
 20
-2.778530958760172
 30
0.0
 10
-5.667532094999174
 20
-2.827297958772653
 30
0.0
 10
-5.744867793549293
 20
-2.890618063518217
 30
0.0
 10
-5.818679738993583
 20
-2.960465326758351
 30
0.0
 10
-5.88855790131789
 20
-3.035997618304328
 30
0.0
 10
-5.954066859568178
 20
-3.116545386959727
 30
0.0
 10
-6.014860512819826
 20
-3.201455058925331
 30
0.0
 10
-6.070614914516152
 20
-3.290138990629507
 30
0.0
 10
-6.121032312624489
 20
-3.382035173697635
 30
0.0
 10
-6.164926303234889
 20
-3.474924370275766
 30
0.0
 10
-6.19320609369008
 20
-3.544966464321535
 30
0.0
 10
-6.206850018232696
 20
-3.583198770614095
 30
0.0
 10
-6.209536614918905
 20
-3.590727014197596
 30
0.0
  0
SPLINE
  5
153
330
148
100
AcDbEntity
  8
0
  6
Continuous
 62
     7
370
    25
100
AcDbSpline
210
0.0
220
0.0
230
1.0
 70
     8
 71
     3
 72
    18
 73
    14
 74
     0
 42
0.000000001
 43
0.00000001
 40
0.0
 40
0.0
 40
0.0
 40
0.0
 40
0.0519987141138694
 40
0.1546323817870736
 40
0.2580721503970461
 40
0.3620696669196893
 40
0.4660555509834393
 40
0.5693696977433358
 40
0.6715255771256495
 40
0.7721047121565683
 40
0.8708107180567244
 40
0.9675546774895233
 40
1.0
 40
1.0
 40
1.0
 40
1.0
 10
-5.466726860331941
 20
-3.851945138555259
 30
0.0
 10
-5.463328641558211
 20
-3.84259810320839
 30
0.0
 10
-5.453223109685537
 20
-3.814802140116509
 30
0.0
 10
-5.432826272054055
 20
-3.767696432238737
 30
0.0
 10
-5.404274396853597
 20
-3.711713418042666
 30
0.0
 10
-5.371758790534949
 20
-3.657198224244543
 30
0.0
 10
-5.336190886591939
 20
-3.605598816212281
 30
0.0
 10
-5.298603868142306
 20
-3.558235321534021
 30
0.0
 10
-5.260237517963187
 20
-3.516251426032062
 30
0.0
 10
-5.222420749166786
 20
-3.48049587809634
 30
0.0
 10
-5.186683189967349
 20
-3.451635130444389
 30
0.0
 10
-5.161240177243795
 20
-3.434318005847805
 30
0.0
 10
-5.148424107822979
 20
-3.426756975262311
 30
0.0
 10
-5.145205408102536
 20
-3.424858055536403
 30
0.0
  0
LWPOLYLINE
  5
16E
330
148
100
AcDbEntity
  8
0
  6
Continuous
 62
     7
370
    25
100
AcDbPolyline
 90
       17
 70
   128
 43
0.0
 10
-5.9296749761
 20
-4.933998231
 10
-5.9742988566
 20
-4.9313534391
 10
-6.0252992264
 20
-4.9243970334
 10
-6.0812849285
 20
-4.9133187664
 10
-6.1407288187
 20
-4.8984208244
 10
-6.2020094228
 20
-4.8801095844
 10
-6.2634551656
 20
-4.8588845293
 10
-6.3233899673
 20
-4.8353246233
 10
-6.380178963
 20
-4.8100725191
 10
-6.4322730967
 20
-4.7838170285
 10
-6.4782513764
 20
-4.7572743326
 10
-6.5168596344
 20
-4.7311684471
 10
-6.547044738
 20
-4.7062114724
 10
-6.5679833164
 20
-4.6830841699
 10
-6.5791042197
 20
-4.6624173919
 10
-6.5801040986
 20
-4.6447748743
 10
-6.5794683499
 20
-4.6426789106
  0
LWPOLYLINE
  5
16F
330
148
100
AcDbEntity
  8
0
  6
Continuous
 62
     7
370
    25
100
AcDbPolyline
 90
        5
 70
   128
 43
0.0
 10
-5.8366585953
 20
-4.9038970349
 10
-5.8451712661
 20
-4.9159380864
 10
-5.864218439
 20
-4.9261839784
 10
-5.8926448081
 20
-4.9322592659
 10
-5.9296749761
 20
-4.933998231
  0
LWPOLYLINE
  5
170
330
148
100
AcDbEntity
  8
0
  6
Continuous
 62
     7
370
    25
100
AcDbPolyline
 90
       16
 70
   128
 43
0.0
 10
0.1948719476
 20
-0.2089233357
 10
0.1910750913
 20
-0.1538187799
 10
0.179788091
 20
-0.0958335759
 10
0.1613188264
 20
-0.0365494088
 10
0.136171091
 20
0.0224166038
 10
0.1050308495
 20
0.0794560229
 10
0.0687475265
 20
0.1330129616
 10
0.0283108364
 20
0.1816265265
 10
-0.0151762133
 20
0.2239706661
 10
-0.0605274091
 20
0.2588903427
 10
-0.1065056888
 20
0.2854330386
 10
-0.1518568846
 20
0.3028747382
 10
-0.1953439343
 20
0.3107396773
 10
-0.2357806244
 20
0.3088133211
 10
-0.2720639474
 20
0.2971482154
 10
-0.2803509451
 20
0.2927510416
  0
LWPOLYLINE
  5
172
330
148
100
AcDbEntity
  8
0
  6
Continuous
 62
     7
370
    25
100
AcDbPolyline
 90
       27
 70
   128
 43
0.0
 10
-3.0518794643
 20
0.6568528059
 10
-3.0167872855
 20
0.6817359722
 10
-2.9821309849
 20
0.718263636
 10
-2.9537536656
 20
0.7629055442
 10
-2.9320854988
 20
0.8149849707
 10
-2.9174549518
 20
0.8737124447
 10
-2.9100838088
 20
0.9381977175
 10
-2.9100838088
 20
1.007463258
 10
-2.9174549518
 20
1.0804590713
 10
-2.9320854988
 20
1.1560786153
 10
-2.9537536656
 20
1.2331755748
 10
-2.9821309849
 20
1.3105812384
 10
-3.0167872855
 20
1.3871222151
 10
-3.0571972131
 20
1.4616382219
 10
-3.1027481945
 20
1.532999672
 10
-3.1527497232
 20
1.6001247985
 10
-3.206443827
 20
1.661996053
 10
-3.263016558
 20
1.7176755303
 10
-3.3216103313
 20
1.7663191863
 10
-3.3813369251
 20
1.8071896327
 10
-3.4412909449
 20
1.8396673153
 10
-3.5005635491
 20
1.8632599055
 10
-3.5582562253
 20
1.8776097636
 10
-3.6134944114
 20
1.8824993605
 10
-3.6654407528
 20
1.8778545748
 10
-3.7133077959
 20
1.8637458167
 10
-3.740799851
 20
1.8502272225
  0
LWPOLYLINE
  5
173
330
148
100
AcDbEntity
  8
0
  6
Continuous
 62
     7
370
    25
100
AcDbPolyline
 90
       52
 70
   128
 43
0.0
 10
-4.6908461665
 20
1.0687232172
 10
-4.6871535914
 20
0.9974573724
 10
-4.6761318418
 20
0.9230084887
 10
-4.6579479961
 20
0.8465051353
 10
-4.6328777029
 20
0.769107025
 10
-4.6013010024
 20
0.6919874343
 10
-4.563696565
 20
0.6163154176
 10
-4.5206344358
 20
0.5432380855
 10
-4.4727673927
 20
0.4738632159
 10
-4.4208210513
 20
0.409242461
 10
-4.3655828653
 20
0.3503554057
 10
-4.307890189
 20
0.2980947178
 10
-4.2486175849
 20
0.2532526158
 10
-4.188663565
 20
0.2165088605
 10
-4.1289369713
 20
0.1884204496
 10
-4.070343198
 20
0.1694131749
 10
-4.0137704669
 20
0.1597751673
 10
-3.9600763631
 20
0.1596525291
 10
-3.9100748344
 20
0.1690471194
 10
-3.8645238531
 20
0.1878165259
 10
-3.8241139254
 20
0.2156762233
 10
-3.7894576249
 20
0.2522038872
 10
-3.7610803056
 20
0.2968457953
 10
-3.7394121387
 20
0.3489252218
 10
-3.7247815917
 20
0.4076526958
 10
-3.7174104487
 20
0.4721379686
 10
-3.7174104487
 20
0.5414035091
 10
-3.7247815917
 20
0.6143993225
 10
-3.7394121387
 20
0.6900188664
 10
-3.7610803056
 20
0.7671158259
 10
-3.7894576249
 20
0.8445214895
 10
-3.8241139254
 20
0.9210624663
 10
-3.8645238531
 20
0.995578473
 10
-3.9100748344
 20
1.0669399231
 10
-3.9600763631
 20
1.1340650496
 10
-4.0137704669
 20
1.1959363041
 10
-4.070343198
 20
1.2516157814
 10
-4.1289369713
 20
1.3002594374
 10
-4.188663565
 20
1.3411298839
 10
-4.2486175849
 20
1.3736075664
 10
-4.307890189
 20
1.3972001566
 10
-4.3655828653
 20
1.4115500147
 10
-4.4208210513
 20
1.4164396116
 10
-4.4727673927
 20
1.4117948259
 10
-4.5206344358
 20
1.3976860678
 10
-4.563696565
 20
1.3743272118
 10
-4.6013010024
 20
1.3420723543
 10
-4.6328777029
 20
1.3014104461
 10
-4.6579479961
 20
1.2529578801
 10
-4.6761318418
 20
1.197449148
 10
-4.6871535914
 20
1.1357257056
 10
-4.6908461665
 20
1.0687232172
  0
LWPOLYLINE
  5
174
330
148
100
AcDbEntity
  8
0
  6
Continuous
 62
     7
370
    25
100
AcDbPolyline
 90
       18
 70
   128
 43
0.0
 10
-2.1714302729
 20
1.092829756
 10
-2.1751653854
 20
1.0085634441
 10
-2.1863336014
 20
0.9294470777
 10
-2.2048239264
 20
0.8562669508
 10
-2.2304525951
 20
0.7897503604
 10
-2.2629648983
 20
0.7305583782
 10
-2.3020377141
 20
0.6792792807
 10
-2.3472827194
 20
0.6364227026
 10
-2.3982502489
 20
0.6024145719
 10
-2.4544337645
 20
0.5775928767
 10
-2.5152748891
 20
0.5622043061
 10
-2.5801689563
 20
0.5564017986
 10
-2.6484710196
 20
0.5602430221
 10
-2.7195022626
 20
0.573689801
 10
-2.7925567448
 20
0.5966084949
 10
-2.8669084179
 20
0.6287713277
 10
-2.9418183416
 20
0.6698586507
 10
-2.9833937444
 20
0.6963887704
  0
LWPOLYLINE
  5
175
330
148
100
AcDbEntity
  8
0
  6
Continuous
 62
     7
370
    25
100
AcDbPolyline
 90
       35
 70
   128
 43
0.0
 10
-3.6723141311
 20
1.8897631871
 10
-3.6737937953
 20
1.9168607015
 10
-3.6737937953
 20
2.0033908116
 10
-3.6663328566
 20
2.0851838259
 10
-3.6514851292
 20
2.1614268486
 10
-3.6293981765
 20
2.2313621424
 10
-3.6002915087
 20
2.2942946588
 10
-3.5644544008
 20
2.3495989462
 10
-3.5222430182
 20
2.3967253659
 10
-3.4740768765
 20
2.4352055541
 10
-3.4204346724
 20
2.4646570777
 10
-3.3618495264
 20
2.484787234
 10
-3.2989036839
 20
2.4953959605
 10
-3.2322227289
 20
2.496377823
 10
-3.1624693668
 20
2.4877230633
 10
-3.0903368378
 20
2.4695176962
 10
-3.0165420274
 20
2.4419426548
 10
-2.9418183416
 20
2.4052719924
 10
-2.8669084179
 20
2.3598701585
 10
-2.7925567448
 20
2.3061883767
 10
-2.7195022626
 20
2.244760161
 10
-2.6484710196
 20
2.1761960123
 10
-2.5801689563
 20
2.1011773521
 10
-2.5152748891
 20
2.0204497494
 10
-2.4544337645
 20
1.9348155116
 10
-2.3982502489
 20
1.84512571
 10
-2.3472827194
 20
1.7522717223
 10
-2.3020377141
 20
1.6571763731
 10
-2.2629648983
 20
1.5607847627
 10
-2.2304525951
 20
1.4640548742
 10
-2.2048239264
 20
1.3679480528
 10
-2.1863336014
 20
1.2734194511
 10
-2.1751653854
 20
1.1814085369
 10
-2.1714302729
 20
1.092829756
 10
-2.1714302729
 20
1.092829756
  0
LWPOLYLINE
  5
176
330
148
100
AcDbEntity
  8
0
  6
Continuous
 62
     7
370
    25
100
AcDbPolyline
 90
        9
 70
   128
 43
0.0
 10
-2.0322360247
 20
1.1731848851
 10
-2.0359711371
 20
1.0889185732
 10
-2.0471393532
 20
1.0098022068
 10
-2.0656296781
 20
0.9366220799
 10
-2.0912583468
 20
0.8701054895
 10
-2.12377065
 20
0.8109135073
 10
-2.1628434659
 20
0.7596344098
 10
-2.2080884712
 20
0.7167778317
 10
-2.2524320956
 20
0.6864994609
  0
LWPOLYLINE
  5
177
330
148
100
AcDbEntity
  8
0
  6
Continuous
 62
     7
370
    25
100
AcDbPolyline
 90
       25
 70
   128
 43
0.0
 10
-3.315337835
 20
2.5277057038
 10
-3.2812404242
 20
2.5450122068
 10
-3.2226552781
 20
2.5651423631
 10
-3.1597094356
 20
2.5757510896
 10
-3.0930284807
 20
2.5767329521
 10
-3.0232751186
 20
2.5680781924
 10
-2.9511425896
 20
2.5498728253
 10
-2.8773477792
 20
2.522297784
 10
-2.8026240933
 20
2.4856271216
 10
-2.7277141696
 20
2.4402252876
 10
-2.6533624965
 20
2.3865435059
 10
-2.5803080143
 20
2.3251152901
 10
-2.5092767714
 20
2.2565511414
 10
-2.440974708
 20
2.1815324812
 10
-2.3760806408
 20
2.1008048786
 10
-2.3152395162
 20
2.0151706407
 10
-2.2590560007
 20
1.9254808392
 10
-2.2080884712
 20
1.8326268515
 10
-2.1628434659
 20
1.7375315022
 10
-2.12377065
 20
1.6411398918
 10
-2.0912583468
 20
1.5444100033
 10
-2.0656296781
 20
1.4483031819
 10
-2.0471393532
 20
1.3537745802
 10
-2.0359711371
 20
1.261763666
 10
-2.0322360247
 20
1.1731848851
  0
LWPOLYLINE
  5
178
330
148
100
AcDbEntity
  8
0
  6
Continuous
 62
     7
370
    25
100
AcDbPolyline
 90
        8
 70
   128
 43
0.0
 10
-2.4358993446
 20
1.2455045013
 10
-2.4395919197
 20
1.178502013
 10
-2.4506136694
 20
1.1167785705
 10
-2.4687975151
 20
1.0612698384
 10
-2.4938678082
 20
1.0128172725
 10
-2.5254445088
 20
0.9721553642
 10
-2.5630489461
 20
0.9399005067
 10
-2.5786190202
 20
0.9300602449
  0
LWPOLYLINE
  5
179
330
148
100
AcDbEntity
  8
0
  6
Continuous
 62
     7
370
    25
100
AcDbPolyline
 90
       21
 70
   128
 43
0.0
 10
-3.2675394069
 20
2.1234346615
 10
-3.2622216581
 20
2.1264111927
 10
-3.2166706767
 20
2.1451805991
 10
-3.166669148
 20
2.1545751894
 10
-3.1129750442
 20
2.1544525512
 10
-3.0564023132
 20
2.1448145436
 10
-2.9978085399
 20
2.1258072689
 10
-2.9380819462
 20
2.0977188581
 10
-2.8781279263
 20
2.0609751027
 10
-2.8188553221
 20
2.0161330008
 10
-2.7611626459
 20
1.9638723128
 10
-2.7059244598
 20
1.9049852575
 10
-2.6539781184
 20
1.8403645027
 10
-2.6061110754
 20
1.7709896331
 10
-2.5630489461
 20
1.697912301
 10
-2.5254445088
 20
1.6222402843
 10
-2.4938678082
 20
1.5451206936
 10
-2.4687975151
 20
1.4677225833
 10
-2.4506136694
 20
1.3912192298
 10
-2.4395919197
 20
1.3167703461
 10
-2.4358993446
 20
1.2455045013
  0
LWPOLYLINE
  5
17B
330
148
100
AcDbEntity
  8
0
  6
Continuous
 62
     7
370
    25
100
AcDbPolyline
 90
       18
 70
   128
 43
0.0
 10
-3.5796850492
 20
1.8806005604
 10
-3.5700053046
 20
1.8804284356
 10
-3.514746328
 20
1.8737926801
 10
-3.4571809722
 20
1.8576286192
 10
-3.3982170772
 20
1.8321911699
 10
-3.3387845389
 20
1.7978814958
 10
-3.2798206439
 20
1.7552406811
 10
-3.222255288
 20
1.7049411968
 10
-3.1669963114
 20
1.6477762959
 10
-3.1149151811
 20
1.584647503
 10
-3.0668332475
 20
1.5165503969
 10
-3.0235087917
 20
1.4445589097
 10
-2.985625066
 20
1.36980839
 10
-2.9537795194
 20
1.2934776982
 10
-2.9284743754
 20
1.216770615
 10
-2.910108711
 20
1.1408968569
 10
-2.8989721639
 20
1.0670529983
 10
-2.8952403639
 20
0.996403601
  0
LWPOLYLINE
  5
17C
330
148
100
AcDbEntity
  8
0
  6
Continuous
 62
     7
370
    25
100
AcDbPolyline
 90
        8
 70
   128
 43
0.0
 10
-2.8813209391
 20
0.9883680881
 10
-2.8850135142
 20
0.9213655998
 10
-2.8960352638
 20
0.8596421573
 10
-2.9142191095
 20
0.8041334253
 10
-2.9392894027
 20
0.7556808593
 10
-2.9708661032
 20
0.7150189511
 10
-3.0084705406
 20
0.6827640935
 10
-3.0382413006
 20
0.6653755302
  0
LWPOLYLINE
  5
17D
330
148
100
AcDbEntity
  8
0
  6
Continuous
 62
     7
370
    25
100
AcDbPolyline
 90
       21
 70
   128
 43
0.0
 10
-3.726599165
 20
1.8577755241
 10
-3.7076432526
 20
1.8692747795
 10
-3.6620922712
 20
1.8880441859
 10
-3.6120907425
 20
1.8974387763
 10
-3.5583966387
 20
1.8973161381
 10
-3.5018239076
 20
1.8876781304
 10
-3.4432301343
 20
1.8686708557
 10
-3.3835035406
 20
1.8405824449
 10
-3.3235495207
 20
1.8038386896
 10
-3.2642769166
 20
1.7589965876
 10
-3.2065842404
 20
1.7067358996
 10
-3.1513460543
 20
1.6478488444
 10
-3.0993997129
 20
1.5832280895
 10
-3.0515326698
 20
1.5138532199
 10
-3.0084705406
 20
1.4407758878
 10
-2.9708661032
 20
1.3651038711
 10
-2.9392894027
 20
1.2879842804
 10
-2.9142191095
 20
1.2105861701
 10
-2.8960352638
 20
1.1340828167
 10
-2.8850135142
 20
1.0596339329
 10
-2.8813209391
 20
0.9883680881
  0
LWPOLYLINE
  5
17E
330
148
100
AcDbEntity
  8
0
  6
Continuous
 62
     7
370
    25
100
AcDbPolyline
 90
       14
 70
   128
 43
0.0
 10
-5.1633216312
 20
1.8447356926
 10
-5.1863776904
 20
1.8518535276
 10
-5.2132344917
 20
1.849195532
 10
-5.2420553897
 20
1.8369391492
 10
-5.2708762876
 20
1.8159196315
 10
-5.297733089
 20
1.7875694243
 10
-5.3207955471
 20
1.7538205472
 10
-5.3384919937
 20
1.7169729306
 10
-5.3496164451
 20
1.6795376786
 10
-5.3534107883
 20
1.6440659417
 10
-5.3496164451
 20
1.6129750603
 10
-5.3384919937
 20
1.5883838264
 10
-5.3207955471
 20
1.5719680921
 10
-5.3207891481
 20
1.5719643974
  0
LWPOLYLINE
  5
180
330
148
100
AcDbEntity
  8
0
  6
Continuous
 62
     7
370
    25
100
AcDbPolyline
 90
       11
 70
   128
 43
0.0
 10
2.9269984903
 20
-3.165310049
 10
2.9504327411
 20
-3.1587258985
 10
2.979242235
 20
-3.1420945318
 10
3.0069833946
 20
-3.1171042644
 10
3.0315987852
 20
-3.0856085102
 10
3.0512627957
 20
-3.0499431653
 10
3.0645170366
 20
-3.0127533651
 10
3.0703785013
 20
-2.9767973069
 10
3.068412472
 20
-2.944741687
 10
3.0587647598
 20
-2.9189639243
 10
3.057861032
 20
-2.9175158049
  0
LWPOLYLINE
  5
182
330
148
100
AcDbEntity
  8
0
  6
Continuous
 62
     7
370
    25
100
AcDbPolyline
 90
       11
 70
   128
 43
0.0
 10
2.8805359596
 20
-3.1625598101
 10
2.8805295606
 20
-3.1625561155
 10
2.8628331141
 20
-3.1461403812
 10
2.8517086627
 20
-3.1215491473
 10
2.8479143195
 20
-3.0904582658
 10
2.8517086627
 20
-3.0549865289
 10
2.8628331141
 20
-3.0175512769
 10
2.8805295606
 20
-2.9807036603
 10
2.9035920188
 20
-2.9469547833
 10
2.9304488202
 20
-2.918604576
 10
2.9592697181
 20
-2.8975850583
  0
SPLINE
  5
183
330
148
100
AcDbEntity
  8
0
  6
Continuous
 62
     7
370
    25
100
AcDbSpline
210
0.0
220
0.0
230
1.0
 70
     8
 71
     3
 72
    22
 73
    18
 74
     0
 42
0.000000001
 43
0.00000001
 40
0.0
 40
0.0
 40
0.0
 40
0.0
 40
0.0692894522164558
 40
0.1406223053350407
 40
0.2099023759628078
 40
0.2811301708507696
 40
0.3515542657751628
 40
0.4239723522002967
 40
0.4951497305783988
 40
0.5684594963962054
 40
0.6384087929277695
 40
0.7104643421881386
 40
0.7791630828437632
 40
0.8498266158925408
 40
0.9191009952658673
 40
0.9902978272587475
 40
1.0
 40
1.0
 40
1.0
 40
1.0
 10
2.116774956423736
 20
-2.411223184868959
 30
0.0
 10
2.110763197114237
 20
-2.415106041805845
 30
0.0
 10
2.098562386945031
 20
-2.422986264210337
 30
0.0
 10
2.081750890926744
 20
-2.439378419750436
 30
0.0
 10
2.066344838180769
 20
-2.458701407637595
 30
0.0
 10
2.052883069272007
 20
-2.48046203778359
 30
0.0
 10
2.041313748927164
 20
-2.504322311117714
 30
0.0
 10
2.031978758591289
 20
-2.529271058425337
 30
0.0
 10
2.024880360795752
 20
-2.554864562470507
 30
0.0
 10
2.020273319169382
 20
-2.579693869831417
 30
0.0
 10
2.018095975204401
 20
-2.603332220555931
 30
0.0
 10
2.018355574654082
 20
-2.624527946888251
 30
0.0
 10
2.021008998465598
 20
-2.643197050736021
 30
0.0
 10
2.025872408372101
 20
-2.658747680231358
 30
0.0
 10
2.033289171887362
 20
-2.670747552784303
 30
0.0
 10
2.039606553373775
 20
-2.677696882897052
 30
0.0
 10
2.04411524830702
 20
-2.67950302655831
 30
0.0
 10
2.044655973588173
 20
-2.679719636365249
 30
0.0
  0
SPLINE
  5
184
330
148
100
AcDbEntity
  8
0
  6
Continuous
 62
     7
370
    25
100
AcDbSpline
210
0.0
220
0.0
230
1.0
 70
     8
 71
     3
 72
    12
 73
     8
 74
     0
 42
0.000000001
 43
0.00000001
 40
0.0
 40
0.0
 40
0.0
 40
0.0
 40
0.0114402353248577
 40
0.2282390044908361
 40
0.4420095792395887
 40
0.662149380903331
 40
1.0
 40
1.0
 40
1.0
 40
1.0
 10
2.201938323871732
 20
-2.407265084119454
 30
0.0
 10
2.201684643840799
 20
-2.40707679841995
 30
0.0
 10
2.196623587308733
 20
-2.403320394867525
 30
0.0
 10
2.184677156781676
 20
-2.399525010360391
 30
0.0
 10
2.166513932528837
 20
-2.396702359950548
 30
0.0
 10
2.143475397701873
 20
-2.398659417007054
 30
0.0
 10
2.126844556067678
 20
-2.406484981815649
 30
0.0
 10
2.116774956423736
 20
-2.411223184868959
 30
0.0
  0
LWPOLYLINE
  5
185
330
148
100
AcDbEntity
  8
0
  6
Continuous
 62
     7
370
    25
100
AcDbPolyline
 90
       21
 70
   128
 43
0.0
 10
2.6586101419
 20
-2.2419081023
 10
2.6549175668
 20
-2.1706422575
 10
2.6438958171
 20
-2.0961933738
 10
2.6257119714
 20
-2.0196900204
 10
2.6006416783
 20
-1.9422919101
 10
2.5690649777
 20
-1.8651723194
 10
2.5314605404
 20
-1.7895003027
 10
2.4883984112
 20
-1.7164229706
 10
2.4405313681
 20
-1.647048101
 10
2.3885850267
 20
-1.5824273461
 10
2.3333468406
 20
-1.5235402908
 10
2.2756541644
 20
-1.4712796029
 10
2.2163815602
 20
-1.4264375009
 10
2.1564275403
 20
-1.3896937456
 10
2.0967009466
 20
-1.3616053347
 10
2.0381071733
 20
-1.34259806
 10
1.9815344423
 20
-1.3329600524
 10
1.9278403385
 20
-1.3328374142
 10
1.8778388098
 20
-1.3422320045
 10
1.8322878284
 20
-1.361001411
 10
1.8269700796
 20
-1.3639779421
  0
LWPOLYLINE
  5
187
330
148
100
AcDbEntity
  8
0
  6
Continuous
 62
     7
370
    25
100
AcDbPolyline
 90
       52
 70
   128
 43
0.0
 10
1.8512835019
 20
-2.7079678512
 10
1.8475909268
 20
-2.6367020064
 10
1.8365691772
 20
-2.5622531227
 10
1.8183853315
 20
-2.4857497693
 10
1.7933150383
 20
-2.408351659
 10
1.7617383378
 20
-2.3312320683
 10
1.7241339004
 20
-2.2555600516
 10
1.6810717712
 20
-2.1824827195
 10
1.6332047281
 20
-2.1131078498
 10
1.5812583867
 20
-2.048487095
 10
1.5260202006
 20
-1.9896000397
 10
1.4683275244
 20
-1.9373393517
 10
1.4090549203
 20
-1.8924972498
 10
1.3491009004
 20
-1.8557534945
 10
1.2893743067
 20
-1.8276650836
 10
1.2307805334
 20
-1.8086578089
 10
1.1742078023
 20
-1.7990198013
 10
1.1205136985
 20
-1.7988971631
 10
1.0705121698
 20
-1.8082917534
 10
1.0249611884
 20
-1.8270611598
 10
0.9845512608
 20
-1.8549208573
 10
0.9498949603
 20
-1.8914485211
 10
0.9215176409
 20
-1.9360904293
 10
0.8998494741
 20
-1.9881698558
 10
0.8852189271
 20
-2.0468973298
 10
0.8778477841
 20
-2.1113826026
 10
0.8778477841
 20
-2.1806481431
 10
0.8852189271
 20
-2.2536439564
 10
0.8998494741
 20
-2.3292635004
 10
0.9215176409
 20
-2.4063604599
 10
0.9498949603
 20
-2.4837661235
 10
0.9845512608
 20
-2.5603071002
 10
1.0249611884
 20
-2.634823107
 10
1.0705121698
 20
-2.7061845571
 10
1.1205136985
 20
-2.7733096836
 10
1.1742078023
 20
-2.8351809381
 10
1.2307805334
 20
-2.8908604154
 10
1.2893743067
 20
-2.9395040714
 10
1.3491009004
 20
-2.9803745178
 10
1.4090549203
 20
-3.0128522004
 10
1.4683275244
 20
-3.0364447906
 10
1.5260202006
 20
-3.0507946487
 10
1.5812583867
 20
-3.0556842456
 10
1.6332047281
 20
-3.0510394599
 10
1.6810717712
 20
-3.0369307018
 10
1.7241339004
 20
-3.0135718458
 10
1.7617383378
 20
-2.9813169883
 10
1.7933150383
 20
-2.94065508
 10
1.8183853315
 20
-2.8922025141
 10
1.8365691772
 20
-2.836693782
 10
1.8475909268
 20
-2.7749703396
 10
1.8512835019
 20
-2.7079678512
  0
LWPOLYLINE
  5
188
330
148
100
AcDbEntity
  8
0
  6
Continuous
 62
     7
370
    25
100
AcDbPolyline
 90
       51
 70
   128
 43
0.0
 10
1.8954557995
 20
-1.3244419775
 10
1.8930417764
 20
-1.2535400142
 10
1.8967768888
 20
-1.1692737023
 10
1.9079451049
 20
-1.090157336
 10
1.9264354299
 20
-1.0169772091
 10
1.9520640986
 20
-0.9504606186
 10
1.9845764018
 20
-0.8912686364
 10
2.0236492176
 20
-0.8399895389
 10
2.0688942229
 20
-0.7971329609
 10
2.1198617524
 20
-0.7631248302
 10
2.176045268
 20
-0.7383031349
 10
2.2368863926
 20
-0.7229145643
 10
2.3017804597
 20
-0.7171120568
 10
2.3700825231
 20
-0.7209532804
 10
2.4411137661
 20
-0.7344000592
 10
2.5141682483
 20
-0.7573187531
 10
2.5885199214
 20
-0.7894815859
 10
2.6634298451
 20
-0.8305689089
 10
2.7381535309
 20
-0.8801723778
 10
2.8119483413
 20
-0.937799011
 10
2.8840808703
 20
-1.0028760891
 10
2.9538342324
 20
-1.074756847
 10
3.0205151874
 20
-1.1527269014
 10
3.0834610299
 20
-1.2360113507
 10
3.1420461759
 20
-1.3237824769
 10
3.1956883799
 20
-1.4151679709
 10
3.2438545216
 20
-1.5092596026
 10
3.2860659043
 20
-1.6051222473
 10
3.3219030121
 20
-1.7018031787
 10
3.35100968
 20
-1.7983415385
 10
3.3730966326
 20
-1.893777885
 10
3.38794436
 20
-1.9871637289
 10
3.3954052988
 20
-2.0775709597
 10
3.3954052988
 20
-2.1641010699
 10
3.38794436
 20
-2.2458940841
 10
3.3730966326
 20
-2.3221371069
 10
3.35100968
 20
-2.3920724006
 10
3.3219030121
 20
-2.455004917
 10
3.2860659043
 20
-2.5103092045
 10
3.2438545216
 20
-2.5574356241
 10
3.1956883799
 20
-2.5959158124
 10
3.1420461759
 20
-2.6253673359
 10
3.0834610299
 20
-2.6454974922
 10
3.0205151874
 20
-2.6561062187
 10
2.9538342324
 20
-2.6570880812
 10
2.8840808703
 20
-2.6484333215
 10
2.8119483413
 20
-2.6302279544
 10
2.7381535309
 20
-2.6026529131
 10
2.6634298451
 20
-2.5659822507
 10
2.5885199214
 20
-2.5205804167
 10
2.5843761862
 20
-2.5178163942
  0
LWPOLYLINE
  5
189
330
148
100
AcDbEntity
  8
0
  6
Continuous
 62
     7
370
    25
100
AcDbPolyline
 90
       27
 70
   128
 43
0.0
 10
2.3002305237
 20
-1.0907705031
 10
2.3277225788
 20
-1.077251909
 10
2.3755896219
 20
-1.0631431509
 10
2.4275359633
 20
-1.0584983652
 10
2.4827741494
 20
-1.0633879621
 10
2.5404668256
 20
-1.0777378202
 10
2.5997394298
 20
-1.1013304104
 10
2.6596934496
 20
-1.1338080929
 10
2.7194200434
 20
-1.1746785394
 10
2.7780138167
 20
-1.2233221954
 10
2.8345865477
 20
-1.2790016727
 10
2.8882806515
 20
-1.3408729271
 10
2.9382821802
 20
-1.4079980537
 10
2.9838331616
 20
-1.4793595037
 10
3.0242430892
 20
-1.5538755105
 10
3.0588993898
 20
-1.6304164873
 10
3.0872767091
 20
-1.7078221509
 10
3.1089448759
 20
-1.7849191103
 10
3.1235754229
 20
-1.8605386543
 10
3.1309465659
 20
-1.9335344677
 10
3.1309465659
 20
-2.0028000082
 10
3.1235754229
 20
-2.067285281
 10
3.1089448759
 20
-2.1260127549
 10
3.0872767091
 20
-2.1780921815
 10
3.0588993898
 20
-2.2227340896
 10
3.0242430892
 20
-2.2592617535
 10
2.9891509104
 20
-2.2841449198
  0
LWPOLYLINE
  5
18A
330
148
100
AcDbEntity
  8
0
  6
Continuous
 62
     7
370
    25
100
AcDbPolyline
 90
       34
 70
   128
 43
0.0
 10
2.2524320956
 20
-0.6864994609
 10
2.2590560007
 20
-0.682769701
 10
2.3152395162
 20
-0.6579480058
 10
2.3760806408
 20
-0.6425594352
 10
2.440974708
 20
-0.6367569277
 10
2.5092767714
 20
-0.6405981513
 10
2.5803080143
 20
-0.6540449301
 10
2.6533624965
 20
-0.676963624
 10
2.7277141696
 20
-0.7091264568
 10
2.8026240933
 20
-0.7502137798
 10
2.8773477792
 20
-0.7998172487
 10
2.9511425896
 20
-0.8574438819
 10
3.0232751186
 20
-0.92252096
 10
3.0930284807
 20
-0.9944017179
 10
3.1597094356
 20
-1.0723717723
 10
3.2226552781
 20
-1.1556562216
 10
3.2812404242
 20
-1.2434273478
 10
3.3348826282
 20
-1.3348128417
 10
3.3830487699
 20
-1.4289044735
 10
3.4252601525
 20
-1.5247671182
 10
3.4610972604
 20
-1.6214480496
 10
3.4902039282
 20
-1.7179864094
 10
3.5122908809
 20
-1.8134227559
 10
3.5271386083
 20
-1.9068085998
 10
3.5345995471
 20
-1.9972158306
 10
3.5345995471
 20
-2.0837459407
 10
3.5271386083
 20
-2.165538955
 10
3.5122908809
 20
-2.2417819777
 10
3.4902039282
 20
-2.3117172715
 10
3.4610972604
 20
-2.3746497879
 10
3.4252601525
 20
-2.4299540754
 10
3.3830487699
 20
-2.477080495
 10
3.3348826282
 20
-2.5155606833
 10
3.315337835
 20
-2.5277057038
  0
LWPOLYLINE
  5
18B
330
148
100
AcDbEntity
  8
0
  6
Continuous
 62
     7
370
    25
100
AcDbPolyline
 90
       22
 70
   128
 43
0.0
 10
1.9880848814
 20
-1.3336046042
 10
1.997764626
 20
-1.3337767291
 10
2.0530236026
 20
-1.3404124846
 10
2.1105889584
 20
-1.3565765454
 10
2.1695528534
 20
-1.3820139948
 10
2.2289853917
 20
-1.4163236689
 10
2.2879492867
 20
-1.4589644836
 10
2.3455146426
 20
-1.5092639679
 10
2.4007736192
 20
-1.5664288687
 10
2.4528547495
 20
-1.6295576616
 10
2.5009366831
 20
-1.6976547677
 10
2.5442611389
 20
-1.769646255
 10
2.5821448646
 20
-1.8443967747
 10
2.6139904112
 20
-1.9207274664
 10
2.6392955552
 20
-1.9974345496
 10
2.6576612196
 20
-2.0733083078
 10
2.6687977667
 20
-2.1471521664
 10
2.6725295667
 20
-2.2178015636
 10
2.6687977667
 20
-2.2841423164
 10
2.6576612196
 20
-2.3451281913
 10
2.6392955552
 20
-2.3997974047
 10
2.622763617
 20
-2.4330195446
  0
LWPOLYLINE
  5
18C
330
148
100
AcDbEntity
  8
0
  6
Continuous
 62
     7
370
    25
100
AcDbPolyline
 90
       28
 70
   128
 43
0.0
 10
1.8411707656
 20
-1.3564296406
 10
1.8823009844
 20
-1.3343883221
 10
1.9301680275
 20
-1.3202795641
 10
1.9821143688
 20
-1.3156347784
 10
2.0373525549
 20
-1.3205243752
 10
2.0950452312
 20
-1.3348742334
 10
2.1543178353
 20
-1.3584668235
 10
2.2142718552
 20
-1.3909445061
 10
2.2739984489
 20
-1.4318149525
 10
2.3325922222
 20
-1.4804586085
 10
2.3891649532
 20
-1.5361380858
 10
2.4428590571
 20
-1.5980093403
 10
2.4928605858
 20
-1.6651344668
 10
2.5384115671
 20
-1.7364959169
 10
2.5788214948
 20
-1.8110119237
 10
2.6134777953
 20
-1.8875529005
 10
2.6418551146
 20
-1.9649585641
 10
2.6635232815
 20
-2.0420555235
 10
2.6781538285
 20
-2.1176750675
 10
2.6855249715
 20
-2.1906708808
 10
2.6855249715
 20
-2.2599364214
 10
2.6781538285
 20
-2.3244216941
 10
2.6635232815
 20
-2.3831491681
 10
2.6418551146
 20
-2.4352285947
 10
2.6134777953
 20
-2.4798705028
 10
2.5788214948
 20
-2.5163981666
 10
2.5384115671
 20
-2.5442578641
 10
2.52952863
 20
-2.5488296345
  0
LWPOLYLINE
  5
18E
330
148
100
AcDbEntity
  8
0
  6
Continuous
 62
     8
370
    25
100
AcDbPolyline
 90
       23
 70
   128
 43
0.0
 10
-0.0272105416
 20
0.7687000711
 10
-0.0283859532
 20
0.7694814295
 10
-0.1019086561
 20
0.8140424888
 10
-0.17524857
 20
0.8500340649
 10
-0.2476768098
 20
0.8770984573
 10
-0.3184735512
 20
0.894966688
 10
-0.3869351844
 20
0.9034611744
 10
-0.4523813069
 20
0.9024974945
 10
-0.5141614856
 20
0.8920852259
 10
-0.5716617215
 20
0.8723278502
 10
-0.6243105514
 20
0.8434217253
 10
-0.6715847275
 20
0.8056541331
 10
-0.7130144179
 20
0.7594004249
 10
-0.7481878756
 20
0.705120291
 10
-0.7767555311
 20
0.6433531915
 10
-0.7984334661
 20
0.5747129958
 10
-0.8130062356
 20
0.4998818809
 10
-0.8203290089
 20
0.4196035521
 10
-0.8203290089
 20
0.3346758514
 10
-0.8130062356
 20
0.2459428285
 10
-0.7984334661
 20
0.1542863521
 10
-0.7767555311
 20
0.0606173454
 10
-0.7634764685
 20
0.0138486136
  0
LWPOLYLINE
  5
18F
330
148
100
AcDbEntity
  8
0
  6
Continuous
 62
     8
370
    25
100
AcDbPolyline
 90
       21
 70
   128
 43
0.0
 10
-0.3698076761
 20
-0.6680796245
 10
-0.3184735512
 20
-0.7201172623
 10
-0.2476768098
 20
-0.7839892094
 10
-0.17524857
 20
-0.8405486827
 10
-0.1019086561
 20
-0.8892335688
 10
-0.0283859532
 20
-0.9295600155
 10
0.0445888371
 20
-0.9611272402
 10
0.1162904585
 20
-0.9836215139
 10
0.1860063081
 20
-0.9968192783
 10
0.2530435184
 20
-1.0005893681
 10
0.3167358436
 20
-0.9948943145
 10
0.3764502807
 20
-0.9797907174
 10
0.4315933608
 20
-0.9554286832
 10
0.4816170471
 20
-0.9220503327
 10
0.526024182
 20
-0.879987395
 10
0.5643734271
 20
-0.8296579104
 10
0.5962836506
 20
-0.771562076
 10
0.6214377144
 20
-0.7062772743
 10
0.6395856259
 20
-0.6344523349
 10
0.6505470232
 20
-0.5568010864
 10
0.6542129668
 20
-0.4740952618
  0
LWPOLYLINE
  5
191
330
148
100
AcDbEntity
  8
0
  6
Continuous
 62
     8
370
    25
100
AcDbPolyline
 90
       21
 70
   128
 43
0.0
 10
-0.3188077273
 20
0.9225697522
 10
-0.3089872774
 20
0.9207980455
 10
-0.2368547484
 20
0.9025926784
 10
-0.163059938
 20
0.8750176371
 10
-0.0883362522
 20
0.8383469747
 10
-0.0134263285
 20
0.7929451407
 10
0.0609253447
 20
0.739263359
 10
0.1339798268
 20
0.6778351432
 10
0.2050110698
 20
0.6092709945
 10
0.2733131332
 20
0.5342523343
 10
0.3382072003
 20
0.4535247317
 10
0.3990483249
 20
0.3678904938
 10
0.4552318405
 20
0.2782006923
 10
0.50619937
 20
0.1853467046
 10
0.5514443753
 20
0.0902513554
 10
0.5905171911
 20
-0.0061402551
 10
0.6230294943
 20
-0.1028701435
 10
0.648658163
 20
-0.198976965
 10
0.667148488
 20
-0.2935055667
 10
0.6783167041
 20
-0.3855164809
 10
0.6820518165
 20
-0.4740952618
  0
LWPOLYLINE
  5
192
330
148
100
AcDbEntity
  8
0
  6
Continuous
 62
     8
370
    25
100
AcDbPolyline
 90
       21
 70
   128
 43
0.0
 10
0.7377295158
 20
-0.4419532101
 10
0.7339944034
 20
-0.3533744293
 10
0.7228261873
 20
-0.2613635151
 10
0.7043358623
 20
-0.1668349134
 10
0.6787071936
 20
-0.0707280919
 10
0.6461948904
 20
0.0260017966
 10
0.6071220746
 20
0.122393407
 10
0.5618770693
 20
0.2174887562
 10
0.5109095398
 20
0.3103427439
 10
0.4547260242
 20
0.4000325455
 10
0.3938848997
 20
0.4856667833
 10
0.3289908325
 20
0.566394386
 10
0.2606887691
 20
0.6414130462
 10
0.1896575261
 20
0.7099771948
 10
0.116603044
 20
0.7714054106
 10
0.0422513709
 20
0.8250871923
 10
-0.0326585529
 20
0.8704890263
 10
-0.1073822387
 20
0.9071596887
 10
-0.1811770491
 20
0.93473473
 10
-0.2533095781
 20
0.9529400971
 10
-0.2634521032
 20
0.9547669351
  0
LWPOLYLINE
  5
194
330
148
100
AcDbEntity
  8
0
  6
Continuous
 62
     8
370
    25
100
AcDbPolyline
 90
       16
 70
   128
 43
0.0
 10
-5.0636513078
 20
-3.2446041947
 10
-5.067448164
 20
-3.189499639
 10
-5.0787351644
 20
-3.1315144349
 10
-5.097204429
 20
-3.0722302678
 10
-5.1223521643
 20
-3.0132642552
 10
-5.1534924058
 20
-2.9562248362
 10
-5.1897757289
 20
-2.9026678974
 10
-5.230212419
 20
-2.8540543325
 10
-5.2736994686
 20
-2.8117101929
 10
-5.3190506645
 20
-2.7767905163
 10
-5.3650289441
 20
-2.7502478204
 10
-5.41038014
 20
-2.7328061209
 10
-5.4538671896
 20
-2.7249411817
 10
-5.4943038797
 20
-2.7268675379
 10
-5.5305872027
 20
-2.7385326436
 10
-5.5388306075
 20
-2.7429046629
  0
LWPOLYLINE
  5
196
330
148
100
AcDbEntity
  8
0
  6
Continuous
 62
     8
370
    25
100
AcDbPolyline
 90
       17
 70
   128
 43
0.0
 10
-5.5597432411
 20
-3.8820463346
 10
-5.6043671216
 20
-3.8794015428
 10
-5.6553674914
 20
-3.872445137
 10
-5.7113531935
 20
-3.8613668701
 10
-5.7707970837
 20
-3.8464689281
 10
-5.8320776878
 20
-3.828157688
 10
-5.8935234306
 20
-3.8069326329
 10
-5.9534582324
 20
-3.7833727269
 10
-6.010247228
 20
-3.7581206228
 10
-6.0623413617
 20
-3.7318651321
 10
-6.1083196414
 20
-3.7053224362
 10
-6.1469278994
 20
-3.6792165507
 10
-6.177113003
 20
-3.6542595761
 10
-6.1980515814
 20
-3.6311322735
 10
-6.2091724847
 20
-3.6104654955
 10
-6.2101723636
 20
-3.592822978
 10
-6.2095276826
 20
-3.5907016575
  0
LWPOLYLINE
  5
197
330
148
100
AcDbEntity
  8
0
  6
Continuous
 62
     8
370
    25
100
AcDbPolyline
 90
        5
 70
   128
 43
0.0
 10
-5.4667539112
 20
-3.852021665
 10
-5.4752395311
 20
-3.86398619
 10
-5.494286704
 20
-3.874232082
 10
-5.5227130731
 20
-3.8803073696
 10
-5.5597432411
 20
-3.8820463346
  0
LWPOLYLINE
  5
198
330
148
100
AcDbEntity
  8
0
  6
Continuous
 62
     8
370
    25
100
AcDbPolyline
 90
       12
 70
   128
 43
0.0
 10
2.964837488
 20
-2.9072287187
 10
2.9362963274
 20
-2.9282351912
 10
2.9098719341
 20
-2.956743732
 10
2.8875240844
 20
-2.9906399932
 10
2.8709102162
 20
-3.027410044
 10
2.8612625041
 20
-3.064326818
 10
2.8592964747
 20
-3.0986523671
 10
2.8651579395
 20
-3.1278409221
 10
2.8784121804
 20
-3.1497277016
 10
2.8980761909
 20
-3.1626894632
 10
2.9226915815
 20
-3.1657648923
 10
2.9269984903
 20
-3.165310049
  0
LINE
  5
19A
330
148
100
AcDbEntity
  8
0
  6
Continuous
 62
     7
370
    25
100
AcDbLine
 10
-0.5453722945
 20
0.9125676085
 30
0.0
 11
-0.6010499938
 21
0.8804255569
 31
0.0
  0
LINE
  5
19B
330
148
100
AcDbEntity
  8
0
  6
Continuous
 62
     7
370
    25
100
AcDbLine
 10
0.4618557456
 20
-0.960780686
 30
0.0
 11
0.5175334449
 21
-0.9286386343
 31
0.0
  0
LINE
  5
19C
330
148
100
AcDbEntity
  8
0
  6
Continuous
 62
     7
370
    25
100
AcDbLine
 10
-5.8366585953
 20
-4.9038970349
 30
0.0
 11
-5.4667268603
 21
-3.8519451386
 31
0.0
  0
LINE
  5
19D
330
148
100
AcDbEntity
  8
0
  6
Continuous
 62
     7
370
    25
100
AcDbLine
 10
-6.2095366149
 20
-3.5907270142
 30
0.0
 11
-6.5794683499
 21
-4.6426789106
 31
0.0
  0
LINE
  5
19E
330
148
100
AcDbEntity
  8
0
  6
Continuous
 62
     7
370
    25
100
AcDbLine
 10
-5.1452054081
 20
-3.4248580555
 30
0.0
 11
0.1133178472
 21
-0.3891771965
 31
0.0
  0
LINE
  5
19F
330
148
100
AcDbEntity
  8
0
  6
Continuous
 62
     7
370
    25
100
AcDbLine
 10
-0.2803509451
 20
0.2927510416
 30
0.0
 11
-5.5388742005
 21
-2.7429298174
 31
0.0
  0
LINE
  5
1A0
330
148
100
AcDbEntity
  8
0
  6
Continuous
 62
     7
370
    25
100
AcDbLine
 10
-3.740799851
 20
1.8502272225
 30
0.0
 11
-4.5481264909
 21
1.3841674737
 31
0.0
  0
LINE
  5
1A1
330
148
100
AcDbEntity
  8
0
  6
Continuous
 62
     7
370
    25
100
AcDbLine
 10
-3.8592061043
 20
0.190793057
 30
0.0
 11
-3.0518794643
 21
0.6568528059
 31
0.0
  0
LINE
  5
1A2
330
148
100
AcDbEntity
  8
0
  6
Continuous
 62
     7
370
    25
100
AcDbLine
 10
-2.3916263439
 20
0.6061443318
 30
0.0
 11
-2.2524320956
 21
0.6864994609
 31
0.0
  0
LINE
  5
1A3
330
148
100
AcDbEntity
  8
0
  6
Continuous
 62
     7
370
    25
100
AcDbLine
 10
-3.315337835
 20
2.5277057038
 30
0.0
 11
-3.4545320833
 21
2.4473505746
 31
0.0
  0
LINE
  5
1A4
330
148
100
AcDbEntity
  8
0
  6
Continuous
 62
     7
370
    25
100
AcDbLine
 10
-3.0240406147
 20
0.6729238317
 30
0.0
 11
-2.5786190202
 21
0.9300602449
 31
0.0
  0
LINE
  5
1A5
330
148
100
AcDbEntity
  8
0
  6
Continuous
 62
     7
370
    25
100
AcDbLine
 10
-3.2675394069
 20
2.1234346615
 30
0.0
 11
-3.7129610013
 21
1.8662982484
 31
0.0
  0
LINE
  5
1A6
330
148
100
AcDbEntity
  8
0
  6
Continuous
 62
     7
370
    25
100
AcDbLine
 10
-5.3207891481
 20
1.5719643974
 30
0.0
 11
-4.6756125671
 21
1.1995118851
 31
0.0
  0
LINE
  5
1A7
330
148
100
AcDbEntity
  8
0
  6
Continuous
 62
     7
370
    25
100
AcDbLine
 10
-4.4568170609
 20
1.4368792857
 30
0.0
 11
-5.1633216312
 21
1.8447356926
 31
0.0
  0
LINE
  5
1A8
330
148
100
AcDbEntity
  8
0
  6
Continuous
 62
     7
370
    25
100
AcDbLine
 10
3.0380034766
 20
-2.8897885149
 30
0.0
 11
2.2019972284
 21
-2.4071723806
 31
0.0
  0
LINE
  5
1A9
330
148
100
AcDbEntity
  8
0
  6
Continuous
 62
     7
370
    25
100
AcDbLine
 10
2.0445351752
 20
-2.67994683
 30
0.0
 11
2.8805359596
 21
-3.1625598101
 31
0.0
  0
LINE
  5
1AA
330
148
100
AcDbEntity
  8
0
  6
Continuous
 62
     7
370
    25
100
AcDbLine
 10
1.8269700796
 20
-1.3639779421
 30
0.0
 11
1.0196434397
 21
-1.830037691
 31
0.0
  0
LINE
  5
1AB
330
148
100
AcDbEntity
  8
0
  6
Continuous
 62
     7
370
    25
100
AcDbLine
 10
1.7085638263
 20
-3.0234121076
 30
0.0
 11
2.1740313893
 21
-2.7547034032
 31
0.0
  0
LINE
  5
1AC
330
148
100
AcDbEntity
  8
0
  6
Continuous
 62
     7
370
    25
100
AcDbLine
 10
2.4890176173
 20
-2.5728657242
 30
0.0
 11
2.5158904663
 21
-2.5573523588
 31
0.0
  0
LINE
  5
1AD
330
148
100
AcDbEntity
  8
0
  6
Continuous
 62
     7
370
    25
100
AcDbLine
 10
3.1761435867
 20
-2.6080608329
 30
0.0
 11
3.315337835
 21
-2.5277057038
 31
0.0
  0
LINE
  5
1AE
330
148
100
AcDbEntity
  8
0
  6
Continuous
 62
     7
370
    25
100
AcDbLine
 10
2.2524320956
 20
-0.6864994609
 30
0.0
 11
2.1132378473
 21
-0.76685459
 31
0.0
  0
LINE
  5
1AF
330
148
100
AcDbEntity
  8
0
  6
Continuous
 62
     7
370
    25
100
AcDbLine
 10
2.5437293159
 20
-2.541281333
 30
0.0
 11
2.9891509104
 21
-2.2841449198
 31
0.0
  0
LINE
  5
1B0
330
148
100
AcDbEntity
  8
0
  6
Continuous
 62
     7
370
    25
100
AcDbLine
 10
2.3002305237
 20
-1.0907705031
 30
0.0
 11
1.8548089293
 21
-1.3479069163
 31
0.0
  0
ARC
  5
1B1
330
148
100
AcDbEntity
  8
0
  6
Continuous
 62
     7
370
    25
100
AcDbCircle
 10
-0.9952766141
 20
-0.5791758461
 30
0.0
 40
1.659494323223317
100
AcDbArc
 50
11.3410133908
 51
54.3134870859
  0
ARC
  5
1B2
330
148
100
AcDbEntity
  8
0
  6
Continuous
 62
     7
370
    25
100
AcDbCircle
 10
0.2620337703
 20
-0.6148718985
 30
0.0
 40
0.3967329015021936
100
AcDbArc
 50
257.9228493746
 51
341.5223408374
  0
ARC
  5
1B3
330
148
100
AcDbEntity
  8
0
  6
Continuous
 62
     7
370
    25
100
AcDbCircle
 10
-0.4010597942
 20
0.5339591763
 30
0.0
 40
0.3972198159553873
100
AcDbArc
 50
78.0493336579
 51
162.0297308688
  0
ARC
  5
1B4
330
148
100
AcDbEntity
  8
0
  6
Continuous
 62
     7
370
    25
100
AcDbCircle
 10
-0.3470380079
 20
0.5503686694
 30
0.0
 40
0.4129461959643884
100
AcDbArc
 50
78.3218676381
 51
118.7044007351
  0
ARC
  5
1B5
330
148
100
AcDbEntity
  8
0
  6
Continuous
 62
     7
370
    25
100
AcDbCircle
 10
0.2961344858
 20
-0.57035027
 30
0.0
 40
0.4211746087993162
100
AcDbArc
 50
301.7133746632
 51
340.9862733731
  0
ARC
  5
1B6
330
148
100
AcDbEntity
  8
0
  6
Continuous
 62
     7
370
    25
100
AcDbCircle
 10
-0.0037367742
 20
-0.2276408665
 30
0.0
 40
0.1994887724647854
100
AcDbArc
 50
305.9283419107
 51
5.3838384827
  0
ARC
  5
1B7
330
148
100
AcDbEntity
  8
0
  6
Continuous
 62
     7
370
    25
100
AcDbCircle
 10
-3.3225184092
 20
0.9818424718
 30
0.0
 40
0.4275260863442288
100
AcDbArc
 50
332.0082700927
 51
1.9518168888
  0
ARC
  5
1B8
330
148
100
AcDbEntity
  8
0
  6
Continuous
 62
     7
370
    25
100
AcDbCircle
 10
-5.1289377263
 20
1.6430486083
 30
0.0
 40
0.2244784333360355
100
AcDbArc
 50
121.1012892485
 51
178.9040892477
  0
ARC
  5
1B9
330
148
100
AcDbEntity
  8
0
  6
Continuous
 62
     7
370
    25
100
AcDbCircle
 10
3.0053811648
 20
-2.9617971163
 30
0.0
 40
0.0790534876411159
100
AcDbArc
 50
65.6278789947
 51
125.6825794344
  0
ARC
  5
1BA
330
148
100
AcDbEntity
  8
0
  6
Continuous
 62
     7
370
    25
100
AcDbCircle
 10
2.3085964897
 20
-2.2735560315
 30
0.0
 40
0.3514415287251332
100
AcDbArc
 50
306.1455954319
 51
5.1665849615
  0
ARC
  5
1BB
330
148
100
AcDbEntity
  8
0
  6
Continuous
 62
     8
370
    25
100
AcDbCircle
 10
-0.5255701727
 20
-0.4817662586
 30
0.0
 40
1.179808077871905
100
AcDbArc
 50
0.3725341816
 51
11.1884877831
  0
ARC
  5
1BC
330
148
100
AcDbEntity
  8
0
  6
Continuous
 62
     8
370
    25
100
AcDbCircle
 10
-0.0658266021
 20
-0.4882074085
 30
0.0
 40
0.7480115518673307
100
AcDbArc
 50
340.279509997
 51
1.0810186275
  0
ARC
  5
1BD
330
148
100
AcDbEntity
  8
0
  6
Continuous
 62
     8
370
    25
100
AcDbCircle
 10
-0.0107226554
 20
-0.4560134568
 30
0.0
 40
0.7485842258088599
100
AcDbArc
 50
340.3642881047
 51
1.0762184627
  0
ARC
  5
1BE
330
148
100
AcDbEntity
  8
0
  6
Continuous
 62
     8
370
    25
100
AcDbCircle
 10
-5.2624105045
 20
-3.2632961629
 30
0.0
 40
0.1996361890594916
100
AcDbArc
 50
306.0650443058
 51
5.3724822959
  0
ARC
  5
1BF
330
148
100
AcDbEntity
  8
0
  6
Continuous
 62
     8
370
    25
100
AcDbCircle
 10
3.0063797335
 20
-2.957310445
 30
0.0
 40
0.0650687134637916
100
AcDbArc
 50
37.7037420134
 51
129.6753361441
  0
VIEWPORT
  5
1C4
330
148
100
AcDbEntity
  8
0
100
AcDbViewport
 10
0.0
 20
0.0
 30
0.0
 40
8.4
 41
6.4
 68
     1
 69
     1
 12
0.0
 22
-0.2859133646
 13
0.0
 23
0.0
 14
0.5
 24
0.5
 15
0.5
 25
0.5
 16
0.0
 26
0.0
 36
1.0
 17
0.0
 27
0.0
 37
0.0
 42
50.0
 43
0.0
 44
0.0
 45
9.025871766
 50
0.0
 51
0.0
 72
   100
 90
   557152
  1

281
     0
 71
     1
 74
     0
110
0.0
120
0.0
130
0.0
111
1.0
121
0.0
131
0.0
112
0.0
122
1.0
132
0.0
 79
     0
146
0.0
  0
ENDBLK
  5
14B
330
148
100
AcDbEntity
  8
0
100
AcDbBlockEnd
  0
ENDSEC
  0
SECTION
  2
ENTITIES
  0
LWPOLYLINE
  5
81
330
1F
100
AcDbEntity
  8
0
  6
Continuous
 62
     7
370
    25
100
AcDbPolyline
 90
       39
 70
   128
 43
0.0
 10
0.3937007874
 20
-1.4566929134
 10
0.3883312218
 20
-1.427273866
 10
0.3723689928
 20
-1.3986572936
 10
0.3462495083
 20
-1.3716237816
 10
0.3106852399
 20
-1.3469107337
 10
0.266646288
 20
-1.3251922575
 10
0.2153339205
 20
-1.3070607764
 10
0.158147805
 20
-1.29301087
 10
0.0966478296
 20
-1.283425783
 10
0.0325115533
 20
-1.2785669716
 10
-0.0325115533
 20
-1.2785669716
 10
-0.0966478296
 20
-1.283425783
 10
-0.158147805
 20
-1.29301087
 10
-0.2153339205
 20
-1.3070607764
 10
-0.266646288
 20
-1.3251922575
 10
-0.3106852399
 20
-1.3469107337
 10
-0.3462495083
 20
-1.3716237816
 10
-0.3723689928
 20
-1.3986572936
 10
-0.3883312218
 20
-1.427273866
 10
-0.3937007874
 20
-1.4566929134
 10
-0.3883312218
 20
-1.4861119607
 10
-0.3723689928
 20
-1.5147285332
 10
-0.3462495083
 20
-1.5417620452
 10
-0.3106852399
 20
-1.5664750931
 10
-0.266646288
 20
-1.5881935692
 10
-0.2153339205
 20
-1.6063250503
 10
-0.158147805
 20
-1.6203749568
 10
-0.0966478296
 20
-1.6299600438
 10
-0.0325115533
 20
-1.6348188551
 10
0.0325115533
 20
-1.6348188551
 10
0.0966478296
 20
-1.6299600438
 10
0.158147805
 20
-1.6203749568
 10
0.2153339205
 20
-1.6063250503
 10
0.266646288
 20
-1.5881935692
 10
0.3106852399
 20
-1.5664750931
 10
0.3462495083
 20
-1.5417620452
 10
0.3723689928
 20
-1.5147285332
 10
0.3883312218
 20
-1.4861119607
 10
0.3937007874
 20
-1.4566929134
  0
LWPOLYLINE
  5
82
330
1F
100
AcDbEntity
  8
0
  6
Continuous
 62
     7
370
    25
100
AcDbPolyline
 90
       35
 70
   128
 43
0.0
 10
0.0
 20
-1.5996820472
 10
0.0578738639
 20
-1.5972473854
 10
0.1137769027
 20
-1.5900263097
 10
0.1658054056
 20
-1.5782647251
 10
0.2121876043
 20
-1.5623631583
 10
0.2513440086
 20
-1.542863118
 10
0.2819411941
 20
-1.5204286548
 10
0.3029372104
 20
-1.4958237473
 10
0.3136170634
 20
-1.4698862862
 10
0.3136170634
 20
-1.4434995406
 10
0.3029372104
 20
-1.4175620795
 10
0.2819411941
 20
-1.392957172
 10
0.2513440086
 20
-1.3705227087
 10
0.2121876043
 20
-1.3510226685
 10
0.1658054056
 20
-1.3351211016
 10
0.1137769027
 20
-1.323359517
 10
0.0578738639
 20
-1.3161384413
 10
0.0
 20
-1.3137037796
 10
-0.0578738639
 20
-1.3161384413
 10
-0.1137769027
 20
-1.323359517
 10
-0.1658054056
 20
-1.3351211016
 10
-0.2121876043
 20
-1.3510226685
 10
-0.2513440086
 20
-1.3705227087
 10
-0.2819411941
 20
-1.392957172
 10
-0.3029372104
 20
-1.4175620795
 10
-0.3136170634
 20
-1.4434995406
 10
-0.3136170634
 20
-1.4698862862
 10
-0.3029372104
 20
-1.4958237473
 10
-0.2819411941
 20
-1.5204286548
 10
-0.2513440086
 20
-1.542863118
 10
-0.2121876043
 20
-1.5623631583
 10
-0.1658054056
 20
-1.5782647251
 10
-0.1137769027
 20
-1.5900263097
 10
-0.0578738639
 20
-1.5972473854
 10
0.0
 20
-1.5996820472
  0
LWPOLYLINE
  5
83
330
1F
100
AcDbEntity
  8
0
  6
Continuous
 62
     7
370
    25
100
AcDbPolyline
 90
       21
 70
   128
 43
0.0
 10
0.3937007874
 20
0.0
 10
0.3883312218
 20
0.0648010198
 10
0.3723689928
 20
0.1278344367
 10
0.3462495083
 20
0.1873808634
 10
0.3106852399
 20
0.2418160286
 10
0.266646288
 20
0.2896550829
 10
0.2153339205
 20
0.3295931017
 10
0.158147805
 20
0.3605406798
 10
0.0966478296
 20
0.381653648
 10
0.0325115533
 20
0.3923560996
 10
-0.0325115533
 20
0.3923560996
 10
-0.0966478296
 20
0.381653648
 10
-0.158147805
 20
0.3605406798
 10
-0.2153339205
 20
0.3295931017
 10
-0.266646288
 20
0.2896550829
 10
-0.3106852399
 20
0.2418160286
 10
-0.3462495083
 20
0.1873808634
 10
-0.3723689928
 20
0.1278344367
 10
-0.3883312218
 20
0.0648010198
 10
-0.3937007874
 20
0.0
 10
-0.3937007874
 20
0.0
  0
CIRCLE
  5
84
330
1F
100
AcDbEntity
  8
0
  6
Continuous
 62
     7
370
    25
100
AcDbCircle
 10
-3.937007874
 20
0.0
 30
0.0
 40
0.6889763779527529
  0
CIRCLE
  5
88
330
1F
100
AcDbEntity
  8
0
  6
Continuous
 62
     7
370
    25
100
AcDbCircle
 10
3.937007874
 20
0.0
 30
0.0
 40
0.6889763779527533
  0
LWPOLYLINE
  5
8E
330
1F
100
AcDbEntity
  8
0
  6
Continuous
 62
     8
370
    25
100
AcDbPolyline
 90
       21
 70
   128
 43
0.0
 10
0.3937007874
 20
-0.4299287404
 10
0.3883312218
 20
-0.400509693
 10
0.3723689928
 20
-0.3718931206
 10
0.3462495083
 20
-0.3448596085
 10
0.3106852399
 20
-0.3201465607
 10
0.266646288
 20
-0.2984280845
 10
0.2153339205
 20
-0.2802966034
 10
0.158147805
 20
-0.266246697
 10
0.0966478296
 20
-0.25666161
 10
0.0325115533
 20
-0.2518027986
 10
-0.0325115533
 20
-0.2518027986
 10
-0.0966478296
 20
-0.25666161
 10
-0.158147805
 20
-0.266246697
 10
-0.2153339205
 20
-0.2802966034
 10
-0.266646288
 20
-0.2984280845
 10
-0.3106852399
 20
-0.3201465607
 10
-0.3462495083
 20
-0.3448596085
 10
-0.3723689928
 20
-0.3718931206
 10
-0.3883312218
 20
-0.400509693
 10
-0.3937007874
 20
-0.4299287404
 10
-0.3937007874
 20
-0.4299287404
  0
LINE
  5
91
330
1F
100
AcDbEntity
  8
0
  6
Continuous
 62
     7
370
    25
100
AcDbLine
 10
0.3937007874
 20
-1.4566929134
 30
0.0
 11
0.3937007874
 21
0.0
 31
0.0
  0
LINE
  5
92
330
1F
100
AcDbEntity
  8
0
  6
Continuous
 62
     7
370
    25
100
AcDbLine
 10
-0.3937007874
 20
0.0
 30
0.0
 11
-0.3937007874
 21
-1.4566929134
 31
0.0
  0
LINE
  5
93
330
1F
100
AcDbEntity
  8
0
  6
Continuous
 62
     7
370
    25
100
AcDbLine
 10
-5.7992125984
 20
-0.157480315
 30
0.0
 11
-4.6077450802
 21
-0.157480315
 31
0.0
  0
LINE
  5
94
330
1F
100
AcDbEntity
  8
0
  6
Continuous
 62
     7
370
    25
100
AcDbLine
 10
-4.6078258857
 20
0.157480315
 30
0.0
 11
-5.7992125984
 21
0.157480315
 31
0.0
  0
LINE
  5
95
330
1F
100
AcDbEntity
  8
0
  6
Continuous
 62
     7
370
    25
100
AcDbLine
 10
5.7992125984
 20
0.157480315
 30
0.0
 11
4.6077450802
 21
0.157480315
 31
0.0
  0
LINE
  5
96
330
1F
100
AcDbEntity
  8
0
  6
Continuous
 62
     7
370
    25
100
AcDbLine
 10
4.6078258857
 20
-0.157480315
 30
0.0
 11
5.7992125984
 21
-0.157480315
 31
0.0
  0
LINE
  5
97
330
1F
100
AcDbEntity
  8
0
  6
Continuous
 62
     7
370
    25
100
AcDbLine
 10
-5.8070866142
 20
-0.1496062992
 30
0.0
 11
-5.8070866142
 21
0.1496062812
 31
0.0
  0
LINE
  5
98
330
1F
100
AcDbEntity
  8
0
  6
Continuous
 62
     7
370
    25
100
AcDbLine
 10
5.8070866142
 20
0.1496062992
 30
0.0
 11
5.8070866142
 21
-0.1496062812
 31
0.0
  0
LINE
  5
99
330
1F
100
AcDbEntity
  8
0
  6
Continuous
 62
     8
370
    25
100
AcDbLine
 10
-5.7992125984
 20
0.157480315
 30
0.0
 11
-5.7992125984
 21
-0.157480315
 31
0.0
  0
LINE
  5
9A
330
1F
100
AcDbEntity
  8
0
  6
Continuous
 62
     8
370
    25
100
AcDbLine
 10
5.7992125984
 20
-0.157480315
 30
0.0
 11
5.7992125984
 21
0.157480315
 31
0.0
  0
ARC
  5
9B
330
1F
100
AcDbEntity
  8
0
  6
Continuous
 62
     7
370
    25
100
AcDbCircle
 10
-5.7992125984
 20
-0.1496062992
 30
0.0
 40
0.0078740157480306
100
AcDbArc
 50
180.0
 51
270.0
  0
ARC
  5
9C
330
1F
100
AcDbEntity
  8
0
  6
Continuous
 62
     7
370
    25
100
AcDbCircle
 10
-5.7992125984
 20
0.1496062992
 30
0.0
 40
0.0078740157480311
100
AcDbArc
 50
90.0
 51
180.0
  0
ARC
  5
9D
330
1F
100
AcDbEntity
  8
0
  6
Continuous
 62
     7
370
    25
100
AcDbCircle
 10
5.7992125984
 20
0.1496062992
 30
0.0
 40
0.0078740157480306
100
AcDbArc
 50
360.0
 51
90.0
  0
ARC
  5
9E
330
1F
100
AcDbEntity
  8
0
  6
Continuous
 62
     7
370
    25
100
AcDbCircle
 10
5.7992125984
 20
-0.1496062992
 30
0.0
 40
0.0078740157480311
100
AcDbArc
 50
270.0
 51
0.0
  0
ARC
  5
9F
330
1F
100
AcDbEntity
  8
0
  6
Continuous
 62
     7
370
    25
100
AcDbCircle
 10
0.0
 20
0.0
 30
0.0
 40
1.062992125984253
100
AcDbArc
 50
291.7384607915
 51
248.2615392085
  0
ARC
  5
A0
330
1F
100
AcDbEntity
  8
0
  6
Continuous
 62
     7
370
    25
100
AcDbCircle
 10
-3.937007874
 20
0.0
 30
0.0
 40
1.062992125984252
100
AcDbArc
 50
188.5196242541
 51
171.4803757459
  0
ARC
  5
A1
330
1F
100
AcDbEntity
  8
0
  6
Continuous
 62
     7
370
    25
100
AcDbCircle
 10
3.937007874
 20
0.0
 30
0.0
 40
1.062992125984253
100
AcDbArc
 50
8.5196242541
 51
351.4803757459
  0
ARC
  5
A2
330
1F
100
AcDbEntity
  8
0
  6
Continuous
 62
     8
370
    25
100
AcDbCircle
 10
0.0
 20
0.0
 30
0.0
 40
1.043307086614173
100
AcDbArc
 50
292.1701571635
 51
247.8298428365
  0
CIRCLE
  5
B2
330
1B
100
AcDbEntity
 67
     1
  8
0
  6
Continuous
 62
     7
370
    25
100
AcDbCircle
 10
1.6141732283
 20
0.0
 30
0.0
 40
0.1496062992125986
  0
CIRCLE
  5
B3
330
1B
100
AcDbEntity
 67
     1
  8
0
  6
Continuous
 62
     7
370
    25
100
AcDbCircle
 10
1.6141732283
 20
0.0
 30
0.0
 40
0.1574803149606298
  0
LINE
  5
BD
330
1B
100
AcDbEntity
 67
     1
  8
0
  6
Continuous
 62
     7
370
    25
100
AcDbLine
 10
7.554785142
 20
0.3937007874
 30
0.0
 11
2.0078740157
 21
0.3937007874
 31
0.0
  0
LINE
  5
BE
330
1B
100
AcDbEntity
 67
     1
  8
0
  6
Continuous
 62
     7
370
    25
100
AcDbLine
 10
2.0078740157
 20
-0.3937007874
 30
0.0
 11
7.554785142
 21
-0.3937007874
 31
0.0
  0
LINE
  5
BF
330
1B
100
AcDbEntity
 67
     1
  8
0
  6
Continuous
 62
     7
370
    25
100
AcDbLine
 10
9.1303175292
 20
-1.2779564962
 30
0.0
 11
8.6071550524
 21
-0.2511923231
 31
0.0
  0
LINE
  5
C0
330
1B
100
AcDbEntity
 67
     1
  8
0
  6
Continuous
 62
     7
370
    25
100
AcDbLine
 10
7.9055751121
 20
-0.6086651576
 30
0.0
 11
8.4287375889
 21
-1.6354293306
 31
0.0
  0
LINE
  5
C1
330
1B
100
AcDbEntity
 67
     1
  8
0
  6
Continuous
 62
     7
370
    25
100
AcDbLine
 10
0.1968503937
 20
1.062992126
 30
0.0
 11
0.0
 21
1.062992126
 31
0.0
  0
LINE
  5
C2
330
1B
100
AcDbEntity
 67
     1
  8
0
  6
Continuous
 62
     7
370
    25
100
AcDbLine
 10
0.0
 20
-1.062992126
 30
0.0
 11
0.1968503937
 21
-1.062992126
 31
0.0
  0
LINE
  5
C3
330
1B
100
AcDbEntity
 67
     1
  8
0
  6
Continuous
 62
     7
370
    25
100
AcDbLine
 10
0.8661417323
 20
-0.688976378
 30
0.0
 11
2.0078740157
 21
-0.688976378
 31
0.0
  0
LINE
  5
C4
330
1B
100
AcDbEntity
 67
     1
  8
0
  6
Continuous
 62
     7
370
    25
100
AcDbLine
 10
2.0078740157
 20
0.688976378
 30
0.0
 11
0.8661417323
 21
0.688976378
 31
0.0
  0
LINE
  5
C5
330
1B
100
AcDbEntity
 67
     1
  8
0
  6
Continuous
 62
     7
370
    25
100
AcDbLine
 10
0.8267716535
 20
0.688976378
 30
0.0
 11
0.1968503937
 21
0.688976378
 31
0.0
  0
LINE
  5
C6
330
1B
100
AcDbEntity
 67
     1
  8
0
  6
Continuous
 62
     7
370
    25
100
AcDbLine
 10
0.1968503937
 20
-0.688976378
 30
0.0
 11
0.8267716535
 21
-0.688976378
 31
0.0
  0
LINE
  5
C7
330
1B
100
AcDbEntity
 67
     1
  8
0
  6
Continuous
 62
     7
370
    25
100
AcDbLine
 10
0.8661417323
 20
0.6692913386
 30
0.0
 11
0.8267716535
 21
0.6692913386
 31
0.0
  0
LINE
  5
C8
330
1B
100
AcDbEntity
 67
     1
  8
0
  6
Continuous
 62
     7
370
    25
100
AcDbLine
 10
0.8267716535
 20
-0.6692913386
 30
0.0
 11
0.8661417323
 21
-0.6692913386
 31
0.0
  0
LINE
  5
C9
330
1B
100
AcDbEntity
 67
     1
  8
0
  6
Continuous
 62
     7
370
    25
100
AcDbLine
 10
9.1303175292
 20
-1.2779564962
 30
0.0
 11
8.4287375889
 21
-1.6354293306
 31
0.0
  0
LINE
  5
CA
330
1B
100
AcDbEntity
 67
     1
  8
0
  6
Continuous
 62
     7
370
    25
100
AcDbLine
 10
0.1968503937
 20
-1.062992126
 30
0.0
 11
0.1968503937
 21
1.062992126
 31
0.0
  0
LINE
  5
CB
330
1B
100
AcDbEntity
 67
     1
  8
0
  6
Continuous
 62
     7
370
    25
100
AcDbLine
 10
0.0
 20
-1.062992126
 30
0.0
 11
0.0
 21
1.062992126
 31
0.0
  0
LINE
  5
CC
330
1B
100
AcDbEntity
 67
     1
  8
0
  6
Continuous
 62
     7
370
    25
100
AcDbLine
 10
2.0078740157
 20
0.688976378
 30
0.0
 11
2.0078740157
 21
-0.688976378
 31
0.0
  0
LINE
  5
CD
330
1B
100
AcDbEntity
 67
     1
  8
0
  6
Continuous
 62
     7
370
    25
100
AcDbLine
 10
0.8661417323
 20
0.688976378
 30
0.0
 11
0.8661417323
 21
-0.688976378
 31
0.0
  0
LINE
  5
CE
330
1B
100
AcDbEntity
 67
     1
  8
0
  6
Continuous
 62
     7
370
    25
100
AcDbLine
 10
0.8267716535
 20
-0.688976378
 30
0.0
 11
0.8267716535
 21
0.688976378
 31
0.0
  0
LINE
  5
CF
330
1B
100
AcDbEntity
 67
     1
  8
0
  6
Continuous
 62
     8
370
    25
100
AcDbLine
 10
7.554785142
 20
0.3937007874
 30
0.0
 11
7.554785142
 21
-0.3937007874
 31
0.0
  0
LINE
  5
D0
330
1B
100
AcDbEntity
 67
     1
  8
0
  6
Continuous
 62
     8
370
    25
100
AcDbLine
 10
8.6071550524
 20
-0.2511923231
 30
0.0
 11
7.9055751121
 21
-0.6086651576
 31
0.0
  0
ARC
  5
D1
330
1B
100
AcDbEntity
 67
     1
  8
0
  6
Continuous
 62
     7
370
    25
100
AcDbCircle
 10
7.554785142
 20
-0.7874015748
 30
0.0
 40
0.3937007874015725
100
AcDbArc
 50
27.0
 51
90.0
  0
ARC
  5
D2
330
1B
100
AcDbEntity
 67
     1
  8
0
  6
Continuous
 62
     7
370
    25
100
AcDbCircle
 10
7.554785142
 20
-0.7874015748
 30
0.0
 40
1.181102362204721
100
AcDbArc
 50
27.0
 51
90.0
  0
VIEWPORT
  5
1C0
330
1B
100
AcDbEntity
 67
     1
  8
0
100
AcDbViewport
 10
0.0
 20
0.0
 30
0.0
 40
8.4
 41
6.4
 68
     1
 69
     1
 12
0.0
 22
-0.2859133646
 13
0.0
 23
0.0
 14
0.5
 24
0.5
 15
0.5
 25
0.5
 16
0.0
 26
0.0
 36
1.0
 17
0.0
 27
0.0
 37
0.0
 42
50.0
 43
0.0
 44
0.0
 45
9.025871766
 50
0.0
 51
0.0
 72
   100
 90
   557152
  1

281
     0
 71
     1
 74
     0
110
0.0
120
0.0
130
0.0
111
1.0
121
0.0
131
0.0
112
0.0
122
1.0
132
0.0
 79
     0
146
0.0
  0
ENDSEC
  0
SECTION
  2
OBJECTS
  0
DICTIONARY
  5
C
330
0
100
AcDbDictionary
281
     1
  3
ACAD_GROUP
350
D
  3
ACAD_LAYOUT
350
1A
  3
ACAD_MLINESTYLE
350
17
  3
ACAD_PLOTSETTINGS
350
19
  3
ACAD_PLOTSTYLENAME
350
E
  3
ACAD_SCALELIST
350
47
  0
DICTIONARY
  5
D
102
{ACAD_REACTORS
330
C
102
}
330
C
100
AcDbDictionary
281
     1
  0
DICTIONARY
  5
1A
102
{ACAD_REACTORS
330
C
102
}
330
C
100
AcDbDictionary
281
     1
  3
_Isometric
350
149
  3
_Left
350
1E
  3
_Top
350
26
  3
Model
350
22
  0
DICTIONARY
  5
17
102
{ACAD_REACTORS
330
C
102
}
330
C
100
AcDbDictionary
281
     1
  3
Standard
350
18
  0
DICTIONARY
  5
19
102
{ACAD_REACTORS
330
C
102
}
330
C
100
AcDbDictionary
281
     1
  0
ACDBDICTIONARYWDFLT
  5
E
102
{ACAD_REACTORS
330
C
102
}
330
C
100
AcDbDictionary
281
     1
  3
Normal
350
F
100
AcDbDictionaryWithDefault
340
F
  0
DICTIONARY
  5
47
102
{ACAD_REACTORS
330
C
102
}
330
C
100
AcDbDictionary
281
     1
  3
A0
350
48
  3
A1
350
49
  3
A2
350
4A
  3
A3
350
4B
  3
A4
350
4C
  3
A5
350
4D
  3
A6
350
4E
  3
A7
350
4F
  3
A8
350
50
  3
A9
350
51
  3
B0
350
52
  3
B1
350
53
  3
B2
350
54
  3
B3
350
55
  3
B4
350
56
  3
B5
350
57
  3
B6
350
58
  3
B7
350
59
  3
B8
350
5A
  3
B9
350
5B
  3
C0
350
5C
  3
C1
350
5D
  3
C2
350
5E
  3
C3
350
5F
  3
C4
350
60
  3
C5
350
61
  3
C6
350
62
  3
C7
350
63
  3
C8
350
64
  3
C9
350
65
  3
D0
350
66
  3
D1
350
67
  3
D2
350
68
  0
LAYOUT
  5
149
102
{ACAD_REACTORS
330
1A
102
}
330
1A
100
AcDbPlotSettings
  1

  2
none_device
  4
Letter_(8.50_x_11.00_Inches)
  6

 40
6.35
 41
6.35
 42
6.35001
 43
6.35001
 44
215.9
 45
279.4
 46
0.0
 47
0.0
 48
0.0
 49
0.0
140
0.0
141
0.0
142
1.0
143
0.869554083
 70
   688
 72
     0
 73
     1
 74
     1
  7

 75
     0
147
1.1500147254
148
0.0
149
41.5399049974
100
AcDbLayout
  1
_Isometric
 70
     1
 71
     3
 10
0.0
 20
0.0
 11
0.0
 21
0.0
 12
0.0
 22
0.0
 32
0.0
 14
0.0
 24
0.0
 34
0.0
 15
0.0
 25
0.0
 35
0.0
146
0.0
 13
0.0
 23
0.0
 33
0.0
 16
1.0
 26
0.0
 36
0.0
 17
0.0
 27
1.0
 37
0.0
 76
     0
330
148
331
1C4
  0
LAYOUT
  5
1E
102
{ACAD_REACTORS
330
1A
102
}
330
1A
100
AcDbPlotSettings
  1

  2
none_device
  4
Letter_(8.50_x_11.00_Inches)
  6

 40
6.35
 41
6.35
 42
6.35001
 43
6.35001
 44
215.9
 45
279.4
 46
0.0
 47
0.0
 48
0.0
 49
0.0
140
0.0
141
0.0
142
1.0
143
0.869554083
 70
   688
 72
     0
 73
     1
 74
     1
  7

 75
     0
147
1.1500147254
148
0.0
149
41.5399049974
100
AcDbLayout
  1
_Left
 70
     1
 71
     1
 10
-0.2173888631
 20
-1.8528178514
 11
9.34770605
 21
5.5383918542
 12
0.0
 22
0.0
 32
0.0
 14
0.0
 24
-1.6354293306
 34
0.0
 15
9.1303175292
 25
1.062992126
 35
0.0
146
0.0
 13
0.0
 23
0.0
 33
0.0
 16
1.0
 26
0.0
 36
0.0
 17
0.0
 27
1.0
 37
0.0
 76
     0
330
1B
331
1C0
  0
LAYOUT
  5
26
102
{ACAD_REACTORS
330
1A
102
}
330
1A
100
AcDbPlotSettings
  1

  2
none_device
  4
Letter_(8.50_x_11.00_Inches)
  6

 40
6.35
 41
6.35
 42
6.35001
 43
6.35001
 44
215.9
 45
279.4
 46
0.0
 47
0.0
 48
0.0
 49
0.0
140
0.0
141
0.0
142
1.0
143
0.869554083
 70
   688
 72
     0
 73
     1
 74
     1
  7

 75
     0
147
1.1500147254
148
0.0
149
41.5399049974
100
AcDbLayout
  1
_Top
 70
     1
 71
     2
 10
0.0
 20
0.0
 11
0.0
 21
0.0
 12
0.0
 22
0.0
 32
0.0
 14
0.0
 24
0.0
 34
0.0
 15
0.0
 25
0.0
 35
0.0
146
0.0
 13
0.0
 23
0.0
 33
0.0
 16
1.0
 26
0.0
 36
0.0
 17
0.0
 27
1.0
 37
0.0
 76
     0
330
23
331
1C2
  0
LAYOUT
  5
22
102
{ACAD_REACTORS
330
1A
102
}
330
1A
100
AcDbPlotSettings
  1

  2
none_device
  4
ANSI_A_(11.00_x_8.50_Inches)
  6

 40
6.35
 41
19.05
 42
6.35000508
 43
19.05000254
 44
279.4
 45
215.9
 46
133.34999746
 47
95.7093815905
 48
0.0
 49
0.0
140
0.0
141
0.0
142
0.9376474576
143
1.0
 70
  1696
 72
     0
 73
     0
 74
     0
  7

 75
     0
147
0.5913241897
148
-39.4088153714
149
0.0
100
AcDbLayout
  1
Model
 70
     1
 71
     0
 10
0.0
 20
0.0
 11
12.0
 21
9.0
 12
0.0
 22
0.0
 32
0.0
 14
-5.8070866142
 24
-1.6348188551
 34
0.0
 15
5.8070866142
 25
1.062992126
 35
0.0
146
0.0
 13
0.0
 23
0.0
 33
0.0
 16
1.0
 26
0.0
 36
0.0
 17
0.0
 27
1.0
 37
0.0
 76
     0
330
1F
331
29
  0
MLINESTYLE
  5
18
102
{ACAD_REACTORS
330
17
102
}
330
17
100
AcDbMlineStyle
  2
Standard
 70
     0
  3

 62
   256
 51
90.0
 52
90.0
 71
     2
 49
0.5
 62
   256
  6
BYLAYER
 49
-0.5
 62
   256
  6
BYLAYER
  0
ACDBPLACEHOLDER
  5
F
102
{ACAD_REACTORS
330
E
102
}
330
E
  0
SCALE
  5
48
102
{ACAD_REACTORS
330
47
102
}
330
47
100
AcDbScale
 70
     0
300
1:1
140
1.0
141
1.0
290
     1
  0
SCALE
  5
49
102
{ACAD_REACTORS
330
47
102
}
330
47
100
AcDbScale
 70
     0
300
1:2
140
1.0
141
2.0
290
     0
  0
SCALE
  5
4A
102
{ACAD_REACTORS
330
47
102
}
330
47
100
AcDbScale
 70
     0
300
1:4
140
1.0
141
4.0
290
     0
  0
SCALE
  5
4B
102
{ACAD_REACTORS
330
47
102
}
330
47
100
AcDbScale
 70
     0
300
1:5
140
1.0
141
5.0
290
     0
  0
SCALE
  5
4C
102
{ACAD_REACTORS
330
47
102
}
330
47
100
AcDbScale
 70
     0
300
1:8
140
1.0
141
8.0
290
     0
  0
SCALE
  5
4D
102
{ACAD_REACTORS
330
47
102
}
330
47
100
AcDbScale
 70
     0
300
1:10
140
1.0
141
10.0
290
     0
  0
SCALE
  5
4E
102
{ACAD_REACTORS
330
47
102
}
330
47
100
AcDbScale
 70
     0
300
1:16
140
1.0
141
16.0
290
     0
  0
SCALE
  5
4F
102
{ACAD_REACTORS
330
47
102
}
330
47
100
AcDbScale
 70
     0
300
1:20
140
1.0
141
20.0
290
     0
  0
SCALE
  5
50
102
{ACAD_REACTORS
330
47
102
}
330
47
100
AcDbScale
 70
     0
300
1:30
140
1.0
141
30.0
290
     0
  0
SCALE
  5
51
102
{ACAD_REACTORS
330
47
102
}
330
47
100
AcDbScale
 70
     0
300
1:40
140
1.0
141
40.0
290
     0
  0
SCALE
  5
52
102
{ACAD_REACTORS
330
47
102
}
330
47
100
AcDbScale
 70
     0
300
1:50
140
1.0
141
50.0
290
     0
  0
SCALE
  5
53
102
{ACAD_REACTORS
330
47
102
}
330
47
100
AcDbScale
 70
     0
300
1:100
140
1.0
141
100.0
290
     0
  0
SCALE
  5
54
102
{ACAD_REACTORS
330
47
102
}
330
47
100
AcDbScale
 70
     0
300
2:1
140
2.0
141
1.0
290
     0
  0
SCALE
  5
55
102
{ACAD_REACTORS
330
47
102
}
330
47
100
AcDbScale
 70
     0
300
4:1
140
4.0
141
1.0
290
     0
  0
SCALE
  5
56
102
{ACAD_REACTORS
330
47
102
}
330
47
100
AcDbScale
 70
     0
300
8:1
140
8.0
141
1.0
290
     0
  0
SCALE
  5
57
102
{ACAD_REACTORS
330
47
102
}
330
47
100
AcDbScale
 70
     0
300
10:1
140
10.0
141
1.0
290
     0
  0
SCALE
  5
58
102
{ACAD_REACTORS
330
47
102
}
330
47
100
AcDbScale
 70
     0
300
100:1
140
100.0
141
1.0
290
     0
  0
SCALE
  5
59
102
{ACAD_REACTORS
330
47
102
}
330
47
100
AcDbScale
 70
     0
300
1/128" = 1'-0"
140
0.0078125
141
12.0
290
     0
  0
SCALE
  5
5A
102
{ACAD_REACTORS
330
47
102
}
330
47
100
AcDbScale
 70
     0
300
1/64" = 1'-0"
140
0.015625
141
12.0
290
     0
  0
SCALE
  5
5B
102
{ACAD_REACTORS
330
47
102
}
330
47
100
AcDbScale
 70
     0
300
1/32" = 1'-0"
140
0.03125
141
12.0
290
     0
  0
SCALE
  5
5C
102
{ACAD_REACTORS
330
47
102
}
330
47
100
AcDbScale
 70
     0
300
1/16" = 1'-0"
140
0.0625
141
12.0
290
     0
  0
SCALE
  5
5D
102
{ACAD_REACTORS
330
47
102
}
330
47
100
AcDbScale
 70
     0
300
3/32" = 1'-0"
140
0.09375
141
12.0
290
     0
  0
SCALE
  5
5E
102
{ACAD_REACTORS
330
47
102
}
330
47
100
AcDbScale
 70
     0
300
1/8" = 1'-0"
140
0.125
141
12.0
290
     0
  0
SCALE
  5
5F
102
{ACAD_REACTORS
330
47
102
}
330
47
100
AcDbScale
 70
     0
300
3/16" = 1'-0"
140
0.1875
141
12.0
290
     0
  0
SCALE
  5
60
102
{ACAD_REACTORS
330
47
102
}
330
47
100
AcDbScale
 70
     0
300
1/4" = 1'-0"
140
0.25
141
12.0
290
     0
  0
SCALE
  5
61
102
{ACAD_REACTORS
330
47
102
}
330
47
100
AcDbScale
 70
     0
300
3/8" = 1'-0"
140
0.375
141
12.0
290
     0
  0
SCALE
  5
62
102
{ACAD_REACTORS
330
47
102
}
330
47
100
AcDbScale
 70
     0
300
1/2" = 1'-0"
140
0.5
141
12.0
290
     0
  0
SCALE
  5
63
102
{ACAD_REACTORS
330
47
102
}
330
47
100
AcDbScale
 70
     0
300
3/4" = 1'-0"
140
0.75
141
12.0
290
     0
  0
SCALE
  5
64
102
{ACAD_REACTORS
330
47
102
}
330
47
100
AcDbScale
 70
     0
300
1" = 1'-0"
140
1.0
141
12.0
290
     0
  0
SCALE
  5
65
102
{ACAD_REACTORS
330
47
102
}
330
47
100
AcDbScale
 70
     0
300
1-1/2" = 1'-0"
140
1.5
141
12.0
290
     0
  0
SCALE
  5
66
102
{ACAD_REACTORS
330
47
102
}
330
47
100
AcDbScale
 70
     0
300
3" = 1'-0"
140
3.0
141
12.0
290
     0
  0
SCALE
  5
67
102
{ACAD_REACTORS
330
47
102
}
330
47
100
AcDbScale
 70
     0
300
6" = 1'-0"
140
6.0
141
12.0
290
     0
  0
SCALE
  5
68
102
{ACAD_REACTORS
330
47
102
}
330
47
100
AcDbScale
 70
     0
300
1'-0" = 1'-0"
140
12.0
141
12.0
290
     0
  0
ENDSEC
  0
EOF
