  0
SECTION
  2
HEADER
  9
$ACADVER
  1
AC1015
  9
$ACADMAINTVER
 70
     6
  9
$DWGCODEPAGE
  3
ANSI_1252
  9
$INSBASE
 10
0.0
 20
0.0
 30
0.0
  9
$EXTMIN
 10
-5.8070866142
 20
0.0
 30
0.0
  9
$EXTMAX
 10
5.8070866142
 20
8.5826771654
 30
0.0
  9
$LIMMIN
 10
0.0
 20
0.0
  9
$LIMMAX
 10
12.0
 20
9.0
  9
$ORTHOMODE
 70
     0
  9
$REGENMODE
 70
     1
  9
$FILLMODE
 70
     1
  9
$QTEXTMODE
 70
     0
  9
$MIRRTEXT
 70
     1
  9
$LTSCALE
 40
1.0
  9
$ATTMODE
 70
     1
  9
$TEXTSIZE
 40
0.1377952756
  9
$TRACEWID
 40
0.05
  9
$TEXTSTYLE
  7
Standard
  9
$CLAYER
  8
0
  9
$CELTYPE
  6
ByLayer
  9
$CECOLOR
 62
   256
  9
$CELTSCALE
 40
1.0
  9
$DISPSILH
 70
     0
  9
$DIMSCALE
 40
1.0
  9
$DIMASZ
 40
0.13
  9
$DIMEXO
 40
0.0393700787
  9
$DIMDLI
 40
0.38
  9
$DIMRND
 40
0.0
  9
$DIMDLE
 40
0.0
  9
$DIMEXE
 40
0.0393700787
  9
$DIMTP
 40
0.0
  9
$DIMTM
 40
0.0
  9
$DIMTXT
 40
0.1377952756
  9
$DIMCEN
 40
0.09
  9
$DIMTSZ
 40
0.0
  9
$DIMTOL
 70
     0
  9
$DIMLIM
 70
     0
  9
$DIMTIH
 70
     1
  9
$DIMTOH
 70
     1
  9
$DIMSE1
 70
     0
  9
$DIMSE2
 70
     0
  9
$DIMTAD
 70
     1
  9
$DIMZIN
 70
     1
  9
$DIMBLK
  1

  9
$DIMASO
 70
     1
  9
$DIMSHO
 70
     1
  9
$DIMPOST
  1

  9
$DIMAPOST
  1

  9
$DIMALT
 70
     0
  9
$DIMALTD
 70
     2
  9
$DIMALTF
 40
25.4
  9
$DIMLFAC
 40
1.0
  9
$DIMTOFL
 70
     0
  9
$DIMTVP
 40
0.0
  9
$DIMTIX
 70
     0
  9
$DIMSOXD
 70
     0
  9
$DIMSAH
 70
     0
  9
$DIMBLK1
  1

  9
$DIMBLK2
  1

  9
$DIMSTYLE
  2
Standard
  9
$DIMCLRD
 70
     0
  9
$DIMCLRE
 70
     0
  9
$DIMCLRT
 70
     0
  9
$DIMTFAC
 40
1.0
  9
$DIMGAP
 40
0.06
  9
$DIMJUST
 70
     0
  9
$DIMSD1
 70
     0
  9
$DIMSD2
 70
     0
  9
$DIMTOLJ
 70
     1
  9
$DIMTZIN
 70
     1
  9
$DIMALTZ
 70
     0
  9
$DIMALTTZ
 70
     0
  9
$DIMUPT
 70
     0
  9
$DIMDEC
 70
     2
  9
$DIMTDEC
 70
     2
  9
$DIMALTU
 70
     2
  9
$DIMALTTD
 70
     2
  9
$DIMTXSTY
  7
Standard
  9
$DIMAUNIT
 70
     0
  9
$DIMADEC
 70
     2
  9
$DIMALTRND
 40
0.0
  9
$DIMAZIN
 70
     0
  9
$DIMDSEP
 70
    46
  9
$DIMATFIT
 70
     3
  9
$DIMFRAC
 70
     0
  9
$DIMLDRBLK
  1

  9
$DIMLUNIT
 70
     2
  9
$DIMLWD
 70
    -2
  9
$DIMLWE
 70
    -2
  9
$DIMTMOVE
 70
     0
  9
$LUNITS
 70
     2
  9
$LUPREC
 70
     2
  9
$SKETCHINC
 40
0.1
  9
$FILLETRAD
 40
0.5
  9
$AUNITS
 70
     0
  9
$AUPREC
 70
     2
  9
$MENU
  1
.
  9
$ELEVATION
 40
0.0
  9
$PELEVATION
 40
0.0
  9
$THICKNESS
 40
0.0
  9
$LIMCHECK
 70
     0
  9
$CHAMFERA
 40
0.0
  9
$CHAMFERB
 40
0.0
  9
$CHAMFERC
 40
0.0
  9
$CHAMFERD
 40
0.0
  9
$SKPOLY
 70
     0
  9
$TDCREATE
 40
2460416.465284479
  9
$TDUCREATE
 40
2460416.423617812
  9
$TDUPDATE
 40
2460416.465325486
  9
$TDUUPDATE
 40
2460416.423658819
  9
$TDINDWG
 40
0.0000000116
  9
$TDUSRTIMER
 40
0.0000000116
  9
$USRTIMER
 70
     1
  9
$ANGBASE
 50
0.0
  9
$ANGDIR
 70
     0
  9
$PDMODE
 70
     0
  9
$PDSIZE
 40
-1.0
  9
$PLINEWID
 40
0.0
  9
$SPLFRAME
 70
     0
  9
$SPLINETYPE
 70
     6
  9
$SPLINESEGS
 70
     8
  9
$HANDSEED
  5
1D6
  9
$SURFTAB1
 70
     6
  9
$SURFTAB2
 70
     6
  9
$SURFTYPE
 70
     6
  9
$SURFU
 70
     6
  9
$SURFV
 70
     6
  9
$UCSBASE
  2

  9
$UCSNAME
  2

  9
$UCSORG
 10
0.0
 20
0.0
 30
0.0
  9
$UCSXDIR
 10
1.0
 20
0.0
 30
0.0
  9
$UCSYDIR
 10
0.0
 20
1.0
 30
0.0
  9
$UCSORTHOREF
  2

  9
$UCSORTHOVIEW
 70
     0
  9
$UCSORGTOP
 10
0.0
 20
0.0
 30
0.0
  9
$UCSORGBOTTOM
 10
0.0
 20
0.0
 30
0.0
  9
$UCSORGLEFT
 10
0.0
 20
0.0
 30
0.0
  9
$UCSORGRIGHT
 10
0.0
 20
0.0
 30
0.0
  9
$UCSORGFRONT
 10
0.0
 20
0.0
 30
0.0
  9
$UCSORGBACK
 10
0.0
 20
0.0
 30
0.0
  9
$PUCSBASE
  2

  9
$PUCSNAME
  2

  9
$PUCSORG
 10
0.0
 20
0.0
 30
0.0
  9
$PUCSXDIR
 10
1.0
 20
0.0
 30
0.0
  9
$PUCSYDIR
 10
0.0
 20
1.0
 30
0.0
  9
$PUCSORTHOREF
  2

  9
$PUCSORTHOVIEW
 70
     0
  9
$PUCSORGTOP
 10
0.0
 20
0.0
 30
0.0
  9
$PUCSORGBOTTOM
 10
0.0
 20
0.0
 30
0.0
  9
$PUCSORGLEFT
 10
0.0
 20
0.0
 30
0.0
  9
$PUCSORGRIGHT
 10
0.0
 20
0.0
 30
0.0
  9
$PUCSORGFRONT
 10
0.0
 20
0.0
 30
0.0
  9
$PUCSORGBACK
 10
0.0
 20
0.0
 30
0.0
  9
$USERI1
 70
     0
  9
$USERI2
 70
     0
  9
$USERI3
 70
     0
  9
$USERI4
 70
     0
  9
$USERI5
 70
     0
  9
$USERR1
 40
0.0
  9
$USERR2
 40
0.0
  9
$USERR3
 40
0.0
  9
$USERR4
 40
0.0
  9
$USERR5
 40
0.0
  9
$WORLDVIEW
 70
     1
  9
$SHADEDGE
 70
     3
  9
$SHADEDIF
 70
    70
  9
$TILEMODE
 70
     1
  9
$MAXACTVP
 70
    64
  9
$PINSBASE
 10
0.0
 20
0.0
 30
0.0
  9
$PLIMCHECK
 70
     0
  9
$PEXTMIN
 10
-1.1023622047
 20
0.0
 30
0.0
  9
$PEXTMAX
 10
5.5589140844
 20
8.5826771654
 30
0.0
  9
$PLIMMIN
 10
-1.3705713017
 20
-0.2682086746
  9
$PLIMMAX
 10
10.4306103814
 20
8.8508862623
  9
$UNITMODE
 70
     0
  9
$VISRETAIN
 70
     1
  9
$PLINEGEN
 70
     0
  9
$PSLTSCALE
 70
     1
  9
$TREEDEPTH
 70
  3020
  9
$CMLSTYLE
  2
Standard
  9
$CMLJUST
 70
     0
  9
$CMLSCALE
 40
1.0
  9
$PROXYGRAPHICS
 70
     1
  9
$MEASUREMENT
 70
     0
  9
$CELWEIGHT
370
    -1
  9
$ENDCAPS
280
     0
  9
$JOINSTYLE
280
     0
  9
$LWDISPLAY
290
     1
  9
$INSUNITS
 70
     1
  9
$HYPERLINKBASE
  1

  9
$STYLESHEET
  1

  9
$XEDIT
290
     1
  9
$CEPSNTYPE
380
     0
  9
$PSTYLEMODE
290
     1
  9
$FINGERPRINTGUID
  2
{63c9c303-1e27-4f03-a941-6112e2415b83}
  9
$VERSIONGUID
  2
{FAEB1C32-E019-11D5-929B-00C0DF256EC4}
  9
$EXTNAMES
290
     1
  9
$PSVPSCALE
 40
0.0
  9
$OLESTARTUP
290
     0
  0
ENDSEC
  0
SECTION
  2
CLASSES
  0
CLASS
  1
ACDBDICTIONARYWDFLT
  2
AcDbDictionaryWithDefault
  3
ObjectDBX Classes
 90
        0
280
     0
281
     0
  0
CLASS
  1
VISUALSTYLE
  2
AcDbVisualStyle
  3
ObjectDBX Classes
 90
     4095
280
     0
281
     0
  0
CLASS
  1
MATERIAL
  2
AcDbMaterial
  3
ObjectDBX Classes
 90
     1153
280
     0
281
     0
  0
CLASS
  1
SCALE
  2
AcDbScale
  3
ObjectDBX Classes
 90
     1153
280
     0
281
     0
  0
CLASS
  1
TABLESTYLE
  2
AcDbTableStyle
  3
ObjectDBX Classes
 90
     4095
280
     0
281
     0
  0
CLASS
  1
MLEADERSTYLE
  2
AcDbMLeaderStyle
  3
ACDB_MLEADERSTYLE_CLASS
 90
     4095
280
     0
281
     0
  0
CLASS
  1
SUN
  2
AcDbSun
  3
SCENEOE
 90
     1153
280
     0
281
     0
  0
CLASS
  1
ACDBPLACEHOLDER
  2
AcDbPlaceHolder
  3
ObjectDBX Classes
 90
        0
280
     0
281
     0
  0
CLASS
  1
LAYOUT
  2
AcDbLayout
  3
ObjectDBX Classes
 90
        0
280
     0
281
     0
  0
ENDSEC
  0
SECTION
  2
TABLES
  0
TABLE
  2
VPORT
  5
8
330
0
100
AcDbSymbolTable
 70
     1
  0
VPORT
  5
29
330
8
100
AcDbSymbolTableRecord
100
AcDbViewportTableRecord
  2
*Active
 70
     0
 10
0.0
 20
0.0
 11
1.0
 21
1.0
 12
0.0
 22
4.2913385827
 13
0.0
 23
0.0
 14
0.5
 24
0.5
 15
0.5
 25
0.5
 16
0.0
 26
0.0
 36
1.0
 17
0.0
 27
0.0
 37
0.0
 40
8.7543307087
 41
1.3532110092
 42
50.0
 43
0.0
 44
0.0
 50
0.0
 51
0.0
 71
     0
 72
   100
 73
     1
 74
     3
 75
     0
 76
     0
 77
     0
 78
     0
281
     0
 65
     1
110
0.0
120
0.0
130
0.0
111
1.0
121
0.0
131
0.0
112
0.0
122
1.0
132
0.0
 79
     0
146
0.0
  0
ENDTAB
  0
TABLE
  2
LTYPE
  5
5
330
0
100
AcDbSymbolTable
 70
     6
  0
LTYPE
  5
14
330
5
100
AcDbSymbolTableRecord
100
AcDbLinetypeTableRecord
  2
ByBlock
 70
     0
  3

 72
    65
 73
     0
 40
0.0
  0
LTYPE
  5
15
330
5
100
AcDbSymbolTableRecord
100
AcDbLinetypeTableRecord
  2
ByLayer
 70
     0
  3

 72
    65
 73
     0
 40
0.0
  0
LTYPE
  5
16
330
5
100
AcDbSymbolTableRecord
100
AcDbLinetypeTableRecord
  2
Continuous
 70
     0
  3
Solid line
 72
    65
 73
     0
 40
0.0
  0
LTYPE
  5
6E
330
5
100
AcDbSymbolTableRecord
100
AcDbLinetypeTableRecord
  2
HIDDEN
 70
     0
  3
Hidden __ __ __ __ __ __ __ __ __ __ __ __ __ __
 72
    65
 73
     2
 40
0.075
 49
0.05
 74
     0
 49
-0.025
 74
     0
  0
LTYPE
  5
6F
330
5
100
AcDbSymbolTableRecord
100
AcDbLinetypeTableRecord
  2
PHANTOM
 70
     0
  3
Phantom ______  __  __  ______  __  __  ______
 72
    65
 73
     6
 40
0.5
 49
0.25
 74
     0
 49
-0.05
 74
     0
 49
0.05
 74
     0
 49
-0.05
 74
     0
 49
0.05
 74
     0
 49
-0.05
 74
     0
  0
LTYPE
  5
70
330
5
100
AcDbSymbolTableRecord
100
AcDbLinetypeTableRecord
  2
CENTER
 70
     0
  3
Center ____ _ ____ _ ____ _ ____ _ ____ _ ____
 72
    65
 73
     4
 40
0.4
 49
0.25
 74
     0
 49
-0.05
 74
     0
 49
0.05
 74
     0
 49
-0.05
 74
     0
  0
LTYPE
  5
71
330
5
100
AcDbSymbolTableRecord
100
AcDbLinetypeTableRecord
  2
CENTERX2
 70
     0
  3
Center (2x) ________  __  ________  __  _____
 72
    65
 73
     4
 40
0.8
 49
0.5
 74
     0
 49
-0.1
 74
     0
 49
0.1
 74
     0
 49
-0.1
 74
     0
  0
LTYPE
  5
72
330
5
100
AcDbSymbolTableRecord
100
AcDbLinetypeTableRecord
  2
DOT2
 70
     0
  3
Dot (.5x) ........................................
 72
    65
 73
     2
 40
0.025
 49
0.0
 74
     0
 49
-0.025
 74
     0
  0
ENDTAB
  0
TABLE
  2
LAYER
  5
2
330
0
100
AcDbSymbolTable
 70
     1
  0
LAYER
  5
10
330
2
100
AcDbSymbolTableRecord
100
AcDbLayerTableRecord
  2
0
 70
     0
 62
     7
  6
Continuous
370
    -3
390
F
  0
ENDTAB
  0
TABLE
  2
STYLE
  5
3
330
0
100
AcDbSymbolTable
 70
     1
  0
STYLE
  5
11
330
3
100
AcDbSymbolTableRecord
100
AcDbTextStyleTableRecord
  2
Standard
 70
     0
 40
0.0
 41
1.0
 50
0.0
 71
     0
 42
0.1377952756
  3
txt
  4

  0
ENDTAB
  0
TABLE
  2
VIEW
  5
6
330
0
100
AcDbSymbolTable
 70
     0
  0
ENDTAB
  0
TABLE
  2
UCS
  5
7
330
0
100
AcDbSymbolTable
 70
     0
  0
ENDTAB
  0
TABLE
  2
APPID
  5
9
330
0
100
AcDbSymbolTable
 70
     1
  0
APPID
  5
12
330
9
100
AcDbSymbolTableRecord
100
AcDbRegAppTableRecord
  2
ACAD
 70
     0
  0
ENDTAB
  0
TABLE
  2
DIMSTYLE
  5
A
330
0
100
AcDbSymbolTable
 70
     1
100
AcDbDimStyleTable
  0
DIMSTYLE
105
27
330
A
100
AcDbSymbolTableRecord
100
AcDbDimStyleTableRecord
  2
Standard
 70
     0
178
     0
340
11
  0
ENDTAB
  0
TABLE
  2
BLOCK_RECORD
  5
1
330
0
100
AcDbSymbolTable
 70
     2
  0
BLOCK_RECORD
  5
1F
330
1
100
AcDbSymbolTableRecord
100
AcDbBlockTableRecord
  2
*Model_Space
340
22
  0
BLOCK_RECORD
  5
1B
330
1
100
AcDbSymbolTableRecord
100
AcDbBlockTableRecord
  2
*Paper_Space
340
1E
  0
BLOCK_RECORD
  5
23
330
1
100
AcDbSymbolTableRecord
100
AcDbBlockTableRecord
  2
*Paper_Space0
340
26
  0
BLOCK_RECORD
  5
15E
330
1
100
AcDbSymbolTableRecord
100
AcDbBlockTableRecord
  2
*Paper_Space1
340
15F
  0
ENDTAB
  0
ENDSEC
  0
SECTION
  2
BLOCKS
  0
BLOCK
  5
20
330
1F
100
AcDbEntity
  8
0
100
AcDbBlockBegin
  2
*Model_Space
 70
     0
 10
0.0
 20
0.0
 30
0.0
  3
*Model_Space
  1

  0
ENDBLK
  5
21
330
1F
100
AcDbEntity
  8
0
100
AcDbBlockEnd
  0
BLOCK
  5
1C
330
1B
100
AcDbEntity
 67
     1
  8
0
100
AcDbBlockBegin
  2
*Paper_Space
 70
     0
 10
0.0
 20
0.0
 30
0.0
  3
*Paper_Space
  1

  0
ENDBLK
  5
1D
330
1B
100
AcDbEntity
 67
     1
  8
0
100
AcDbBlockEnd
  0
BLOCK
  5
24
330
23
100
AcDbEntity
  8
0
100
AcDbBlockBegin
  2
*Paper_Space0
 70
     0
 10
0.0
 20
0.0
 30
0.0
  3
*Paper_Space0
  1

  0
CIRCLE
  5
133
330
23
100
AcDbEntity
  8
0
  6
Continuous
 62
     7
370
    25
100
AcDbCircle
 10
-3.937007874
 20
0.0
 30
0.0
 40
0.6889763779527587
  0
CIRCLE
  5
137
330
23
100
AcDbEntity
  8
0
  6
Continuous
 62
     7
370
    25
100
AcDbCircle
 10
3.937007874
 20
0.0
 30
0.0
 40
0.6889763779527587
  0
LINE
  5
146
330
23
100
AcDbEntity
  8
0
  6
Continuous
 62
     7
370
    25
100
AcDbLine
 10
-5.7992125984
 20
-0.157480315
 30
0.0
 11
-4.6077450802
 21
-0.157480315
 31
0.0
  0
LINE
  5
147
330
23
100
AcDbEntity
  8
0
  6
Continuous
 62
     7
370
    25
100
AcDbLine
 10
-4.60822828
 20
0.157480315
 30
0.0
 11
-5.7992125984
 21
0.157480315
 31
0.0
  0
LINE
  5
148
330
23
100
AcDbEntity
  8
0
  6
Continuous
 62
     7
370
    25
100
AcDbLine
 10
5.7992125984
 20
0.157480315
 30
0.0
 11
4.6077450802
 21
0.157480315
 31
0.0
  0
LINE
  5
149
330
23
100
AcDbEntity
  8
0
  6
Continuous
 62
     7
370
    25
100
AcDbLine
 10
4.6078258857
 20
-0.157480315
 30
0.0
 11
5.7992125984
 21
-0.157480315
 31
0.0
  0
LINE
  5
14A
330
23
100
AcDbEntity
  8
0
  6
Continuous
 62
     7
370
    25
100
AcDbLine
 10
-0.3937007874
 20
0.0
 30
0.0
 11
-0.3937007874
 21
-5.1817620339
 31
0.0
  0
LINE
  5
14B
330
23
100
AcDbEntity
  8
0
  6
Continuous
 62
     7
370
    25
100
AcDbLine
 10
0.3937007874
 20
-5.1817620339
 30
0.0
 11
0.3937007874
 21
0.0
 31
0.0
  0
LINE
  5
14C
330
23
100
AcDbEntity
  8
0
  6
Continuous
 62
     7
370
    25
100
AcDbLine
 10
-5.8070866142
 20
-0.1496062992
 30
0.0
 11
-5.8070866142
 21
0.1496062812
 31
0.0
  0
LINE
  5
14D
330
23
100
AcDbEntity
  8
0
  6
Continuous
 62
     7
370
    25
100
AcDbLine
 10
5.8070866142
 20
0.1496062992
 30
0.0
 11
5.8070866142
 21
-0.1496062812
 31
0.0
  0
LINE
  5
14E
330
23
100
AcDbEntity
  8
0
  6
Continuous
 62
     8
370
    25
100
AcDbLine
 10
-5.7992125984
 20
0.157480315
 30
0.0
 11
-5.7992125984
 21
-0.157480315
 31
0.0
  0
LINE
  5
14F
330
23
100
AcDbEntity
  8
0
  6
Continuous
 62
     8
370
    25
100
AcDbLine
 10
5.7992125984
 20
-0.157480315
 30
0.0
 11
5.7992125984
 21
0.157480315
 31
0.0
  0
ARC
  5
150
330
23
100
AcDbEntity
  8
0
  6
Continuous
 62
     7
370
    25
100
AcDbCircle
 10
-5.7992125984
 20
-0.1496062992
 30
0.0
 40
0.0078740157480306
100
AcDbArc
 50
180.0
 51
270.0
  0
ARC
  5
151
330
23
100
AcDbEntity
  8
0
  6
Continuous
 62
     7
370
    25
100
AcDbCircle
 10
-5.7992125984
 20
0.1496062992
 30
0.0
 40
0.0078740157480315
100
AcDbArc
 50
90.0
 51
180.0
  0
ARC
  5
152
330
23
100
AcDbEntity
  8
0
  6
Continuous
 62
     7
370
    25
100
AcDbCircle
 10
5.7992125984
 20
0.1496062992
 30
0.0
 40
0.0078740157480306
100
AcDbArc
 50
360.0
 51
90.0
  0
ARC
  5
153
330
23
100
AcDbEntity
  8
0
  6
Continuous
 62
     7
370
    25
100
AcDbCircle
 10
5.7992125984
 20
-0.1496062992
 30
0.0
 40
0.0078740157480309
100
AcDbArc
 50
270.0
 51
0.0
  0
ARC
  5
154
330
23
100
AcDbEntity
  8
0
  6
Continuous
 62
     7
370
    25
100
AcDbCircle
 10
-3.937007874
 20
0.0
 30
0.0
 40
1.062992125984253
100
AcDbArc
 50
188.5196242541
 51
171.4803757459
  0
ARC
  5
155
330
23
100
AcDbEntity
  8
0
  6
Continuous
 62
     7
370
    25
100
AcDbCircle
 10
3.937007874
 20
0.0
 30
0.0
 40
1.062992125984252
100
AcDbArc
 50
8.5196242541
 51
351.4803757459
  0
ARC
  5
156
330
23
100
AcDbEntity
  8
0
  6
Continuous
 62
     7
370
    25
100
AcDbCircle
 10
0.0
 20
0.0
 30
0.0
 40
1.10236220472441
100
AcDbArc
 50
290.9248324276
 51
249.0751675724
  0
ARC
  5
157
330
23
100
AcDbEntity
  8
0
  6
Continuous
 62
     7
370
    25
100
AcDbCircle
 10
0.0
 20
0.0
 30
0.0
 40
0.3976377952755906
100
AcDbArc
 50
351.9306988406
 51
188.0693011594
  0
ARC
  5
158
330
23
100
AcDbEntity
  8
0
  6
Continuous
 62
     7
370
    25
100
AcDbCircle
 10
0.0
 20
0.0
 30
0.0
 40
0.3937007874015768
100
AcDbArc
 50
0.0
 51
180.0
  0
ARC
  5
159
330
23
100
AcDbEntity
  8
0
  6
Continuous
 62
     7
370
    25
100
AcDbCircle
 10
0.0087677723
 20
-5.1740027189
 30
0.0
 40
0.3850112116243462
100
AcDbArc
 50
268.6951035079
 51
358.8452125921
  0
ARC
  5
15A
330
23
100
AcDbEntity
  8
0
  6
Continuous
 62
     7
370
    25
100
AcDbCircle
 10
-0.0087677723
 20
-5.1740027189
 30
0.0
 40
0.385011211624349
100
AcDbArc
 50
181.1547874079
 51
271.3048964921
  0
ARC
  5
15B
330
23
100
AcDbEntity
  8
0
  6
Continuous
 62
     8
370
    25
100
AcDbCircle
 10
0.0
 20
0.0
 30
0.0
 40
1.062992125984253
100
AcDbArc
 50
291.7384607915
 51
248.2615392085
  0
ARC
  5
15C
330
23
100
AcDbEntity
  8
0
  6
Continuous
 62
     8
370
    25
100
AcDbCircle
 10
0.0087677723
 20
-4.6173577124
 30
0.0
 40
0.3850112116243462
100
AcDbArc
 50
268.6951035079
 51
358.8452125921
  0
ARC
  5
15D
330
23
100
AcDbEntity
  8
0
  6
Continuous
 62
     8
370
    25
100
AcDbCircle
 10
-0.0087677723
 20
-4.6173577124
 30
0.0
 40
0.3850112116243499
100
AcDbArc
 50
181.1547874079
 51
271.3048964921
  0
VIEWPORT
  5
1D2
330
23
100
AcDbEntity
  8
0
100
AcDbViewport
 10
0.0
 20
0.0
 30
0.0
 40
8.4
 41
6.4
 68
     1
 69
     1
 12
0.0
 22
4.2913385827
 13
0.0
 23
0.0
 14
0.5
 24
0.5
 15
0.5
 25
0.5
 16
0.0
 26
0.0
 36
1.0
 17
0.0
 27
0.0
 37
0.0
 42
50.0
 43
0.0
 44
0.0
 45
9.025871766
 50
0.0
 51
0.0
 72
   100
 90
   557152
  1

281
     0
 71
     1
 74
     0
110
0.0
120
0.0
130
0.0
111
1.0
121
0.0
131
0.0
112
0.0
122
1.0
132
0.0
 79
     0
146
0.0
  0
ENDBLK
  5
25
330
23
100
AcDbEntity
  8
0
100
AcDbBlockEnd
  0
BLOCK
  5
160
330
15E
100
AcDbEntity
  8
0
100
AcDbBlockBegin
  2
*Paper_Space1
 70
     0
 10
0.0
 20
0.0
 30
0.0
  3
*Paper_Space1
  1

  0
SPLINE
  5
170
330
15E
100
AcDbEntity
  8
0
  6
Continuous
 62
     7
370
    25
100
AcDbSpline
210
0.0
220
0.0
230
1.0
 70
     8
 71
     3
 72
    18
 73
    14
 74
     0
 42
0.000000001
 43
0.00000001
 40
0.0
 40
0.0
 40
0.0
 40
0.0
 40
0.0500875243545086
 40
0.1432127571312935
 40
0.2371023464174813
 40
0.331719287102703
 40
0.4268939826315891
 40
0.5224196836192224
 40
0.6181188513993456
 40
0.7138600613767124
 40
0.8095634932909189
 40
0.9052034019846892
 40
1.0
 40
1.0
 40
1.0
 40
1.0
 10
1.076880609752393
 20
0.2980415385092947
 30
0.0
 10
1.073165442848104
 20
0.3089682353724301
 30
0.0
 10
1.062542851645544
 20
0.3402103940591286
 30
0.0
 10
1.034669605136614
 20
0.3899376370013478
 30
0.0
 10
0.9943138022398821
 20
0.4468299679744469
 30
0.0
 10
0.9445418416288739
 20
0.5011244396480555
 30
0.0
 10
0.8863567390828716
 20
0.552411411797441
 30
0.0
 10
0.8201358326789933
 20
0.6001673241515183
 30
0.0
 10
0.7465579698421583
 20
0.6439360796278982
 30
0.0
 10
0.6663491346918955
 20
0.6833563738377344
 30
0.0
 10
0.5801845450832636
 20
0.7179592358292418
 30
0.0
 10
0.4894264549486391
 20
0.7478856643482695
 30
0.0
 10
0.4255150034792444
 20
0.7633829687841358
 30
0.0
 10
0.3937007874015749
 20
0.7710973076171412
 30
0.0
  0
SPLINE
  5
171
330
15E
100
AcDbEntity
  8
0
  6
Continuous
 62
     7
370
    25
100
AcDbSpline
210
0.0
220
0.0
230
1.0
 70
     8
 71
     3
 72
    19
 73
    15
 74
     0
 42
0.000000001
 43
0.00000001
 40
0.0
 40
0.0
 40
0.0
 40
0.0
 40
0.0245676283125696
 40
0.1199891713988162
 40
0.2154941075681353
 40
0.3110956207926993
 40
0.4067996542922474
 40
0.5025983011453473
 40
0.5984592278959207
 40
0.6942777077915327
 40
0.7899043116694104
 40
0.8851299282800859
 40
0.9797192748312156
 40
1.0
 40
1.0
 40
1.0
 40
1.0
 10
-0.3937007874015752
 20
0.7705318142036874
 30
0.0
 10
-0.4021369420167546
 20
0.7688136241368944
 30
0.0
 10
-0.4433394215230794
 20
0.760421922675231
 30
0.0
 10
-0.513803065314488
 20
0.7399813937530779
 30
0.0
 10
-0.6039303742448753
 20
0.7092621211240848
 30
0.0
 10
-0.6885158291677979
 20
0.6731737251999145
 30
0.0
 10
-0.7671506377125991
 20
0.6325285913725065
 30
0.0
 10
-0.8390251009286646
 20
0.5874784098867526
 30
0.0
 10
-0.9035019268539607
 20
0.5384074929553669
 30
0.0
 10
-0.9598504840980228
 20
0.4856869552219396
 30
0.0
 10
-1.007761908086426
 20
0.4298278020778385
 30
0.0
 10
-1.045632684188318
 20
0.3712031237272161
 30
0.0
 10
-1.068885917527187
 20
0.3266501808175576
 30
0.0
 10
-1.076325962851785
 20
0.3013939328444821
 30
0.0
 10
-1.07763952966873
 20
0.2969348512380428
 30
0.0
  0
SPLINE
  5
174
330
15E
100
AcDbEntity
  8
0
  6
Continuous
 62
     7
370
    25
100
AcDbSpline
210
0.0
220
0.0
230
1.0
 70
     8
 71
     3
 72
    55
 73
    51
 74
     0
 42
0.000000001
 43
0.00000001
 40
0.0
 40
0.0
 40
0.0
 40
0.0
 40
0.01176920443007
 40
0.0337103723401699
 40
0.0556617858608674
 40
0.0775574154919384
 40
0.0993433591147624
 40
0.1209582866061734
 40
0.1423403895970889
 40
0.163436669446967
 40
0.1842119888997886
 40
0.2046551214271515
 40
0.2247803197271796
 40
0.2446248324207744
 40
0.2642440238642041
 40
0.2837058216374825
 40
0.3030855579404917
 40
0.3224459932467735
 40
0.3418552791295307
 40
0.361388068090147
 40
0.3811111392550556
 40
0.4010792539726599
 40
0.4213309386251782
 40
0.4418848560978499
 40
0.4627378314183929
 40
0.4838656414624763
 40
0.5052270838584902
 40
0.526770699659339
 40
0.5484424482343878
 40
0.5701923459297863
 40
0.5919787488772188
 40
0.6137634623032258
 40
0.6355260087074642
 40
0.6572552457479495
 40
0.6789459449087328
 40
0.7005971624806847
 40
0.722210928556803
 40
0.7437912665462292
 40
0.7653434967837743
 40
0.7868737619839092
 40
0.8083887156727553
 40
0.829895324711183
 40
0.8514007474580964
 40
0.8729112561315485
 40
0.8944327625285474
 40
0.915972626888442
 40
0.9375381628791678
 40
0.9591365286258091
 40
0.9807745486056768
 40
1.0
 40
1.0
 40
1.0
 40
1.0
 10
0.3937007874015749
 20
4.757796856657124
 30
0.0
 10
0.3934736882544588
 20
4.783364208163371
 30
0.0
 10
0.3928232112529831
 20
4.85659642569759
 30
0.0
 10
0.3856236838389553
 20
4.975020518001365
 30
0.0
 10
0.3694572146341696
 20
5.11145381474477
 30
0.0
 10
0.3450450055185846
 20
5.243454744091753
 30
0.0
 10
0.3125316350965724
 20
5.370343630074666
 30
0.0
 10
0.2719773298809091
 20
5.491410482292969
 30
0.0
 10
0.2235948149342763
 20
5.605982680067758
 30
0.0
 10
0.1676887696554074
 20
5.71344372838688
 30
0.0
 10
0.1046534125326276
 20
5.81327332228143
 30
0.0
 10
0.0349394943348789
 20
5.905064069901552
 30
0.0
 10
-0.040976430216816
 20
5.988520561904374
 30
0.0
 10
-0.1226196149700618
 20
6.063442450554368
 30
0.0
 10
-0.2095364871564672
 20
6.129700139465089
 30
0.0
 10
-0.3013065849041119
 20
6.187210054636235
 30
0.0
 10
-0.3975232602108406
 20
6.235900353605937
 30
0.0
 10
-0.4978006421571152
 20
6.275711145717953
 30
0.0
 10
-0.601791222448105
 20
6.306595596674955
 30
0.0
 10
-0.7092131737929099
 20
6.328510833609742
 30
0.0
 10
-0.8198305934991807
 20
6.341396742121645
 30
0.0
 10
-0.9334137737927399
 20
6.345168182448432
 30
0.0
 10
-1.049712467382951
 20
6.339723558065424
 30
0.0
 10
-1.16842863248527
 20
6.324963295080163
 30
0.0
 10
-1.289195347129581
 20
6.300816161617957
 30
0.0
 10
-1.411568667251537
 20
6.267267939538687
 30
0.0
 10
-1.535036131418713
 20
6.224384775579113
 30
0.0
 10
-1.659040044485204
 20
6.172324444190886
 30
0.0
 10
-1.783008324713618
 20
6.111332946152013
 30
0.0
 10
-1.906383641544434
 20
6.041729219079079
 30
0.0
 10
-2.028631478907573
 20
5.963892068579659
 30
0.0
 10
-2.149264965219286
 20
5.878233919482953
 30
0.0
 10
-2.267846788713832
 20
5.785182647687186
 30
0.0
 10
-2.383993448224862
 20
5.685160099867827
 30
0.0
 10
-2.497351167908282
 20
5.578587953460349
 30
0.0
 10
-2.607585747918431
 20
5.465889491333566
 30
0.0
 10
-2.714377175601693
 20
5.347490565495145
 30
0.0
 10
-2.817416050845215
 20
5.223820918601371
 30
0.0
 10
-2.916401531884848
 20
5.095315323565358
 30
0.0
 10
-3.011040396077743
 20
4.962414294449842
 30
0.0
 10
-3.101046885417267
 20
4.825564289816237
 30
0.0
 10
-3.186142875514137
 20
4.685217454720407
 30
0.0
 10
-3.266057464322224
 20
4.541833116392124
 30
0.0
 10
-3.340526118390692
 20
4.395878159020167
 30
0.0
 10
-3.40929833095116
 20
4.247821958028843
 30
0.0
 10
-3.472120197984013
 20
4.098135110024637
 30
0.0
 10
-3.528803620643549
 20
3.947277025270153
 30
0.0
 10
-3.578964604964197
 20
3.795735125701099
 30
0.0
 10
-3.62132648679373
 20
3.649636111425465
 30
0.0
 10
-3.643888494976609
 20
3.554527245893554
 30
0.0
 10
-3.654503471558169
 20
3.509780414311157
 30
0.0
  0
SPLINE
  5
175
330
15E
100
AcDbEntity
  8
0
  6
Continuous
 62
     7
370
    25
100
AcDbSpline
210
0.0
220
0.0
230
1.0
 70
     8
 71
     3
 72
    50
 73
    46
 74
     0
 42
0.000000001
 43
0.00000001
 40
0.0
 40
0.0
 40
0.0
 40
0.0
 40
0.0120566982112481
 40
0.035250675418028
 40
0.0585032185909631
 40
0.0818152657529295
 40
0.1051770266881712
 40
0.128578151384746
 40
0.1520079800614015
 40
0.1754556943806903
 40
0.1989103983455429
 40
0.2223595377789347
 40
0.2457901326543052
 40
0.2691912327996548
 40
0.292551939579042
 40
0.3158614988289545
 40
0.339109472251866
 40
0.3622860236533226
 40
0.3853823694605691
 40
0.4083914595707235
 40
0.431308976864991
 40
0.4541347735980757
 40
0.476874903586313
 40
0.4995444667019289
 40
0.5221715682312225
 40
0.5447956026765381
 40
0.5674699393979997
 40
0.5902908069366324
 40
0.6134009227975071
 40
0.6370091310577444
 40
0.6614182123718609
 40
0.6870583350146474
 40
0.7144894223100445
 40
0.7441641658438007
 40
0.7718987054071207
 40
0.7975073121412442
 40
0.8215676205944397
 40
0.8471173532920262
 40
0.8714648934281787
 40
0.8950496842541965
 40
0.9181934050954238
 40
0.941099299503786
 40
0.9638970333853714
 40
0.9866692640270761
 40
1.0
 40
1.0
 40
1.0
 40
1.0
 10
-2.886399756085769
 20
3.336523604113189
 30
0.0
 10
-2.881483824618285
 20
3.357635509942911
 30
0.0
 10
-2.867110909123403
 20
3.41936127655165
 30
0.0
 10
-2.838611210977922
 20
3.523285478715367
 30
0.0
 10
-2.798940536051318
 20
3.648280443394501
 30
0.0
 10
-2.75323084882673
 20
3.774152745057655
 30
0.0
 10
-2.701767034101441
 20
3.900177612834203
 30
0.0
 10
-2.644750087036722
 20
4.025668591682381
 30
0.0
 10
-2.582460330725584
 20
4.1499323552178
 30
0.0
 10
-2.51520897657903
 20
4.272290917470981
 30
0.0
 10
-2.443349924786309
 20
4.392077899264413
 30
0.0
 10
-2.36727536107062
 20
4.508643292538734
 30
0.0
 10
-2.287412912481232
 20
4.621360854593885
 30
0.0
 10
-2.204221264614481
 20
4.729634711355303
 30
0.0
 10
-2.118187309743979
 20
4.832903488879156
 30
0.0
 10
-2.029826432742375
 20
4.930641242923124
 30
0.0
 10
-1.9396804618247
 20
5.022362130153122
 30
0.0
 10
-1.84831528519653
 20
5.107625569581344
 30
0.0
 10
-1.756317933084475
 20
5.186041956197782
 30
0.0
 10
-1.664292844036988
 20
5.25727895807794
 30
0.0
 10
-1.572856948637739
 20
5.321068359538386
 30
0.0
 10
-1.482633092632963
 20
5.37721329934148
 30
0.0
 10
-1.394241184066434
 20
5.425595569625587
 30
0.0
 10
-1.308286279859859
 20
5.466182354088443
 30
0.0
 10
-1.225351428267731
 20
5.499027846356587
 30
0.0
 10
-1.145988583590312
 20
5.524274864819148
 30
0.0
 10
-1.07067625871537
 20
5.542163246619056
 30
0.0
 10
-0.9997733037858189
 20
5.553019404979032
 30
0.0
 10
-0.9334600246962781
 20
5.557223344153905
 30
0.0
 10
-0.8716846798104553
 20
5.555142222203044
 30
0.0
 10
-0.8140843505013009
 20
5.547013998223605
 30
0.0
 10
-0.7599137761519335
 20
5.532745859040516
 30
0.0
 10
-0.708114038026608
 20
5.511630908541449
 30
0.0
 10
-0.6598761762218834
 20
5.483428860010678
 30
0.0
 10
-0.6157519476335279
 20
5.448353008795224
 30
0.0
 10
-0.5765117669322131
 20
5.407829462890437
 30
0.0
 10
-0.5400816110154917
 20
5.360239172009647
 30
0.0
 10
-0.5063724420255074
 20
5.304558369435651
 30
0.0
 10
-0.4757750616253708
 20
5.239879965792154
 30
0.0
 10
-0.4496739921944337
 20
5.168578140896075
 30
0.0
 10
-0.4281752861190891
 20
5.090600359412166
 30
0.0
 10
-0.4114753898443518
 20
5.006034531923533
 30
0.0
 10
-0.3999664988677719
 20
4.914998354760892
 30
0.0
 10
-0.3944333879253577
 20
4.831574040682407
 30
0.0
 10
-0.3938983470348814
 20
4.777692274349638
 30
0.0
 10
-0.393700787401575
 20
4.757796856657124
 30
0.0
  0
LWPOLYLINE
  5
17A
330
15E
100
AcDbEntity
  8
0
  6
Continuous
 62
     7
370
    25
100
AcDbPolyline
 90
       29
 70
   128
 43
0.0
 10
-2.9921967112
 20
2.8674913382
 10
-2.9341805056
 20
2.8584548736
 10
-2.8487233701
 20
2.8506412379
 10
-2.7622436943
 20
2.8490723239
 10
-2.6761053142
 20
2.8537728742
 10
-2.5916666836
 20
2.8646687584
 10
-2.5102594501
 20
2.8815881419
 10
-2.4331674544
 20
2.9042641959
 10
-2.3616064835
 20
2.9323393055
 10
-2.2967050964
 20
2.9653707094
 10
-2.2394868269
 20
3.0028374827
 10
-2.1908540412
 20
3.0441487519
 10
-2.1515737074
 20
3.0886530137
 10
-2.1222653
 20
3.1356484092
 10
-2.1033910299
 20
3.1843937931
 10
-2.0952485556
 20
3.2341204215
 10
-2.0979662889
 20
3.2840440757
 10
-2.1115013695
 20
3.3333774299
 10
-2.135640341
 20
3.3813424677
 10
-2.1700025175
 20
3.4271827517
 10
-2.214045987
 20
3.4701753533
 10
-2.2670761575
 20
3.5096422534
 10
-2.3282567116
 20
3.5449610356
 10
-2.3966227955
 20
3.5755747014
 10
-2.4710962352
 20
3.6010004551
 10
-2.5505025399
 20
3.6208373173
 10
-2.633589425
 20
3.634772449
 10
-2.7190465605
 20
3.6425860847
 10
-2.7993295953
 20
3.6442513117
  0
LWPOLYLINE
  5
17B
330
15E
100
AcDbEntity
  8
0
  6
Continuous
 62
     7
370
    25
100
AcDbPolyline
 90
       20
 70
   128
 43
0.0
 10
-3.1894886241
 20
1.9928322053
 10
-3.1711471351
 20
1.9853816156
 10
-3.0966736954
 20
1.9599558619
 10
-3.0172673907
 20
1.9401189996
 10
-2.9341805056
 20
1.9261838679
 10
-2.8487233701
 20
1.9183702322
 10
-2.7622436943
 20
1.9168013182
 10
-2.6761053142
 20
1.9215018685
 10
-2.5916666836
 20
1.9323977527
 10
-2.5102594501
 20
1.9493171362
 10
-2.4331674544
 20
1.9719931902
 10
-2.3616064835
 20
2.0000682998
 10
-2.2967050964
 20
2.0330997037
 10
-2.2394868269
 20
2.070566477
 10
-2.1908540412
 20
2.1118777462
 10
-2.1515737074
 20
2.156382008
 10
-2.1222653
 20
2.2033774035
 10
-2.1033910299
 20
2.2521227874
 10
-2.0952485556
 20
2.3018494158
 10
-2.0949085873
 20
2.3143426556
  0
LWPOLYLINE
  5
17C
330
15E
100
AcDbEntity
  8
0
  6
Continuous
 62
     7
370
    25
100
AcDbPolyline
 90
       21
 70
   128
 43
0.0
 10
-2.0322360247
 20
1.3339212654
 10
-2.1121355544
 20
1.2922488315
 10
-2.198928142
 20
1.2554565959
 10
-2.2917231783
 20
1.2239220967
 10
-2.3895684604
 20
1.1979689206
 10
-2.4914599636
 20
1.1778633823
 10
-2.5963521429
 20
1.1638117918
 10
-2.7031686628
 20
1.1559583375
 10
-2.8108134411
 20
1.1543836064
 10
-2.9181818969
 20
1.1591037574
 10
-3.0241722844
 20
1.1700703554
 10
-3.1276969989
 20
1.1871708681
 10
-3.2276937366
 20
1.2102298213
 10
-3.3231363958
 20
1.2390105989
 10
-3.4130456056
 20
1.273217871
 10
-3.4964987758
 20
1.3125006249
 10
-3.572639564
 20
1.3564557664
 10
-3.6406866627
 20
1.4046322561
 10
-3.6999418165
 20
1.4565357381
 10
-3.7497969874
 20
1.5116336124
 10
-3.7784194942
 20
1.5511803918
  0
LWPOLYLINE
  5
17D
330
15E
100
AcDbEntity
  8
0
  6
Continuous
 62
     7
370
    25
100
AcDbPolyline
 90
       18
 70
   128
 43
0.0
 10
-2.0949085873
 20
2.2351439379
 10
-2.0712711548
 20
2.2231773003
 10
-1.9951303666
 20
2.1792221589
 10
-1.9270832679
 20
2.1310456692
 10
-1.8678281141
 20
2.0791421872
 10
-1.8179729432
 20
2.0240443128
 10
-1.7780293368
 20
1.9663174249
 10
-1.7484071702
 20
1.9065538793
 10
-1.729410407
 20
1.845366931
 10
-1.7212339798
 20
1.7833844408
 10
-1.7239617896
 20
1.721242433
 10
-1.7375658455
 20
1.6595785686
 10
-1.7619065515
 20
1.5990256024
 10
-1.796734139
 20
1.5402048897
 10
-1.8416912298
 20
1.4837200106
 10
-1.8963165033
 20
1.4301505764
 10
-1.9600494303
 20
1.3800462821
 10
-2.0322360247
 20
1.3339212654
  0
LWPOLYLINE
  5
17E
330
15E
100
AcDbEntity
  8
0
  6
Continuous
 62
     7
370
    25
100
AcDbPolyline
 90
       15
 70
   128
 43
0.0
 10
-2.2967050964
 20
1.4865960107
 10
-2.3616064835
 20
1.4535646068
 10
-2.4331674544
 20
1.4254894972
 10
-2.5102594501
 20
1.4028134432
 10
-2.5916666836
 20
1.3858940598
 10
-2.6761053142
 20
1.3749981755
 10
-2.7622436943
 20
1.3702976252
 10
-2.8487233701
 20
1.3718665392
 10
-2.9341805056
 20
1.3796801749
 10
-3.0172673907
 20
1.3936153066
 10
-3.0966736954
 20
1.4134521689
 10
-3.1711471351
 20
1.4388779226
 10
-3.239513219
 20
1.4694915884
 10
-3.3006937731
 20
1.5048103705
 10
-3.339264258
 20
1.532462479
  0
LWPOLYLINE
  5
180
330
15E
100
AcDbEntity
  8
0
  6
Continuous
 62
     7
370
    25
100
AcDbPolyline
 90
       24
 70
   128
 43
0.0
 10
-2.0322360247
 20
1.1731848851
 10
-2.1121355544
 20
1.1315124512
 10
-2.198928142
 20
1.0947202156
 10
-2.2917231783
 20
1.0631857164
 10
-2.3895684604
 20
1.0372325403
 10
-2.4914599636
 20
1.017127002
 10
-2.5963521429
 20
1.0030754116
 10
-2.7031686628
 20
0.9952219572
 10
-2.8108134411
 20
0.9936472261
 10
-2.9181818969
 20
0.9983673771
 10
-3.0241722844
 20
1.0093339751
 10
-3.1276969989
 20
1.0264344878
 10
-3.2276937366
 20
1.049493441
 10
-3.3231363958
 20
1.0782742186
 10
-3.4130456056
 20
1.1124814907
 10
-3.4964987758
 20
1.1517642446
 10
-3.572639564
 20
1.1957193861
 10
-3.6406866627
 20
1.2438958758
 10
-3.6999418165
 20
1.2957993578
 10
-3.7497969874
 20
1.3508972321
 10
-3.7897405938
 20
1.4086241201
 10
-3.8193627604
 20
1.4683876656
 10
-3.8383595236
 20
1.5295746139
 10
-3.845443036
 20
1.5752379613
  0
LWPOLYLINE
  5
181
330
15E
100
AcDbEntity
  8
0
  6
Continuous
 62
     7
370
    25
100
AcDbPolyline
 90
        9
 70
   128
 43
0.0
 10
-1.7208928393
 20
1.6071025823
 10
-1.7239617896
 20
1.5605060527
 10
-1.7375658455
 20
1.4988421883
 10
-1.7619065515
 20
1.4382892221
 10
-1.796734139
 20
1.3794685094
 10
-1.8416912298
 20
1.3229836303
 10
-1.8963165033
 20
1.2694141961
 10
-1.9600494303
 20
1.2193099018
 10
-2.0322360247
 20
1.1731848851
  0
LWPOLYLINE
  5
183
330
15E
100
AcDbEntity
  8
0
  6
Continuous
 62
     7
370
    25
100
AcDbPolyline
 90
        8
 70
   128
 43
0.0
 10
-2.0954714298
 20
2.2982690176
 10
-2.0952485556
 20
2.2697021397
 10
-2.1033910299
 20
2.2199755114
 10
-2.1222653
 20
2.1712301275
 10
-2.1515737074
 20
2.1242347319
 10
-2.1908540412
 20
2.0797304701
 10
-2.2394868269
 20
2.0384192009
 10
-2.2967050964
 20
2.0009524276
  0
LWPOLYLINE
  5
187
330
15E
100
AcDbEntity
  8
0
  6
Continuous
 62
     7
370
    25
100
AcDbPolyline
 90
       10
 70
   128
 43
0.0
 10
-4.0219287954
 20
3.8216860698
 10
-4.0364460867
 20
3.8274252263
 10
-4.0633719012
 20
3.8279923457
 10
-4.0930633927
 20
3.8179766579
 10
-4.1233184793
 20
3.7981209806
 10
-4.1518932796
 20
3.7698979187
 10
-4.1766685312
 20
3.7354006474
 10
-4.1958067673
 20
3.6971876716
 10
-4.2078885923
 20
3.6580930729
 10
-4.2120179525
 20
3.6210163189
  0
LWPOLYLINE
  5
188
330
15E
100
AcDbEntity
  8
0
  6
Continuous
 62
     7
370
    25
100
AcDbPolyline
 90
       13
 70
   128
 43
0.0
 10
4.1693953204
 20
-0.9179805137
 10
4.1548995132
 20
-0.9158781189
 10
4.127753453
 20
-0.920408384
 10
4.0990111207
 20
-0.9347306811
 10
4.0708042038
 20
-0.9577827908
 10
4.04522468
 20
-0.9878550437
 10
4.0241696658
 20
-1.0227171183
 10
4.0092007152
 20
-1.059783454
 10
4.0014280068
 20
-1.0963050103
 10
4.0014280068
 20
-1.1295731504
 10
4.0092007152
 20
-1.1571205286
 10
4.0241696658
 20
-1.1769040818
 10
4.024413637
 20
-1.1771082449
  0
SPLINE
  5
18A
330
15E
100
AcDbEntity
  8
0
  6
Continuous
 62
     7
370
    25
100
AcDbSpline
210
0.0
220
0.0
230
1.0
 70
     8
 71
     3
 72
    27
 73
    23
 74
     0
 42
0.000000001
 43
0.00000001
 40
0.0
 40
0.0
 40
0.0
 40
0.0
 40
0.0136165015638983
 40
0.0679313106397865
 40
0.1213155673630779
 40
0.1762991513039298
 40
0.2287623255419329
 40
0.2828052255152865
 40
0.3343304613598111
 40
0.3873293252574352
 40
0.439286300030618
 40
0.4926851472992368
 40
0.5457997667212853
 40
0.6004417109132717
 40
0.6536973730334354
 40
0.7085657016704056
 40
0.7606441967602725
 40
0.8142748698587666
 40
0.8657121251922423
 40
0.9185952353502131
 40
0.9709039381815445
 40
1.0
 40
1.0
 40
1.0
 40
1.0
 10
3.343183423351715
 20
-0.4305780942903878
 30
0.0
 10
3.34230982708254
 20
-0.429932244836319
 30
0.0
 10
3.337951546120527
 20
-0.4267101690567954
 30
0.0
 10
3.327953267786914
 20
-0.4247773152449072
 30
0.0
 10
3.313138918776217
 20
-0.4249753039690902
 30
0.0
 10
3.296500849708893
 20
-0.4293027876546732
 30
0.0
 10
3.278417131383248
 20
-0.437215806918166
 30
0.0
 10
3.259775160638071
 20
-0.4482840186355456
 30
0.0
 10
3.240718808269363
 20
-0.4623351884116843
 30
0.0
 10
3.222136783859038
 20
-0.4787289813822345
 30
0.0
 10
3.204192294038656
 20
-0.4974668514270969
 30
0.0
 10
3.187699783086082
 20
-0.5179612032201193
 30
0.0
 10
3.173052012418647
 20
-0.5401341408498487
 30
0.0
 10
3.161135174288318
 20
-0.5631598341226055
 30
0.0
 10
3.152372190526466
 20
-0.586767626161296
 30
0.0
 10
3.14738864367601
 20
-0.6097590593430228
 30
0.0
 10
3.146258723390027
 20
-0.6319073330922129
 30
0.0
 10
3.148955274775002
 20
-0.6520937993323209
 30
0.0
 10
3.155290670421026
 20
-0.6703333760897607
 30
0.0
 10
3.164987834478747
 20
-0.6856497539768089
 30
0.0
 10
3.175463544384569
 20
-0.6967091595911452
 30
0.0
 10
3.183376932262598
 20
-0.7009878049488828
 30
0.0
 10
3.186205371407199
 20
-0.7025170978639049
 30
0.0
  0
LWPOLYLINE
  5
18B
330
15E
100
AcDbEntity
  8
0
  6
Continuous
 62
     7
370
    25
100
AcDbPolyline
 90
        8
 70
   128
 43
0.0
 10
3.2710648342
 20
-1.1811054609
 10
3.3282831037
 20
-1.1436386877
 10
3.3769158894
 20
-1.1023274185
 10
3.4161962232
 20
-1.0578231567
 10
3.4455046306
 20
-1.0108277611
 10
3.4643789008
 20
-0.9620823772
 10
3.472521375
 20
-0.9123557489
 10
3.4728613433
 20
-0.899862509
  0
LWPOLYLINE
  5
18C
330
15E
100
AcDbEntity
  8
0
  6
Continuous
 62
     7
370
    25
100
AcDbPolyline
 90
       20
 70
   128
 43
0.0
 10
2.0949085873
 20
-0.899862509
 10
2.0979662889
 20
-0.9372929234
 10
2.1115013695
 20
-0.9866262777
 10
2.135640341
 20
-1.0345913154
 10
2.1700025175
 20
-1.0804315994
 10
2.214045987
 20
-1.123424201
 10
2.2670761575
 20
-1.1628911012
 10
2.3282567116
 20
-1.1982098833
 10
2.3966227955
 20
-1.2288235491
 10
2.4710962352
 20
-1.2542493028
 10
2.5505025399
 20
-1.2740861651
 10
2.633589425
 20
-1.2880212967
 10
2.7190465605
 20
-1.2958349324
 10
2.8055262363
 20
-1.2974038465
 10
2.8916646164
 20
-1.2927032961
 10
2.976103247
 20
-1.2818074119
 10
3.0575104805
 20
-1.2648880284
 10
3.1346024762
 20
-1.2422119744
 10
3.2061634471
 20
-1.2141368648
 10
3.2710648342
 20
-1.1811054609
  0
LWPOLYLINE
  5
18D
330
15E
100
AcDbEntity
  8
0
  6
Continuous
 62
     7
370
    25
100
AcDbPolyline
 90
       51
 70
   128
 43
0.0
 10
3.2710648342
 20
-0.2488344553
 10
3.3282831037
 20
-0.211367682
 10
3.3769158894
 20
-0.1700564128
 10
3.4161962232
 20
-0.125552151
 10
3.4455046306
 20
-0.0785567554
 10
3.4643789008
 20
-0.0298113715
 10
3.472521375
 20
0.0199152568
 10
3.4698036417
 20
0.069838911
 10
3.4562685611
 20
0.1191722653
 10
3.4321295896
 20
0.167137303
 10
3.3977674131
 20
0.212977587
 10
3.3537239436
 20
0.2559701886
 10
3.3006937731
 20
0.2954370888
 10
3.239513219
 20
0.3307558709
 10
3.1711471351
 20
0.3613695367
 10
3.0966736954
 20
0.3867952904
 10
3.0172673907
 20
0.4066321527
 10
2.9341805056
 20
0.4205672843
 10
2.8487233701
 20
0.42838092
 10
2.7622436943
 20
0.4299498341
 10
2.6761053142
 20
0.4252492837
 10
2.5916666836
 20
0.4143533995
 10
2.5102594501
 20
0.397434016
 10
2.4331674544
 20
0.374757962
 10
2.3616064835
 20
0.3466828525
 10
2.2967050964
 20
0.3136514486
 10
2.2394868269
 20
0.2761846753
 10
2.1908540412
 20
0.2348734061
 10
2.1515737074
 20
0.1903691443
 10
2.1222653
 20
0.1433737487
 10
2.1033910299
 20
0.0946283649
 10
2.0952485556
 20
0.0449017365
 10
2.0979662889
 20
-0.0050219177
 10
2.1115013695
 20
-0.054355272
 10
2.135640341
 20
-0.1023203097
 10
2.1700025175
 20
-0.1481605937
 10
2.214045987
 20
-0.1911531953
 10
2.2670761575
 20
-0.2306200955
 10
2.3282567116
 20
-0.2659388776
 10
2.3966227955
 20
-0.2965525434
 10
2.4710962352
 20
-0.3219782971
 10
2.5505025399
 20
-0.3418151594
 10
2.633589425
 20
-0.355750291
 10
2.7190465605
 20
-0.3635639267
 10
2.8055262363
 20
-0.3651328408
 10
2.8916646164
 20
-0.3604322904
 10
2.976103247
 20
-0.3495364062
 10
3.0575104805
 20
-0.3326170227
 10
3.1346024762
 20
-0.3099409687
 10
3.2061634471
 20
-0.2818658592
 10
3.2710648342
 20
-0.2488344553
  0
LWPOLYLINE
  5
18F
330
15E
100
AcDbEntity
  8
0
  6
Continuous
 62
     7
370
    25
100
AcDbPolyline
 90
       50
 70
   128
 43
0.0
 10
3.4728613433
 20
-0.9790612267
 10
3.4964987758
 20
-0.9910278644
 10
3.572639564
 20
-1.0349830058
 10
3.6406866627
 20
-1.0831594955
 10
3.6999418165
 20
-1.1350629775
 10
3.7497969874
 20
-1.1901608518
 10
3.7897405938
 20
-1.2478877398
 10
3.8193627604
 20
-1.3076512853
 10
3.8383595236
 20
-1.3688382336
 10
3.8465359509
 20
-1.4308207238
 10
3.843808141
 20
-1.4929627316
 10
3.8302040851
 20
-1.554626596
 10
3.8058633791
 20
-1.6151795623
 10
3.7710357916
 20
-1.674000275
 10
3.7260787008
 20
-1.7304851541
 10
3.6714534273
 20
-1.7840545882
 10
3.6077205003
 20
-1.8341588826
 10
3.5355339059
 20
-1.8802838993
 10
3.4556343762
 20
-1.9219563332
 10
3.3688417886
 20
-1.9587485688
 10
3.2760467523
 20
-1.990283068
 10
3.1782014702
 20
-2.016236244
 10
3.076309967
 20
-2.0363417823
 10
2.9714177877
 20
-2.0503933728
 10
2.8646012678
 20
-2.0582468271
 10
2.7569564895
 20
-2.0598215582
 10
2.6495880337
 20
-2.0551014072
 10
2.5435976462
 20
-2.0441348093
 10
2.4400729317
 20
-2.0270342965
 10
2.340076194
 20
-2.0039753433
 10
2.2446335348
 20
-1.9751945658
 10
2.154724325
 20
-1.9409872936
 10
2.0712711548
 20
-1.9017045397
 10
1.9951303666
 20
-1.8577493983
 10
1.9270832679
 20
-1.8095729086
 10
1.8678281141
 20
-1.7576694266
 10
1.8179729432
 20
-1.7025715522
 10
1.7780293368
 20
-1.6448446643
 10
1.7484071702
 20
-1.5850811187
 10
1.729410407
 20
-1.5238941704
 10
1.7212339798
 20
-1.4619116802
 10
1.7239617896
 20
-1.3997696724
 10
1.7375658455
 20
-1.3381058081
 10
1.7619065515
 20
-1.2775528418
 10
1.796734139
 20
-1.2187321291
 10
1.8416912298
 20
-1.16224725
 10
1.8963165033
 20
-1.1086778159
 10
1.9600494303
 20
-1.0585735215
 10
2.0322360247
 20
-1.0124485048
 10
2.0322360247
 20
-1.0124485048
  0
LWPOLYLINE
  5
190
330
15E
100
AcDbEntity
  8
0
  6
Continuous
 62
     7
370
    25
100
AcDbPolyline
 90
       27
 70
   128
 43
0.0
 10
3.4728613433
 20
-1.446366202
 10
3.472521375
 20
-1.4588594419
 10
3.4643789008
 20
-1.5085860702
 10
3.4455046306
 20
-1.5573314541
 10
3.4161962232
 20
-1.6043268497
 10
3.3769158894
 20
-1.6488311115
 10
3.3282831037
 20
-1.6901423807
 10
3.2710648342
 20
-1.7276091539
 10
3.2061634471
 20
-1.7606405578
 10
3.1346024762
 20
-1.7887156674
 10
3.0575104805
 20
-1.8113917214
 10
2.976103247
 20
-1.8283111049
 10
2.8916646164
 20
-1.8392069891
 10
2.8055262363
 20
-1.8439075395
 10
2.7190465605
 20
-1.8423386254
 10
2.633589425
 20
-1.8345249897
 10
2.5505025399
 20
-1.8205898581
 10
2.4710962352
 20
-1.8007529958
 10
2.3966227955
 20
-1.7753272421
 10
2.3282567116
 20
-1.7447135763
 10
2.2670761575
 20
-1.7093947942
 10
2.214045987
 20
-1.669927894
 10
2.1700025175
 20
-1.6269352924
 10
2.135640341
 20
-1.5810950084
 10
2.1115013695
 20
-1.5331299707
 10
2.0979662889
 20
-1.4837966164
 10
2.0949085873
 20
-1.446366202
  0
LWPOLYLINE
  5
191
330
15E
100
AcDbEntity
  8
0
  6
Continuous
 62
     7
370
    25
100
AcDbPolyline
 90
       33
 70
   128
 43
0.0
 10
3.8468770913
 20
-1.6071025823
 10
3.843808141
 20
-1.6536991119
 10
3.8302040851
 20
-1.7153629763
 10
3.8058633791
 20
-1.7759159425
 10
3.7710357916
 20
-1.8347366553
 10
3.7260787008
 20
-1.8912215343
 10
3.6714534273
 20
-1.9447909685
 10
3.6077205003
 20
-1.9948952629
 10
3.5355339059
 20
-2.0410202796
 10
3.4556343762
 20
-2.0826927135
 10
3.3688417886
 20
-2.1194849491
 10
3.2760467523
 20
-2.1510194483
 10
3.1782014702
 20
-2.1769726243
 10
3.076309967
 20
-2.1970781626
 10
2.9714177877
 20
-2.2111297531
 10
2.8646012678
 20
-2.2189832074
 10
2.7569564895
 20
-2.2205579385
 10
2.6495880337
 20
-2.2158377875
 10
2.5435976462
 20
-2.2048711896
 10
2.4400729317
 20
-2.1877706768
 10
2.340076194
 20
-2.1647117236
 10
2.2446335348
 20
-2.1359309461
 10
2.154724325
 20
-2.1017236739
 10
2.0712711548
 20
-2.06244092
 10
1.9951303666
 20
-2.0184857786
 10
1.9270832679
 20
-1.9703092889
 10
1.8678281141
 20
-1.9184058069
 10
1.8179729432
 20
-1.8633079325
 10
1.7780293368
 20
-1.8055810446
 10
1.7484071702
 20
-1.745817499
 10
1.729410407
 20
-1.6846305507
 10
1.7212339798
 20
-1.6226480605
 10
1.7208928393
 20
-1.6071025823
  0
LWPOLYLINE
  5
192
330
15E
100
AcDbEntity
  8
0
  6
Continuous
 62
     7
370
    25
100
AcDbPolyline
 90
       28
 70
   128
 43
0.0
 10
3.4722985008
 20
-0.9159361471
 10
3.472521375
 20
-0.9445030249
 10
3.4643789008
 20
-0.9942296533
 10
3.4455046306
 20
-1.0429750372
 10
3.4161962232
 20
-1.0899704327
 10
3.3769158894
 20
-1.1344746945
 10
3.3282831037
 20
-1.1757859637
 10
3.2710648342
 20
-1.213252737
 10
3.2061634471
 20
-1.2462841409
 10
3.1346024762
 20
-1.2743592505
 10
3.0575104805
 20
-1.2970353045
 10
2.976103247
 20
-1.313954688
 10
2.8916646164
 20
-1.3248505722
 10
2.8055262363
 20
-1.3295511225
 10
2.7190465605
 20
-1.3279822085
 10
2.633589425
 20
-1.3201685728
 10
2.5505025399
 20
-1.3062334411
 10
2.4710962352
 20
-1.2863965789
 10
2.3966227955
 20
-1.2609708252
 10
2.3282567116
 20
-1.2303571593
 10
2.2670761575
 20
-1.1950383772
 10
2.214045987
 20
-1.1555714771
 10
2.1700025175
 20
-1.1125788755
 10
2.135640341
 20
-1.0667385915
 10
2.1115013695
 20
-1.0187735537
 10
2.0979662889
 20
-0.9694401995
 10
2.0952485556
 20
-0.9195165453
 10
2.0954714298
 20
-0.9159361471
  0
LWPOLYLINE
  5
193
330
15E
100
AcDbEntity
  8
0
  6
Continuous
 62
     7
370
    25
100
AcDbPolyline
 90
       22
 70
   128
 43
0.0
 10
3.418637127
 20
-1.0545262182
 10
3.4156179029
 20
-1.0596209169
 10
3.3821637648
 20
-1.105208966
 10
3.3388859054
 20
-1.1479530892
 10
3.2864949458
 20
-1.1871514294
 10
3.2258511443
 20
-1.2221603508
 10
3.1579502703
 20
-1.252405008
 10
3.0839072544
 20
-1.2773887845
 10
3.0049378808
 20
-1.2967014473
 10
2.9223388244
 20
-1.3100258831
 10
2.8374663595
 20
-1.3171433051
 10
2.7517140895
 20
-1.3179368453
 10
2.6664900645
 20
-1.3123934738
 10
2.5831936605
 20
-1.3006042127
 10
2.5031926021
 20
-1.2827626413
 10
2.4278005046
 20
-1.2591617177
 10
2.3582553041
 20
-1.2301889684
 10
2.2956989309
 20
-1.1963201251
 10
2.2411585589
 20
-1.1581113134
 10
2.1955297394
 20
-1.1161899208
 10
2.1595616965
 20
-1.0712442955
 10
2.1491328036
 20
-1.0545262182
  0
LWPOLYLINE
  5
196
330
15E
100
AcDbEntity
  8
0
  6
Continuous
 62
     7
370
    25
100
AcDbPolyline
 90
       25
 70
   128
 43
0.0
 10
-0.7794877903
 20
-0.4499887231
 10
-0.6980024196
 20
-0.4925570362
 10
-0.6095799873
 20
-0.5302300961
 10
-0.5150992753
 20
-0.5626334912
 10
-0.4154992752
 20
-0.5894451819
 10
-0.3117698566
 20
-0.6103987015
 10
-0.2049419292
 20
-0.6252858046
 10
-0.0960771967
 20
-0.6339585364
 10
0.013742394
 20
-0.6363307035
 10
0.1234254067
 20
-0.6323787302
 10
0.2318817623
 20
-0.622141893
 10
0.3380335727
 20
-0.6057219301
 10
0.4408258536
 20
-0.5832820305
 10
0.5392370091
 20
-0.5550452121
 10
0.632288985
 20
-0.521292105
 10
0.7190569888
 20
-0.4823581627
 10
0.7986786813
 20
-0.4386303283
 10
0.8703627462
 20
-0.3905431887
 10
0.9333967551
 20
-0.3385746553
 10
0.9871542477
 20
-0.283241215
 10
1.0311009578
 20
-0.2250927962
 10
1.0648001235
 20
-0.1647073041
 10
1.0879168271
 20
-0.1026848767
 10
1.1002213245
 20
-0.039641921
 10
1.1023622047
 20
0.0
  0
LWPOLYLINE
  5
197
330
15E
100
AcDbEntity
  8
0
  6
Continuous
 62
     7
370
    25
100
AcDbPolyline
 90
        9
 70
   128
 43
0.0
 10
-1.1023622047
 20
0.0
 10
-1.0981673837
 20
-0.0554641851
 10
-1.0831441437
 20
-0.1183104574
 10
-1.0573561306
 20
-0.1799809072
 10
-1.0210596372
 20
-0.2398626259
 10
-0.9746153944
 20
-0.2973604821
 10
-0.918484986
 20
-0.3519030362
 10
-0.8532262611
 20
-0.4029482199
 10
-0.7794877903
 20
-0.4499887231
  0
LWPOLYLINE
  5
198
330
15E
100
AcDbEntity
  8
0
  6
Continuous
 62
     7
370
    25
100
AcDbPolyline
 90
       16
 70
   128
 43
0.0
 10
-0.2811723815
 20
0.0305662955
 10
-0.2296096096
 20
0.0054693159
 10
-0.1714413873
 20
-0.0142360944
 10
-0.1083411085
 20
-0.0279830466
 10
-0.0421240532
 20
-0.0353760659
 10
0.0253048344
 20
-0.0362024685
 10
0.092005748
 20
-0.0304384805
 10
0.1560598238
 20
-0.0182499211
 10
0.2156243425
 20
0.0000125668
 10
0.2689857415
 20
0.0238236049
 10
0.3146089105
 20
0.0524981928
 10
0.3511813539
 20
0.0852114149
 10
0.3776509491
 20
0.1210221713
 10
0.3932562142
 20
0.1589002519
 10
0.3975482139
 20
0.1977559731
 10
0.3937007874
 20
0.2251059629
  0
LWPOLYLINE
  5
19D
330
15E
100
AcDbEntity
  8
0
  6
Continuous
 62
     7
370
    25
100
AcDbPolyline
 90
        3
 70
   128
 43
0.0
 10
0.2357122414
 20
0.0080113288
 10
0.2615382275
 20
0.0227320046
 10
0.263778068
 20
0.0241600849
  0
LWPOLYLINE
  5
19F
330
15E
100
AcDbEntity
  8
0
  6
Continuous
 62
     7
370
    25
100
AcDbPolyline
 90
       15
 70
   128
 43
0.0
 10
-3.9307458451
 20
1.6164317462
 10
-3.8798619144
 20
1.5901595185
 10
-3.8227697288
 20
1.5664189705
 10
-3.7611117266
 20
1.5458930745
 10
-3.6966616963
 20
1.5291723231
 10
-3.6312737478
 20
1.5167377421
 10
-3.5668289735
 20
1.5089470515
 10
-3.505181332
 20
1.5060243754
 10
-3.4481043139
 20
1.5080537939
 10
-3.3972399211
 20
1.5149769243
 10
-3.3540514294
 20
1.5265946007
 10
-3.3197812932
 20
1.5425726037
 10
-3.2954154018
 20
1.5624512753
 10
-3.2816547177
 20
1.5856587423
 10
-3.2800072149
 20
1.5915338908
  0
LWPOLYLINE
  5
1A0
330
15E
100
AcDbEntity
  8
0
  6
Continuous
 62
     7
370
    25
100
AcDbPolyline
 90
        7
 70
   128
 43
0.0
 10
-4.0481109304
 20
1.764790701
 10
-4.0492308167
 20
1.7580192221
 10
-4.0464401373
 20
1.7310951191
 10
-4.0326490509
 20
1.7026482352
 10
-4.008254302
 20
1.6734969354
 10
-3.9739576829
 20
1.6444798495
 10
-3.9307458451
 20
1.6164317462
  0
LWPOLYLINE
  5
1A1
330
15E
100
AcDbEntity
  8
0
  6
Continuous
 62
     7
370
    25
100
AcDbPolyline
 90
       21
 70
   128
 43
0.0
 10
0.3937007874
 20
0.1928836564
 10
0.3929027774
 20
0.1784201217
 10
0.3830170328
 20
0.1402957477
 10
0.3621125855
 20
0.103684232
 10
0.3307908185
 20
0.0696388213
 10
0.2899528018
 20
0.0391389402
 10
0.240773371
 20
0.0130620146
 10
0.1846673287
 20
-0.0078417697
 10
0.1232487435
 20
-0.022971049
 10
0.0582845164
 20
-0.0318905814
 10
-0.0083564501
 20
-0.0343437683
 10
-0.0747570168
 20
-0.0302600358
 10
-0.1390069602
 20
-0.0197568656
 10
-0.1992579265
 20
-0.0031364148
 10
-0.253776605
 20
0.0191231766
 10
-0.3009945926
 20
0.0463815407
 10
-0.3395535138
 20
0.0778545039
 10
-0.3683440987
 20
0.1126366463
 10
-0.3865380944
 20
0.1497273492
 10
-0.393612093
 20
0.1880595804
 10
-0.3937007874
 20
0.1928836564
  0
LWPOLYLINE
  5
1A3
330
15E
100
AcDbEntity
  8
0
  6
Continuous
 62
     8
370
    25
100
AcDbPolyline
 90
       10
 70
   128
 43
0.0
 10
4.024413637
 20
-1.1771082449
 10
4.04522468
 20
-1.1874565545
 10
4.0708042038
 20
-1.1879953179
 10
4.0990111207
 20
-1.1784804145
 10
4.127753453
 20
-1.1596175211
 10
4.1548995132
 20
-1.1328056122
 10
4.1784360023
 20
-1.1000332045
 10
4.1966173265
 20
-1.0637308775
 10
4.2080950603
 20
-1.0265910088
 10
4.2120179525
 20
-0.9913680924
  0
LWPOLYLINE
  5
1A4
330
15E
100
AcDbEntity
  8
0
  6
Continuous
 62
     8
370
    25
100
AcDbPolyline
 90
       14
 70
   128
 43
0.0
 10
4.0219287954
 20
-1.185609433
 10
4.0142829139
 20
-1.1802407236
 10
3.9985261238
 20
-1.1594159307
 10
3.9903443255
 20
-1.1304186905
 10
3.9903443255
 20
-1.0953995956
 10
3.9985261238
 20
-1.0569558521
 10
4.0142829139
 20
-1.0179386567
 10
4.0364460867
 20
-0.981241736
 10
4.0633719012
 20
-0.949586733
 10
4.0930633927
 20
-0.9253213544
 10
4.1233184793
 20
-0.9102452522
 10
4.1518932796
 20
-0.9054765521
 10
4.1766685312
 20
-0.9113689266
 10
4.1793963124
 20
-0.9128381378
  0
LWPOLYLINE
  5
1A5
330
15E
100
AcDbEntity
  8
0
  6
Continuous
 62
     8
370
    25
100
AcDbPolyline
 90
       37
 70
   128
 43
0.0
 10
-0.7516489406
 20
-0.2410340409
 10
-0.6717494109
 20
-0.2827064748
 10
-0.5849568233
 20
-0.3194987104
 10
-0.492161787
 20
-0.3510332096
 10
-0.3943165049
 20
-0.3769863857
 10
-0.2924250017
 20
-0.3970919239
 10
-0.1875328224
 20
-0.4111435144
 10
-0.0807163025
 20
-0.4189969687
 10
0.0269284758
 20
-0.4205716998
 10
0.1342969316
 20
-0.4158515489
 10
0.2402873191
 20
-0.4048849509
 10
0.3438120336
 20
-0.3877844381
 10
0.4438087713
 20
-0.364725485
 10
0.5392514305
 20
-0.3359447074
 10
0.6291606403
 20
-0.3017374352
 10
0.7126138105
 20
-0.2624546813
 10
0.7887545987
 20
-0.2184995399
 10
0.8568016974
 20
-0.1703230502
 10
0.9160568512
 20
-0.1184195682
 10
0.9659120221
 20
-0.0633216939
 10
1.0058556285
 20
-0.0055948059
 10
1.0354777951
 20
0.0541687397
 10
1.0544745583
 20
0.115355688
 10
1.0626509856
 20
0.1773381781
 10
1.0599231757
 20
0.239480186
 10
1.0463191198
 20
0.3011440503
 10
1.0219784138
 20
0.3616970166
 10
0.9871508263
 20
0.4205177293
 10
0.9421937355
 20
0.4770026084
 10
0.887568462
 20
0.5305720425
 10
0.823835535
 20
0.5806763369
 10
0.7516489406
 20
0.6268013536
 10
0.6717494109
 20
0.6684737875
 10
0.5849568233
 20
0.7052660231
 10
0.492161787
 20
0.7368005223
 10
0.3943165049
 20
0.7627536984
 10
0.3937007874
 20
0.7628955525
  0
LWPOLYLINE
  5
1A6
330
15E
100
AcDbEntity
  8
0
  6
Continuous
 62
     8
370
    25
100
AcDbPolyline
 90
       21
 70
   128
 43
0.0
 10
-0.3937007874
 20
0.7628955525
 10
-0.4438087713
 20
0.7504927977
 10
-0.5392514305
 20
0.7217120201
 10
-0.6291606403
 20
0.6875047479
 10
-0.7126138105
 20
0.648221994
 10
-0.7887545987
 20
0.6042668526
 10
-0.8568016974
 20
0.5560903629
 10
-0.9160568512
 20
0.5041868809
 10
-0.9659120221
 20
0.4490890066
 10
-1.0058556285
 20
0.3913621186
 10
-1.0354777951
 20
0.3315985731
 10
-1.0544745583
 20
0.2704116247
 10
-1.0626509856
 20
0.2084291346
 10
-1.0599231757
 20
0.1462871267
 10
-1.0463191198
 20
0.0846232624
 10
-1.0219784138
 20
0.0240702961
 10
-0.9871508263
 20
-0.0347504166
 10
-0.9421937355
 20
-0.0912352957
 10
-0.887568462
 20
-0.1448047298
 10
-0.823835535
 20
-0.1949090242
 10
-0.7516489406
 20
-0.2410340409
  0
LWPOLYLINE
  5
1A8
330
15E
100
AcDbEntity
  8
0
  6
Continuous
 62
     8
370
    25
100
AcDbPolyline
 90
       23
 70
   128
 43
0.0
 10
1.0801919537
 20
0.0337491258
 10
1.0648001235
 20
-0.0039709238
 10
1.0311009578
 20
-0.0643564159
 10
0.9871542477
 20
-0.1225048347
 10
0.9333967551
 20
-0.1778382751
 10
0.8703627462
 20
-0.2298068084
 10
0.7986786813
 20
-0.277893948
 10
0.7190569888
 20
-0.3216217824
 10
0.632288985
 20
-0.3605557247
 10
0.5392370091
 20
-0.3943088318
 10
0.4408258536
 20
-0.4225456502
 10
0.3380335727
 20
-0.4449855498
 10
0.2318817623
 20
-0.4614055127
 10
0.1234254067
 20
-0.4716423499
 10
0.013742394
 20
-0.4755943232
 10
-0.0960771967
 20
-0.4732221561
 10
-0.2049419292
 20
-0.4645494243
 10
-0.3117698566
 20
-0.4496623212
 10
-0.4154992752
 20
-0.4287088016
 10
-0.5150992753
 20
-0.4018971109
 10
-0.6095799873
 20
-0.3694937158
 10
-0.6980024196
 20
-0.3318206559
 10
-0.7794877903
 20
-0.2892523428
  0
LWPOLYLINE
  5
1A9
330
15E
100
AcDbEntity
  8
0
  6
Continuous
 62
     8
370
    25
100
AcDbPolyline
 90
       21
 70
   128
 43
0.0
 10
0.3937007789
 20
4.7578441888
 10
0.3929027774
 20
4.743333322
 10
0.3830170328
 20
4.705208948
 10
0.3621125855
 20
4.6685974323
 10
0.3307908185
 20
4.6345520217
 10
0.2899528018
 20
4.6040521405
 10
0.240773371
 20
4.577975215
 10
0.1846673287
 20
4.5570714306
 10
0.1232487435
 20
4.5419421513
 10
0.0582845164
 20
4.5330226189
 10
-0.0083564501
 20
4.5305694321
 10
-0.0747570168
 20
4.5346531645
 10
-0.1390069602
 20
4.5451563347
 10
-0.1992579265
 20
4.5617767855
 10
-0.253776605
 20
4.5840363769
 10
-0.3009945926
 20
4.611294741
 10
-0.3395535138
 20
4.6427677042
 10
-0.3683440987
 20
4.6775498466
 10
-0.3865380944
 20
4.7146405495
 10
-0.393612093
 20
4.7529727807
 10
-0.3937005292
 20
4.7575365413
  0
LWPOLYLINE
  5
1AA
330
15E
100
AcDbEntity
  8
0
  6
Continuous
 62
     8
370
    25
100
AcDbPolyline
 90
       15
 70
   128
 43
0.0
 10
-3.5371383863
 20
3.3614214595
 10
-3.4862544555
 20
3.3351492318
 10
-3.42916227
 20
3.3114086838
 10
-3.3675042678
 20
3.2908827878
 10
-3.3030542374
 20
3.2741620364
 10
-3.237666289
 20
3.2617274554
 10
-3.1732215146
 20
3.2539367648
 10
-3.1115738732
 20
3.2510140887
 10
-3.0544968551
 20
3.2530435072
 10
-3.0036324622
 20
3.2599666376
 10
-2.9604439706
 20
3.271584314
 10
-2.9261738343
 20
3.287562317
 10
-2.901807943
 20
3.3074409886
 10
-2.8880472589
 20
3.3306484556
 10
-2.8864040322
 20
3.3365046611
  0
LWPOLYLINE
  5
1AB
330
15E
100
AcDbEntity
  8
0
  6
Continuous
 62
     8
370
    25
100
AcDbPolyline
 90
        7
 70
   128
 43
0.0
 10
-3.6544931261
 20
3.5098261942
 10
-3.6556233579
 20
3.5030089354
 10
-3.6528326785
 20
3.4760848324
 10
-3.6390415921
 20
3.4476379485
 10
-3.6146468432
 20
3.4184866487
 10
-3.5803502241
 20
3.3894695628
 10
-3.5371383863
 20
3.3614214595
  0
LINE
  5
1AC
330
15E
100
AcDbEntity
  8
0
  6
Continuous
 62
     7
370
    25
100
AcDbLine
 10
-2.0949085873
 20
2.3143426556
 30
0.0
 11
-2.0949085873
 21
3.2466136613
 31
0.0
  0
LINE
  5
1AD
330
15E
100
AcDbEntity
  8
0
  6
Continuous
 62
     7
370
    25
100
AcDbLine
 10
-1.7208928393
 20
1.6071025823
 30
0.0
 11
-1.7208928393
 21
1.7678389626
 31
0.0
  0
LINE
  5
1AE
330
15E
100
AcDbEntity
  8
0
  6
Continuous
 62
     7
370
    25
100
AcDbLine
 10
-2.0949085873
 20
1.7678389626
 30
0.0
 11
-2.0949085873
 21
2.2821953796
 31
0.0
  0
LINE
  5
1AF
330
15E
100
AcDbEntity
  8
0
  6
Continuous
 62
     7
370
    25
100
AcDbLine
 10
-4.1793963124
 20
3.5489147745
 30
0.0
 11
-3.707167657
 21
3.2763029745
 31
0.0
  0
LINE
  5
1B0
330
15E
100
AcDbEntity
  8
0
  6
Continuous
 62
     7
370
    25
100
AcDbLine
 10
-3.6330428022
 20
3.5971869645
 30
0.0
 11
-4.0219287954
 21
3.8216860698
 31
0.0
  0
LINE
  5
1B1
330
15E
100
AcDbEntity
  8
0
  6
Continuous
 62
     7
370
    25
100
AcDbLine
 10
4.1793963124
 20
-0.9128381378
 30
0.0
 11
3.3433975026
 21
-0.4302262976
 31
0.0
  0
LINE
  5
1B2
330
15E
100
AcDbEntity
  8
0
  6
Continuous
 62
     7
370
    25
100
AcDbLine
 10
3.1859265699
 20
-0.7029956209
 30
0.0
 11
4.0219287954
 21
-1.185609433
 31
0.0
  0
LINE
  5
1B3
330
15E
100
AcDbEntity
  8
0
  6
Continuous
 62
     7
370
    25
100
AcDbLine
 10
3.4728613433
 20
-0.899862509
 30
0.0
 11
3.4728613433
 21
-0.8686395398
 31
0.0
  0
LINE
  5
1B4
330
15E
100
AcDbEntity
  8
0
  6
Continuous
 62
     7
370
    25
100
AcDbLine
 10
3.4728613433
 20
-0.5049641819
 30
0.0
 11
3.4728613433
 21
0.0324084967
 31
0.0
  0
LINE
  5
1B5
330
15E
100
AcDbEntity
  8
0
  6
Continuous
 62
     7
370
    25
100
AcDbLine
 10
2.0949085873
 20
0.0324084967
 30
0.0
 11
2.0949085873
 21
-0.899862509
 31
0.0
  0
LINE
  5
1B6
330
15E
100
AcDbEntity
  8
0
  6
Continuous
 62
     7
370
    25
100
AcDbLine
 10
1.7208928393
 20
-1.446366202
 30
0.0
 11
1.7208928393
 21
-1.6071025823
 31
0.0
  0
LINE
  5
1B7
330
15E
100
AcDbEntity
  8
0
  6
Continuous
 62
     7
370
    25
100
AcDbLine
 10
3.8468770913
 20
-1.6071025823
 30
0.0
 11
3.8468770913
 21
-1.446366202
 31
0.0
  0
LINE
  5
1B8
330
15E
100
AcDbEntity
  8
0
  6
Continuous
 62
     7
370
    25
100
AcDbLine
 10
2.0949085873
 20
-0.9320097851
 30
0.0
 11
2.0949085873
 21
-1.446366202
 31
0.0
  0
LINE
  5
1B9
330
15E
100
AcDbEntity
  8
0
  6
Continuous
 62
     7
370
    25
100
AcDbLine
 10
3.4728613433
 20
-1.446366202
 30
0.0
 11
3.4728613433
 21
-0.9320097851
 31
0.0
  0
LINE
  5
1BA
330
15E
100
AcDbEntity
  8
0
  6
Continuous
 62
     7
370
    25
100
AcDbLine
 10
1.1023622047
 20
0.0
 30
0.0
 11
1.1023622047
 21
0.1607363803
 31
0.0
  0
LINE
  5
1BB
330
15E
100
AcDbEntity
  8
0
  6
Continuous
 62
     7
370
    25
100
AcDbLine
 10
-1.1023622047
 20
0.1607363803
 30
0.0
 11
-1.1023622047
 21
0.0
 31
0.0
  0
LINE
  5
1BC
330
15E
100
AcDbEntity
  8
0
  6
Continuous
 62
     7
370
    25
100
AcDbLine
 10
-3.2800072149
 20
1.5915338908
 30
0.0
 11
-2.8863997561
 21
3.3365236041
 31
0.0
  0
LINE
  5
1BD
330
15E
100
AcDbEntity
  8
0
  6
Continuous
 62
     7
370
    25
100
AcDbLine
 10
-3.6545034716
 20
3.5097804143
 30
0.0
 11
-4.0481109304
 21
1.764790701
 31
0.0
  0
LINE
  5
1BE
330
15E
100
AcDbEntity
  8
0
  6
Continuous
 62
     7
370
    25
100
AcDbLine
 10
-0.3937007874
 20
4.7577968567
 30
0.0
 11
-0.3937007874
 21
0.1928836564
 31
0.0
  0
LINE
  5
1BF
330
15E
100
AcDbEntity
  8
0
  6
Continuous
 62
     7
370
    25
100
AcDbLine
 10
0.3937007874
 20
0.1928836564
 30
0.0
 11
0.3937007874
 21
4.7577968567
 31
0.0
  0
LINE
  5
1C0
330
15E
100
AcDbEntity
  8
0
  6
Continuous
 62
     7
370
    25
100
AcDbLine
 10
2.0322360247
 20
-1.0124485048
 30
0.0
 11
2.0949085873
 21
-0.9790612267
 31
0.0
  0
LINE
  5
1C1
330
15E
100
AcDbEntity
  8
0
  6
Continuous
 62
     7
370
    25
100
AcDbLine
 10
0.3966617737
 20
0.1768100183
 30
0.0
 11
0.3937007874
 21
0.1929586869
 31
0.0
  0
LINE
  5
1C2
330
15E
100
AcDbEntity
  8
0
  6
Continuous
 62
     7
370
    25
100
AcDbLine
 10
-0.3937007874
 20
0.1929586869
 30
0.0
 11
-0.3966617737
 21
0.1768100183
 31
0.0
  0
LINE
  5
1C3
330
15E
100
AcDbEntity
  8
0
  6
Continuous
 62
     7
370
    25
100
AcDbLine
 10
-0.2505496469
 20
0.0160971479
 30
0.0
 11
-0.2357122414
 21
0.0080113288
 31
0.0
  0
LINE
  5
1C4
330
15E
100
AcDbEntity
  8
0
  6
Continuous
 62
     7
370
    25
100
AcDbLine
 10
-0.263778068
 20
0.0241600849
 30
0.0
 11
-0.2505496469
 21
0.0160971479
 31
0.0
  0
ARC
  5
1C5
330
15E
100
AcDbEntity
  8
0
  6
Continuous
 62
     7
370
    25
100
AcDbCircle
 10
-2.4432578978
 20
1.8047677467
 30
0.0
 40
0.3503012663479755
100
AcDbArc
 50
294.731228177
 51
353.9486308654
  0
ARC
  5
1C6
330
15E
100
AcDbEntity
  8
0
  6
Continuous
 62
     7
370
    25
100
AcDbCircle
 10
-2.7870567091
 20
2.958497979
 30
0.0
 40
1.07579653604461
100
AcDbArc
 50
247.652198739
 51
297.1166319696
  0
ARC
  5
1C7
330
15E
100
AcDbEntity
  8
0
  6
Continuous
 62
     7
370
    25
100
AcDbCircle
 10
-2.7866912412
 20
2.9375037543
 30
0.0
 40
1.043446758645518
100
AcDbArc
 50
247.0729358294
 51
297.1450284794
  0
ARC
  5
1C8
330
15E
100
AcDbEntity
  8
0
  6
Continuous
 62
     7
370
    25
100
AcDbCircle
 10
-2.5107486335
 20
2.3853346466
 30
0.0
 40
0.4262469981604333
100
AcDbArc
 50
298.0020199205
 51
328.0349903577
  0
ARC
  5
1C9
330
15E
100
AcDbEntity
  8
0
  6
Continuous
 62
     7
370
    25
100
AcDbCircle
 10
-4.1339561805
 20
3.6129041623
 30
0.0
 40
0.0784821465937467
100
AcDbArc
 50
174.0671351132
 51
234.6206844934
  0
ARC
  5
1CA
330
15E
100
AcDbEntity
  8
0
  6
Continuous
 62
     7
370
    25
100
AcDbCircle
 10
4.1339561805
 20
-0.9768275255
 30
0.0
 40
0.0784821465937408
100
AcDbArc
 50
354.0671351132
 51
54.6206844934
  0
ARC
  5
1CB
330
15E
100
AcDbEntity
  8
0
  6
Continuous
 62
     7
370
    25
100
AcDbCircle
 10
-0.7245103781
 20
0.1607268436
 30
0.0
 40
0.3776764632539324
100
AcDbArc
 50
160.2504613508
 51
199.9856825158
  0
ARC
  5
1CC
330
15E
100
AcDbEntity
  8
0
  6
Continuous
 62
     7
370
    25
100
AcDbCircle
 10
0.7245077231
 20
0.1607481808
 30
0.0
 40
0.3776771529601555
100
AcDbArc
 50
340.3506087409
 51
19.9482816491
  0
ARC
  5
1CD
330
15E
100
AcDbEntity
  8
0
  6
Continuous
 62
     7
370
    25
100
AcDbCircle
 10
-0.2124337194
 20
0.2001420673
 30
0.0
 40
0.1829779933177986
100
AcDbArc
 50
172.1586162609
 51
247.9345009906
  0
ARC
  5
1CE
330
15E
100
AcDbEntity
  8
0
  6
Continuous
 62
     8
370
    25
100
AcDbCircle
 10
4.1453702853
 20
-0.9810051161
 30
0.0
 40
0.0674485197786221
100
AcDbArc
 50
351.1619110697
 51
69.1331084776
  0
ARC
  5
1CF
330
15E
100
AcDbEntity
  8
0
  6
Continuous
 62
     8
370
    25
100
AcDbCircle
 10
-0.4873472211
 20
0.284462219
 30
0.0
 40
0.6438124808562317
100
AcDbArc
 50
203.1220721002
 51
243.0143999729
  0
VIEWPORT
  5
1D4
330
15E
100
AcDbEntity
  8
0
100
AcDbViewport
 10
0.0
 20
0.0
 30
0.0
 40
8.4
 41
6.4
 68
     1
 69
     1
 12
0.0
 22
4.2913385827
 13
0.0
 23
0.0
 14
0.5
 24
0.5
 15
0.5
 25
0.5
 16
0.0
 26
0.0
 36
1.0
 17
0.0
 27
0.0
 37
0.0
 42
50.0
 43
0.0
 44
0.0
 45
9.025871766
 50
0.0
 51
0.0
 72
   100
 90
   557152
  1

281
     0
 71
     1
 74
     0
110
0.0
120
0.0
130
0.0
111
1.0
121
0.0
131
0.0
112
0.0
122
1.0
132
0.0
 79
     0
146
0.0
  0
ENDBLK
  5
161
330
15E
100
AcDbEntity
  8
0
100
AcDbBlockEnd
  0
ENDSEC
  0
SECTION
  2
ENTITIES
  0
SPLINE
  5
9B
330
1F
100
AcDbEntity
  8
0
  6
Continuous
 62
     7
370
    25
100
AcDbSpline
210
0.0
220
0.0
230
1.0
 70
     8
 71
     3
 72
    12
 73
     8
 74
     0
 42
0.000000001
 43
0.00000001
 40
0.0
 40
0.0
 40
0.0
 40
0.0
 40
0.2109971605708302
 40
0.4218589487901402
 40
0.6362153946268254
 40
0.8529942333973072
 40
1.0
 40
1.0
 40
1.0
 40
1.0
 10
-4.607745080212631
 20
1.614173228346455
 30
0.0
 10
-4.608152525064229
 20
1.631612973137228
 30
0.0
 10
-4.608967153357425
 20
1.666481273661745
 30
0.0
 10
-4.614659228426426
 20
1.713222096169271
 30
0.0
 10
-4.620894340333555
 20
1.748752456617413
 30
0.0
 10
-4.625485647208821
 20
1.769496838597644
 30
0.0
 10
-4.625535915352296
 20
1.769686270406514
 30
0.0
 10
-4.625556228765394
 20
1.769762820012711
 30
0.0
  0
SPLINE
  5
9C
330
1F
100
AcDbEntity
  8
0
  6
Continuous
 62
     7
370
    25
100
AcDbSpline
210
0.0
220
0.0
230
1.0
 70
     8
 71
     3
 72
    12
 73
     8
 74
     0
 42
0.000000001
 43
0.00000001
 40
0.0
 40
0.0
 40
0.0
 40
0.0
 40
0.1908195116499243
 40
0.400174657317821
 40
0.613854127572442
 40
0.8306094446256301
 40
1.0
 40
1.0
 40
1.0
 40
1.0
 10
-4.625824169764851
 20
1.457407159648886
 30
0.0
 10
-4.625565600076873
 20
1.458507106993387
 30
0.0
 10
-4.625023344018337
 20
1.460813847262489
 30
0.0
 10
-4.619823618704162
 20
1.485020993124428
 30
0.0
 10
-4.613524176115688
 20
1.522764351364686
 30
0.0
 10
-4.608603323392699
 20
1.568317970705548
 30
0.0
 10
-4.608006770142658
 20
1.600191341345163
 30
0.0
 10
-4.607745080212632
 20
1.614173228346455
 30
0.0
  0
SPLINE
  5
A5
330
1F
100
AcDbEntity
  8
0
  6
Continuous
 62
     7
370
    25
100
AcDbSpline
210
0.0
220
0.0
230
1.0
 70
     8
 71
     3
 72
    27
 73
    23
 74
     0
 42
0.000000001
 43
0.00000001
 40
0.0
 40
0.0
 40
0.0
 40
0.0
 40
0.0328427902950363
 40
0.0843671637617154
 40
0.1373651406173821
 40
0.1893212457867052
 40
0.2427191993188451
 40
0.295832929761536
 40
0.350473959411331
 40
0.4037287301915056
 40
0.4585961404972878
 40
0.5106737639494097
 40
0.5643035394313561
 40
0.615739933859516
 40
0.6686221589128997
 40
0.7209299862534991
 40
0.7746943629562639
 40
0.8280389156875995
 40
0.8829486041857038
 40
0.9359005761105204
 40
0.9904588027825011
 40
1.0
 40
1.0
 40
1.0
 40
1.0
 10
4.625860074021261
 20
1.771109198729836
 30
0.0
 10
4.62587176125761
 20
1.771161000845557
 30
0.0
 10
4.625901783645301
 20
1.771294071073178
 30
0.0
 10
4.624841231898537
 20
1.766623779919289
 30
0.0
 10
4.622945765129018
 20
1.757905251762702
 30
0.0
 10
4.620335270348072
 20
1.745002857141532
 30
0.0
 10
4.617356096214762
 20
1.728593721410596
 30
0.0
 10
4.614263220339824
 20
1.708700199307635
 30
0.0
 10
4.611453365772066
 20
1.686117418482376
 30
0.0
 10
4.609227308467788
 20
1.661175127607416
 30
0.0
 10
4.60790148513824
 20
1.635215142538456
 30
0.0
 10
4.60759576589066
 20
1.608586080464972
 30
0.0
 10
4.608321532670668
 20
1.582674785604139
 30
0.0
 10
4.609986310070023
 20
1.55755383255086
 30
0.0
 10
4.612372150825626
 20
1.534207601697951
 30
0.0
 10
4.615272011671627
 20
1.512751189459373
 30
0.0
 10
4.618350802720339
 20
1.494027839678046
 30
0.0
 10
4.621301278237716
 20
1.478414939207459
 30
0.0
 10
4.623764457637969
 20
1.466614294084933
 30
0.0
 10
4.625376681862885
 20
1.459343524755397
 30
0.0
 10
4.626086089306962
 20
1.456245746927382
 30
0.0
 10
4.625935036746558
 20
1.456908968573826
 30
0.0
 10
4.625912552577724
 20
1.457007689094911
 30
0.0
  0
LWPOLYLINE
  5
AC
330
1F
100
AcDbEntity
  8
0
  6
Continuous
 62
     7
370
    25
100
AcDbPolyline
 90
       38
 70
   128
 43
0.0
 10
0.0
 20
4.7586145914
 10
0.066535756
 20
4.7569899761
 10
0.1311573995
 20
4.7521628674
 10
0.1920058834
 20
4.7442721323
 10
0.2473307076
 20
4.7335447731
 10
0.2955402777
 20
4.7202893962
 10
0.335247692
 20
4.7048873348
 10
0.3653106407
 20
4.6877816781
 10
0.3848642673
 20
4.6694645247
 10
0.3933460497
 20
4.6504628258
 10
0.3905119824
 20
4.6313232256
 10
0.3764435964
 20
4.6125963356
 10
0.3515456134
 20
4.5948208943
 10
0.3165343033
 20
4.5785082688
 10
0.2724168776
 20
4.5641277437
 10
0.2204625142
 20
4.5520930204
 10
0.1621658458
 20
4.542750316
 10
0.0992039612
 20
4.5363684032
 10
0.0333881592
 20
4.533130878
 10
-0.0333881592
 20
4.533130878
 10
-0.0992039612
 20
4.5363684032
 10
-0.1621658458
 20
4.542750316
 10
-0.2204625142
 20
4.5520930204
 10
-0.2724168776
 20
4.5641277437
 10
-0.3165343033
 20
4.5785082688
 10
-0.3515456134
 20
4.5948208943
 10
-0.3764435964
 20
4.6125963356
 10
-0.3905119824
 20
4.6313232256
 10
-0.3933460497
 20
4.6504628258
 10
-0.3848642673
 20
4.6694645247
 10
-0.3653106407
 20
4.6877816781
 10
-0.335247692
 20
4.7048873348
 10
-0.2955402777
 20
4.7202893962
 10
-0.2473307076
 20
4.7335447731
 10
-0.1920058834
 20
4.7442721323
 10
-0.1311573995
 20
4.7521628674
 10
-0.066535756
 20
4.7569899761
 10
0.0
 20
4.7586145914
  0
LWPOLYLINE
  5
AD
330
1F
100
AcDbEntity
  8
0
  6
Continuous
 62
     7
370
    25
100
AcDbPolyline
 90
       34
 70
   128
 43
0.0
 10
0.0
 20
4.7360255314
 10
0.0596066911
 20
4.7343926764
 10
0.1170590412
 20
4.7295531272
 10
0.1702805724
 20
4.7216817975
 10
0.2173477202
 20
4.7110631778
 10
0.256559355
 20
4.6980810527
 10
0.2864982663
 20
4.68320463
 10
0.3060823837
 20
4.6669715823
 10
0.3146038864
 20
4.6499686143
 10
0.3117547848
 20
4.6328102576
 10
0.2976380531
 20
4.6161166599
 10
0.2727639067
 20
4.6004911713
 10
0.238031362
 20
4.5864985377
 10
0.1946957437
 20
4.5746444892
 10
0.1443233139
 20
4.5653574622
 10
0.0887346636
 20
4.5589731139
 10
0.0299389113
 20
4.5557221913
 10
-0.0299389113
 20
4.5557221913
 10
-0.0887346636
 20
4.5589731139
 10
-0.1443233139
 20
4.5653574622
 10
-0.1946957437
 20
4.5746444892
 10
-0.238031362
 20
4.5864985377
 10
-0.2727639067
 20
4.6004911713
 10
-0.2976380531
 20
4.6161166599
 10
-0.3117547848
 20
4.6328102576
 10
-0.3146038864
 20
4.6499686143
 10
-0.3060823837
 20
4.6669715823
 10
-0.2864982663
 20
4.68320463
 10
-0.256559355
 20
4.6980810527
 10
-0.2173477202
 20
4.7110631778
 10
-0.1702805724
 20
4.7216817975
 10
-0.1170590412
 20
4.7295531272
 10
-0.0596066911
 20
4.7343926764
 10
0.0
 20
4.7360255314
  0
LWPOLYLINE
  5
B3
330
1F
100
AcDbEntity
  8
0
  6
Continuous
 62
     8
370
    25
100
AcDbPolyline
 90
       11
 70
   128
 43
0.0
 10
0.0
 20
6.6173887541
 10
0.066535756
 20
6.6157641388
 10
0.1311573995
 20
6.6109370301
 10
0.1920058834
 20
6.603046295
 10
0.2473307076
 20
6.5923189358
 10
0.2955402777
 20
6.579063559
 10
0.335247692
 20
6.5636614975
 10
0.3653106407
 20
6.5465558408
 10
0.3848642673
 20
6.5282386874
 10
0.3933460497
 20
6.5092369885
 10
0.3937007874
 20
6.5044434541
  0
LWPOLYLINE
  5
B4
330
1F
100
AcDbEntity
  8
0
  6
Continuous
 62
     8
370
    25
100
AcDbPolyline
 90
       11
 70
   128
 43
0.0
 10
-0.3937007874
 20
6.5044434541
 10
-0.3933460497
 20
6.5092369885
 10
-0.3848642673
 20
6.5282386874
 10
-0.3653106407
 20
6.5465558408
 10
-0.335247692
 20
6.5636614975
 10
-0.2955402777
 20
6.579063559
 10
-0.2473307076
 20
6.5923189358
 10
-0.1920058834
 20
6.603046295
 10
-0.1311573995
 20
6.6109370301
 10
-0.066535756
 20
6.6157641388
 10
0.0
 20
6.6173887541
  0
LINE
  5
B5
330
1F
100
AcDbEntity
  8
0
  6
Continuous
 62
     7
370
    25
100
AcDbLine
 10
-5.0
 20
0.1968503937
 30
0.0
 11
-5.0
 21
0.0
 31
0.0
  0
LINE
  5
B6
330
1F
100
AcDbEntity
  8
0
  6
Continuous
 62
     7
370
    25
100
AcDbLine
 10
-2.874015748
 20
0.0
 30
0.0
 11
-2.874015748
 21
0.1968503937
 31
0.0
  0
LINE
  5
B7
330
1F
100
AcDbEntity
  8
0
  6
Continuous
 62
     7
370
    25
100
AcDbLine
 10
-3.2480314961
 20
0.8661417323
 30
0.0
 11
-3.2480314961
 21
2.0078740157
 31
0.0
  0
LINE
  5
B8
330
1F
100
AcDbEntity
  8
0
  6
Continuous
 62
     7
370
    25
100
AcDbLine
 10
-4.625984252
 20
1.4574071596
 30
0.0
 11
-4.625984252
 21
0.8661417323
 31
0.0
  0
LINE
  5
B9
330
1F
100
AcDbEntity
  8
0
  6
Continuous
 62
     7
370
    25
100
AcDbLine
 10
-4.625984252
 20
2.0078740157
 30
0.0
 11
-4.625984252
 21
1.76976282
 31
0.0
  0
LINE
  5
BA
330
1F
100
AcDbEntity
  8
0
  6
Continuous
 62
     7
370
    25
100
AcDbLine
 10
-4.625984252
 20
0.8267716535
 30
0.0
 11
-4.625984252
 21
0.1968503937
 31
0.0
  0
LINE
  5
BB
330
1F
100
AcDbEntity
  8
0
  6
Continuous
 62
     7
370
    25
100
AcDbLine
 10
-3.2480314961
 20
0.1968503937
 30
0.0
 11
-3.2480314961
 21
0.8267716535
 31
0.0
  0
LINE
  5
BC
330
1F
100
AcDbEntity
  8
0
  6
Continuous
 62
     7
370
    25
100
AcDbLine
 10
-4.6062992126
 20
0.8661417323
 30
0.0
 11
-4.6062992126
 21
0.8267716535
 31
0.0
  0
LINE
  5
BD
330
1F
100
AcDbEntity
  8
0
  6
Continuous
 62
     7
370
    25
100
AcDbLine
 10
-3.2677165354
 20
0.8267716535
 30
0.0
 11
-3.2677165354
 21
0.8661417323
 31
0.0
  0
LINE
  5
BE
330
1F
100
AcDbEntity
  8
0
  6
Continuous
 62
     7
370
    25
100
AcDbLine
 10
-5.7992125984
 20
1.4566929134
 30
0.0
 11
-4.6258269373
 21
1.4566929134
 31
0.0
  0
LINE
  5
BF
330
1F
100
AcDbEntity
  8
0
  6
Continuous
 62
     7
370
    25
100
AcDbLine
 10
-4.6255578934
 20
1.7716535433
 30
0.0
 11
-5.7992125984
 21
1.7716535433
 31
0.0
  0
LINE
  5
C0
330
1F
100
AcDbEntity
  8
0
  6
Continuous
 62
     7
370
    25
100
AcDbLine
 10
2.874015748
 20
0.1968503937
 30
0.0
 11
2.874015748
 21
0.0
 31
0.0
  0
LINE
  5
C1
330
1F
100
AcDbEntity
  8
0
  6
Continuous
 62
     7
370
    25
100
AcDbLine
 10
5.0
 20
0.0
 30
0.0
 11
5.0
 21
0.1968503937
 31
0.0
  0
LINE
  5
C2
330
1F
100
AcDbEntity
  8
0
  6
Continuous
 62
     7
370
    25
100
AcDbLine
 10
3.2480314961
 20
0.8267716535
 30
0.0
 11
3.2480314961
 21
0.1968503937
 31
0.0
  0
LINE
  5
C3
330
1F
100
AcDbEntity
  8
0
  6
Continuous
 62
     7
370
    25
100
AcDbLine
 10
4.625984252
 20
0.1968503937
 30
0.0
 11
4.625984252
 21
0.8267716535
 31
0.0
  0
LINE
  5
C4
330
1F
100
AcDbEntity
  8
0
  6
Continuous
 62
     7
370
    25
100
AcDbLine
 10
4.625984252
 20
1.7711091987
 30
0.0
 11
4.625984252
 21
2.0078740157
 31
0.0
  0
LINE
  5
C5
330
1F
100
AcDbEntity
  8
0
  6
Continuous
 62
     7
370
    25
100
AcDbLine
 10
4.625984252
 20
0.8661417323
 30
0.0
 11
4.625984252
 21
1.4570076891
 31
0.0
  0
LINE
  5
C6
330
1F
100
AcDbEntity
  8
0
  6
Continuous
 62
     7
370
    25
100
AcDbLine
 10
3.2480314961
 20
2.0078740157
 30
0.0
 11
3.2480314961
 21
0.8661417323
 31
0.0
  0
LINE
  5
C7
330
1F
100
AcDbEntity
  8
0
  6
Continuous
 62
     7
370
    25
100
AcDbLine
 10
3.2677165354
 20
0.8661417323
 30
0.0
 11
3.2677165354
 21
0.8267716535
 31
0.0
  0
LINE
  5
C8
330
1F
100
AcDbEntity
  8
0
  6
Continuous
 62
     7
370
    25
100
AcDbLine
 10
4.6062992126
 20
0.8267716535
 30
0.0
 11
4.6062992126
 21
0.8661417323
 31
0.0
  0
LINE
  5
C9
330
1F
100
AcDbEntity
  8
0
  6
Continuous
 62
     7
370
    25
100
AcDbLine
 10
5.7992125984
 20
1.7716535433
 30
0.0
 11
4.6258601138
 21
1.7716535433
 31
0.0
  0
LINE
  5
CA
330
1F
100
AcDbEntity
  8
0
  6
Continuous
 62
     7
370
    25
100
AcDbLine
 10
4.6259127331
 20
1.4566929134
 30
0.0
 11
5.7992125984
 21
1.4566929134
 31
0.0
  0
LINE
  5
CB
330
1F
100
AcDbEntity
  8
0
  6
Continuous
 62
     7
370
    25
100
AcDbLine
 10
1.1023622047
 20
0.0
 30
0.0
 11
1.1023622047
 21
0.1968503937
 31
0.0
  0
LINE
  5
CC
330
1F
100
AcDbEntity
  8
0
  6
Continuous
 62
     7
370
    25
100
AcDbLine
 10
-1.1023622047
 20
0.1968503937
 30
0.0
 11
-1.1023622047
 21
0.0
 31
0.0
  0
LINE
  5
CD
330
1F
100
AcDbEntity
  8
0
  6
Continuous
 62
     7
370
    25
100
AcDbLine
 10
0.3937007874
 20
0.2362204724
 30
0.0
 11
0.3937007874
 21
8.188976378
 31
0.0
  0
LINE
  5
CE
330
1F
100
AcDbEntity
  8
0
  6
Continuous
 62
     7
370
    25
100
AcDbLine
 10
-0.3937007874
 20
8.188976378
 30
0.0
 11
-0.3937007874
 21
0.2362204724
 31
0.0
  0
LINE
  5
CF
330
1F
100
AcDbEntity
  8
0
  6
Continuous
 62
     7
370
    25
100
AcDbLine
 10
-2.874015748
 20
0.0
 30
0.0
 11
-5.0
 21
0.0
 31
0.0
  0
LINE
  5
D0
330
1F
100
AcDbEntity
  8
0
  6
Continuous
 62
     7
370
    25
100
AcDbLine
 10
-2.874015748
 20
0.1968503937
 30
0.0
 11
-5.0
 21
0.1968503937
 31
0.0
  0
LINE
  5
D1
330
1F
100
AcDbEntity
  8
0
  6
Continuous
 62
     7
370
    25
100
AcDbLine
 10
-4.625984252
 20
0.8661417323
 30
0.0
 11
-3.2480314961
 21
0.8661417323
 31
0.0
  0
LINE
  5
D2
330
1F
100
AcDbEntity
  8
0
  6
Continuous
 62
     7
370
    25
100
AcDbLine
 10
-4.625984252
 20
2.0078740157
 30
0.0
 11
-3.2480314961
 21
2.0078740157
 31
0.0
  0
LINE
  5
D3
330
1F
100
AcDbEntity
  8
0
  6
Continuous
 62
     7
370
    25
100
AcDbLine
 10
-3.2480314961
 20
0.8267716535
 30
0.0
 11
-4.625984252
 21
0.8267716535
 31
0.0
  0
LINE
  5
D4
330
1F
100
AcDbEntity
  8
0
  6
Continuous
 62
     7
370
    25
100
AcDbLine
 10
-5.8070866142
 20
1.4645669291
 30
0.0
 11
-5.8070866142
 21
1.7637795276
 31
0.0
  0
LINE
  5
D5
330
1F
100
AcDbEntity
  8
0
  6
Continuous
 62
     7
370
    25
100
AcDbLine
 10
5.0
 20
0.1968503937
 30
0.0
 11
2.874015748
 21
0.1968503937
 31
0.0
  0
LINE
  5
D6
330
1F
100
AcDbEntity
  8
0
  6
Continuous
 62
     7
370
    25
100
AcDbLine
 10
5.0
 20
0.0
 30
0.0
 11
2.874015748
 21
0.0
 31
0.0
  0
LINE
  5
D7
330
1F
100
AcDbEntity
  8
0
  6
Continuous
 62
     7
370
    25
100
AcDbLine
 10
4.625984252
 20
0.8267716535
 30
0.0
 11
3.2480314961
 21
0.8267716535
 31
0.0
  0
LINE
  5
D8
330
1F
100
AcDbEntity
  8
0
  6
Continuous
 62
     7
370
    25
100
AcDbLine
 10
3.2480314961
 20
2.0078740157
 30
0.0
 11
4.625984252
 21
2.0078740157
 31
0.0
  0
LINE
  5
D9
330
1F
100
AcDbEntity
  8
0
  6
Continuous
 62
     7
370
    25
100
AcDbLine
 10
3.2480314961
 20
0.8661417323
 30
0.0
 11
4.625984252
 21
0.8661417323
 31
0.0
  0
LINE
  5
DA
330
1F
100
AcDbEntity
  8
0
  6
Continuous
 62
     7
370
    25
100
AcDbLine
 10
5.8070866142
 20
1.7637795276
 30
0.0
 11
5.8070866142
 21
1.4645669291
 31
0.0
  0
LINE
  5
DB
330
1F
100
AcDbEntity
  8
0
  6
Continuous
 62
     7
370
    25
100
AcDbLine
 10
-1.1023622047
 20
0.0
 30
0.0
 11
1.1023622047
 21
0.0
 31
0.0
  0
LINE
  5
DC
330
1F
100
AcDbEntity
  8
0
  6
Continuous
 62
     7
370
    25
100
AcDbLine
 10
-1.062992126
 20
0.2362204724
 30
0.0
 11
1.062992126
 21
0.2362204724
 31
0.0
  0
LINE
  5
DD
330
1F
100
AcDbEntity
  8
0
  6
Continuous
 62
     8
370
    25
100
AcDbLine
 10
-5.7992125984
 20
1.7716535433
 30
0.0
 11
-5.7992125984
 21
1.4566929134
 31
0.0
  0
LINE
  5
DE
330
1F
100
AcDbEntity
  8
0
  6
Continuous
 62
     8
370
    25
100
AcDbLine
 10
5.7992125984
 20
1.4566929134
 30
0.0
 11
5.7992125984
 21
1.7716535433
 31
0.0
  0
LINE
  5
DF
330
1F
100
AcDbEntity
  8
0
  6
Continuous
 62
     8
370
    25
100
AcDbLine
 10
1.1023622047
 20
0.1968503937
 30
0.0
 11
-1.1023622047
 21
0.1968503937
 31
0.0
  0
ARC
  5
E0
330
1F
100
AcDbEntity
  8
0
  6
Continuous
 62
     7
370
    25
100
AcDbCircle
 10
-5.7992125984
 20
1.4645669291
 30
0.0
 40
0.0078740157480308
100
AcDbArc
 50
180.0
 51
270.0
  0
ARC
  5
E1
330
1F
100
AcDbEntity
  8
0
  6
Continuous
 62
     7
370
    25
100
AcDbCircle
 10
-5.7992125984
 20
1.7637795276
 30
0.0
 40
0.0078740157480315
100
AcDbArc
 50
90.0
 51
180.0
  0
ARC
  5
E2
330
1F
100
AcDbEntity
  8
0
  6
Continuous
 62
     7
370
    25
100
AcDbCircle
 10
5.7992125984
 20
1.7637795276
 30
0.0
 40
0.0078740157480306
100
AcDbArc
 50
360.0
 51
90.0
  0
ARC
  5
E3
330
1F
100
AcDbEntity
  8
0
  6
Continuous
 62
     7
370
    25
100
AcDbCircle
 10
5.7992125984
 20
1.4645669291
 30
0.0
 40
0.0078740157480308
100
AcDbArc
 50
270.0
 51
0.0
  0
ARC
  5
E4
330
1F
100
AcDbEntity
  8
0
  6
Continuous
 62
     7
370
    25
100
AcDbCircle
 10
-1.062992126
 20
0.1968503937
 30
0.0
 40
0.0393700787401579
100
AcDbArc
 50
90.0
 51
180.0
  0
ARC
  5
E5
330
1F
100
AcDbEntity
  8
0
  6
Continuous
 62
     7
370
    25
100
AcDbCircle
 10
1.062992126
 20
0.1968503937
 30
0.0
 40
0.0393700787401579
100
AcDbArc
 50
0.0
 51
90.0
  0
ARC
  5
E6
330
1F
100
AcDbEntity
  8
0
  6
Continuous
 62
     7
370
    25
100
AcDbCircle
 10
0.0
 20
8.188976378
 30
0.0
 40
0.393700787401575
100
AcDbArc
 50
0.0
 51
180.0
  0
CIRCLE
  5
F9
330
1B
100
AcDbEntity
 67
     1
  8
0
  6
Continuous
 62
     7
370
    25
100
AcDbCircle
 10
0.0
 20
1.6141732283
 30
0.0
 40
0.1496062992125985
  0
CIRCLE
  5
FA
330
1B
100
AcDbEntity
 67
     1
  8
0
  6
Continuous
 62
     7
370
    25
100
AcDbCircle
 10
0.0
 20
1.6141732283
 30
0.0
 40
0.1574803149606299
  0
LINE
  5
10B
330
1B
100
AcDbEntity
 67
     1
  8
0
  6
Continuous
 62
     7
370
    25
100
AcDbLine
 10
-1.062992126
 20
0.1968503937
 30
0.0
 11
-1.062992126
 21
0.0
 31
0.0
  0
LINE
  5
10C
330
1B
100
AcDbEntity
 67
     1
  8
0
  6
Continuous
 62
     7
370
    25
100
AcDbLine
 10
1.062992126
 20
0.0
 30
0.0
 11
1.062992126
 21
0.1968503937
 31
0.0
  0
LINE
  5
10D
330
1B
100
AcDbEntity
 67
     1
  8
0
  6
Continuous
 62
     7
370
    25
100
AcDbLine
 10
0.688976378
 20
0.8661417323
 30
0.0
 11
0.688976378
 21
2.0078740157
 31
0.0
  0
LINE
  5
10E
330
1B
100
AcDbEntity
 67
     1
  8
0
  6
Continuous
 62
     7
370
    25
100
AcDbLine
 10
-0.688976378
 20
2.0078740157
 30
0.0
 11
-0.688976378
 21
0.8661417323
 31
0.0
  0
LINE
  5
10F
330
1B
100
AcDbEntity
 67
     1
  8
0
  6
Continuous
 62
     7
370
    25
100
AcDbLine
 10
-0.688976378
 20
0.8267716535
 30
0.0
 11
-0.688976378
 21
0.1968503937
 31
0.0
  0
LINE
  5
110
330
1B
100
AcDbEntity
 67
     1
  8
0
  6
Continuous
 62
     7
370
    25
100
AcDbLine
 10
0.688976378
 20
0.1968503937
 30
0.0
 11
0.688976378
 21
0.8267716535
 31
0.0
  0
LINE
  5
111
330
1B
100
AcDbEntity
 67
     1
  8
0
  6
Continuous
 62
     7
370
    25
100
AcDbLine
 10
-0.6692913386
 20
0.8661417323
 30
0.0
 11
-0.6692913386
 21
0.8267716535
 31
0.0
  0
LINE
  5
112
330
1B
100
AcDbEntity
 67
     1
  8
0
  6
Continuous
 62
     7
370
    25
100
AcDbLine
 10
0.6692913386
 20
0.8267716535
 30
0.0
 11
0.6692913386
 21
0.8661417323
 31
0.0
  0
LINE
  5
113
330
1B
100
AcDbEntity
 67
     1
  8
0
  6
Continuous
 62
     7
370
    25
100
AcDbLine
 10
1.1023622047
 20
0.0
 30
0.0
 11
1.1023622047
 21
0.1968503937
 31
0.0
  0
LINE
  5
114
330
1B
100
AcDbEntity
 67
     1
  8
0
  6
Continuous
 62
     7
370
    25
100
AcDbLine
 10
-1.1023622047
 20
0.1968503937
 30
0.0
 11
-1.1023622047
 21
0.0
 31
0.0
  0
LINE
  5
115
330
1B
100
AcDbEntity
 67
     1
  8
0
  6
Continuous
 62
     7
370
    25
100
AcDbLine
 10
5.5589140844
 20
4.7586145914
 30
0.0
 11
5.0022690778
 21
6.6173887541
 31
0.0
  0
LINE
  5
116
330
1B
100
AcDbEntity
 67
     1
  8
0
  6
Continuous
 62
     7
370
    25
100
AcDbLine
 10
4.2479649769
 20
6.391498154
 30
0.0
 11
4.8046099834
 21
4.5327239913
 31
0.0
  0
LINE
  5
117
330
1B
100
AcDbEntity
 67
     1
  8
0
  6
Continuous
 62
     7
370
    25
100
AcDbLine
 10
-0.3937007874
 20
5.8267716535
 30
0.0
 11
-0.3937007874
 21
2.0078740157
 31
0.0
  0
LINE
  5
118
330
1B
100
AcDbEntity
 67
     1
  8
0
  6
Continuous
 62
     7
370
    25
100
AcDbLine
 10
0.3937007874
 20
2.0078740157
 30
0.0
 11
0.3937007874
 21
5.8267716535
 31
0.0
  0
LINE
  5
119
330
1B
100
AcDbEntity
 67
     1
  8
0
  6
Continuous
 62
     7
370
    25
100
AcDbLine
 10
1.1023622047
 20
0.1968503937
 30
0.0
 11
-1.1023622047
 21
0.1968503937
 31
0.0
  0
LINE
  5
11A
330
1B
100
AcDbEntity
 67
     1
  8
0
  6
Continuous
 62
     7
370
    25
100
AcDbLine
 10
1.1023622047
 20
0.0
 30
0.0
 11
-1.1023622047
 21
0.0
 31
0.0
  0
LINE
  5
11B
330
1B
100
AcDbEntity
 67
     1
  8
0
  6
Continuous
 62
     7
370
    25
100
AcDbLine
 10
-0.688976378
 20
0.8661417323
 30
0.0
 11
0.688976378
 21
0.8661417323
 31
0.0
  0
LINE
  5
11C
330
1B
100
AcDbEntity
 67
     1
  8
0
  6
Continuous
 62
     7
370
    25
100
AcDbLine
 10
-0.688976378
 20
2.0078740157
 30
0.0
 11
0.688976378
 21
2.0078740157
 31
0.0
  0
LINE
  5
11D
330
1B
100
AcDbEntity
 67
     1
  8
0
  6
Continuous
 62
     7
370
    25
100
AcDbLine
 10
0.688976378
 20
0.8267716535
 30
0.0
 11
-0.688976378
 21
0.8267716535
 31
0.0
  0
LINE
  5
11E
330
1B
100
AcDbEntity
 67
     1
  8
0
  6
Continuous
 62
     7
370
    25
100
AcDbLine
 10
-1.0629921259
 20
0.2362204724
 30
0.0
 11
-0.688976378
 21
0.2362204724
 31
0.0
  0
LINE
  5
11F
330
1B
100
AcDbEntity
 67
     1
  8
0
  6
Continuous
 62
     7
370
    25
100
AcDbLine
 10
0.688976378
 20
0.2362204724
 30
0.0
 11
1.062992126
 21
0.2362204724
 31
0.0
  0
LINE
  5
120
330
1B
100
AcDbEntity
 67
     1
  8
0
  6
Continuous
 62
     7
370
    25
100
AcDbLine
 10
4.8046099834
 20
4.5327239913
 30
0.0
 11
5.5589140844
 21
4.7586145914
 31
0.0
  0
LINE
  5
121
330
1B
100
AcDbEntity
 67
     1
  8
0
  6
Continuous
 62
     8
370
    25
100
AcDbLine
 10
4.2479649769
 20
6.391498154
 30
0.0
 11
5.0022690778
 21
6.6173887541
 31
0.0
  0
LINE
  5
122
330
1B
100
AcDbEntity
 67
     1
  8
0
  6
Continuous
 62
     8
370
    25
100
AcDbLine
 10
0.3937007874
 20
5.8267716535
 30
0.0
 11
-0.3937007874
 21
5.8267716535
 31
0.0
  0
ARC
  5
123
330
1B
100
AcDbEntity
 67
     1
  8
0
  6
Continuous
 62
     7
370
    25
100
AcDbCircle
 10
-1.062992126
 20
0.1968503937
 30
0.0
 40
0.0393700787401584
100
AcDbArc
 50
90.0
 51
180.0
  0
ARC
  5
124
330
1B
100
AcDbEntity
 67
     1
  8
0
  6
Continuous
 62
     7
370
    25
100
AcDbCircle
 10
1.062992126
 20
0.1968503937
 30
0.0
 40
0.0393700787401579
100
AcDbArc
 50
0.0
 51
90.0
  0
ARC
  5
125
330
1B
100
AcDbEntity
 67
     1
  8
0
  6
Continuous
 62
     7
370
    25
100
AcDbCircle
 10
2.3622047244
 20
5.8267716535
 30
0.0
 40
1.968503937007874
100
AcDbArc
 50
16.6713215783
 51
180.0
  0
ARC
  5
126
330
1B
100
AcDbEntity
 67
     1
  8
0
  6
Continuous
 62
     7
370
    25
100
AcDbCircle
 10
2.3622047244
 20
5.8267716535
 30
0.0
 40
2.755905511811024
100
AcDbArc
 50
16.6713215783
 51
180.0
  0
VIEWPORT
  5
1D0
330
1B
100
AcDbEntity
 67
     1
  8
0
100
AcDbViewport
 10
0.0
 20
0.0
 30
0.0
 40
8.4
 41
6.4
 68
     1
 69
     1
 12
0.0
 22
4.2913385827
 13
0.0
 23
0.0
 14
0.5
 24
0.5
 15
0.5
 25
0.5
 16
0.0
 26
0.0
 36
1.0
 17
0.0
 27
0.0
 37
0.0
 42
50.0
 43
0.0
 44
0.0
 45
9.025871766
 50
0.0
 51
0.0
 72
   100
 90
   557152
  1

281
     0
 71
     1
 74
     0
110
0.0
120
0.0
130
0.0
111
1.0
121
0.0
131
0.0
112
0.0
122
1.0
132
0.0
 79
     0
146
0.0
  0
ENDSEC
  0
SECTION
  2
OBJECTS
  0
DICTIONARY
  5
C
330
0
100
AcDbDictionary
281
     1
  3
ACAD_GROUP
350
D
  3
ACAD_LAYOUT
350
1A
  3
ACAD_MLINESTYLE
350
17
  3
ACAD_PLOTSETTINGS
350
19
  3
ACAD_PLOTSTYLENAME
350
E
  3
ACAD_SCALELIST
350
47
  0
DICTIONARY
  5
D
102
{ACAD_REACTORS
330
C
102
}
330
C
100
AcDbDictionary
281
     1
  0
DICTIONARY
  5
1A
102
{ACAD_REACTORS
330
C
102
}
330
C
100
AcDbDictionary
281
     1
  3
_Isometric
350
15F
  3
_Left
350
1E
  3
_Top
350
26
  3
Model
350
22
  0
DICTIONARY
  5
17
102
{ACAD_REACTORS
330
C
102
}
330
C
100
AcDbDictionary
281
     1
  3
Standard
350
18
  0
DICTIONARY
  5
19
102
{ACAD_REACTORS
330
C
102
}
330
C
100
AcDbDictionary
281
     1
  0
ACDBDICTIONARYWDFLT
  5
E
102
{ACAD_REACTORS
330
C
102
}
330
C
100
AcDbDictionary
281
     1
  3
Normal
350
F
100
AcDbDictionaryWithDefault
340
F
  0
DICTIONARY
  5
47
102
{ACAD_REACTORS
330
C
102
}
330
C
100
AcDbDictionary
281
     1
  3
A0
350
48
  3
A1
350
49
  3
A2
350
4A
  3
A3
350
4B
  3
A4
350
4C
  3
A5
350
4D
  3
A6
350
4E
  3
A7
350
4F
  3
A8
350
50
  3
A9
350
51
  3
B0
350
52
  3
B1
350
53
  3
B2
350
54
  3
B3
350
55
  3
B4
350
56
  3
B5
350
57
  3
B6
350
58
  3
B7
350
59
  3
B8
350
5A
  3
B9
350
5B
  3
C0
350
5C
  3
C1
350
5D
  3
C2
350
5E
  3
C3
350
5F
  3
C4
350
60
  3
C5
350
61
  3
C6
350
62
  3
C7
350
63
  3
C8
350
64
  3
C9
350
65
  3
D0
350
66
  3
D1
350
67
  3
D2
350
68
  0
LAYOUT
  5
15F
102
{ACAD_REACTORS
330
1A
102
}
330
1A
100
AcDbPlotSettings
  1

  2
none_device
  4
Letter_(8.50_x_11.00_Inches)
  6

 40
6.35
 41
6.35
 42
6.35001
 43
6.35001
 44
215.9
 45
279.4
 46
0.0
 47
0.0
 48
0.0
 49
0.0
140
0.0
141
0.0
142
1.0
143
1.0728346985
 70
   688
 72
     0
 73
     1
 74
     1
  7

 75
     0
147
0.9321100459
148
28.0
149
0.0
100
AcDbLayout
  1
_Isometric
 70
     1
 71
     3
 10
0.0
 20
0.0
 11
0.0
 21
0.0
 12
0.0
 22
0.0
 32
0.0
 14
0.0
 24
0.0
 34
0.0
 15
0.0
 25
0.0
 35
0.0
146
0.0
 13
0.0
 23
0.0
 33
0.0
 16
1.0
 26
0.0
 36
0.0
 17
0.0
 27
1.0
 37
0.0
 76
     0
330
15E
331
1D4
  0
LAYOUT
  5
1E
102
{ACAD_REACTORS
330
1A
102
}
330
1A
100
AcDbPlotSettings
  1

  2
none_device
  4
Letter_(8.50_x_11.00_Inches)
  6

 40
6.35
 41
6.35
 42
6.35001
 43
6.35001
 44
215.9
 45
279.4
 46
0.0
 47
0.0
 48
0.0
 49
0.0
140
0.0
141
0.0
142
1.0
143
1.0728346985
 70
   688
 72
     0
 73
     1
 74
     1
  7

 75
     0
147
0.9321100459
148
28.0
149
0.0
100
AcDbLayout
  1
_Left
 70
     1
 71
     1
 10
-1.3705713017
 20
-0.2682086746
 11
10.4306103814
 21
8.8508862623
 12
0.0
 22
0.0
 32
0.0
 14
-1.1023622047
 24
0.0
 34
0.0
 15
5.5589140844
 25
8.5826771654
 35
0.0
146
0.0
 13
0.0
 23
0.0
 33
0.0
 16
1.0
 26
0.0
 36
0.0
 17
0.0
 27
1.0
 37
0.0
 76
     0
330
1B
331
1D0
  0
LAYOUT
  5
26
102
{ACAD_REACTORS
330
1A
102
}
330
1A
100
AcDbPlotSettings
  1

  2
none_device
  4
Letter_(8.50_x_11.00_Inches)
  6

 40
6.35
 41
6.35
 42
6.35001
 43
6.35001
 44
215.9
 45
279.4
 46
0.0
 47
0.0
 48
0.0
 49
0.0
140
0.0
141
0.0
142
1.0
143
1.0728346985
 70
   688
 72
     0
 73
     1
 74
     1
  7

 75
     0
147
0.9321100459
148
28.0
149
0.0
100
AcDbLayout
  1
_Top
 70
     1
 71
     2
 10
0.0
 20
0.0
 11
0.0
 21
0.0
 12
0.0
 22
0.0
 32
0.0
 14
0.0
 24
0.0
 34
0.0
 15
0.0
 25
0.0
 35
0.0
146
0.0
 13
0.0
 23
0.0
 33
0.0
 16
1.0
 26
0.0
 36
0.0
 17
0.0
 27
1.0
 37
0.0
 76
     0
330
23
331
1D2
  0
LAYOUT
  5
22
102
{ACAD_REACTORS
330
1A
102
}
330
1A
100
AcDbPlotSettings
  1

  2
none_device
  4
ANSI_A_(11.00_x_8.50_Inches)
  6

 40
6.35
 41
19.05
 42
6.35000508
 43
19.05000254
 44
279.4
 45
215.9
 46
133.34999746
 47
-13.3035741514
 48
0.0
 49
0.0
140
0.0
141
0.0
142
0.9376474576
143
1.0
 70
  1696
 72
     0
 73
     0
 74
     0
  7

 75
     0
147
0.5913241897
148
-39.4088153714
149
0.0
100
AcDbLayout
  1
Model
 70
     1
 71
     0
 10
0.0
 20
0.0
 11
12.0
 21
9.0
 12
0.0
 22
0.0
 32
0.0
 14
-5.8070866142
 24
0.0
 34
0.0
 15
5.8070866142
 25
8.5826771654
 35
0.0
146
0.0
 13
0.0
 23
0.0
 33
0.0
 16
1.0
 26
0.0
 36
0.0
 17
0.0
 27
1.0
 37
0.0
 76
     0
330
1F
331
29
  0
MLINESTYLE
  5
18
102
{ACAD_REACTORS
330
17
102
}
330
17
100
AcDbMlineStyle
  2
Standard
 70
     0
  3

 62
   256
 51
90.0
 52
90.0
 71
     2
 49
0.5
 62
   256
  6
BYLAYER
 49
-0.5
 62
   256
  6
BYLAYER
  0
ACDBPLACEHOLDER
  5
F
102
{ACAD_REACTORS
330
E
102
}
330
E
  0
SCALE
  5
48
102
{ACAD_REACTORS
330
47
102
}
330
47
100
AcDbScale
 70
     0
300
1:1
140
1.0
141
1.0
290
     1
  0
SCALE
  5
49
102
{ACAD_REACTORS
330
47
102
}
330
47
100
AcDbScale
 70
     0
300
1:2
140
1.0
141
2.0
290
     0
  0
SCALE
  5
4A
102
{ACAD_REACTORS
330
47
102
}
330
47
100
AcDbScale
 70
     0
300
1:4
140
1.0
141
4.0
290
     0
  0
SCALE
  5
4B
102
{ACAD_REACTORS
330
47
102
}
330
47
100
AcDbScale
 70
     0
300
1:5
140
1.0
141
5.0
290
     0
  0
SCALE
  5
4C
102
{ACAD_REACTORS
330
47
102
}
330
47
100
AcDbScale
 70
     0
300
1:8
140
1.0
141
8.0
290
     0
  0
SCALE
  5
4D
102
{ACAD_REACTORS
330
47
102
}
330
47
100
AcDbScale
 70
     0
300
1:10
140
1.0
141
10.0
290
     0
  0
SCALE
  5
4E
102
{ACAD_REACTORS
330
47
102
}
330
47
100
AcDbScale
 70
     0
300
1:16
140
1.0
141
16.0
290
     0
  0
SCALE
  5
4F
102
{ACAD_REACTORS
330
47
102
}
330
47
100
AcDbScale
 70
     0
300
1:20
140
1.0
141
20.0
290
     0
  0
SCALE
  5
50
102
{ACAD_REACTORS
330
47
102
}
330
47
100
AcDbScale
 70
     0
300
1:30
140
1.0
141
30.0
290
     0
  0
SCALE
  5
51
102
{ACAD_REACTORS
330
47
102
}
330
47
100
AcDbScale
 70
     0
300
1:40
140
1.0
141
40.0
290
     0
  0
SCALE
  5
52
102
{ACAD_REACTORS
330
47
102
}
330
47
100
AcDbScale
 70
     0
300
1:50
140
1.0
141
50.0
290
     0
  0
SCALE
  5
53
102
{ACAD_REACTORS
330
47
102
}
330
47
100
AcDbScale
 70
     0
300
1:100
140
1.0
141
100.0
290
     0
  0
SCALE
  5
54
102
{ACAD_REACTORS
330
47
102
}
330
47
100
AcDbScale
 70
     0
300
2:1
140
2.0
141
1.0
290
     0
  0
SCALE
  5
55
102
{ACAD_REACTORS
330
47
102
}
330
47
100
AcDbScale
 70
     0
300
4:1
140
4.0
141
1.0
290
     0
  0
SCALE
  5
56
102
{ACAD_REACTORS
330
47
102
}
330
47
100
AcDbScale
 70
     0
300
8:1
140
8.0
141
1.0
290
     0
  0
SCALE
  5
57
102
{ACAD_REACTORS
330
47
102
}
330
47
100
AcDbScale
 70
     0
300
10:1
140
10.0
141
1.0
290
     0
  0
SCALE
  5
58
102
{ACAD_REACTORS
330
47
102
}
330
47
100
AcDbScale
 70
     0
300
100:1
140
100.0
141
1.0
290
     0
  0
SCALE
  5
59
102
{ACAD_REACTORS
330
47
102
}
330
47
100
AcDbScale
 70
     0
300
1/128" = 1'-0"
140
0.0078125
141
12.0
290
     0
  0
SCALE
  5
5A
102
{ACAD_REACTORS
330
47
102
}
330
47
100
AcDbScale
 70
     0
300
1/64" = 1'-0"
140
0.015625
141
12.0
290
     0
  0
SCALE
  5
5B
102
{ACAD_REACTORS
330
47
102
}
330
47
100
AcDbScale
 70
     0
300
1/32" = 1'-0"
140
0.03125
141
12.0
290
     0
  0
SCALE
  5
5C
102
{ACAD_REACTORS
330
47
102
}
330
47
100
AcDbScale
 70
     0
300
1/16" = 1'-0"
140
0.0625
141
12.0
290
     0
  0
SCALE
  5
5D
102
{ACAD_REACTORS
330
47
102
}
330
47
100
AcDbScale
 70
     0
300
3/32" = 1'-0"
140
0.09375
141
12.0
290
     0
  0
SCALE
  5
5E
102
{ACAD_REACTORS
330
47
102
}
330
47
100
AcDbScale
 70
     0
300
1/8" = 1'-0"
140
0.125
141
12.0
290
     0
  0
SCALE
  5
5F
102
{ACAD_REACTORS
330
47
102
}
330
47
100
AcDbScale
 70
     0
300
3/16" = 1'-0"
140
0.1875
141
12.0
290
     0
  0
SCALE
  5
60
102
{ACAD_REACTORS
330
47
102
}
330
47
100
AcDbScale
 70
     0
300
1/4" = 1'-0"
140
0.25
141
12.0
290
     0
  0
SCALE
  5
61
102
{ACAD_REACTORS
330
47
102
}
330
47
100
AcDbScale
 70
     0
300
3/8" = 1'-0"
140
0.375
141
12.0
290
     0
  0
SCALE
  5
62
102
{ACAD_REACTORS
330
47
102
}
330
47
100
AcDbScale
 70
     0
300
1/2" = 1'-0"
140
0.5
141
12.0
290
     0
  0
SCALE
  5
63
102
{ACAD_REACTORS
330
47
102
}
330
47
100
AcDbScale
 70
     0
300
3/4" = 1'-0"
140
0.75
141
12.0
290
     0
  0
SCALE
  5
64
102
{ACAD_REACTORS
330
47
102
}
330
47
100
AcDbScale
 70
     0
300
1" = 1'-0"
140
1.0
141
12.0
290
     0
  0
SCALE
  5
65
102
{ACAD_REACTORS
330
47
102
}
330
47
100
AcDbScale
 70
     0
300
1-1/2" = 1'-0"
140
1.5
141
12.0
290
     0
  0
SCALE
  5
66
102
{ACAD_REACTORS
330
47
102
}
330
47
100
AcDbScale
 70
     0
300
3" = 1'-0"
140
3.0
141
12.0
290
     0
  0
SCALE
  5
67
102
{ACAD_REACTORS
330
47
102
}
330
47
100
AcDbScale
 70
     0
300
6" = 1'-0"
140
6.0
141
12.0
290
     0
  0
SCALE
  5
68
102
{ACAD_REACTORS
330
47
102
}
330
47
100
AcDbScale
 70
     0
300
1'-0" = 1'-0"
140
12.0
141
12.0
290
     0
  0
ENDSEC
  0
EOF
