  0
SECTION
  2
HEADER
  9
$ACADVER
  1
AC1015
  9
$ACADMAINTVER
 70
     6
  9
$DWGCODEPAGE
  3
ANSI_1252
  9
$INSBASE
 10
0.0
 20
0.0
 30
0.0
  9
$EXTMIN
 10
-0.9842519685
 20
-0.1968503937
 30
0.0
  9
$EXTMAX
 10
0.9842519685
 20
12.8350393701
 30
0.0
  9
$LIMMIN
 10
0.0
 20
0.0
  9
$LIMMAX
 10
12.0
 20
9.0
  9
$ORTHOMODE
 70
     0
  9
$REGENMODE
 70
     1
  9
$FILLMODE
 70
     1
  9
$QTEXTMODE
 70
     0
  9
$MIRRTEXT
 70
     1
  9
$LTSCALE
 40
1.0
  9
$ATTMODE
 70
     1
  9
$TEXTSIZE
 40
0.1377952756
  9
$TRACEWID
 40
0.05
  9
$TEXTSTYLE
  7
Standard
  9
$CLAYER
  8
0
  9
$CELTYPE
  6
ByLayer
  9
$CECOLOR
 62
   256
  9
$CELTSCALE
 40
1.0
  9
$DISPSILH
 70
     0
  9
$DIMSCALE
 40
1.0
  9
$DIMASZ
 40
0.13
  9
$DIMEXO
 40
0.0393700787
  9
$DIMDLI
 40
0.38
  9
$DIMRND
 40
0.0
  9
$DIMDLE
 40
0.0
  9
$DIMEXE
 40
0.0393700787
  9
$DIMTP
 40
0.0
  9
$DIMTM
 40
0.0
  9
$DIMTXT
 40
0.1377952756
  9
$DIMCEN
 40
0.09
  9
$DIMTSZ
 40
0.0
  9
$DIMTOL
 70
     0
  9
$DIMLIM
 70
     0
  9
$DIMTIH
 70
     1
  9
$DIMTOH
 70
     1
  9
$DIMSE1
 70
     0
  9
$DIMSE2
 70
     0
  9
$DIMTAD
 70
     1
  9
$DIMZIN
 70
     1
  9
$DIMBLK
  1

  9
$DIMASO
 70
     1
  9
$DIMSHO
 70
     1
  9
$DIMPOST
  1

  9
$DIMAPOST
  1

  9
$DIMALT
 70
     0
  9
$DIMALTD
 70
     2
  9
$DIMALTF
 40
25.4
  9
$DIMLFAC
 40
1.0
  9
$DIMTOFL
 70
     0
  9
$DIMTVP
 40
0.0
  9
$DIMTIX
 70
     0
  9
$DIMSOXD
 70
     0
  9
$DIMSAH
 70
     0
  9
$DIMBLK1
  1

  9
$DIMBLK2
  1

  9
$DIMSTYLE
  2
Standard
  9
$DIMCLRD
 70
     0
  9
$DIMCLRE
 70
     0
  9
$DIMCLRT
 70
     0
  9
$DIMTFAC
 40
1.0
  9
$DIMGAP
 40
0.06
  9
$DIMJUST
 70
     0
  9
$DIMSD1
 70
     0
  9
$DIMSD2
 70
     0
  9
$DIMTOLJ
 70
     1
  9
$DIMTZIN
 70
     1
  9
$DIMALTZ
 70
     0
  9
$DIMALTTZ
 70
     0
  9
$DIMUPT
 70
     0
  9
$DIMDEC
 70
     2
  9
$DIMTDEC
 70
     2
  9
$DIMALTU
 70
     2
  9
$DIMALTTD
 70
     2
  9
$DIMTXSTY
  7
Standard
  9
$DIMAUNIT
 70
     0
  9
$DIMADEC
 70
     2
  9
$DIMALTRND
 40
0.0
  9
$DIMAZIN
 70
     0
  9
$DIMDSEP
 70
    46
  9
$DIMATFIT
 70
     3
  9
$DIMFRAC
 70
     0
  9
$DIMLDRBLK
  1

  9
$DIMLUNIT
 70
     2
  9
$DIMLWD
 70
    -2
  9
$DIMLWE
 70
    -2
  9
$DIMTMOVE
 70
     0
  9
$LUNITS
 70
     2
  9
$LUPREC
 70
     2
  9
$SKETCHINC
 40
0.1
  9
$FILLETRAD
 40
0.5
  9
$AUNITS
 70
     0
  9
$AUPREC
 70
     2
  9
$MENU
  1
.
  9
$ELEVATION
 40
0.0
  9
$PELEVATION
 40
0.0
  9
$THICKNESS
 40
0.0
  9
$LIMCHECK
 70
     0
  9
$CHAMFERA
 40
0.0
  9
$CHAMFERB
 40
0.0
  9
$CHAMFERC
 40
0.0
  9
$CHAMFERD
 40
0.0
  9
$SKPOLY
 70
     0
  9
$TDCREATE
 40
2460416.462095393
  9
$TDUCREATE
 40
2460416.420428727
  9
$TDUPDATE
 40
2460416.462124051
  9
$TDUUPDATE
 40
2460416.420457384
  9
$TDINDWG
 40
0.0000000116
  9
$TDUSRTIMER
 40
0.0000000116
  9
$USRTIMER
 70
     1
  9
$ANGBASE
 50
0.0
  9
$ANGDIR
 70
     0
  9
$PDMODE
 70
     0
  9
$PDSIZE
 40
-1.0
  9
$PLINEWID
 40
0.0
  9
$SPLFRAME
 70
     0
  9
$SPLINETYPE
 70
     6
  9
$SPLINESEGS
 70
     8
  9
$HANDSEED
  5
198
  9
$SURFTAB1
 70
     6
  9
$SURFTAB2
 70
     6
  9
$SURFTYPE
 70
     6
  9
$SURFU
 70
     6
  9
$SURFV
 70
     6
  9
$UCSBASE
  2

  9
$UCSNAME
  2

  9
$UCSORG
 10
0.0
 20
0.0
 30
0.0
  9
$UCSXDIR
 10
1.0
 20
0.0
 30
0.0
  9
$UCSYDIR
 10
0.0
 20
1.0
 30
0.0
  9
$UCSORTHOREF
  2

  9
$UCSORTHOVIEW
 70
     0
  9
$UCSORGTOP
 10
0.0
 20
0.0
 30
0.0
  9
$UCSORGBOTTOM
 10
0.0
 20
0.0
 30
0.0
  9
$UCSORGLEFT
 10
0.0
 20
0.0
 30
0.0
  9
$UCSORGRIGHT
 10
0.0
 20
0.0
 30
0.0
  9
$UCSORGFRONT
 10
0.0
 20
0.0
 30
0.0
  9
$UCSORGBACK
 10
0.0
 20
0.0
 30
0.0
  9
$PUCSBASE
  2

  9
$PUCSNAME
  2

  9
$PUCSORG
 10
0.0
 20
0.0
 30
0.0
  9
$PUCSXDIR
 10
1.0
 20
0.0
 30
0.0
  9
$PUCSYDIR
 10
0.0
 20
1.0
 30
0.0
  9
$PUCSORTHOREF
  2

  9
$PUCSORTHOVIEW
 70
     0
  9
$PUCSORGTOP
 10
0.0
 20
0.0
 30
0.0
  9
$PUCSORGBOTTOM
 10
0.0
 20
0.0
 30
0.0
  9
$PUCSORGLEFT
 10
0.0
 20
0.0
 30
0.0
  9
$PUCSORGRIGHT
 10
0.0
 20
0.0
 30
0.0
  9
$PUCSORGFRONT
 10
0.0
 20
0.0
 30
0.0
  9
$PUCSORGBACK
 10
0.0
 20
0.0
 30
0.0
  9
$USERI1
 70
     0
  9
$USERI2
 70
     0
  9
$USERI3
 70
     0
  9
$USERI4
 70
     0
  9
$USERI5
 70
     0
  9
$USERR1
 40
0.0
  9
$USERR2
 40
0.0
  9
$USERR3
 40
0.0
  9
$USERR4
 40
0.0
  9
$USERR5
 40
0.0
  9
$WORLDVIEW
 70
     1
  9
$SHADEDGE
 70
     3
  9
$SHADEDIF
 70
    70
  9
$TILEMODE
 70
     1
  9
$MAXACTVP
 70
    64
  9
$PINSBASE
 10
0.0
 20
0.0
 30
0.0
  9
$PLIMCHECK
 70
     0
  9
$PEXTMIN
 10
-0.9842519685
 20
-0.1968503937
 30
0.0
  9
$PEXTMAX
 10
5.4689002064
 20
12.8350393701
 30
0.0
  9
$PLIMMIN
 10
-1.391499185
 20
-0.6040969689
  9
$PLIMMAX
 10
16.527350122
 20
13.2422865866
  9
$UNITMODE
 70
     0
  9
$VISRETAIN
 70
     1
  9
$PLINEGEN
 70
     0
  9
$PSLTSCALE
 70
     1
  9
$TREEDEPTH
 70
  3020
  9
$CMLSTYLE
  2
Standard
  9
$CMLJUST
 70
     0
  9
$CMLSCALE
 40
1.0
  9
$PROXYGRAPHICS
 70
     1
  9
$MEASUREMENT
 70
     0
  9
$CELWEIGHT
370
    -1
  9
$ENDCAPS
280
     0
  9
$JOINSTYLE
280
     0
  9
$LWDISPLAY
290
     1
  9
$INSUNITS
 70
     1
  9
$HYPERLINKBASE
  1

  9
$STYLESHEET
  1

  9
$XEDIT
290
     1
  9
$CEPSNTYPE
380
     0
  9
$PSTYLEMODE
290
     1
  9
$FINGERPRINTGUID
  2
{6555593b-5674-4d34-b65e-516a8efae7f8}
  9
$VERSIONGUID
  2
{FAEB1C32-E019-11D5-929B-00C0DF256EC4}
  9
$EXTNAMES
290
     1
  9
$PSVPSCALE
 40
0.0
  9
$OLESTARTUP
290
     0
  0
ENDSEC
  0
SECTION
  2
CLASSES
  0
CLASS
  1
ACDBDICTIONARYWDFLT
  2
AcDbDictionaryWithDefault
  3
ObjectDBX Classes
 90
        0
280
     0
281
     0
  0
CLASS
  1
VISUALSTYLE
  2
AcDbVisualStyle
  3
ObjectDBX Classes
 90
     4095
280
     0
281
     0
  0
CLASS
  1
MATERIAL
  2
AcDbMaterial
  3
ObjectDBX Classes
 90
     1153
280
     0
281
     0
  0
CLASS
  1
SCALE
  2
AcDbScale
  3
ObjectDBX Classes
 90
     1153
280
     0
281
     0
  0
CLASS
  1
TABLESTYLE
  2
AcDbTableStyle
  3
ObjectDBX Classes
 90
     4095
280
     0
281
     0
  0
CLASS
  1
MLEADERSTYLE
  2
AcDbMLeaderStyle
  3
ACDB_MLEADERSTYLE_CLASS
 90
     4095
280
     0
281
     0
  0
CLASS
  1
SUN
  2
AcDbSun
  3
SCENEOE
 90
     1153
280
     0
281
     0
  0
CLASS
  1
ACDBPLACEHOLDER
  2
AcDbPlaceHolder
  3
ObjectDBX Classes
 90
        0
280
     0
281
     0
  0
CLASS
  1
LAYOUT
  2
AcDbLayout
  3
ObjectDBX Classes
 90
        0
280
     0
281
     0
  0
ENDSEC
  0
SECTION
  2
TABLES
  0
TABLE
  2
VPORT
  5
8
330
0
100
AcDbSymbolTable
 70
     1
  0
VPORT
  5
29
330
8
100
AcDbSymbolTableRecord
100
AcDbViewportTableRecord
  2
*Active
 70
     0
 10
0.0
 20
0.0
 11
1.0
 21
1.0
 12
0.0
 22
6.3190944882
 13
0.0
 23
0.0
 14
0.5
 24
0.5
 15
0.5
 25
0.5
 16
0.0
 26
0.0
 36
1.0
 17
0.0
 27
0.0
 37
0.0
 40
13.2925275591
 41
0.1510528383
 42
50.0
 43
0.0
 44
0.0
 50
0.0
 51
0.0
 71
     0
 72
   100
 73
     1
 74
     3
 75
     0
 76
     0
 77
     0
 78
     0
281
     0
 65
     1
110
0.0
120
0.0
130
0.0
111
1.0
121
0.0
131
0.0
112
0.0
122
1.0
132
0.0
 79
     0
146
0.0
  0
ENDTAB
  0
TABLE
  2
LTYPE
  5
5
330
0
100
AcDbSymbolTable
 70
     6
  0
LTYPE
  5
14
330
5
100
AcDbSymbolTableRecord
100
AcDbLinetypeTableRecord
  2
ByBlock
 70
     0
  3

 72
    65
 73
     0
 40
0.0
  0
LTYPE
  5
15
330
5
100
AcDbSymbolTableRecord
100
AcDbLinetypeTableRecord
  2
ByLayer
 70
     0
  3

 72
    65
 73
     0
 40
0.0
  0
LTYPE
  5
16
330
5
100
AcDbSymbolTableRecord
100
AcDbLinetypeTableRecord
  2
Continuous
 70
     0
  3
Solid line
 72
    65
 73
     0
 40
0.0
  0
LTYPE
  5
6E
330
5
100
AcDbSymbolTableRecord
100
AcDbLinetypeTableRecord
  2
HIDDEN
 70
     0
  3
Hidden __ __ __ __ __ __ __ __ __ __ __ __ __ __
 72
    65
 73
     2
 40
0.075
 49
0.05
 74
     0
 49
-0.025
 74
     0
  0
LTYPE
  5
6F
330
5
100
AcDbSymbolTableRecord
100
AcDbLinetypeTableRecord
  2
PHANTOM
 70
     0
  3
Phantom ______  __  __  ______  __  __  ______
 72
    65
 73
     6
 40
0.5
 49
0.25
 74
     0
 49
-0.05
 74
     0
 49
0.05
 74
     0
 49
-0.05
 74
     0
 49
0.05
 74
     0
 49
-0.05
 74
     0
  0
LTYPE
  5
70
330
5
100
AcDbSymbolTableRecord
100
AcDbLinetypeTableRecord
  2
CENTER
 70
     0
  3
Center ____ _ ____ _ ____ _ ____ _ ____ _ ____
 72
    65
 73
     4
 40
0.4
 49
0.25
 74
     0
 49
-0.05
 74
     0
 49
0.05
 74
     0
 49
-0.05
 74
     0
  0
LTYPE
  5
71
330
5
100
AcDbSymbolTableRecord
100
AcDbLinetypeTableRecord
  2
CENTERX2
 70
     0
  3
Center (2x) ________  __  ________  __  _____
 72
    65
 73
     4
 40
0.8
 49
0.5
 74
     0
 49
-0.1
 74
     0
 49
0.1
 74
     0
 49
-0.1
 74
     0
  0
LTYPE
  5
72
330
5
100
AcDbSymbolTableRecord
100
AcDbLinetypeTableRecord
  2
DOT2
 70
     0
  3
Dot (.5x) ........................................
 72
    65
 73
     2
 40
0.025
 49
0.0
 74
     0
 49
-0.025
 74
     0
  0
ENDTAB
  0
TABLE
  2
LAYER
  5
2
330
0
100
AcDbSymbolTable
 70
     1
  0
LAYER
  5
10
330
2
100
AcDbSymbolTableRecord
100
AcDbLayerTableRecord
  2
0
 70
     0
 62
     7
  6
Continuous
370
    -3
390
F
  0
ENDTAB
  0
TABLE
  2
STYLE
  5
3
330
0
100
AcDbSymbolTable
 70
     1
  0
STYLE
  5
11
330
3
100
AcDbSymbolTableRecord
100
AcDbTextStyleTableRecord
  2
Standard
 70
     0
 40
0.0
 41
1.0
 50
0.0
 71
     0
 42
0.1377952756
  3
txt
  4

  0
ENDTAB
  0
TABLE
  2
VIEW
  5
6
330
0
100
AcDbSymbolTable
 70
     0
  0
ENDTAB
  0
TABLE
  2
UCS
  5
7
330
0
100
AcDbSymbolTable
 70
     0
  0
ENDTAB
  0
TABLE
  2
APPID
  5
9
330
0
100
AcDbSymbolTable
 70
     1
  0
APPID
  5
12
330
9
100
AcDbSymbolTableRecord
100
AcDbRegAppTableRecord
  2
ACAD
 70
     0
  0
ENDTAB
  0
TABLE
  2
DIMSTYLE
  5
A
330
0
100
AcDbSymbolTable
 70
     1
100
AcDbDimStyleTable
  0
DIMSTYLE
105
27
330
A
100
AcDbSymbolTableRecord
100
AcDbDimStyleTableRecord
  2
Standard
 70
     0
178
     0
340
11
  0
ENDTAB
  0
TABLE
  2
BLOCK_RECORD
  5
1
330
0
100
AcDbSymbolTable
 70
     2
  0
BLOCK_RECORD
  5
1F
330
1
100
AcDbSymbolTableRecord
100
AcDbBlockTableRecord
  2
*Model_Space
340
22
  0
BLOCK_RECORD
  5
1B
330
1
100
AcDbSymbolTableRecord
100
AcDbBlockTableRecord
  2
*Paper_Space
340
1E
  0
BLOCK_RECORD
  5
23
330
1
100
AcDbSymbolTableRecord
100
AcDbBlockTableRecord
  2
*Paper_Space0
340
26
  0
BLOCK_RECORD
  5
12E
330
1
100
AcDbSymbolTableRecord
100
AcDbBlockTableRecord
  2
*Paper_Space1
340
12F
  0
ENDTAB
  0
ENDSEC
  0
SECTION
  2
BLOCKS
  0
BLOCK
  5
20
330
1F
100
AcDbEntity
  8
0
100
AcDbBlockBegin
  2
*Model_Space
 70
     0
 10
0.0
 20
0.0
 30
0.0
  3
*Model_Space
  1

  0
ENDBLK
  5
21
330
1F
100
AcDbEntity
  8
0
100
AcDbBlockEnd
  0
BLOCK
  5
1C
330
1B
100
AcDbEntity
 67
     1
  8
0
100
AcDbBlockBegin
  2
*Paper_Space
 70
     0
 10
0.0
 20
0.0
 30
0.0
  3
*Paper_Space
  1

  0
ENDBLK
  5
1D
330
1B
100
AcDbEntity
 67
     1
  8
0
100
AcDbBlockEnd
  0
BLOCK
  5
24
330
23
100
AcDbEntity
  8
0
100
AcDbBlockBegin
  2
*Paper_Space0
 70
     0
 10
0.0
 20
0.0
 30
0.0
  3
*Paper_Space0
  1

  0
LWPOLYLINE
  5
10D
330
23
100
AcDbEntity
  8
0
  6
Continuous
 62
     7
370
    25
100
AcDbPolyline
 90
       21
 70
   128
 43
0.0
 10
0.3937007874
 20
-5.1181102362
 10
0.3886024656
 20
-5.1743809046
 10
0.3734395441
 20
-5.2291941923
 10
0.3486047345
 20
-5.2811304639
 10
0.3147412454
 20
-5.3288445972
 10
0.2727261234
 20
-5.3711008212
 10
0.2236475381
 20
-5.406804722
 10
0.168776599
 20
-5.4350315872
 10
0.1095344346
 20
-5.4550503559
 10
0.0474553859
 20
-5.4663425525
 10
-0.0158527323
 20
-5.4686157151
 10
-0.0787502731
 20
-5.4618109698
 10
-0.1396082232
 20
-5.4461045561
 10
-0.1968503937
 20
-5.4219032618
 10
-0.2489942424
 20
-5.3898338877
 10
-0.2946892709
 20
-5.3507270137
 10
-0.3327520022
 20
-5.3055954874
 10
-0.3621966314
 20
-5.2556081916
 10
-0.382260558
 20
-5.202059771
 10
-0.3924241371
 20
-5.1463371015
 10
-0.3937007874
 20
-5.1181102362
  0
CIRCLE
  5
117
330
23
100
AcDbEntity
  8
0
  6
Continuous
 62
     7
370
    25
100
AcDbCircle
 10
0.0
 20
0.0
 30
0.0
 40
0.6889763779527565
  0
LWPOLYLINE
  5
11A
330
23
100
AcDbEntity
  8
0
  6
Continuous
 62
     8
370
    25
100
AcDbPolyline
 90
       21
 70
   128
 43
0.0
 10
0.3937007874
 20
-4.8757885584
 10
0.3886024656
 20
-4.9320592268
 10
0.3734395441
 20
-4.9868725145
 10
0.3486047345
 20
-5.038808786
 10
0.3147412454
 20
-5.0865229193
 10
0.2727261234
 20
-5.1287791433
 10
0.2236475381
 20
-5.1644830441
 10
0.168776599
 20
-5.1927099094
 10
0.1095344346
 20
-5.2127286781
 10
0.0474553859
 20
-5.2240208747
 10
-0.0158527323
 20
-5.2262940372
 10
-0.0787502731
 20
-5.219489292
 10
-0.1396082232
 20
-5.2037828782
 10
-0.1968503937
 20
-5.1795815839
 10
-0.2489942424
 20
-5.1475122098
 10
-0.2946892709
 20
-5.1084053359
 10
-0.3327520022
 20
-5.0632738096
 10
-0.3621966314
 20
-5.0132865137
 10
-0.382260558
 20
-4.9597380931
 10
-0.3924241371
 20
-4.9040154236
 10
-0.3937007874
 20
-4.8757885584
  0
LINE
  5
11C
330
23
100
AcDbEntity
  8
0
  6
Continuous
 62
     7
370
    25
100
AcDbLine
 10
0.3937007874
 20
-5.1181102362
 30
0.0
 11
0.3937007874
 21
-0.5654097093
 31
0.0
  0
LINE
  5
11D
330
23
100
AcDbEntity
  8
0
  6
Continuous
 62
     7
370
    25
100
AcDbLine
 10
-0.3937007874
 20
-0.5661149488
 30
0.0
 11
-0.3937007874
 21
-5.1181102362
 31
0.0
  0
LINE
  5
11E
330
23
100
AcDbEntity
  8
0
  6
Continuous
 62
     7
370
    25
100
AcDbLine
 10
0.157480315
 20
-2.9251968504
 30
0.0
 11
0.157480315
 21
-0.6707372062
 31
0.0
  0
LINE
  5
11F
330
23
100
AcDbEntity
  8
0
  6
Continuous
 62
     7
370
    25
100
AcDbLine
 10
-0.157480315
 20
-0.671220406
 30
0.0
 11
-0.157480315
 21
-2.9251968504
 31
0.0
  0
LINE
  5
120
330
23
100
AcDbEntity
  8
0
  6
Continuous
 62
     7
370
    25
100
AcDbLine
 10
-0.2952755906
 20
-0.4885698286
 30
0.0
 11
-0.2749117567
 21
-0.4548753576
 31
0.0
  0
LINE
  5
121
330
23
100
AcDbEntity
  8
0
  6
Continuous
 62
     7
370
    25
100
AcDbLine
 10
-0.362635011
 20
-0.3885664857
 30
0.0
 11
-0.3894968636
 21
-0.4173491883
 31
0.0
  0
LINE
  5
122
330
23
100
AcDbEntity
  8
0
  6
Continuous
 62
     7
370
    25
100
AcDbLine
 10
0.2749117567
 20
-0.4548753576
 30
0.0
 11
0.2952755906
 21
-0.4885698286
 31
0.0
  0
LINE
  5
123
330
23
100
AcDbEntity
  8
0
  6
Continuous
 62
     7
370
    25
100
AcDbLine
 10
0.3894968636
 20
-0.4173491883
 30
0.0
 11
0.362635011
 21
-0.3885664857
 31
0.0
  0
LINE
  5
124
330
23
100
AcDbEntity
  8
0
  6
Continuous
 62
     7
370
    25
100
AcDbLine
 10
0.1496062992
 20
-2.9330708661
 30
0.0
 11
-0.1496062992
 21
-2.9330708661
 31
0.0
  0
LINE
  5
125
330
23
100
AcDbEntity
  8
0
  6
Continuous
 62
     8
370
    25
100
AcDbLine
 10
0.3937007874
 20
-4.1742086181
 30
0.0
 11
-0.3937007874
 21
-4.1742086181
 31
0.0
  0
LINE
  5
126
330
23
100
AcDbEntity
  8
0
  6
Continuous
 62
     8
370
    25
100
AcDbLine
 10
-0.157480315
 20
-2.9251968504
 30
0.0
 11
0.157480315
 21
-2.9251968504
 31
0.0
  0
ARC
  5
127
330
23
100
AcDbEntity
  8
0
  6
Continuous
 62
     7
370
    25
100
AcDbCircle
 10
0.1496062992
 20
-2.9251968504
 30
0.0
 40
0.0078740157480315
100
AcDbArc
 50
270.0
 51
0.0
  0
ARC
  5
128
330
23
100
AcDbEntity
  8
0
  6
Continuous
 62
     7
370
    25
100
AcDbCircle
 10
-0.1496062992
 20
-2.9251968504
 30
0.0
 40
0.0078740157480324
100
AcDbArc
 50
180.0
 51
270.0
  0
ARC
  5
129
330
23
100
AcDbEntity
  8
0
  6
Continuous
 62
     7
370
    25
100
AcDbCircle
 10
0.0
 20
0.0
 30
0.0
 40
0.9842519685039376
100
AcDbArc
 50
293.5781784782
 51
246.4218215218
  0
ARC
  5
12A
330
23
100
AcDbEntity
  8
0
  6
Continuous
 62
     7
370
    25
100
AcDbCircle
 10
0.0
 20
0.0
 30
0.0
 40
0.5708661417322863
100
AcDbArc
 50
226.9770651753
 51
238.8526100785
  0
ARC
  5
12B
330
23
100
AcDbEntity
  8
0
  6
Continuous
 62
     7
370
    25
100
AcDbCircle
 10
0.0
 20
0.0
 30
0.0
 40
0.531496062992164
100
AcDbArc
 50
226.9770651753
 51
238.8526100785
  0
ARC
  5
12C
330
23
100
AcDbEntity
  8
0
  6
Continuous
 62
     7
370
    25
100
AcDbCircle
 10
0.0
 20
0.0
 30
0.0
 40
0.5314960629920908
100
AcDbArc
 50
301.1473899215
 51
313.0229348247
  0
ARC
  5
12D
330
23
100
AcDbEntity
  8
0
  6
Continuous
 62
     7
370
    25
100
AcDbCircle
 10
0.0
 20
0.0
 30
0.0
 40
0.5708661417322486
100
AcDbArc
 50
301.1473899215
 51
313.0229348247
  0
VIEWPORT
  5
194
330
23
100
AcDbEntity
  8
0
100
AcDbViewport
 10
0.0
 20
0.0
 30
0.0
 40
8.4
 41
6.4
 68
     1
 69
     1
 12
0.0
 22
6.3190944882
 13
0.0
 23
0.0
 14
0.5
 24
0.5
 15
0.5
 25
0.5
 16
0.0
 26
0.0
 36
1.0
 17
0.0
 27
0.0
 37
0.0
 42
50.0
 43
0.0
 44
0.0
 45
13.2925275591
 50
0.0
 51
0.0
 72
   100
 90
   557152
  1

281
     0
 71
     1
 74
     0
110
0.0
120
0.0
130
0.0
111
1.0
121
0.0
131
0.0
112
0.0
122
1.0
132
0.0
 79
     0
146
0.0
  0
ENDBLK
  5
25
330
23
100
AcDbEntity
  8
0
100
AcDbBlockEnd
  0
BLOCK
  5
130
330
12E
100
AcDbEntity
  8
0
100
AcDbBlockBegin
  2
*Paper_Space1
 70
     0
 10
0.0
 20
0.0
 30
0.0
  3
*Paper_Space1
  1

  0
SPLINE
  5
132
330
12E
100
AcDbEntity
  8
0
  6
Continuous
 62
     7
370
    25
100
AcDbSpline
210
0.0
220
0.0
230
1.0
 70
     8
 71
     3
 72
    19
 73
    15
 74
     0
 42
0.000000001
 43
0.00000001
 40
0.0
 40
0.0
 40
0.0
 40
0.0
 40
0.0535637278351936
 40
0.1460569229498868
 40
0.2385878779261519
 40
0.3310329652296988
 40
0.4231672043742169
 40
0.5149387779015203
 40
0.6064080720323405
 40
0.697700870264723
 40
0.788978522145035
 40
0.8804036883668727
 40
0.9721200209615704
 40
0.9999999999999999
 40
0.9999999999999999
 40
0.9999999999999999
 40
0.9999999999999999
 10
-3.148445616108696
 20
7.509683423077966
 30
0.0
 10
-3.164265475942594
 20
7.500242318202118
 30
0.0
 10
-3.207402877729621
 20
7.474498428014784
 30
0.0
 10
-3.275674789655601
 20
7.426366691372272
 30
0.0
 10
-3.352207096039646
 20
7.363923912009511
 30
0.0
 10
-3.425306362735365
 20
7.295083973020422
 30
0.0
 10
-3.494575728756849
 20
7.220662754322442
 30
0.0
 10
-3.559592095206624
 20
7.141308818999951
 30
0.0
 10
-3.620020092641423
 20
7.057656116411149
 30
0.0
 10
-3.675545395001278
 20
6.970274602694133
 30
0.0
 10
-3.725885827989243
 20
6.879707548808402
 30
0.0
 10
-3.770647927316317
 20
6.786478540862908
 30
0.0
 10
-3.800652547350283
 20
6.713390660257258
 30
0.0
 10
-3.8156190732229
 20
6.67162299507264
 30
0.0
 10
-3.819108030548662
 20
6.661886226321748
 30
0.0
  0
SPLINE
  5
133
330
12E
100
AcDbEntity
  8
0
  6
Continuous
 62
     7
370
    25
100
AcDbSpline
210
0.0
220
0.0
230
1.0
 70
     8
 71
     3
 72
    18
 73
    14
 74
     0
 42
0.000000001
 43
0.00000001
 40
0.0
 40
0.0
 40
0.0
 40
0.0
 40
0.0514016298918178
 40
0.152850228134973
 40
0.2550901312007234
 40
0.3578854786084129
 40
0.4606916753483027
 40
0.5628645398408316
 40
0.6639313619878948
 40
0.763481868217707
 40
0.8612175201957245
 40
0.9570295946672327
 40
1.0
 40
1.0
 40
1.0
 40
1.0
 10
-3.0762982759617
 20
6.400668101964086
 30
0.0
 10
-3.072940413232474
 20
6.409907585183809
 30
0.0
 10
-3.062955319660766
 20
6.437382533370402
 30
0.0
 10
-3.042839969021485
 20
6.483939112029007
 30
0.0
 10
-3.014711416182256
 20
6.539297208240307
 30
0.0
 10
-2.982689712083769
 20
6.593260912074921
 30
0.0
 10
-2.947649353834689
 20
6.644428315075662
 30
0.0
 10
-2.910579836256368
 20
6.691517757049003
 30
0.0
 10
-2.872672129650255
 20
6.733410779826508
 30
0.0
 10
-2.835197635169069
 20
6.769275799994346
 30
0.0
 10
-2.7996425150414
 20
6.798424944647761
 30
0.0
 10
-2.772912653868889
 20
6.816987134104703
 30
0.0
 10
-2.75906453543177
 20
6.825209379393484
 30
0.0
 10
-2.754776823732294
 20
6.827755184982941
 30
0.0
  0
LWPOLYLINE
  5
142
330
12E
100
AcDbEntity
  8
0
  6
Continuous
 62
     7
370
    25
100
AcDbPolyline
 90
       17
 70
   128
 43
0.0
 10
-3.3406619584
 20
5.8833172275
 10
-3.3840563875
 20
5.8858397854
 10
-3.4335370395
 20
5.8924593216
 10
-3.4878223916
 20
5.9030043936
 10
-3.5455064816
 20
5.9172018897
 10
-3.6050953218
 20
5.9346841021
 10
-3.6650455927
 20
5.9549982506
 10
-3.7238046136
 20
5.9776182096
 10
-3.7798505569
 20
6.001958134
 10
-3.831731862
 20
6.0273876325
 10
-3.8781048304
 20
6.0532480944
 10
-3.9177684265
 20
6.0788697474
 10
-3.949695384
 20
6.1035890042
 10
-3.9730588116
 20
6.1267656489
 10
-3.9872536087
 20
6.1477994186
 10
-3.9919121375
 20
6.1661455498
 10
-3.9904553322
 20
6.174636548
  0
LWPOLYLINE
  5
143
330
12E
100
AcDbEntity
  8
0
  6
Continuous
 62
     7
370
    25
100
AcDbPolyline
 90
        5
 70
   128
 43
0.0
 10
-3.2476455776
 20
5.9134184236
 10
-3.2572769747
 20
5.9004468448
 10
-3.2764406023
 20
5.8907165769
 10
-3.3044776451
 20
5.884956981
 10
-3.3406619584
 20
5.8833172275
  0
SPLINE
  5
144
330
12E
100
AcDbEntity
  8
0
  6
Continuous
 62
     7
370
    25
100
AcDbSpline
210
0.0
220
0.0
230
1.0
 70
     8
 71
     3
 72
    12
 73
     8
 74
     0
 42
0.000000001
 43
0.00000001
 40
0.0
 40
0.0
 40
0.0
 40
0.0
 40
0.1865393695842791
 40
0.3793175061020307
 40
0.7553857815985878
 40
0.9622680283653368
 40
1.0
 40
1.0
 40
1.0
 40
1.0
 10
-0.1214165430680905
 20
8.481135397321621
 30
0.0
 10
-0.1224628065428531
 20
8.465151380692307
 30
0.0
 10
-0.1245903255371384
 20
8.43264876562055
 30
0.0
 10
-0.1464707899307888
 20
8.371908785011708
 30
0.0
 10
-0.1871403641734295
 20
8.319454061839599
 30
0.0
 10
-0.227823882897307
 20
8.285337165488654
 30
0.0
 10
-0.2462705081295159
 20
8.276490756465197
 30
0.0
 10
-0.2491159172989649
 20
8.27512618961163
 30
0.0
  0
SPLINE
  5
145
330
12E
100
AcDbEntity
  8
0
  6
Continuous
 62
     7
370
    25
100
AcDbSpline
210
0.0
220
0.0
230
1.0
 70
     8
 71
     3
 72
    20
 73
    16
 74
     0
 42
0.000000001
 43
0.00000001
 40
0.0
 40
0.0
 40
0.0
 40
0.0
 40
0.0503173097958102
 40
0.1256281920589253
 40
0.2034992197348591
 40
0.2725129280803476
 40
0.3440878702646396
 40
0.4052838215714381
 40
0.4682613217910659
 40
0.5923039667075902
 40
0.660575577388557
 40
0.7304736251888951
 40
0.8055349445221598
 40
0.883062560861042
 40
1.0
 40
1.0
 40
1.0
 40
1.0
 10
-0.6419019115568011
 20
8.955460337905738
 30
0.0
 10
-0.6376163901125161
 20
8.957828687843302
 30
0.0
 10
-0.6269166465598492
 20
8.96374179253882
 30
0.0
 10
-0.6018914239258698
 20
8.962527713014014
 30
0.0
 10
-0.5676165222666628
 20
8.953021503835233
 30
0.0
 10
-0.5264356980357426
 20
8.934762608632994
 30
0.0
 10
-0.4827448187503551
 20
8.91088611172335
 30
0.0
 10
-0.4365846895185491
 20
8.882063964597592
 30
0.0
 10
-0.3755083186555244
 20
8.839927900127927
 30
0.0
 10
-0.311462169238742
 20
8.789292369707189
 30
0.0
 10
-0.2512307562332402
 20
8.732718257531069
 30
0.0
 10
-0.2067414844737805
 20
8.684082552043815
 30
0.0
 10
-0.1678098263608665
 20
8.63069073285806
 30
0.0
 10
-0.1311308085700333
 20
8.562731700397253
 30
0.0
 10
-0.125064430771466
 20
8.511776329522926
 30
0.0
 10
-0.1214165430680905
 20
8.481135397321621
 30
0.0
  0
LWPOLYLINE
  5
146
330
12E
100
AcDbEntity
  8
0
  6
Continuous
 62
     7
370
    25
100
AcDbPolyline
 90
       21
 70
   128
 43
0.0
 10
-0.4871798689
 20
-0.2812429519
 10
-0.4249047351
 20
-0.3130924659
 10
-0.3564335334
 20
-0.3403763867
 10
-0.2827647282
 20
-0.3626968534
 10
-0.2049725765
 20
-0.3797283832
 10
-0.1241914631
 20
-0.3912226181
 10
-0.0415993585
 20
-0.3970119462
 10
0.0415993585
 20
-0.3970119462
 10
0.1241914631
 20
-0.3912226181
 10
0.2049725765
 20
-0.3797283832
 10
0.2827647282
 20
-0.3626968534
 10
0.3564335334
 20
-0.3403763867
 10
0.4249047351
 20
-0.3130924659
 10
0.4871798689
 20
-0.2812429519
 10
0.5423508233
 20
-0.2452922824
 10
0.5896130813
 20
-0.205764699
 10
0.6282774529
 20
-0.163236603
 10
0.6577801246
 20
-0.1183281497
 10
0.6776908808
 20
-0.0716942056
 10
0.6877193779
 20
-0.0240147985
 10
0.688976378
 20
0.0
  0
LWPOLYLINE
  5
147
330
12E
100
AcDbEntity
  8
0
  6
Continuous
 62
     7
370
    25
100
AcDbPolyline
 90
        8
 70
   128
 43
0.0
 10
-0.688976378
 20
0.0
 10
-0.6877193779
 20
-0.0240147985
 10
-0.6776908808
 20
-0.0716942056
 10
-0.6577801246
 20
-0.1183281497
 10
-0.6282774529
 20
-0.163236603
 10
-0.5896130813
 20
-0.205764699
 10
-0.5423508233
 20
-0.2452922824
 10
-0.4871798689
 20
-0.2812429519
  0
LWPOLYLINE
  5
148
330
12E
100
AcDbEntity
  8
0
  6
Continuous
 62
     7
370
    25
100
AcDbPolyline
 90
       22
 70
   128
 43
0.0
 10
-0.4871798689
 20
9.2343507614
 10
-0.4249047351
 20
9.2025012474
 10
-0.3564335334
 20
9.1752173266
 10
-0.2827647282
 20
9.1528968599
 10
-0.2049725765
 20
9.1358653301
 10
-0.1241914631
 20
9.1243710953
 10
-0.0415993585
 20
9.1185817671
 10
0.0415993585
 20
9.1185817671
 10
0.1241914631
 20
9.1243710953
 10
0.2049725765
 20
9.1358653301
 10
0.2827647282
 20
9.1528968599
 10
0.3564335334
 20
9.1752173266
 10
0.4249047351
 20
9.2025012474
 10
0.4871798689
 20
9.2343507614
 10
0.5423508233
 20
9.2703014309
 10
0.5896130813
 20
9.3098290143
 10
0.6282774529
 20
9.3523571103
 10
0.6577801246
 20
9.3972655636
 10
0.6776908808
 20
9.4438995077
 10
0.6877193779
 20
9.4915789148
 10
0.6877193779
 20
9.5396085118
 10
0.6802346939
 20
9.5787512332
  0
LWPOLYLINE
  5
149
330
12E
100
AcDbEntity
  8
0
  6
Continuous
 62
     7
370
    25
100
AcDbPolyline
 90
        8
 70
   128
 43
0.0
 10
-0.6884135355
 20
9.5316673513
 10
-0.6877193779
 20
9.4915789148
 10
-0.6776908808
 20
9.4438995077
 10
-0.6577801246
 20
9.3972655636
 10
-0.6282774529
 20
9.3523571103
 10
-0.5896130813
 20
9.3098290143
 10
-0.5423508233
 20
9.2703014309
 10
-0.4871798689
 20
9.2343507614
  0
LWPOLYLINE
  5
14A
330
12E
100
AcDbEntity
  8
0
  6
Continuous
 62
     7
370
    25
100
AcDbPolyline
 90
       33
 70
   128
 43
0.0
 10
-0.6959712413
 20
-0.4017756456
 10
-0.6219901953
 20
-0.4403612326
 10
-0.5416266882
 20
-0.4744281174
 10
-0.4557053584
 20
-0.5036267277
 10
-0.3651078749
 20
-0.5276574463
 10
-0.2707638905
 20
-0.5462736855
 10
-0.1736415022
 20
-0.5592844174
 10
-0.0747373172
 20
-0.5665561343
 10
0.0249337739
 20
-0.5680142187
 10
0.1243490108
 20
-0.5636437085
 10
0.2224882584
 20
-0.5534894512
 10
0.3183444755
 20
-0.537655643
 10
0.4109340475
 20
-0.5163047605
 10
0.4993068801
 20
-0.4896558924
 10
0.5825561484
 20
-0.4579824922
 10
0.6598276023
 20
-0.4216095719
 10
0.7303283321
 20
-0.3809103669
 10
0.793334905
 20
-0.3363025061
 10
0.8482007881
 20
-0.2882437264
 10
0.8943629834
 20
-0.2372271761
 10
0.9313478042
 20
-0.1837763539
 10
0.9587757362
 20
-0.1284397377
 10
0.9763653317
 20
-0.0717851559
 10
0.9839360977
 20
-0.0143939613
 10
0.9814103479
 20
0.0431449348
 10
0.9688139998
 20
0.1002411055
 10
0.9462763091
 20
0.1563086669
 10
0.9140285429
 20
0.2107722897
 10
0.872401607
 20
0.2630731037
 10
0.82182265
 20
0.3126744317
 10
0.7628106806
 20
0.3590672968
 10
0.6959712413
 20
0.4017756456
 10
0.688976378
 20
0.4057735117
  0
LWPOLYLINE
  5
14B
330
12E
100
AcDbEntity
  8
0
  6
Continuous
 62
     7
370
    25
100
AcDbPolyline
 90
       17
 70
   128
 43
0.0
 10
-0.688976378
 20
0.4057735117
 10
-0.7303283321
 20
0.3809103669
 10
-0.793334905
 20
0.3363025061
 10
-0.8482007881
 20
0.2882437264
 10
-0.8943629834
 20
0.2372271761
 10
-0.9313478042
 20
0.1837763539
 10
-0.9587757362
 20
0.1284397377
 10
-0.9763653317
 20
0.0717851559
 10
-0.9839360977
 20
0.0143939613
 10
-0.9814103479
 20
-0.0431449348
 10
-0.9688139998
 20
-0.1002411055
 10
-0.9462763091
 20
-0.1563086669
 10
-0.9140285429
 20
-0.2107722897
 10
-0.872401607
 20
-0.2630731037
 10
-0.82182265
 20
-0.3126744317
 10
-0.7628106806
 20
-0.3590672968
 10
-0.6959712413
 20
-0.4017756456
  0
LWPOLYLINE
  5
14C
330
12E
100
AcDbEntity
  8
0
  6
Continuous
 62
     7
370
    25
100
AcDbPolyline
 90
       25
 70
   128
 43
0.0
 10
-0.6959712413
 20
-0.5625120259
 10
-0.6219901953
 20
-0.6010976128
 10
-0.5416266882
 20
-0.6351644977
 10
-0.4557053584
 20
-0.664363108
 10
-0.3651078749
 20
-0.6883938266
 10
-0.2707638905
 20
-0.7070100658
 10
-0.1736415022
 20
-0.7200207977
 10
-0.0747373172
 20
-0.7272925146
 10
0.0249337739
 20
-0.728750599
 10
0.1243490108
 20
-0.7243800888
 10
0.2224882584
 20
-0.7142258315
 10
0.3183444755
 20
-0.6983920233
 10
0.4109340475
 20
-0.6770411408
 10
0.4993068801
 20
-0.6503922727
 10
0.5825561484
 20
-0.6187188725
 10
0.6598276023
 20
-0.5823459522
 10
0.7303283321
 20
-0.5416467472
 10
0.793334905
 20
-0.4970388864
 10
0.8482007881
 20
-0.4489801067
 10
0.8943629834
 20
-0.3979635564
 10
0.9313478042
 20
-0.3445127342
 10
0.9587757362
 20
-0.289176118
 10
0.9763653317
 20
-0.2325215362
 10
0.9839360977
 20
-0.1751303416
 10
0.9842519685
 20
-0.1607363803
  0
LWPOLYLINE
  5
14D
330
12E
100
AcDbEntity
  8
0
  6
Continuous
 62
     7
370
    25
100
AcDbPolyline
 90
        9
 70
   128
 43
0.0
 10
-0.9842519685
 20
-0.1607363803
 10
-0.9814103479
 20
-0.2038813151
 10
-0.9688139998
 20
-0.2609774858
 10
-0.9462763091
 20
-0.3170450472
 10
-0.9140285429
 20
-0.37150867
 10
-0.872401607
 20
-0.423809484
 10
-0.82182265
 20
-0.4734108119
 10
-0.7628106806
 20
-0.5198036771
 10
-0.6959712413
 20
-0.5625120259
  0
LWPOLYLINE
  5
14E
330
12E
100
AcDbEntity
  8
0
  6
Continuous
 62
     7
370
    25
100
AcDbPolyline
 90
       11
 70
   128
 43
0.0
 10
-2.1736128852
 20
9.0598627134
 10
-2.1761773018
 20
9.0518540462
 10
-2.1797819278
 20
9.0223177088
 10
-2.1761773018
 20
8.9886195588
 10
-2.165609073
 20
8.9530560693
 10
-2.1487974488
 20
8.9180508335
 10
-2.1268881135
 20
8.8859894003
 10
-2.1013741522
 20
8.8590567034
 10
-2.0739942991
 20
8.8390881616
 10
-2.0466144461
 20
8.827444598
 10
-2.023619279
 20
8.8247467754
  0
LWPOLYLINE
  5
150
330
12E
100
AcDbEntity
  8
0
  6
Continuous
 62
     7
370
    25
100
AcDbPolyline
 90
       10
 70
   128
 43
0.0
 10
-2.1471602877
 20
9.1008476634
 10
-2.1241042285
 20
9.1079654984
 10
-2.0972474272
 20
9.1053075028
 10
-2.0684265292
 20
9.09305112
 10
-2.0396056313
 20
9.0720316023
 10
-2.0127488299
 20
9.0436813951
 10
-1.9896863717
 20
9.009932518
 10
-1.9719899252
 20
8.9730849014
 10
-1.9608654738
 20
8.9356496494
 10
-1.9570711306
 20
8.9001779125
  0
SPLINE
  5
151
330
12E
100
AcDbEntity
  8
0
  6
Continuous
 62
     7
370
    25
100
AcDbSpline
210
0.0
220
0.0
230
1.0
 70
     8
 71
     3
 72
    15
 73
    11
 74
     0
 42
0.000000001
 43
0.00000001
 40
0.0
 40
0.0
 40
0.0
 40
0.0
 40
0.1406321723269746
 40
0.2811741173361227
 40
0.4240452941270678
 40
0.568531025254135
 40
0.7105332505561968
 40
0.8499207413470036
 40
0.9904317478721919
 40
1.0
 40
1.0
 40
1.0
 40
1.0
 10
-0.362927428283882
 20
9.820457483170788
 30
0.0
 10
-0.3644153645066746
 20
9.835230030183721
 30
0.0
 10
-0.3673902823165444
 20
9.864765646383338
 30
0.0
 10
-0.3900237715261839
 20
9.91126062951697
 30
0.0
 10
-0.4222314809959972
 20
9.95412325313005
 30
0.0
 10
-0.4605734915233751
 20
9.98964352353705
 30
0.0
 10
-0.4992020538116051
 20
10.01432641092294
 30
0.0
 10
-0.5322686844386586
 20
10.02372266490359
 30
0.0
 10
-0.5525590732437603
 20
10.02426627492334
 30
0.0
 10
-0.5588117998051455
 20
10.01735307933279
 30
0.0
 10
-0.5592104402619452
 20
10.01691233089751
 30
0.0
  0
SPLINE
  5
152
330
12E
100
AcDbEntity
  8
0
  6
Continuous
 62
     7
370
    25
100
AcDbSpline
210
0.0
220
0.0
230
1.0
 70
     8
 71
     3
 72
    10
 73
     6
 74
     0
 42
0.000000001
 43
0.00000001
 40
0.0
 40
0.0
 40
0.0
 40
0.0
 40
0.228230948354842
 40
0.6614481790079219
 40
1.0
 40
1.0
 40
1.0
 40
1.0
 10
-0.4031497890251258
 20
9.746494664041656
 30
0.0
 10
-0.3975225520715035
 20
9.749341884557651
 30
0.0
 10
-0.3812139591192781
 20
9.757593564880212
 30
0.0
 10
-0.366274217227651
 20
9.784457280976978
 30
0.0
 10
-0.3639479094072331
 20
9.809480535597205
 30
0.0
 10
-0.362927428283882
 20
9.820457483170788
 30
0.0
  0
LWPOLYLINE
  5
154
330
12E
100
AcDbEntity
  8
0
  6
Continuous
 62
     7
370
    25
100
AcDbPolyline
 90
       21
 70
   128
 43
0.0
 10
-0.688976378
 20
9.5477409894
 10
-0.6877193779
 20
9.5237261909
 10
-0.6776908808
 20
9.4760467838
 10
-0.6577801246
 20
9.4294128397
 10
-0.6282774529
 20
9.3845043864
 10
-0.5896130813
 20
9.3419762904
 10
-0.5423508233
 20
9.302448707
 10
-0.4871798689
 20
9.2664980375
 10
-0.4249047351
 20
9.2346485235
 10
-0.3564335334
 20
9.2073646026
 10
-0.2827647282
 20
9.185044136
 10
-0.2049725765
 20
9.1680126062
 10
-0.1241914631
 20
9.1565183713
 10
-0.0415993585
 20
9.1507290431
 10
0.0415993585
 20
9.1507290431
 10
0.1241914631
 20
9.1565183713
 10
0.2049725765
 20
9.1680126062
 10
0.2827647282
 20
9.185044136
 10
0.3564335334
 20
9.2073646026
 10
0.4249047351
 20
9.2346485235
 10
0.4871798689
 20
9.2664980375
  0
LWPOLYLINE
  5
155
330
12E
100
AcDbEntity
  8
0
  6
Continuous
 62
     7
370
    25
100
AcDbPolyline
 90
       53
 70
   128
 43
0.0
 10
-0.4871798689
 20
10.1987690432
 10
-0.4249047351
 20
10.1669195292
 10
-0.3564335334
 20
10.1396356083
 10
-0.2827647282
 20
10.1173151417
 10
-0.2049725765
 20
10.1002836119
 10
-0.1241914631
 20
10.088789377
 10
-0.0415993585
 20
10.0830000488
 10
0.0415993585
 20
10.0830000488
 10
0.1241914631
 20
10.088789377
 10
0.2049725765
 20
10.1002836119
 10
0.2827647282
 20
10.1173151417
 10
0.3564335334
 20
10.1396356083
 10
0.4249047351
 20
10.1669195292
 10
0.4871798689
 20
10.1987690432
 10
0.5423508233
 20
10.2347197127
 10
0.5896130813
 20
10.2742472961
 10
0.6282774529
 20
10.3167753921
 10
0.6577801246
 20
10.3616838454
 10
0.6776908808
 20
10.4083177895
 10
0.6877193779
 20
10.4559971966
 10
0.6877193779
 20
10.5040267935
 10
0.6776908808
 20
10.5517062006
 10
0.6577801246
 20
10.5983401448
 10
0.6282774529
 20
10.6432485981
 10
0.5896130813
 20
10.6857766941
 10
0.5423508233
 20
10.7253042774
 10
0.4871798689
 20
10.761254947
 10
0.4249047351
 20
10.793104461
 10
0.3564335334
 20
10.8203883818
 10
0.2827647282
 20
10.8427088484
 10
0.2049725765
 20
10.8597403782
 10
0.1241914631
 20
10.8712346131
 10
0.0415993585
 20
10.8770239413
 10
-0.0415993585
 20
10.8770239413
 10
-0.1241914631
 20
10.8712346131
 10
-0.2049725765
 20
10.8597403782
 10
-0.2827647282
 20
10.8427088484
 10
-0.3564335334
 20
10.8203883818
 10
-0.4249047351
 20
10.793104461
 10
-0.4871798689
 20
10.761254947
 10
-0.5423508233
 20
10.7253042774
 10
-0.5896130813
 20
10.6857766941
 10
-0.6282774529
 20
10.6432485981
 10
-0.6577801246
 20
10.5983401448
 10
-0.6776908808
 20
10.5517062006
 10
-0.6877193779
 20
10.5040267935
 10
-0.6877193779
 20
10.4559971966
 10
-0.6776908808
 20
10.4083177895
 10
-0.6577801246
 20
10.3616838454
 10
-0.6282774529
 20
10.3167753921
 10
-0.5896130813
 20
10.2742472961
 10
-0.5423508233
 20
10.2347197127
 10
-0.4871798689
 20
10.1987690432
  0
LWPOLYLINE
  5
168
330
12E
100
AcDbEntity
  8
0
  6
Continuous
 62
     8
370
    25
100
AcDbPolyline
 90
       16
 70
   128
 43
0.0
 10
-2.6732227234
 20
7.0080090458
 10
-2.6768277813
 20
7.0616580587
 10
-2.6875495859
 20
7.1180799017
 10
-2.7051104482
 20
7.1758132785
 10
-2.729055551
 20
7.2333629252
 10
-2.7587647286
 20
7.289238336
 10
-2.7934685291
 20
7.3419923672
 10
-2.8322681423
 20
7.3902587171
 10
-2.8741586784
 20
7.4327873125
 10
-2.9180551947
 20
7.4684766852
 10
-2.9628207944
 20
7.4964024993
 10
-3.0072960721
 20
7.5158414906
 10
-3.0503291413
 20
7.5262901997
 10
-3.0908054682
 20
7.5274780104
 10
-3.1276767372
 20
7.5193741591
 10
-3.1484217212
 20
7.509697214
  0
LWPOLYLINE
  5
16A
330
12E
100
AcDbEntity
  8
0
  6
Continuous
 62
     8
370
    25
100
AcDbPolyline
 90
       17
 70
   128
 43
0.0
 10
-3.1693146567
 20
6.3705669059
 10
-3.2127090859
 20
6.3730894638
 10
-3.2621897379
 20
6.379709
 10
-3.31647509
 20
6.390254072
 10
-3.3741591799
 20
6.4044515681
 10
-3.4337480202
 20
6.4219337804
 10
-3.493698291
 20
6.442247929
 10
-3.552457312
 20
6.464867888
 10
-3.6085032553
 20
6.4892078124
 10
-3.6603845604
 20
6.5146373109
 10
-3.7067575287
 20
6.5404977728
 10
-3.7464211248
 20
6.5661194258
 10
-3.7783480824
 20
6.5908386826
 10
-3.80171151
 20
6.6140153273
 10
-3.815906307
 20
6.635049097
 10
-3.8205648359
 20
6.6533952282
 10
-3.8190994975
 20
6.6619104516
  0
LWPOLYLINE
  5
16B
330
12E
100
AcDbEntity
  8
0
  6
Continuous
 62
     8
370
    25
100
AcDbPolyline
 90
        5
 70
   128
 43
0.0
 10
-3.076334615
 20
6.4005654799
 10
-3.0859296731
 20
6.3876965232
 10
-3.1050933006
 20
6.3779662553
 10
-3.1331303434
 20
6.3722066593
 10
-3.1693146567
 20
6.3705669059
  0
LWPOLYLINE
  5
16C
330
12E
100
AcDbEntity
  8
0
  6
Continuous
 62
     8
370
    25
100
AcDbPolyline
 90
       12
 70
   128
 43
0.0
 10
-1.9682066705
 20
8.9001779125
 10
-1.9718112965
 20
8.9338760625
 10
-1.9823795253
 20
8.969439552
 10
-1.9991911495
 20
9.0044447878
 10
-2.0211004848
 20
9.036506221
 10
-2.0466144461
 20
9.0634389179
 10
-2.0739942991
 20
9.0834074597
 10
-2.1013741522
 20
9.0950510233
 10
-2.1268881135
 20
9.0975761191
 10
-2.1487974488
 20
9.090810666
 10
-2.165609073
 20
9.0752157183
 10
-2.1736128852
 20
9.0598627134
  0
LINE
  5
16E
330
12E
100
AcDbEntity
  8
0
  6
Continuous
 62
     7
370
    25
100
AcDbLine
 10
-3.2476455776
 20
5.9134184236
 30
0.0
 11
-3.076298276
 21
6.400668102
 31
0.0
  0
LINE
  5
16F
330
12E
100
AcDbEntity
  8
0
  6
Continuous
 62
     7
370
    25
100
AcDbLine
 10
-3.8191080305
 20
6.6618862263
 30
0.0
 11
-3.9904553322
 21
6.174636548
 31
0.0
  0
LINE
  5
170
330
12E
100
AcDbEntity
  8
0
  6
Continuous
 62
     7
370
    25
100
AcDbLine
 10
-2.7547768237
 20
6.827755185
 30
0.0
 11
-0.2487533587
 21
8.2744517376
 31
0.0
  0
LINE
  5
171
330
12E
100
AcDbEntity
  8
0
  6
Continuous
 62
     7
370
    25
100
AcDbLine
 10
-0.642411799
 20
8.9563859518
 30
0.0
 11
-3.1484456161
 21
7.5096834231
 31
0.0
  0
LINE
  5
172
330
12E
100
AcDbEntity
  8
0
  6
Continuous
 62
     7
370
    25
100
AcDbLine
 10
0.688976378
 20
0.0
 30
0.0
 11
0.688976378
 21
9.5155937133
 31
0.0
  0
LINE
  5
173
330
12E
100
AcDbEntity
  8
0
  6
Continuous
 62
     7
370
    25
100
AcDbLine
 10
-0.688976378
 20
9.5155937133
 30
0.0
 11
-0.688976378
 21
8.9295047925
 31
0.0
  0
LINE
  5
174
330
12E
100
AcDbEntity
  8
0
  6
Continuous
 62
     7
370
    25
100
AcDbLine
 10
-0.688976378
 20
8.020316398
 30
0.0
 11
-0.688976378
 21
0.0
 31
0.0
  0
LINE
  5
175
330
12E
100
AcDbEntity
  8
0
  6
Continuous
 62
     7
370
    25
100
AcDbLine
 10
0.9842519685
 20
-0.1607363803
 30
0.0
 11
0.9842519685
 21
0.0
 31
0.0
  0
LINE
  5
176
330
12E
100
AcDbEntity
  8
0
  6
Continuous
 62
     7
370
    25
100
AcDbLine
 10
-0.9842519685
 20
0.0
 30
0.0
 11
-0.9842519685
 21
-0.1607363803
 31
0.0
  0
LINE
  5
177
330
12E
100
AcDbEntity
  8
0
  6
Continuous
 62
     7
370
    25
100
AcDbLine
 10
-1.9896927707
 20
8.8280763682
 30
0.0
 11
-0.40204329
 21
9.7446069045
 31
0.0
  0
LINE
  5
178
330
12E
100
AcDbEntity
  8
0
  6
Continuous
 62
     7
370
    25
100
AcDbLine
 10
-0.5595279904
 20
10.01736828
 30
0.0
 11
-2.1471602877
 21
9.1008476634
 31
0.0
  0
LINE
  5
179
330
12E
100
AcDbEntity
  8
0
  6
Continuous
 62
     7
370
    25
100
AcDbLine
 10
0.688976378
 20
9.6613987739
 30
0.0
 11
0.688976378
 21
10.4800119951
 31
0.0
  0
LINE
  5
17A
330
12E
100
AcDbEntity
  8
0
  6
Continuous
 62
     7
370
    25
100
AcDbLine
 10
-0.688976378
 20
10.4800119951
 30
0.0
 11
-0.688976378
 21
9.9426393165
 31
0.0
  0
LINE
  5
17B
330
12E
100
AcDbEntity
  8
0
  6
Continuous
 62
     7
370
    25
100
AcDbLine
 10
-0.688976378
 20
9.5789639587
 30
0.0
 11
-0.688976378
 21
9.5477409894
 31
0.0
  0
LINE
  5
17C
330
12E
100
AcDbEntity
  8
0
  6
Continuous
 62
     7
370
    25
100
AcDbLine
 10
-0.0196945677
 20
10.1506541642
 30
0.0
 11
-0.0183363216
 21
10.1733684973
 31
0.0
  0
LINE
  5
17D
330
12E
100
AcDbEntity
  8
0
  6
Continuous
 62
     7
370
    25
100
AcDbLine
 10
-0.5542624113
 20
10.4011085031
 30
0.0
 11
-0.5160374174
 21
10.4065501233
 31
0.0
  0
LINE
  5
17E
330
12E
100
AcDbEntity
  8
0
  6
Continuous
 62
     7
370
    25
100
AcDbLine
 10
-0.1366796665
 20
10.1603645885
 30
0.0
 11
-0.1366796665
 21
10.1600431158
 31
0.0
  0
LINE
  5
17F
330
12E
100
AcDbEntity
  8
0
  6
Continuous
 62
     7
370
    25
100
AcDbLine
 10
-0.0196945677
 20
10.1509756369
 30
0.0
 11
-0.0196945677
 21
10.1506541642
 31
0.0
  0
LINE
  5
180
330
12E
100
AcDbEntity
  8
0
  6
Continuous
 62
     7
370
    25
100
AcDbLine
 10
-0.1272534826
 20
10.1824314078
 30
0.0
 11
-0.1366796665
 21
10.1603645885
 31
0.0
  0
LINE
  5
181
330
12E
100
AcDbEntity
  8
0
  6
Continuous
 62
     7
370
    25
100
AcDbLine
 10
-0.0196945677
 20
10.1509756369
 30
0.0
 11
-0.0183363216
 21
10.1736899701
 31
0.0
  0
LINE
  5
182
330
12E
100
AcDbEntity
  8
0
  6
Continuous
 62
     7
370
    25
100
AcDbLine
 10
-0.0183363216
 20
10.1736899701
 30
0.0
 11
-0.0183363216
 21
10.1733684973
 31
0.0
  0
LINE
  5
183
330
12E
100
AcDbEntity
  8
0
  6
Continuous
 62
     7
370
    25
100
AcDbLine
 10
-0.5542624113
 20
10.4014299759
 30
0.0
 11
-0.5542624113
 21
10.4011085031
 31
0.0
  0
LINE
  5
184
330
12E
100
AcDbEntity
  8
0
  6
Continuous
 62
     7
370
    25
100
AcDbLine
 10
-0.5542624113
 20
10.4014299759
 30
0.0
 11
-0.5160374174
 21
10.406871596
 31
0.0
  0
LINE
  5
185
330
12E
100
AcDbEntity
  8
0
  6
Continuous
 62
     7
370
    25
100
AcDbLine
 10
-0.5160374174
 20
10.406871596
 30
0.0
 11
-0.5160374174
 21
10.4065501233
 31
0.0
  0
LINE
  5
186
330
12E
100
AcDbEntity
  8
0
  6
Continuous
 62
     7
370
    25
100
AcDbLine
 10
-0.5311796723
 20
10.4697481347
 30
0.0
 11
-0.5705263147
 21
10.4689640359
 31
0.0
  0
LINE
  5
187
330
12E
100
AcDbEntity
  8
0
  6
Continuous
 62
     7
370
    25
100
AcDbLine
 10
-0.5705263147
 20
10.4689640359
 30
0.0
 11
-0.5705263147
 21
10.4686425632
 31
0.0
  0
ARC
  5
188
330
12E
100
AcDbEntity
  8
0
  6
Continuous
 62
     7
370
    25
100
AcDbCircle
 10
-2.0317090261
 20
8.8905166565
 30
0.0
 40
0.0752605827720585
100
AcDbArc
 50
303.9367271549
 51
7.3754532384
  0
ARC
  5
189
330
12E
100
AcDbEntity
  8
0
  6
Continuous
 62
     7
370
    25
100
AcDbCircle
 10
0.152583758
 20
9.6864884886
 30
0.0
 40
0.5369790838320015
100
AcDbArc
 50
308.543474207
 51
357.3219472169
  0
ARC
  5
18A
330
12E
100
AcDbEntity
  8
0
  6
Continuous
 62
     7
370
    25
100
AcDbCircle
 10
-0.0008757676
 20
11.1186378583
 30
0.0
 40
0.9681666072207169
100
AcDbArc
 50
261.936579398
 51
268.8862394984
  0
ARC
  5
18B
330
12E
100
AcDbEntity
  8
0
  6
Continuous
 62
     7
370
    25
100
AcDbCircle
 10
-0.3686708635
 20
10.4815290334
 30
0.0
 40
0.2022663697142303
100
AcDbArc
 50
183.6528107208
 51
203.428049851
  0
ARC
  5
18C
330
12E
100
AcDbEntity
  8
0
  6
Continuous
 62
     7
370
    25
100
AcDbCircle
 10
-0.0008757676
 20
11.1189593311
 30
0.0
 40
0.9681666072213077
100
AcDbArc
 50
261.936579398
 51
268.8862394984
  0
ARC
  5
18D
330
12E
100
AcDbEntity
  8
0
  6
Continuous
 62
     7
370
    25
100
AcDbCircle
 10
-0.0008153698
 20
11.0749161681
 30
0.0
 40
0.9013964963785376
100
AcDbArc
 50
261.936579398
 51
268.8862394984
  0
ARC
  5
18E
330
12E
100
AcDbEntity
  8
0
  6
Continuous
 62
     7
370
    25
100
AcDbCircle
 10
-0.3686708635
 20
10.4818505062
 30
0.0
 40
0.2022663697142394
100
AcDbArc
 50
183.6528107208
 51
203.428049851
  0
ARC
  5
18F
330
12E
100
AcDbEntity
  8
0
  6
Continuous
 62
     7
370
    25
100
AcDbCircle
 10
-0.3432452867
 20
10.4817458829
 30
0.0
 40
0.1883169649063667
100
AcDbArc
 50
183.6528107208
 51
203.428049851
  0
ARC
  5
190
330
12E
100
AcDbEntity
  8
0
  6
Continuous
 62
     8
370
    25
100
AcDbCircle
 10
-2.8730244745
 20
6.989729388
 30
0.0
 40
0.200636202181333
100
AcDbArc
 50
306.3770033971
 51
5.2273798676
  0
ARC
  5
191
330
12E
100
AcDbEntity
  8
0
  6
Continuous
 62
     8
370
    25
100
AcDbCircle
 10
-2.0323024899
 20
8.8891945137
 30
0.0
 40
0.0650300631877416
100
AcDbArc
 50
277.673400187
 51
9.7237090212
  0
VIEWPORT
  5
196
330
12E
100
AcDbEntity
  8
0
100
AcDbViewport
 10
0.0
 20
0.0
 30
0.0
 40
8.4
 41
6.4
 68
     1
 69
     1
 12
0.0
 22
6.3190944882
 13
0.0
 23
0.0
 14
0.5
 24
0.5
 15
0.5
 25
0.5
 16
0.0
 26
0.0
 36
1.0
 17
0.0
 27
0.0
 37
0.0
 42
50.0
 43
0.0
 44
0.0
 45
13.2925275591
 50
0.0
 51
0.0
 72
   100
 90
   557152
  1

281
     0
 71
     1
 74
     0
110
0.0
120
0.0
130
0.0
111
1.0
121
0.0
131
0.0
112
0.0
122
1.0
132
0.0
 79
     0
146
0.0
  0
ENDBLK
  5
131
330
12E
100
AcDbEntity
  8
0
100
AcDbBlockEnd
  0
ENDSEC
  0
SECTION
  2
ENTITIES
  0
LWPOLYLINE
  5
7D
330
1F
100
AcDbEntity
  8
0
  6
Continuous
 62
     7
370
    25
100
AcDbPolyline
 90
        3
 70
   128
 43
0.0
 10
-0.6289239152
 20
11.6929133858
 10
-0.6289431322
 20
11.6925706271
 10
-0.6299212598
 20
11.657480315
  0
LWPOLYLINE
  5
7E
330
1F
100
AcDbEntity
  8
0
  6
Continuous
 62
     7
370
    25
100
AcDbPolyline
 90
        3
 70
   128
 43
0.0
 10
0.6299212598
 20
11.657480315
 10
0.6289431322
 20
11.6925706271
 10
0.6289239152
 20
11.6929133858
  0
LWPOLYLINE
  5
81
330
1F
100
AcDbEntity
  8
0
  6
Continuous
 62
     7
370
    25
100
AcDbPolyline
 90
       40
 70
   128
 43
0.0
 10
0.3937007874
 20
9.9606299213
 10
0.3886024656
 20
9.9893012589
 10
0.3734395441
 20
10.0172300239
 10
0.3486047345
 20
10.043692876
 10
0.3147412454
 20
10.0680044412
 10
0.2727261234
 20
10.0895350628
 10
0.2236475381
 20
10.1077271089
 10
0.168776599
 20
10.1221094151
 10
0.1095344346
 20
10.1323094872
 10
0.0474553859
 20
10.1380631488
 10
-0.0158527323
 20
10.1392213829
 10
-0.0787502731
 20
10.135754192
 10
-0.1396082232
 20
10.1277513745
 10
-0.1968503937
 20
10.1154201992
 10
-0.2489942424
 20
10.0990800369
 10
-0.2946892709
 20
10.0791540894
 10
-0.3327520022
 20
10.0561584281
 10
-0.3621966314
 20
10.0306886288
 10
-0.382260558
 20
10.0034043457
 10
-0.3924241371
 20
9.9750122275
 10
-0.3924241371
 20
9.9462476151
 10
-0.382260558
 20
9.9178554968
 10
-0.3621966314
 20
9.8905712137
 10
-0.3327520022
 20
9.8651014144
 10
-0.2946892709
 20
9.8421057531
 10
-0.2489942424
 20
9.8221798056
 10
-0.1968503937
 20
9.8058396434
 10
-0.1396082232
 20
9.793508468
 10
-0.0787502731
 20
9.7855056505
 10
-0.0158527323
 20
9.7820384596
 10
0.0474553859
 20
9.7831966938
 10
0.1095344346
 20
9.7889503553
 10
0.168776599
 20
9.7991504274
 10
0.2236475381
 20
9.8135327336
 10
0.2727261234
 20
9.8317247797
 10
0.3147412454
 20
9.8532554013
 10
0.3486047345
 20
9.8775669665
 10
0.3734395441
 20
9.9040298186
 10
0.3886024656
 20
9.9319585836
 10
0.3937007874
 20
9.9606299213
  0
LWPOLYLINE
  5
82
330
1F
100
AcDbEntity
  8
0
  6
Continuous
 62
     7
370
    25
100
AcDbPolyline
 90
       36
 70
   128
 43
0.0
 10
0.0
 20
9.8176407875
 10
-0.0562383921
 20
9.8199386817
 10
-0.1106692359
 20
9.8267585081
 10
-0.1615430795
 20
9.8378810719
 10
-0.2072247956
 20
9.8529488847
 10
-0.2462461362
 20
9.8714776546
 10
-0.2773529234
 20
9.8928718517
 10
-0.2995453595
 20
9.9164438489
 10
-0.3121101612
 20
9.9414360229
 10
-0.3146434855
 20
9.9670451045
 10
-0.3070639093
 20
9.9924479969
 10
-0.2896150465
 20
10.0168282301
 10
-0.2628577177
 20
10.0394022034
 10
-0.2276519256
 20
10.0594443708
 10
-0.1851292133
 20
10.0763105605
 10
-0.1366562958
 20
10.0894586792
 10
-0.0837911325
 20
10.0984661357
 10
-0.0282328532
 20
10.1030434228
 10
0.0282328532
 20
10.1030434228
 10
0.0837911325
 20
10.0984661357
 10
0.1366562958
 20
10.0894586792
 10
0.1851292133
 20
10.0763105605
 10
0.2276519256
 20
10.0594443708
 10
0.2628577177
 20
10.0394022034
 10
0.2896150465
 20
10.0168282301
 10
0.3070639093
 20
9.9924479969
 10
0.3146434855
 20
9.9670451045
 10
0.3121101612
 20
9.9414360229
 10
0.2995453595
 20
9.9164438489
 10
0.2773529234
 20
9.8928718517
 10
0.2462461362
 20
9.8714776546
 10
0.2072247956
 20
9.8529488847
 10
0.1615430795
 20
9.8378810719
 10
0.1106692359
 20
9.8267585081
 10
0.0562383921
 20
9.8199386817
 10
0.0
 20
9.8176407875
  0
CIRCLE
  5
8A
330
1F
100
AcDbEntity
  8
0
  6
Continuous
 62
     7
370
    25
100
AcDbCircle
 10
0.0
 20
12.4409448819
 30
0.0
 40
0.1496062992125965
  0
CIRCLE
  5
8B
330
1F
100
AcDbEntity
  8
0
  6
Continuous
 62
     7
370
    25
100
AcDbCircle
 10
0.0
 20
12.4409448819
 30
0.0
 40
0.1574803149606328
  0
LWPOLYLINE
  5
99
330
1F
100
AcDbEntity
  8
0
  6
Continuous
 62
     8
370
    25
100
AcDbPolyline
 90
       21
 70
   128
 43
0.0
 10
0.3937007874
 20
10.4362129919
 10
0.3886024656
 20
10.4648843295
 10
0.3734395441
 20
10.4928130946
 10
0.3486047345
 20
10.5192759467
 10
0.3147412454
 20
10.5435875119
 10
0.2727261234
 20
10.5651181334
 10
0.2236475381
 20
10.5833101795
 10
0.168776599
 20
10.5976924857
 10
0.1095344346
 20
10.6078925579
 10
0.0474553859
 20
10.6136462194
 10
-0.0158527323
 20
10.6148044536
 10
-0.0787502731
 20
10.6113372627
 10
-0.1396082232
 20
10.6033344452
 10
-0.1968503937
 20
10.5910032698
 10
-0.2489942424
 20
10.5746631076
 10
-0.2946892709
 20
10.55473716
 10
-0.3327520022
 20
10.5317414988
 10
-0.3621966314
 20
10.5062716994
 10
-0.382260558
 20
10.4789874163
 10
-0.3924241371
 20
10.4505952981
 10
-0.3937007874
 20
10.4362129919
  0
LINE
  5
9C
330
1F
100
AcDbEntity
  8
0
  6
Continuous
 62
     7
370
    25
100
AcDbLine
 10
0.3937007874
 20
9.9606299213
 30
0.0
 11
0.3937007874
 21
10.8661417323
 31
0.0
  0
LINE
  5
9D
330
1F
100
AcDbEntity
  8
0
  6
Continuous
 62
     7
370
    25
100
AcDbLine
 10
-0.3937007874
 20
10.8661417323
 30
0.0
 11
-0.3937007874
 21
9.9606299213
 31
0.0
  0
LINE
  5
9E
330
1F
100
AcDbEntity
  8
0
  6
Continuous
 62
     7
370
    25
100
AcDbLine
 10
0.688976378
 20
0.0
 30
0.0
 11
0.688976378
 21
11.6535433071
 31
0.0
  0
LINE
  5
9F
330
1F
100
AcDbEntity
  8
0
  6
Continuous
 62
     7
370
    25
100
AcDbLine
 10
-0.688976378
 20
11.6535433071
 30
0.0
 11
-0.688976378
 21
0.0
 31
0.0
  0
LINE
  5
A0
330
1F
100
AcDbEntity
  8
0
  6
Continuous
 62
     7
370
    25
100
AcDbLine
 10
0.9842519685
 20
-0.1968503937
 30
0.0
 11
0.9842519685
 21
0.0
 31
0.0
  0
LINE
  5
A1
330
1F
100
AcDbEntity
  8
0
  6
Continuous
 62
     7
370
    25
100
AcDbLine
 10
-0.9842519685
 20
0.0
 30
0.0
 11
-0.9842519685
 21
-0.1968503937
 31
0.0
  0
LINE
  5
A2
330
1F
100
AcDbEntity
  8
0
  6
Continuous
 62
     7
370
    25
100
AcDbLine
 10
0.6299212598
 20
11.6535433071
 30
0.0
 11
0.6299212598
 21
11.657480315
 31
0.0
  0
LINE
  5
A3
330
1F
100
AcDbEntity
  8
0
  6
Continuous
 62
     7
370
    25
100
AcDbLine
 10
-0.6299212598
 20
11.657480315
 30
0.0
 11
-0.6299212598
 21
11.6535433071
 31
0.0
  0
LINE
  5
A4
330
1F
100
AcDbEntity
  8
0
  6
Continuous
 62
     7
370
    25
100
AcDbLine
 10
0.688976378
 20
11.6929133858
 30
0.0
 11
0.688976378
 21
12.8346456693
 31
0.0
  0
LINE
  5
A5
330
1F
100
AcDbEntity
  8
0
  6
Continuous
 62
     7
370
    25
100
AcDbLine
 10
-0.688976378
 20
12.8346456693
 30
0.0
 11
-0.688976378
 21
11.6929133858
 31
0.0
  0
LINE
  5
A6
330
1F
100
AcDbEntity
  8
0
  6
Continuous
 62
     7
370
    25
100
AcDbLine
 10
-0.688976378
 20
11.6535433071
 30
0.0
 11
0.688976378
 21
11.6535433071
 31
0.0
  0
LINE
  5
A7
330
1F
100
AcDbEntity
  8
0
  6
Continuous
 62
     7
370
    25
100
AcDbLine
 10
-0.9842519685
 20
-0.1968503937
 30
0.0
 11
0.9842519685
 21
-0.1968503937
 31
0.0
  0
LINE
  5
A8
330
1F
100
AcDbEntity
  8
0
  6
Continuous
 62
     7
370
    25
100
AcDbLine
 10
-0.9842519685
 20
0.0
 30
0.0
 11
0.9842519685
 21
0.0
 31
0.0
  0
LINE
  5
A9
330
1F
100
AcDbEntity
  8
0
  6
Continuous
 62
     7
370
    25
100
AcDbLine
 10
-0.688976378
 20
11.6929133858
 30
0.0
 11
0.688976378
 21
11.6929133858
 31
0.0
  0
LINE
  5
AA
330
1F
100
AcDbEntity
  8
0
  6
Continuous
 62
     7
370
    25
100
AcDbLine
 10
-0.688976378
 20
12.8346456693
 30
0.0
 11
0.688976378
 21
12.8346456693
 31
0.0
  0
LINE
  5
AB
330
1F
100
AcDbEntity
  8
0
  6
Continuous
 62
     7
370
    25
100
AcDbLine
 10
-0.3894968636
 20
12.8350393701
 30
0.0
 11
-0.3894968636
 21
12.8346456693
 31
0.0
  0
LINE
  5
AC
330
1F
100
AcDbEntity
  8
0
  6
Continuous
 62
     7
370
    25
100
AcDbLine
 10
-0.2952755906
 20
12.8350393701
 30
0.0
 11
-0.2952755906
 21
12.8346456693
 31
0.0
  0
LINE
  5
AD
330
1F
100
AcDbEntity
  8
0
  6
Continuous
 62
     7
370
    25
100
AcDbLine
 10
-0.3894968636
 20
12.8350393701
 30
0.0
 11
-0.2749117567
 21
12.8350393701
 31
0.0
  0
LINE
  5
AE
330
1F
100
AcDbEntity
  8
0
  6
Continuous
 62
     7
370
    25
100
AcDbLine
 10
-0.2749117567
 20
12.8350393701
 30
0.0
 11
-0.2749117567
 21
12.8346456693
 31
0.0
  0
LINE
  5
AF
330
1F
100
AcDbEntity
  8
0
  6
Continuous
 62
     7
370
    25
100
AcDbLine
 10
0.2952755906
 20
12.8350393701
 30
0.0
 11
0.2952755906
 21
12.8346456693
 31
0.0
  0
LINE
  5
B0
330
1F
100
AcDbEntity
  8
0
  6
Continuous
 62
     7
370
    25
100
AcDbLine
 10
0.2749117567
 20
12.8350393701
 30
0.0
 11
0.3894968636
 21
12.8350393701
 31
0.0
  0
LINE
  5
B1
330
1F
100
AcDbEntity
  8
0
  6
Continuous
 62
     7
370
    25
100
AcDbLine
 10
0.3894968636
 20
12.8350393701
 30
0.0
 11
0.3894968636
 21
12.8346456693
 31
0.0
  0
LINE
  5
B2
330
1F
100
AcDbEntity
  8
0
  6
Continuous
 62
     7
370
    25
100
AcDbLine
 10
0.2749117567
 20
12.8350393701
 30
0.0
 11
0.2749117567
 21
12.8346456693
 31
0.0
  0
LINE
  5
B3
330
1F
100
AcDbEntity
  8
0
  6
Continuous
 62
     8
370
    25
100
AcDbLine
 10
-0.6299212598
 20
11.657480315
 30
0.0
 11
0.6299212598
 21
11.657480315
 31
0.0
  0
ARC
  5
B4
330
1F
100
AcDbEntity
  8
0
  6
Continuous
 62
     7
370
    25
100
AcDbCircle
 10
0.0
 20
10.8661417323
 30
0.0
 40
0.3937007874015749
100
AcDbArc
 50
0.0
 51
180.0
  0
LWPOLYLINE
  5
C3
330
1B
100
AcDbEntity
 67
     1
  8
0
  6
Continuous
 62
     7
370
    25
100
AcDbPolyline
 90
        3
 70
   128
 43
0.0
 10
0.6299212598
 20
11.657480315
 10
0.6289431322
 20
11.6925706271
 10
0.6289239152
 20
11.6929133858
  0
SPLINE
  5
CB
330
1B
100
AcDbEntity
 67
     1
  8
0
  6
Continuous
 62
     7
370
    25
100
AcDbSpline
210
0.0
220
0.0
230
1.0
 70
     8
 71
     3
 72
    24
 73
    20
 74
     0
 42
0.000000001
 43
0.00000001
 40
0.0
 40
0.0
 40
0.0
 40
0.0
 40
0.013347118116141
 40
0.0590756304133591
 40
0.1061166572879773
 40
0.1994613386577309
 40
0.2509784148126916
 40
0.303733042108883
 40
0.3600994738897986
 40
0.4183610919726906
 40
0.506325339561244
 40
0.5943403032673122
 40
0.6835861239366432
 40
0.735178422885144
 40
0.788003176047417
 40
0.844466982605586
 40
0.9028502402577568
 40
0.9545927847716733
 40
1.0
 40
1.0
 40
1.0
 40
1.0
 10
0.6883598888644908
 20
10.47352213160674
 30
0.0
 10
0.6885483579798586
 20
10.47319152957594
 30
0.0
 10
0.689382540438341
 20
10.47172825314309
 30
0.0
 10
0.6854150419215171
 20
10.47866953318183
 30
0.0
 10
0.6744196821609512
 20
10.49829148985967
 30
0.0
 10
0.6541306862920446
 20
10.53608692744933
 30
0.0
 10
0.6296383971045385
 20
10.58813357296125
 30
0.0
 10
0.6091439032185175
 20
10.63767939242243
 30
0.0
 10
0.5893412979006686
 20
10.69628392701934
 30
0.0
 10
0.5704948308331427
 20
10.77477142119426
 30
0.0
 10
0.5616091378193352
 20
10.87435274307852
 30
0.0
 10
0.5748024183313675
 20
10.98592095630691
 30
0.0
 10
0.6002107083198523
 20
11.071149037593
 30
0.0
 10
0.6246770917170709
 20
11.1328316809124
 30
0.0
 10
0.6449621030446275
 20
11.17714601913129
 30
0.0
 10
0.664104742976832
 20
11.2148708716984
 30
0.0
 10
0.6787330969891755
 20
11.24176379222828
 30
0.0
 10
0.6876331793548105
 20
11.25750133211664
 30
0.0
 10
0.6882533678046618
 20
11.25857866531029
 30
0.0
 10
0.6885432401676943
 20
11.2590822043857
 30
0.0
  0
SPLINE
  5
D1
330
1B
100
AcDbEntity
 67
     1
  8
0
  6
Continuous
 62
     7
370
    25
100
AcDbSpline
210
0.0
220
0.0
230
1.0
 70
     8
 71
     3
 72
    18
 73
    14
 74
     0
 42
0.000000001
 43
0.00000001
 40
0.0
 40
0.0
 40
0.0
 40
0.0
 40
0.0330029326330753
 40
0.1375027406844314
 40
0.2428448565922491
 40
0.3505724432690541
 40
0.4586463946040403
 40
0.5643144484768821
 40
0.6686170781491741
 40
0.7746755551339398
 40
0.8828942679740959
 40
0.9903562519529211
 40
1.0
 40
1.0
 40
1.0
 40
1.0
 10
0.6885483547496458
 20
12.59653447355602
 30
0.0
 10
0.6886706064982245
 20
12.59707513337436
 30
0.0
 10
0.6891799536726082
 20
12.59932772733701
 30
0.0
 10
0.6860600833910471
 20
12.58567668876735
 30
0.0
 10
0.6803774761752838
 20
12.55687363165051
 30
0.0
 10
0.6740896082632846
 20
12.51364631023169
 30
0.0
 10
0.6703620092431194
 20
12.46225955607554
 30
0.0
 10
0.6708401052386569
 20
12.40881927186027
 30
0.0
 10
0.6751407983976886
 20
12.35960966371372
 30
0.0
 10
0.6815470232936457
 20
12.31853276121898
 30
0.0
 10
0.6868995200293736
 20
12.29241940029398
 30
0.0
 10
0.6895058199520584
 20
12.28110099382222
 30
0.0
 10
0.6888687582734603
 20
12.28394463696898
 30
0.0
 10
0.6888162957491027
 20
12.28417881319219
 30
0.0
  0
LINE
  5
DE
330
1B
100
AcDbEntity
 67
     1
  8
0
  6
Continuous
 62
     7
370
    25
100
AcDbLine
 10
0.688976378
 20
11.2590822044
 30
0.0
 11
0.688976378
 21
11.6535433071
 31
0.0
  0
LINE
  5
DF
330
1B
100
AcDbEntity
 67
     1
  8
0
  6
Continuous
 62
     7
370
    25
100
AcDbLine
 10
0.688976378
 20
0.0
 30
0.0
 11
0.688976378
 21
10.4735221316
 31
0.0
  0
LINE
  5
E0
330
1B
100
AcDbEntity
 67
     1
  8
0
  6
Continuous
 62
     7
370
    25
100
AcDbLine
 10
-0.688976378
 20
11.6535433071
 30
0.0
 11
-0.688976378
 21
0.0
 31
0.0
  0
LINE
  5
E1
330
1B
100
AcDbEntity
 67
     1
  8
0
  6
Continuous
 62
     7
370
    25
100
AcDbLine
 10
4.1742086181
 20
11.2598425197
 30
0.0
 11
0.6885442817
 21
11.2598425197
 31
0.0
  0
LINE
  5
E2
330
1B
100
AcDbEntity
 67
     1
  8
0
  6
Continuous
 62
     7
370
    25
100
AcDbLine
 10
0.6883606466
 20
10.4724409449
 30
0.0
 11
4.1742086181
 21
10.4724409449
 31
0.0
  0
LINE
  5
E3
330
1B
100
AcDbEntity
 67
     1
  8
0
  6
Continuous
 62
     7
370
    25
100
AcDbLine
 10
5.4689002064
 20
10.1393663385
 30
0.0
 11
5.2265785285
 21
10.6149494091
 31
0.0
  0
LINE
  5
E4
330
1B
100
AcDbEntity
 67
     1
  8
0
  6
Continuous
 62
     7
370
    25
100
AcDbLine
 10
4.5249985882
 20
10.2574765747
 30
0.0
 11
4.7673202661
 21
9.781893504
 31
0.0
  0
LINE
  5
E5
330
1B
100
AcDbEntity
 67
     1
  8
0
  6
Continuous
 62
     7
370
    25
100
AcDbLine
 10
0.9842519685
 20
-0.1968503937
 30
0.0
 11
0.9842519685
 21
0.0
 31
0.0
  0
LINE
  5
E6
330
1B
100
AcDbEntity
 67
     1
  8
0
  6
Continuous
 62
     7
370
    25
100
AcDbLine
 10
-0.9842519685
 20
0.0
 30
0.0
 11
-0.9842519685
 21
-0.1968503937
 31
0.0
  0
LINE
  5
E7
330
1B
100
AcDbEntity
 67
     1
  8
0
  6
Continuous
 62
     7
370
    25
100
AcDbLine
 10
0.6299212598
 20
11.6535433071
 30
0.0
 11
0.6299212598
 21
11.657480315
 31
0.0
  0
LINE
  5
E8
330
1B
100
AcDbEntity
 67
     1
  8
0
  6
Continuous
 62
     7
370
    25
100
AcDbLine
 10
-0.6299212598
 20
11.657480315
 30
0.0
 11
-0.6299212598
 21
11.6535433071
 31
0.0
  0
LINE
  5
E9
330
1B
100
AcDbEntity
 67
     1
  8
0
  6
Continuous
 62
     7
370
    25
100
AcDbLine
 10
0.688976378
 20
12.5965344736
 30
0.0
 11
0.688976378
 21
12.8346456693
 31
0.0
  0
LINE
  5
EA
330
1B
100
AcDbEntity
 67
     1
  8
0
  6
Continuous
 62
     7
370
    25
100
AcDbLine
 10
0.688976378
 20
11.6929133858
 30
0.0
 11
0.688976378
 21
12.2841788132
 31
0.0
  0
LINE
  5
EB
330
1B
100
AcDbEntity
 67
     1
  8
0
  6
Continuous
 62
     7
370
    25
100
AcDbLine
 10
-0.688976378
 20
12.8346456693
 30
0.0
 11
-0.688976378
 21
11.8897637795
 31
0.0
  0
LINE
  5
EC
330
1B
100
AcDbEntity
 67
     1
  8
0
  6
Continuous
 62
     7
370
    25
100
AcDbLine
 10
2.9251968504
 20
12.5984251969
 30
0.0
 11
0.6885500193
 21
12.5984251969
 31
0.0
  0
LINE
  5
ED
330
1B
100
AcDbEntity
 67
     1
  8
0
  6
Continuous
 62
     7
370
    25
100
AcDbLine
 10
0.6888190633
 20
12.2834645669
 30
0.0
 11
2.9251968504
 21
12.2834645669
 31
0.0
  0
LINE
  5
EE
330
1B
100
AcDbEntity
 67
     1
  8
0
  6
Continuous
 62
     7
370
    25
100
AcDbLine
 10
-0.688976378
 20
11.6535433071
 30
0.0
 11
0.688976378
 21
11.6535433071
 31
0.0
  0
LINE
  5
EF
330
1B
100
AcDbEntity
 67
     1
  8
0
  6
Continuous
 62
     7
370
    25
100
AcDbLine
 10
5.4689002064
 20
10.1393663385
 30
0.0
 11
4.7673202661
 21
9.781893504
 31
0.0
  0
LINE
  5
F0
330
1B
100
AcDbEntity
 67
     1
  8
0
  6
Continuous
 62
     7
370
    25
100
AcDbLine
 10
-0.9842519685
 20
0.0
 30
0.0
 11
0.9842519685
 21
0.0
 31
0.0
  0
LINE
  5
F1
330
1B
100
AcDbEntity
 67
     1
  8
0
  6
Continuous
 62
     7
370
    25
100
AcDbLine
 10
-0.9842519685
 20
-0.1968503937
 30
0.0
 11
0.9842519685
 21
-0.1968503937
 31
0.0
  0
LINE
  5
F2
330
1B
100
AcDbEntity
 67
     1
  8
0
  6
Continuous
 62
     7
370
    25
100
AcDbLine
 10
-0.688976378
 20
12.8346456693
 30
0.0
 11
0.688976378
 21
12.8346456693
 31
0.0
  0
LINE
  5
F3
330
1B
100
AcDbEntity
 67
     1
  8
0
  6
Continuous
 62
     7
370
    25
100
AcDbLine
 10
0.0
 20
11.6929133858
 30
0.0
 11
0.688976378
 21
11.6929133858
 31
0.0
  0
LINE
  5
F4
330
1B
100
AcDbEntity
 67
     1
  8
0
  6
Continuous
 62
     7
370
    25
100
AcDbLine
 10
-0.688976378
 20
11.8897637795
 30
0.0
 11
0.0
 21
11.6929133858
 31
0.0
  0
LINE
  5
F5
330
1B
100
AcDbEntity
 67
     1
  8
0
  6
Continuous
 62
     7
370
    25
100
AcDbLine
 10
0.4173491883
 20
12.8350393701
 30
0.0
 11
0.4173491883
 21
12.8346456693
 31
0.0
  0
LINE
  5
F6
330
1B
100
AcDbEntity
 67
     1
  8
0
  6
Continuous
 62
     7
370
    25
100
AcDbLine
 10
0.3885664857
 20
12.8350393701
 30
0.0
 11
0.4885698286
 21
12.8350393701
 31
0.0
  0
LINE
  5
F7
330
1B
100
AcDbEntity
 67
     1
  8
0
  6
Continuous
 62
     7
370
    25
100
AcDbLine
 10
0.4885698286
 20
12.8350393701
 30
0.0
 11
0.4885698286
 21
12.8346456693
 31
0.0
  0
LINE
  5
F8
330
1B
100
AcDbEntity
 67
     1
  8
0
  6
Continuous
 62
     7
370
    25
100
AcDbLine
 10
0.3885664857
 20
12.8350393701
 30
0.0
 11
0.3885664857
 21
12.8346456693
 31
0.0
  0
LINE
  5
F9
330
1B
100
AcDbEntity
 67
     1
  8
0
  6
Continuous
 62
     7
370
    25
100
AcDbLine
 10
2.9330708661
 20
12.5905511811
 30
0.0
 11
2.9330708661
 21
12.2913385827
 31
0.0
  0
LINE
  5
FA
330
1B
100
AcDbEntity
 67
     1
  8
0
  6
Continuous
 62
     8
370
    25
100
AcDbLine
 10
4.1742086181
 20
11.2598425197
 30
0.0
 11
4.1742086181
 21
10.4724409449
 31
0.0
  0
LINE
  5
FB
330
1B
100
AcDbEntity
 67
     1
  8
0
  6
Continuous
 62
     8
370
    25
100
AcDbLine
 10
5.2265785285
 20
10.6149494091
 30
0.0
 11
4.5249985882
 21
10.2574765747
 31
0.0
  0
LINE
  5
FC
330
1B
100
AcDbEntity
 67
     1
  8
0
  6
Continuous
 62
     8
370
    25
100
AcDbLine
 10
-0.6299212598
 20
11.657480315
 30
0.0
 11
0.6299212598
 21
11.657480315
 31
0.0
  0
LINE
  5
FD
330
1B
100
AcDbEntity
 67
     1
  8
0
  6
Continuous
 62
     8
370
    25
100
AcDbLine
 10
2.9251968504
 20
12.2834645669
 30
0.0
 11
2.9251968504
 21
12.5984251969
 31
0.0
  0
ARC
  5
FE
330
1B
100
AcDbEntity
 67
     1
  8
0
  6
Continuous
 62
     7
370
    25
100
AcDbCircle
 10
4.1742086181
 20
10.0787401575
 30
0.0
 40
0.3937007874015794
100
AcDbArc
 50
27.0
 51
90.0
  0
ARC
  5
FF
330
1B
100
AcDbEntity
 67
     1
  8
0
  6
Continuous
 62
     7
370
    25
100
AcDbCircle
 10
4.1742086181
 20
10.0787401575
 30
0.0
 40
1.181102362204728
100
AcDbArc
 50
27.0
 51
90.0
  0
ARC
  5
100
330
1B
100
AcDbEntity
 67
     1
  8
0
  6
Continuous
 62
     7
370
    25
100
AcDbCircle
 10
0.0
 20
11.657480315
 30
0.0
 40
0.6299212598424891
100
AcDbArc
 50
160.9542076583
 51
180.0
  0
ARC
  5
101
330
1B
100
AcDbEntity
 67
     1
  8
0
  6
Continuous
 62
     7
370
    25
100
AcDbCircle
 10
2.9251968504
 20
12.5905511811
 30
0.0
 40
0.0078740157480315
100
AcDbArc
 50
0.0
 51
90.0
  0
ARC
  5
102
330
1B
100
AcDbEntity
 67
     1
  8
0
  6
Continuous
 62
     7
370
    25
100
AcDbCircle
 10
2.9251968504
 20
12.2913385827
 30
0.0
 40
0.0078740157480359
100
AcDbArc
 50
270.0
 51
360.0
  0
VIEWPORT
  5
192
330
1B
100
AcDbEntity
 67
     1
  8
0
100
AcDbViewport
 10
0.0
 20
0.0
 30
0.0
 40
8.4
 41
6.4
 68
     1
 69
     1
 12
0.0
 22
6.3190944882
 13
0.0
 23
0.0
 14
0.5
 24
0.5
 15
0.5
 25
0.5
 16
0.0
 26
0.0
 36
1.0
 17
0.0
 27
0.0
 37
0.0
 42
50.0
 43
0.0
 44
0.0
 45
13.2925275591
 50
0.0
 51
0.0
 72
   100
 90
   557152
  1

281
     0
 71
     1
 74
     0
110
0.0
120
0.0
130
0.0
111
1.0
121
0.0
131
0.0
112
0.0
122
1.0
132
0.0
 79
     0
146
0.0
  0
ENDSEC
  0
SECTION
  2
OBJECTS
  0
DICTIONARY
  5
C
330
0
100
AcDbDictionary
281
     1
  3
ACAD_GROUP
350
D
  3
ACAD_LAYOUT
350
1A
  3
ACAD_MLINESTYLE
350
17
  3
ACAD_PLOTSETTINGS
350
19
  3
ACAD_PLOTSTYLENAME
350
E
  3
ACAD_SCALELIST
350
47
  0
DICTIONARY
  5
D
102
{ACAD_REACTORS
330
C
102
}
330
C
100
AcDbDictionary
281
     1
  0
DICTIONARY
  5
1A
102
{ACAD_REACTORS
330
C
102
}
330
C
100
AcDbDictionary
281
     1
  3
_Isometric
350
12F
  3
_Left
350
1E
  3
_Top
350
26
  3
Model
350
22
  0
DICTIONARY
  5
17
102
{ACAD_REACTORS
330
C
102
}
330
C
100
AcDbDictionary
281
     1
  3
Standard
350
18
  0
DICTIONARY
  5
19
102
{ACAD_REACTORS
330
C
102
}
330
C
100
AcDbDictionary
281
     1
  0
ACDBDICTIONARYWDFLT
  5
E
102
{ACAD_REACTORS
330
C
102
}
330
C
100
AcDbDictionary
281
     1
  3
Normal
350
F
100
AcDbDictionaryWithDefault
340
F
  0
DICTIONARY
  5
47
102
{ACAD_REACTORS
330
C
102
}
330
C
100
AcDbDictionary
281
     1
  3
A0
350
48
  3
A1
350
49
  3
A2
350
4A
  3
A3
350
4B
  3
A4
350
4C
  3
A5
350
4D
  3
A6
350
4E
  3
A7
350
4F
  3
A8
350
50
  3
A9
350
51
  3
B0
350
52
  3
B1
350
53
  3
B2
350
54
  3
B3
350
55
  3
B4
350
56
  3
B5
350
57
  3
B6
350
58
  3
B7
350
59
  3
B8
350
5A
  3
B9
350
5B
  3
C0
350
5C
  3
C1
350
5D
  3
C2
350
5E
  3
C3
350
5F
  3
C4
350
60
  3
C5
350
61
  3
C6
350
62
  3
C7
350
63
  3
C8
350
64
  3
C9
350
65
  3
D0
350
66
  3
D1
350
67
  3
D2
350
68
  0
LAYOUT
  5
12F
102
{ACAD_REACTORS
330
1A
102
}
330
1A
100
AcDbPlotSettings
  1

  2
none_device
  4
Letter_(8.50_x_11.00_Inches)
  6

 40
6.35
 41
6.35
 42
6.35001
 43
6.35001
 44
215.9
 45
279.4
 46
0.0
 47
0.0
 48
0.0
 49
0.0
140
0.0
141
0.0
142
1.0
143
1.6289863006
 70
   688
 72
     0
 73
     1
 74
     1
  7

 75
     0
147
0.6138787046
148
25.0
149
5.0
100
AcDbLayout
  1
_Isometric
 70
     1
 71
     3
 10
0.0
 20
0.0
 11
0.0
 21
0.0
 12
0.0
 22
0.0
 32
0.0
 14
0.0
 24
0.0
 34
0.0
 15
0.0
 25
0.0
 35
0.0
146
0.0
 13
0.0
 23
0.0
 33
0.0
 16
1.0
 26
0.0
 36
0.0
 17
0.0
 27
1.0
 37
0.0
 76
     0
330
12E
331
196
  0
LAYOUT
  5
1E
102
{ACAD_REACTORS
330
1A
102
}
330
1A
100
AcDbPlotSettings
  1

  2
none_device
  4
Letter_(8.50_x_11.00_Inches)
  6

 40
6.35
 41
6.35
 42
6.35001
 43
6.35001
 44
215.9
 45
279.4
 46
0.0
 47
0.0
 48
0.0
 49
0.0
140
0.0
141
0.0
142
1.0
143
1.6289863006
 70
   688
 72
     0
 73
     1
 74
     1
  7

 75
     0
147
0.6138787046
148
25.0
149
5.0
100
AcDbLayout
  1
_Left
 70
     1
 71
     1
 10
-1.391499185
 20
-0.6040969689
 11
16.527350122
 21
13.2422865866
 12
0.0
 22
0.0
 32
0.0
 14
-0.9842519685
 24
-0.1968503937
 34
0.0
 15
5.4689002064
 25
12.8350393701
 35
0.0
146
0.0
 13
0.0
 23
0.0
 33
0.0
 16
1.0
 26
0.0
 36
0.0
 17
0.0
 27
1.0
 37
0.0
 76
     0
330
1B
331
192
  0
LAYOUT
  5
26
102
{ACAD_REACTORS
330
1A
102
}
330
1A
100
AcDbPlotSettings
  1

  2
none_device
  4
Letter_(8.50_x_11.00_Inches)
  6

 40
6.35
 41
6.35
 42
6.35001
 43
6.35001
 44
215.9
 45
279.4
 46
0.0
 47
0.0
 48
0.0
 49
0.0
140
0.0
141
0.0
142
1.0
143
1.6289863006
 70
   688
 72
     0
 73
     1
 74
     1
  7

 75
     0
147
0.6138787046
148
25.0
149
5.0
100
AcDbLayout
  1
_Top
 70
     1
 71
     2
 10
0.0
 20
0.0
 11
0.0
 21
0.0
 12
0.0
 22
0.0
 32
0.0
 14
0.0
 24
0.0
 34
0.0
 15
0.0
 25
0.0
 35
0.0
146
0.0
 13
0.0
 23
0.0
 33
0.0
 16
1.0
 26
0.0
 36
0.0
 17
0.0
 27
1.0
 37
0.0
 76
     0
330
23
331
194
  0
LAYOUT
  5
22
102
{ACAD_REACTORS
330
1A
102
}
330
1A
100
AcDbPlotSettings
  1

  2
none_device
  4
ANSI_A_(11.00_x_8.50_Inches)
  6

 40
6.35
 41
19.05
 42
6.35000508
 43
19.05000254
 44
279.4
 45
215.9
 46
133.34999746
 47
-14.7418827993
 48
0.0
 49
0.0
140
0.0
141
0.0
142
0.6457236941
143
1.0
 70
  1696
 72
     0
 73
     0
 74
     0
  7

 75
     0
147
0.5913241897
148
-39.4088153714
149
0.0
100
AcDbLayout
  1
Model
 70
     1
 71
     0
 10
0.0
 20
0.0
 11
12.0
 21
9.0
 12
0.0
 22
0.0
 32
0.0
 14
-0.9842519685
 24
-0.1968503937
 34
0.0
 15
0.9842519685
 25
12.8350393701
 35
0.0
146
0.0
 13
0.0
 23
0.0
 33
0.0
 16
1.0
 26
0.0
 36
0.0
 17
0.0
 27
1.0
 37
0.0
 76
     0
330
1F
331
29
  0
MLINESTYLE
  5
18
102
{ACAD_REACTORS
330
17
102
}
330
17
100
AcDbMlineStyle
  2
Standard
 70
     0
  3

 62
   256
 51
90.0
 52
90.0
 71
     2
 49
0.5
 62
   256
  6
BYLAYER
 49
-0.5
 62
   256
  6
BYLAYER
  0
ACDBPLACEHOLDER
  5
F
102
{ACAD_REACTORS
330
E
102
}
330
E
  0
SCALE
  5
48
102
{ACAD_REACTORS
330
47
102
}
330
47
100
AcDbScale
 70
     0
300
1:1
140
1.0
141
1.0
290
     1
  0
SCALE
  5
49
102
{ACAD_REACTORS
330
47
102
}
330
47
100
AcDbScale
 70
     0
300
1:2
140
1.0
141
2.0
290
     0
  0
SCALE
  5
4A
102
{ACAD_REACTORS
330
47
102
}
330
47
100
AcDbScale
 70
     0
300
1:4
140
1.0
141
4.0
290
     0
  0
SCALE
  5
4B
102
{ACAD_REACTORS
330
47
102
}
330
47
100
AcDbScale
 70
     0
300
1:5
140
1.0
141
5.0
290
     0
  0
SCALE
  5
4C
102
{ACAD_REACTORS
330
47
102
}
330
47
100
AcDbScale
 70
     0
300
1:8
140
1.0
141
8.0
290
     0
  0
SCALE
  5
4D
102
{ACAD_REACTORS
330
47
102
}
330
47
100
AcDbScale
 70
     0
300
1:10
140
1.0
141
10.0
290
     0
  0
SCALE
  5
4E
102
{ACAD_REACTORS
330
47
102
}
330
47
100
AcDbScale
 70
     0
300
1:16
140
1.0
141
16.0
290
     0
  0
SCALE
  5
4F
102
{ACAD_REACTORS
330
47
102
}
330
47
100
AcDbScale
 70
     0
300
1:20
140
1.0
141
20.0
290
     0
  0
SCALE
  5
50
102
{ACAD_REACTORS
330
47
102
}
330
47
100
AcDbScale
 70
     0
300
1:30
140
1.0
141
30.0
290
     0
  0
SCALE
  5
51
102
{ACAD_REACTORS
330
47
102
}
330
47
100
AcDbScale
 70
     0
300
1:40
140
1.0
141
40.0
290
     0
  0
SCALE
  5
52
102
{ACAD_REACTORS
330
47
102
}
330
47
100
AcDbScale
 70
     0
300
1:50
140
1.0
141
50.0
290
     0
  0
SCALE
  5
53
102
{ACAD_REACTORS
330
47
102
}
330
47
100
AcDbScale
 70
     0
300
1:100
140
1.0
141
100.0
290
     0
  0
SCALE
  5
54
102
{ACAD_REACTORS
330
47
102
}
330
47
100
AcDbScale
 70
     0
300
2:1
140
2.0
141
1.0
290
     0
  0
SCALE
  5
55
102
{ACAD_REACTORS
330
47
102
}
330
47
100
AcDbScale
 70
     0
300
4:1
140
4.0
141
1.0
290
     0
  0
SCALE
  5
56
102
{ACAD_REACTORS
330
47
102
}
330
47
100
AcDbScale
 70
     0
300
8:1
140
8.0
141
1.0
290
     0
  0
SCALE
  5
57
102
{ACAD_REACTORS
330
47
102
}
330
47
100
AcDbScale
 70
     0
300
10:1
140
10.0
141
1.0
290
     0
  0
SCALE
  5
58
102
{ACAD_REACTORS
330
47
102
}
330
47
100
AcDbScale
 70
     0
300
100:1
140
100.0
141
1.0
290
     0
  0
SCALE
  5
59
102
{ACAD_REACTORS
330
47
102
}
330
47
100
AcDbScale
 70
     0
300
1/128" = 1'-0"
140
0.0078125
141
12.0
290
     0
  0
SCALE
  5
5A
102
{ACAD_REACTORS
330
47
102
}
330
47
100
AcDbScale
 70
     0
300
1/64" = 1'-0"
140
0.015625
141
12.0
290
     0
  0
SCALE
  5
5B
102
{ACAD_REACTORS
330
47
102
}
330
47
100
AcDbScale
 70
     0
300
1/32" = 1'-0"
140
0.03125
141
12.0
290
     0
  0
SCALE
  5
5C
102
{ACAD_REACTORS
330
47
102
}
330
47
100
AcDbScale
 70
     0
300
1/16" = 1'-0"
140
0.0625
141
12.0
290
     0
  0
SCALE
  5
5D
102
{ACAD_REACTORS
330
47
102
}
330
47
100
AcDbScale
 70
     0
300
3/32" = 1'-0"
140
0.09375
141
12.0
290
     0
  0
SCALE
  5
5E
102
{ACAD_REACTORS
330
47
102
}
330
47
100
AcDbScale
 70
     0
300
1/8" = 1'-0"
140
0.125
141
12.0
290
     0
  0
SCALE
  5
5F
102
{ACAD_REACTORS
330
47
102
}
330
47
100
AcDbScale
 70
     0
300
3/16" = 1'-0"
140
0.1875
141
12.0
290
     0
  0
SCALE
  5
60
102
{ACAD_REACTORS
330
47
102
}
330
47
100
AcDbScale
 70
     0
300
1/4" = 1'-0"
140
0.25
141
12.0
290
     0
  0
SCALE
  5
61
102
{ACAD_REACTORS
330
47
102
}
330
47
100
AcDbScale
 70
     0
300
3/8" = 1'-0"
140
0.375
141
12.0
290
     0
  0
SCALE
  5
62
102
{ACAD_REACTORS
330
47
102
}
330
47
100
AcDbScale
 70
     0
300
1/2" = 1'-0"
140
0.5
141
12.0
290
     0
  0
SCALE
  5
63
102
{ACAD_REACTORS
330
47
102
}
330
47
100
AcDbScale
 70
     0
300
3/4" = 1'-0"
140
0.75
141
12.0
290
     0
  0
SCALE
  5
64
102
{ACAD_REACTORS
330
47
102
}
330
47
100
AcDbScale
 70
     0
300
1" = 1'-0"
140
1.0
141
12.0
290
     0
  0
SCALE
  5
65
102
{ACAD_REACTORS
330
47
102
}
330
47
100
AcDbScale
 70
     0
300
1-1/2" = 1'-0"
140
1.5
141
12.0
290
     0
  0
SCALE
  5
66
102
{ACAD_REACTORS
330
47
102
}
330
47
100
AcDbScale
 70
     0
300
3" = 1'-0"
140
3.0
141
12.0
290
     0
  0
SCALE
  5
67
102
{ACAD_REACTORS
330
47
102
}
330
47
100
AcDbScale
 70
     0
300
6" = 1'-0"
140
6.0
141
12.0
290
     0
  0
SCALE
  5
68
102
{ACAD_REACTORS
330
47
102
}
330
47
100
AcDbScale
 70
     0
300
1'-0" = 1'-0"
140
12.0
141
12.0
290
     0
  0
ENDSEC
  0
EOF
