  0
SECTION
  2
HEADER
  9
$ACADVER
  1
AC1015
  9
$ACADMAINTVER
 70
     6
  9
$DWGCODEPAGE
  3
ANSI_1252
  9
$INSBASE
 10
0.0
 20
0.0
 30
0.0
  9
$EXTMIN
 10
-0.9842519685
 20
-0.1968503937
 30
0.0
  9
$EXTMAX
 10
0.9842519685
 20
6.1027559055
 30
0.0
  9
$LIMMIN
 10
0.0
 20
0.0
  9
$LIMMAX
 10
12.0
 20
9.0
  9
$ORTHOMODE
 70
     0
  9
$REGENMODE
 70
     1
  9
$FILLMODE
 70
     1
  9
$QTEXTMODE
 70
     0
  9
$MIRRTEXT
 70
     1
  9
$LTSCALE
 40
1.0
  9
$ATTMODE
 70
     1
  9
$TEXTSIZE
 40
0.1377952756
  9
$TRACEWID
 40
0.05
  9
$TEXTSTYLE
  7
Standard
  9
$CLAYER
  8
0
  9
$CELTYPE
  6
ByLayer
  9
$CECOLOR
 62
   256
  9
$CELTSCALE
 40
1.0
  9
$DISPSILH
 70
     0
  9
$DIMSCALE
 40
1.0
  9
$DIMASZ
 40
0.13
  9
$DIMEXO
 40
0.0393700787
  9
$DIMDLI
 40
0.38
  9
$DIMRND
 40
0.0
  9
$DIMDLE
 40
0.0
  9
$DIMEXE
 40
0.0393700787
  9
$DIMTP
 40
0.0
  9
$DIMTM
 40
0.0
  9
$DIMTXT
 40
0.1377952756
  9
$DIMCEN
 40
0.09
  9
$DIMTSZ
 40
0.0
  9
$DIMTOL
 70
     0
  9
$DIMLIM
 70
     0
  9
$DIMTIH
 70
     1
  9
$DIMTOH
 70
     1
  9
$DIMSE1
 70
     0
  9
$DIMSE2
 70
     0
  9
$DIMTAD
 70
     1
  9
$DIMZIN
 70
     1
  9
$DIMBLK
  1

  9
$DIMASO
 70
     1
  9
$DIMSHO
 70
     1
  9
$DIMPOST
  1

  9
$DIMAPOST
  1

  9
$DIMALT
 70
     0
  9
$DIMALTD
 70
     2
  9
$DIMALTF
 40
25.4
  9
$DIMLFAC
 40
1.0
  9
$DIMTOFL
 70
     0
  9
$DIMTVP
 40
0.0
  9
$DIMTIX
 70
     0
  9
$DIMSOXD
 70
     0
  9
$DIMSAH
 70
     0
  9
$DIMBLK1
  1

  9
$DIMBLK2
  1

  9
$DIMSTYLE
  2
Standard
  9
$DIMCLRD
 70
     0
  9
$DIMCLRE
 70
     0
  9
$DIMCLRT
 70
     0
  9
$DIMTFAC
 40
1.0
  9
$DIMGAP
 40
0.06
  9
$DIMJUST
 70
     0
  9
$DIMSD1
 70
     0
  9
$DIMSD2
 70
     0
  9
$DIMTOLJ
 70
     1
  9
$DIMTZIN
 70
     1
  9
$DIMALTZ
 70
     0
  9
$DIMALTTZ
 70
     0
  9
$DIMUPT
 70
     0
  9
$DIMDEC
 70
     2
  9
$DIMTDEC
 70
     2
  9
$DIMALTU
 70
     2
  9
$DIMALTTD
 70
     2
  9
$DIMTXSTY
  7
Standard
  9
$DIMAUNIT
 70
     0
  9
$DIMADEC
 70
     2
  9
$DIMALTRND
 40
0.0
  9
$DIMAZIN
 70
     0
  9
$DIMDSEP
 70
    46
  9
$DIMATFIT
 70
     3
  9
$DIMFRAC
 70
     0
  9
$DIMLDRBLK
  1

  9
$DIMLUNIT
 70
     2
  9
$DIMLWD
 70
    -2
  9
$DIMLWE
 70
    -2
  9
$DIMTMOVE
 70
     0
  9
$LUNITS
 70
     2
  9
$LUPREC
 70
     2
  9
$SKETCHINC
 40
0.1
  9
$FILLETRAD
 40
0.5
  9
$AUNITS
 70
     0
  9
$AUPREC
 70
     2
  9
$MENU
  1
.
  9
$ELEVATION
 40
0.0
  9
$PELEVATION
 40
0.0
  9
$THICKNESS
 40
0.0
  9
$LIMCHECK
 70
     0
  9
$CHAMFERA
 40
0.0
  9
$CHAMFERB
 40
0.0
  9
$CHAMFERC
 40
0.0
  9
$CHAMFERD
 40
0.0
  9
$SKPOLY
 70
     0
  9
$TDCREATE
 40
2460416.461609896
  9
$TDUCREATE
 40
2460416.419943229
  9
$TDUPDATE
 40
2460416.461638611
  9
$TDUUPDATE
 40
2460416.419971944
  9
$TDINDWG
 40
0.0000000116
  9
$TDUSRTIMER
 40
0.0000000116
  9
$USRTIMER
 70
     1
  9
$ANGBASE
 50
0.0
  9
$ANGDIR
 70
     0
  9
$PDMODE
 70
     0
  9
$PDSIZE
 40
-1.0
  9
$PLINEWID
 40
0.0
  9
$SPLFRAME
 70
     0
  9
$SPLINETYPE
 70
     6
  9
$SPLINESEGS
 70
     8
  9
$HANDSEED
  5
199
  9
$SURFTAB1
 70
     6
  9
$SURFTAB2
 70
     6
  9
$SURFTYPE
 70
     6
  9
$SURFU
 70
     6
  9
$SURFV
 70
     6
  9
$UCSBASE
  2

  9
$UCSNAME
  2

  9
$UCSORG
 10
0.0
 20
0.0
 30
0.0
  9
$UCSXDIR
 10
1.0
 20
0.0
 30
0.0
  9
$UCSYDIR
 10
0.0
 20
1.0
 30
0.0
  9
$UCSORTHOREF
  2

  9
$UCSORTHOVIEW
 70
     0
  9
$UCSORGTOP
 10
0.0
 20
0.0
 30
0.0
  9
$UCSORGBOTTOM
 10
0.0
 20
0.0
 30
0.0
  9
$UCSORGLEFT
 10
0.0
 20
0.0
 30
0.0
  9
$UCSORGRIGHT
 10
0.0
 20
0.0
 30
0.0
  9
$UCSORGFRONT
 10
0.0
 20
0.0
 30
0.0
  9
$UCSORGBACK
 10
0.0
 20
0.0
 30
0.0
  9
$PUCSBASE
  2

  9
$PUCSNAME
  2

  9
$PUCSORG
 10
0.0
 20
0.0
 30
0.0
  9
$PUCSXDIR
 10
1.0
 20
0.0
 30
0.0
  9
$PUCSYDIR
 10
0.0
 20
1.0
 30
0.0
  9
$PUCSORTHOREF
  2

  9
$PUCSORTHOVIEW
 70
     0
  9
$PUCSORGTOP
 10
0.0
 20
0.0
 30
0.0
  9
$PUCSORGBOTTOM
 10
0.0
 20
0.0
 30
0.0
  9
$PUCSORGLEFT
 10
0.0
 20
0.0
 30
0.0
  9
$PUCSORGRIGHT
 10
0.0
 20
0.0
 30
0.0
  9
$PUCSORGFRONT
 10
0.0
 20
0.0
 30
0.0
  9
$PUCSORGBACK
 10
0.0
 20
0.0
 30
0.0
  9
$USERI1
 70
     0
  9
$USERI2
 70
     0
  9
$USERI3
 70
     0
  9
$USERI4
 70
     0
  9
$USERI5
 70
     0
  9
$USERR1
 40
0.0
  9
$USERR2
 40
0.0
  9
$USERR3
 40
0.0
  9
$USERR4
 40
0.0
  9
$USERR5
 40
0.0
  9
$WORLDVIEW
 70
     1
  9
$SHADEDGE
 70
     3
  9
$SHADEDIF
 70
    70
  9
$TILEMODE
 70
     1
  9
$MAXACTVP
 70
    64
  9
$PINSBASE
 10
0.0
 20
0.0
 30
0.0
  9
$PLIMCHECK
 70
     0
  9
$PEXTMIN
 10
-0.9842519685
 20
-0.1968503937
 30
0.0
  9
$PEXTMAX
 10
5.4689002064
 20
6.1027559055
 30
0.0
  9
$PLIMMIN
 10
-1.1811149851
 20
-0.3937131002
  9
$PLIMMAX
 10
7.4808441026
 20
6.2996189221
  9
$UNITMODE
 70
     0
  9
$VISRETAIN
 70
     1
  9
$PLINEGEN
 70
     0
  9
$PSLTSCALE
 70
     1
  9
$TREEDEPTH
 70
  3020
  9
$CMLSTYLE
  2
Standard
  9
$CMLJUST
 70
     0
  9
$CMLSCALE
 40
1.0
  9
$PROXYGRAPHICS
 70
     1
  9
$MEASUREMENT
 70
     0
  9
$CELWEIGHT
370
    -1
  9
$ENDCAPS
280
     0
  9
$JOINSTYLE
280
     0
  9
$LWDISPLAY
290
     1
  9
$INSUNITS
 70
     1
  9
$HYPERLINKBASE
  1

  9
$STYLESHEET
  1

  9
$XEDIT
290
     1
  9
$CEPSNTYPE
380
     0
  9
$PSTYLEMODE
290
     1
  9
$FINGERPRINTGUID
  2
{2e7a1cbe-211b-46e7-9326-3baf3f0109a5}
  9
$VERSIONGUID
  2
{FAEB1C32-E019-11D5-929B-00C0DF256EC4}
  9
$EXTNAMES
290
     1
  9
$PSVPSCALE
 40
0.0
  9
$OLESTARTUP
290
     0
  0
ENDSEC
  0
SECTION
  2
CLASSES
  0
CLASS
  1
ACDBDICTIONARYWDFLT
  2
AcDbDictionaryWithDefault
  3
ObjectDBX Classes
 90
        0
280
     0
281
     0
  0
CLASS
  1
VISUALSTYLE
  2
AcDbVisualStyle
  3
ObjectDBX Classes
 90
     4095
280
     0
281
     0
  0
CLASS
  1
MATERIAL
  2
AcDbMaterial
  3
ObjectDBX Classes
 90
     1153
280
     0
281
     0
  0
CLASS
  1
SCALE
  2
AcDbScale
  3
ObjectDBX Classes
 90
     1153
280
     0
281
     0
  0
CLASS
  1
TABLESTYLE
  2
AcDbTableStyle
  3
ObjectDBX Classes
 90
     4095
280
     0
281
     0
  0
CLASS
  1
MLEADERSTYLE
  2
AcDbMLeaderStyle
  3
ACDB_MLEADERSTYLE_CLASS
 90
     4095
280
     0
281
     0
  0
CLASS
  1
SUN
  2
AcDbSun
  3
SCENEOE
 90
     1153
280
     0
281
     0
  0
CLASS
  1
ACDBPLACEHOLDER
  2
AcDbPlaceHolder
  3
ObjectDBX Classes
 90
        0
280
     0
281
     0
  0
CLASS
  1
LAYOUT
  2
AcDbLayout
  3
ObjectDBX Classes
 90
        0
280
     0
281
     0
  0
ENDSEC
  0
SECTION
  2
TABLES
  0
TABLE
  2
VPORT
  5
8
330
0
100
AcDbSymbolTable
 70
     1
  0
VPORT
  5
29
330
8
100
AcDbSymbolTableRecord
100
AcDbViewportTableRecord
  2
*Active
 70
     0
 10
0.0
 20
0.0
 11
1.0
 21
1.0
 12
0.0
 22
2.9529527559
 13
0.0
 23
0.0
 14
0.5
 24
0.5
 15
0.5
 25
0.5
 16
0.0
 26
0.0
 36
1.0
 17
0.0
 27
0.0
 37
0.0
 40
6.4255984252
 41
0.31248047
 42
50.0
 43
0.0
 44
0.0
 50
0.0
 51
0.0
 71
     0
 72
   100
 73
     1
 74
     3
 75
     0
 76
     0
 77
     0
 78
     0
281
     0
 65
     1
110
0.0
120
0.0
130
0.0
111
1.0
121
0.0
131
0.0
112
0.0
122
1.0
132
0.0
 79
     0
146
0.0
  0
ENDTAB
  0
TABLE
  2
LTYPE
  5
5
330
0
100
AcDbSymbolTable
 70
     6
  0
LTYPE
  5
14
330
5
100
AcDbSymbolTableRecord
100
AcDbLinetypeTableRecord
  2
ByBlock
 70
     0
  3

 72
    65
 73
     0
 40
0.0
  0
LTYPE
  5
15
330
5
100
AcDbSymbolTableRecord
100
AcDbLinetypeTableRecord
  2
ByLayer
 70
     0
  3

 72
    65
 73
     0
 40
0.0
  0
LTYPE
  5
16
330
5
100
AcDbSymbolTableRecord
100
AcDbLinetypeTableRecord
  2
Continuous
 70
     0
  3
Solid line
 72
    65
 73
     0
 40
0.0
  0
LTYPE
  5
6E
330
5
100
AcDbSymbolTableRecord
100
AcDbLinetypeTableRecord
  2
HIDDEN
 70
     0
  3
Hidden __ __ __ __ __ __ __ __ __ __ __ __ __ __
 72
    65
 73
     2
 40
0.075
 49
0.05
 74
     0
 49
-0.025
 74
     0
  0
LTYPE
  5
6F
330
5
100
AcDbSymbolTableRecord
100
AcDbLinetypeTableRecord
  2
PHANTOM
 70
     0
  3
Phantom ______  __  __  ______  __  __  ______
 72
    65
 73
     6
 40
0.5
 49
0.25
 74
     0
 49
-0.05
 74
     0
 49
0.05
 74
     0
 49
-0.05
 74
     0
 49
0.05
 74
     0
 49
-0.05
 74
     0
  0
LTYPE
  5
70
330
5
100
AcDbSymbolTableRecord
100
AcDbLinetypeTableRecord
  2
CENTER
 70
     0
  3
Center ____ _ ____ _ ____ _ ____ _ ____ _ ____
 72
    65
 73
     4
 40
0.4
 49
0.25
 74
     0
 49
-0.05
 74
     0
 49
0.05
 74
     0
 49
-0.05
 74
     0
  0
LTYPE
  5
71
330
5
100
AcDbSymbolTableRecord
100
AcDbLinetypeTableRecord
  2
CENTERX2
 70
     0
  3
Center (2x) ________  __  ________  __  _____
 72
    65
 73
     4
 40
0.8
 49
0.5
 74
     0
 49
-0.1
 74
     0
 49
0.1
 74
     0
 49
-0.1
 74
     0
  0
LTYPE
  5
72
330
5
100
AcDbSymbolTableRecord
100
AcDbLinetypeTableRecord
  2
DOT2
 70
     0
  3
Dot (.5x) ........................................
 72
    65
 73
     2
 40
0.025
 49
0.0
 74
     0
 49
-0.025
 74
     0
  0
ENDTAB
  0
TABLE
  2
LAYER
  5
2
330
0
100
AcDbSymbolTable
 70
     1
  0
LAYER
  5
10
330
2
100
AcDbSymbolTableRecord
100
AcDbLayerTableRecord
  2
0
 70
     0
 62
     7
  6
Continuous
370
    -3
390
F
  0
ENDTAB
  0
TABLE
  2
STYLE
  5
3
330
0
100
AcDbSymbolTable
 70
     1
  0
STYLE
  5
11
330
3
100
AcDbSymbolTableRecord
100
AcDbTextStyleTableRecord
  2
Standard
 70
     0
 40
0.0
 41
1.0
 50
0.0
 71
     0
 42
0.1377952756
  3
txt
  4

  0
ENDTAB
  0
TABLE
  2
VIEW
  5
6
330
0
100
AcDbSymbolTable
 70
     0
  0
ENDTAB
  0
TABLE
  2
UCS
  5
7
330
0
100
AcDbSymbolTable
 70
     0
  0
ENDTAB
  0
TABLE
  2
APPID
  5
9
330
0
100
AcDbSymbolTable
 70
     1
  0
APPID
  5
12
330
9
100
AcDbSymbolTableRecord
100
AcDbRegAppTableRecord
  2
ACAD
 70
     0
  0
ENDTAB
  0
TABLE
  2
DIMSTYLE
  5
A
330
0
100
AcDbSymbolTable
 70
     1
100
AcDbDimStyleTable
  0
DIMSTYLE
105
27
330
A
100
AcDbSymbolTableRecord
100
AcDbDimStyleTableRecord
  2
Standard
 70
     0
178
     0
340
11
  0
ENDTAB
  0
TABLE
  2
BLOCK_RECORD
  5
1
330
0
100
AcDbSymbolTable
 70
     2
  0
BLOCK_RECORD
  5
1F
330
1
100
AcDbSymbolTableRecord
100
AcDbBlockTableRecord
  2
*Model_Space
340
22
  0
BLOCK_RECORD
  5
1B
330
1
100
AcDbSymbolTableRecord
100
AcDbBlockTableRecord
  2
*Paper_Space
340
1E
  0
BLOCK_RECORD
  5
23
330
1
100
AcDbSymbolTableRecord
100
AcDbBlockTableRecord
  2
*Paper_Space0
340
26
  0
BLOCK_RECORD
  5
12E
330
1
100
AcDbSymbolTableRecord
100
AcDbBlockTableRecord
  2
*Paper_Space1
340
12F
  0
ENDTAB
  0
ENDSEC
  0
SECTION
  2
BLOCKS
  0
BLOCK
  5
20
330
1F
100
AcDbEntity
  8
0
100
AcDbBlockBegin
  2
*Model_Space
 70
     0
 10
0.0
 20
0.0
 30
0.0
  3
*Model_Space
  1

  0
ENDBLK
  5
21
330
1F
100
AcDbEntity
  8
0
100
AcDbBlockEnd
  0
BLOCK
  5
1C
330
1B
100
AcDbEntity
 67
     1
  8
0
100
AcDbBlockBegin
  2
*Paper_Space
 70
     0
 10
0.0
 20
0.0
 30
0.0
  3
*Paper_Space
  1

  0
ENDBLK
  5
1D
330
1B
100
AcDbEntity
 67
     1
  8
0
100
AcDbBlockEnd
  0
BLOCK
  5
24
330
23
100
AcDbEntity
  8
0
100
AcDbBlockBegin
  2
*Paper_Space0
 70
     0
 10
0.0
 20
0.0
 30
0.0
  3
*Paper_Space0
  1

  0
LWPOLYLINE
  5
10D
330
23
100
AcDbEntity
  8
0
  6
Continuous
 62
     7
370
    25
100
AcDbPolyline
 90
       26
 70
   128
 43
0.0
 10
0.3937007874
 20
-5.1181102362
 10
0.3904685094
 20
-5.162968262
 10
0.3808247492
 20
-5.2070897201
 10
0.3649278572
 20
-5.2497501377
 10
0.3430388599
 20
-5.2902490316
 10
0.315517174
 20
-5.3279214114
 10
0.2828147048
 20
-5.3621486974
 10
0.2454684259
 20
-5.3923688786
 10
0.2040915623
 20
-5.4180857405
 10
0.1593635209
 20
-5.438877013
 10
0.1120187349
 20
-5.4544013038
 10
0.0628346043
 20
-5.4644037046
 10
0.0126187313
 20
-5.4687199762
 10
-0.0378043409
 20
-5.4672792455
 10
-0.0876066669
 20
-5.4601051694
 10
-0.1359704939
 20
-5.447315546
 10
-0.1821016891
 20
-5.4291203804
 10
-0.2252427796
 20
-5.4058184369
 10
-0.2646853899
 20
-5.3777923327
 10
-0.2997818734
 20
-5.3455022557
 10
-0.3299559468
 20
-5.3094784079
 10
-0.3547121527
 20
-5.2703123001
 10
-0.3736439949
 20
-5.2286470386
 10
-0.386440613
 20
-5.1851667659
 10
-0.3928918869
 20
-5.1405854268
 10
-0.3937007874
 20
-5.1181102362
  0
CIRCLE
  5
117
330
23
100
AcDbEntity
  8
0
  6
Continuous
 62
     7
370
    25
100
AcDbCircle
 10
0.0
 20
0.0
 30
0.0
 40
0.6889763779527565
  0
LWPOLYLINE
  5
11A
330
23
100
AcDbEntity
  8
0
  6
Continuous
 62
     8
370
    25
100
AcDbPolyline
 90
       26
 70
   128
 43
0.0
 10
0.3937007874
 20
-4.8757885584
 10
0.3904685094
 20
-4.9206465841
 10
0.3808247492
 20
-4.9647680423
 10
0.3649278572
 20
-5.0074284598
 10
0.3430388599
 20
-5.0479273538
 10
0.315517174
 20
-5.0855997335
 10
0.2828147048
 20
-5.1198270195
 10
0.2454684259
 20
-5.1500472008
 10
0.2040915623
 20
-5.1757640627
 10
0.1593635209
 20
-5.1965553351
 10
0.1120187349
 20
-5.2120796259
 10
0.0628346043
 20
-5.2220820267
 10
0.0126187313
 20
-5.2263982983
 10
-0.0378043409
 20
-5.2249575677
 10
-0.0876066669
 20
-5.2177834916
 10
-0.1359704939
 20
-5.2049938681
 10
-0.1821016891
 20
-5.1867987026
 10
-0.2252427796
 20
-5.1634967591
 10
-0.2646853899
 20
-5.1354706549
 10
-0.2997818734
 20
-5.1031805778
 10
-0.3299559468
 20
-5.0671567301
 10
-0.3547121527
 20
-5.0279906223
 10
-0.3736439949
 20
-4.9863253608
 10
-0.386440613
 20
-4.942845088
 10
-0.3928918869
 20
-4.8982637489
 10
-0.3937007874
 20
-4.8757885584
  0
LINE
  5
11C
330
23
100
AcDbEntity
  8
0
  6
Continuous
 62
     7
370
    25
100
AcDbLine
 10
0.3937007874
 20
-5.1181102362
 30
0.0
 11
0.3937007874
 21
-0.5654097093
 31
0.0
  0
LINE
  5
11D
330
23
100
AcDbEntity
  8
0
  6
Continuous
 62
     7
370
    25
100
AcDbLine
 10
-0.3937007874
 20
-0.5657508091
 30
0.0
 11
-0.3937007874
 21
-5.1181102362
 31
0.0
  0
LINE
  5
11E
330
23
100
AcDbEntity
  8
0
  6
Continuous
 62
     7
370
    25
100
AcDbLine
 10
0.157480315
 20
-2.9251968504
 30
0.0
 11
0.157480315
 21
-0.6707372062
 31
0.0
  0
LINE
  5
11F
330
23
100
AcDbEntity
  8
0
  6
Continuous
 62
     7
370
    25
100
AcDbLine
 10
-0.157480315
 20
-0.671220406
 30
0.0
 11
-0.157480315
 21
-2.9251968504
 31
0.0
  0
LINE
  5
120
330
23
100
AcDbEntity
  8
0
  6
Continuous
 62
     7
370
    25
100
AcDbLine
 10
-0.2952755906
 20
-0.4885698286
 30
0.0
 11
-0.2749117567
 21
-0.4548753576
 31
0.0
  0
LINE
  5
121
330
23
100
AcDbEntity
  8
0
  6
Continuous
 62
     7
370
    25
100
AcDbLine
 10
-0.362635011
 20
-0.3885664857
 30
0.0
 11
-0.3894968636
 21
-0.4173491883
 31
0.0
  0
LINE
  5
122
330
23
100
AcDbEntity
  8
0
  6
Continuous
 62
     7
370
    25
100
AcDbLine
 10
0.2749117567
 20
-0.4548753576
 30
0.0
 11
0.2952755906
 21
-0.4885698286
 31
0.0
  0
LINE
  5
123
330
23
100
AcDbEntity
  8
0
  6
Continuous
 62
     7
370
    25
100
AcDbLine
 10
0.3894968636
 20
-0.4173491883
 30
0.0
 11
0.362635011
 21
-0.3885664857
 31
0.0
  0
LINE
  5
124
330
23
100
AcDbEntity
  8
0
  6
Continuous
 62
     7
370
    25
100
AcDbLine
 10
0.1496062992
 20
-2.9330708661
 30
0.0
 11
-0.1496062992
 21
-2.9330708661
 31
0.0
  0
LINE
  5
125
330
23
100
AcDbEntity
  8
0
  6
Continuous
 62
     8
370
    25
100
AcDbLine
 10
0.3937007874
 20
-4.1742086181
 30
0.0
 11
-0.3937007874
 21
-4.1742086181
 31
0.0
  0
LINE
  5
126
330
23
100
AcDbEntity
  8
0
  6
Continuous
 62
     8
370
    25
100
AcDbLine
 10
-0.157480315
 20
-2.9251968504
 30
0.0
 11
0.157480315
 21
-2.9251968504
 31
0.0
  0
ARC
  5
127
330
23
100
AcDbEntity
  8
0
  6
Continuous
 62
     7
370
    25
100
AcDbCircle
 10
0.1496062992
 20
-2.9251968504
 30
0.0
 40
0.0078740157480315
100
AcDbArc
 50
270.0
 51
0.0
  0
ARC
  5
128
330
23
100
AcDbEntity
  8
0
  6
Continuous
 62
     7
370
    25
100
AcDbCircle
 10
-0.1496062992
 20
-2.9251968504
 30
0.0
 40
0.0078740157480324
100
AcDbArc
 50
180.0
 51
270.0
  0
ARC
  5
129
330
23
100
AcDbEntity
  8
0
  6
Continuous
 62
     7
370
    25
100
AcDbCircle
 10
0.0
 20
0.0
 30
0.0
 40
0.9842519685039361
100
AcDbArc
 50
293.5781784782
 51
246.4218215218
  0
ARC
  5
12A
330
23
100
AcDbEntity
  8
0
  6
Continuous
 62
     7
370
    25
100
AcDbCircle
 10
0.0
 20
0.0
 30
0.0
 40
0.5708661417322863
100
AcDbArc
 50
226.9770651753
 51
238.8526100785
  0
ARC
  5
12B
330
23
100
AcDbEntity
  8
0
  6
Continuous
 62
     7
370
    25
100
AcDbCircle
 10
0.0
 20
0.0
 30
0.0
 40
0.531496062992164
100
AcDbArc
 50
226.9770651753
 51
238.8526100785
  0
ARC
  5
12C
330
23
100
AcDbEntity
  8
0
  6
Continuous
 62
     7
370
    25
100
AcDbCircle
 10
0.0
 20
0.0
 30
0.0
 40
0.5314960629920908
100
AcDbArc
 50
301.1473899215
 51
313.0229348247
  0
ARC
  5
12D
330
23
100
AcDbEntity
  8
0
  6
Continuous
 62
     7
370
    25
100
AcDbCircle
 10
0.0
 20
0.0
 30
0.0
 40
0.5708661417322486
100
AcDbArc
 50
301.1473899215
 51
313.0229348247
  0
VIEWPORT
  5
195
330
23
100
AcDbEntity
  8
0
100
AcDbViewport
 10
0.0
 20
0.0
 30
0.0
 40
8.4
 41
6.4
 68
     1
 69
     1
 12
0.0
 22
2.9529527559
 13
0.0
 23
0.0
 14
0.5
 24
0.5
 15
0.5
 25
0.5
 16
0.0
 26
0.0
 36
1.0
 17
0.0
 27
0.0
 37
0.0
 42
50.0
 43
0.0
 44
0.0
 45
6.4255984252
 50
0.0
 51
0.0
 72
   100
 90
   557152
  1

281
     0
 71
     1
 74
     0
110
0.0
120
0.0
130
0.0
111
1.0
121
0.0
131
0.0
112
0.0
122
1.0
132
0.0
 79
     0
146
0.0
  0
ENDBLK
  5
25
330
23
100
AcDbEntity
  8
0
100
AcDbBlockEnd
  0
BLOCK
  5
130
330
12E
100
AcDbEntity
  8
0
100
AcDbBlockBegin
  2
*Paper_Space1
 70
     0
 10
0.0
 20
0.0
 30
0.0
  3
*Paper_Space1
  1

  0
SPLINE
  5
132
330
12E
100
AcDbEntity
  8
0
  6
Continuous
 62
     7
370
    25
100
AcDbSpline
210
0.0
220
0.0
230
1.0
 70
     8
 71
     3
 72
    22
 73
    18
 74
     0
 42
0.000000001
 43
0.00000001
 40
0.0
 40
0.0
 40
0.0
 40
0.0
 40
0.0425481507421509
 40
0.1160652221446784
 40
0.189619080712488
 40
0.2631724311798264
 40
0.3365601232824487
 40
0.4097052168514797
 40
0.4825936659010271
 40
0.5552549164022896
 40
0.6277463802394138
 40
0.7001425889926419
 40
0.7725281654576438
 40
0.8449855975684284
 40
0.9175849431295989
 40
0.9865572495282019
 40
0.9999999999999999
 40
0.9999999999999999
 40
0.9999999999999999
 40
0.9999999999999999
 10
-3.148445616108694
 20
2.012499217075479
 30
0.0
 10
-3.161027400105155
 20
2.005041192521912
 30
0.0
 10
-3.195348693253131
 20
1.98469677657265
 30
0.0
 10
-3.250043321098536
 20
1.947595878943406
 30
0.0
 10
-3.311925775837314
 20
1.900237079444748
 30
0.0
 10
-3.371767725916696
 20
1.84863552841791
 30
0.0
 10
-3.429365305651981
 20
1.793221061360165
 30
0.0
 10
-3.484478280990431
 20
1.7343350723859
 30
0.0
 10
-3.536920010876553
 20
1.672320695540501
 30
0.0
 10
-3.586527043526456
 20
1.60748736589863
 30
0.0
 10
-3.633149409529963
 20
1.540125744106891
 30
0.0
 10
-3.676642247338705
 20
1.470509909656466
 30
0.0
 10
-3.716855382824601
 20
1.398904178862439
 30
0.0
 10
-3.753642406210117
 20
1.325571980148852
 30
0.0
 10
-3.78622201347663
 20
1.25209224807573
 30
0.0
 10
-3.807218570999663
 20
1.198198985261668
 30
0.0
 10
-3.817440695958052
 20
1.169399512925948
 30
0.0
 10
-3.819108030548662
 20
1.16470202031926
 30
0.0
  0
SPLINE
  5
133
330
12E
100
AcDbEntity
  8
0
  6
Continuous
 62
     7
370
    25
100
AcDbSpline
210
0.0
220
0.0
230
1.0
 70
     8
 71
     3
 72
    21
 73
    17
 74
     0
 42
0.000000001
 43
0.00000001
 40
0.0
 40
0.0
 40
0.0
 40
0.0
 40
0.0407720109817214
 40
0.1211499020055771
 40
0.2020653294221326
 40
0.2834465525714062
 40
0.3650376418855396
 40
0.446543479773867
 40
0.5276642546342638
 40
0.6081585113081428
 40
0.6878041787242432
 40
0.7664110237598497
 40
0.8438393754206123
 40
0.9200266192623223
 40
0.9899884967360983
 40
1.0
 40
1.0
 40
1.0
 40
1.0
 10
-3.0762982759617
 20
0.9034838959615963
 30
0.0
 10
-3.073654084561149
 20
0.9108084488090977
 30
0.0
 10
-3.065797137568654
 20
0.9325726159017456
 30
0.0
 10
-3.050514594309925
 20
0.9693646554156552
 30
0.0
 10
-3.029588996916171
 20
1.013431721281103
 30
0.0
 10
-3.006011613015711
 20
1.057067177004024
 30
0.0
 10
-2.98016152444159
 20
1.099557508763124
 30
0.0
 10
-2.952455451772239
 20
1.140209371287524
 30
0.0
 10
-2.923404061446754
 20
1.178376310979121
 30
0.0
 10
-2.893575802859107
 20
1.21348877416254
 30
0.0
 10
-2.863590887849046
 20
1.245067876298699
 30
0.0
 10
-2.834117697266782
 20
1.27273171838537
 30
0.0
 10
-2.805850338693492
 20
1.296225208969866
 30
0.0
 10
-2.780107862842158
 20
1.314973467321813
 30
0.0
 10
-2.763591517208391
 20
1.325446113019601
 30
0.0
 10
-2.75575752547443
 20
1.33000079863446
 30
0.0
 10
-2.754776823732294
 20
1.330570978980453
 30
0.0
  0
LWPOLYLINE
  5
142
330
12E
100
AcDbEntity
  8
0
  6
Continuous
 62
     7
370
    25
100
AcDbPolyline
 90
       21
 70
   128
 43
0.0
 10
-3.3406619584
 20
0.3861330215
 10
-3.3746669383
 20
0.3878043289
 10
-3.4126846887
 20
0.3920870515
 10
-3.4540909594
 20
0.398910867
 10
-3.4982058604
 20
0.4081637287
 10
-3.5443050263
 20
0.4196937048
 10
-3.5916315101
 20
0.4333114734
 10
-3.6394082122
 20
0.4487934311
 10
-3.6868506405
 20
0.4658853646
 10
-3.7331797916
 20
0.4843066248
 10
-3.7776349421
 20
0.5037547352
 10
-3.8194861398
 20
0.5239103583
 10
-3.8580461891
 20
0.5444425393
 10
-3.892681935
 20
0.5650141404
 10
-3.9228246596
 20
0.5852873765
 10
-3.9479794201
 20
0.6049293616
 10
-3.9677331761
 20
0.6236175749
 10
-3.9817615715
 20
0.6410451563
 10
-3.9898342603
 20
0.6569259455
 10
-3.9918186894
 20
0.6709991804
 10
-3.9904553322
 20
0.6774523419
  0
SPLINE
  5
144
330
12E
100
AcDbEntity
  8
0
  6
Continuous
 62
     7
370
    25
100
AcDbSpline
210
0.0
220
0.0
230
1.0
 70
     8
 71
     3
 72
    13
 73
     9
 74
     0
 42
0.000000001
 43
0.00000001
 40
0.0
 40
0.0
 40
0.0
 40
0.0
 40
0.1863390550258885
 40
0.37891017751024
 40
0.5650602701437476
 40
0.7556484596018826
 40
0.9623085466926659
 40
1.0
 40
1.0
 40
1.0
 40
1.0
 10
-0.1214165430680907
 20
2.983951191319133
 30
0.0
 10
-0.1224521841152022
 20
2.967956935790683
 30
0.0
 10
-0.1245581029895
 20
2.935433500483001
 30
0.0
 10
-0.1411074946361415
 20
2.890106960810813
 30
0.0
 10
-0.1659143946330842
 20
2.848546915184456
 30
0.0
 10
-0.1993818924957715
 20
2.812296139216692
 30
0.0
 10
-0.2278203345928722
 20
2.788145299810331
 30
0.0
 10
-0.2462700339438282
 20
2.779305526844604
 30
0.0
 10
-0.2491159172989647
 20
2.777941983609141
 30
0.0
  0
SPLINE
  5
145
330
12E
100
AcDbEntity
  8
0
  6
Continuous
 62
     7
370
    25
100
AcDbSpline
210
0.0
220
0.0
230
1.0
 70
     8
 71
     3
 72
    22
 73
    18
 74
     0
 42
0.000000001
 43
0.00000001
 40
0.0
 40
0.0
 40
0.0
 40
0.0
 40
0.0502789059841952
 40
0.1255323085261831
 40
0.2033439024945297
 40
0.2723049373273667
 40
0.3438252511818236
 40
0.4049744957430688
 40
0.4679039294809193
 40
0.529326833861316
 40
0.5922072578375374
 40
0.6604267613989889
 40
0.7302714607299658
 40
0.8052754908166696
 40
0.8827439355506925
 40
0.940568969543678
 40
1.0
 40
1.0
 40
1.0
 40
1.0
 10
-0.6419019115568009
 20
3.458276131903248
 30
0.0
 10
-0.6376163875321084
 20
3.460644480023402
 30
0.0
 10
-0.6269166375368876
 20
3.466557580181348
 30
0.0
 10
-0.6018914826341332
 20
3.465343548360477
 30
0.0
 10
-0.5676163077309956
 20
3.455837146732633
 30
0.0
 10
-0.5264364077498228
 20
3.437578902490863
 30
0.0
 10
-0.4827422195245581
 20
3.413700075054159
 30
0.0
 10
-0.436592930086572
 20
3.384885562528535
 30
0.0
 10
-0.3908734714472522
 20
3.353343525613621
 30
0.0
 10
-0.3443148985128968
 20
3.318074812181282
 30
0.0
 10
-0.2974719550208898
 20
3.278960513271086
 30
0.0
 10
-0.2512007229073465
 20
3.235522806639195
 30
0.0
 10
-0.2068145528895276
 20
3.186903270701765
 30
0.0
 10
-0.1675246152538139
 20
3.133498399047751
 30
0.0
 10
-0.1401481008911185
 20
3.080466130008882
 30
0.0
 10
-0.1242152580793822
 20
3.029896216046487
 30
0.0
 10
-0.1223579277072091
 20
2.999405405252224
 30
0.0
 10
-0.1214165430680907
 20
2.983951191319134
 30
0.0
  0
LWPOLYLINE
  5
146
330
12E
100
AcDbEntity
  8
0
  6
Continuous
 62
     7
370
    25
100
AcDbPolyline
 90
       26
 70
   128
 43
0.0
 10
-0.4871798689
 20
-0.2812429519
 10
-0.437885896
 20
-0.3070738671
 10
-0.3845035004
 20
-0.3300377163
 10
-0.3275310993
 20
-0.3499200923
 10
-0.2675006285
 20
-0.3665353587
 10
-0.2049725765
 20
-0.3797283832
 10
-0.1405307507
 20
-0.389375986
 10
-0.0747768272
 20
-0.3953880903
 10
-0.0083247325
 20
-0.3977085624
 10
0.0582050879
 20
-0.3963157369
 10
0.1241914631
 20
-0.3912226181
 10
0.189018296
 20
-0.3824767591
 10
0.2520803161
 20
-0.3701598177
 10
0.3127887301
 20
-0.3543867938
 10
0.3705767201
 20
-0.3353049558
 10
0.4249047351
 20
-0.3130924659
 10
0.475265529
 20
-0.287956716
 10
0.5211888968
 20
-0.2601323918
 10
0.5622460642
 20
-0.2298792815
 10
0.5980536917
 20
-0.1974798503
 10
0.6282774529
 20
-0.163236603
 10
0.6526351569
 20
-0.1274692595
 10
0.6708993823
 20
-0.0905117698
 10
0.6828996008
 20
-0.0527091962
 10
0.6885237698
 20
-0.014414491
 10
0.688976378
 20
0.0
  0
LWPOLYLINE
  5
147
330
12E
100
AcDbEntity
  8
0
  6
Continuous
 62
     7
370
    25
100
AcDbPolyline
 90
       10
 70
   128
 43
0.0
 10
-0.688976378
 20
0.0
 10
-0.6889260833
 20
-0.0048057658
 10
-0.6849064721
 20
-0.0431677435
 10
-0.6744920737
 20
-0.0811266755
 10
-0.6577801246
 20
-0.1183281497
 10
-0.6349266596
 20
-0.1544248258
 10
-0.6061450555
 20
-0.189079679
 10
-0.5717040384
 20
-0.2219691461
 10
-0.5319251747
 20
-0.2527861471
 10
-0.4871798689
 20
-0.2812429519
  0
LWPOLYLINE
  5
148
330
12E
100
AcDbEntity
  8
0
  6
Continuous
 62
     7
370
    25
100
AcDbPolyline
 90
       28
 70
   128
 43
0.0
 10
-0.4871798689
 20
3.7371665554
 10
-0.437885896
 20
3.7113356402
 10
-0.3845035004
 20
3.688371791
 10
-0.3275310993
 20
3.668489415
 10
-0.2675006285
 20
3.6518741486
 10
-0.2049725765
 20
3.6386811241
 10
-0.1405307507
 20
3.6290335213
 10
-0.0747768272
 20
3.6230214171
 10
-0.0083247325
 20
3.6207009449
 10
0.0582050879
 20
3.6220937705
 10
0.1241914631
 20
3.6271868893
 10
0.189018296
 20
3.6359327482
 10
0.2520803161
 20
3.6482496896
 10
0.3127887301
 20
3.6640227136
 10
0.3705767201
 20
3.6831045515
 10
0.4249047351
 20
3.7053170414
 10
0.475265529
 20
3.7304527913
 10
0.5211888968
 20
3.7582771156
 10
0.5622460642
 20
3.7885302258
 10
0.5980536917
 20
3.820929657
 10
0.6282774529
 20
3.8551729043
 10
0.6526351569
 20
3.8909402478
 10
0.6708993823
 20
3.9278977375
 10
0.6828996008
 20
3.9657003111
 10
0.6885237698
 20
4.0039950163
 10
0.6877193779
 20
4.0424243058
 10
0.6804939354
 20
4.0806293755
 10
0.6802346939
 20
4.0815670272
  0
LWPOLYLINE
  5
149
330
12E
100
AcDbEntity
  8
0
  6
Continuous
 62
     7
370
    25
100
AcDbPolyline
 90
       10
 70
   128
 43
0.0
 10
-0.6884135355
 20
4.0344831453
 10
-0.6889260833
 20
4.0136037415
 10
-0.6849064721
 20
3.9752417638
 10
-0.6744920737
 20
3.9372828318
 10
-0.6577801246
 20
3.9000813576
 10
-0.6349266596
 20
3.8639846815
 10
-0.6061450555
 20
3.8293298284
 10
-0.5717040384
 20
3.7964403613
 10
-0.5319251747
 20
3.7656233603
 10
-0.4871798689
 20
3.7371665554
  0
LWPOLYLINE
  5
14A
330
12E
100
AcDbEntity
  8
0
  6
Continuous
 62
     7
370
    25
100
AcDbPolyline
 90
       41
 70
   128
 43
0.0
 10
-0.6959712413
 20
-0.4017756456
 10
-0.6377120033
 20
-0.4328023186
 10
-0.5753169583
 20
-0.4610221024
 10
-0.509190762
 20
-0.486251981
 10
-0.4397622682
 20
-0.508328329
 10
-0.3674817474
 20
-0.5271079726
 10
-0.2928179664
 20
-0.5424691188
 10
-0.2162551485
 20
-0.5543121446
 10
-0.1382898331
 20
-0.5625602434
 10
-0.0594276549
 20
-0.5671599232
 10
0.0198199343
 20
-0.5680813532
 10
0.0989389837
 20
-0.5653185577
 10
0.1774163758
 20
-0.5588894544
 10
0.2547431546
 20
-0.5488357385
 10
0.3304178263
 20
-0.5352226122
 10
0.4039496117
 20
-0.518138362
 10
0.4748616287
 20
-0.4976937856
 10
0.5426939859
 20
-0.474021474
 10
0.6070067644
 20
-0.4472749513
 10
0.6673828711
 20
-0.4176276789
 10
0.7234307437
 20
-0.3852719307
 10
0.7747868904
 20
-0.3504175462
 10
0.8211182467
 20
-0.3132905695
 10
0.8621243362
 20
-0.2741317832
 10
0.8975392185
 20
-0.2331951471
 10
0.9271332146
 20
-0.190746151
 10
0.950714396
 20
-0.1470600929
 10
0.9681298297
 20
-0.1024202937
 10
0.9792665699
 20
-0.0571162595
 10
0.9840523907
 20
-0.0114418045
 10
0.9824562542
 20
0.034306855
 10
0.9744885118
 20
0.0798330213
 10
0.9602008374
 20
0.1248414399
 10
0.9396858922
 20
0.1690402139
 10
0.9130767234
 20
0.2121426972
 10
0.8805459017
 20
0.2538693537
 10
0.8423044019
 20
0.29394957
 10
0.7986002348
 20
0.3321234106
 10
0.7497168388
 20
0.3681433034
 10
0.6959712413
 20
0.4017756456
 10
0.688976378
 20
0.4057735117
  0
LWPOLYLINE
  5
14B
330
12E
100
AcDbEntity
  8
0
  6
Continuous
 62
     7
370
    25
100
AcDbPolyline
 90
       21
 70
   128
 43
0.0
 10
-0.688976378
 20
0.4057735117
 10
-0.7234307437
 20
0.3852719307
 10
-0.7747868904
 20
0.3504175462
 10
-0.8211182467
 20
0.3132905695
 10
-0.8621243362
 20
0.2741317832
 10
-0.8975392185
 20
0.2331951471
 10
-0.9271332146
 20
0.190746151
 10
-0.950714396
 20
0.1470600929
 10
-0.9681298297
 20
0.1024202937
 10
-0.9792665699
 20
0.0571162595
 10
-0.9840523907
 20
0.0114418045
 10
-0.9824562542
 20
-0.034306855
 10
-0.9744885118
 20
-0.0798330213
 10
-0.9602008374
 20
-0.1248414399
 10
-0.9396858922
 20
-0.1690402139
 10
-0.9130767234
 20
-0.2121426972
 10
-0.8805459017
 20
-0.2538693537
 10
-0.8423044019
 20
-0.29394957
 10
-0.7986002348
 20
-0.3321234106
 10
-0.7497168388
 20
-0.3681433034
 10
-0.6959712413
 20
-0.4017756456
  0
LWPOLYLINE
  5
14C
330
12E
100
AcDbEntity
  8
0
  6
Continuous
 62
     7
370
    25
100
AcDbPolyline
 90
       31
 70
   128
 43
0.0
 10
-0.6959712413
 20
-0.5625120259
 10
-0.6377120033
 20
-0.5935386989
 10
-0.5753169583
 20
-0.6217584827
 10
-0.509190762
 20
-0.6469883613
 10
-0.4397622682
 20
-0.6690647093
 10
-0.3674817474
 20
-0.6878443529
 10
-0.2928179664
 20
-0.7032054991
 10
-0.2162551485
 20
-0.7150485249
 10
-0.1382898331
 20
-0.7232966237
 10
-0.0594276549
 20
-0.7278963035
 10
0.0198199343
 20
-0.7288177335
 10
0.0989389837
 20
-0.726054938
 10
0.1774163758
 20
-0.7196258347
 10
0.2547431546
 20
-0.7095721188
 10
0.3304178263
 20
-0.6959589925
 10
0.4039496117
 20
-0.6788747422
 10
0.4748616287
 20
-0.6584301659
 10
0.5426939859
 20
-0.6347578543
 10
0.6070067644
 20
-0.6080113316
 10
0.6673828711
 20
-0.5783640592
 10
0.7234307437
 20
-0.546008311
 10
0.7747868904
 20
-0.5111539265
 10
0.8211182467
 20
-0.4740269498
 10
0.8621243362
 20
-0.4348681635
 10
0.8975392185
 20
-0.3939315274
 10
0.9271332146
 20
-0.3514825313
 10
0.950714396
 20
-0.3077964732
 10
0.9681298297
 20
-0.263156674
 10
0.9792665699
 20
-0.2178526398
 10
0.9840523907
 20
-0.1721781848
 10
0.9842519685
 20
-0.1607363803
  0
LWPOLYLINE
  5
14D
330
12E
100
AcDbEntity
  8
0
  6
Continuous
 62
     7
370
    25
100
AcDbPolyline
 90
       11
 70
   128
 43
0.0
 10
-0.9842519685
 20
-0.1607363803
 10
-0.9824562542
 20
-0.1950432352
 10
-0.9744885118
 20
-0.2405694016
 10
-0.9602008374
 20
-0.2855778202
 10
-0.9396858922
 20
-0.3297765942
 10
-0.9130767234
 20
-0.3728790775
 10
-0.8805459017
 20
-0.414605734
 10
-0.8423044019
 20
-0.4546859503
 10
-0.7986002348
 20
-0.4928597909
 10
-0.7497168388
 20
-0.5288796837
 10
-0.6959712413
 20
-0.5625120259
  0
LWPOLYLINE
  5
150
330
12E
100
AcDbEntity
  8
0
  6
Continuous
 62
     7
370
    25
100
AcDbPolyline
 90
       13
 70
   128
 43
0.0
 10
-2.1471602877
 20
3.6036634574
 10
-2.1365878349
 20
3.6083116377
 10
-2.1174667955
 20
3.6110360345
 10
-2.0963380419
 20
3.6078749526
 10
-2.0740665876
 20
3.5989578073
 10
-2.0515642287
 20
3.5846496673
 10
-2.0297522143
 20
3.5655363097
 10
-2.009523531
 20
3.5424002376
 10
-1.9917063433
 20
3.5161886445
 10
-1.9770300891
 20
3.487974636
 10
-1.9660956158
 20
3.4589132971
 10
-1.9593505822
 20
3.4301944023
 10
-1.9570711306
 20
3.4029937065
  0
SPLINE
  5
151
330
12E
100
AcDbEntity
  8
0
  6
Continuous
 62
     7
370
    25
100
AcDbSpline
210
0.0
220
0.0
230
1.0
 70
     8
 71
     3
 72
    15
 73
    11
 74
     0
 42
0.000000001
 43
0.00000001
 40
0.0
 40
0.0
 40
0.0
 40
0.0
 40
0.1406321723269746
 40
0.2811741173361227
 40
0.4240452941270678
 40
0.568531025254135
 40
0.7105332505561968
 40
0.8499207413470036
 40
0.9904317478721919
 40
1.0
 40
1.0
 40
1.0
 40
1.0
 10
-0.362927428283882
 20
4.323273277168299
 30
0.0
 10
-0.3644153645066746
 20
4.338045824181232
 30
0.0
 10
-0.3673902823165444
 20
4.36758144038085
 30
0.0
 10
-0.3900237715261839
 20
4.414076423514484
 30
0.0
 10
-0.4222314809959972
 20
4.456939047127555
 30
0.0
 10
-0.4605734915233751
 20
4.492459317534562
 30
0.0
 10
-0.4992020538116051
 20
4.517142204920451
 30
0.0
 10
-0.5322686844386586
 20
4.526538458901108
 30
0.0
 10
-0.5525590732437603
 20
4.527082068920839
 30
0.0
 10
-0.5588117998051455
 20
4.520168873330296
 30
0.0
 10
-0.5592104402619452
 20
4.519728124895016
 30
0.0
  0
SPLINE
  5
152
330
12E
100
AcDbEntity
  8
0
  6
Continuous
 62
     7
370
    25
100
AcDbSpline
210
0.0
220
0.0
230
1.0
 70
     8
 71
     3
 72
    10
 73
     6
 74
     0
 42
0.000000001
 43
0.00000001
 40
0.0
 40
0.0
 40
0.0
 40
0.0
 40
0.2282309483548468
 40
0.661448179007924
 40
1.0
 40
1.0
 40
1.0
 40
1.0
 10
-0.4031497890251258
 20
4.249310458039164
 30
0.0
 10
-0.3975225520715035
 20
4.252157678555159
 30
0.0
 10
-0.3812139591192784
 20
4.260409358877721
 30
0.0
 10
-0.3662742172276508
 20
4.287273074974491
 30
0.0
 10
-0.3639479094072331
 20
4.312296329594712
 30
0.0
 10
-0.362927428283882
 20
4.323273277168299
 30
0.0
  0
LWPOLYLINE
  5
154
330
12E
100
AcDbEntity
  8
0
  6
Continuous
 62
     7
370
    25
100
AcDbPolyline
 90
       25
 70
   128
 43
0.0
 10
-0.688976378
 20
4.0505567834
 10
-0.6856587684
 20
4.0115716815
 10
-0.67573789
 20
3.9729620275
 10
-0.6593092864
 20
3.9350996534
 10
-0.636531174
 20
3.8983491946
 10
-0.6076229184
 20
3.8630645781
 10
-0.5728629219
 20
3.829585614
 10
-0.5325859423
 20
3.798234723
 10
-0.4871798689
 20
3.7693138315
 10
-0.4370819871
 20
3.7431014633
 10
-0.3827747668
 20
3.7198500579
 10
-0.3247812163
 20
3.699783539
 10
-0.2636598451
 20
3.6830951583
 10
-0.1999992855
 20
3.6699456339
 10
-0.1344126234
 20
3.6604616029
 10
-0.0675314943
 20
3.6547344017
 10
0.0
 20
3.6528191865
 10
0.0675314943
 20
3.6547344017
 10
0.1344126234
 20
3.6604616029
 10
0.1999992855
 20
3.6699456339
 10
0.2636598451
 20
3.6830951583
 10
0.3247812163
 20
3.699783539
 10
0.3827747668
 20
3.7198500579
 10
0.4370819871
 20
3.7431014633
 10
0.4871798689
 20
3.7693138315
  0
LWPOLYLINE
  5
155
330
12E
100
AcDbEntity
  8
0
  6
Continuous
 62
     7
370
    25
100
AcDbPolyline
 90
       66
 70
   128
 43
0.0
 10
-0.4871798689
 20
4.7015848372
 10
-0.437885896
 20
4.675753922
 10
-0.3845035004
 20
4.6527900727
 10
-0.3275310993
 20
4.6329076968
 10
-0.2675006285
 20
4.6162924304
 10
-0.2049725765
 20
4.6030994059
 10
-0.1405307507
 20
4.593451803
 10
-0.0747768272
 20
4.5874396988
 10
-0.0083247325
 20
4.5851192267
 10
0.0582050879
 20
4.5865120522
 10
0.1241914631
 20
4.591605171
 10
0.189018296
 20
4.60035103
 10
0.2520803161
 20
4.6126679714
 10
0.3127887301
 20
4.6284409953
 10
0.3705767201
 20
4.6475228332
 10
0.4249047351
 20
4.6697353232
 10
0.475265529
 20
4.6948710731
 10
0.5211888968
 20
4.7226953973
 10
0.5622460642
 20
4.7529485076
 10
0.5980536917
 20
4.7853479388
 10
0.6282774529
 20
4.8195911861
 10
0.6526351569
 20
4.8553585296
 10
0.6708993823
 20
4.8923160192
 10
0.6828996008
 20
4.9301185929
 10
0.6885237698
 20
4.9684132981
 10
0.6877193779
 20
5.0068425875
 10
0.6804939354
 20
5.0450476573
 10
0.6669149045
 20
5.0826717968
 10
0.6471090687
 20
5.1193637198
 10
0.6212613499
 20
5.1547808436
 10
0.5896130813
 20
5.1885924881
 10
0.5524597542
 20
5.220482963
 10
0.5101482593
 20
5.2501545155
 10
0.4630736474
 20
5.2773301105
 10
0.4116754418
 20
5.3017560166
 10
0.3564335334
 20
5.3232041758
 10
0.2978637012
 20
5.3414743324
 10
0.2365127958
 20
5.3563959028
 10
0.1729536342
 20
5.3678295684
 10
0.1077796511
 20
5.3756685762
 10
0.0415993585
 20
5.3798397353
 10
-0.0249693362
 20
5.3803041009
 10
-0.0913048989
 20
5.3770573372
 10
-0.1567879723
 20
5.3701297585
 10
-0.2208071587
 20
5.3595860456
 10
-0.2827647282
 20
5.3455246424
 10
-0.3420821995
 20
5.3280768364
 10
-0.3982057416
 20
5.3074055331
 10
-0.4506113439
 20
5.2837037349
 10
-0.4988097095
 20
5.257192739
 10
-0.5423508233
 20
5.2281200714
 10
-0.5808281535
 20
5.196757176
 10
-0.6138824478
 20
5.1633968795
 10
-0.641205087
 20
5.128350658
 10
-0.6625409671
 20
5.0919457287
 10
-0.6776908808
 20
5.0545219946
 10
-0.6865133772
 20
5.0164288711
 10
-0.6889260833
 20
4.9780220233
 10
-0.6849064721
 20
4.9396600456
 10
-0.6744920737
 20
4.9017011135
 10
-0.6577801246
 20
4.8644996394
 10
-0.6349266596
 20
4.8284029632
 10
-0.6061450555
 20
4.7937481101
 10
-0.5717040384
 20
4.760858643
 10
-0.5319251747
 20
4.730041642
 10
-0.4871798689
 20
4.7015848372
  0
LWPOLYLINE
  5
168
330
12E
100
AcDbEntity
  8
0
  6
Continuous
 62
     8
370
    25
100
AcDbPolyline
 90
       20
 70
   128
 43
0.0
 10
-2.6732227234
 20
1.5108248398
 10
-2.6755082891
 20
1.553253293
 10
-2.6823274573
 20
1.5976239301
 10
-2.6935682574
 20
1.6432081866
 10
-2.7090461159
 20
1.6892575702
 10
-2.7285068866
 20
1.7350159513
 10
-2.7516310244
 20
1.7797319785
 10
-2.7780388314
 20
1.8226714159
 10
-2.8072966922
 20
1.8631291992
 10
-2.8389241936
 20
1.9004410127
 10
-2.8724020129
 20
1.9339941973
 10
-2.9071804451
 20
1.9632378108
 10
-2.9426884294
 20
1.9876916738
 10
-2.9783429257
 20
2.0069542546
 10
-3.0135584882
 20
2.0207092621
 10
-3.0477568782
 20
2.0287308395
 10
-3.0803765591
 20
2.0308872726
 10
-3.1108819168
 20
2.0271431531
 10
-3.138772054
 20
2.017559959
 10
-3.148425832
 20
2.0125106359
  0
LWPOLYLINE
  5
16A
330
12E
100
AcDbEntity
  8
0
  6
Continuous
 62
     8
370
    25
100
AcDbPolyline
 90
       21
 70
   128
 43
0.0
 10
-3.1693146567
 20
0.8733826999
 10
-3.2033196366
 20
0.8750540073
 10
-3.2413373871
 20
0.8793367299
 10
-3.2827436578
 20
0.8861605454
 10
-3.3268585588
 20
0.8954134071
 10
-3.3729577247
 20
0.9069433832
 10
-3.4202842085
 20
0.9205611517
 10
-3.4680609106
 20
0.9360431095
 10
-3.5155033388
 20
0.953135043
 10
-3.56183249
 20
0.9715563032
 10
-3.6062876405
 20
0.9910044136
 10
-3.6481388382
 20
1.0111600367
 10
-3.6866988874
 20
1.0316922177
 10
-3.7213346333
 20
1.0522638188
 10
-3.7514773579
 20
1.0725370549
 10
-3.7766321184
 20
1.09217904
 10
-3.7963858745
 20
1.1108672532
 10
-3.8104142698
 20
1.1282948346
 10
-3.8184869587
 20
1.1441756239
 10
-3.8204713877
 20
1.1582488587
 10
-3.8191044389
 20
1.1647122265
  0
LWPOLYLINE
  5
16C
330
12E
100
AcDbEntity
  8
0
  6
Continuous
 62
     8
370
    25
100
AcDbPolyline
 90
       24
 70
   128
 43
0.0
 10
-2.106578384
 20
3.5990944609
 10
-2.1066844742
 20
3.5991159712
 10
-2.1268881135
 20
3.6003919131
 10
-2.1447800393
 20
3.5957096537
 10
-2.1595782885
 20
3.5852738302
 10
-2.1706361068
 20
3.5695405382
 10
-2.1774702143
 20
3.5491973982
 10
-2.1797819278
 20
3.5251335028
 10
-2.1774702143
 20
3.4984005598
 10
-2.1706361068
 20
3.4701669271
 10
-2.1595782885
 20
3.44166655
 10
-2.1447800393
 20
3.4141450316
 10
-2.1268881135
 20
3.3888051943
 10
-2.1066844742
 20
3.3667545108
 10
-2.0850521174
 20
3.3489567016
 10
-2.0629364809
 20
3.3361896164
 10
-2.0413041241
 20
3.329011238
 10
-2.0211004848
 20
3.3277352962
 10
-2.003208559
 20
3.3324175556
 10
-1.9884103098
 20
3.3428533791
 10
-1.9773524915
 20
3.3585866711
 10
-1.970518384
 20
3.3789298111
 10
-1.9682066705
 20
3.4029937065
 10
-1.9682066705
 20
3.4029937065
  0
LINE
  5
16D
330
12E
100
AcDbEntity
  8
0
  6
Continuous
 62
     7
370
    25
100
AcDbLine
 10
-3.2476455776
 20
0.4162342176
 30
0.0
 11
-3.076298276
 21
0.903483896
 31
0.0
  0
LINE
  5
16E
330
12E
100
AcDbEntity
  8
0
  6
Continuous
 62
     7
370
    25
100
AcDbLine
 10
-3.8191080305
 20
1.1647020203
 30
0.0
 11
-3.9904553322
 21
0.6774523419
 31
0.0
  0
LINE
  5
16F
330
12E
100
AcDbEntity
  8
0
  6
Continuous
 62
     7
370
    25
100
AcDbLine
 10
-2.7547768237
 20
1.330570979
 30
0.0
 11
-0.2487533587
 21
2.7772675316
 31
0.0
  0
LINE
  5
170
330
12E
100
AcDbEntity
  8
0
  6
Continuous
 62
     7
370
    25
100
AcDbLine
 10
-0.642411799
 20
3.4592017458
 30
0.0
 11
-3.1484456161
 21
2.0124992171
 31
0.0
  0
LINE
  5
171
330
12E
100
AcDbEntity
  8
0
  6
Continuous
 62
     7
370
    25
100
AcDbLine
 10
0.688976378
 20
0.0
 30
0.0
 11
0.688976378
 21
4.0184095073
 31
0.0
  0
LINE
  5
172
330
12E
100
AcDbEntity
  8
0
  6
Continuous
 62
     7
370
    25
100
AcDbLine
 10
-0.688976378
 20
4.0184095073
 30
0.0
 11
-0.688976378
 21
3.4323205865
 31
0.0
  0
LINE
  5
173
330
12E
100
AcDbEntity
  8
0
  6
Continuous
 62
     7
370
    25
100
AcDbLine
 10
-0.688976378
 20
2.5231321919
 30
0.0
 11
-0.688976378
 21
0.0
 31
0.0
  0
LINE
  5
174
330
12E
100
AcDbEntity
  8
0
  6
Continuous
 62
     7
370
    25
100
AcDbLine
 10
0.9842519685
 20
-0.1607363803
 30
0.0
 11
0.9842519685
 21
0.0
 31
0.0
  0
LINE
  5
175
330
12E
100
AcDbEntity
  8
0
  6
Continuous
 62
     7
370
    25
100
AcDbLine
 10
-0.9842519685
 20
0.0
 30
0.0
 11
-0.9842519685
 21
-0.1607363803
 31
0.0
  0
LINE
  5
176
330
12E
100
AcDbEntity
  8
0
  6
Continuous
 62
     7
370
    25
100
AcDbLine
 10
-1.9896927707
 20
3.3308921622
 30
0.0
 11
-0.40204329
 21
4.2474226985
 31
0.0
  0
LINE
  5
177
330
12E
100
AcDbEntity
  8
0
  6
Continuous
 62
     7
370
    25
100
AcDbLine
 10
-0.5595279904
 20
4.520184074
 30
0.0
 11
-2.1471602877
 21
3.6036634574
 31
0.0
  0
LINE
  5
178
330
12E
100
AcDbEntity
  8
0
  6
Continuous
 62
     7
370
    25
100
AcDbLine
 10
0.688976378
 20
4.1642145679
 30
0.0
 11
0.688976378
 21
4.9828277891
 31
0.0
  0
LINE
  5
179
330
12E
100
AcDbEntity
  8
0
  6
Continuous
 62
     7
370
    25
100
AcDbLine
 10
-0.688976378
 20
4.9828277891
 30
0.0
 11
-0.688976378
 21
4.4454551105
 31
0.0
  0
LINE
  5
17A
330
12E
100
AcDbEntity
  8
0
  6
Continuous
 62
     7
370
    25
100
AcDbLine
 10
-0.688976378
 20
4.0817797527
 30
0.0
 11
-0.688976378
 21
4.0505567834
 31
0.0
  0
LINE
  5
17B
330
12E
100
AcDbEntity
  8
0
  6
Continuous
 62
     7
370
    25
100
AcDbLine
 10
-0.0196945677
 20
4.6534699582
 30
0.0
 11
-0.0183363216
 21
4.6761842913
 31
0.0
  0
LINE
  5
17C
330
12E
100
AcDbEntity
  8
0
  6
Continuous
 62
     7
370
    25
100
AcDbLine
 10
-0.5542624113
 20
4.9039242971
 30
0.0
 11
-0.5160374174
 21
4.9093659173
 31
0.0
  0
LINE
  5
17D
330
12E
100
AcDbEntity
  8
0
  6
Continuous
 62
     7
370
    25
100
AcDbLine
 10
-0.1366796665
 20
4.6631803825
 30
0.0
 11
-0.1366796665
 21
4.6628589098
 31
0.0
  0
LINE
  5
17E
330
12E
100
AcDbEntity
  8
0
  6
Continuous
 62
     7
370
    25
100
AcDbLine
 10
-0.0196945677
 20
4.6537914309
 30
0.0
 11
-0.0196945677
 21
4.6534699582
 31
0.0
  0
LINE
  5
17F
330
12E
100
AcDbEntity
  8
0
  6
Continuous
 62
     7
370
    25
100
AcDbLine
 10
-0.1272534826
 20
4.6852472018
 30
0.0
 11
-0.1366796665
 21
4.6631803825
 31
0.0
  0
LINE
  5
180
330
12E
100
AcDbEntity
  8
0
  6
Continuous
 62
     7
370
    25
100
AcDbLine
 10
-0.0196945677
 20
4.6537914309
 30
0.0
 11
-0.0183363216
 21
4.6765057641
 31
0.0
  0
LINE
  5
181
330
12E
100
AcDbEntity
  8
0
  6
Continuous
 62
     7
370
    25
100
AcDbLine
 10
-0.0183363216
 20
4.6765057641
 30
0.0
 11
-0.0183363216
 21
4.6761842913
 31
0.0
  0
LINE
  5
182
330
12E
100
AcDbEntity
  8
0
  6
Continuous
 62
     7
370
    25
100
AcDbLine
 10
-0.5542624113
 20
4.9042457699
 30
0.0
 11
-0.5542624113
 21
4.9039242971
 31
0.0
  0
LINE
  5
183
330
12E
100
AcDbEntity
  8
0
  6
Continuous
 62
     7
370
    25
100
AcDbLine
 10
-0.5542624113
 20
4.9042457699
 30
0.0
 11
-0.5160374174
 21
4.90968739
 31
0.0
  0
LINE
  5
184
330
12E
100
AcDbEntity
  8
0
  6
Continuous
 62
     7
370
    25
100
AcDbLine
 10
-0.5160374174
 20
4.90968739
 30
0.0
 11
-0.5160374174
 21
4.9093659173
 31
0.0
  0
LINE
  5
185
330
12E
100
AcDbEntity
  8
0
  6
Continuous
 62
     7
370
    25
100
AcDbLine
 10
-0.5311796723
 20
4.9725639287
 30
0.0
 11
-0.5705263147
 21
4.9717798299
 31
0.0
  0
LINE
  5
186
330
12E
100
AcDbEntity
  8
0
  6
Continuous
 62
     7
370
    25
100
AcDbLine
 10
-0.5705263147
 20
4.9717798299
 30
0.0
 11
-0.5705263147
 21
4.9714583572
 31
0.0
  0
ARC
  5
187
330
12E
100
AcDbEntity
  8
0
  6
Continuous
 62
     7
370
    25
100
AcDbCircle
 10
-3.3206870145
 20
0.4831745995
 30
0.0
 40
0.0990760628769938
100
AcDbArc
 50
258.3687475444
 51
317.4956355784
  0
ARC
  5
188
330
12E
100
AcDbEntity
  8
0
  6
Continuous
 62
     7
370
    25
100
AcDbCircle
 10
-2.1794938117
 20
3.4007752281
 30
0.0
 40
0.2112987876828303
100
AcDbArc
 50
0.601573656
 51
69.8131929542
  0
ARC
  5
189
330
12E
100
AcDbEntity
  8
0
  6
Continuous
 62
     7
370
    25
100
AcDbCircle
 10
-2.0354669253
 20
3.3950326753
 30
0.0
 40
0.0787989762009962
100
AcDbArc
 50
305.5137163071
 51
5.7984640863
  0
ARC
  5
18A
330
12E
100
AcDbEntity
  8
0
  6
Continuous
 62
     7
370
    25
100
AcDbCircle
 10
0.1460413312
 20
4.1926474997
 30
0.0
 40
0.5436790382229946
100
AcDbArc
 50
308.8632020801
 51
357.0022193439
  0
ARC
  5
18B
330
12E
100
AcDbEntity
  8
0
  6
Continuous
 62
     7
370
    25
100
AcDbCircle
 10
-0.0008757676
 20
5.6214536523
 30
0.0
 40
0.9681666072213635
100
AcDbArc
 50
261.936579398
 51
268.8862394984
  0
ARC
  5
18C
330
12E
100
AcDbEntity
  8
0
  6
Continuous
 62
     7
370
    25
100
AcDbCircle
 10
-0.3686708635
 20
4.9843448274
 30
0.0
 40
0.202266369714249
100
AcDbArc
 50
183.6528107208
 51
203.428049851
  0
ARC
  5
18D
330
12E
100
AcDbEntity
  8
0
  6
Continuous
 62
     7
370
    25
100
AcDbCircle
 10
-0.0008757676
 20
5.6217751251
 30
0.0
 40
0.9681666072214428
100
AcDbArc
 50
261.936579398
 51
268.8862394984
  0
ARC
  5
18E
330
12E
100
AcDbEntity
  8
0
  6
Continuous
 62
     7
370
    25
100
AcDbCircle
 10
-0.0008153698
 20
5.5777319621
 30
0.0
 40
0.9013964963782439
100
AcDbArc
 50
261.936579398
 51
268.8862394984
  0
ARC
  5
18F
330
12E
100
AcDbEntity
  8
0
  6
Continuous
 62
     7
370
    25
100
AcDbCircle
 10
-0.3686708635
 20
4.9846663002
 30
0.0
 40
0.2022663697142379
100
AcDbArc
 50
183.6528107208
 51
203.428049851
  0
ARC
  5
190
330
12E
100
AcDbEntity
  8
0
  6
Continuous
 62
     7
370
    25
100
AcDbCircle
 10
-0.3432452867
 20
4.9845616769
 30
0.0
 40
0.1883169649063952
100
AcDbArc
 50
183.6528107208
 51
203.428049851
  0
ARC
  5
191
330
12E
100
AcDbEntity
  8
0
  6
Continuous
 62
     8
370
    25
100
AcDbCircle
 10
-2.871961481
 20
1.492161901
 30
0.0
 40
0.199613123504904
100
AcDbArc
 50
305.959921486
 51
5.3647357793
  0
ARC
  5
192
330
12E
100
AcDbEntity
  8
0
  6
Continuous
 62
     8
370
    25
100
AcDbCircle
 10
-3.1493478641
 20
0.9705119695
 30
0.0
 40
0.0991603137393772
100
AcDbArc
 50
258.3835762011
 51
317.4357755614
  0
VIEWPORT
  5
197
330
12E
100
AcDbEntity
  8
0
100
AcDbViewport
 10
0.0
 20
0.0
 30
0.0
 40
8.4
 41
6.4
 68
     1
 69
     1
 12
0.0
 22
2.9529527559
 13
0.0
 23
0.0
 14
0.5
 24
0.5
 15
0.5
 25
0.5
 16
0.0
 26
0.0
 36
1.0
 17
0.0
 27
0.0
 37
0.0
 42
50.0
 43
0.0
 44
0.0
 45
6.4255984252
 50
0.0
 51
0.0
 72
   100
 90
   557152
  1

281
     0
 71
     1
 74
     0
110
0.0
120
0.0
130
0.0
111
1.0
121
0.0
131
0.0
112
0.0
122
1.0
132
0.0
 79
     0
146
0.0
  0
ENDBLK
  5
131
330
12E
100
AcDbEntity
  8
0
100
AcDbBlockEnd
  0
ENDSEC
  0
SECTION
  2
ENTITIES
  0
LWPOLYLINE
  5
7D
330
1F
100
AcDbEntity
  8
0
  6
Continuous
 62
     7
370
    25
100
AcDbPolyline
 90
        3
 70
   128
 43
0.0
 10
-0.6289239152
 20
4.9606299213
 10
-0.6289431322
 20
4.9602871625
 10
-0.6299212598
 20
4.9251968504
  0
LWPOLYLINE
  5
7E
330
1F
100
AcDbEntity
  8
0
  6
Continuous
 62
     7
370
    25
100
AcDbPolyline
 90
        3
 70
   128
 43
0.0
 10
0.6299212598
 20
4.9251968504
 10
0.6289431322
 20
4.9602871625
 10
0.6289239152
 20
4.9606299213
  0
LWPOLYLINE
  5
81
330
1F
100
AcDbEntity
  8
0
  6
Continuous
 62
     7
370
    25
100
AcDbPolyline
 90
       50
 70
   128
 43
0.0
 10
0.3937007874
 20
3.2283464567
 10
0.3904685094
 20
3.2512027624
 10
0.3808247492
 20
3.2736837682
 10
0.3649278572
 20
3.2954203366
 10
0.3430388599
 20
3.3160555538
 10
0.315517174
 20
3.33525059
 10
0.2828147048
 20
3.3526902633
 10
0.2454684259
 20
3.3680882147
 10
0.2040915623
 20
3.3811916104
 10
0.1593635209
 20
3.3917852928
 10
0.1120187349
 20
3.399695314
 10
0.0628346043
 20
3.4047917918
 10
0.0126187313
 20
3.406991042
 10
-0.0378043409
 20
3.4062569531
 10
-0.0876066669
 20
3.4026015788
 10
-0.1359704939
 20
3.3960849401
 10
-0.1821016891
 20
3.3868140402
 10
-0.2252427796
 20
3.374941107
 10
-0.2646853899
 20
3.3606610936
 10
-0.2997818734
 20
3.3442084776
 10
-0.3299559468
 20
3.3258534104
 10
-0.3547121527
 20
3.3058972817
 10
-0.3736439949
 20
3.2846677706
 10
-0.386440613
 20
3.2625134651
 10
-0.3928918869
 20
3.2397981383
 10
-0.3928918869
 20
3.2168947751
 10
-0.386440613
 20
3.1941794483
 10
-0.3736439949
 20
3.1720251428
 10
-0.3547121527
 20
3.1507956317
 10
-0.3299559468
 20
3.130839503
 10
-0.2997818734
 20
3.1124844358
 10
-0.2646853899
 20
3.0960318197
 10
-0.2252427796
 20
3.0817518064
 10
-0.1821016891
 20
3.0698788732
 10
-0.1359704939
 20
3.0606079733
 10
-0.0876066669
 20
3.0540913346
 10
-0.0378043409
 20
3.0504359603
 10
0.0126187313
 20
3.0497018713
 10
0.0628346043
 20
3.0519011216
 10
0.1120187349
 20
3.0569975993
 10
0.1593635209
 20
3.0649076206
 10
0.2040915623
 20
3.075501303
 10
0.2454684259
 20
3.0886046986
 10
0.2828147048
 20
3.1040026501
 10
0.315517174
 20
3.1214423234
 10
0.3430388599
 20
3.1406373596
 10
0.3649278572
 20
3.1612725767
 10
0.3808247492
 20
3.1830091452
 10
0.3904685094
 20
3.205490151
 10
0.3937007874
 20
3.2283464567
  0
LWPOLYLINE
  5
82
330
1F
100
AcDbEntity
  8
0
  6
Continuous
 62
     7
370
    25
100
AcDbPolyline
 90
       45
 70
   128
 43
0.0
 10
0.0
 20
3.0853573229
 10
-0.0448235711
 20
3.0868127461
 10
-0.0887346636
 20
3.0911493875
 10
-0.1308393742
 20
3.0982789656
 10
-0.1702805724
 20
3.1080563427
 10
-0.2062553493
 20
3.1202824797
 10
-0.238031362
 20
3.1347084876
 10
-0.2649617426
 20
3.1510406945
 10
-0.2864982663
 20
3.1689466238
 10
-0.3022025114
 20
3.1880617624
 10
-0.3117547848
 20
3.2079969812
 10
-0.3149606299
 20
3.2283464567
 10
-0.3117547848
 20
3.2486959321
 10
-0.3022025114
 20
3.268631151
 10
-0.2864982663
 20
3.2877462896
 10
-0.2649617426
 20
3.3056522189
 10
-0.238031362
 20
3.3219844258
 10
-0.2062553493
 20
3.3364104337
 10
-0.1702805724
 20
3.3486365706
 10
-0.1308393742
 20
3.3584139478
 10
-0.0887346636
 20
3.3655435259
 10
-0.0448235711
 20
3.3698801673
 10
0.0
 20
3.3713355905
 10
0.0448235711
 20
3.3698801673
 10
0.0887346636
 20
3.3655435259
 10
0.1308393742
 20
3.3584139478
 10
0.1702805724
 20
3.3486365706
 10
0.2062553493
 20
3.3364104337
 10
0.238031362
 20
3.3219844258
 10
0.2649617426
 20
3.3056522189
 10
0.2864982663
 20
3.2877462896
 10
0.3022025114
 20
3.268631151
 10
0.3117547848
 20
3.2486959321
 10
0.3149606299
 20
3.2283464567
 10
0.3117547848
 20
3.2079969812
 10
0.3022025114
 20
3.1880617624
 10
0.2864982663
 20
3.1689466238
 10
0.2649617426
 20
3.1510406945
 10
0.238031362
 20
3.1347084876
 10
0.2062553493
 20
3.1202824797
 10
0.1702805724
 20
3.1080563427
 10
0.1308393742
 20
3.0982789656
 10
0.0887346636
 20
3.0911493875
 10
0.0448235711
 20
3.0868127461
 10
0.0
 20
3.0853573229
  0
CIRCLE
  5
8A
330
1F
100
AcDbEntity
  8
0
  6
Continuous
 62
     7
370
    25
100
AcDbCircle
 10
0.0
 20
5.7086614173
 30
0.0
 40
0.149606299212597
  0
CIRCLE
  5
8B
330
1F
100
AcDbEntity
  8
0
  6
Continuous
 62
     7
370
    25
100
AcDbCircle
 10
0.0
 20
5.7086614173
 30
0.0
 40
0.1574803149606286
  0
LWPOLYLINE
  5
99
330
1F
100
AcDbEntity
  8
0
  6
Continuous
 62
     8
370
    25
100
AcDbPolyline
 90
       26
 70
   128
 43
0.0
 10
0.3937007874
 20
3.7039295274
 10
0.3904685094
 20
3.7267858331
 10
0.3808247492
 20
3.7492668389
 10
0.3649278572
 20
3.7710034073
 10
0.3430388599
 20
3.7916386245
 10
0.315517174
 20
3.8108336607
 10
0.2828147048
 20
3.828273334
 10
0.2454684259
 20
3.8436712854
 10
0.2040915623
 20
3.856774681
 10
0.1593635209
 20
3.8673683635
 10
0.1120187349
 20
3.8752783847
 10
0.0628346043
 20
3.8803748625
 10
0.0126187313
 20
3.8825741127
 10
-0.0378043409
 20
3.8818400238
 10
-0.0876066669
 20
3.8781846494
 10
-0.1359704939
 20
3.8716680108
 10
-0.1821016891
 20
3.8623971109
 10
-0.2252427796
 20
3.8505241776
 10
-0.2646853899
 20
3.8362441643
 10
-0.2997818734
 20
3.8197915483
 10
-0.3299559468
 20
3.8014364811
 10
-0.3547121527
 20
3.7814803524
 10
-0.3736439949
 20
3.7602508413
 10
-0.386440613
 20
3.7380965358
 10
-0.3928918869
 20
3.7153812089
 10
-0.3937007874
 20
3.7039295274
  0
LINE
  5
9C
330
1F
100
AcDbEntity
  8
0
  6
Continuous
 62
     7
370
    25
100
AcDbLine
 10
0.3937007874
 20
3.2283464567
 30
0.0
 11
0.3937007874
 21
4.1338582677
 31
0.0
  0
LINE
  5
9D
330
1F
100
AcDbEntity
  8
0
  6
Continuous
 62
     7
370
    25
100
AcDbLine
 10
-0.3937007874
 20
4.1338582677
 30
0.0
 11
-0.3937007874
 21
3.2283464567
 31
0.0
  0
LINE
  5
9E
330
1F
100
AcDbEntity
  8
0
  6
Continuous
 62
     7
370
    25
100
AcDbLine
 10
0.688976378
 20
0.0
 30
0.0
 11
0.688976378
 21
4.9212598425
 31
0.0
  0
LINE
  5
9F
330
1F
100
AcDbEntity
  8
0
  6
Continuous
 62
     7
370
    25
100
AcDbLine
 10
-0.688976378
 20
4.9212598425
 30
0.0
 11
-0.688976378
 21
0.0
 31
0.0
  0
LINE
  5
A0
330
1F
100
AcDbEntity
  8
0
  6
Continuous
 62
     7
370
    25
100
AcDbLine
 10
0.9842519685
 20
-0.1968503937
 30
0.0
 11
0.9842519685
 21
0.0
 31
0.0
  0
LINE
  5
A1
330
1F
100
AcDbEntity
  8
0
  6
Continuous
 62
     7
370
    25
100
AcDbLine
 10
-0.9842519685
 20
0.0
 30
0.0
 11
-0.9842519685
 21
-0.1968503937
 31
0.0
  0
LINE
  5
A2
330
1F
100
AcDbEntity
  8
0
  6
Continuous
 62
     7
370
    25
100
AcDbLine
 10
0.6299212598
 20
4.9212598425
 30
0.0
 11
0.6299212598
 21
4.9251968504
 31
0.0
  0
LINE
  5
A3
330
1F
100
AcDbEntity
  8
0
  6
Continuous
 62
     7
370
    25
100
AcDbLine
 10
-0.6299212598
 20
4.9251968504
 30
0.0
 11
-0.6299212598
 21
4.9212598425
 31
0.0
  0
LINE
  5
A4
330
1F
100
AcDbEntity
  8
0
  6
Continuous
 62
     7
370
    25
100
AcDbLine
 10
0.688976378
 20
4.9606299213
 30
0.0
 11
0.688976378
 21
6.1023622047
 31
0.0
  0
LINE
  5
A5
330
1F
100
AcDbEntity
  8
0
  6
Continuous
 62
     7
370
    25
100
AcDbLine
 10
-0.688976378
 20
6.1023622047
 30
0.0
 11
-0.688976378
 21
4.9606299213
 31
0.0
  0
LINE
  5
A6
330
1F
100
AcDbEntity
  8
0
  6
Continuous
 62
     7
370
    25
100
AcDbLine
 10
-0.688976378
 20
4.9212598425
 30
0.0
 11
0.688976378
 21
4.9212598425
 31
0.0
  0
LINE
  5
A7
330
1F
100
AcDbEntity
  8
0
  6
Continuous
 62
     7
370
    25
100
AcDbLine
 10
-0.9842519685
 20
-0.1968503937
 30
0.0
 11
0.9842519685
 21
-0.1968503937
 31
0.0
  0
LINE
  5
A8
330
1F
100
AcDbEntity
  8
0
  6
Continuous
 62
     7
370
    25
100
AcDbLine
 10
-0.9842519685
 20
0.0
 30
0.0
 11
0.9842519685
 21
0.0
 31
0.0
  0
LINE
  5
A9
330
1F
100
AcDbEntity
  8
0
  6
Continuous
 62
     7
370
    25
100
AcDbLine
 10
-0.688976378
 20
4.9606299213
 30
0.0
 11
0.688976378
 21
4.9606299213
 31
0.0
  0
LINE
  5
AA
330
1F
100
AcDbEntity
  8
0
  6
Continuous
 62
     7
370
    25
100
AcDbLine
 10
-0.688976378
 20
6.1023622047
 30
0.0
 11
0.688976378
 21
6.1023622047
 31
0.0
  0
LINE
  5
AB
330
1F
100
AcDbEntity
  8
0
  6
Continuous
 62
     7
370
    25
100
AcDbLine
 10
-0.3894968636
 20
6.1027559055
 30
0.0
 11
-0.3894968636
 21
6.1023622047
 31
0.0
  0
LINE
  5
AC
330
1F
100
AcDbEntity
  8
0
  6
Continuous
 62
     7
370
    25
100
AcDbLine
 10
-0.2952755906
 20
6.1027559055
 30
0.0
 11
-0.2952755906
 21
6.1023622047
 31
0.0
  0
LINE
  5
AD
330
1F
100
AcDbEntity
  8
0
  6
Continuous
 62
     7
370
    25
100
AcDbLine
 10
-0.3894968636
 20
6.1027559055
 30
0.0
 11
-0.2749117567
 21
6.1027559055
 31
0.0
  0
LINE
  5
AE
330
1F
100
AcDbEntity
  8
0
  6
Continuous
 62
     7
370
    25
100
AcDbLine
 10
-0.2749117567
 20
6.1027559055
 30
0.0
 11
-0.2749117567
 21
6.1023622047
 31
0.0
  0
LINE
  5
AF
330
1F
100
AcDbEntity
  8
0
  6
Continuous
 62
     7
370
    25
100
AcDbLine
 10
0.2952755906
 20
6.1027559055
 30
0.0
 11
0.2952755906
 21
6.1023622047
 31
0.0
  0
LINE
  5
B0
330
1F
100
AcDbEntity
  8
0
  6
Continuous
 62
     7
370
    25
100
AcDbLine
 10
0.2749117567
 20
6.1027559055
 30
0.0
 11
0.3894968636
 21
6.1027559055
 31
0.0
  0
LINE
  5
B1
330
1F
100
AcDbEntity
  8
0
  6
Continuous
 62
     7
370
    25
100
AcDbLine
 10
0.3894968636
 20
6.1027559055
 30
0.0
 11
0.3894968636
 21
6.1023622047
 31
0.0
  0
LINE
  5
B2
330
1F
100
AcDbEntity
  8
0
  6
Continuous
 62
     7
370
    25
100
AcDbLine
 10
0.2749117567
 20
6.1027559055
 30
0.0
 11
0.2749117567
 21
6.1023622047
 31
0.0
  0
LINE
  5
B3
330
1F
100
AcDbEntity
  8
0
  6
Continuous
 62
     8
370
    25
100
AcDbLine
 10
-0.6299212598
 20
4.9251968504
 30
0.0
 11
0.6299212598
 21
4.9251968504
 31
0.0
  0
ARC
  5
B4
330
1F
100
AcDbEntity
  8
0
  6
Continuous
 62
     7
370
    25
100
AcDbCircle
 10
0.0
 20
4.1338582677
 30
0.0
 40
0.3937007874015749
100
AcDbArc
 50
0.0
 51
180.0
  0
LWPOLYLINE
  5
C3
330
1B
100
AcDbEntity
 67
     1
  8
0
  6
Continuous
 62
     7
370
    25
100
AcDbPolyline
 90
        3
 70
   128
 43
0.0
 10
0.6299212598
 20
4.9251968504
 10
0.6289431322
 20
4.9602871625
 10
0.6289239152
 20
4.9606299213
  0
SPLINE
  5
CB
330
1B
100
AcDbEntity
 67
     1
  8
0
  6
Continuous
 62
     7
370
    25
100
AcDbSpline
210
0.0
220
0.0
230
1.0
 70
     8
 71
     3
 72
    28
 73
    24
 74
     0
 42
0.000000001
 43
0.00000001
 40
0.0
 40
0.0
 40
0.0
 40
0.0
 40
0.013332247624006
 40
0.0590098121827996
 40
0.1059984290004961
 40
0.1522065920801748
 40
0.1995048814502864
 40
0.2509645606249286
 40
0.3036604121416969
 40
0.3599640441052097
 40
0.4181607508772102
 40
0.4616329052327972
 40
0.5063400455915424
 40
0.5498286372301243
 40
0.5945615444390192
 40
0.6387740659007078
 40
0.6839386517268949
 40
0.7354734698867235
 40
0.7882393691398876
 40
0.8446402673920029
 40
0.9029584782103772
 40
0.9546433745417728
 40
1.0
 40
1.0
 40
1.0
 40
1.0
 10
0.6883598888644908
 20
3.741238667039808
 30
0.0
 10
0.6885483813814974
 20
3.740908004388456
 30
0.0
 10
0.6893826674178881
 20
3.739444459643234
 30
0.0
 10
0.6854128844588255
 20
3.746391657393222
 30
0.0
 10
0.677209377109863
 20
3.761023194894861
 30
0.0
 10
0.6645020242948437
 20
3.784504177914586
 30
0.0
 10
0.6484634016019449
 20
3.815848672719743
 30
0.0
 10
0.6296286459169195
 20
3.855868139073278
 30
0.0
 10
0.6091480871960362
 20
3.905395998019523
 30
0.0
 10
0.5893345992566775
 20
3.963978707247303
 30
0.0
 10
0.5746498041763626
 20
4.025350137539464
 30
0.0
 10
0.5665610642584852
 20
4.08566774694597
 30
0.0
 10
0.5645287847319372
 20
4.141379693841405
 30
0.0
 10
0.5680858864997309
 20
4.197366640756731
 30
0.0
 10
0.576706639624662
 20
4.251322928358019
 30
0.0
 10
0.5894826973506865
 20
4.302841740254906
 30
0.0
 10
0.6057587313665532
 20
4.352855015558233
 30
0.0
 10
0.6246813226626492
 20
4.400558239986846
 30
0.0
 10
0.6449608710031461
 20
4.44485963570338
 30
0.0
 10
0.6641050965589985
 20
4.482588244812022
 30
0.0
 10
0.6787330130246219
 20
4.509480128738785
 30
0.0
 10
0.6876331964493203
 20
4.52521790804875
 30
0.0
 10
0.6882533732496012
 20
4.526295213643109
 30
0.0
 10
0.6885432401676943
 20
4.526798739818773
 30
0.0
  0
SPLINE
  5
D1
330
1B
100
AcDbEntity
 67
     1
  8
0
  6
Continuous
 62
     7
370
    25
100
AcDbSpline
210
0.0
220
0.0
230
1.0
 70
     8
 71
     3
 72
    18
 73
    14
 74
     0
 42
0.000000001
 43
0.00000001
 40
0.0
 40
0.0
 40
0.0
 40
0.0
 40
0.0330029326330753
 40
0.1375027406844314
 40
0.2428448565922491
 40
0.350572443269054
 40
0.4586463946040403
 40
0.564314448476882
 40
0.668617078149174
 40
0.7746755551339396
 40
0.8828942679740956
 40
0.990356251952921
 40
1.0
 40
1.0
 40
1.0
 40
1.0
 10
0.6885483547496458
 20
5.864251008989091
 30
0.0
 10
0.6886706064982245
 20
5.864791668807428
 30
0.0
 10
0.6891799536726084
 20
5.867044262770087
 30
0.0
 10
0.6860600833910474
 20
5.853393224200423
 30
0.0
 10
0.6803774761752838
 20
5.824590167083579
 30
0.0
 10
0.6740896082632846
 20
5.781362845664761
 30
0.0
 10
0.6703620092431194
 20
5.729976091508615
 30
0.0
 10
0.6708401052386567
 20
5.676535807293342
 30
0.0
 10
0.6751407983976886
 20
5.627326199146798
 30
0.0
 10
0.6815470232936451
 20
5.586249296652045
 30
0.0
 10
0.6868995200293742
 20
5.560135935727044
 30
0.0
 10
0.6895058199520562
 20
5.548817529255294
 30
0.0
 10
0.6888687582734603
 20
5.551661172402047
 30
0.0
 10
0.6888162957491027
 20
5.551895348625266
 30
0.0
  0
LINE
  5
DE
330
1B
100
AcDbEntity
 67
     1
  8
0
  6
Continuous
 62
     7
370
    25
100
AcDbLine
 10
0.688976378
 20
4.5267987398
 30
0.0
 11
0.688976378
 21
4.9212598425
 31
0.0
  0
LINE
  5
DF
330
1B
100
AcDbEntity
 67
     1
  8
0
  6
Continuous
 62
     7
370
    25
100
AcDbLine
 10
0.688976378
 20
0.0
 30
0.0
 11
0.688976378
 21
3.741238667
 31
0.0
  0
LINE
  5
E0
330
1B
100
AcDbEntity
 67
     1
  8
0
  6
Continuous
 62
     7
370
    25
100
AcDbLine
 10
-0.688976378
 20
4.9212598425
 30
0.0
 11
-0.688976378
 21
0.0
 31
0.0
  0
LINE
  5
E1
330
1B
100
AcDbEntity
 67
     1
  8
0
  6
Continuous
 62
     7
370
    25
100
AcDbLine
 10
4.1742086181
 20
4.5275590551
 30
0.0
 11
0.6885442817
 21
4.5275590551
 31
0.0
  0
LINE
  5
E2
330
1B
100
AcDbEntity
 67
     1
  8
0
  6
Continuous
 62
     7
370
    25
100
AcDbLine
 10
0.6883606466
 20
3.7401574803
 30
0.0
 11
4.1742086181
 21
3.7401574803
 31
0.0
  0
LINE
  5
E3
330
1B
100
AcDbEntity
 67
     1
  8
0
  6
Continuous
 62
     7
370
    25
100
AcDbLine
 10
5.4689002064
 20
3.4070828739
 30
0.0
 11
5.2265785285
 21
3.8826659446
 31
0.0
  0
LINE
  5
E4
330
1B
100
AcDbEntity
 67
     1
  8
0
  6
Continuous
 62
     7
370
    25
100
AcDbLine
 10
4.5249985882
 20
3.5251931101
 30
0.0
 11
4.7673202661
 21
3.0496100395
 31
0.0
  0
LINE
  5
E5
330
1B
100
AcDbEntity
 67
     1
  8
0
  6
Continuous
 62
     7
370
    25
100
AcDbLine
 10
0.9842519685
 20
-0.1968503937
 30
0.0
 11
0.9842519685
 21
0.0
 31
0.0
  0
LINE
  5
E6
330
1B
100
AcDbEntity
 67
     1
  8
0
  6
Continuous
 62
     7
370
    25
100
AcDbLine
 10
-0.9842519685
 20
0.0
 30
0.0
 11
-0.9842519685
 21
-0.1968503937
 31
0.0
  0
LINE
  5
E7
330
1B
100
AcDbEntity
 67
     1
  8
0
  6
Continuous
 62
     7
370
    25
100
AcDbLine
 10
0.6299212598
 20
4.9212598425
 30
0.0
 11
0.6299212598
 21
4.9251968504
 31
0.0
  0
LINE
  5
E8
330
1B
100
AcDbEntity
 67
     1
  8
0
  6
Continuous
 62
     7
370
    25
100
AcDbLine
 10
-0.6299212598
 20
4.9251968504
 30
0.0
 11
-0.6299212598
 21
4.9212598425
 31
0.0
  0
LINE
  5
E9
330
1B
100
AcDbEntity
 67
     1
  8
0
  6
Continuous
 62
     7
370
    25
100
AcDbLine
 10
0.688976378
 20
5.864251009
 30
0.0
 11
0.688976378
 21
6.1023622047
 31
0.0
  0
LINE
  5
EA
330
1B
100
AcDbEntity
 67
     1
  8
0
  6
Continuous
 62
     7
370
    25
100
AcDbLine
 10
0.688976378
 20
4.9606299213
 30
0.0
 11
0.688976378
 21
5.5518953486
 31
0.0
  0
LINE
  5
EB
330
1B
100
AcDbEntity
 67
     1
  8
0
  6
Continuous
 62
     7
370
    25
100
AcDbLine
 10
-0.688976378
 20
6.1023622047
 30
0.0
 11
-0.688976378
 21
5.157480315
 31
0.0
  0
LINE
  5
EC
330
1B
100
AcDbEntity
 67
     1
  8
0
  6
Continuous
 62
     7
370
    25
100
AcDbLine
 10
2.9251968504
 20
5.8661417323
 30
0.0
 11
0.6885500193
 21
5.8661417323
 31
0.0
  0
LINE
  5
ED
330
1B
100
AcDbEntity
 67
     1
  8
0
  6
Continuous
 62
     7
370
    25
100
AcDbLine
 10
0.6888190633
 20
5.5511811024
 30
0.0
 11
2.9251968504
 21
5.5511811024
 31
0.0
  0
LINE
  5
EE
330
1B
100
AcDbEntity
 67
     1
  8
0
  6
Continuous
 62
     7
370
    25
100
AcDbLine
 10
-0.688976378
 20
4.9212598425
 30
0.0
 11
0.688976378
 21
4.9212598425
 31
0.0
  0
LINE
  5
EF
330
1B
100
AcDbEntity
 67
     1
  8
0
  6
Continuous
 62
     7
370
    25
100
AcDbLine
 10
5.4689002064
 20
3.4070828739
 30
0.0
 11
4.7673202661
 21
3.0496100395
 31
0.0
  0
LINE
  5
F0
330
1B
100
AcDbEntity
 67
     1
  8
0
  6
Continuous
 62
     7
370
    25
100
AcDbLine
 10
-0.9842519685
 20
0.0
 30
0.0
 11
0.9842519685
 21
0.0
 31
0.0
  0
LINE
  5
F1
330
1B
100
AcDbEntity
 67
     1
  8
0
  6
Continuous
 62
     7
370
    25
100
AcDbLine
 10
-0.9842519685
 20
-0.1968503937
 30
0.0
 11
0.9842519685
 21
-0.1968503937
 31
0.0
  0
LINE
  5
F2
330
1B
100
AcDbEntity
 67
     1
  8
0
  6
Continuous
 62
     7
370
    25
100
AcDbLine
 10
-0.688976378
 20
6.1023622047
 30
0.0
 11
0.688976378
 21
6.1023622047
 31
0.0
  0
LINE
  5
F3
330
1B
100
AcDbEntity
 67
     1
  8
0
  6
Continuous
 62
     7
370
    25
100
AcDbLine
 10
0.0
 20
4.9606299213
 30
0.0
 11
0.688976378
 21
4.9606299213
 31
0.0
  0
LINE
  5
F4
330
1B
100
AcDbEntity
 67
     1
  8
0
  6
Continuous
 62
     7
370
    25
100
AcDbLine
 10
-0.688976378
 20
5.157480315
 30
0.0
 11
0.0
 21
4.9606299213
 31
0.0
  0
LINE
  5
F5
330
1B
100
AcDbEntity
 67
     1
  8
0
  6
Continuous
 62
     7
370
    25
100
AcDbLine
 10
0.4173491883
 20
6.1027559055
 30
0.0
 11
0.4173491883
 21
6.1023622047
 31
0.0
  0
LINE
  5
F6
330
1B
100
AcDbEntity
 67
     1
  8
0
  6
Continuous
 62
     7
370
    25
100
AcDbLine
 10
0.3885664857
 20
6.1027559055
 30
0.0
 11
0.4885698286
 21
6.1027559055
 31
0.0
  0
LINE
  5
F7
330
1B
100
AcDbEntity
 67
     1
  8
0
  6
Continuous
 62
     7
370
    25
100
AcDbLine
 10
0.4885698286
 20
6.1027559055
 30
0.0
 11
0.4885698286
 21
6.1023622047
 31
0.0
  0
LINE
  5
F8
330
1B
100
AcDbEntity
 67
     1
  8
0
  6
Continuous
 62
     7
370
    25
100
AcDbLine
 10
0.3885664857
 20
6.1027559055
 30
0.0
 11
0.3885664857
 21
6.1023622047
 31
0.0
  0
LINE
  5
F9
330
1B
100
AcDbEntity
 67
     1
  8
0
  6
Continuous
 62
     7
370
    25
100
AcDbLine
 10
2.9330708661
 20
5.8582677165
 30
0.0
 11
2.9330708661
 21
5.5590551181
 31
0.0
  0
LINE
  5
FA
330
1B
100
AcDbEntity
 67
     1
  8
0
  6
Continuous
 62
     8
370
    25
100
AcDbLine
 10
4.1742086181
 20
4.5275590551
 30
0.0
 11
4.1742086181
 21
3.7401574803
 31
0.0
  0
LINE
  5
FB
330
1B
100
AcDbEntity
 67
     1
  8
0
  6
Continuous
 62
     8
370
    25
100
AcDbLine
 10
5.2265785285
 20
3.8826659446
 30
0.0
 11
4.5249985882
 21
3.5251931101
 31
0.0
  0
LINE
  5
FC
330
1B
100
AcDbEntity
 67
     1
  8
0
  6
Continuous
 62
     8
370
    25
100
AcDbLine
 10
-0.6299212598
 20
4.9251968504
 30
0.0
 11
0.6299212598
 21
4.9251968504
 31
0.0
  0
LINE
  5
FD
330
1B
100
AcDbEntity
 67
     1
  8
0
  6
Continuous
 62
     8
370
    25
100
AcDbLine
 10
2.9251968504
 20
5.5511811024
 30
0.0
 11
2.9251968504
 21
5.8661417323
 31
0.0
  0
ARC
  5
FE
330
1B
100
AcDbEntity
 67
     1
  8
0
  6
Continuous
 62
     7
370
    25
100
AcDbCircle
 10
4.1742086181
 20
3.3464566929
 30
0.0
 40
0.393700787401573
100
AcDbArc
 50
27.0
 51
90.0
  0
ARC
  5
FF
330
1B
100
AcDbEntity
 67
     1
  8
0
  6
Continuous
 62
     7
370
    25
100
AcDbCircle
 10
4.1742086181
 20
3.3464566929
 30
0.0
 40
1.181102362204732
100
AcDbArc
 50
27.0
 51
90.0
  0
ARC
  5
100
330
1B
100
AcDbEntity
 67
     1
  8
0
  6
Continuous
 62
     7
370
    25
100
AcDbCircle
 10
0.0
 20
4.9251968504
 30
0.0
 40
0.6299212598425059
100
AcDbArc
 50
160.9542076583
 51
180.0
  0
ARC
  5
101
330
1B
100
AcDbEntity
 67
     1
  8
0
  6
Continuous
 62
     7
370
    25
100
AcDbCircle
 10
2.9251968504
 20
5.8582677165
 30
0.0
 40
0.0078740157480337
100
AcDbArc
 50
0.0
 51
90.0
  0
ARC
  5
102
330
1B
100
AcDbEntity
 67
     1
  8
0
  6
Continuous
 62
     7
370
    25
100
AcDbCircle
 10
2.9251968504
 20
5.5590551181
 30
0.0
 40
0.0078740157480324
100
AcDbArc
 50
270.0
 51
360.0
  0
VIEWPORT
  5
193
330
1B
100
AcDbEntity
 67
     1
  8
0
100
AcDbViewport
 10
0.0
 20
0.0
 30
0.0
 40
8.4
 41
6.4
 68
     1
 69
     1
 12
0.0
 22
2.9529527559
 13
0.0
 23
0.0
 14
0.5
 24
0.5
 15
0.5
 25
0.5
 16
0.0
 26
0.0
 36
1.0
 17
0.0
 27
0.0
 37
0.0
 42
50.0
 43
0.0
 44
0.0
 45
6.4255984252
 50
0.0
 51
0.0
 72
   100
 90
   557152
  1

281
     0
 71
     1
 74
     0
110
0.0
120
0.0
130
0.0
111
1.0
121
0.0
131
0.0
112
0.0
122
1.0
132
0.0
 79
     0
146
0.0
  0
ENDSEC
  0
SECTION
  2
OBJECTS
  0
DICTIONARY
  5
C
330
0
100
AcDbDictionary
281
     1
  3
ACAD_GROUP
350
D
  3
ACAD_LAYOUT
350
1A
  3
ACAD_MLINESTYLE
350
17
  3
ACAD_PLOTSETTINGS
350
19
  3
ACAD_PLOTSTYLENAME
350
E
  3
ACAD_SCALELIST
350
47
  0
DICTIONARY
  5
D
102
{ACAD_REACTORS
330
C
102
}
330
C
100
AcDbDictionary
281
     1
  0
DICTIONARY
  5
1A
102
{ACAD_REACTORS
330
C
102
}
330
C
100
AcDbDictionary
281
     1
  3
_Isometric
350
12F
  3
_Left
350
1E
  3
_Top
350
26
  3
Model
350
22
  0
DICTIONARY
  5
17
102
{ACAD_REACTORS
330
C
102
}
330
C
100
AcDbDictionary
281
     1
  3
Standard
350
18
  0
DICTIONARY
  5
19
102
{ACAD_REACTORS
330
C
102
}
330
C
100
AcDbDictionary
281
     1
  0
ACDBDICTIONARYWDFLT
  5
E
102
{ACAD_REACTORS
330
C
102
}
330
C
100
AcDbDictionary
281
     1
  3
Normal
350
F
100
AcDbDictionaryWithDefault
340
F
  0
DICTIONARY
  5
47
102
{ACAD_REACTORS
330
C
102
}
330
C
100
AcDbDictionary
281
     1
  3
A0
350
48
  3
A1
350
49
  3
A2
350
4A
  3
A3
350
4B
  3
A4
350
4C
  3
A5
350
4D
  3
A6
350
4E
  3
A7
350
4F
  3
A8
350
50
  3
A9
350
51
  3
B0
350
52
  3
B1
350
53
  3
B2
350
54
  3
B3
350
55
  3
B4
350
56
  3
B5
350
57
  3
B6
350
58
  3
B7
350
59
  3
B8
350
5A
  3
B9
350
5B
  3
C0
350
5C
  3
C1
350
5D
  3
C2
350
5E
  3
C3
350
5F
  3
C4
350
60
  3
C5
350
61
  3
C6
350
62
  3
C7
350
63
  3
C8
350
64
  3
C9
350
65
  3
D0
350
66
  3
D1
350
67
  3
D2
350
68
  0
LAYOUT
  5
12F
102
{ACAD_REACTORS
330
1A
102
}
330
1A
100
AcDbPlotSettings
  1

  2
none_device
  4
Letter_(8.50_x_11.00_Inches)
  6

 40
6.35
 41
6.35
 42
6.35001
 43
6.35001
 44
215.9
 45
279.4
 46
0.0
 47
0.0
 48
0.0
 49
0.0
140
0.0
141
0.0
142
1.0
143
0.7874508262
 70
   688
 72
     0
 73
     1
 74
     1
  7

 75
     0
147
1.2699205675
148
25.0
149
5.0
100
AcDbLayout
  1
_Isometric
 70
     1
 71
     3
 10
0.0
 20
0.0
 11
0.0
 21
0.0
 12
0.0
 22
0.0
 32
0.0
 14
0.0
 24
0.0
 34
0.0
 15
0.0
 25
0.0
 35
0.0
146
0.0
 13
0.0
 23
0.0
 33
0.0
 16
1.0
 26
0.0
 36
0.0
 17
0.0
 27
1.0
 37
0.0
 76
     0
330
12E
331
197
  0
LAYOUT
  5
1E
102
{ACAD_REACTORS
330
1A
102
}
330
1A
100
AcDbPlotSettings
  1

  2
none_device
  4
Letter_(8.50_x_11.00_Inches)
  6

 40
6.35
 41
6.35
 42
6.35001
 43
6.35001
 44
215.9
 45
279.4
 46
0.0
 47
0.0
 48
0.0
 49
0.0
140
0.0
141
0.0
142
1.0
143
0.7874508262
 70
   688
 72
     0
 73
     1
 74
     1
  7

 75
     0
147
1.2699205675
148
25.0
149
5.0
100
AcDbLayout
  1
_Left
 70
     1
 71
     1
 10
-1.1811149851
 20
-0.3937131002
 11
7.4808441026
 21
6.2996189221
 12
0.0
 22
0.0
 32
0.0
 14
-0.9842519685
 24
-0.1968503937
 34
0.0
 15
5.4689002064
 25
6.1027559055
 35
0.0
146
0.0
 13
0.0
 23
0.0
 33
0.0
 16
1.0
 26
0.0
 36
0.0
 17
0.0
 27
1.0
 37
0.0
 76
     0
330
1B
331
193
  0
LAYOUT
  5
26
102
{ACAD_REACTORS
330
1A
102
}
330
1A
100
AcDbPlotSettings
  1

  2
none_device
  4
Letter_(8.50_x_11.00_Inches)
  6

 40
6.35
 41
6.35
 42
6.35001
 43
6.35001
 44
215.9
 45
279.4
 46
0.0
 47
0.0
 48
0.0
 49
0.0
140
0.0
141
0.0
142
1.0
143
0.7874508262
 70
   688
 72
     0
 73
     1
 74
     1
  7

 75
     0
147
1.2699205675
148
25.0
149
5.0
100
AcDbLayout
  1
_Top
 70
     1
 71
     2
 10
0.0
 20
0.0
 11
0.0
 21
0.0
 12
0.0
 22
0.0
 32
0.0
 14
0.0
 24
0.0
 34
0.0
 15
0.0
 25
0.0
 35
0.0
146
0.0
 13
0.0
 23
0.0
 33
0.0
 16
1.0
 26
0.0
 36
0.0
 17
0.0
 27
1.0
 37
0.0
 76
     0
330
23
331
195
  0
LAYOUT
  5
22
102
{ACAD_REACTORS
330
1A
102
}
330
1A
100
AcDbPlotSettings
  1

  2
none_device
  4
ANSI_A_(11.00_x_8.50_Inches)
  6

 40
6.35
 41
19.05
 42
6.35000508
 43
19.05000254
 44
279.4
 45
215.9
 46
133.34999746
 47
-11.2915124568
 48
0.0
 49
0.0
140
0.0
141
0.0
142
1.3357977626
143
1.0
 70
  1696
 72
     0
 73
     0
 74
     0
  7

 75
     0
147
0.5913241897
148
-39.4088153714
149
0.0
100
AcDbLayout
  1
Model
 70
     1
 71
     0
 10
0.0
 20
0.0
 11
12.0
 21
9.0
 12
0.0
 22
0.0
 32
0.0
 14
-0.9842519685
 24
-0.1968503937
 34
0.0
 15
0.9842519685
 25
6.1027559055
 35
0.0
146
0.0
 13
0.0
 23
0.0
 33
0.0
 16
1.0
 26
0.0
 36
0.0
 17
0.0
 27
1.0
 37
0.0
 76
     0
330
1F
331
29
  0
MLINESTYLE
  5
18
102
{ACAD_REACTORS
330
17
102
}
330
17
100
AcDbMlineStyle
  2
Standard
 70
     0
  3

 62
   256
 51
90.0
 52
90.0
 71
     2
 49
0.5
 62
   256
  6
BYLAYER
 49
-0.5
 62
   256
  6
BYLAYER
  0
ACDBPLACEHOLDER
  5
F
102
{ACAD_REACTORS
330
E
102
}
330
E
  0
SCALE
  5
48
102
{ACAD_REACTORS
330
47
102
}
330
47
100
AcDbScale
 70
     0
300
1:1
140
1.0
141
1.0
290
     1
  0
SCALE
  5
49
102
{ACAD_REACTORS
330
47
102
}
330
47
100
AcDbScale
 70
     0
300
1:2
140
1.0
141
2.0
290
     0
  0
SCALE
  5
4A
102
{ACAD_REACTORS
330
47
102
}
330
47
100
AcDbScale
 70
     0
300
1:4
140
1.0
141
4.0
290
     0
  0
SCALE
  5
4B
102
{ACAD_REACTORS
330
47
102
}
330
47
100
AcDbScale
 70
     0
300
1:5
140
1.0
141
5.0
290
     0
  0
SCALE
  5
4C
102
{ACAD_REACTORS
330
47
102
}
330
47
100
AcDbScale
 70
     0
300
1:8
140
1.0
141
8.0
290
     0
  0
SCALE
  5
4D
102
{ACAD_REACTORS
330
47
102
}
330
47
100
AcDbScale
 70
     0
300
1:10
140
1.0
141
10.0
290
     0
  0
SCALE
  5
4E
102
{ACAD_REACTORS
330
47
102
}
330
47
100
AcDbScale
 70
     0
300
1:16
140
1.0
141
16.0
290
     0
  0
SCALE
  5
4F
102
{ACAD_REACTORS
330
47
102
}
330
47
100
AcDbScale
 70
     0
300
1:20
140
1.0
141
20.0
290
     0
  0
SCALE
  5
50
102
{ACAD_REACTORS
330
47
102
}
330
47
100
AcDbScale
 70
     0
300
1:30
140
1.0
141
30.0
290
     0
  0
SCALE
  5
51
102
{ACAD_REACTORS
330
47
102
}
330
47
100
AcDbScale
 70
     0
300
1:40
140
1.0
141
40.0
290
     0
  0
SCALE
  5
52
102
{ACAD_REACTORS
330
47
102
}
330
47
100
AcDbScale
 70
     0
300
1:50
140
1.0
141
50.0
290
     0
  0
SCALE
  5
53
102
{ACAD_REACTORS
330
47
102
}
330
47
100
AcDbScale
 70
     0
300
1:100
140
1.0
141
100.0
290
     0
  0
SCALE
  5
54
102
{ACAD_REACTORS
330
47
102
}
330
47
100
AcDbScale
 70
     0
300
2:1
140
2.0
141
1.0
290
     0
  0
SCALE
  5
55
102
{ACAD_REACTORS
330
47
102
}
330
47
100
AcDbScale
 70
     0
300
4:1
140
4.0
141
1.0
290
     0
  0
SCALE
  5
56
102
{ACAD_REACTORS
330
47
102
}
330
47
100
AcDbScale
 70
     0
300
8:1
140
8.0
141
1.0
290
     0
  0
SCALE
  5
57
102
{ACAD_REACTORS
330
47
102
}
330
47
100
AcDbScale
 70
     0
300
10:1
140
10.0
141
1.0
290
     0
  0
SCALE
  5
58
102
{ACAD_REACTORS
330
47
102
}
330
47
100
AcDbScale
 70
     0
300
100:1
140
100.0
141
1.0
290
     0
  0
SCALE
  5
59
102
{ACAD_REACTORS
330
47
102
}
330
47
100
AcDbScale
 70
     0
300
1/128" = 1'-0"
140
0.0078125
141
12.0
290
     0
  0
SCALE
  5
5A
102
{ACAD_REACTORS
330
47
102
}
330
47
100
AcDbScale
 70
     0
300
1/64" = 1'-0"
140
0.015625
141
12.0
290
     0
  0
SCALE
  5
5B
102
{ACAD_REACTORS
330
47
102
}
330
47
100
AcDbScale
 70
     0
300
1/32" = 1'-0"
140
0.03125
141
12.0
290
     0
  0
SCALE
  5
5C
102
{ACAD_REACTORS
330
47
102
}
330
47
100
AcDbScale
 70
     0
300
1/16" = 1'-0"
140
0.0625
141
12.0
290
     0
  0
SCALE
  5
5D
102
{ACAD_REACTORS
330
47
102
}
330
47
100
AcDbScale
 70
     0
300
3/32" = 1'-0"
140
0.09375
141
12.0
290
     0
  0
SCALE
  5
5E
102
{ACAD_REACTORS
330
47
102
}
330
47
100
AcDbScale
 70
     0
300
1/8" = 1'-0"
140
0.125
141
12.0
290
     0
  0
SCALE
  5
5F
102
{ACAD_REACTORS
330
47
102
}
330
47
100
AcDbScale
 70
     0
300
3/16" = 1'-0"
140
0.1875
141
12.0
290
     0
  0
SCALE
  5
60
102
{ACAD_REACTORS
330
47
102
}
330
47
100
AcDbScale
 70
     0
300
1/4" = 1'-0"
140
0.25
141
12.0
290
     0
  0
SCALE
  5
61
102
{ACAD_REACTORS
330
47
102
}
330
47
100
AcDbScale
 70
     0
300
3/8" = 1'-0"
140
0.375
141
12.0
290
     0
  0
SCALE
  5
62
102
{ACAD_REACTORS
330
47
102
}
330
47
100
AcDbScale
 70
     0
300
1/2" = 1'-0"
140
0.5
141
12.0
290
     0
  0
SCALE
  5
63
102
{ACAD_REACTORS
330
47
102
}
330
47
100
AcDbScale
 70
     0
300
3/4" = 1'-0"
140
0.75
141
12.0
290
     0
  0
SCALE
  5
64
102
{ACAD_REACTORS
330
47
102
}
330
47
100
AcDbScale
 70
     0
300
1" = 1'-0"
140
1.0
141
12.0
290
     0
  0
SCALE
  5
65
102
{ACAD_REACTORS
330
47
102
}
330
47
100
AcDbScale
 70
     0
300
1-1/2" = 1'-0"
140
1.5
141
12.0
290
     0
  0
SCALE
  5
66
102
{ACAD_REACTORS
330
47
102
}
330
47
100
AcDbScale
 70
     0
300
3" = 1'-0"
140
3.0
141
12.0
290
     0
  0
SCALE
  5
67
102
{ACAD_REACTORS
330
47
102
}
330
47
100
AcDbScale
 70
     0
300
6" = 1'-0"
140
6.0
141
12.0
290
     0
  0
SCALE
  5
68
102
{ACAD_REACTORS
330
47
102
}
330
47
100
AcDbScale
 70
     0
300
1'-0" = 1'-0"
140
12.0
141
12.0
290
     0
  0
ENDSEC
  0
EOF
