  0
SECTION
  2
HEADER
  9
$ACADVER
  1
AC1015
  9
$ACADMAINTVER
 70
     6
  9
$DWGCODEPAGE
  3
ANSI_1252
  9
$INSBASE
 10
0.0
 20
0.0
 30
0.0
  9
$EXTMIN
 10
-82.5021430454
 20
-507.9272048014
 30
0.0
  9
$EXTMAX
 10
12.4978569546
 20
187.0727951986
 30
0.0
  9
$LIMMIN
 10
0.0
 20
0.0
  9
$LIMMAX
 10
420.0
 20
297.0
  9
$ORTHOMODE
 70
     0
  9
$REGENMODE
 70
     1
  9
$FILLMODE
 70
     1
  9
$QTEXTMODE
 70
     0
  9
$MIRRTEXT
 70
     1
  9
$LTSCALE
 40
1.0
  9
$ATTMODE
 70
     1
  9
$TEXTSIZE
 40
3.5
  9
$TRACEWID
 40
1.0
  9
$TEXTSTYLE
  7
Standard
  9
$CLAYER
  8
0
  9
$CELTYPE
  6
ByLayer
  9
$CECOLOR
 62
   256
  9
$CELTSCALE
 40
1.0
  9
$DISPSILH
 70
     0
  9
$DIMSCALE
 40
1.0
  9
$DIMASZ
 40
3.302
  9
$DIMEXO
 40
1.0
  9
$DIMDLI
 40
3.75
  9
$DIMRND
 40
0.0
  9
$DIMDLE
 40
0.0
  9
$DIMEXE
 40
1.0
  9
$DIMTP
 40
0.0
  9
$DIMTM
 40
0.0
  9
$DIMTXT
 40
3.5
  9
$DIMCEN
 40
2.5
  9
$DIMTSZ
 40
0.0
  9
$DIMTOL
 70
     0
  9
$DIMLIM
 70
     0
  9
$DIMTIH
 70
     1
  9
$DIMTOH
 70
     1
  9
$DIMSE1
 70
     0
  9
$DIMSE2
 70
     0
  9
$DIMTAD
 70
     1
  9
$DIMZIN
 70
     1
  9
$DIMBLK
  1

  9
$DIMASO
 70
     1
  9
$DIMSHO
 70
     1
  9
$DIMPOST
  1

  9
$DIMAPOST
  1

  9
$DIMALT
 70
     0
  9
$DIMALTD
 70
     3
  9
$DIMALTF
 40
0.0393700787
  9
$DIMLFAC
 40
1.0
  9
$DIMTOFL
 70
     1
  9
$DIMTVP
 40
0.0
  9
$DIMTIX
 70
     0
  9
$DIMSOXD
 70
     0
  9
$DIMSAH
 70
     0
  9
$DIMBLK1
  1

  9
$DIMBLK2
  1

  9
$DIMSTYLE
  2
ISO-25
  9
$DIMCLRD
 70
     0
  9
$DIMCLRE
 70
     0
  9
$DIMCLRT
 70
     0
  9
$DIMTFAC
 40
1.0
  9
$DIMGAP
 40
1.524
  9
$DIMJUST
 70
     0
  9
$DIMSD1
 70
     0
  9
$DIMSD2
 70
     0
  9
$DIMTOLJ
 70
     0
  9
$DIMTZIN
 70
     1
  9
$DIMALTZ
 70
     0
  9
$DIMALTTZ
 70
     0
  9
$DIMUPT
 70
     0
  9
$DIMDEC
 70
     2
  9
$DIMTDEC
 70
     2
  9
$DIMALTU
 70
     2
  9
$DIMALTTD
 70
     3
  9
$DIMTXSTY
  7
Standard
  9
$DIMAUNIT
 70
     0
  9
$DIMADEC
 70
     2
  9
$DIMALTRND
 40
0.0
  9
$DIMAZIN
 70
     0
  9
$DIMDSEP
 70
    44
  9
$DIMATFIT
 70
     3
  9
$DIMFRAC
 70
     0
  9
$DIMLDRBLK
  1

  9
$DIMLUNIT
 70
     2
  9
$DIMLWD
 70
    -2
  9
$DIMLWE
 70
    -2
  9
$DIMTMOVE
 70
     0
  9
$LUNITS
 70
     2
  9
$LUPREC
 70
     2
  9
$SKETCHINC
 40
1.0
  9
$FILLETRAD
 40
10.0
  9
$AUNITS
 70
     0
  9
$AUPREC
 70
     2
  9
$MENU
  1
.
  9
$ELEVATION
 40
0.0
  9
$PELEVATION
 40
0.0
  9
$THICKNESS
 40
0.0
  9
$LIMCHECK
 70
     0
  9
$CHAMFERA
 40
0.0
  9
$CHAMFERB
 40
0.0
  9
$CHAMFERC
 40
0.0
  9
$CHAMFERD
 40
0.0
  9
$SKPOLY
 70
     0
  9
$TDCREATE
 40
2458778.544426366
  9
$TDUCREATE
 40
2458778.502759699
  9
$TDUPDATE
 40
2458778.544794988
  9
$TDUUPDATE
 40
2458778.503128322
  9
$TDINDWG
 40
0.0000000116
  9
$TDUSRTIMER
 40
0.0000000116
  9
$USRTIMER
 70
     1
  9
$ANGBASE
 50
0.0
  9
$ANGDIR
 70
     0
  9
$PDMODE
 70
     0
  9
$PDSIZE
 40
-1.0
  9
$PLINEWID
 40
0.0
  9
$SPLFRAME
 70
     0
  9
$SPLINETYPE
 70
     6
  9
$SPLINESEGS
 70
     8
  9
$HANDSEED
  5
3D2
  9
$SURFTAB1
 70
     6
  9
$SURFTAB2
 70
     6
  9
$SURFTYPE
 70
     6
  9
$SURFU
 70
     6
  9
$SURFV
 70
     6
  9
$UCSBASE
  2

  9
$UCSNAME
  2

  9
$UCSORG
 10
0.0
 20
0.0
 30
0.0
  9
$UCSXDIR
 10
1.0
 20
0.0
 30
0.0
  9
$UCSYDIR
 10
0.0
 20
1.0
 30
0.0
  9
$UCSORTHOREF
  2

  9
$UCSORTHOVIEW
 70
     0
  9
$UCSORGTOP
 10
0.0
 20
0.0
 30
0.0
  9
$UCSORGBOTTOM
 10
0.0
 20
0.0
 30
0.0
  9
$UCSORGLEFT
 10
0.0
 20
0.0
 30
0.0
  9
$UCSORGRIGHT
 10
0.0
 20
0.0
 30
0.0
  9
$UCSORGFRONT
 10
0.0
 20
0.0
 30
0.0
  9
$UCSORGBACK
 10
0.0
 20
0.0
 30
0.0
  9
$PUCSBASE
  2

  9
$PUCSNAME
  2

  9
$PUCSORG
 10
0.0
 20
0.0
 30
0.0
  9
$PUCSXDIR
 10
1.0
 20
0.0
 30
0.0
  9
$PUCSYDIR
 10
0.0
 20
1.0
 30
0.0
  9
$PUCSORTHOREF
  2

  9
$PUCSORTHOVIEW
 70
     0
  9
$PUCSORGTOP
 10
0.0
 20
0.0
 30
0.0
  9
$PUCSORGBOTTOM
 10
0.0
 20
0.0
 30
0.0
  9
$PUCSORGLEFT
 10
0.0
 20
0.0
 30
0.0
  9
$PUCSORGRIGHT
 10
0.0
 20
0.0
 30
0.0
  9
$PUCSORGFRONT
 10
0.0
 20
0.0
 30
0.0
  9
$PUCSORGBACK
 10
0.0
 20
0.0
 30
0.0
  9
$USERI1
 70
     0
  9
$USERI2
 70
     0
  9
$USERI3
 70
     0
  9
$USERI4
 70
     0
  9
$USERI5
 70
     0
  9
$USERR1
 40
0.0
  9
$USERR2
 40
0.0
  9
$USERR3
 40
0.0
  9
$USERR4
 40
0.0
  9
$USERR5
 40
0.0
  9
$WORLDVIEW
 70
     1
  9
$SHADEDGE
 70
     3
  9
$SHADEDIF
 70
    70
  9
$TILEMODE
 70
     1
  9
$MAXACTVP
 70
    64
  9
$PINSBASE
 10
0.0
 20
0.0
 30
0.0
  9
$PLIMCHECK
 70
     0
  9
$PEXTMIN
 10
-12.4978569546
 20
-507.9272048014
 30
0.0
  9
$PEXTMAX
 10
82.5021430454
 20
187.0727951986
 30
0.0
  9
$PLIMMIN
 10
-83.7799082366
 20
-534.6579740322
  9
$PLIMMAX
 10
974.7585533018
 20
213.8035644294
  9
$UNITMODE
 70
     0
  9
$VISRETAIN
 70
     1
  9
$PLINEGEN
 70
     0
  9
$PSLTSCALE
 70
     1
  9
$TREEDEPTH
 70
  3020
  9
$CMLSTYLE
  2
Standard
  9
$CMLJUST
 70
     0
  9
$CMLSCALE
 40
20.0
  9
$PROXYGRAPHICS
 70
     1
  9
$MEASUREMENT
 70
     1
  9
$CELWEIGHT
370
    -1
  9
$ENDCAPS
280
     0
  9
$JOINSTYLE
280
     0
  9
$LWDISPLAY
290
     1
  9
$INSUNITS
 70
     4
  9
$HYPERLINKBASE
  1

  9
$STYLESHEET
  1

  9
$XEDIT
290
     1
  9
$CEPSNTYPE
380
     0
  9
$PSTYLEMODE
290
     1
  9
$FINGERPRINTGUID
  2
{b564b896-863b-4ef1-be54-b2f7c4112f2a}
  9
$VERSIONGUID
  2
{FAEB1C32-E019-11D5-929B-00C0DF256EC4}
  9
$EXTNAMES
290
     1
  9
$PSVPSCALE
 40
0.0
  9
$OLESTARTUP
290
     0
  0
ENDSEC
  0
SECTION
  2
CLASSES
  0
CLASS
  1
ACDBDICTIONARYWDFLT
  2
AcDbDictionaryWithDefault
  3
ObjectDBX Classes
 90
        0
280
     0
281
     0
  0
CLASS
  1
VISUALSTYLE
  2
AcDbVisualStyle
  3
ObjectDBX Classes
 90
     4095
280
     0
281
     0
  0
CLASS
  1
MATERIAL
  2
AcDbMaterial
  3
ObjectDBX Classes
 90
     1153
280
     0
281
     0
  0
CLASS
  1
SCALE
  2
AcDbScale
  3
ObjectDBX Classes
 90
     1153
280
     0
281
     0
  0
CLASS
  1
TABLESTYLE
  2
AcDbTableStyle
  3
ObjectDBX Classes
 90
     4095
280
     0
281
     0
  0
CLASS
  1
MLEADERSTYLE
  2
AcDbMLeaderStyle
  3
ACDB_MLEADERSTYLE_CLASS
 90
     4095
280
     0
281
     0
  0
CLASS
  1
SUN
  2
AcDbSun
  3
SCENEOE
 90
     1153
280
     0
281
     0
  0
CLASS
  1
ACDBPLACEHOLDER
  2
AcDbPlaceHolder
  3
ObjectDBX Classes
 90
        0
280
     0
281
     0
  0
CLASS
  1
LAYOUT
  2
AcDbLayout
  3
ObjectDBX Classes
 90
        0
280
     0
281
     0
  0
ENDSEC
  0
SECTION
  2
TABLES
  0
TABLE
  2
VPORT
  5
8
330
0
100
AcDbSymbolTable
 70
     1
  0
VPORT
  5
29
330
8
100
AcDbSymbolTableRecord
100
AcDbViewportTableRecord
  2
*Active
 70
     0
 10
0.0
 20
0.0
 11
1.0
 21
1.0
 12
-35.0021430454
 22
-160.4272048014
 13
0.0
 23
0.0
 14
10.0
 24
10.0
 15
10.0
 25
10.0
 16
0.0
 26
0.0
 36
1.0
 17
0.0
 27
0.0
 37
0.0
 40
708.9
 41
0.1366906475
 42
50.0
 43
0.0
 44
0.0
 50
0.0
 51
0.0
 71
     0
 72
   100
 73
     1
 74
     3
 75
     0
 76
     0
 77
     0
 78
     0
281
     0
 65
     1
110
0.0
120
0.0
130
0.0
111
1.0
121
0.0
131
0.0
112
0.0
122
1.0
132
0.0
 79
     0
146
0.0
  0
ENDTAB
  0
TABLE
  2
LTYPE
  5
5
330
0
100
AcDbSymbolTable
 70
     6
  0
LTYPE
  5
14
330
5
100
AcDbSymbolTableRecord
100
AcDbLinetypeTableRecord
  2
ByBlock
 70
     0
  3

 72
    65
 73
     0
 40
0.0
  0
LTYPE
  5
15
330
5
100
AcDbSymbolTableRecord
100
AcDbLinetypeTableRecord
  2
ByLayer
 70
     0
  3

 72
    65
 73
     0
 40
0.0
  0
LTYPE
  5
16
330
5
100
AcDbSymbolTableRecord
100
AcDbLinetypeTableRecord
  2
Continuous
 70
     0
  3
Solid line
 72
    65
 73
     0
 40
0.0
  0
LTYPE
  5
6E
330
5
100
AcDbSymbolTableRecord
100
AcDbLinetypeTableRecord
  2
HIDDEN
 70
     0
  3
Hidden __ __ __ __ __ __ __ __ __ __ __ __ __ __
 72
    65
 73
     2
 40
1.905
 49
1.27
 74
     0
 49
-0.635
 74
     0
  0
LTYPE
  5
6F
330
5
100
AcDbSymbolTableRecord
100
AcDbLinetypeTableRecord
  2
PHANTOM
 70
     0
  3
Phantom ______  __  __  ______  __  __  ______
 72
    65
 73
     6
 40
12.7
 49
6.35
 74
     0
 49
-1.27
 74
     0
 49
1.27
 74
     0
 49
-1.27
 74
     0
 49
1.27
 74
     0
 49
-1.27
 74
     0
  0
LTYPE
  5
70
330
5
100
AcDbSymbolTableRecord
100
AcDbLinetypeTableRecord
  2
CENTER
 70
     0
  3
Center ____ _ ____ _ ____ _ ____ _ ____ _ ____
 72
    65
 73
     4
 40
10.16
 49
6.35
 74
     0
 49
-1.27
 74
     0
 49
1.27
 74
     0
 49
-1.27
 74
     0
  0
LTYPE
  5
71
330
5
100
AcDbSymbolTableRecord
100
AcDbLinetypeTableRecord
  2
CENTERX2
 70
     0
  3
Center (2x) ________  __  ________  __  _____
 72
    65
 73
     4
 40
20.32
 49
12.7
 74
     0
 49
-2.54
 74
     0
 49
2.54
 74
     0
 49
-2.54
 74
     0
  0
LTYPE
  5
72
330
5
100
AcDbSymbolTableRecord
100
AcDbLinetypeTableRecord
  2
DOT2
 70
     0
  3
Dot (.5x) ........................................
 72
    65
 73
     2
 40
0.635
 49
0.0
 74
     0
 49
-0.635
 74
     0
  0
ENDTAB
  0
TABLE
  2
LAYER
  5
2
330
0
100
AcDbSymbolTable
 70
     1
  0
LAYER
  5
10
330
2
100
AcDbSymbolTableRecord
100
AcDbLayerTableRecord
  2
0
 70
     0
 62
     7
  6
Continuous
370
    -3
390
F
  0
ENDTAB
  0
TABLE
  2
STYLE
  5
3
330
0
100
AcDbSymbolTable
 70
     1
  0
STYLE
  5
11
330
3
100
AcDbSymbolTableRecord
100
AcDbTextStyleTableRecord
  2
Standard
 70
     0
 40
0.0
 41
1.0
 50
0.0
 71
     0
 42
3.5
  3
txt
  4

  0
ENDTAB
  0
TABLE
  2
VIEW
  5
6
330
0
100
AcDbSymbolTable
 70
     0
  0
ENDTAB
  0
TABLE
  2
UCS
  5
7
330
0
100
AcDbSymbolTable
 70
     0
  0
ENDTAB
  0
TABLE
  2
APPID
  5
9
330
0
100
AcDbSymbolTable
 70
     1
  0
APPID
  5
12
330
9
100
AcDbSymbolTableRecord
100
AcDbRegAppTableRecord
  2
ACAD
 70
     0
  0
ENDTAB
  0
TABLE
  2
DIMSTYLE
  5
A
330
0
100
AcDbSymbolTable
 70
     1
100
AcDbDimStyleTable
  0
DIMSTYLE
105
27
330
A
100
AcDbSymbolTableRecord
100
AcDbDimStyleTableRecord
  2
ISO-25
 70
     0
 41
2.5
 42
0.625
 43
3.75
 44
1.25
 73
     0
 74
     0
 77
     1
 78
     8
140
2.5
141
2.5
143
0.0393700787
147
0.625
171
     3
172
     1
178
     0
271
     2
272
     2
274
     3
278
    44
283
     0
284
     8
340
11
  0
ENDTAB
  0
TABLE
  2
BLOCK_RECORD
  5
1
330
0
100
AcDbSymbolTable
 70
     7
  0
BLOCK_RECORD
  5
1F
330
1
100
AcDbSymbolTableRecord
100
AcDbBlockTableRecord
  2
*Model_Space
340
22
  0
BLOCK_RECORD
  5
1B
330
1
100
AcDbSymbolTableRecord
100
AcDbBlockTableRecord
  2
*Paper_Space
340
1E
  0
BLOCK_RECORD
  5
23
330
1
100
AcDbSymbolTableRecord
100
AcDbBlockTableRecord
  2
*Paper_Space0
340
26
  0
BLOCK_RECORD
  5
187
330
1
100
AcDbSymbolTableRecord
100
AcDbBlockTableRecord
  2
*Paper_Space1
340
188
  0
BLOCK_RECORD
  5
1C7
330
1
100
AcDbSymbolTableRecord
100
AcDbBlockTableRecord
  2
*Paper_Space2
340
1C8
  0
BLOCK_RECORD
  5
21F
330
1
100
AcDbSymbolTableRecord
100
AcDbBlockTableRecord
  2
*Paper_Space3
340
220
  0
BLOCK_RECORD
  5
274
330
1
100
AcDbSymbolTableRecord
100
AcDbBlockTableRecord
  2
*Paper_Space4
340
275
  0
BLOCK_RECORD
  5
2E1
330
1
100
AcDbSymbolTableRecord
100
AcDbBlockTableRecord
  2
*Paper_Space5
340
2E2
  0
BLOCK_RECORD
  5
356
330
1
100
AcDbSymbolTableRecord
100
AcDbBlockTableRecord
  2
*Paper_Space6
340
357
  0
ENDTAB
  0
ENDSEC
  0
SECTION
  2
BLOCKS
  0
BLOCK
  5
20
330
1F
100
AcDbEntity
  8
0
100
AcDbBlockBegin
  2
*Model_Space
 70
     0
 10
0.0
 20
0.0
 30
0.0
  3
*Model_Space
  1

  0
ENDBLK
  5
21
330
1F
100
AcDbEntity
  8
0
100
AcDbBlockEnd
  0
BLOCK
  5
1C
330
1B
100
AcDbEntity
 67
     1
  8
0
100
AcDbBlockBegin
  2
*Paper_Space
 70
     0
 10
0.0
 20
0.0
 30
0.0
  3
*Paper_Space
  1

  0
ENDBLK
  5
1D
330
1B
100
AcDbEntity
 67
     1
  8
0
100
AcDbBlockEnd
  0
BLOCK
  5
24
330
23
100
AcDbEntity
  8
0
100
AcDbBlockBegin
  2
*Paper_Space0
 70
     0
 10
0.0
 20
0.0
 30
0.0
  3
*Paper_Space0
  1

  0
SPLINE
  5
15C
330
23
100
AcDbEntity
  8
0
  6
Continuous
 62
     7
370
    25
100
AcDbSpline
210
0.0
220
0.0
230
1.0
 70
     8
 71
     3
 72
    15
 73
    11
 74
     0
 42
0.000000001
 43
0.00000001
 40
0.0
 40
0.0
 40
0.0
 40
0.0
 40
0.105752083971308
 40
0.3070721722848245
 40
0.4073906486562693
 40
0.511386834671561
 40
0.5551069329604709
 40
0.7479910361045117
 40
0.9389631570571382
 40
1.0
 40
1.0
 40
1.0
 40
1.0
 10
56.74999999999998
 20
-106.5652073978948
 30
0.0
 10
57.17528398960319
 20
-106.3065835576169
 30
0.0
 10
58.4101804911307
 20
-105.5556178890792
 30
0.0
 10
60.76474315715257
 20
-104.804261824925
 30
0.0
 10
63.23439748635528
 20
-104.3979015116026
 30
0.0
 10
64.81338381109298
 20
-104.3243020413502
 30
0.0
 10
66.96815432224801
 20
-104.4007529058556
 30
0.0
 10
69.58640912877402
 20
-104.8668767100154
 30
0.0
 10
72.05065440963433
 20
-105.7757708717457
 30
0.0
 10
73.0161547708538
 20
-106.3908012114946
 30
0.0
 10
73.24999999999999
 20
-106.5397622233256
 30
0.0
  0
SPLINE
  5
15D
330
23
100
AcDbEntity
  8
0
  6
Continuous
 62
     7
370
    25
100
AcDbSpline
210
0.0
220
0.0
230
1.0
 70
     8
 71
     3
 72
    15
 73
    11
 74
     0
 42
0.000000001
 43
0.00000001
 40
0.0
 40
0.0
 40
0.0
 40
0.0
 40
0.0115647471995963
 40
0.2033665531234652
 40
0.2983918892735557
 40
0.3968708432435392
 40
0.567911536395323
 40
0.7231257275724072
 40
0.8865299261920698
 40
1.0
 40
1.0
 40
1.0
 40
1.0
 10
73.27703771713453
 20
-136.186865592561
 30
0.0
 10
73.23685886164344
 20
-136.2110503094999
 30
0.0
 10
72.53031204236217
 20
-136.636339547324
 30
0.0
 10
71.00294922016887
 20
-137.3130830062917
 30
0.0
 10
68.81526508151676
 20
-137.9417761449252
 30
0.0
 10
66.53452675038282
 20
-138.3441850280171
 30
0.0
 10
63.67881624262426
 20
-138.3957992912799
 30
0.0
 10
60.60989224370288
 20
-137.8496663036028
 30
0.0
 10
58.20973013353932
 20
-137.0008523819372
 30
0.0
 10
57.17433222765936
 20
-136.4016109838973
 30
0.0
 10
56.74999999999999
 20
-136.1560267153837
 30
0.0
  0
SPLINE
  5
16A
330
23
100
AcDbEntity
  8
0
  6
Continuous
 62
     8
370
    25
100
AcDbSpline
210
0.0
220
0.0
230
1.0
 70
     8
 71
     3
 72
    15
 73
    11
 74
     0
 42
0.000000001
 43
0.00000001
 40
0.0
 40
0.0
 40
0.0
 40
0.0
 40
0.1045006260369368
 40
0.2780735918813174
 40
0.451903796605974
 40
0.4912033350952903
 40
0.5813226996246469
 40
0.6750848403966678
 40
0.8576363634419234
 40
1.0
 40
1.0
 40
1.0
 40
1.0
 10
73.24999999999999
 20
-107.3351709678404
 30
0.0
 10
72.85291684590764
 20
-107.0638103634149
 30
0.0
 10
71.79628835360565
 20
-106.3417264790466
 30
0.0
 10
69.28817974719188
 20
-105.3410236134064
 30
0.0
 10
66.83147430930471
 20
-104.8883252381224
 30
0.0
 10
64.84864655699947
 20
-104.8145846515985
 30
0.0
 10
63.380480975552
 20
-104.8832581542899
 30
0.0
 10
61.07103102034162
 20
-105.273054681045
 30
0.0
 10
58.62754625673618
 20
-106.1152377064269
 30
0.0
 10
57.32202320137512
 20
-106.9619296124552
 30
0.0
 10
56.74999999999998
 20
-107.3329130375858
 30
0.0
  0
LINE
  5
16B
330
23
100
AcDbEntity
  8
0
  6
Continuous
 62
     7
370
    25
100
AcDbLine
 10
0.0
 20
-484.4272048014
 30
0.0
 11
9.5
 21
-484.4272048014
 31
0.0
  0
LINE
  5
16C
330
23
100
AcDbEntity
  8
0
  6
Continuous
 62
     7
370
    25
100
AcDbLine
 10
9.5
 20
-431.4272048014
 30
0.0
 11
0.0
 21
-431.4272048014
 31
0.0
  0
LINE
  5
16D
330
23
100
AcDbEntity
  8
0
  6
Continuous
 62
     7
370
    25
100
AcDbLine
 10
0.0
 20
110.5727951986
 30
0.0
 11
9.5
 21
110.5727951986
 31
0.0
  0
LINE
  5
16E
330
23
100
AcDbEntity
  8
0
  6
Continuous
 62
     7
370
    25
100
AcDbLine
 10
9.5
 20
163.5727951986
 30
0.0
 11
0.0
 21
163.5727951986
 31
0.0
  0
LINE
  5
16F
330
23
100
AcDbEntity
  8
0
  6
Continuous
 62
     7
370
    25
100
AcDbLine
 10
55.0
 20
-467.9272048014
 30
0.0
 11
55.0
 21
-507.9272048014
 31
0.0
  0
LINE
  5
170
330
23
100
AcDbEntity
  8
0
  6
Continuous
 62
     7
370
    25
100
AcDbLine
 10
55.0
 20
127.0727951986
 30
0.0
 11
55.0
 21
-107.595739385
 31
0.0
  0
LINE
  5
171
330
23
100
AcDbEntity
  8
0
  6
Continuous
 62
     7
370
    25
100
AcDbLine
 10
55.0
 20
-135.0911935547
 30
0.0
 11
55.0
 21
-447.9272048014
 31
0.0
  0
LINE
  5
172
330
23
100
AcDbEntity
  8
0
  6
Continuous
 62
     7
370
    25
100
AcDbLine
 10
55.0
 20
187.0727951986
 30
0.0
 11
55.0
 21
147.0727951986
 31
0.0
  0
LINE
  5
173
330
23
100
AcDbEntity
  8
0
  6
Continuous
 62
     7
370
    25
100
AcDbLine
 10
75.0
 20
-507.9272048014
 30
0.0
 11
75.0
 21
-135.0911935547
 31
0.0
  0
LINE
  5
174
330
23
100
AcDbEntity
  8
0
  6
Continuous
 62
     7
370
    25
100
AcDbLine
 10
75.0
 20
-107.595739385
 30
0.0
 11
75.0
 21
187.0727951986
 31
0.0
  0
LINE
  5
175
330
23
100
AcDbEntity
  8
0
  6
Continuous
 62
     7
370
    25
100
AcDbLine
 10
9.5
 20
-467.9272048014
 30
0.0
 11
55.0
 21
-467.9272048014
 31
0.0
  0
LINE
  5
176
330
23
100
AcDbEntity
  8
0
  6
Continuous
 62
     7
370
    25
100
AcDbLine
 10
55.0
 20
-447.9272048014
 30
0.0
 11
9.5
 21
-447.9272048014
 31
0.0
  0
LINE
  5
177
330
23
100
AcDbEntity
  8
0
  6
Continuous
 62
     7
370
    25
100
AcDbLine
 10
9.5
 20
127.0727951986
 30
0.0
 11
55.0
 21
127.0727951986
 31
0.0
  0
LINE
  5
178
330
23
100
AcDbEntity
  8
0
  6
Continuous
 62
     7
370
    25
100
AcDbLine
 10
55.0
 20
147.0727951986
 30
0.0
 11
9.5
 21
147.0727951986
 31
0.0
  0
LINE
  5
179
330
23
100
AcDbEntity
  8
0
  6
Continuous
 62
     7
370
    25
100
AcDbLine
 10
73.25
 20
-136.207432966
 30
0.0
 11
73.25
 21
-106.4794999736
 31
0.0
  0
LINE
  5
17A
330
23
100
AcDbEntity
  8
0
  6
Continuous
 62
     7
370
    25
100
AcDbLine
 10
56.75
 20
-106.4794999736
 30
0.0
 11
56.75
 21
-136.207432966
 31
0.0
  0
LINE
  5
17B
330
23
100
AcDbEntity
  8
0
  6
Continuous
 62
     7
370
    25
100
AcDbLine
 10
9.5
 20
-484.4272048014
 30
0.0
 11
9.5
 21
-431.4272048014
 31
0.0
  0
LINE
  5
17C
330
23
100
AcDbEntity
  8
0
  6
Continuous
 62
     7
370
    25
100
AcDbLine
 10
0.0
 20
-484.4272048014
 30
0.0
 11
0.0
 21
-431.4272048014
 31
0.0
  0
LINE
  5
17D
330
23
100
AcDbEntity
  8
0
  6
Continuous
 62
     7
370
    25
100
AcDbLine
 10
9.5
 20
110.5727951986
 30
0.0
 11
9.5
 21
163.5727951986
 31
0.0
  0
LINE
  5
17E
330
23
100
AcDbEntity
  8
0
  6
Continuous
 62
     7
370
    25
100
AcDbLine
 10
0.0
 20
110.5727951986
 30
0.0
 11
0.0
 21
163.5727951986
 31
0.0
  0
LINE
  5
17F
330
23
100
AcDbEntity
  8
0
  6
Continuous
 62
     7
370
    25
100
AcDbLine
 10
55.0
 20
127.0727951986
 30
0.0
 11
65.0
 21
137.0727951986
 31
0.0
  0
LINE
  5
180
330
23
100
AcDbEntity
  8
0
  6
Continuous
 62
     7
370
    25
100
AcDbLine
 10
65.0
 20
137.0727951986
 30
0.0
 11
55.0
 21
147.0727951986
 31
0.0
  0
LINE
  5
181
330
23
100
AcDbEntity
  8
0
  6
Continuous
 62
     7
370
    25
100
AcDbLine
 10
65.0
 20
-457.9272048014
 30
0.0
 11
55.0
 21
-447.9272048014
 31
0.0
  0
LINE
  5
182
330
23
100
AcDbEntity
  8
0
  6
Continuous
 62
     7
370
    25
100
AcDbLine
 10
55.0
 20
-467.9272048014
 30
0.0
 11
65.0
 21
-457.9272048014
 31
0.0
  0
LINE
  5
183
330
23
100
AcDbEntity
  8
0
  6
Continuous
 62
     7
370
    25
100
AcDbLine
 10
55.0
 20
-507.9272048014
 30
0.0
 11
75.0
 21
-507.9272048014
 31
0.0
  0
LINE
  5
184
330
23
100
AcDbEntity
  8
0
  6
Continuous
 62
     7
370
    25
100
AcDbLine
 10
55.0
 20
187.0727951986
 30
0.0
 11
75.0
 21
187.0727951986
 31
0.0
  0
ARC
  5
185
330
23
100
AcDbEntity
  8
0
  6
Continuous
 62
     7
370
    25
100
AcDbCircle
 10
65.0
 20
-121.3434664698
 30
0.0
 40
17.0
100
AcDbArc
 50
299.0317439919
 51
60.9682560081
  0
ARC
  5
186
330
23
100
AcDbEntity
  8
0
  6
Continuous
 62
     7
370
    25
100
AcDbCircle
 10
65.0
 20
-121.3434664698
 30
0.0
 40
17.0
100
AcDbArc
 50
119.0317439919
 51
240.9682560081
  0
VIEWPORT
  5
3C4
330
23
100
AcDbEntity
  8
0
100
AcDbViewport
 10
0.0
 20
0.0
 30
0.0
 40
205.6
 41
156.0
 68
     1
 69
     1
 12
-35.0021430454
 22
-160.4272048014
 13
0.0
 23
0.0
 14
10.0
 24
10.0
 15
10.0
 25
10.0
 16
0.0
 26
0.0
 36
1.0
 17
0.0
 27
0.0
 37
0.0
 42
50.0
 43
0.0
 44
0.0
 45
708.9
 50
0.0
 51
0.0
 72
   100
 90
   557152
  1

281
     0
 71
     1
 74
     0
110
0.0
120
0.0
130
0.0
111
1.0
121
0.0
131
0.0
112
0.0
122
1.0
132
0.0
 79
     0
146
0.0
  0
ENDBLK
  5
25
330
23
100
AcDbEntity
  8
0
100
AcDbBlockEnd
  0
BLOCK
  5
189
330
187
100
AcDbEntity
  8
0
100
AcDbBlockBegin
  2
*Paper_Space1
 70
     0
 10
0.0
 20
0.0
 30
0.0
  3
*Paper_Space1
  1

  0
SPLINE
  5
19B
330
187
100
AcDbEntity
  8
0
  6
Continuous
 62
     7
370
    25
100
AcDbSpline
210
0.0
220
0.0
230
1.0
 70
     8
 71
     3
 72
     9
 73
     5
 74
     0
 42
0.000000001
 43
0.00000001
 40
0.0
 40
0.0
 40
0.0
 40
0.0
 40
0.8465212673906327
 40
1.0
 40
1.0
 40
1.0
 40
1.0
 10
-75.29213390930869
 20
-134.8707508479278
 30
0.0
 10
-75.45321905145705
 20
-134.7470168168444
 30
0.0
 10
-75.64350977226182
 20
-134.600849158866
 30
0.0
 10
-75.55661128514907
 20
-134.6682196416087
 30
0.0
 10
-75.54327421548132
 20
-134.6785595779152
 30
0.0
  0
SPLINE
  5
19C
330
187
100
AcDbEntity
  8
0
  6
Continuous
 62
     7
370
    25
100
AcDbSpline
210
0.0
220
0.0
230
1.0
 70
     8
 71
     3
 72
     9
 73
     5
 74
     0
 42
0.000000001
 43
0.00000001
 40
0.0
 40
0.0
 40
0.0
 40
0.0
 40
0.1327135406637374
 40
1.0
 40
1.0
 40
1.0
 40
1.0
 10
-54.46617372554479
 20
-134.6860460603602
 30
0.0
 10
-54.45064670422117
 20
-134.6739800681244
 30
0.0
 10
-54.33365019244126
 20
-134.5830625010433
 30
0.0
 10
-54.63463249479493
 20
-134.8140473249316
 30
0.0
 10
-54.89567037012613
 20
-135.014377335002
 30
0.0
  0
CIRCLE
  5
1A9
330
187
100
AcDbEntity
  8
0
  6
Continuous
 62
     7
370
    25
100
AcDbCircle
 10
-65.0
 20
-121.3434664698
 30
0.0
 40
16.80000000000005
  0
CIRCLE
  5
1AA
330
187
100
AcDbEntity
  8
0
  6
Continuous
 62
     7
370
    25
100
AcDbCircle
 10
-65.0
 20
-121.3434664698
 30
0.0
 40
17.0
  0
LINE
  5
1AC
330
187
100
AcDbEntity
  8
0
  6
Continuous
 62
     7
370
    25
100
AcDbLine
 10
0.0
 20
163.5727951986
 30
0.0
 11
-9.5
 21
163.5727951986
 31
0.0
  0
LINE
  5
1AD
330
187
100
AcDbEntity
  8
0
  6
Continuous
 62
     7
370
    25
100
AcDbLine
 10
-9.5
 20
110.5727951986
 30
0.0
 11
0.0
 21
110.5727951986
 31
0.0
  0
LINE
  5
1AE
330
187
100
AcDbEntity
  8
0
  6
Continuous
 62
     7
370
    25
100
AcDbLine
 10
0.0
 20
-431.4272048014
 30
0.0
 11
-9.5
 21
-431.4272048014
 31
0.0
  0
LINE
  5
1AF
330
187
100
AcDbEntity
  8
0
  6
Continuous
 62
     7
370
    25
100
AcDbLine
 10
-9.5
 20
-484.4272048014
 30
0.0
 11
0.0
 21
-484.4272048014
 31
0.0
  0
LINE
  5
1B0
330
187
100
AcDbEntity
  8
0
  6
Continuous
 62
     7
370
    25
100
AcDbLine
 10
-9.5
 20
147.0727951986
 30
0.0
 11
-55.0
 21
147.0727951986
 31
0.0
  0
LINE
  5
1B1
330
187
100
AcDbEntity
  8
0
  6
Continuous
 62
     7
370
    25
100
AcDbLine
 10
-55.0
 20
127.0727951986
 30
0.0
 11
-9.5
 21
127.0727951986
 31
0.0
  0
LINE
  5
1B2
330
187
100
AcDbEntity
  8
0
  6
Continuous
 62
     7
370
    25
100
AcDbLine
 10
-75.0
 20
187.0727951986
 30
0.0
 11
-75.0
 21
-107.595739385
 31
0.0
  0
LINE
  5
1B3
330
187
100
AcDbEntity
  8
0
  6
Continuous
 62
     7
370
    25
100
AcDbLine
 10
-75.0
 20
-135.0911935547
 30
0.0
 11
-75.0
 21
-507.9272048014
 31
0.0
  0
LINE
  5
1B4
330
187
100
AcDbEntity
  8
0
  6
Continuous
 62
     7
370
    25
100
AcDbLine
 10
-55.0
 20
147.0727951986
 30
0.0
 11
-55.0
 21
187.0727951986
 31
0.0
  0
LINE
  5
1B5
330
187
100
AcDbEntity
  8
0
  6
Continuous
 62
     7
370
    25
100
AcDbLine
 10
-55.0
 20
-447.9272048014
 30
0.0
 11
-55.0
 21
-135.0911935547
 31
0.0
  0
LINE
  5
1B6
330
187
100
AcDbEntity
  8
0
  6
Continuous
 62
     7
370
    25
100
AcDbLine
 10
-55.0
 20
-107.595739385
 30
0.0
 11
-55.0
 21
127.0727951986
 31
0.0
  0
LINE
  5
1B7
330
187
100
AcDbEntity
  8
0
  6
Continuous
 62
     7
370
    25
100
AcDbLine
 10
-55.0
 20
-507.9272048014
 30
0.0
 11
-55.0
 21
-467.9272048014
 31
0.0
  0
LINE
  5
1B8
330
187
100
AcDbEntity
  8
0
  6
Continuous
 62
     7
370
    25
100
AcDbLine
 10
-9.5
 20
-447.9272048014
 30
0.0
 11
-55.0
 21
-447.9272048014
 31
0.0
  0
LINE
  5
1B9
330
187
100
AcDbEntity
  8
0
  6
Continuous
 62
     7
370
    25
100
AcDbLine
 10
-55.0
 20
-467.9272048014
 30
0.0
 11
-9.5
 21
-467.9272048014
 31
0.0
  0
LINE
  5
1BA
330
187
100
AcDbEntity
  8
0
  6
Continuous
 62
     7
370
    25
100
AcDbLine
 10
-68.0
 20
-138.0766670005
 30
0.0
 11
-68.0
 21
-153.8434664698
 31
0.0
  0
LINE
  5
1BB
330
187
100
AcDbEntity
  8
0
  6
Continuous
 62
     7
370
    25
100
AcDbLine
 10
-62.0
 20
-153.8434664698
 30
0.0
 11
-62.0
 21
-138.0835168823
 31
0.0
  0
LINE
  5
1BC
330
187
100
AcDbEntity
  8
0
  6
Continuous
 62
     7
370
    25
100
AcDbLine
 10
0.0
 20
163.5727951986
 30
0.0
 11
0.0
 21
110.5727951986
 31
0.0
  0
LINE
  5
1BD
330
187
100
AcDbEntity
  8
0
  6
Continuous
 62
     7
370
    25
100
AcDbLine
 10
-9.5
 20
163.5727951986
 30
0.0
 11
-9.5
 21
110.5727951986
 31
0.0
  0
LINE
  5
1BE
330
187
100
AcDbEntity
  8
0
  6
Continuous
 62
     7
370
    25
100
AcDbLine
 10
-9.5
 20
-431.4272048014
 30
0.0
 11
-9.5
 21
-484.4272048014
 31
0.0
  0
LINE
  5
1BF
330
187
100
AcDbEntity
  8
0
  6
Continuous
 62
     7
370
    25
100
AcDbLine
 10
0.0
 20
-431.4272048014
 30
0.0
 11
0.0
 21
-484.4272048014
 31
0.0
  0
LINE
  5
1C0
330
187
100
AcDbEntity
  8
0
  6
Continuous
 62
     7
370
    25
100
AcDbLine
 10
-65.0
 20
137.0727951986
 30
0.0
 11
-55.0
 21
127.0727951986
 31
0.0
  0
LINE
  5
1C1
330
187
100
AcDbEntity
  8
0
  6
Continuous
 62
     7
370
    25
100
AcDbLine
 10
-55.0
 20
147.0727951986
 30
0.0
 11
-65.0
 21
137.0727951986
 31
0.0
  0
LINE
  5
1C2
330
187
100
AcDbEntity
  8
0
  6
Continuous
 62
     7
370
    25
100
AcDbLine
 10
-55.0
 20
-447.9272048014
 30
0.0
 11
-65.0
 21
-457.9272048014
 31
0.0
  0
LINE
  5
1C3
330
187
100
AcDbEntity
  8
0
  6
Continuous
 62
     7
370
    25
100
AcDbLine
 10
-65.0
 20
-457.9272048014
 30
0.0
 11
-55.0
 21
-467.9272048014
 31
0.0
  0
LINE
  5
1C4
330
187
100
AcDbEntity
  8
0
  6
Continuous
 62
     7
370
    25
100
AcDbLine
 10
-75.0
 20
-507.9272048014
 30
0.0
 11
-55.0
 21
-507.9272048014
 31
0.0
  0
LINE
  5
1C5
330
187
100
AcDbEntity
  8
0
  6
Continuous
 62
     7
370
    25
100
AcDbLine
 10
-75.0
 20
187.0727951986
 30
0.0
 11
-55.0
 21
187.0727951986
 31
0.0
  0
LINE
  5
1C6
330
187
100
AcDbEntity
  8
0
  6
Continuous
 62
     7
370
    25
100
AcDbLine
 10
-68.0
 20
-153.8434664698
 30
0.0
 11
-62.0
 21
-153.8434664698
 31
0.0
  0
VIEWPORT
  5
3C6
330
187
100
AcDbEntity
  8
0
100
AcDbViewport
 10
0.0
 20
0.0
 30
0.0
 40
205.6
 41
156.0
 68
     1
 69
     1
 12
-35.0021430454
 22
-160.4272048014
 13
0.0
 23
0.0
 14
10.0
 24
10.0
 15
10.0
 25
10.0
 16
0.0
 26
0.0
 36
1.0
 17
0.0
 27
0.0
 37
0.0
 42
50.0
 43
0.0
 44
0.0
 45
708.9
 50
0.0
 51
0.0
 72
   100
 90
   557152
  1

281
     0
 71
     1
 74
     0
110
0.0
120
0.0
130
0.0
111
1.0
121
0.0
131
0.0
112
0.0
122
1.0
132
0.0
 79
     0
146
0.0
  0
ENDBLK
  5
18A
330
187
100
AcDbEntity
  8
0
100
AcDbBlockEnd
  0
BLOCK
  5
1C9
330
1C7
100
AcDbEntity
  8
0
100
AcDbBlockBegin
  2
*Paper_Space2
 70
     0
 10
0.0
 20
0.0
 30
0.0
  3
*Paper_Space2
  1

  0
SPLINE
  5
1E0
330
1C7
100
AcDbEntity
  8
0
  6
Continuous
 62
     7
370
    25
100
AcDbSpline
210
0.0
220
0.0
230
1.0
 70
     8
 71
     3
 72
    80
 73
    76
 74
     0
 42
0.000000001
 43
0.00000001
 40
0.0
 40
0.0
 40
0.0
 40
0.0
 40
0.0312499999999981
 40
0.0312499999999981
 40
0.0624999999999962
 40
0.0624999999999962
 40
0.0781249999999958
 40
0.0781249999999958
 40
0.0937499999999955
 40
0.0937499999999955
 40
0.1249999999999947
 40
0.1249999999999947
 40
0.1406249999999947
 40
0.1406249999999947
 40
0.1562499999999947
 40
0.1562499999999947
 40
0.1874999999999948
 40
0.1874999999999948
 40
0.2187499999999948
 40
0.2187499999999948
 40
0.2499999999999948
 40
0.2499999999999948
 40
0.2812499999999949
 40
0.2812499999999949
 40
0.3124999999999949
 40
0.3124999999999949
 40
0.3749999999999943
 40
0.3749999999999943
 40
0.3906249999999947
 40
0.3906249999999947
 40
0.406249999999995
 40
0.406249999999995
 40
0.4374999999999952
 40
0.4374999999999952
 40
0.4531249999999952
 40
0.4531249999999952
 40
0.4687499999999952
 40
0.4687499999999952
 40
0.4999999999999951
 40
0.4999999999999951
 40
0.5312499999999951
 40
0.5312499999999951
 40
0.5624999999999951
 40
0.5624999999999951
 40
0.5937499999999953
 40
0.5937499999999953
 40
0.6249999999999957
 40
0.6249999999999957
 40
0.656249999999996
 40
0.656249999999996
 40
0.6874999999999967
 40
0.6874999999999967
 40
0.7187499999999973
 40
0.7187499999999973
 40
0.7499999999999979
 40
0.7499999999999979
 40
0.7812499999999986
 40
0.7812499999999986
 40
0.796874999999999
 40
0.796874999999999
 40
0.8124999999999993
 40
0.8124999999999993
 40
0.843749999999999
 40
0.843749999999999
 40
0.8749999999999987
 40
0.8749999999999987
 40
0.9062499999999983
 40
0.9062499999999983
 40
0.9218749999999986
 40
0.9218749999999986
 40
0.9374999999999988
 40
0.9374999999999988
 40
0.9687499999999993
 40
0.9687499999999993
 40
1.0
 40
1.0
 40
1.0
 40
1.0
 10
-77.07323171096904
 20
-73.24999999999999
 30
0.0
 10
-76.69831358683251
 20
-73.55336909468062
 30
0.0
 10
-76.30317454408306
 20
-73.83039232177576
 30
0.0
 10
-75.48111421857512
 20
-74.32649992600234
 30
0.0
 10
-75.05263921264226
 20
-74.54688530689678
 30
0.0
 10
-74.38039997517573
 20
-74.83487260719261
 30
0.0
 10
-74.15137453701502
 20
-74.92373470493817
 30
0.0
 10
-73.68251858061414
 20
-75.08651981880986
 30
0.0
 10
-73.44205660047153
 20
-75.16052493621682
 30
0.0
 10
-72.7170245579473
 20
-75.35518689945924
 30
0.0
 10
-72.2247935530797
 20
-75.45024562806036
 30
0.0
 10
-71.47205236341804
 20
-75.53924065554118
 30
0.0
 10
-71.21873348563987
 20
-75.55993530444874
 30
0.0
 10
-70.70702965061439
 20
-75.58263536374722
 30
0.0
 10
-70.45009768965362
 20
-75.58447887043941
 30
0.0
 10
-69.68761297493546
 20
-75.56201066517
 30
0.0
 10
-69.1857546545634
 20
-75.51009785776667
 30
0.0
 10
-68.19423684899887
 20
-75.33465343752653
 30
0.0
 10
-67.70189831934367
 20
-75.20970172270744
 30
0.0
 10
-66.76016574869821
 20
-74.89799751660252
 30
0.0
 10
-66.3068323084499
 20
-74.71096638818535
 30
0.0
 10
-65.43126932530085
 20
-74.27649844954196
 30
0.0
 10
-65.00944613683028
 20
-74.02874361942312
 30
0.0
 10
-64.21110020030613
 20
-73.48280471618578
 30
0.0
 10
-63.83026510616369
 20
-73.18154529628305
 30
0.0
 10
-62.76607381147586
 20
-72.21521319626221
 30
0.0
 10
-62.15238786753469
 20
-71.48601609418364
 30
0.0
 10
-61.50315956433816
 20
-70.45378053659658
 30
0.0
 10
-61.37935285205898
 20
-70.24096861196162
 30
0.0
 10
-61.14809564056021
 20
-69.80967029925309
 30
0.0
 10
-61.04008379272847
 20
-69.59034151529553
 30
0.0
 10
-60.73877536744717
 20
-68.92115835984355
 30
0.0
 10
-60.56807217292727
 20
-68.46016560865257
 30
0.0
 10
-60.35913817446799
 20
-67.74475939137965
 30
0.0
 10
-60.29737925814029
 20
-67.50229068716594
 30
0.0
 10
-60.19038180911235
 20
-67.00888944672623
 30
0.0
 10
-60.14519726503846
 20
-66.75755437674026
 30
0.0
 10
-60.03774671903284
 20
-66.00633647077969
 30
0.0
 10
-60.00216956801885
 20
-65.504136360823
 30
0.0
 10
-60.00211655228948
 20
-64.49698433242754
 30
0.0
 10
-60.03795948389354
 20
-63.98984120007201
 30
0.0
 10
-60.18277658591176
 20
-62.98208466725843
 30
0.0
 10
-60.28994899818431
 20
-62.49155918124894
 30
0.0
 10
-60.56960611088556
 20
-61.53517682096617
 30
0.0
 10
-60.74273293048486
 20
-61.06796513347522
 30
0.0
 10
-61.15193499695919
 20
-60.16341256909746
 30
0.0
 10
-61.38437768145936
 20
-59.73347668187137
 30
0.0
 10
-61.90188922491623
 20
-58.91392535922668
 30
0.0
 10
-62.18696639646248
 20
-58.5243300470036
 30
0.0
 10
-62.81087345845337
 20
-57.78389348063865
 30
0.0
 10
-63.14459579211819
 20
-57.43924011380263
 30
0.0
 10
-63.85245178876863
 20
-56.80026362785205
 30
0.0
 10
-64.22706286221603
 20
-56.50536732814155
 30
0.0
 10
-65.02117114744658
 20
-55.96418285016362
 30
0.0
 10
-65.44296231186688
 20
-55.71718444774945
 30
0.0
 10
-66.3131548320171
 20
-55.28642191200127
 30
0.0
 10
-66.7637954850076
 20
-55.10075077183695
 30
0.0
 10
-67.46609110470592
 20
-54.86837337273648
 30
0.0
 10
-67.7045985757009
 20
-54.79864045382585
 30
0.0
 10
-68.19121161022676
 20
-54.67541144499883
 30
0.0
 10
-68.43885324945768
 20
-54.62214529456622
 30
0.0
 10
-69.18242770138858
 20
-54.49032754784297
 30
0.0
 10
-69.68350897897236
 20
-54.43839060546146
 30
0.0
 10
-70.69693951901839
 20
-54.40797022381561
 30
0.0
 10
-71.21293057893021
 20
-54.43054929657317
 30
0.0
 10
-72.21586162537507
 20
-54.54828019464243
 30
0.0
 10
-72.70735015237929
 20
-54.64277241268463
 30
0.0
 10
-73.43080419658212
 20
-54.83618473716962
 30
0.0
 10
-73.67058859109392
 20
-54.90965955709468
 30
0.0
 10
-74.1397596958575
 20
-55.07192697667827
 30
0.0
 10
-74.36933456657499
 20
-55.16067555938906
 30
0.0
 10
-75.04418064646073
 20
-55.44893305856006
 30
0.0
 10
-75.47566183964335
 20
-55.67030863868743
 30
0.0
 10
-76.30548776412917
 20
-56.17090502726353
 30
0.0
 10
-76.70156075397502
 20
-56.44925838607552
 30
0.0
 10
-77.07323171096904
 20
-56.75
 30
0.0
  0
SPLINE
  5
1E1
330
1C7
100
AcDbEntity
  8
0
  6
Continuous
 62
     7
370
    25
100
AcDbSpline
210
0.0
220
0.0
230
1.0
 70
    24
 71
     3
 72
     8
 73
     4
 74
     0
 42
0.000000001
 43
0.00000001
 40
0.0
 40
0.0
 40
0.0
 40
0.0
 40
1.0
 40
1.0
 40
1.0
 40
1.0
 10
-77.07323171096901
 20
-56.74999999999998
 30
0.0
 10
-77.41482627672808
 20
-56.74999999999998
 30
0.0
 10
-77.74046356815178
 20
-56.74999999999998
 30
0.0
 10
-78.05564879710984
 20
-56.74999999999998
 30
0.0
  0
SPLINE
  5
1E2
330
1C7
100
AcDbEntity
  8
0
  6
Continuous
 62
     7
370
    25
100
AcDbSpline
210
0.0
220
0.0
230
1.0
 70
     8
 71
     3
 72
    78
 73
    74
 74
     0
 42
0.000000001
 43
0.00000001
 40
0.0
 40
0.0
 40
0.0
 40
0.0
 40
0.0312500000000015
 40
0.0312500000000015
 40
0.0625000000000031
 40
0.0625000000000031
 40
0.0937500000000046
 40
0.0937500000000046
 40
0.1250000000000062
 40
0.1250000000000062
 40
0.1562500000000077
 40
0.1562500000000077
 40
0.1718750000000081
 40
0.1718750000000081
 40
0.1875000000000085
 40
0.1875000000000085
 40
0.2031250000000089
 40
0.2031250000000089
 40
0.2187500000000093
 40
0.2187500000000093
 40
0.2500000000000093
 40
0.2500000000000093
 40
0.2812500000000094
 40
0.2812500000000094
 40
0.3125000000000094
 40
0.3125000000000094
 40
0.3437500000000095
 40
0.3437500000000095
 40
0.3750000000000095
 40
0.3750000000000095
 40
0.4062500000000095
 40
0.4062500000000095
 40
0.4375000000000096
 40
0.4375000000000096
 40
0.4687500000000097
 40
0.4687500000000097
 40
0.5000000000000097
 40
0.5000000000000097
 40
0.5625000000000099
 40
0.5625000000000099
 40
0.5937500000000098
 40
0.5937500000000098
 40
0.6250000000000097
 40
0.6250000000000097
 40
0.6406250000000095
 40
0.6406250000000095
 40
0.6562500000000094
 40
0.6562500000000094
 40
0.6875000000000089
 40
0.6875000000000089
 40
0.7187500000000083
 40
0.7187500000000083
 40
0.7500000000000077
 40
0.7500000000000077
 40
0.7656250000000077
 40
0.7656250000000077
 40
0.7812500000000077
 40
0.7812500000000077
 40
0.812500000000007
 40
0.812500000000007
 40
0.8437500000000063
 40
0.8437500000000063
 40
0.8750000000000057
 40
0.8750000000000057
 40
0.8906250000000049
 40
0.8906250000000049
 40
0.9062500000000041
 40
0.9062500000000041
 40
0.9375000000000028
 40
0.9375000000000028
 40
0.9687500000000014
 40
0.9687500000000014
 40
1.0
 40
1.0
 40
1.0
 40
1.0
 10
-78.05564879711518
 20
-73.2499999999952
 30
0.0
 10
-77.66789494660885
 20
-73.59834829405746
 30
0.0
 10
-77.25876047333776
 20
-73.91725349969396
 30
0.0
 10
-76.39407653201755
 20
-74.49942939517443
 30
0.0
 10
-75.93729574470554
 20
-74.76284496232945
 30
0.0
 10
-74.99101982378463
 20
-75.22303652878767
 30
0.0
 10
-74.49938656252985
 20
-75.42152665310351
 30
0.0
 10
-73.47156493274578
 20
-75.75244004093973
 30
0.0
 10
-72.92999473150812
 20
-75.88527419929964
 30
0.0
 10
-71.83590822001828
 20
-76.06858806158756
 30
0.0
 10
-71.28020055594642
 20
-76.12080549941216
 30
0.0
 10
-70.43231661379285
 20
-76.13665132921588
 30
0.0
 10
-70.14632802545583
 20
-76.13128749103991
 30
0.0
 10
-69.58349641067022
 20
-76.0997438765867
 30
0.0
 10
-69.30500554219762
 20
-76.07367249332283
 30
0.0
 10
-68.75352961625714
 20
-76.00172017884636
 30
0.0
 10
-68.4805444002806
 20
-75.95583811548185
 30
0.0
 10
-67.93977863325912
 20
-75.84463285563241
 30
0.0
 10
-67.67097694288557
 20
-75.77901124327698
 30
0.0
 10
-66.879212245539
 20
-75.55503700793129
 30
0.0
 10
-66.37670303057627
 20
-75.37192074466428
 30
0.0
 10
-65.41231846227099
 20
-74.94358184201677
 30
0.0
 10
-64.95050547674711
 20
-74.69829852189628
 30
0.0
 10
-64.06249853275588
 20
-74.14443494972787
 30
0.0
 10
-63.64189319732164
 20
-73.83903576195296
 30
0.0
 10
-62.85068291164821
 20
-73.177100266076
 30
0.0
 10
-62.478569628223
 20
-72.81961285886854
 30
0.0
 10
-61.7798607666443
 20
-72.04688691641346
 30
0.0
 10
-61.45315913632893
 20
-71.63048201289641
 30
0.0
 10
-60.86339237849428
 20
-70.75625150818735
 30
0.0
 10
-60.59789341544771
 20
-70.29606755062187
 30
0.0
 10
-60.12886121333622
 20
-69.32414383759071
 30
0.0
 10
-59.92541379312505
 20
-68.81011663105863
 30
0.0
 10
-59.59951014047235
 20
-67.76262554039509
 30
0.0
 10
-59.47468789634973
 20
-67.22508579076438
 30
0.0
 10
-59.30564062880148
 20
-66.12027909307012
 30
0.0
 10
-59.26200670143609
 20
-65.54810161554664
 30
0.0
 10
-59.26481971640261
 20
-63.84887847995598
 30
0.0
 10
-59.43662681428821
 20
-62.75437434091935
 30
0.0
 10
-59.93409631700322
 20
-61.16532626697376
 30
0.0
 10
-60.13602068658815
 20
-60.65945771497094
 30
0.0
 10
-60.6031281252299
 20
-59.69468987565957
 30
0.0
 10
-60.86867188959703
 20
-59.23482389786936
 30
0.0
 10
-61.31402790634674
 20
-58.57632657852719
 30
0.0
 10
-61.47041263894117
 20
-58.36215257494103
 30
0.0
 10
-61.79418457947165
 20
-57.95001424748099
 30
0.0
 10
-61.96212078955703
 20
-57.75120029687367
 30
0.0
 10
-62.48385518015802
 20
-57.17525281514914
 30
0.0
 10
-62.85542715304219
 20
-56.818490072595
 30
0.0
 10
-63.64845151409862
 20
-56.1559243771882
 30
0.0
 10
-64.07245145944421
 20
-55.84889190389544
 30
0.0
 10
-64.95515082610811
 20
-55.2992772176381
 30
0.0
 10
-65.4154609020985
 20
-55.0548367828386
 30
0.0
 10
-66.13902613190957
 20
-54.7337390791409
 30
0.0
 10
-66.38576557621448
 20
-54.63434317670569
 30
0.0
 10
-66.89163185234888
 20
-54.45142281707768
 30
0.0
 10
-67.15200307612706
 20
-54.36758638302789
 30
0.0
 10
-67.94167584986306
 20
-54.1448426104462
 30
0.0
 10
-68.48063630980883
 20
-54.03365066636761
 30
0.0
 10
-69.5873272891534
 20
-53.88972851499435
 30
0.0
 10
-70.15943615546394
 20
-53.85796903148769
 30
0.0
 10
-71.28186324609321
 20
-53.87950829792805
 30
0.0
 10
-71.8379899489777
 20
-53.93144211797993
 30
0.0
 10
-72.66493980142702
 20
-54.0704779976184
 30
0.0
 10
-72.93785621644437
 20
-54.12690442689258
 30
0.0
 10
-73.47039903158132
 20
-54.25713257500752
 30
0.0
 10
-73.73135650814906
 20
-54.33114802401438
 30
0.0
 10
-74.49984653535793
 20
-54.57872888653553
 30
0.0
 10
-74.99309882984798
 20
-54.77763514196354
 30
0.0
 10
-75.94695019131541
 20
-55.2421937631061
 30
0.0
 10
-76.3999030526126
 20
-55.50425724948465
 30
0.0
 10
-77.25999516428101
 20
-56.08381598760485
 30
0.0
 10
-77.66806407082414
 20
-56.40180364287875
 30
0.0
 10
-78.05564879710985
 20
-56.74999999999998
 30
0.0
  0
SPLINE
  5
1E3
330
1C7
100
AcDbEntity
  8
0
  6
Continuous
 62
     7
370
    25
100
AcDbSpline
210
0.0
220
0.0
230
1.0
 70
    24
 71
     3
 72
     8
 73
     4
 74
     0
 42
0.000000001
 43
0.00000001
 40
0.0
 40
0.0
 40
0.0
 40
0.0
 40
1.0
 40
1.0
 40
1.0
 40
1.0
 10
-77.07323171096904
 20
-73.24999999999999
 30
0.0
 10
-77.4148262767281
 20
-73.24999999999999
 30
0.0
 10
-77.74046356815181
 20
-73.24999999999999
 30
0.0
 10
-78.05564879710987
 20
-73.24999999999999
 30
0.0
  0
SPLINE
  5
1E4
330
1C7
100
AcDbEntity
  8
0
  6
Continuous
 62
     7
370
    25
100
AcDbSpline
210
0.0
220
0.0
230
1.0
 70
     8
 71
     3
 72
    78
 73
    74
 74
     0
 42
0.000000001
 43
0.00000001
 40
0.0
 40
0.0
 40
0.0
 40
0.0
 40
0.0312500000000004
 40
0.0312500000000004
 40
0.0625000000000007
 40
0.0625000000000007
 40
0.0937500000000011
 40
0.0937500000000011
 40
0.1250000000000014
 40
0.1250000000000014
 40
0.1406250000000012
 40
0.1406250000000012
 40
0.1562500000000011
 40
0.1562500000000011
 40
0.1718750000000009
 40
0.1718750000000009
 40
0.1875000000000007
 40
0.1875000000000007
 40
0.2187500000000003
 40
0.2187500000000003
 40
0.25
 40
0.25
 40
0.2812500000000003
 40
0.2812500000000003
 40
0.3125000000000006
 40
0.3125000000000006
 40
0.3437500000000009
 40
0.3437500000000009
 40
0.3750000000000012
 40
0.3750000000000012
 40
0.4375000000000019
 40
0.4375000000000019
 40
0.5000000000000026
 40
0.5000000000000026
 40
0.531250000000003
 40
0.531250000000003
 40
0.5625000000000033
 40
0.5625000000000033
 40
0.5937500000000038
 40
0.5937500000000038
 40
0.6250000000000041
 40
0.6250000000000041
 40
0.6562500000000044
 40
0.6562500000000044
 40
0.6875000000000048
 40
0.6875000000000048
 40
0.7031250000000048
 40
0.7031250000000048
 40
0.7187500000000047
 40
0.7187500000000047
 40
0.7500000000000042
 40
0.7500000000000042
 40
0.7656250000000042
 40
0.7656250000000042
 40
0.7812500000000042
 40
0.7812500000000042
 40
0.8125000000000033
 40
0.8125000000000033
 40
0.8281250000000028
 40
0.8281250000000028
 40
0.8437500000000023
 40
0.8437500000000023
 40
0.8750000000000021
 40
0.8750000000000021
 40
0.8906250000000018
 40
0.8906250000000018
 40
0.9062500000000013
 40
0.9062500000000013
 40
0.937500000000001
 40
0.937500000000001
 40
0.9687500000000006
 40
0.9687500000000006
 40
1.0
 40
1.0
 40
1.0
 40
1.0
 10
-79.02370154433196
 20
-56.74999999999998
 30
0.0
 10
-78.63415768648984
 20
-56.33038105325314
 30
0.0
 10
-78.21924177887927
 20
-55.94409386681495
 30
0.0
 10
-77.34106465617647
 20
-55.23634498564964
 30
0.0
 10
-76.87722929278195
 20
-54.91420839507598
 30
0.0
 10
-75.89272239279113
 20
-54.33314218778588
 30
0.0
 10
-75.36975501504456
 20
-54.07396672523826
 30
0.0
 10
-74.28974021064353
 20
-53.63775757032339
 30
0.0
 10
-73.72927203850307
 20
-53.45824211940683
 30
0.0
 10
-72.8509443478298
 20
-53.25178625691595
 30
0.0
 10
-72.55016563612769
 20
-53.19333560079822
 30
0.0
 10
-71.94756059416041
 20
-53.10106964280535
 30
0.0
 10
-71.64485039691105
 20
-53.06691271689438
 30
0.0
 10
-71.03653928722846
 20
-53.02258979942064
 30
0.0
 10
-70.73093826340282
 20
-53.01242350827085
 30
0.0
 10
-70.11676188229727
 20
-53.01659094195838
 30
0.0
 10
-69.80624559221027
 20
-53.03113135291937
 30
0.0
 10
-68.88607675732523
 20
-53.11138481553525
 30
0.0
 10
-68.2901047766653
 20
-53.21242549571886
 30
0.0
 10
-67.12812228282343
 20
-53.50214205962675
 30
0.0
 10
-66.55999315019524
 20
-53.69263496180366
 30
0.0
 10
-65.48885648377819
 20
-54.14280016953821
 30
0.0
 10
-64.98004101666258
 20
-54.40353796093856
 30
0.0
 10
-64.00722889029521
 20
-54.99429860196967
 30
0.0
 10
-63.54037789439024
 20
-55.32704005782585
 30
0.0
 10
-62.66710997550329
 20
-56.05008959593373
 30
0.0
 10
-62.25965592618765
 20
-56.44025811659468
 30
0.0
 10
-61.49914326160181
 20
-57.28051480222992
 30
0.0
 10
-61.14498748128364
 20
-57.73224322763509
 30
0.0
 10
-60.1739830417734
 20
-59.17804587763998
 30
0.0
 10
-59.66479454807602
 20
-60.23043015480923
 30
0.0
 10
-58.94921315784747
 20
-62.54854533056719
 30
0.0
 10
-58.76512341058378
 20
-63.74434610019718
 30
0.0
 10
-58.76204001302341
 20
-65.5972016621547
 30
0.0
 10
-58.80869809449873
 20
-66.22068138315657
 30
0.0
 10
-58.99005746878685
 20
-67.4265448746597
 30
0.0
 10
-59.12417227700841
 20
-68.01407537390374
 30
0.0
 10
-59.47547178652677
 20
-69.16025231397778
 30
0.0
 10
-59.695089397815
 20
-69.72294678112706
 30
0.0
 10
-60.20237514882945
 20
-70.78687539490382
 30
0.0
 10
-60.4903194109377
 20
-71.29140234392852
 30
0.0
 10
-61.13239399483842
 20
-72.25052662173138
 30
0.0
 10
-61.48898432935067
 20
-72.70730275044566
 30
0.0
 10
-62.25204035449814
 20
-73.55226401814248
 30
0.0
 10
-62.65960908317938
 20
-73.94295141643694
 30
0.0
 10
-63.31210523808512
 20
-74.4843169745893
 30
0.0
 10
-63.5365037143594
 20
-74.65728808396662
 30
0.0
 10
-64.00003920916497
 20
-74.98828061235737
 30
0.0
 10
-64.23977087183799
 20
-75.14659236292124
 30
0.0
 10
-64.9728682336502
 20
-75.59273772712409
 30
0.0
 10
-65.48259507827329
 20
-75.85412327072285
 30
0.0
 10
-66.28406747230898
 20
-76.19161999601002
 30
0.0
 10
-66.55741176384188
 20
-76.29496698781934
 30
0.0
 10
-67.1179617481217
 20
-76.48249475444973
 30
0.0
 10
-67.40679852457822
 20
-76.56704845755884
 30
0.0
 10
-68.28265544904623
 20
-76.78628531409838
 30
0.0
 10
-68.87829553756998
 20
-76.8872679862109
 30
0.0
 10
-69.79153334598243
 20
-76.967909668699
 30
0.0
 10
-70.10016788464631
 20
-76.98292606177279
 30
0.0
 10
-70.72056449281605
 20
-76.98786074266937
 30
0.0
 10
-71.02794461060918
 20
-76.97781958008677
 30
0.0
 10
-71.94206851023951
 20
-76.91185652454891
 30
0.0
 10
-72.54081477563341
 20
-76.82033677381598
 30
0.0
 10
-73.42437795257587
 20
-76.61379876745917
 30
0.0
 10
-73.71434930893055
 20
-76.53374222509957
 30
0.0
 10
-74.2784569083486
 20
-76.3546760485445
 30
0.0
 10
-74.55387609588703
 20
-76.25537150786187
 30
0.0
 10
-75.3623041511034
 20
-75.92941317378124
 30
0.0
 10
-75.87763193791642
 20
-75.67493997301285
 30
0.0
 10
-76.86779533850608
 20
-75.09216382980513
 30
0.0
 10
-77.33708842059019
 20
-74.76669742274869
 30
0.0
 10
-78.21914798643782
 20
-74.05614313401284
 30
0.0
 10
-78.63395626425235
 20
-73.66983591997193
 30
0.0
 10
-79.02370154433194
 20
-73.25
 30
0.0
  0
SPLINE
  5
1E5
330
1C7
100
AcDbEntity
  8
0
  6
Continuous
 62
     7
370
    25
100
AcDbSpline
210
0.0
220
0.0
230
1.0
 70
    24
 71
     3
 72
    14
 73
    10
 74
     0
 42
0.000000001
 43
0.00000001
 40
0.0
 40
0.0
 40
0.0
 40
0.0
 40
0.25
 40
0.25
 40
0.5
 40
0.5
 40
0.75
 40
0.75
 40
1.0
 40
1.0
 40
1.0
 40
1.0
 10
-79.02370154433194
 20
-73.25
 30
0.0
 10
-78.9103553754383
 20
-73.24999999999999
 30
0.0
 10
-78.79919382860967
 20
-73.25
 30
0.0
 10
-78.59026238845763
 20
-73.24999999999997
 30
0.0
 10
-78.49225027698608
 20
-73.24999999999999
 30
0.0
 10
-78.31363807872606
 20
-73.25
 30
0.0
 10
-78.23505159092824
 20
-73.24999999999999
 30
0.0
 10
-78.10756002847049
 20
-73.25
 30
0.0
 10
-78.05936761253557
 20
-73.24999999999999
 30
0.0
 10
-78.0556487971103
 20
-73.24999999999999
 30
0.0
  0
SPLINE
  5
1E6
330
1C7
100
AcDbEntity
  8
0
  6
Continuous
 62
     7
370
    25
100
AcDbSpline
210
0.0
220
0.0
230
1.0
 70
    24
 71
     3
 72
    14
 73
    10
 74
     0
 42
0.000000001
 43
0.00000001
 40
0.0
 40
0.0
 40
0.0
 40
0.0
 40
0.25
 40
0.25
 40
0.5
 40
0.5
 40
0.75
 40
0.75
 40
1.0
 40
1.0
 40
1.0
 40
1.0
 10
-78.05564879710985
 20
-56.74999999999997
 30
0.0
 10
-78.05937630871603
 20
-56.74999999999996
 30
0.0
 10
-78.10751479925688
 20
-56.74999999999999
 30
0.0
 10
-78.23360765472492
 20
-56.74999999999996
 30
0.0
 10
-78.31422159475925
 20
-56.74999999999998
 30
0.0
 10
-78.49153019624107
 20
-56.74999999999999
 30
0.0
 10
-78.59101281739788
 20
-56.74999999999998
 30
0.0
 10
-78.79882744176781
 20
-56.74999999999999
 30
0.0
 10
-78.91033124022002
 20
-56.74999999999998
 30
0.0
 10
-79.02370154433196
 20
-56.74999999999998
 30
0.0
  0
SPLINE
  5
1EC
330
1C7
100
AcDbEntity
  8
0
  6
Continuous
 62
     7
370
    25
100
AcDbSpline
210
0.0
220
0.0
230
1.0
 70
     8
 71
     3
 72
    16
 73
    12
 74
     0
 42
0.000000001
 43
0.00000001
 40
0.0
 40
0.0
 40
0.0
 40
0.0
 40
0.0096080432536536
 40
0.1707900557523305
 40
0.2735648071118356
 40
0.3798299998822003
 40
0.5685410223021301
 40
0.7365619143549927
 40
0.9038616669712017
 40
0.9985344608651723
 40
1.0
 40
1.0
 40
1.0
 40
1.0
 10
-30.25214304540603
 20
-75.1
 30
0.0
 10
-30.19550089232698
 20
-75.0996926515025
 30
0.0
 10
-29.18864484194184
 20
-75.09422930525866
 30
0.0
 10
-27.57049007799911
 20
-74.82852603925645
 30
0.0
 10
-25.61177085745995
 20
-74.02877608592773
 30
0.0
 10
-23.72002961156229
 20
-72.83860876298887
 30
0.0
 10
-21.91338492975672
 20
-70.95735954240817
 30
0.0
 10
-20.52824867467972
 20
-68.25384429746558
 30
0.0
 10
-20.12310216776366
 20
-65.73470006090069
 30
0.0
 10
-20.12577622072362
 20
-64.15382443598895
 30
0.0
 10
-20.25024562553108
 20
-63.60608763052969
 30
0.0
 10
-20.25214304540604
 20
-63.59773789428302
 30
0.0
  0
SPLINE
  5
1ED
330
1C7
100
AcDbEntity
  8
0
  6
Continuous
 62
     7
370
    25
100
AcDbSpline
210
0.0
220
0.0
230
1.0
 70
     8
 71
     3
 72
    15
 73
    11
 74
     0
 42
0.000000001
 43
0.00000001
 40
0.0
 40
0.0
 40
0.0
 40
0.0
 40
0.0625751314537796
 40
0.1639439943594008
 40
0.269479754639694
 40
0.3783687786566465
 40
0.4910325159451215
 40
0.6836087553742992
 40
0.8459888684884321
 40
1.0
 40
1.0
 40
1.0
 40
1.0
 10
-40.22251453240905
 20
-64.26702017091951
 30
0.0
 10
-40.27866786175109
 20
-64.61844594815842
 30
0.0
 10
-40.42578702706542
 20
-65.53916547847149
 30
0.0
 10
-40.17116090070274
 20
-67.07281722133138
 30
0.0
 10
-39.68298717560111
 20
-68.77285407365963
 30
0.0
 10
-38.8596045994476
 20
-70.38443974471782
 30
0.0
 10
-37.50615912658363
 20
-72.17651832527747
 30
0.0
 10
-35.5332184282312
 20
-73.7594282871063
 30
0.0
 10
-32.93345898723761
 20
-74.89266465244378
 30
0.0
 10
-31.13001382814413
 20
-75.03211779298036
 30
0.0
 10
-30.25214304540603
 20
-75.1
 30
0.0
  0
SPLINE
  5
1EE
330
1C7
100
AcDbEntity
  8
0
  6
Continuous
 62
     7
370
    25
100
AcDbSpline
210
0.0
220
0.0
230
1.0
 70
     8
 71
     3
 72
    15
 73
    11
 74
     0
 42
0.000000001
 43
0.00000001
 40
0.0
 40
0.0
 40
0.0
 40
0.0
 40
0.1414205074811848
 40
0.2906757368468832
 40
0.4680892664632253
 40
0.5688977918341623
 40
0.6729815408177078
 40
0.7671896429840719
 40
0.8650371290129433
 40
1.0
 40
1.0
 40
1.0
 40
1.0
 10
-30.25214304540603
 20
-75.42261904761904
 30
0.0
 10
-31.14752678328653
 20
-75.35251593513367
 30
0.0
 10
-32.98789868128554
 20
-75.20842598495683
 30
0.0
 10
-35.64091184383839
 20
-74.03757750674492
 30
0.0
 10
-37.63656941062352
 20
-72.4153726835081
 30
0.0
 10
-39.02130066397297
 20
-70.57188581186576
 30
0.0
 10
-39.85115950774535
 20
-68.93146610909332
 30
0.0
 10
-40.37470322893023
 20
-67.16081215316464
 30
0.0
 10
-40.66113345056036
 20
-65.09573477069499
 30
0.0
 10
-40.40223151047871
 20
-63.64423945778695
 30
0.0
 10
-40.25214304540604
 20
-62.80279074749216
 30
0.0
  0
SPLINE
  5
1EF
330
1C7
100
AcDbEntity
  8
0
  6
Continuous
 62
     7
370
    25
100
AcDbSpline
210
0.0
220
0.0
230
1.0
 70
     8
 71
     3
 72
    15
 73
    11
 74
     0
 42
0.000000001
 43
0.00000001
 40
0.0
 40
0.0
 40
0.0
 40
0.0
 40
0.0465976588341508
 40
0.1406896191864046
 40
0.3007511986099037
 40
0.461046157988635
 40
0.6404228150405988
 40
0.7395526842879389
 40
0.8419498386954241
 40
1.0
 40
1.0
 40
1.0
 40
1.0
 10
-20.25214304540603
 20
-62.65445398735077
 30
0.0
 10
-20.18050823972802
 20
-62.93909112052921
 30
0.0
 10
-19.9642254095712
 20
-63.79847957211887
 30
0.0
 10
-19.89627991989114
 20
-65.73021911684425
 30
0.0
 10
-20.34189725434656
 20
-68.35532495367285
 30
0.0
 10
-21.74250098596677
 20
-71.1414543791104
 30
0.0
 10
-23.58177963987564
 20
-73.08283747740697
 30
0.0
 10
-25.52708238184535
 20
-74.31766538335764
 30
0.0
 10
-27.57969327930056
 20
-75.19375924843551
 30
0.0
 10
-29.24286308600844
 20
-75.33618763485416
 30
0.0
 10
-30.25214304540603
 20
-75.42261904761904
 30
0.0
  0
CIRCLE
  5
1F2
330
1C7
100
AcDbEntity
  8
0
  6
Continuous
 62
     7
370
    25
100
AcDbCircle
 10
-30.2521430454
 20
-65.0
 30
0.0
 40
10.0
  0
LINE
  5
1FC
330
1C7
100
AcDbEntity
  8
0
  6
Continuous
 62
     7
370
    25
100
AcDbLine
 10
-51.2021430454
 20
-48.0
 30
0.0
 11
-82.5021430454
 21
-48.0
 31
0.0
  0
LINE
  5
1FD
330
1C7
100
AcDbEntity
  8
0
  6
Continuous
 62
     7
370
    25
100
AcDbLine
 10
-82.5021430454
 20
-82.0
 30
0.0
 11
-51.2021430454
 21
-82.0
 31
0.0
  0
LINE
  5
1FE
330
1C7
100
AcDbEntity
  8
0
  6
Continuous
 62
     7
370
    25
100
AcDbLine
 10
-9.7021430454
 20
-48.0
 30
0.0
 11
-20.2521430454
 21
-48.0
 31
0.0
  0
LINE
  5
1FF
330
1C7
100
AcDbEntity
  8
0
  6
Continuous
 62
     7
370
    25
100
AcDbLine
 10
-40.2521430454
 20
-48.0
 30
0.0
 11
-50.8021430454
 21
-48.0
 31
0.0
  0
LINE
  5
200
330
1C7
100
AcDbEntity
  8
0
  6
Continuous
 62
     7
370
    25
100
AcDbLine
 10
-50.8021430454
 20
-82.0
 30
0.0
 11
-9.7021430454
 21
-82.0
 31
0.0
  0
LINE
  5
201
330
1C7
100
AcDbEntity
  8
0
  6
Continuous
 62
     7
370
    25
100
AcDbLine
 10
-56.7521430454
 20
0.0
 30
0.0
 11
-56.7521430454
 21
-9.5
 31
0.0
  0
LINE
  5
202
330
1C7
100
AcDbEntity
  8
0
  6
Continuous
 62
     7
370
    25
100
AcDbLine
 10
-3.7521430454
 20
-9.5
 30
0.0
 11
-3.7521430454
 21
0.0
 31
0.0
  0
LINE
  5
203
330
1C7
100
AcDbEntity
  8
0
  6
Continuous
 62
     7
370
    25
100
AcDbLine
 10
-40.2521430454
 20
-9.5
 30
0.0
 11
-40.2521430454
 21
-65.0
 31
0.0
  0
LINE
  5
204
330
1C7
100
AcDbEntity
  8
0
  6
Continuous
 62
     7
370
    25
100
AcDbLine
 10
-20.2521430454
 20
-65.0
 30
0.0
 11
-20.2521430454
 21
-9.5
 31
0.0
  0
LINE
  5
205
330
1C7
100
AcDbEntity
  8
0
  6
Continuous
 62
     7
370
    25
100
AcDbLine
 10
-9.3021430454
 20
-82.0
 30
0.0
 11
12.2978569546
 21
-82.0
 31
0.0
  0
LINE
  5
206
330
1C7
100
AcDbEntity
  8
0
  6
Continuous
 62
     7
370
    25
100
AcDbLine
 10
12.2978569546
 20
-48.0
 30
0.0
 11
-9.3021430454
 21
-48.0
 31
0.0
  0
LINE
  5
207
330
1C7
100
AcDbEntity
  8
0
  6
Continuous
 62
     7
370
    25
100
AcDbLine
 10
-82.5021430454
 20
-56.75
 30
0.0
 11
-82.5021430454
 21
-48.0
 31
0.0
  0
LINE
  5
208
330
1C7
100
AcDbEntity
  8
0
  6
Continuous
 62
     7
370
    25
100
AcDbLine
 10
-82.5021430454
 20
-82.0
 30
0.0
 11
-82.5021430454
 21
-73.25
 31
0.0
  0
LINE
  5
209
330
1C7
100
AcDbEntity
  8
0
  6
Continuous
 62
     7
370
    25
100
AcDbLine
 10
-79.0237015443
 20
-73.25
 30
0.0
 11
-82.5021430454
 21
-73.25
 31
0.0
  0
LINE
  5
20A
330
1C7
100
AcDbEntity
  8
0
  6
Continuous
 62
     7
370
    25
100
AcDbLine
 10
-82.5021430454
 20
-56.75
 30
0.0
 11
-79.0237015443
 21
-56.75
 31
0.0
  0
LINE
  5
20B
330
1C7
100
AcDbEntity
  8
0
  6
Continuous
 62
     7
370
    25
100
AcDbLine
 10
-51.0021430454
 20
-81.7999997676
 30
0.0
 11
-51.0021430454
 21
-48.2
 31
0.0
  0
LINE
  5
20C
330
1C7
100
AcDbEntity
  8
0
  6
Continuous
 62
     7
370
    25
100
AcDbLine
 10
-9.5021430454
 20
-81.7999997676
 30
0.0
 11
-9.5021430454
 21
-48.2
 31
0.0
  0
LINE
  5
20D
330
1C7
100
AcDbEntity
  8
0
  6
Continuous
 62
     7
370
    25
100
AcDbLine
 10
-56.7521430454
 20
-9.5
 30
0.0
 11
-3.7521430454
 21
-9.5
 31
0.0
  0
LINE
  5
20E
330
1C7
100
AcDbEntity
  8
0
  6
Continuous
 62
     7
370
    25
100
AcDbLine
 10
-56.7521430454
 20
0.0
 30
0.0
 11
-3.7521430454
 21
0.0
 31
0.0
  0
LINE
  5
20F
330
1C7
100
AcDbEntity
  8
0
  6
Continuous
 62
     7
370
    25
100
AcDbLine
 10
12.4978569546
 20
-48.2
 30
0.0
 11
12.4978569546
 21
-81.7999997676
 31
0.0
  0
LINE
  5
210
330
1C7
100
AcDbEntity
  8
0
  6
Continuous
 62
     8
370
    25
100
AcDbLine
 10
-51.2021430454
 20
-82.0
 30
0.0
 11
-51.2021430454
 21
-48.0
 31
0.0
  0
LINE
  5
211
330
1C7
100
AcDbEntity
  8
0
  6
Continuous
 62
     8
370
    25
100
AcDbLine
 10
-50.8021430454
 20
-48.0
 30
0.0
 11
-50.8021430454
 21
-82.0
 31
0.0
  0
LINE
  5
212
330
1C7
100
AcDbEntity
  8
0
  6
Continuous
 62
     8
370
    25
100
AcDbLine
 10
-9.7021430454
 20
-82.0
 30
0.0
 11
-9.7021430454
 21
-48.0
 31
0.0
  0
LINE
  5
213
330
1C7
100
AcDbEntity
  8
0
  6
Continuous
 62
     8
370
    25
100
AcDbLine
 10
-9.3021430454
 20
-48.0
 30
0.0
 11
-9.3021430454
 21
-82.0
 31
0.0
  0
LINE
  5
214
330
1C7
100
AcDbEntity
  8
0
  6
Continuous
 62
     8
370
    25
100
AcDbLine
 10
12.2978569546
 20
-82.0
 30
0.0
 11
12.2978569546
 21
-48.0
 31
0.0
  0
ARC
  5
215
330
1C7
100
AcDbEntity
  8
0
  6
Continuous
 62
     7
370
    25
100
AcDbCircle
 10
-51.2021430454
 20
-81.8
 30
0.0
 40
0.2000000000000028
100
AcDbArc
 50
270.0
 51
0.0
  0
ARC
  5
216
330
1C7
100
AcDbEntity
  8
0
  6
Continuous
 62
     7
370
    25
100
AcDbCircle
 10
-51.2021430454
 20
-48.2
 30
0.0
 40
0.2000000000000313
100
AcDbArc
 50
0.0
 51
90.0
  0
ARC
  5
217
330
1C7
100
AcDbEntity
  8
0
  6
Continuous
 62
     7
370
    25
100
AcDbCircle
 10
-50.8021430454
 20
-48.2
 30
0.0
 40
0.2000000000000171
100
AcDbArc
 50
90.0
 51
180.0
  0
ARC
  5
218
330
1C7
100
AcDbEntity
  8
0
  6
Continuous
 62
     7
370
    25
100
AcDbCircle
 10
-50.8021430454
 20
-81.8
 30
0.0
 40
0.2000000000000028
100
AcDbArc
 50
180.0
 51
270.0
  0
ARC
  5
219
330
1C7
100
AcDbEntity
  8
0
  6
Continuous
 62
     7
370
    25
100
AcDbCircle
 10
-9.7021430454
 20
-48.2
 30
0.0
 40
0.2000000000000171
100
AcDbArc
 50
0.0
 51
90.0
  0
ARC
  5
21A
330
1C7
100
AcDbEntity
  8
0
  6
Continuous
 62
     7
370
    25
100
AcDbCircle
 10
-9.7021430454
 20
-81.8
 30
0.0
 40
0.1999999999999886
100
AcDbArc
 50
270.0
 51
0.0
  0
ARC
  5
21B
330
1C7
100
AcDbEntity
  8
0
  6
Continuous
 62
     7
370
    25
100
AcDbCircle
 10
-9.3021430454
 20
-48.2
 30
0.0
 40
0.2000000000000028
100
AcDbArc
 50
90.0
 51
180.0
  0
ARC
  5
21C
330
1C7
100
AcDbEntity
  8
0
  6
Continuous
 62
     7
370
    25
100
AcDbCircle
 10
-9.3021430454
 20
-81.8
 30
0.0
 40
0.2000000000000028
100
AcDbArc
 50
180.0
 51
270.0
  0
ARC
  5
21D
330
1C7
100
AcDbEntity
  8
0
  6
Continuous
 62
     7
370
    25
100
AcDbCircle
 10
12.2978569546
 20
-48.2
 30
0.0
 40
0.1999999999999886
100
AcDbArc
 50
360.0
 51
90.0
  0
ARC
  5
21E
330
1C7
100
AcDbEntity
  8
0
  6
Continuous
 62
     7
370
    25
100
AcDbCircle
 10
12.2978569546
 20
-81.8
 30
0.0
 40
0.1999999999999886
100
AcDbArc
 50
270.0
 51
0.0
  0
VIEWPORT
  5
3C8
330
1C7
100
AcDbEntity
  8
0
100
AcDbViewport
 10
0.0
 20
0.0
 30
0.0
 40
205.6
 41
156.0
 68
     1
 69
     1
 12
-35.0021430454
 22
-160.4272048014
 13
0.0
 23
0.0
 14
10.0
 24
10.0
 15
10.0
 25
10.0
 16
0.0
 26
0.0
 36
1.0
 17
0.0
 27
0.0
 37
0.0
 42
50.0
 43
0.0
 44
0.0
 45
708.9
 50
0.0
 51
0.0
 72
   100
 90
   557152
  1

281
     0
 71
     1
 74
     0
110
0.0
120
0.0
130
0.0
111
1.0
121
0.0
131
0.0
112
0.0
122
1.0
132
0.0
 79
     0
146
0.0
  0
ENDBLK
  5
1CA
330
1C7
100
AcDbEntity
  8
0
100
AcDbBlockEnd
  0
BLOCK
  5
221
330
21F
100
AcDbEntity
  8
0
100
AcDbBlockBegin
  2
*Paper_Space3
 70
     0
 10
0.0
 20
0.0
 30
0.0
  3
*Paper_Space3
  1

  0
SPLINE
  5
23A
330
21F
100
AcDbEntity
  8
0
  6
Continuous
 62
     7
370
    25
100
AcDbSpline
210
0.0
220
0.0
230
1.0
 70
     8
 71
     3
 72
    80
 73
    76
 74
     0
 42
0.000000001
 43
0.00000001
 40
0.0
 40
0.0
 40
0.0
 40
0.0
 40
0.0312499999999981
 40
0.0312499999999981
 40
0.0624999999999962
 40
0.0624999999999962
 40
0.0781249999999958
 40
0.0781249999999958
 40
0.0937499999999955
 40
0.0937499999999955
 40
0.1249999999999947
 40
0.1249999999999947
 40
0.1406249999999947
 40
0.1406249999999947
 40
0.1562499999999947
 40
0.1562499999999947
 40
0.1874999999999948
 40
0.1874999999999948
 40
0.2187499999999948
 40
0.2187499999999948
 40
0.2499999999999948
 40
0.2499999999999948
 40
0.2812499999999949
 40
0.2812499999999949
 40
0.3124999999999949
 40
0.3124999999999949
 40
0.3749999999999943
 40
0.3749999999999943
 40
0.3906249999999947
 40
0.3906249999999947
 40
0.406249999999995
 40
0.406249999999995
 40
0.4374999999999952
 40
0.4374999999999952
 40
0.4531249999999952
 40
0.4531249999999952
 40
0.4687499999999952
 40
0.4687499999999952
 40
0.4999999999999951
 40
0.4999999999999951
 40
0.5312499999999951
 40
0.5312499999999951
 40
0.5624999999999951
 40
0.5624999999999951
 40
0.5937499999999953
 40
0.5937499999999953
 40
0.6249999999999957
 40
0.6249999999999957
 40
0.656249999999996
 40
0.656249999999996
 40
0.6874999999999967
 40
0.6874999999999967
 40
0.7187499999999973
 40
0.7187499999999973
 40
0.7499999999999979
 40
0.7499999999999979
 40
0.7812499999999986
 40
0.7812499999999986
 40
0.796874999999999
 40
0.796874999999999
 40
0.8124999999999993
 40
0.8124999999999993
 40
0.843749999999999
 40
0.843749999999999
 40
0.8749999999999987
 40
0.8749999999999987
 40
0.9062499999999983
 40
0.9062499999999983
 40
0.9218749999999986
 40
0.9218749999999986
 40
0.9374999999999988
 40
0.9374999999999988
 40
0.9687499999999993
 40
0.9687499999999993
 40
1.0
 40
1.0
 40
1.0
 40
1.0
 10
-77.07323171096904
 20
73.24999999999999
 30
0.0
 10
-76.69831358683251
 20
73.55336909468062
 30
0.0
 10
-76.30317454408306
 20
73.83039232177576
 30
0.0
 10
-75.48111421857512
 20
74.32649992600234
 30
0.0
 10
-75.05263921264226
 20
74.54688530689678
 30
0.0
 10
-74.38039997517573
 20
74.83487260719261
 30
0.0
 10
-74.15137453701502
 20
74.92373470493817
 30
0.0
 10
-73.68251858061414
 20
75.08651981880986
 30
0.0
 10
-73.44205660047153
 20
75.16052493621682
 30
0.0
 10
-72.7170245579473
 20
75.35518689945924
 30
0.0
 10
-72.2247935530797
 20
75.45024562806036
 30
0.0
 10
-71.47205236341804
 20
75.53924065554118
 30
0.0
 10
-71.21873348563987
 20
75.55993530444874
 30
0.0
 10
-70.70702965061439
 20
75.58263536374722
 30
0.0
 10
-70.45009768965362
 20
75.58447887043941
 30
0.0
 10
-69.68761297493546
 20
75.56201066517
 30
0.0
 10
-69.1857546545634
 20
75.51009785776667
 30
0.0
 10
-68.19423684899887
 20
75.33465343752653
 30
0.0
 10
-67.70189831934367
 20
75.20970172270744
 30
0.0
 10
-66.76016574869821
 20
74.89799751660252
 30
0.0
 10
-66.3068323084499
 20
74.71096638818535
 30
0.0
 10
-65.43126932530085
 20
74.27649844954196
 30
0.0
 10
-65.00944613683028
 20
74.02874361942312
 30
0.0
 10
-64.21110020030613
 20
73.48280471618578
 30
0.0
 10
-63.83026510616369
 20
73.18154529628305
 30
0.0
 10
-62.76607381147586
 20
72.21521319626221
 30
0.0
 10
-62.15238786753469
 20
71.48601609418364
 30
0.0
 10
-61.50315956433816
 20
70.45378053659658
 30
0.0
 10
-61.37935285205898
 20
70.24096861196162
 30
0.0
 10
-61.14809564056021
 20
69.80967029925309
 30
0.0
 10
-61.04008379272847
 20
69.59034151529553
 30
0.0
 10
-60.73877536744717
 20
68.92115835984355
 30
0.0
 10
-60.56807217292727
 20
68.46016560865257
 30
0.0
 10
-60.35913817446799
 20
67.74475939137965
 30
0.0
 10
-60.29737925814029
 20
67.50229068716594
 30
0.0
 10
-60.19038180911235
 20
67.00888944672623
 30
0.0
 10
-60.14519726503846
 20
66.75755437674026
 30
0.0
 10
-60.03774671903284
 20
66.00633647077969
 30
0.0
 10
-60.00216956801885
 20
65.504136360823
 30
0.0
 10
-60.00211655228948
 20
64.49698433242754
 30
0.0
 10
-60.03795948389354
 20
63.98984120007201
 30
0.0
 10
-60.18277658591176
 20
62.98208466725843
 30
0.0
 10
-60.28994899818431
 20
62.49155918124894
 30
0.0
 10
-60.56960611088556
 20
61.53517682096617
 30
0.0
 10
-60.74273293048486
 20
61.06796513347522
 30
0.0
 10
-61.15193499695919
 20
60.16341256909746
 30
0.0
 10
-61.38437768145936
 20
59.73347668187137
 30
0.0
 10
-61.90188922491623
 20
58.91392535922668
 30
0.0
 10
-62.18696639646248
 20
58.5243300470036
 30
0.0
 10
-62.81087345845337
 20
57.78389348063865
 30
0.0
 10
-63.14459579211819
 20
57.43924011380263
 30
0.0
 10
-63.85245178876863
 20
56.80026362785205
 30
0.0
 10
-64.22706286221603
 20
56.50536732814155
 30
0.0
 10
-65.02117114744658
 20
55.96418285016362
 30
0.0
 10
-65.44296231186688
 20
55.71718444774945
 30
0.0
 10
-66.3131548320171
 20
55.28642191200127
 30
0.0
 10
-66.7637954850076
 20
55.10075077183695
 30
0.0
 10
-67.46609110470592
 20
54.86837337273648
 30
0.0
 10
-67.7045985757009
 20
54.79864045382585
 30
0.0
 10
-68.19121161022676
 20
54.67541144499883
 30
0.0
 10
-68.43885324945768
 20
54.62214529456622
 30
0.0
 10
-69.18242770138858
 20
54.49032754784297
 30
0.0
 10
-69.68350897897236
 20
54.43839060546146
 30
0.0
 10
-70.69693951901839
 20
54.40797022381561
 30
0.0
 10
-71.21293057893021
 20
54.43054929657317
 30
0.0
 10
-72.21586162537507
 20
54.54828019464243
 30
0.0
 10
-72.70735015237929
 20
54.64277241268463
 30
0.0
 10
-73.43080419658212
 20
54.83618473716962
 30
0.0
 10
-73.67058859109392
 20
54.90965955709468
 30
0.0
 10
-74.1397596958575
 20
55.07192697667827
 30
0.0
 10
-74.36933456657499
 20
55.16067555938906
 30
0.0
 10
-75.04418064646073
 20
55.44893305856006
 30
0.0
 10
-75.47566183964335
 20
55.67030863868743
 30
0.0
 10
-76.30548776412917
 20
56.17090502726353
 30
0.0
 10
-76.70156075397502
 20
56.44925838607552
 30
0.0
 10
-77.07323171096904
 20
56.75
 30
0.0
  0
SPLINE
  5
240
330
21F
100
AcDbEntity
  8
0
  6
Continuous
 62
     7
370
    25
100
AcDbSpline
210
0.0
220
0.0
230
1.0
 70
     8
 71
     3
 72
     9
 73
     5
 74
     0
 42
0.000000001
 43
0.00000001
 40
0.0
 40
0.0
 40
0.0
 40
0.0
 40
0.0522471546976289
 40
1.0
 40
1.0
 40
1.0
 40
1.0
 10
-20.15214304540603
 20
65.0
 30
0.0
 10
-20.15216715867315
 20
65.03442723632203
 30
0.0
 10
-20.15262868174092
 20
65.69335759379854
 30
0.0
 10
-20.31983324338875
 20
66.33152386799229
 30
0.0
 10
-20.47830184243802
 20
66.93634777013544
 30
0.0
  0
SPLINE
  5
241
330
21F
100
AcDbEntity
  8
0
  6
Continuous
 62
     7
370
    25
100
AcDbSpline
210
0.0
220
0.0
230
1.0
 70
     8
 71
     3
 72
    22
 73
    18
 74
     0
 42
0.000000001
 43
0.00000001
 40
0.0
 40
0.0
 40
0.0
 40
0.0
 40
0.0362722424839402
 40
0.0402065765109386
 40
0.0993063681700347
 40
0.1605158106091649
 40
0.2662174040825903
 40
0.3548413219050857
 40
0.4429363709595519
 40
0.5309343590775485
 40
0.5898474211544467
 40
0.6509220760234772
 40
0.7576653181946211
 40
0.8560457707315956
 40
0.9546496996672756
 40
0.9862552398089409
 40
1.0
 40
1.0
 40
1.0
 40
1.0
 10
-20.53659590380519
 20
67.26451086011936
 30
0.0
 10
-20.5756186808293
 20
67.64659778663615
 30
0.0
 10
-20.61887413355694
 20
68.07012845892996
 30
0.0
 10
-20.97254894715914
 20
69.02713535023815
 30
0.0
 10
-21.51415965627161
 20
70.17704486725857
 30
0.0
 10
-22.84178709993962
 20
72.01468521375566
 30
0.0
 10
-24.79657336288589
 20
73.66623670477139
 30
0.0
 10
-27.43165294079207
 20
74.82768022473064
 30
0.0
 10
-30.21519047898557
 20
75.23074820278285
 30
0.0
 10
-32.69218417234259
 20
74.89027435148175
 30
0.0
 10
-34.67802544296142
 20
74.1385742269783
 30
0.0
 10
-36.62449429409773
 20
72.9721035569841
 30
0.0
 10
-38.50733604931348
 20
71.0840203030711
 30
0.0
 10
-39.96486215435428
 20
68.32029178258095
 30
0.0
 10
-40.36211146696064
 20
65.92527319288791
 30
0.0
 10
-40.36407214440286
 20
64.40619656217487
 30
0.0
 10
-40.27817633161433
 20
63.94077372018877
 30
0.0
 10
-40.25214304540601
 20
63.79971345589933
 30
0.0
  0
CIRCLE
  5
244
330
21F
100
AcDbEntity
  8
0
  6
Continuous
 62
     7
370
    25
100
AcDbCircle
 10
-30.2521430454
 20
65.0
 30
0.0
 40
10.0
  0
CIRCLE
  5
247
330
21F
100
AcDbEntity
  8
0
  6
Continuous
 62
     7
370
    25
100
AcDbCircle
 10
3.4978569546
 20
65.0
 30
0.0
 40
3.0
  0
LINE
  5
24F
330
21F
100
AcDbEntity
  8
0
  6
Continuous
 62
     7
370
    25
100
AcDbLine
 10
-51.2021430454
 20
82.0
 30
0.0
 11
-82.5021430454
 21
82.0
 31
0.0
  0
LINE
  5
250
330
21F
100
AcDbEntity
  8
0
  6
Continuous
 62
     7
370
    25
100
AcDbLine
 10
-82.5021430454
 20
48.0
 30
0.0
 11
-51.2021430454
 21
48.0
 31
0.0
  0
LINE
  5
251
330
21F
100
AcDbEntity
  8
0
  6
Continuous
 62
     7
370
    25
100
AcDbLine
 10
-9.7021430454
 20
82.0
 30
0.0
 11
-50.8021430454
 21
82.0
 31
0.0
  0
LINE
  5
252
330
21F
100
AcDbEntity
  8
0
  6
Continuous
 62
     7
370
    25
100
AcDbLine
 10
-50.8021430454
 20
48.0
 30
0.0
 11
-40.2521430454
 21
48.0
 31
0.0
  0
LINE
  5
253
330
21F
100
AcDbEntity
  8
0
  6
Continuous
 62
     7
370
    25
100
AcDbLine
 10
-20.2521430454
 20
48.0
 30
0.0
 11
-9.7021430454
 21
48.0
 31
0.0
  0
LINE
  5
254
330
21F
100
AcDbEntity
  8
0
  6
Continuous
 62
     7
370
    25
100
AcDbLine
 10
-3.7521430454
 20
0.0
 30
0.0
 11
-3.7521430454
 21
9.5
 31
0.0
  0
LINE
  5
255
330
21F
100
AcDbEntity
  8
0
  6
Continuous
 62
     7
370
    25
100
AcDbLine
 10
-56.7521430454
 20
9.5
 30
0.0
 11
-56.7521430454
 21
0.0
 31
0.0
  0
LINE
  5
256
330
21F
100
AcDbEntity
  8
0
  6
Continuous
 62
     7
370
    25
100
AcDbLine
 10
-20.2521430454
 20
9.5
 30
0.0
 11
-20.2521430454
 21
65.0
 31
0.0
  0
LINE
  5
257
330
21F
100
AcDbEntity
  8
0
  6
Continuous
 62
     7
370
    25
100
AcDbLine
 10
-40.2521430454
 20
65.0
 30
0.0
 11
-40.2521430454
 21
9.5
 31
0.0
  0
LINE
  5
258
330
21F
100
AcDbEntity
  8
0
  6
Continuous
 62
     7
370
    25
100
AcDbLine
 10
-9.3021430454
 20
48.0
 30
0.0
 11
12.2978569546
 21
48.0
 31
0.0
  0
LINE
  5
259
330
21F
100
AcDbEntity
  8
0
  6
Continuous
 62
     7
370
    25
100
AcDbLine
 10
12.2978569546
 20
82.0
 30
0.0
 11
-9.3021430454
 21
82.0
 31
0.0
  0
LINE
  5
25A
330
21F
100
AcDbEntity
  8
0
  6
Continuous
 62
     7
370
    25
100
AcDbLine
 10
-82.5021430454
 20
48.0
 30
0.0
 11
-82.5021430454
 21
56.75
 31
0.0
  0
LINE
  5
25B
330
21F
100
AcDbEntity
  8
0
  6
Continuous
 62
     7
370
    25
100
AcDbLine
 10
-77.073231711
 20
56.75
 30
0.0
 11
-82.5021430454
 21
56.75
 31
0.0
  0
LINE
  5
25C
330
21F
100
AcDbEntity
  8
0
  6
Continuous
 62
     7
370
    25
100
AcDbLine
 10
-82.5021430454
 20
73.25
 30
0.0
 11
-77.073231711
 21
73.25
 31
0.0
  0
LINE
  5
25D
330
21F
100
AcDbEntity
  8
0
  6
Continuous
 62
     7
370
    25
100
AcDbLine
 10
-82.5021430454
 20
73.25
 30
0.0
 11
-82.5021430454
 21
82.0
 31
0.0
  0
LINE
  5
25E
330
21F
100
AcDbEntity
  8
0
  6
Continuous
 62
     7
370
    25
100
AcDbLine
 10
-51.0021430454
 20
48.2
 30
0.0
 11
-51.0021430454
 21
81.7999997676
 31
0.0
  0
LINE
  5
25F
330
21F
100
AcDbEntity
  8
0
  6
Continuous
 62
     7
370
    25
100
AcDbLine
 10
-19.9521430454
 20
65.0
 30
0.0
 11
-20.2521430454
 21
62.8916258453
 31
0.0
  0
LINE
  5
260
330
21F
100
AcDbEntity
  8
0
  6
Continuous
 62
     7
370
    25
100
AcDbLine
 10
-9.5021430454
 20
48.2
 30
0.0
 11
-9.5021430454
 21
81.7999997676
 31
0.0
  0
LINE
  5
261
330
21F
100
AcDbEntity
  8
0
  6
Continuous
 62
     7
370
    25
100
AcDbLine
 10
-3.7521430454
 20
0.0
 30
0.0
 11
-56.7521430454
 21
0.0
 31
0.0
  0
LINE
  5
262
330
21F
100
AcDbEntity
  8
0
  6
Continuous
 62
     7
370
    25
100
AcDbLine
 10
-3.7521430454
 20
9.5
 30
0.0
 11
-56.7521430454
 21
9.5
 31
0.0
  0
LINE
  5
263
330
21F
100
AcDbEntity
  8
0
  6
Continuous
 62
     7
370
    25
100
AcDbLine
 10
12.4978569546
 20
81.7999997676
 30
0.0
 11
12.4978569546
 21
48.2
 31
0.0
  0
LINE
  5
264
330
21F
100
AcDbEntity
  8
0
  6
Continuous
 62
     8
370
    25
100
AcDbLine
 10
-51.2021430454
 20
48.0
 30
0.0
 11
-51.2021430454
 21
82.0
 31
0.0
  0
LINE
  5
265
330
21F
100
AcDbEntity
  8
0
  6
Continuous
 62
     8
370
    25
100
AcDbLine
 10
-50.8021430454
 20
82.0
 30
0.0
 11
-50.8021430454
 21
48.0
 31
0.0
  0
LINE
  5
266
330
21F
100
AcDbEntity
  8
0
  6
Continuous
 62
     8
370
    25
100
AcDbLine
 10
-9.7021430454
 20
48.0
 30
0.0
 11
-9.7021430454
 21
82.0
 31
0.0
  0
LINE
  5
267
330
21F
100
AcDbEntity
  8
0
  6
Continuous
 62
     8
370
    25
100
AcDbLine
 10
-9.3021430454
 20
82.0
 30
0.0
 11
-9.3021430454
 21
48.0
 31
0.0
  0
LINE
  5
268
330
21F
100
AcDbEntity
  8
0
  6
Continuous
 62
     8
370
    25
100
AcDbLine
 10
12.2978569546
 20
48.0
 30
0.0
 11
12.2978569546
 21
82.0
 31
0.0
  0
ARC
  5
269
330
21F
100
AcDbEntity
  8
0
  6
Continuous
 62
     7
370
    25
100
AcDbCircle
 10
-51.2021430454
 20
48.2
 30
0.0
 40
0.2000000000000313
100
AcDbArc
 50
270.0
 51
360.0
  0
ARC
  5
26A
330
21F
100
AcDbEntity
  8
0
  6
Continuous
 62
     7
370
    25
100
AcDbCircle
 10
-51.2021430454
 20
81.8
 30
0.0
 40
0.2000000000000171
100
AcDbArc
 50
0.0
 51
90.0
  0
ARC
  5
26B
330
21F
100
AcDbEntity
  8
0
  6
Continuous
 62
     7
370
    25
100
AcDbCircle
 10
-50.8021430454
 20
81.8
 30
0.0
 40
0.1999999999999886
100
AcDbArc
 50
90.0
 51
180.0
  0
ARC
  5
26C
330
21F
100
AcDbEntity
  8
0
  6
Continuous
 62
     7
370
    25
100
AcDbCircle
 10
-50.8021430454
 20
48.2
 30
0.0
 40
0.2000000000000028
100
AcDbArc
 50
180.0
 51
270.0
  0
ARC
  5
26D
330
21F
100
AcDbEntity
  8
0
  6
Continuous
 62
     7
370
    25
100
AcDbCircle
 10
-9.7021430454
 20
81.8
 30
0.0
 40
0.2000000000000082
100
AcDbArc
 50
0.0
 51
90.0
  0
ARC
  5
26E
330
21F
100
AcDbEntity
  8
0
  6
Continuous
 62
     7
370
    25
100
AcDbCircle
 10
-9.7021430454
 20
48.2
 30
0.0
 40
0.2000000000000171
100
AcDbArc
 50
270.0
 51
360.0
  0
ARC
  5
26F
330
21F
100
AcDbEntity
  8
0
  6
Continuous
 62
     7
370
    25
100
AcDbCircle
 10
-9.3021430454
 20
81.8
 30
0.0
 40
0.1999999999999886
100
AcDbArc
 50
90.0
 51
180.0
  0
ARC
  5
270
330
21F
100
AcDbEntity
  8
0
  6
Continuous
 62
     7
370
    25
100
AcDbCircle
 10
-9.3021430454
 20
48.2
 30
0.0
 40
0.2000000000000028
100
AcDbArc
 50
180.0
 51
270.0
  0
ARC
  5
271
330
21F
100
AcDbEntity
  8
0
  6
Continuous
 62
     7
370
    25
100
AcDbCircle
 10
12.2978569546
 20
81.8
 30
0.0
 40
0.1999999999999922
100
AcDbArc
 50
360.0
 51
90.0
  0
ARC
  5
272
330
21F
100
AcDbEntity
  8
0
  6
Continuous
 62
     7
370
    25
100
AcDbCircle
 10
12.2978569546
 20
48.2
 30
0.0
 40
0.2000000000000028
100
AcDbArc
 50
270.0
 51
0.0
  0
ARC
  5
273
330
21F
100
AcDbEntity
  8
0
  6
Continuous
 62
     7
370
    25
100
AcDbCircle
 10
-30.2547088862
 20
65.0734974077
 30
0.0
 40
10.30282799882019
100
AcDbArc
 50
359.5912649435
 51
193.9851841767
  0
VIEWPORT
  5
3CA
330
21F
100
AcDbEntity
  8
0
100
AcDbViewport
 10
0.0
 20
0.0
 30
0.0
 40
205.6
 41
156.0
 68
     1
 69
     1
 12
-35.0021430454
 22
-160.4272048014
 13
0.0
 23
0.0
 14
10.0
 24
10.0
 15
10.0
 25
10.0
 16
0.0
 26
0.0
 36
1.0
 17
0.0
 27
0.0
 37
0.0
 42
50.0
 43
0.0
 44
0.0
 45
708.9
 50
0.0
 51
0.0
 72
   100
 90
   557152
  1

281
     0
 71
     1
 74
     0
110
0.0
120
0.0
130
0.0
111
1.0
121
0.0
131
0.0
112
0.0
122
1.0
132
0.0
 79
     0
146
0.0
  0
ENDBLK
  5
222
330
21F
100
AcDbEntity
  8
0
100
AcDbBlockEnd
  0
BLOCK
  5
276
330
274
100
AcDbEntity
  8
0
100
AcDbBlockBegin
  2
*Paper_Space4
 70
     0
 10
0.0
 20
0.0
 30
0.0
  3
*Paper_Space4
  1

  0
SPLINE
  5
27A
330
274
100
AcDbEntity
  8
0
  6
Continuous
 62
     7
370
    25
100
AcDbSpline
210
0.0
220
0.0
230
1.0
 70
     8
 71
     3
 72
    10
 73
     6
 74
     0
 42
0.000000001
 43
0.00000001
 40
0.0
 40
0.0
 40
0.0
 40
0.0
 40
0.2311193573290446
 40
0.6738361314824277
 40
1.0
 40
1.0
 40
1.0
 40
1.0
 10
-106.0926421621581
 20
-88.97991269029798
 30
0.0
 10
-106.2144495929781
 20
-88.74061147090141
 30
0.0
 10
-106.5695831867979
 20
-88.0429208499135
 30
0.0
 10
-106.8765094147456
 20
-86.88728209982442
 30
0.0
 10
-106.9334947324317
 20
-85.99033427884896
 30
0.0
 10
-106.9576682525253
 20
-85.60984353046506
 30
0.0
  0
SPLINE
  5
27B
330
274
100
AcDbEntity
  8
0
  6
Continuous
 62
     7
370
    25
100
AcDbSpline
210
0.0
220
0.0
230
1.0
 70
     8
 71
     3
 72
    18
 73
    14
 74
     0
 42
0.000000001
 43
0.00000001
 40
0.0
 40
0.0
 40
0.0
 40
0.0
 40
0.0898316731873054
 40
0.1894614779915128
 40
0.2940544233180419
 40
0.4018806965723085
 40
0.5095847969450032
 40
0.5994114639680884
 40
0.6944012767685495
 40
0.7840786422731757
 40
0.8708798566273518
 40
0.9596166977467697
 40
1.0
 40
1.0
 40
1.0
 40
1.0
 10
-91.44961856823153
 20
-89.62744710095579
 30
0.0
 10
-91.95033269206944
 20
-89.85687234148978
 30
0.0
 10
-93.00637489397471
 20
-90.34074672140352
 30
0.0
 10
-94.6963131043776
 20
-91.01856208146835
 30
0.0
 10
-96.48432609039486
 20
-91.63633053464208
 30
0.0
 10
-98.29684222226543
 20
-92.11282797121977
 30
0.0
 10
-99.97924207027454
 20
-92.36098502826687
 30
0.0
 10
-101.5229640532722
 20
-92.35393078541337
 30
0.0
 10
-102.8759407741025
 20
-92.07036915062105
 30
0.0
 10
-104.0740916536752
 20
-91.48890185444839
 30
0.0
 10
-105.0601301182497
 20
-90.62911595548614
 30
0.0
 10
-105.7379680582661
 20
-89.77256062316609
 30
0.0
 10
-106.0081429268418
 20
-89.16875688125359
 30
0.0
 10
-106.0926421621581
 20
-88.97991269029798
 30
0.0
  0
SPLINE
  5
27C
330
274
100
AcDbEntity
  8
0
  6
Continuous
 62
     7
370
    25
100
AcDbSpline
210
0.0
220
0.0
230
1.0
 70
     8
 71
     3
 72
    10
 73
     6
 74
     0
 42
0.000000001
 43
0.00000001
 40
0.0
 40
0.0
 40
0.0
 40
0.0
 40
0.420843642473917
 40
0.9600736997607994
 40
1.0
 40
1.0
 40
1.0
 40
1.0
 10
-88.7602986416052
 20
-88.27343537390723
 30
0.0
 10
-89.11506256713686
 20
-88.46282127754905
 30
0.0
 10
-89.92438812216879
 20
-88.89486873375651
 30
0.0
 10
-90.8510196576188
 20
-89.35942176864442
 30
0.0
 10
-91.41101331975914
 20
-89.61016142875137
 30
0.0
 10
-91.44961856823154
 20
-89.62744710095582
 30
0.0
  0
LWPOLYLINE
  5
291
330
274
100
AcDbEntity
  8
0
  6
Continuous
 62
     7
370
    25
100
AcDbPolyline
 90
       15
 70
   128
 43
0.0
 10
-94.188138616
 20
-111.6537027506
 10
-94.0600372121
 20
-109.5586333571
 10
-93.6784632595
 20
-107.3603139976
 10
-93.0515493445
 20
-105.1055980327
 10
-92.1926570487
 20
-102.8425408187
 10
-91.1200921704
 20
-100.6193754911
 10
-89.8567145677
 20
-98.483484959
 10
-88.4294509408
 20
-96.4803920209
 10
-86.868720936
 20
-94.6527891252
 10
-85.2077888037
 20
-93.0396284545
 10
-83.4820544287
 20
-91.6752917279
 10
-81.728298843
 20
-90.5888574141
 10
-79.9839003021
 20
-89.8034809741
 10
-78.2860376325
 20
-89.3359013433
 10
-77.35343627
 20
-89.2157162216
  0
LWPOLYLINE
  5
292
330
274
100
AcDbEntity
  8
0
  6
Continuous
 62
     7
370
    25
100
AcDbPolyline
 90
        7
 70
   128
 43
0.0
 10
-90.6666325632
 20
-119.4370644605
 10
-91.1200921704
 20
-119.1457389837
 10
-92.1926570487
 20
-118.1609307054
 10
-93.0515493445
 20
-116.8895294281
 10
-93.6784632595
 20
-115.3586328626
 10
-94.0600372121
 20
-113.6008694113
 10
-94.188138616
 20
-111.6537027506
  0
LWPOLYLINE
  5
293
330
274
100
AcDbEntity
  8
0
  6
Continuous
 62
     7
370
    25
100
AcDbPolyline
 90
        3
 70
   128
 43
0.0
 10
-98.4661346422
 20
-76.4327281181
 10
-96.9418257433
 20
-76.7128219895
 10
-95.8004563595
 20
-77.2146161896
  0
LWPOLYLINE
  5
294
330
274
100
AcDbEntity
  8
0
  6
Continuous
 62
     7
370
    25
100
AcDbPolyline
 90
       14
 70
   128
 43
0.0
 10
-112.7990748144
 20
-106.6602775105
 10
-113.0123127215
 20
-106.5308410569
 10
-114.1659760946
 20
-105.5630321604
 10
-115.0920877584
 20
-104.2809663133
 10
-115.7692881147
 20
-102.7142127485
 10
-116.1819583908
 20
-100.898906662
 10
-116.3205808671
 20
-98.8769158005
 10
-116.1819583908
 20
-96.6948748347
 10
-115.7692881147
 20
-94.4031097891
 10
-115.0920877584
 20
-92.0544773356
 10
-114.1659760946
 20
-89.7031457215
 10
-113.0123127215
 20
-87.4033454466
 10
-111.6577054306
 20
-85.2081185056
 10
-110.1333965317
 20
-83.1680950407
  0
SPLINE
  5
296
330
274
100
AcDbEntity
  8
0
  6
Continuous
 62
     7
370
    25
100
AcDbSpline
210
0.0
220
0.0
230
1.0
 70
     8
 71
     3
 72
    16
 73
    12
 74
     0
 42
0.000000001
 43
0.00000001
 40
0.0
 40
0.0
 40
0.0
 40
0.0
 40
0.0086323315319343
 40
0.1254324265949892
 40
0.2451219960803463
 40
0.4358851704303774
 40
0.5966985689533149
 40
0.7576593824455583
 40
0.8683683850014087
 40
0.9823190706511417
 40
1.0
 40
1.0
 40
1.0
 40
1.0
 10
-96.00650506879552
 20
-77.85264204711224
 30
0.0
 10
-95.95850949714146
 20
-77.86770083435287
 30
0.0
 10
-95.26110799024725
 20
-78.08651312373077
 30
0.0
 10
-93.89970078052848
 20
-78.60217288548209
 30
0.0
 10
-91.5739854426963
 20
-79.69620535301407
 30
0.0
 10
-89.08602521543837
 20
-81.08506483298984
 30
0.0
 10
-86.73647335903509
 20
-82.45136644495217
 30
0.0
 10
-85.26658526285155
 20
-83.2867993597003
 30
0.0
 10
-84.48379429936395
 20
-83.86103140467395
 30
0.0
 10
-84.0491743365576
 20
-84.1652313206893
 30
0.0
 10
-84.0742514276049
 20
-84.34654703597013
 30
0.0
 10
-84.07761981501768
 20
-84.37090159814542
 30
0.0
  0
SPLINE
  5
298
330
274
100
AcDbEntity
  8
0
  6
Continuous
 62
     7
370
    25
100
AcDbSpline
210
0.0
220
0.0
230
1.0
 70
     8
 71
     3
 72
    14
 73
    10
 74
     0
 42
0.000000001
 43
0.00000001
 40
0.0
 40
0.0
 40
0.0
 40
0.0
 40
0.25
 40
0.25
 40
0.5
 40
0.5
 40
0.75
 40
0.75
 40
1.0
 40
1.0
 40
1.0
 40
1.0
 10
-107.6737669583736
 20
-84.5880089696496
 30
0.0
 10
-107.5936191137274
 20
-84.63427733551399
 30
0.0
 10
-107.5150160301576
 20
-84.70021974262824
 30
0.0
 10
-107.367279192023
 20
-84.85105672687398
 30
0.0
 10
-107.2979741633631
 20
-84.9362653203378
 30
0.0
 10
-107.1716762667708
 20
-85.12054083171272
 30
0.0
 10
-107.1161072283393
 20
-85.21688088861593
 30
0.0
 10
-107.0259570799814
 20
-85.42119670773421
 30
0.0
 10
-106.9918798958721
 20
-85.52790133901487
 30
0.0
 10
-106.9892502962669
 20
-85.62237783644642
 30
0.0
  0
SPLINE
  5
299
330
274
100
AcDbEntity
  8
0
  6
Continuous
 62
     7
370
    25
100
AcDbSpline
210
0.0
220
0.0
230
1.0
 70
     8
 71
     3
 72
    16
 73
    12
 74
     0
 42
0.000000001
 43
0.00000001
 40
0.0
 40
0.0
 40
0.0
 40
0.0
 40
0.0220167163811468
 40
0.1062296977533099
 40
0.1938467094298204
 40
0.3644338866692055
 40
0.552177225240722
 40
0.6428801842462948
 40
0.735922514050859
 40
0.8679902574618689
 40
1.0
 40
1.0
 40
1.0
 40
1.0
 10
-88.33896438086644
 20
-88.20870149439654
 30
0.0
 10
-88.22360814844346
 20
-88.14416028921319
 30
0.0
 10
-87.66701935054509
 20
-87.83275178484917
 30
0.0
 10
-86.77508166998855
 20
-87.29537874385629
 30
0.0
 10
-85.50958884980878
 20
-86.44604916820374
 30
0.0
 10
-84.57105666083581
 20
-85.5692758708451
 30
0.0
 10
-84.57432800134362
 20
-84.92575420308702
 30
0.0
 10
-85.14308144914284
 20
-84.38673068406942
 30
0.0
 10
-85.95840031261461
 20
-83.85986272246072
 30
0.0
 10
-87.35085656357805
 20
-83.07251545028159
 30
0.0
 10
-88.80181505157134
 20
-82.23020708877054
 30
0.0
 10
-89.52713495434563
 20
-81.80914540855522
 30
0.0
  0
SPLINE
  5
29A
330
274
100
AcDbEntity
  8
0
  6
Continuous
 62
     7
370
    25
100
AcDbSpline
210
0.0
220
0.0
230
1.0
 70
     8
 71
     3
 72
    14
 73
    10
 74
     0
 42
0.000000001
 43
0.00000001
 40
0.0
 40
0.0
 40
0.0
 40
0.0
 40
0.25
 40
0.25
 40
0.5
 40
0.5
 40
0.75
 40
0.75
 40
1.0
 40
1.0
 40
1.0
 40
1.0
 10
-95.32198840668849
 20
-78.88701091391296
 30
0.0
 10
-95.32462415542217
 20
-78.79231348999416
 30
0.0
 10
-95.3586632085197
 20
-78.68614927245973
 30
0.0
 10
-95.44782432168032
 20
-78.4835838858853
 30
0.0
 10
-95.50482698533676
 20
-78.38458019590219
 30
0.0
 10
-95.63020309980728
 20
-78.20163301227932
 30
0.0
 10
-95.70054793583746
 20
-78.1151299068593
 30
0.0
 10
-95.8474950659592
 20
-77.96513549387436
 30
0.0
 10
-95.92634015797277
 20
-77.89892026507064
 30
0.0
 10
-96.00650506879552
 20
-77.85264204711224
 30
0.0
  0
SPLINE
  5
29B
330
274
100
AcDbEntity
  8
0
  6
Continuous
 62
     7
370
    25
100
AcDbSpline
210
0.0
220
0.0
230
1.0
 70
     8
 71
     3
 72
     9
 73
     5
 74
     0
 42
0.000000001
 43
0.00000001
 40
0.0
 40
0.0
 40
0.0
 40
0.0
 40
0.4118829088244818
 40
1.0
 40
1.0
 40
1.0
 40
1.0
 10
-95.32198840668852
 20
-78.88701091391297
 30
0.0
 10
-95.27536586765211
 20
-80.562462869106
 30
0.0
 10
-95.16217219528178
 20
-84.63024990104364
 30
0.0
 10
-95.04275504189962
 20
-88.70138889052573
 30
0.0
 10
-94.97252377301605
 20
-91.09569531079113
 30
0.0
  0
LWPOLYLINE
  5
29E
330
274
100
AcDbEntity
  8
0
  6
Continuous
 62
     7
370
    25
100
AcDbPolyline
 90
       23
 70
   128
 43
0.0
 10
-61.321701144
 20
-136.3775327809
 10
-62.3368249989
 20
-135.6310881984
 10
-63.3051367671
 20
-134.4999659071
 10
-64.0500270284
 20
-133.0950691196
 10
-64.5556197401
 20
-131.4463407717
 10
-64.8111390714
 20
-129.5889206456
 10
-64.8111390714
 20
-127.5623964267
 10
-64.5556197401
 20
-125.4099599603
 10
-64.0500270284
 20
-123.1774866928
 10
-63.3051367671
 20
-120.9125579158
 10
-62.3368249989
 20
-118.6634466541
 10
-61.1657296081
 20
-116.4780888094
 10
-59.8168104596
 20
-114.4030614901
 10
-58.3188174233
 20
-112.4825903008
 10
-56.7036776199
 20
-110.7576067508
 10
-55.0058149503
 20
-109.2648758697
 10
-53.2614164094
 20
-108.0362126244
 10
-51.5076608237
 20
-107.097803839
 10
-49.7819264487
 20
-106.4696500675
 10
-48.1209943164
 20
-106.165139317
 10
-46.5602643116
 20
-106.1907617055
 10
-45.1330006847
 20
-106.5459711361
 10
-44.3230826892
 20
-106.9318714599
  0
LWPOLYLINE
  5
29F
330
274
100
AcDbEntity
  8
0
  6
Continuous
 62
     7
370
    25
100
AcDbPolyline
 90
       20
 70
   128
 43
0.0
 10
-77.35343627
 20
-89.4044760562
 10
-78.8440151554
 20
-89.6924633696
 10
-80.5697495305
 20
-90.3206171411
 10
-82.3235051162
 20
-91.2590259265
 10
-84.067903657
 20
-92.4876891717
 10
-85.7657663267
 20
-93.9804200529
 10
-87.3809061301
 20
-95.7054036029
 10
-88.8788991664
 20
-97.6258747921
 10
-90.2278183148
 20
-99.7009021115
 10
-91.3989137057
 20
-101.8862599562
 10
-92.3672254738
 20
-104.1353712179
 10
-93.1121157351
 20
-106.4002999948
 10
-93.6177084469
 20
-108.6327732624
 10
-93.8732277782
 20
-110.7852097288
 10
-93.8732277782
 20
-112.8117339477
 10
-93.6177084469
 20
-114.6691540737
 10
-93.1121157351
 20
-116.3178824216
 10
-92.3672254738
 20
-117.7227792092
 10
-91.3989137057
 20
-118.8539015004
 10
-90.3837898507
 20
-119.6003460829
  0
SPLINE
  5
2A0
330
274
100
AcDbEntity
  8
0
  6
Continuous
 62
     7
370
    25
100
AcDbSpline
210
0.0
220
0.0
230
1.0
 70
     8
 71
     3
 72
    12
 73
     8
 74
     0
 42
0.000000001
 43
0.00000001
 40
0.0
 40
0.0
 40
0.0
 40
0.0
 40
0.2419121159489399
 40
0.4972262072033797
 40
0.8007075276417841
 40
0.9731493050934757
 40
0.9999999999999999
 40
0.9999999999999999
 40
0.9999999999999999
 40
0.9999999999999999
 10
-74.7233408762532
 20
-106.5543960269163
 30
0.0
 10
-75.3062183391952
 20
-106.1150124298602
 30
0.0
 10
-76.5042647827398
 20
-105.2119033044054
 30
0.0
 10
-77.56401073989836
 20
-102.9628984073189
 30
0.0
 10
-77.78295270515797
 20
-100.7640464751277
 30
0.0
 10
-77.61582931399808
 20
-99.24777274621712
 30
0.0
 10
-77.3845910276112
 20
-98.71093805160704
 30
0.0
 10
-77.3534362699577
 20
-98.63861025904346
 30
0.0
  0
SPLINE
  5
2A1
330
274
100
AcDbEntity
  8
0
  6
Continuous
 62
     7
370
    25
100
AcDbSpline
210
0.0
220
0.0
230
1.0
 70
     8
 71
     3
 72
    19
 73
    15
 74
     0
 42
0.000000001
 43
0.00000001
 40
0.0
 40
0.0
 40
0.0
 40
0.0
 40
0.0177678214263528
 40
0.1426670585878708
 40
0.2116386661555722
 40
0.2830132222672309
 40
0.3452806261396532
 40
0.4098953503827142
 40
0.5198126565759259
 40
0.6298902291871686
 40
0.7530715635717823
 40
0.8211459148945535
 40
0.8914639725749759
 40
1.0
 40
1.0
 40
1.0
 40
1.0
 10
-57.35343626995768
 20
-99.95103310029741
 30
0.0
 10
-57.2976476818811
 20
-100.0009118801085
 30
0.0
 10
-56.84969215752776
 20
-100.4014144870878
 30
0.0
 10
-56.94140962774497
 20
-100.9118826405545
 30
0.0
 10
-57.39100507863059
 20
-101.6660858212553
 30
0.0
 10
-58.09328126873718
 20
-102.3027833282045
 30
0.0
 10
-59.0654117781237
 20
-102.9930611096454
 30
0.0
 10
-60.53267740350747
 20
-103.8780605625005
 30
0.0
 10
-62.72307572672521
 20
-105.0005338818067
 30
0.0
 10
-65.67743124669187
 20
-106.2374503562404
 30
0.0
 10
-68.3524155662587
 20
-107.0491187797863
 30
0.0
 10
-70.6008556053743
 20
-107.3773297894914
 30
0.0
 10
-72.67182304666471
 20
-107.4023273950212
 30
0.0
 10
-73.94856267162191
 20
-106.8746266062248
 30
0.0
 10
-74.7233408762532
 20
-106.5543960269163
 30
0.0
  0
SPLINE
  5
2A3
330
274
100
AcDbEntity
  8
0
  6
Continuous
 62
     7
370
    25
100
AcDbSpline
210
0.0
220
0.0
230
1.0
 70
     8
 71
     3
 72
    11
 73
     7
 74
     0
 42
0.000000001
 43
0.00000001
 40
0.0
 40
0.0
 40
0.0
 40
0.0
 40
0.0720141523392887
 40
0.4231328983979832
 40
0.7191959115220463
 40
1.0
 40
1.0
 40
1.0
 40
1.0
 10
-77.3534362699577
 20
-99.954107019172
 30
0.0
 10
-77.38662121418936
 20
-100.1318826101612
 30
0.0
 10
-77.58160568848777
 20
-101.1764370294821
 30
0.0
 10
-77.25897481712774
 20
-103.0415899820746
 30
0.0
 10
-76.24951023691376
 20
-105.2341427371039
 30
0.0
 10
-75.06957629619231
 20
-106.1203389750665
 30
0.0
 10
-74.49521475994183
 20
-106.5517165421398
 30
0.0
  0
LWPOLYLINE
  5
2A5
330
274
100
AcDbEntity
  8
0
  6
Continuous
 62
     7
370
    25
100
AcDbPolyline
 90
       34
 70
   128
 43
0.0
 10
-60.2823684581
 20
142.6503964892
 10
-61.7483602475
 20
143.3491599538
 10
-63.4169340883
 20
143.8751327048
 10
-65.2277833744
 20
144.2093047164
 10
-67.1154592945
 20
144.3395981415
 10
-69.0117363225
 20
144.2613038363
 10
-70.8480780659
 20
143.9772515609
 10
-72.5581143497
 20
143.4977077047
 10
-74.080040007
 20
142.8400042321
 10
-75.3588486792
 20
142.0279122601
 10
-76.3483208891
 20
141.0907829086
 10
-77.0126945328
 20
140.062486474
 10
-77.3279574161
 20
138.9801882686
 10
-77.2827151167
 20
137.8830053695
 10
-76.8786028093
 20
136.8105928253
 10
-76.1302261656
 20
135.8017104195
 10
-75.0646334674
 20
134.8928217909
 10
-73.7203380111
 20
134.1167765425
 10
-72.1459261372
 20
133.5016229718
 10
-70.3983011927
 20
133.0695943314
 10
-68.5406268965
 20
132.836305262
 10
-66.640044438
 20
132.8101874385
 10
-64.7652458189
 20
132.9921848271
 10
-62.9839911463
 20
133.3757195679
 10
-61.3606596048
 20
133.9469297161
 10
-59.9539226261
 20
134.6851702487
 10
-58.8146233497
 20
135.5637592293
 10
-57.98393902
 20
136.5509421631
 10
-57.4918927328
 20
137.6110396868
 10
-57.356268323
 20
138.7057371138
 10
-57.5819676102
 20
139.7954692269
 10
-58.1608332341
 20
140.8408502682
 10
-59.0719434828
 20
141.8040974431
 10
-60.2823684581
 20
142.6503964892
  0
LWPOLYLINE
  5
2A6
330
274
100
AcDbEntity
  8
0
  6
Continuous
 62
     7
370
    25
100
AcDbPolyline
 90
        6
 70
   128
 43
0.0
 10
-60.2823684581
 20
93.6592747767
 10
-59.2149490973
 20
93.0428482789
 10
-58.369526451
 20
92.5545837145
 10
-57.7691614454
 20
92.2077996678
 10
-57.4302304726
 20
92.0119555038
 10
-57.35343627
 20
91.9674998838
  0
LWPOLYLINE
  5
2A9
330
274
100
AcDbEntity
  8
0
  6
Continuous
 62
     7
370
    25
100
AcDbPolyline
 90
        6
 70
   128
 43
0.0
 10
-60.2823684581
 20
-392.1825082953
 10
-59.2149490973
 20
-392.7989347931
 10
-58.369526451
 20
-393.2871993576
 10
-57.7691614454
 20
-393.6339834042
 10
-57.4302304726
 20
-393.8298275682
 10
-57.35343627
 20
-393.8742831882
  0
LWPOLYLINE
  5
2AA
330
274
100
AcDbEntity
  8
0
  6
Continuous
 62
     7
370
    25
100
AcDbPolyline
 90
       18
 70
   128
 43
0.0
 10
-77.35343627
 20
-428.9275083305
 10
-77.2827151167
 20
-429.6128588911
 10
-76.8786028093
 20
-430.6852714353
 10
-76.1302261656
 20
-431.6941538411
 10
-75.0646334674
 20
-432.6030424697
 10
-73.7203380111
 20
-433.3790877181
 10
-72.1459261372
 20
-433.9942412888
 10
-70.3983011927
 20
-434.4262699292
 10
-68.5406268965
 20
-434.6595589986
 10
-66.640044438
 20
-434.6856768221
 10
-64.7652458189
 20
-434.5036794335
 10
-62.9839911463
 20
-434.1201446927
 10
-61.3606596048
 20
-433.5489345445
 10
-59.9539226261
 20
-432.8106940119
 10
-58.8146233497
 20
-431.9321050313
 10
-57.98393902
 20
-430.9449220975
 10
-57.4918927328
 20
-429.8848245738
 10
-57.35343627
 20
-428.9275083305
  0
LWPOLYLINE
  5
2AB
330
274
100
AcDbEntity
  8
0
  6
Continuous
 62
     7
370
    25
100
AcDbPolyline
 90
       18
 70
   128
 43
0.0
 10
-23.1094162509
 20
111.7361518151
 10
-22.5507751775
 20
112.1404194197
 10
-21.8239941831
 20
113.0267715263
 10
-21.3243700327
 20
114.1794898974
 10
-21.0699604448
 20
115.5569122878
 10
-21.0699604448
 20
117.1092550632
 10
-21.3243700327
 20
118.7804125114
 10
-21.8239941831
 20
120.5099846479
 10
-22.5507751775
 20
122.2354602294
 10
-23.478445257
 20
123.8944760726
 10
-24.5734760082
 20
125.4270710225
 10
-25.7962901664
 20
126.7778531045
 10
-27.102692042
 20
127.8980015347
 10
-28.4454648675
 20
128.7470312302
 10
-29.7760773343
 20
129.2942560458
 10
-31.0464376411
 20
129.5198978509
 10
-32.2106316564
 20
129.4158013627
 10
-33.1086035773
 20
129.0571290627
  0
LWPOLYLINE
  5
2AC
330
274
100
AcDbEntity
  8
0
  6
Continuous
 62
     7
370
    25
100
AcDbPolyline
 90
       18
 70
   128
 43
0.0
 10
-9.3706802127
 20
109.5792329572
 10
-9.4973820946
 20
107.1403194344
 10
-9.8757743149
 20
104.8806749122
 10
-10.5007397678
 20
102.8308572063
 10
-11.3638268678
 20
101.0185865848
 10
-12.4533638423
 20
99.4683708989
 10
-13.754616573
 20
98.2011741565
 10
-15.2499878489
 20
97.2341330196
 10
-16.9192553387
 20
96.5803250606
 10
-18.7398450634
 20
96.2485919106
 10
-20.68713667
 20
96.2434196914
 10
-22.7347963801
 20
96.5648783483
 10
-24.8551331089
 20
97.2086207044
 10
-27.0194729395
 20
98.1659412488
 10
-29.1985468887
 20
99.4238938634
 10
-31.3628867193
 20
100.965466897
 10
-33.4832234481
 20
102.7698132188
 10
-35.380804544
 20
104.6520301432
  0
LWPOLYLINE
  5
2AD
330
274
100
AcDbEntity
  8
0
  6
Continuous
 62
     7
370
    25
100
AcDbPolyline
 90
       33
 70
   128
 43
0.0
 10
-45.3799918704
 20
121.9730073909
 10
-45.7172800604
 20
123.1609331794
 10
-46.3422455133
 20
125.9323206381
 10
-46.7206377336
 20
128.6288475186
 10
-46.8473396155
 20
131.2140479205
 10
-46.7206377336
 20
133.6529614434
 10
-46.3422455133
 20
135.9126059656
 10
-45.7172800604
 20
137.9624236715
 10
-44.8541929605
 20
139.774694293
 10
-43.7646559859
 20
141.3249099789
 10
-42.4634032552
 20
142.5921067213
 10
-40.9680319793
 20
143.5591478582
 10
-39.2987644895
 20
144.2129558172
 10
-37.4781747648
 20
144.5446889672
 10
-35.5308831582
 20
144.5498611864
 10
-33.4832234481
 20
144.2284025295
 10
-31.3628867193
 20
143.5846601734
 10
-29.1985468887
 20
142.6273396289
 10
-27.0194729395
 20
141.3693870144
 10
-24.8551331089
 20
139.8278139808
 10
-22.7347963801
 20
138.023467659
 10
-20.68713667
 20
135.9807487375
 10
-18.7398450634
 20
133.7272814855
 10
-16.9192553387
 20
131.293540182
 10
-15.2499878489
 20
128.7124370028
 10
-13.754616573
 20
126.0188769407
 10
-12.4533638423
 20
123.2492857748
 10
-11.3638268678
 20
120.4411174744
 10
-10.5007397678
 20
117.6323476984
 10
-9.8757743149
 20
114.8609602396
 10
-9.4973820946
 20
112.1644333592
 10
-9.3706802127
 20
109.5792329572
 10
-9.3706802127
 20
109.5792329572
  0
LWPOLYLINE
  5
2AE
330
274
100
AcDbEntity
  8
0
  6
Continuous
 62
     7
370
    25
100
AcDbPolyline
 90
        8
 70
   128
 43
0.0
 10
-2.6531657914
 20
113.4571714884
 10
-2.7798676733
 20
111.0182579656
 10
-3.1582598936
 20
108.7586134433
 10
-3.7832253465
 20
106.7087957374
 10
-4.6463124465
 20
104.8965251159
 10
-5.735849421
 20
103.3463094301
 10
-7.0371021517
 20
102.0791126877
 10
-8.1425722854
 20
101.324284117
  0
LWPOLYLINE
  5
2AF
330
274
100
AcDbEntity
  8
0
  6
Continuous
 62
     7
370
    25
100
AcDbPolyline
 90
       22
 70
   128
 43
0.0
 10
-34.6404187003
 20
147.2248738231
 10
-34.2505175581
 20
147.4370863894
 10
-32.5812500682
 20
148.0908943484
 10
-30.7606603436
 20
148.4226274984
 10
-28.8133687369
 20
148.4277997176
 10
-26.7657090268
 20
148.1063410607
 10
-24.645372298
 20
147.4625987045
 10
-22.4810324674
 20
146.5052781601
 10
-20.3019585183
 20
145.2473255456
 10
-18.1376186877
 20
143.705752512
 10
-16.0172819589
 20
141.9014061901
 10
-13.9696222487
 20
139.8586872686
 10
-12.0223306421
 20
137.6052200167
 10
-10.2017409175
 20
135.1714787131
 10
-8.5324734276
 20
132.590375534
 10
-7.0371021517
 20
129.8968154719
 10
-5.735849421
 20
127.127224306
 10
-4.6463124465
 20
124.3190560056
 10
-3.7832253465
 20
121.5102862296
 10
-3.1582598936
 20
118.7388987708
 10
-2.7798676733
 20
116.0423718903
 10
-2.6531657914
 20
113.4571714884
  0
LWPOLYLINE
  5
2B0
330
274
100
AcDbEntity
  8
0
  6
Continuous
 62
     7
370
    25
100
AcDbPolyline
 90
       14
 70
   128
 43
0.0
 10
-21.0379421022
 20
-369.5271831922
 10
-21.1657255093
 20
-367.9081017543
 10
-21.5444573054
 20
-366.2000025566
 10
-22.1604491365
 20
-364.4646207544
 10
-22.9914374529
 20
-362.7646775677
 10
-24.0073881718
 20
-361.1616133723
 10
-25.1715821871
 20
-359.713367085
 10
-26.4419424939
 20
-358.4722821001
 10
-27.7725549607
 20
-357.4832144624
 10
-29.1153277862
 20
-356.7819116534
 10
-30.4217296618
 20
-356.3937205838
 10
-31.64454382
 20
-356.3326714904
 10
-32.7395745712
 20
-356.6009708463
 10
-33.1086035773
 20
-356.7846540093
  0
LWPOLYLINE
  5
2B2
330
274
100
AcDbEntity
  8
0
  6
Continuous
 62
     7
370
    25
100
AcDbPolyline
 90
       45
 70
   128
 43
0.0
 10
-46.8473396155
 20
-354.6277351515
 10
-46.7206377336
 20
-352.1888216286
 10
-46.3422455133
 20
-349.9291771064
 10
-45.7172800604
 20
-347.8793594005
 10
-44.8541929605
 20
-346.067088779
 10
-43.7646559859
 20
-344.5168730932
 10
-42.4634032552
 20
-343.2496763507
 10
-40.9680319793
 20
-342.2826352138
 10
-39.2987644895
 20
-341.6288272548
 10
-37.4781747648
 20
-341.2970941048
 10
-35.5308831582
 20
-341.2919218856
 10
-33.4832234481
 20
-341.6133805425
 10
-31.3628867193
 20
-342.2571228987
 10
-29.1985468887
 20
-343.2144434431
 10
-27.0194729395
 20
-344.4723960576
 10
-24.8551331089
 20
-346.0139690912
 10
-22.7347963801
 20
-347.8183154131
 10
-20.68713667
 20
-349.8610343345
 10
-18.7398450634
 20
-352.1145015865
 10
-16.9192553387
 20
-354.5482428901
 10
-15.2499878489
 20
-357.1293460692
 10
-13.754616573
 20
-359.8229061313
 10
-12.4533638423
 20
-362.5924972972
 10
-11.3638268678
 20
-365.4006655976
 10
-10.5007397678
 20
-368.2094353736
 10
-9.8757743149
 20
-370.9808228324
 10
-9.4973820946
 20
-373.6773497128
 10
-9.3706802127
 20
-376.2625501148
 10
-9.4973820946
 20
-378.7014636376
 10
-9.8757743149
 20
-380.9611081599
 10
-10.5007397678
 20
-383.0109258657
 10
-11.3638268678
 20
-384.8231964872
 10
-12.4533638423
 20
-386.3734121731
 10
-13.754616573
 20
-387.6406089155
 10
-15.2499878489
 20
-388.6076500524
 10
-16.9192553387
 20
-389.2614580114
 10
-18.7398450634
 20
-389.5931911614
 10
-20.68713667
 20
-389.5983633807
 10
-22.7347963801
 20
-389.2769047238
 10
-24.8551331089
 20
-388.6331623676
 10
-27.0194729395
 20
-387.6758418232
 10
-29.1985468887
 20
-386.4178892086
 10
-31.3628867193
 20
-384.876316175
 10
-33.4832234481
 20
-383.0719698532
 10
-35.380804544
 20
-381.1897529288
  0
LWPOLYLINE
  5
2B4
330
274
100
AcDbEntity
  8
0
  6
Continuous
 62
     7
370
    25
100
AcDbPolyline
 90
       29
 70
   128
 43
0.0
 10
-34.6404187003
 20
-338.6169092489
 10
-34.2505175581
 20
-338.4046966827
 10
-32.5812500682
 20
-337.7508887237
 10
-30.7606603436
 20
-337.4191555737
 10
-28.8133687369
 20
-337.4139833544
 10
-26.7657090268
 20
-337.7354420113
 10
-24.645372298
 20
-338.3791843675
 10
-22.4810324674
 20
-339.3365049119
 10
-20.3019585183
 20
-340.5944575265
 10
-18.1376186877
 20
-342.13603056
 10
-16.0172819589
 20
-343.9403768819
 10
-13.9696222487
 20
-345.9830958034
 10
-12.0223306421
 20
-348.2365630553
 10
-10.2017409175
 20
-350.6703043589
 10
-8.5324734276
 20
-353.2514075381
 10
-7.0371021517
 20
-355.9449676001
 10
-5.735849421
 20
-358.714558766
 10
-4.6463124465
 20
-361.5227270664
 10
-3.7832253465
 20
-364.3314968424
 10
-3.1582598936
 20
-367.1028843012
 10
-2.7798676733
 20
-369.7994111817
 10
-2.6531657914
 20
-372.3846115836
 10
-2.7798676733
 20
-374.8235251064
 10
-3.1582598936
 20
-377.0831696287
 10
-3.7832253465
 20
-379.1329873346
 10
-4.6463124465
 20
-380.9452579561
 10
-5.735849421
 20
-382.4954736419
 10
-7.0371021517
 20
-383.7626703844
 10
-8.1425722854
 20
-384.5174989551
  0
LWPOLYLINE
  5
2B5
330
274
100
AcDbEntity
  8
0
  6
Continuous
 62
     7
370
    25
100
AcDbPolyline
 90
       44
 70
   128
 43
0.0
 10
-25.2452274503
 20
-123.8590040223
 10
-25.3718217788
 20
-121.9347452046
 10
-25.7489066261
 20
-120.1976613234
 10
-26.3684450833
 20
-118.6847753057
 10
-27.2172327638
 20
-117.4283316904
 10
-28.2771792318
 20
-116.4551093919
 10
-29.5256935686
 20
-115.7858509537
 10
-30.9361658587
 20
-115.4348204575
 10
-32.478534334
 20
-115.4094995089
 10
-34.1199260883
 20
-115.71042778
 10
-35.825357706
 20
-116.3311915071
 10
-37.558480873
 20
-117.2585601891
 10
-39.2823570781
 20
-118.4727685727
 10
-40.9602448928
 20
-119.9479379141
 10
-42.5563830515
 20
-121.6526275399
 10
-44.0367526403
 20
-123.5505049505
 10
-45.3698021517
 20
-125.6011201837
 10
-46.5271199497
 20
-127.7607679362
 10
-47.4840398147
 20
-129.9834190654
 10
-48.2201666612
 20
-132.2217016214
 10
-48.7198112234
 20
-134.4279104976
 10
-48.9723244449
 20
-136.555024182
 10
-48.9723244449
 20
-138.5577069395
 10
-48.7198112234
 20
-140.3932750641
 10
-48.2201666612
 20
-142.0226066079
 10
-47.4840398147
 20
-143.4109751979
 10
-46.5271199497
 20
-144.5287901681
 10
-45.3698021517
 20
-145.352227233
 10
-44.0367526403
 20
-145.8637362612
 10
-42.5563830515
 20
-146.0524153258
 10
-40.9602448928
 20
-145.9142430601
 10
-39.2823570781
 20
-145.4521643661
 10
-37.558480873
 20
-144.676027649
 10
-35.825357706
 20
-143.6023749152
 10
-34.1199260883
 20
-142.254089209
 10
-32.478534334
 20
-140.6599068991
 10
-30.9361658587
 20
-138.853805214
 10
-29.5256935686
 20
-136.8742780752
 10
-28.2771792318
 20
-134.763515667
 10
-27.2172327638
 20
-132.5665052255
 10
-26.3684450833
 20
-130.330072214
 10
-25.7489066261
 20
-128.1018823193
 10
-25.3718217788
 20
-125.9294255406
 10
-25.2452274503
 20
-123.8590040223
  0
LWPOLYLINE
  5
2B6
330
274
100
AcDbEntity
  8
0
  6
Continuous
 62
     7
370
    25
100
AcDbPolyline
 90
       23
 70
   128
 43
0.0
 10
-45.7653519579
 20
-145.3580220109
 10
-46.7804758128
 20
-144.6115774284
 10
-47.7487875809
 20
-143.4804551372
 10
-48.4936778422
 20
-142.0755583497
 10
-48.999270554
 20
-140.4268300017
 10
-49.2547898853
 20
-138.5694098757
 10
-49.2547898853
 20
-136.5428856568
 10
-48.999270554
 20
-134.3904491904
 10
-48.4936778422
 20
-132.1579759228
 10
-47.7487875809
 20
-129.8930471459
 10
-46.7804758128
 20
-127.6439358842
 10
-45.609380422
 20
-125.4585780395
 10
-44.2604612735
 20
-123.3835507201
 10
-42.7624682372
 20
-121.4630795309
 10
-41.1473284338
 20
-119.7380959809
 10
-39.4494657642
 20
-118.2453650997
 10
-37.7050672233
 20
-117.0167018545
 10
-35.9513116376
 20
-116.0782930691
 10
-34.2255772626
 20
-115.4501392976
 10
-32.5646451303
 20
-115.1456285471
 10
-31.0039151255
 20
-115.1712509355
 10
-29.5766514986
 20
-115.5264603662
 10
-28.7667335031
 20
-115.91236069
  0
LWPOLYLINE
  5
2B7
330
274
100
AcDbEntity
  8
0
  6
Continuous
 62
     7
370
    25
100
AcDbPolyline
 90
       23
 70
   128
 43
0.0
 10
-44.0402399767
 20
-107.0951530823
 10
-44.8501579722
 20
-106.7092527585
 10
-46.2774215991
 20
-106.3540433278
 10
-47.8381516039
 20
-106.3284209394
 10
-49.4990837362
 20
-106.6329316899
 10
-51.2248181112
 20
-107.2610854614
 10
-52.9785736969
 20
-108.1994942468
 10
-54.7229722378
 20
-109.428157492
 10
-56.4208349074
 20
-110.9208883732
 10
-58.0359747108
 20
-112.6458719232
 10
-59.5339677471
 20
-114.5663431125
 10
-60.8828868956
 20
-116.6413704318
 10
-62.0539822864
 20
-118.8267282765
 10
-63.0222940546
 20
-121.0758395382
 10
-63.7671843159
 20
-123.3407683151
 10
-64.2727770276
 20
-125.5732415827
 10
-64.528296359
 20
-127.7256780491
 10
-64.528296359
 20
-129.752202268
 10
-64.2727770276
 20
-131.609622394
 10
-63.7671843159
 20
-133.258350742
 10
-63.0222940546
 20
-134.6632475295
 10
-62.0539822864
 20
-135.7943698207
 10
-61.0388584315
 20
-136.5408144032
  0
LWPOLYLINE
  5
2B9
330
274
100
AcDbEntity
  8
0
  6
Continuous
 62
     7
370
    25
100
AcDbPolyline
 90
        8
 70
   128
 43
0.0
 10
-45.6099027485
 20
-154.8051842124
 10
-44.7564371901
 20
-155.1501730912
 10
-43.7500496332
 20
-155.3058449189
 10
-42.7121252696
 20
-155.2534233756
 10
-41.7678530959
 20
-154.9992312732
 10
-41.031126272
 20
-154.5739279306
 10
-40.590804926
 20
-154.0288112079
 10
-40.4885824049
 20
-153.5805720447
  0
LWPOLYLINE
  5
2BC
330
274
100
AcDbEntity
  8
0
  6
Continuous
 62
     8
370
    25
100
AcDbPolyline
 90
       17
 70
   128
 43
0.0
 10
-84.077619815
 20
-84.3709015981
 10
-84.142747745
 20
-85.2496666573
 10
-85.3455480182
 20
-86.3676313936
 10
-86.3502872272
 20
-87.0455118004
 10
-87.6521004969
 20
-87.8261988835
 10
-88.26715795
 20
-88.1718883931
 10
-91.3424783092
 20
-89.748517094
 10
-94.6686428117
 20
-91.1914642459
 10
-98.3890441691
 20
-92.3558567303
 10
-100.1053505909
 20
-92.6325192027
 10
-101.8070559041
 20
-92.6434146726
 10
-104.1695878537
 20
-91.9518326567
 10
-106.0139889709
 20
-90.3442646638
 10
-106.8135982472
 20
-89.0131059957
 10
-107.3615538827
 20
-87.4911391854
 10
-107.6737669584
 20
-84.5880089696
 10
-107.6737669584
 20
-84.5880089696
  0
SPLINE
  5
2BD
330
274
100
AcDbEntity
  8
0
  6
Continuous
 62
     8
370
    25
100
AcDbSpline
210
0.0
220
0.0
230
1.0
 70
     8
 71
     3
 72
    12
 73
     8
 74
     0
 42
0.000000001
 43
0.00000001
 40
0.0
 40
0.0
 40
0.0
 40
0.0
 40
0.25
 40
0.25
 40
0.5
 40
0.5
 40
1.0
 40
1.0
 40
1.0
 40
1.0
 10
-89.52713495434563
 20
-81.80914540855522
 30
0.0
 10
-89.97602541933416
 20
-81.54952125045736
 30
0.0
 10
-90.43443975507084
 20
-81.28622736602658
 30
0.0
 10
-91.37124867346583
 20
-80.76202076261431
 30
0.0
 10
-91.84966336377073
 20
-80.50111131061367
 30
0.0
 10
-93.31958517542735
 20
-79.7374662963767
 30
0.0
 10
-94.30782103156066
 20
-79.27316770032368
 30
0.0
 10
-95.32198840668849
 20
-78.88701091391296
 30
0.0
  0
LINE
  5
2BE
330
274
100
AcDbEntity
  8
0
  6
Continuous
 62
     7
370
    25
100
AcDbLine
 10
-77.35343627
 20
-87.8638542119
 30
0.0
 11
-95.8004563595
 21
-77.2146161896
 31
0.0
  0
LINE
  5
2BF
330
274
100
AcDbEntity
  8
0
  6
Continuous
 62
     7
370
    25
100
AcDbLine
 10
-112.7990748144
 20
-106.6602775105
 30
0.0
 11
-90.6666325632
 21
-119.4370644605
 31
0.0
  0
LINE
  5
2C0
330
274
100
AcDbEntity
  8
0
  6
Continuous
 62
     7
370
    25
100
AcDbLine
 10
-44.3230826892
 20
-106.9318714599
 30
0.0
 11
-57.35343627
 21
-99.4096084536
 31
0.0
  0
LINE
  5
2C1
330
274
100
AcDbEntity
  8
0
  6
Continuous
 62
     7
370
    25
100
AcDbLine
 10
-90.3837898507
 20
-119.6003460829
 30
0.0
 11
-61.321701144
 21
-136.3775327809
 31
0.0
  0
LINE
  5
2C2
330
274
100
AcDbEntity
  8
0
  6
Continuous
 62
     7
370
    25
100
AcDbLine
 10
-77.35343627
 20
138.5683559301
 30
0.0
 11
-77.35343627
 21
-101.2007443176
 31
0.0
  0
LINE
  5
2C3
330
274
100
AcDbEntity
  8
0
  6
Continuous
 62
     7
370
    25
100
AcDbLine
 10
-77.35343627
 20
-127.1226090892
 30
0.0
 11
-77.35343627
 21
-428.9275083305
 31
0.0
  0
LINE
  5
2C4
330
274
100
AcDbEntity
  8
0
  6
Continuous
 62
     7
370
    25
100
AcDbLine
 10
-57.35343627
 20
103.5151307878
 30
0.0
 11
-57.35343627
 21
138.5683559301
 31
0.0
  0
LINE
  5
2C5
330
274
100
AcDbEntity
  8
0
  6
Continuous
 62
     7
370
    25
100
AcDbLine
 10
-57.35343627
 20
-382.3266522842
 30
0.0
 11
-57.35343627
 21
-138.6683633309
 31
0.0
  0
LINE
  5
2C6
330
274
100
AcDbEntity
  8
0
  6
Continuous
 62
     7
370
    25
100
AcDbLine
 10
-57.35343627
 20
-101.3026434628
 30
0.0
 11
-57.35343627
 21
91.9674998838
 31
0.0
  0
LINE
  5
2C7
330
274
100
AcDbEntity
  8
0
  6
Continuous
 62
     7
370
    25
100
AcDbLine
 10
-57.35343627
 20
-428.9275083305
 30
0.0
 11
-57.35343627
 21
-393.8742831882
 31
0.0
  0
LINE
  5
2C8
330
274
100
AcDbEntity
  8
0
  6
Continuous
 62
     7
370
    25
100
AcDbLine
 10
-33.1086035773
 20
129.0571290627
 30
0.0
 11
-57.35343627
 21
115.0608850677
 31
0.0
  0
LINE
  5
2C9
330
274
100
AcDbEntity
  8
0
  6
Continuous
 62
     7
370
    25
100
AcDbLine
 10
-57.353436303
 20
91.9674998266
 30
0.0
 11
-23.1094162509
 21
111.7361518151
 31
0.0
  0
LINE
  5
2CA
330
274
100
AcDbEntity
  8
0
  6
Continuous
 62
     7
370
    25
100
AcDbLine
 10
-34.6404187003
 20
147.2248738231
 30
0.0
 11
-41.3579331215
 21
143.346935292
 31
0.0
  0
LINE
  5
2CB
330
274
100
AcDbEntity
  8
0
  6
Continuous
 62
     7
370
    25
100
AcDbLine
 10
-14.8600867067
 20
97.4463455858
 30
0.0
 11
-8.1425722854
 21
101.324284117
 31
0.0
  0
LINE
  5
2CC
330
274
100
AcDbEntity
  8
0
  6
Continuous
 62
     7
370
    25
100
AcDbLine
 10
-33.1086035773
 20
-356.7846540093
 30
0.0
 11
-57.35343627
 21
-370.7808980044
 31
0.0
  0
LINE
  5
2CD
330
274
100
AcDbEntity
  8
0
  6
Continuous
 62
     7
370
    25
100
AcDbLine
 10
-57.353436303
 20
-393.8742832454
 30
0.0
 11
-23.1094162509
 21
-374.1056312569
 31
0.0
  0
LINE
  5
2CE
330
274
100
AcDbEntity
  8
0
  6
Continuous
 62
     7
370
    25
100
AcDbLine
 10
-34.6404187003
 20
-338.6169092489
 30
0.0
 11
-41.3579331215
 21
-342.49484778
 31
0.0
  0
LINE
  5
2CF
330
274
100
AcDbEntity
  8
0
  6
Continuous
 62
     7
370
    25
100
AcDbLine
 10
-14.8600867067
 20
-388.3954374862
 30
0.0
 11
-8.1425722854
 21
-384.5174989551
 31
0.0
  0
LINE
  5
2D0
330
274
100
AcDbEntity
  8
0
  6
Continuous
 62
     7
370
    25
100
AcDbLine
 10
-61.0388584315
 20
-136.5408144032
 30
0.0
 11
-45.7653519579
 21
-145.3580220109
 31
0.0
  0
LINE
  5
2D1
330
274
100
AcDbEntity
  8
0
  6
Continuous
 62
     7
370
    25
100
AcDbLine
 10
-28.7667335031
 20
-115.91236069
 30
0.0
 11
-44.0402399767
 21
-107.0951530823
 31
0.0
  0
LINE
  5
2D2
330
274
100
AcDbEntity
  8
0
  6
Continuous
 62
     7
370
    25
100
AcDbLine
 10
-46.4885824049
 20
-144.9405099608
 30
0.0
 11
-46.4885824049
 21
-153.5805720447
 31
0.0
  0
LINE
  5
2D3
330
274
100
AcDbEntity
  8
0
  6
Continuous
 62
     7
370
    25
100
AcDbLine
 10
-40.4885824049
 20
-153.5805720447
 30
0.0
 11
-40.4885824049
 21
-145.8151895267
 31
0.0
  0
LINE
  5
2D4
330
274
100
AcDbEntity
  8
0
  6
Continuous
 62
     7
370
    25
100
AcDbLine
 10
-107.6737669584
 20
-84.5880089696
 30
0.0
 11
-110.1333965317
 21
-83.1680950407
 31
0.0
  0
LINE
  5
2D5
330
274
100
AcDbEntity
  8
0
  6
Continuous
 62
     7
370
    25
100
AcDbLine
 10
-98.4661346422
 20
-76.4327281181
 30
0.0
 11
-96.0065050688
 21
-77.8526420471
 31
0.0
  0
LINE
  5
2D6
330
274
100
AcDbEntity
  8
0
  6
Continuous
 62
     7
370
    25
100
AcDbLine
 10
-98.4661346422
 20
-76.4327281181
 30
0.0
 11
-98.4661346422
 21
-92.1014432776
 31
0.0
  0
LINE
  5
2D7
330
274
100
AcDbEntity
  8
0
  6
Continuous
 62
     7
370
    25
100
AcDbLine
 10
-57.35343627
 20
-101.0269889059
 30
0.0
 11
-57.3710003003
 21
-100.9105263778
 31
0.0
  0
ARC
  5
2D8
330
274
100
AcDbEntity
  8
0
  6
Continuous
 62
     7
370
    25
100
AcDbCircle
 10
-38.9080713812
 20
-129.6872683813
 30
0.0
 40
25.67203124176242
100
AcDbArc
 50
122.2641752254
 51
177.7412015778
  0
ARC
  5
2D9
330
274
100
AcDbEntity
  8
0
  6
Continuous
 62
     7
370
    25
100
AcDbCircle
 10
-68.2530024964
 20
-112.7468002514
 30
0.0
 40
25.67203159095056
100
AcDbArc
 50
122.2641768635
 51
177.741199286
  0
ARC
  5
2DA
330
274
100
AcDbEntity
  8
0
  6
Continuous
 62
     7
370
    25
100
AcDbCircle
 10
-77.7396752639
 20
104.2103155429
 30
0.0
 40
20.39808868890177
100
AcDbArc
 50
328.8516082788
 51
358.0469313681
  0
ARC
  5
2DB
330
274
100
AcDbEntity
  8
0
  6
Continuous
 62
     7
370
    25
100
AcDbCircle
 10
-77.7396752639
 20
-381.6314675291
 30
0.0
 40
20.39808868890202
100
AcDbArc
 50
328.8516082788
 51
358.0469313681
  0
ARC
  5
2DC
330
274
100
AcDbEntity
  8
0
  6
Continuous
 62
     7
370
    25
100
AcDbCircle
 10
-25.9641973294
 20
-370.0561802515
 30
0.0
 40
4.954576515844446
100
AcDbArc
 50
305.183062727
 51
6.1291176664
  0
ARC
  5
2DD
330
274
100
AcDbEntity
  8
0
  6
Continuous
 62
     7
370
    25
100
AcDbCircle
 10
-14.064838763
 20
-354.1593507792
 30
0.0
 40
32.78584673399394
100
AcDbArc
 50
180.8185654281
 51
197.2263196501
  0
ARC
  5
2DE
330
274
100
AcDbEntity
  8
0
  6
Continuous
 62
     7
370
    25
100
AcDbCircle
 10
-38.9080714511
 20
-129.6872683378
 30
0.0
 40
25.6720311617429
100
AcDbArc
 50
122.264174844
 51
177.7412020966
  0
ARC
  5
2DF
330
274
100
AcDbEntity
  8
0
  6
Continuous
 62
     7
370
    25
100
AcDbCircle
 10
-45.0641340416
 20
-153.4860463234
 30
0.0
 40
1.427581259240142
100
AcDbArc
 50
183.7965546053
 51
247.5235863524
  0
ARC
  5
2E0
330
274
100
AcDbEntity
  8
0
  6
Continuous
 62
     8
370
    25
100
AcDbCircle
 10
-68.2464910191
 20
-112.7549838296
 30
0.0
 40
25.68242761331584
100
AcDbArc
 50
122.266715365
 51
177.542361958
  0
VIEWPORT
  5
3CC
330
274
100
AcDbEntity
  8
0
100
AcDbViewport
 10
0.0
 20
0.0
 30
0.0
 40
205.6
 41
156.0
 68
     1
 69
     1
 12
-35.0021430454
 22
-160.4272048014
 13
0.0
 23
0.0
 14
10.0
 24
10.0
 15
10.0
 25
10.0
 16
0.0
 26
0.0
 36
1.0
 17
0.0
 27
0.0
 37
0.0
 42
50.0
 43
0.0
 44
0.0
 45
708.9
 50
0.0
 51
0.0
 72
   100
 90
   557152
  1

281
     0
 71
     1
 74
     0
110
0.0
120
0.0
130
0.0
111
1.0
121
0.0
131
0.0
112
0.0
122
1.0
132
0.0
 79
     0
146
0.0
  0
ENDBLK
  5
277
330
274
100
AcDbEntity
  8
0
100
AcDbBlockEnd
  0
BLOCK
  5
2E3
330
2E1
100
AcDbEntity
  8
0
100
AcDbBlockBegin
  2
*Paper_Space5
 70
     0
 10
0.0
 20
0.0
 30
0.0
  3
*Paper_Space5
  1

  0
SPLINE
  5
2E9
330
2E1
100
AcDbEntity
  8
0
  6
Continuous
 62
     7
370
    25
100
AcDbSpline
210
0.0
220
0.0
230
1.0
 70
     8
 71
     3
 72
    21
 73
    17
 74
     0
 42
0.000000001
 43
0.00000001
 40
0.0
 40
0.0
 40
0.0
 40
0.0
 40
0.0033129018590199
 40
0.0864857639579679
 40
0.1739925875819857
 40
0.2649028247032784
 40
0.357487556648363
 40
0.4364119486592052
 40
0.509538758839313
 40
0.586506911081736
 40
0.6596409496427486
 40
0.7325931728413199
 40
0.8095433148514164
 40
0.8922022936710096
 40
0.9816378108301986
 40
1.0
 40
1.0
 40
1.0
 40
1.0
 10
-86.19680033884683
 20
-107.7899948897606
 30
0.0
 10
-86.21485418415838
 20
-107.8027705632381
 30
0.0
 10
-86.68616322698391
 20
-108.1362890095404
 30
0.0
 10
-87.754457953304
 20
-108.7970069862274
 30
0.0
 10
-89.39358341725067
 20
-109.73080796142
 30
0.0
 10
-91.1800634098647
 20
-110.5823345103826
 30
0.0
 10
-92.9569366972019
 20
-111.2357113245892
 30
0.0
 10
-94.64102745376418
 20
-111.6291256686974
 30
0.0
 10
-96.21518108040561
 20
-111.7511491391902
 30
0.0
 10
-97.70915353732842
 20
-111.5871018298763
 30
0.0
 10
-99.09600753772101
 20
-111.1027225290164
 30
0.0
 10
-100.3345626563514
 20
-110.3546825771628
 30
0.0
 10
-101.4423803970573
 20
-109.3489504479486
 30
0.0
 10
-102.3912012016466
 20
-108.1044285126457
 30
0.0
 10
-103.0027402282488
 20
-107.0761588899691
 30
0.0
 10
-103.20139311091
 20
-106.4766673807533
 30
0.0
 10
-103.235231510026
 20
-106.3745503981869
 30
0.0
  0
SPLINE
  5
2EA
330
2E1
100
AcDbEntity
  8
0
  6
Continuous
 62
     7
370
    25
100
AcDbSpline
210
0.0
220
0.0
230
1.0
 70
     8
 71
     3
 72
    15
 73
    11
 74
     0
 42
0.000000001
 43
0.00000001
 40
0.0
 40
0.0
 40
0.0
 40
0.0
 40
0.0127806985723046
 40
0.1477919335072716
 40
0.2791055319115968
 40
0.4185967633132183
 40
0.5616614998356089
 40
0.7066233348665553
 40
0.8535100897959524
 40
1.0
 40
1.0
 40
1.0
 40
1.0
 10
-81.47436724759868
 20
-103.3236982850536
 30
0.0
 10
-81.47334184142782
 20
-103.3256255196487
 30
0.0
 10
-81.46148437058893
 20
-103.3479114475675
 30
0.0
 10
-81.4783576241376
 20
-103.4937912131894
 30
0.0
 10
-81.68626575773244
 20
-103.9040801538658
 30
0.0
 10
-82.14326446212846
 20
-104.4823616473536
 30
0.0
 10
-82.84388684946721
 20
-105.193831053662
 30
0.0
 10
-83.7828293095925
 20
-106.012342738666
 30
0.0
 10
-84.89977781815273
 20
-106.8919979882763
 30
0.0
 10
-85.76484955367218
 20
-107.4909326448946
 30
0.0
 10
-86.19680033884683
 20
-107.7899948897606
 30
0.0
  0
LWPOLYLINE
  5
301
330
2E1
100
AcDbEntity
  8
0
  6
Continuous
 62
     7
370
    25
100
AcDbPolyline
 90
       16
 70
   128
 43
0.0
 10
-83.5531250703
 20
-129.0561412469
 10
-83.4685772537
 20
-126.8519424671
 10
-83.2167357936
 20
-124.5296798355
 10
-82.8029682535
 20
-122.1388483483
 10
-82.2360933703
 20
-119.7304044277
 10
-81.5281930979
 20
-117.3556798745
 10
-80.6943551015
 20
-115.0652878197
 10
-79.7523511904
 20
-112.9080439934
 10
-78.7222585424
 20
-110.9299263026
 10
-77.6260317941
 20
-109.1730948915
 10
-76.4870351153
 20
-107.6749935714
 10
-75.3295442427
 20
-106.4675517712
 10
-74.1782290847
 20
-105.5765040164
 10
-73.0576279251
 20
-105.020841443
 10
-71.9916244321
 20
-104.8124070341
 10
-71.1607952001
 20
-104.9075588687
  0
LWPOLYLINE
  5
302
330
2E1
100
AcDbEntity
  8
0
  6
Continuous
 62
     7
370
    25
100
AcDbPolyline
 90
        8
 70
   128
 43
0.0
 10
-80.077811717
 20
-137.7174173938
 10
-80.6943551015
 20
-137.4665004156
 10
-81.5281930979
 20
-136.8038112547
 10
-82.2360933703
 20
-135.8109514367
 10
-82.8029682535
 20
-134.5090820449
 10
-83.2167357936
 20
-132.925950165
 10
-83.4685772537
 20
-131.0952975046
 10
-83.5531250703
 20
-129.0561412469
  0
SPLINE
  5
304
330
2E1
100
AcDbEntity
  8
0
  6
Continuous
 62
     7
370
    25
100
AcDbSpline
210
0.0
220
0.0
230
1.0
 70
     8
 71
     3
 72
    11
 73
     7
 74
     0
 42
0.000000001
 43
0.00000001
 40
0.0
 40
0.0
 40
0.0
 40
0.0
 40
0.160917099239677
 40
0.4703276697763512
 40
0.7803768002506934
 40
1.0
 40
1.0
 40
1.0
 40
1.0
 10
-101.070506225037
 20
-132.007264060578
 30
0.0
 10
-100.7790637945073
 20
-132.0845419660085
 30
0.0
 10
-99.92723735795907
 20
-132.310409430424
 30
0.0
 10
-97.96013911070428
 20
-132.7880787124033
 30
0.0
 10
-95.52299435456185
 20
-133.4981837651164
 30
0.0
 10
-93.94664630670336
 20
-133.9354145205719
 30
0.0
 10
-93.29302975466813
 20
-134.1167077693648
 30
0.0
  0
LWPOLYLINE
  5
305
330
2E1
100
AcDbEntity
  8
0
  6
Continuous
 62
     7
370
    25
100
AcDbPolyline
 90
       15
 70
   128
 43
0.0
 10
-107.7600989255
 20
-130.1939648902
 10
-108.1578820907
 20
-130.052054295
 10
-109.0519323152
 20
-129.4411315904
 10
-109.8133581577
 20
-128.4692130215
 10
-110.4245982909
 20
-127.1587146648
 10
-110.8715552316
 20
-125.5398615132
 10
-111.1439204813
 20
-123.6499903742
 10
-111.2354122788
 20
-121.5326887433
 10
-111.1439204813
 20
-119.2367895139
 10
-110.8715552316
 20
-116.8152447079
 10
-110.4245982909
 20
-114.3239042039
 10
-109.8133581577
 20
-111.8202276304
 10
-109.0519323152
 20
-109.3619591317
 10
-108.1578820907
 20
-107.0057955722
 10
-107.1518276257
 20
-104.8060788945
  0
SPLINE
  5
307
330
2E1
100
AcDbEntity
  8
0
  6
Continuous
 62
     7
370
    25
100
AcDbSpline
210
0.0
220
0.0
230
1.0
 70
     8
 71
     3
 72
    34
 73
    30
 74
     0
 42
0.000000001
 43
0.00000001
 40
0.0
 40
0.0
 40
0.0
 40
0.0
 40
0.1250000000000034
 40
0.1250000000000034
 40
0.1875000000000051
 40
0.1875000000000051
 40
0.2500000000000068
 40
0.2500000000000068
 40
0.3125000000000084
 40
0.3125000000000084
 40
0.3437500000000092
 40
0.3437500000000092
 40
0.3750000000000099
 40
0.3750000000000099
 40
0.4375000000000114
 40
0.4375000000000114
 40
0.4687500000000112
 40
0.4687500000000112
 40
0.500000000000011
 40
0.500000000000011
 40
0.6250000000000082
 40
0.6250000000000082
 40
0.7500000000000054
 40
0.7500000000000054
 40
0.8125000000000039
 40
0.8125000000000039
 40
0.8750000000000023
 40
0.8750000000000023
 40
1.0
 40
1.0
 40
1.0
 40
1.0
 10
-96.37495700961622
 20
-98.12627898572501
 30
0.0
 10
-95.57025667611725
 20
-98.27837099919404
 30
0.0
 10
-94.75182020541929
 20
-98.48614875150204
 30
0.0
 10
-93.49819011252899
 20
-98.85014201283522
 30
0.0
 10
-93.07557846984338
 20
-98.98035286826634
 30
0.0
 10
-92.21762928405968
 20
-99.25400368339655
 30
0.0
 10
-91.78398446423758
 20
-99.39693054061698
 30
0.0
 10
-90.92116904425401
 20
-99.68382109642859
 30
0.0
 10
-90.4897424756482
 20
-99.82850212894664
 30
0.0
 10
-89.84099808183588
 20
-100.0428620551634
 30
0.0
 10
-89.62448220111831
 20
-100.1138720509807
 30
0.0
 10
-89.1906494513782
 20
-100.2542620942533
 30
0.0
 10
-88.97262205315145
 20
-100.3238548117412
 30
0.0
 10
-88.32800694021023
 20
-100.5256890108148
 30
0.0
 10
-87.90788566862355
 20
-100.651894165424
 30
0.0
 10
-87.29211065281866
 20
-100.8264072045563
 30
0.0
 10
-87.08926145787318
 20
-100.8821311823632
 30
0.0
 10
-86.68847596291016
 20
-100.9885500579258
 30
0.0
 10
-86.48965027220173
 20
-101.0394601656844
 30
0.0
 10
-85.52007243725295
 20
-101.2786582681012
 30
0.0
 10
-84.82743588630576
 20
-101.4192319828119
 30
0.0
 10
-83.58797691075544
 20
-101.6490524100379
 30
0.0
 10
-83.06667825627349
 20
-101.7348909882702
 30
0.0
 10
-82.40312257065455
 20
-101.8656591918668
 30
0.0
 10
-82.20180526762468
 20
-101.9094746598238
 30
0.0
 10
-81.83976765223136
 20
-102.0034493573147
 30
0.0
 10
-81.68122288110447
 20
-102.0530367114095
 30
0.0
 10
-81.26937403124079
 20
-102.2174819316511
 30
0.0
 10
-81.0787660034395
 20
-102.3478276497524
 30
0.0
 10
-80.97659113497298
 20
-102.518684420524
 30
0.0
  0
SPLINE
  5
309
330
2E1
100
AcDbEntity
  8
0
  6
Continuous
 62
     7
370
    25
100
AcDbSpline
210
0.0
220
0.0
230
1.0
 70
     8
 71
     3
 72
    14
 73
    10
 74
     0
 42
0.000000001
 43
0.00000001
 40
0.0
 40
0.0
 40
0.0
 40
0.0
 40
0.25
 40
0.25
 40
0.5
 40
0.5
 40
0.75
 40
0.75
 40
1.0
 40
1.0
 40
1.0
 40
1.0
 10
-104.0754309269622
 20
-105.6421775979955
 30
0.0
 10
-103.97518552117
 20
-105.6694221512906
 30
0.0
 10
-103.8768722347211
 20
-105.7177306482286
 30
0.0
 10
-103.6920894828624
 20
-105.8367623799748
 30
0.0
 10
-103.6054057953331
 20
-105.9077696819205
 30
0.0
 10
-103.4474379304393
 20
-106.0676081621566
 30
0.0
 10
-103.377934616512
 20
-106.1539556609704
 30
0.0
 10
-103.2651787683133
 20
-106.3444497929314
 30
0.0
 10
-103.2225565223331
 20
-106.4473961361901
 30
0.0
 10
-103.2192675345798
 20
-106.5458735659101
 30
0.0
  0
SPLINE
  5
30B
330
2E1
100
AcDbEntity
  8
0
  6
Continuous
 62
     7
370
    25
100
AcDbSpline
210
0.0
220
0.0
230
1.0
 70
     8
 71
     3
 72
    14
 73
    10
 74
     0
 42
0.000000001
 43
0.00000001
 40
0.0
 40
0.0
 40
0.0
 40
0.0
 40
0.25
 40
0.25
 40
0.5
 40
0.5
 40
0.75
 40
0.75
 40
1.0
 40
1.0
 40
1.0
 40
1.0
 10
-95.51879361723338
 20
-99.02997495364362
 30
0.0
 10
-95.52209029604664
 20
-98.93126724154402
 30
0.0
 10
-95.56466484943117
 20
-98.82887805402636
 30
0.0
 10
-95.67618365582115
 20
-98.63995828224128
 30
0.0
 10
-95.74748008524733
 20
-98.55119608420762
 30
0.0
 10
-95.90429502552713
 20
-98.39250675259582
 30
0.0
 10
-95.9922792584702
 20
-98.3204172046529
 30
0.0
 10
-96.17607427821255
 20
-98.20205983901305
 30
0.0
 10
-96.27469025819954
 20
-98.15352934030346
 30
0.0
 10
-96.37495700961622
 20
-98.12627898572501
 30
0.0
  0
SPLINE
  5
30C
330
2E1
100
AcDbEntity
  8
0
  6
Continuous
 62
     7
370
    25
100
AcDbSpline
210
0.0
220
0.0
230
1.0
 70
     8
 71
     3
 72
     9
 73
     5
 74
     0
 42
0.000000001
 43
0.00000001
 40
0.0
 40
0.0
 40
0.0
 40
0.0
 40
0.4161053018924044
 40
0.9999999999999999
 40
0.9999999999999999
 40
0.9999999999999999
 40
0.9999999999999999
 10
-95.51879361723338
 20
-99.02997495364363
 30
0.0
 10
-95.46048470451986
 20
-100.776381516699
 30
0.0
 10
-95.32035452004887
 20
-104.9734118239624
 30
0.0
 10
-95.1725192667768
 20
-109.1722860071922
 30
0.0
 10
-95.08619904619785
 20
-111.623986380801
 30
0.0
  0
LWPOLYLINE
  5
30E
330
2E1
100
AcDbEntity
  8
0
  6
Continuous
 62
     7
370
    25
100
AcDbPolyline
 90
       18
 70
   128
 43
0.0
 10
-37.510806959
 20
-115.9143143021
 10
-37.8815447356
 20
-116.1847549234
 10
-39.0254180685
 20
-117.2244292007
 10
-40.1631883422
 20
-118.564861695
 10
-41.2706059588
 20
-120.1774834148
 10
-42.3240682343
 20
-122.0279241279
 10
-43.3011224493
 20
-124.0767449031
 10
-44.1809443895
 20
-126.2802786826
 10
-44.9447821779
 20
-128.5915609698
 10
-45.5763559379
 20
-130.9613307952
 10
-46.0622047716
 20
-133.3390806294
 10
-46.3919736544
 20
-135.6741328627
 10
-46.5586341353
 20
-137.9167199109
 10
-46.5586341353
 20
-140.0190449245
 10
-46.3919736544
 20
-141.9363004957
 10
-46.0622047716
 20
-143.6276236507
 10
-45.5763559379
 20
-145.0569667728
 10
-45.4856344605
 20
-145.2574202194
  0
LWPOLYLINE
  5
30F
330
2E1
100
AcDbEntity
  8
0
  6
Continuous
 62
     7
370
    25
100
AcDbPolyline
 90
       24
 70
   128
 43
0.0
 10
-43.3744596674
 20
-147.6926020232
 10
-43.5323162482
 20
-147.6445176848
 10
-44.4226122592
 20
-147.1526637602
 10
-45.1955433545
 20
-146.3226750964
 10
-45.8346358498
 20
-145.1722414609
 10
-46.3262685982
 20
-143.7258823492
 10
-46.659963301
 20
-142.0144243948
 10
-46.8286078352
 20
-140.0743443525
 10
-46.8286078352
 20
-137.9469916602
 10
-46.659963301
 20
-135.6777071472
 10
-46.3262685982
 20
-133.3148566729
 10
-45.8346358498
 20
-130.9088002931
 10
-45.1955433545
 20
-128.5108189221
 10
-44.4226122592
 20
-126.1720213697
 10
-43.5323162482
 20
-123.9422550451
 10
-42.5436304354
 20
-121.8690435464
 10
-41.4776269423
 20
-119.9965737772
 10
-40.3570257827
 20
-118.3647541798
 10
-39.2057106248
 20
-117.0083641559
 10
-38.0482197522
 20
-115.9563128038
 10
-36.9092230734
 20
-115.2310227716
 10
-35.812996325
 20
-114.8479523572
 10
-34.7829036771
 20
-114.8152660414
 10
-34.4574431505
 20
-114.8827434981
  0
LWPOLYLINE
  5
310
330
2E1
100
AcDbEntity
  8
0
  6
Continuous
 62
     7
370
    25
100
AcDbPolyline
 90
       24
 70
   128
 43
0.0
 10
-70.8070279514
 20
-105.0037052265
 10
-71.132488478
 20
-104.9362277699
 10
-72.162581126
 20
-104.9689140857
 10
-73.2588078743
 20
-105.3519845001
 10
-74.3978045531
 20
-106.0772745323
 10
-75.5552954257
 20
-107.1293258844
 10
-76.7066105837
 20
-108.4857159083
 10
-77.8272117433
 20
-110.1175355057
 10
-78.8932152363
 20
-111.9900052749
 10
-79.8819010491
 20
-114.0632167736
 10
-80.7721970601
 20
-116.2929830982
 10
-81.5451281554
 20
-118.6317806506
 10
-82.1842206508
 20
-121.0297620216
 10
-82.6758533991
 20
-123.4358184014
 10
-83.009548102
 20
-125.7986688757
 10
-83.1781926361
 20
-128.0679533887
 10
-83.1781926361
 20
-130.195306081
 10
-83.009548102
 20
-132.1353861233
 10
-82.6758533991
 20
-133.8468440777
 10
-82.1842206508
 20
-135.2932031894
 10
-81.5451281554
 20
-136.4436368249
 10
-80.7721970601
 20
-137.2736254887
 10
-79.8819010491
 20
-137.7654794133
 10
-79.7240444683
 20
-137.8135637517
  0
SPLINE
  5
311
330
2E1
100
AcDbEntity
  8
0
  6
Continuous
 62
     7
370
    25
100
AcDbSpline
210
0.0
220
0.0
230
1.0
 70
     8
 71
     3
 72
    13
 73
     9
 74
     0
 42
0.000000001
 43
0.00000001
 40
0.0
 40
0.0
 40
0.0
 40
0.0
 40
0.1896901903838055
 40
0.3898892518807715
 40
0.627857611696368
 40
0.7630741281020091
 40
0.902683768260992
 40
1.0
 40
1.0
 40
1.0
 40
1.0
 10
-61.95493205948716
 20
-119.5838623980213
 30
0.0
 10
-62.71416615827982
 20
-119.2888490098509
 30
0.0
 10
-64.27469606328812
 20
-118.6824784380472
 30
0.0
 10
-66.07365967869544
 20
-116.7949563950201
 30
0.0
 10
-67.08535971363125
 20
-114.7959032932569
 30
0.0
 10
-67.44073167939798
 20
-112.9896180575921
 30
0.0
 10
-67.43794682162688
 20
-111.7150999715173
 30
0.0
 10
-67.19183367338782
 20
-111.0128609298847
 30
0.0
 10
-67.0907438093887
 20
-110.7244194153965
 30
0.0
  0
SPLINE
  5
312
330
2E1
100
AcDbEntity
  8
0
  6
Continuous
 62
     7
370
    25
100
AcDbSpline
210
0.0
220
0.0
230
1.0
 70
     8
 71
     3
 72
    18
 73
    14
 74
     0
 42
0.000000001
 43
0.00000001
 40
0.0
 40
0.0
 40
0.0
 40
0.0
 40
0.0208621067018758
 40
0.0996328050725574
 40
0.1811478491476731
 40
0.25226184897645
 40
0.3260566630042211
 40
0.4515903902464711
 40
0.5773071536411161
 40
0.717989386198681
 40
0.7957353512983389
 40
0.8760437956987359
 40
0.9999999999999999
 40
0.9999999999999999
 40
0.9999999999999999
 40
0.9999999999999999
 10
-47.0907438093887
 20
-111.771104668291
 30
0.0
 10
-47.03381555040989
 20
-111.8012171547373
 30
0.0
 10
-46.7619387830724
 20
-111.9450277264704
 30
0.0
 10
-46.73801676728982
 20
-112.3261708625116
 30
0.0
 10
-46.86044762287492
 20
-112.89861695818
 30
0.0
 10
-47.34280479692295
 20
-113.5968100593657
 30
0.0
 10
-48.2554926232954
 20
-114.5610060191561
 30
0.0
 10
-49.89741011125327
 20
-115.8983761784446
 30
0.0
 10
-52.42913377158521
 20
-117.5341755175248
 30
0.0
 10
-54.96382545705568
 20
-118.7850687850328
 30
0.0
 10
-57.2602753282421
 20
-119.5288915856875
 30
0.0
 10
-59.48458246083539
 20
-119.9649917049604
 30
0.0
 10
-61.02197744449414
 20
-119.7278000601287
 30
0.0
 10
-61.95493205948716
 20
-119.5838623980213
 30
0.0
  0
SPLINE
  5
313
330
2E1
100
AcDbEntity
  8
0
  6
Continuous
 62
     7
370
    25
100
AcDbSpline
210
0.0
220
0.0
230
1.0
 70
     8
 71
     3
 72
    11
 73
     7
 74
     0
 42
0.000000001
 43
0.00000001
 40
0.0
 40
0.0
 40
0.0
 40
0.0
 40
0.1712003042038333
 40
0.5112852525593978
 40
0.8517500562806706
 40
1.0
 40
1.0
 40
1.0
 40
1.0
 10
-65.11697347917497
 20
-141.7792726421955
 30
0.0
 10
-64.82629228997163
 20
-141.8568267044782
 30
0.0
 10
-63.95818048417048
 20
-142.0884398929336
 30
0.0
 10
-61.97430056032947
 20
-142.5831139020684
 30
0.0
 10
-59.79175828875342
 20
-143.2268379964199
 30
0.0
 10
-58.48803137458727
 20
-143.5739303410043
 30
0.0
 10
-58.09255028329075
 20
-143.6792196141837
 30
0.0
  0
SPLINE
  5
314
330
2E1
100
AcDbEntity
  8
0
  6
Continuous
 62
     7
370
    25
100
AcDbSpline
210
0.0
220
0.0
230
1.0
 70
     8
 71
     3
 72
     9
 73
     5
 74
     0
 42
0.000000001
 43
0.00000001
 40
0.0
 40
0.0
 40
0.0
 40
0.0
 40
0.0186014292448638
 40
1.0
 40
1.0
 40
1.0
 40
1.0
 10
-46.99257620887914
 20
-112.5504607902252
 30
0.0
 10
-46.9919610082786
 20
-112.5482776473961
 30
0.0
 10
-46.95888824852209
 20
-112.4309133954133
 30
0.0
 10
-47.02543496093663
 20
-112.3513724223317
 30
0.0
 10
-47.0907438093887
 20
-112.273311025033
 30
0.0
  0
SPLINE
  5
315
330
2E1
100
AcDbEntity
  8
0
  6
Continuous
 62
     7
370
    25
100
AcDbSpline
210
0.0
220
0.0
230
1.0
 70
     8
 71
     3
 72
    13
 73
     9
 74
     0
 42
0.000000001
 43
0.00000001
 40
0.0
 40
0.0
 40
0.0
 40
0.0
 40
0.0173924095752344
 40
0.1638567713674666
 40
0.3153984214837832
 40
0.5744287164008486
 40
0.7928428297582178
 40
0.9999999999999999
 40
0.9999999999999999
 40
0.9999999999999999
 40
0.9999999999999999
 10
-67.09074380938867
 20
-111.623506242518
 30
0.0
 10
-67.10536909246473
 20
-111.6705756781392
 30
0.0
 10
-67.24315630675537
 20
-112.1140246273842
 30
0.0
 10
-67.19709632101114
 20
-113.1066884411608
 30
0.0
 10
-66.8650295081106
 20
-114.8653886042635
 30
0.0
 10
-65.84686661253585
 20
-116.8415013311285
 30
0.0
 10
-64.07956318439598
 20
-118.688863111984
 30
0.0
 10
-62.54927313082351
 20
-119.2830873814594
 30
0.0
 10
-61.80436723758233
 20
-119.5723404934467
 30
0.0
  0
LWPOLYLINE
  5
316
330
2E1
100
AcDbEntity
  8
0
  6
Continuous
 62
     7
370
    25
100
AcDbPolyline
 90
       18
 70
   128
 43
0.0
 10
-82.1889864237
 20
-135.2822357738
 10
-82.2797079876
 20
-135.0817821434
 10
-82.7655568212
 20
-133.6524390213
 10
-83.0953257041
 20
-131.9611158663
 10
-83.2619861849
 20
-130.0438602951
 10
-83.2619861849
 20
-127.9415352815
 10
-83.0953257041
 20
-125.6989482334
 10
-82.7655568212
 20
-123.363896
 10
-82.2797079876
 20
-120.9861461658
 10
-81.6481342275
 20
-118.6163763404
 10
-80.8842964391
 20
-116.3050940533
 10
-80.0044744989
 20
-114.1015602737
 10
-79.0274202839
 20
-112.0527394985
 10
-77.9739580084
 20
-110.2022987854
 10
-76.8665403918
 20
-108.5896770656
 10
-75.7287701181
 20
-107.2492445714
 10
-74.5848967852
 20
-106.209570294
 10
-74.2141589014
 20
-105.9391295993
  0
LWPOLYLINE
  5
317
330
2E1
100
AcDbEntity
  8
0
  6
Continuous
 62
     7
370
    25
100
AcDbPolyline
 90
       34
 70
   128
 43
0.0
 10
-52.4237899201
 20
142.5712709502
 10
-54.1819001573
 20
142.9438499853
 10
-56.045143583
 20
143.13833022
 10
-57.9461777252
 20
143.1476826321
 10
-59.8162942569
 20
142.971569201
 10
-61.587902294
 20
142.6163551248
 10
-63.1969713063
 20
142.0948787659
 10
-64.5853453472
 20
141.4259876386
 10
-65.7028449615
 20
140.6338572108
 10
-66.5090808016
 20
139.7471171403
 10
-66.9749134036
 20
138.7978165235
 10
-67.0835063634
 20
137.8202655581
 10
-66.8309348487
 20
136.8497954829
 10
-66.226327452
 20
135.9214816151
 10
-65.2915362599
 20
135.0688756365
 10
-64.0603470617
 20
134.3227929485
 10
-62.5772582429
 20
133.7101989235
 10
-60.8958724974
 20
133.2532343057
 10
-59.076959487
 20
132.9684149868
 10
-57.1862594669
 20
132.8660350792
 10
-55.2921072622
 20
132.9497948595
 10
-53.4629624685
 20
133.216667031
 10
-51.7649351446
 20
133.6570061381
 10
-50.2593964221
 20
134.2548971782
 10
-49.0007603931
 20
134.9887308112
 10
-48.034517443
 20
135.8319843778
 10
-47.3955901096
 20
136.7541804969
 10
-47.1070708913
 20
137.721988598
 10
-47.1793876245
 20
138.7004295748
 10
-47.609926594
 20
139.654140021
 10
-48.3831269997
 20
140.5486503563
 10
-49.4710433644
 20
141.3516306465
 10
-50.8343555561
 20
142.0340590918
 10
-52.4237899201
 20
142.5712709502
  0
LWPOLYLINE
  5
31C
330
2E1
100
AcDbEntity
  8
0
  6
Continuous
 62
     7
370
    25
100
AcDbPolyline
 90
       19
 70
   128
 43
0.0
 10
-67.0907438094
 20
-457.7150931059
 10
-67.0835063634
 20
-457.9110084299
 10
-66.8309348487
 20
-458.881478505
 10
-66.226327452
 20
-459.8097923729
 10
-65.2915362599
 20
-460.6623983515
 10
-64.0603470617
 20
-461.4084810395
 10
-62.5772582429
 20
-462.0210750645
 10
-60.8958724974
 20
-462.4780396823
 10
-59.076959487
 20
-462.7628590012
 10
-57.1862594669
 20
-462.8652389088
 10
-55.2921072622
 20
-462.7814791285
 10
-53.4629624685
 20
-462.514606957
 10
-51.7649351446
 20
-462.0742678499
 10
-50.2593964221
 20
-461.4763768098
 10
-49.0007603931
 20
-460.7425431768
 10
-48.034517443
 20
-459.8992896102
 10
-47.3955901096
 20
-458.9770934911
 10
-47.1070708913
 20
-458.00928539
 10
-47.0907438094
 20
-457.7150931059
  0
LWPOLYLINE
  5
31D
330
2E1
100
AcDbEntity
  8
0
  6
Continuous
 62
     7
370
    25
100
AcDbPolyline
 90
       18
 70
   128
 43
0.0
 10
-24.2043681373
 20
113.2822519956
 10
-23.328127944
 20
114.3743405388
 10
-22.7032199889
 20
115.7173525015
 10
-22.3850156443
 20
117.2310014111
 10
-22.3850156443
 20
118.8605800522
 10
-22.7032199889
 20
120.5471912069
 10
-23.328127944
 20
122.2298763536
 10
-24.2371537079
 20
123.847818867
 10
-25.397442721
 20
125.3425420891
 10
-26.7670591154
 20
126.6600228282
 10
-28.296501386
 20
127.7526438978
 10
-29.9304915042
 20
128.5809151255
 10
-31.60997281
 20
129.1149006312
 10
-33.2742444729
 20
129.3353007874
 10
-34.8631553789
 20
129.2341497582
 10
-36.3192781481
 20
128.8151034054
 10
-37.5899847095
 20
128.0933071559
 10
-38.1739313103
 20
127.5948794537
  0
LWPOLYLINE
  5
31E
330
2E1
100
AcDbEntity
  8
0
  6
Continuous
 62
     7
370
    25
100
AcDbPolyline
 90
       17
 70
   128
 43
0.0
 10
-7.7520694993
 20
114.0688695155
 10
-7.9105426514
 20
111.4748963021
 10
-8.38381903
 20
109.0021413405
 10
-9.1654983841
 20
106.6840443997
 10
-10.2450098413
 20
104.5519537642
 10
-11.6077548611
 20
102.6347023022
 10
-13.2353046549
 20
100.9582175508
 10
-15.1056494037
 20
99.5451710902
 10
-17.1934959033
 20
98.4146719498
 10
-19.4706096115
 20
97.582008191
 10
-21.9061964718
 20
97.0584401628
 10
-24.4673193501
 20
96.8510482246
 10
-27.119343453
 20
96.9626369966
 10
-29.826404704
 20
97.3916974321
 10
-32.5518947436
 20
98.1324272246
 10
-35.2589559946
 20
99.1748092746
 10
-37.5181367162
 20
100.2876057101
  0
LWPOLYLINE
  5
31F
330
2E1
100
AcDbEntity
  8
0
  6
Continuous
 62
     7
370
    25
100
AcDbPolyline
 90
       22
 70
   128
 43
0.0
 10
-48.3825097922
 20
140.5480873301
 10
-47.2726500439
 20
141.3319603591
 10
-45.1848035442
 20
142.4624594995
 10
-42.907689836
 20
143.2951232583
 10
-40.4721029757
 20
143.8186912865
 10
-37.9109800975
 20
144.0260832247
 10
-35.2589559946
 20
143.9144944527
 10
-32.5518947436
 20
143.4854340172
 10
-29.826404704
 20
142.7447042247
 10
-27.119343453
 20
141.7023221747
 10
-24.4673193501
 20
140.3723842964
 10
-21.9061964718
 20
138.772875718
 10
-19.4706096115
 20
136.9254270492
 10
-17.1934959033
 20
134.8550218639
 10
-15.1056494037
 20
132.5896588405
 10
-13.2353046549
 20
130.1599731278
 10
-11.6077548611
 20
127.5988220568
 10
-10.2450098413
 20
124.9408408023
 10
-9.1654983841
 20
122.2219740009
 10
-8.38381903
 20
119.4789896619
 10
-7.9105426514
 20
116.7489819431
 10
-7.7520694993
 20
114.0688695155
  0
LWPOLYLINE
  5
321
330
2E1
100
AcDbEntity
  8
0
  6
Continuous
 62
     7
370
    25
100
AcDbPolyline
 90
       23
 70
   128
 43
0.0
 10
-45.2652147332
 20
143.7301326713
 10
-44.7093885978
 20
144.2462494631
 10
-42.839043849
 20
145.6592959237
 10
-40.7511973494
 20
146.7897950642
 10
-38.4740836412
 20
147.6224588229
 10
-36.0384967809
 20
148.1460268511
 10
-33.4773739026
 20
148.3534187893
 10
-30.8253497997
 20
148.2418300173
 10
-28.1182885487
 20
147.8127695819
 10
-25.3927985091
 20
147.0720397893
 10
-22.6857372581
 20
146.0296577393
 10
-20.0337131553
 20
144.699719861
 10
-17.472590277
 20
143.1002112826
 10
-15.0370034167
 20
141.2527626138
 10
-12.7598897085
 20
139.1823574285
 10
-10.6720432088
 20
136.9169944052
 10
-8.8016984601
 20
134.4873086924
 10
-7.1741486663
 20
131.9261576214
 10
-5.8114036465
 20
129.2681763669
 10
-4.7318921892
 20
126.5493095655
 10
-3.9502128352
 20
123.8063252266
 10
-3.4769364565
 20
121.0763175078
 10
-3.3184633045
 20
118.3962050802
  0
LWPOLYLINE
  5
322
330
2E1
100
AcDbEntity
  8
0
  6
Continuous
 62
     7
370
    25
100
AcDbPolyline
 90
       15
 70
   128
 43
0.0
 10
-22.344968507
 20
-391.97963714
 10
-22.5047943832
 20
-390.3140001086
 10
-22.9784954883
 20
-388.6216890424
 10
-23.7489510302
 20
-386.9638684724
 10
-24.788314738
 20
-385.4004563535
 10
-26.0590212995
 20
-383.9879584731
 10
-27.5151440686
 20
-382.7774261849
 10
-29.1040549747
 20
-381.8126112796
 10
-30.7683266376
 20
-381.1283846819
 10
-32.4478079433
 20
-380.7494761237
 10
-34.0817980616
 20
-380.6895803475
 10
-35.6112403322
 20
-380.9508621427
 10
-36.9808567265
 20
-381.5238781045
 10
-38.1411457397
 20
-382.387917943
 10
-38.1739313103
 20
-382.4196644641
  0
LWPOLYLINE
  5
324
330
2E1
100
AcDbEntity
  8
0
  6
Continuous
 62
     7
370
    25
100
AcDbPolyline
 90
       37
 70
   128
 43
0.0
 10
-47.0907438094
 20
-368.5674502961
 10
-45.1848035442
 20
-367.5520844182
 10
-42.907689836
 20
-366.7194206595
 10
-40.4721029757
 20
-366.1958526313
 10
-37.9109800975
 20
-365.9884606931
 10
-35.2589559946
 20
-366.1000494651
 10
-32.5518947436
 20
-366.5291099005
 10
-29.826404704
 20
-367.2698396931
 10
-27.119343453
 20
-368.3122217431
 10
-24.4673193501
 20
-369.6421596214
 10
-21.9061964718
 20
-371.2416681998
 10
-19.4706096115
 20
-373.0891168686
 10
-17.1934959033
 20
-375.1595220539
 10
-15.1056494037
 20
-377.4248850772
 10
-13.2353046549
 20
-379.85457079
 10
-11.6077548611
 20
-382.415721861
 10
-10.2450098413
 20
-385.0737031155
 10
-9.1654983841
 20
-387.7925699169
 10
-8.38381903
 20
-390.5355542558
 10
-7.9105426514
 20
-393.2655619747
 10
-7.7520694993
 20
-395.9456744022
 10
-7.9105426514
 20
-398.5396476157
 10
-8.38381903
 20
-401.0124025773
 10
-9.1654983841
 20
-403.330499518
 10
-10.2450098413
 20
-405.4625901536
 10
-11.6077548611
 20
-407.3798416155
 10
-13.2353046549
 20
-409.056326367
 10
-15.1056494037
 20
-410.4693728275
 10
-17.1934959033
 20
-411.599871968
 10
-19.4706096115
 20
-412.4325357268
 10
-21.9061964718
 20
-412.956103755
 10
-24.4673193501
 20
-413.1634956932
 10
-27.119343453
 20
-413.0519069212
 10
-29.826404704
 20
-412.6228464857
 10
-32.5518947436
 20
-411.8821166931
 10
-35.2589559946
 20
-410.8397346432
 10
-37.5181367162
 20
-409.7269382077
  0
LWPOLYLINE
  5
325
330
2E1
100
AcDbEntity
  8
0
  6
Continuous
 62
     7
370
    25
100
AcDbPolyline
 90
       29
 70
   128
 43
0.0
 10
-45.2652147332
 20
-366.2844112465
 10
-44.7093885978
 20
-365.7682944547
 10
-42.839043849
 20
-364.3552479941
 10
-40.7511973494
 20
-363.2247488536
 10
-38.4740836412
 20
-362.3920850948
 10
-36.0384967809
 20
-361.8685170666
 10
-33.4773739026
 20
-361.6611251284
 10
-30.8253497997
 20
-361.7727139004
 10
-28.1182885487
 20
-362.2017743359
 10
-25.3927985091
 20
-362.9425041285
 10
-22.6857372581
 20
-363.9848861784
 10
-20.0337131553
 20
-365.3148240568
 10
-17.472590277
 20
-366.9143326351
 10
-15.0370034167
 20
-368.761781304
 10
-12.7598897085
 20
-370.8321864892
 10
-10.6720432088
 20
-373.0975495126
 10
-8.8016984601
 20
-375.5272352254
 10
-7.1741486663
 20
-378.0883862963
 10
-5.8114036465
 20
-380.7463675509
 10
-4.7318921893
 20
-383.4652343523
 10
-3.9502128352
 20
-386.2082186912
 10
-3.4769364565
 20
-388.93822641
 10
-3.3184633045
 20
-391.6183388376
 10
-3.4769364565
 20
-394.2123120511
 10
-3.9502128352
 20
-396.6850670126
 10
-4.7318921893
 20
-399.0031639534
 10
-5.8114036465
 20
-401.1352545889
 10
-7.1741486663
 20
-403.0525060509
 10
-8.2458723247
 20
-404.2128740105
  0
LWPOLYLINE
  5
326
330
2E1
100
AcDbEntity
  8
0
  6
Continuous
 62
     7
370
    25
100
AcDbPolyline
 90
       44
 70
   128
 43
0.0
 10
-11.4413865737
 20
-128.9712443083
 10
-11.5249397101
 20
-126.9560781242
 10
-11.7738183295
 20
-125.1469625539
 10
-12.1827180162
 20
-123.582455755
 10
-12.7429237831
 20
-122.2959024737
 10
-13.442495817
 20
-121.3147233594
 10
-14.2665239547
 20
-120.6598305416
 10
-15.1974454668
 20
-120.3451819236
 10
-16.2154193777
 20
-120.3774836946
 10
-17.2987493408
 20
-120.7560473982
 10
-18.4243460587
 20
-121.4728046064
 10
-19.5682193916
 20
-122.5124788838
 10
-20.7059896653
 20
-123.8529113781
 10
-21.8134072819
 20
-125.4655330978
 10
-22.8668695574
 20
-127.3159738109
 10
-23.8439237724
 20
-129.3647945861
 10
-24.7237457126
 20
-131.5683283657
 10
-25.487583501
 20
-133.8796106528
 10
-26.119157261
 20
-136.2493804782
 10
-26.6050060947
 20
-138.6271303124
 10
-26.9347749775
 20
-140.9621825458
 10
-27.1014354584
 20
-143.204769594
 10
-27.1014354584
 20
-145.3070946075
 10
-26.9347749775
 20
-147.2243501787
 10
-26.6050060947
 20
-148.9156733337
 10
-26.119157261
 20
-150.3450164558
 10
-25.487583501
 20
-151.481915578
 10
-24.7237457126
 20
-152.3021396692
 10
-23.8439237724
 20
-152.7882070771
 10
-22.8668695574
 20
-152.9297581186
 10
-21.8134072819
 20
-152.7237758792
 10
-20.7059896653
 20
-152.1746505125
 10
-19.5682193916
 20
-151.2940856725
 10
-18.4243460587
 20
-150.1008490699
 10
-17.2987493408
 20
-148.6203724713
 10
-16.2154193777
 20
-146.884209665
 10
-15.1974454668
 20
-144.929363947
 10
-14.2665239547
 20
-142.7974994599
 10
-13.442495817
 20
-140.5340531939
 10
-12.7429237831
 20
-138.1872665767
 10
-12.1827180162
 20
-135.8071572904
 10
-11.7738183295
 20
-133.4444532324
 10
-11.5249397101
 20
-131.1495113377
 10
-11.4413865737
 20
-128.9712443083
  0
LWPOLYLINE
  5
327
330
2E1
100
AcDbEntity
  8
0
  6
Continuous
 62
     7
370
    25
100
AcDbPolyline
 90
       24
 70
   128
 43
0.0
 10
-23.9172609905
 20
-152.9806517062
 10
-24.0751175713
 20
-152.9325673678
 10
-24.9654135823
 20
-152.4407134432
 10
-25.7383446776
 20
-151.6107247795
 10
-26.3774371729
 20
-150.460291144
 10
-26.8690699213
 20
-149.0139320323
 10
-27.2027646241
 20
-147.3024740778
 10
-27.3714091583
 20
-145.3623940355
 10
-27.3714091583
 20
-143.2350413433
 10
-27.2027646241
 20
-140.9657568302
 10
-26.8690699213
 20
-138.602906356
 10
-26.3774371729
 20
-136.1968499761
 10
-25.7383446776
 20
-133.7988686052
 10
-24.9654135823
 20
-131.4600710527
 10
-24.0751175713
 20
-129.2303047282
 10
-23.0864317585
 20
-127.1570932294
 10
-22.0204282654
 20
-125.2846234603
 10
-20.8998271058
 20
-123.6528038629
 10
-19.7485119479
 20
-122.2964138389
 10
-18.5910210753
 20
-121.2443624868
 10
-17.4520243964
 20
-120.5190724547
 10
-16.3557976481
 20
-120.1360020403
 10
-15.3257050002
 20
-120.1033157245
 10
-15.0002444736
 20
-120.1707931811
  0
LWPOLYLINE
  5
328
330
2E1
100
AcDbEntity
  8
0
  6
Continuous
 62
     7
370
    25
100
AcDbPolyline
 90
       24
 70
   128
 43
0.0
 10
-34.1036759018
 20
-114.9788898559
 10
-34.4291364284
 20
-114.9114123993
 10
-35.4592290763
 20
-114.9440987151
 10
-36.5554558247
 20
-115.3271691295
 10
-37.6944525035
 20
-116.0524591617
 10
-38.8519433761
 20
-117.1045105137
 10
-40.003258534
 20
-118.4609005377
 10
-41.1238596937
 20
-120.0927201351
 10
-42.1898631867
 20
-121.9651899043
 10
-43.1785489995
 20
-124.038401403
 10
-44.0688450105
 20
-126.2681677276
 10
-44.8417761058
 20
-128.60696528
 10
-45.4808686011
 20
-131.004946651
 10
-45.9725013495
 20
-133.4110030308
 10
-46.3061960524
 20
-135.773853505
 10
-46.4748405865
 20
-138.0431380181
 10
-46.4748405865
 20
-140.1704907104
 10
-46.3061960524
 20
-142.1105707527
 10
-45.9725013495
 20
-143.8220287071
 10
-45.4808686011
 20
-145.2683878188
 10
-44.8417761058
 20
-146.4188214543
 10
-44.0688450105
 20
-147.2488101181
 10
-43.1785489995
 20
-147.7406640427
 10
-43.0206924187
 20
-147.788748381
  0
LWPOLYLINE
  5
329
330
2E1
100
AcDbEntity
  8
0
  6
Continuous
 62
     7
370
    25
100
AcDbPolyline
 90
       18
 70
   128
 43
0.0
 10
-45.4856344605
 20
-145.2574202194
 10
-45.5763559379
 20
-145.0569667728
 10
-46.0622047716
 20
-143.6276236507
 10
-46.3919736544
 20
-141.9363004957
 10
-46.5586341353
 20
-140.0190449245
 10
-46.5586341353
 20
-137.9167199109
 10
-46.3919736544
 20
-135.6741328627
 10
-46.0622047716
 20
-133.3390806294
 10
-45.5763559379
 20
-130.9613307952
 10
-44.9447821779
 20
-128.5915609698
 10
-44.1809443895
 20
-126.2802786826
 10
-43.3011224493
 20
-124.0767449031
 10
-42.3240682343
 20
-122.0279241279
 10
-41.2706059588
 20
-120.1774834148
 10
-40.1631883422
 20
-118.564861695
 10
-39.0254180685
 20
-117.2244292007
 10
-37.8815447356
 20
-116.1847549234
 10
-37.510806959
 20
-115.9143143021
  0
LWPOLYLINE
  5
32A
330
2E1
100
AcDbEntity
  8
0
  6
Continuous
 62
     7
370
    25
100
AcDbPolyline
 90
        7
 70
   128
 43
0.0
 10
-28.6417183696
 20
-163.6849668637
 10
-27.649816404
 20
-163.8491851337
 10
-26.6086813995
 20
-163.8287729303
 10
-25.6438896034
 20
-163.6261922665
 10
-24.8718091448
 20
-163.26587736
 10
-24.3855643219
 20
-162.7912875064
 10
-24.2416322028
 20
-162.3184398433
  0
LWPOLYLINE
  5
32B
330
2E1
100
AcDbEntity
  8
0
  6
Continuous
 62
     7
370
    25
100
AcDbPolyline
 90
        5
 70
   128
 43
0.0
 10
-30.2416322028
 20
-162.3184398433
 10
-30.239460969
 20
-162.3772144405
 10
-30.0196394619
 20
-162.9017476169
 10
-29.4647492804
 20
-163.3559252672
 10
-28.6417183696
 20
-163.6849668637
  0
LWPOLYLINE
  5
32D
330
2E1
100
AcDbEntity
  8
0
  6
Continuous
 62
     8
370
    25
100
AcDbPolyline
 90
       13
 70
   128
 43
0.0
 10
-74.2141591093
 20
-105.9391297417
 10
-75.1560695503
 20
-106.6902712603
 10
-76.2999428832
 20
-107.8835078628
 10
-77.4255396011
 20
-109.3639844615
 10
-78.5088695642
 20
-111.1001472678
 10
-79.5268434751
 20
-113.0549929858
 10
-80.4577649872
 20
-115.1868574729
 10
-81.2817931248
 20
-117.4503037388
 10
-81.9813651588
 20
-119.7970903561
 10
-82.5415709257
 20
-122.1771996423
 10
-82.9504706123
 20
-124.5399037003
 10
-83.1993492317
 20
-126.8348455951
 10
-83.2829023682
 20
-129.0131126245
  0
SPLINE
  5
32E
330
2E1
100
AcDbEntity
  8
0
  6
Continuous
 62
     8
370
    25
100
AcDbSpline
210
0.0
220
0.0
230
1.0
 70
     8
 71
     3
 72
    52
 73
    48
 74
     0
 42
0.000000001
 43
0.00000001
 40
0.0
 40
0.0
 40
0.0
 40
0.0
 40
0.062499999999999
 40
0.062499999999999
 40
0.0937499999999984
 40
0.0937499999999984
 40
0.1249999999999978
 40
0.1249999999999978
 40
0.1874999999999961
 40
0.1874999999999961
 40
0.2499999999999943
 40
0.2499999999999943
 40
0.3124999999999926
 40
0.3124999999999926
 40
0.3437499999999923
 40
0.3437499999999923
 40
0.3749999999999921
 40
0.3749999999999921
 40
0.4062499999999918
 40
0.4062499999999918
 40
0.4374999999999916
 40
0.4374999999999916
 40
0.4999999999999902
 40
0.4999999999999902
 40
0.5312499999999901
 40
0.5312499999999901
 40
0.5624999999999899
 40
0.5624999999999899
 40
0.624999999999991
 40
0.624999999999991
 40
0.6562499999999921
 40
0.6562499999999921
 40
0.6874999999999932
 40
0.6874999999999932
 40
0.7187499999999942
 40
0.7187499999999942
 40
0.7499999999999953
 40
0.7499999999999953
 40
0.7812499999999964
 40
0.7812499999999964
 40
0.8124999999999974
 40
0.8124999999999974
 40
0.8749999999999983
 40
0.8749999999999983
 40
0.9374999999999992
 40
0.9374999999999992
 40
1.0
 40
1.0
 40
1.0
 40
1.0
 10
-80.97659113497298
 20
-102.518684420524
 30
0.0
 10
-80.89045833015302
 20
-102.6627156594179
 30
0.0
 10
-80.87005377976713
 20
-102.8315363168636
 30
0.0
 10
-80.94064374054912
 20
-103.1342644416445
 30
0.0
 10
-80.98116559297686
 20
-103.243430525833
 30
0.0
 10
-81.09831670955981
 20
-103.480700663044
 30
0.0
 10
-81.17524277272697
 20
-103.6089336076749
 30
0.0
 10
-81.45598163099139
 20
-104.0145859935521
 30
0.0
 10
-81.710508425962
 20
-104.3158077668045
 30
0.0
 10
-82.35914118035016
 20
-104.9860114898005
 30
0.0
 10
-82.75930962813622
 20
-105.3594687489858
 30
0.0
 10
-83.65692541515168
 20
-106.1313745996966
 30
0.0
 10
-84.15502567679502
 20
-106.5316922850405
 30
0.0
 10
-84.972896199072
 20
-107.1485247119105
 30
0.0
 10
-85.25901332777947
 20
-107.3579660665748
 30
0.0
 10
-85.84420160062132
 20
-107.7732889032723
 30
0.0
 10
-86.14380732784905
 20
-107.9796500240888
 30
0.0
 10
-86.75676215479136
 20
-108.388684234229
 30
0.0
 10
-87.07011170893833
 20
-108.5913610181464
 30
0.0
 10
-87.71082286506551
 20
-108.9916163951368
 30
0.0
 10
-88.03955368137382
 20
-109.1899827435603
 30
0.0
 10
-89.03716722524321
 20
-109.768400980384
 30
0.0
 10
-89.71441900732665
 20
-110.1307733079383
 30
0.0
 10
-90.75436773415343
 20
-110.627676592503
 30
0.0
 10
-91.10507216157987
 20
-110.7854512600364
 30
0.0
 10
-91.81627306807027
 20
-111.0819109525229
 30
0.0
 10
-92.17576697072163
 20
-111.2200545106488
 30
0.0
 10
-93.25278332039612
 20
-111.5930902745508
 30
0.0
 10
-93.97439782917414
 20
-111.789897430264
 30
0.0
 10
-95.07196281513453
 20
-111.9759153667672
 30
0.0
 10
-95.44281538930596
 20
-112.0195140219549
 30
0.0
 10
-96.17417343673867
 20
-112.0611565053082
 30
0.0
 10
-96.53564246379462
 20
-112.0596231140439
 30
0.0
 10
-97.25039139489914
 20
-112.0077228814317
 30
0.0
 10
-97.60367414590087
 20
-111.9573507909548
 30
0.0
 10
-98.30179310893867
 20
-111.8032706916853
 30
0.0
 10
-98.64291738887212
 20
-111.6999638453164
 30
0.0
 10
-99.29550840539811
 20
-111.4473335473702
 30
0.0
 10
-99.60927925142981
 20
-111.2975477580367
 30
0.0
 10
-100.2127289679148
 20
-110.9543706749626
 30
0.0
 10
-100.5041485874381
 20
-110.7595792587726
 30
0.0
 10
-101.3293146420714
 20
-110.1252305229223
 30
0.0
 10
-101.8109765968896
 20
-109.6414376337145
 30
0.0
 10
-102.6610540292991
 20
-108.5905010550379
 30
0.0
 10
-103.0305023790258
 20
-108.0190550231729
 30
0.0
 10
-103.6426170804215
 20
-106.8507828635117
 30
0.0
 10
-103.8886754703466
 20
-106.2506176514336
 30
0.0
 10
-104.0754309269622
 20
-105.6421775979955
 30
0.0
  0
SPLINE
  5
32F
330
2E1
100
AcDbEntity
  8
0
  6
Continuous
 62
     8
370
    25
100
AcDbSpline
210
0.0
220
0.0
230
1.0
 70
     8
 71
     3
 72
    15
 73
    11
 74
     0
 42
0.000000001
 43
0.00000001
 40
0.0
 40
0.0
 40
0.0
 40
0.0
 40
0.0539800923041423
 40
0.2413251321854777
 40
0.3318356642850289
 40
0.4246806041935013
 40
0.5564681650445545
 40
0.6881978480719507
 40
0.8442052932669282
 40
1.0
 40
1.0
 40
1.0
 40
1.0
 10
-81.59161005897786
 20
-103.3000303629521
 30
0.0
 10
-81.57233827661639
 20
-103.2034009791235
 30
0.0
 10
-81.48618122820626
 20
-102.7714065561785
 30
0.0
 10
-82.2927715724376
 20
-102.595225465177
 30
0.0
 10
-83.5001059053496
 20
-102.3690626587172
 30
0.0
 10
-84.85464866214846
 20
-102.16488224594
 30
0.0
 10
-86.8075402538441
 20
-101.777924744695
 30
0.0
 10
-89.54124446401494
 20
-100.9765659095718
 30
0.0
 10
-92.535420765858
 20
-99.88802703813587
 30
0.0
 10
-94.52478843981135
 20
-99.31586218831825
 30
0.0
 10
-95.51879361723338
 20
-99.02997495364363
 30
0.0
  0
LINE
  5
330
330
2E1
100
AcDbEntity
  8
0
  6
Continuous
 62
     7
370
    25
100
AcDbLine
 10
-94.4928166663
 20
-98.5664153789
 30
0.0
 11
-98.8430824086
 21
-97.3841063651
 31
0.0
  0
LINE
  5
331
330
2E1
100
AcDbEntity
  8
0
  6
Continuous
 62
     7
370
    25
100
AcDbLine
 10
-71.1607952001
 20
-104.9075588687
 30
0.0
 11
-81.990695748
 21
-101.9642239565
 31
0.0
  0
LINE
  5
332
330
2E1
100
AcDbEntity
  8
0
  6
Continuous
 62
     7
370
    25
100
AcDbLine
 10
-93.2953861772
 20
-134.1251638739
 30
0.0
 11
-80.077811717
 21
-137.7174173938
 31
0.0
  0
LINE
  5
333
330
2E1
100
AcDbEntity
  8
0
  6
Continuous
 62
     7
370
    25
100
AcDbLine
 10
-107.7600989255
 20
-130.1939648902
 30
0.0
 11
-101.0717414832
 21
-132.0117171288
 31
0.0
  0
LINE
  5
334
330
2E1
100
AcDbEntity
  8
0
  6
Continuous
 62
     7
370
    25
100
AcDbLine
 10
-67.0907438094
 20
-106.013711626
 30
0.0
 11
-70.8070279514
 21
-105.0037052265
 31
0.0
  0
LINE
  5
335
330
2E1
100
AcDbEntity
  8
0
  6
Continuous
 62
     7
370
    25
100
AcDbLine
 10
-34.4574431505
 20
-114.8827434981
 30
0.0
 11
-47.0907438094
 21
-111.4492830779
 31
0.0
  0
LINE
  5
336
330
2E1
100
AcDbEntity
  8
0
  6
Continuous
 62
     7
370
    25
100
AcDbLine
 10
-58.0958952209
 20
-143.6916312819
 30
0.0
 11
-43.3744596674
 21
-147.6926020232
 31
0.0
  0
LINE
  5
337
330
2E1
100
AcDbEntity
  8
0
  6
Continuous
 62
     7
370
    25
100
AcDbLine
 10
-79.7240444683
 20
-137.8135637517
 30
0.0
 11
-65.1180484906
 21
-141.7831604898
 31
0.0
  0
LINE
  5
338
330
2E1
100
AcDbEntity
  8
0
  6
Continuous
 62
     7
370
    25
100
AcDbLine
 10
-67.0907438094
 20
138.0161808821
 30
0.0
 11
-67.0907438094
 21
-113.4562626088
 31
0.0
  0
LINE
  5
339
330
2E1
100
AcDbEntity
  8
0
  6
Continuous
 62
     7
370
    25
100
AcDbLine
 10
-67.0907438094
 20
-141.2470241719
 30
0.0
 11
-67.0907438094
 21
-457.7150931059
 31
0.0
  0
LINE
  5
33A
330
2E1
100
AcDbEntity
  8
0
  6
Continuous
 62
     7
370
    25
100
AcDbLine
 10
-47.0907438094
 20
99.1581761148
 30
0.0
 11
-47.0907438094
 21
138.0161808821
 31
0.0
  0
LINE
  5
33B
330
2E1
100
AcDbEntity
  8
0
  6
Continuous
 62
     7
370
    25
100
AcDbLine
 10
-47.0907438094
 20
-410.856367803
 30
0.0
 11
-47.0907438094
 21
-146.6825956237
 31
0.0
  0
LINE
  5
33C
330
2E1
100
AcDbEntity
  8
0
  6
Continuous
 62
     7
370
    25
100
AcDbLine
 10
-47.0907438094
 20
-112.9047457741
 30
0.0
 11
-47.0907438094
 21
91.1574555792
 31
0.0
  0
LINE
  5
33D
330
2E1
100
AcDbEntity
  8
0
  6
Continuous
 62
     7
370
    25
100
AcDbLine
 10
-47.0907438094
 20
-457.7150931059
 30
0.0
 11
-47.0907438094
 21
-418.8570883386
 31
0.0
  0
LINE
  5
33E
330
2E1
100
AcDbEntity
  8
0
  6
Continuous
 62
     7
370
    25
100
AcDbLine
 10
-38.1739313103
 20
127.5948794537
 30
0.0
 11
-47.0907438094
 21
118.8917970971
 31
0.0
  0
LINE
  5
33F
330
2E1
100
AcDbEntity
  8
0
  6
Continuous
 62
     7
370
    25
100
AcDbLine
 10
-47.0907438094
 20
90.9444477253
 30
0.0
 11
-24.2043681373
 21
113.2822519956
 31
0.0
  0
LINE
  5
340
330
2E1
100
AcDbEntity
  8
0
  6
Continuous
 62
     7
370
    25
100
AcDbLine
 10
-45.2652147332
 20
143.7301326713
 30
0.0
 11
-48.4569868533
 21
140.6148652337
 31
0.0
  0
LINE
  5
341
330
2E1
100
AcDbEntity
  8
0
  6
Continuous
 62
     7
370
    25
100
AcDbLine
 10
-12.6794785195
 20
101.4743343426
 30
0.0
 11
-8.2458723247
 21
105.8016699073
 31
0.0
  0
LINE
  5
342
330
2E1
100
AcDbEntity
  8
0
  6
Continuous
 62
     7
370
    25
100
AcDbLine
 10
-38.1739313103
 20
-382.4196644641
 30
0.0
 11
-47.0907438094
 21
-391.1227468207
 31
0.0
  0
LINE
  5
343
330
2E1
100
AcDbEntity
  8
0
  6
Continuous
 62
     7
370
    25
100
AcDbLine
 10
-47.0907438094
 20
-419.0700961925
 30
0.0
 11
-24.2043681373
 21
-396.7322919222
 31
0.0
  0
LINE
  5
344
330
2E1
100
AcDbEntity
  8
0
  6
Continuous
 62
     7
370
    25
100
AcDbLine
 10
-45.2652147332
 20
-366.2844112465
 30
0.0
 11
-47.0907438094
 21
-368.066183589
 31
0.0
  0
LINE
  5
345
330
2E1
100
AcDbEntity
  8
0
  6
Continuous
 62
     7
370
    25
100
AcDbLine
 10
-12.6794785195
 20
-408.5402095751
 30
0.0
 11
-8.2458723247
 21
-404.2128740105
 31
0.0
  0
LINE
  5
346
330
2E1
100
AcDbEntity
  8
0
  6
Continuous
 62
     7
370
    25
100
AcDbLine
 10
-43.0206924187
 20
-147.788748381
 30
0.0
 11
-23.9172609905
 21
-152.9806517062
 31
0.0
  0
LINE
  5
347
330
2E1
100
AcDbEntity
  8
0
  6
Continuous
 62
     7
370
    25
100
AcDbLine
 10
-15.0002444736
 20
-120.1707931811
 30
0.0
 11
-34.1036759018
 21
-114.9788898559
 31
0.0
  0
LINE
  5
348
330
2E1
100
AcDbEntity
  8
0
  6
Continuous
 62
     7
370
    25
100
AcDbLine
 10
-30.2416322028
 20
-151.2618231256
 30
0.0
 11
-30.2416322028
 21
-162.3184398433
 31
0.0
  0
LINE
  5
349
330
2E1
100
AcDbEntity
  8
0
  6
Continuous
 62
     7
370
    25
100
AcDbLine
 10
-24.2416322028
 20
-162.3184398433
 30
0.0
 11
-24.2416322028
 21
-152.8924945611
 31
0.0
  0
LINE
  5
34A
330
2E1
100
AcDbEntity
  8
0
  6
Continuous
 62
     7
370
    25
100
AcDbLine
 10
-99.4513537084
 20
-97.2901802822
 30
0.0
 11
-98.8430824086
 21
-97.3841063651
 31
0.0
  0
LINE
  5
34B
330
2E1
100
AcDbEntity
  8
0
  6
Continuous
 62
     7
370
    25
100
AcDbLine
 10
-104.075430927
 20
-105.642177598
 30
0.0
 11
-107.1518276257
 21
-104.8060788945
 31
0.0
  0
LINE
  5
34C
330
2E1
100
AcDbEntity
  8
0
  6
Continuous
 62
     7
370
    25
100
AcDbLine
 10
-99.4513537084
 20
-97.2901802822
 30
0.0
 11
-96.3749570096
 21
-98.1262789857
 31
0.0
  0
LINE
  5
34D
330
2E1
100
AcDbEntity
  8
0
  6
Continuous
 62
     7
370
    25
100
AcDbLine
 10
-81.6016025153
 20
-103.4136596633
 30
0.0
 11
-81.591610059
 21
-103.300030363
 31
0.0
  0
LINE
  5
34E
330
2E1
100
AcDbEntity
  8
0
  6
Continuous
 62
     7
370
    25
100
AcDbLine
 10
-99.4513537084
 20
-97.2901802822
 30
0.0
 11
-99.4513537084
 21
-110.8323832155
 31
0.0
  0
ARC
  5
34F
330
2E1
100
AcDbEntity
  8
0
  6
Continuous
 62
     7
370
    25
100
AcDbCircle
 10
-49.7171286038
 20
90.4729576214
 30
0.0
 40
2.714117636127471
100
AcDbArc
 50
14.607680369
 51
57.1923095534
  0
ARC
  5
350
330
2E1
100
AcDbEntity
  8
0
  6
Continuous
 62
     7
370
    25
100
AcDbCircle
 10
-66.3732218383
 20
99.3320295458
 30
0.0
 40
19.28326175600918
100
AcDbArc
 50
340.0549810079
 51
359.4834274966
  0
ARC
  5
351
330
2E1
100
AcDbEntity
  8
0
  6
Continuous
 62
     7
370
    25
100
AcDbCircle
 10
-66.3732218383
 20
-410.682514372
 30
0.0
 40
19.28326175600893
100
AcDbArc
 50
340.0549810079
 51
359.4834274966
  0
ARC
  5
352
330
2E1
100
AcDbEntity
  8
0
  6
Continuous
 62
     7
370
    25
100
AcDbCircle
 10
-49.7171286038
 20
-419.5415862963
 30
0.0
 40
2.714117636127866
100
AcDbArc
 50
14.607680369
 51
57.1923095534
  0
ARC
  5
353
330
2E1
100
AcDbEntity
  8
0
  6
Continuous
 62
     7
370
    25
100
AcDbCircle
 10
-20.5782482898
 20
117.8876656521
 30
0.0
 40
17.26727512059018
100
AcDbArc
 50
315.5780920988
 51
1.687665047
  0
ARC
  5
354
330
2E1
100
AcDbEntity
  8
0
  6
Continuous
 62
     7
370
    25
100
AcDbCircle
 10
-28.8105960239
 20
-392.1901219876
 30
0.0
 40
6.469052717288484
100
AcDbArc
 50
315.4011839436
 51
1.8645732021
  0
ARC
  5
355
330
2E1
100
AcDbEntity
  8
0
  6
Continuous
 62
     8
370
    25
100
AcDbCircle
 10
-68.3819574165
 20
-129.643008946
 30
0.0
 40
14.91425257360756
100
AcDbArc
 50
177.5794201819
 51
202.2166542342
  0
VIEWPORT
  5
3CE
330
2E1
100
AcDbEntity
  8
0
100
AcDbViewport
 10
0.0
 20
0.0
 30
0.0
 40
205.6
 41
156.0
 68
     1
 69
     1
 12
-35.0021430454
 22
-160.4272048014
 13
0.0
 23
0.0
 14
10.0
 24
10.0
 15
10.0
 25
10.0
 16
0.0
 26
0.0
 36
1.0
 17
0.0
 27
0.0
 37
0.0
 42
50.0
 43
0.0
 44
0.0
 45
708.9
 50
0.0
 51
0.0
 72
   100
 90
   557152
  1

281
     0
 71
     1
 74
     0
110
0.0
120
0.0
130
0.0
111
1.0
121
0.0
131
0.0
112
0.0
122
1.0
132
0.0
 79
     0
146
0.0
  0
ENDBLK
  5
2E4
330
2E1
100
AcDbEntity
  8
0
100
AcDbBlockEnd
  0
BLOCK
  5
358
330
356
100
AcDbEntity
  8
0
100
AcDbBlockBegin
  2
*Paper_Space6
 70
     0
 10
0.0
 20
0.0
 30
0.0
  3
*Paper_Space6
  1

  0
SPLINE
  5
35C
330
356
100
AcDbEntity
  8
0
  6
Continuous
 62
     7
370
    25
100
AcDbSpline
210
0.0
220
0.0
230
1.0
 70
     8
 71
     3
 72
    20
 73
    16
 74
     0
 42
0.000000001
 43
0.00000001
 40
0.0
 40
0.0
 40
0.0
 40
0.0
 40
0.0627944889029788
 40
0.1446514992530712
 40
0.2306806834401501
 40
0.3196214382271894
 40
0.4085038521776727
 40
0.4812493700230372
 40
0.550186334308981
 40
0.6224114784462266
 40
0.691849809495193
 40
0.7631150009617171
 40
0.8382987281100185
 40
0.9202340213260243
 40
1.0
 40
1.0
 40
1.0
 40
1.0
 10
-80.8485760582263
 20
-113.7793943971962
 30
0.0
 10
-81.17498134870944
 20
-114.0067142568645
 30
0.0
 10
-81.92687877565513
 20
-114.5303614603925
 30
0.0
 10
-83.30076232128201
 20
-115.4040960146309
 30
0.0
 10
-84.92826595849033
 20
-116.3490661110816
 30
0.0
 10
-86.70690731066851
 20
-117.2392962274642
 30
0.0
 10
-88.47636522254572
 20
-117.937717042836
 30
0.0
 10
-90.15471610482315
 20
-118.3816962986431
 30
0.0
 10
-91.72639776560355
 20
-118.5634681839666
 30
0.0
 10
-93.24081992413159
 20
-118.4748788633151
 30
0.0
 10
-94.67210746886438
 20
-118.0931480854442
 30
0.0
 10
-95.97887103475705
 20
-117.465839989328
 30
0.0
 10
-97.17492385580685
 20
-116.6037589763115
 30
0.0
 10
-98.23206104572391
 20
-115.575255331045
 30
0.0
 10
-98.75695934803319
 20
-114.8200128676895
 30
0.0
 10
-99.01588759453762
 20
-114.4474576396348
 30
0.0
  0
SPLINE
  5
35D
330
356
100
AcDbEntity
  8
0
  6
Continuous
 62
     7
370
    25
100
AcDbSpline
210
0.0
220
0.0
230
1.0
 70
     8
 71
     3
 72
    14
 73
    10
 74
     0
 42
0.000000001
 43
0.00000001
 40
0.0
 40
0.0
 40
0.0
 40
0.0
 40
0.0486376522298419
 40
0.1765910866496156
 40
0.3457466066091843
 40
0.5423773841613062
 40
0.7445570275315041
 40
0.9548149121934651
 40
1.0
 40
1.0
 40
1.0
 40
1.0
 10
-77.69208612212509
 20
-111.2235697856187
 30
0.0
 10
-77.68992287009137
 20
-111.2177671373542
 30
0.0
 10
-77.68206864584693
 20
-111.1966991804215
 30
0.0
 10
-77.80544984428383
 20
-111.3738057646974
 30
0.0
 10
-78.1162273679068
 20
-111.674377125066
 30
0.0
 10
-78.69231233265602
 20
-112.1752939762067
 30
0.0
 10
-79.53475665372352
 20
-112.8321360293749
 30
0.0
 10
-80.26872133283983
 20
-113.3831966176531
 30
0.0
 10
-80.76142256145141
 20
-113.7198449611222
 30
0.0
 10
-80.8485760582263
 20
-113.7793943971962
 30
0.0
  0
LWPOLYLINE
  5
372
330
356
100
AcDbEntity
  8
0
  6
Continuous
 62
     7
370
    25
100
AcDbPolyline
 90
       15
 70
   128
 43
0.0
 10
-76.8865972097
 20
-133.9374790422
 10
-76.8225465078
 20
-131.5473319767
 10
-76.6317595315
 20
-129.0951519272
 10
-76.3183025741
 20
-126.633202854
 10
-75.8888564263
 20
-124.2139569275
 10
-75.3525739872
 20
-121.8889761742
 10
-74.720885186
 20
-119.7078135225
 10
-74.0072533728
 20
-117.7169566675
 10
-73.2268883706
 20
-115.9588372666
 10
-72.3964223046
 20
-114.4709265824
 10
-71.5335551173
 20
-113.2849368479
 10
-70.6566773246
 20
-112.4261453754
 10
-69.7844780544
 20
-111.912855814
 10
-68.9355467198
 20
-111.7560080396
 10
-68.751189572
 20
-111.7701331371
  0
LWPOLYLINE
  5
373
330
356
100
AcDbEntity
  8
0
  6
Continuous
 62
     7
370
    25
100
AcDbPolyline
 90
       10
 70
   128
 43
0.0
 10
-73.0011895699
 20
-145.5034623535
 10
-73.2268883706
 20
-145.4610011781
 10
-74.0072533728
 20
-145.0793162623
 10
-74.720885186
 20
-144.347187611
 10
-75.3525739872
 20
-143.2802192754
 10
-75.8888564263
 20
-141.901151833
 10
-76.3183025741
 20
-140.2393777121
 10
-76.6317595315
 20
-138.330314743
 10
-76.8225465078
 20
-136.2146512886
 10
-76.8865972097
 20
-133.9374790422
  0
SPLINE
  5
374
330
356
100
AcDbEntity
  8
0
  6
Continuous
 62
     7
370
    25
100
AcDbSpline
210
0.0
220
0.0
230
1.0
 70
     8
 71
     3
 72
    15
 73
    11
 74
     0
 42
0.000000001
 43
0.00000001
 40
0.0
 40
0.0
 40
0.0
 40
0.0
 40
0.0105161885186335
 40
0.1196516677137641
 40
0.2323439552144359
 40
0.393614994964948
 40
0.5552188650544887
 40
0.7135734376297488
 40
0.8311264840541337
 40
1.0
 40
1.0
 40
1.0
 40
1.0
 10
-97.9931925458506
 20
-142.1741321677385
 30
0.0
 10
-97.96328256527231
 20
-142.1716667236168
 30
0.0
 10
-97.62297114434848
 20
-142.1436152579837
 30
0.0
 10
-96.84761418791437
 20
-142.077048555342
 30
0.0
 10
-95.2585327199435
 20
-142.0071082749206
 30
0.0
 10
-93.0158744462779
 20
-142.1078236248944
 30
0.0
 10
-90.21128543286366
 20
-142.5975080794114
 30
0.0
 10
-87.69005617196716
 20
-143.2240209060745
 30
0.0
 10
-85.24031109201451
 20
-143.864932747429
 30
0.0
 10
-83.8742828034686
 20
-144.0709446938914
 30
0.0
 10
-83.06888962324372
 20
-144.1924067588551
 30
0.0
  0
LWPOLYLINE
  5
376
330
356
100
AcDbEntity
  8
0
  6
Continuous
 62
     7
370
    25
100
AcDbPolyline
 90
       15
 70
   128
 43
0.0
 10
-103.0714740952
 20
-141.5343288315
 10
-103.8336285444
 20
-140.8670380674
 10
-104.5109321897
 20
-139.8325960789
 10
-105.0877638761
 20
-138.4548609666
 10
-105.5508197079
 20
-136.7656084543
 10
-105.889419886
 20
-134.8037990219
 10
-106.095755024
 20
-132.6146793313
 10
-106.1650662622
 20
-130.2487386687
 10
-106.095755024
 20
-127.7605444733
 10
-105.889419886
 20
-125.207483808
 10
-105.5508197079
 20
-122.6484397989
 10
-105.0877638761
 20
-120.1424335706
 10
-104.5109321897
 20
-117.7472629979
 10
-103.8336285444
 20
-115.518169671
 10
-103.0714740952
 20
-113.5065648179
  0
SPLINE
  5
378
330
356
100
AcDbEntity
  8
0
  6
Continuous
 62
     7
370
    25
100
AcDbSpline
210
0.0
220
0.0
230
1.0
 70
     8
 71
     3
 72
    34
 73
    30
 74
     0
 42
0.000000001
 43
0.00000001
 40
0.0
 40
0.0
 40
0.0
 40
0.0
 40
0.1250000000000034
 40
0.1250000000000034
 40
0.1875000000000051
 40
0.1875000000000051
 40
0.2500000000000068
 40
0.2500000000000068
 40
0.3125000000000084
 40
0.3125000000000084
 40
0.3437500000000092
 40
0.3437500000000092
 40
0.3750000000000099
 40
0.3750000000000099
 40
0.4375000000000114
 40
0.4375000000000114
 40
0.4687500000000112
 40
0.4687500000000112
 40
0.500000000000011
 40
0.500000000000011
 40
0.6250000000000082
 40
0.6250000000000082
 40
0.7500000000000054
 40
0.7500000000000054
 40
0.8125000000000039
 40
0.8125000000000039
 40
0.8750000000000023
 40
0.8750000000000023
 40
1.0
 40
1.0
 40
1.0
 40
1.0
 10
-93.9840590673802
 20
-108.7717241742047
 30
0.0
 10
-93.22047769526736
 20
-108.9722487552592
 30
0.0
 10
-92.43196592173513
 20
-109.2119501720817
 30
0.0
 10
-91.20705437346376
 20
-109.5968330739555
 30
0.0
 10
-90.79130437531721
 20
-109.7294696755738
 30
0.0
 10
-89.94135396247087
 20
-109.9976872948681
 30
0.0
 10
-89.50879211283885
 20
-110.1326955721331
 30
0.0
 10
-88.64206621156906
 20
-110.3925386401739
 30
0.0
 10
-88.2056745391742
 20
-110.5180901771336
 30
0.0
 10
-87.54465344069385
 20
-110.6942098532346
 30
0.0
 10
-87.32323756446443
 20
-110.7508765532288
 30
0.0
 10
-86.87789631899598
 20
-110.8591208338335
 30
0.0
 10
-86.65322991243211
 20
-110.910834522126
 30
0.0
 10
-85.98636457381893
 20
-111.0544270849188
 30
0.0
 10
-85.54825013804479
 20
-111.1354951290743
 30
0.0
 10
-84.90070164931907
 20
-111.232526247023
 30
0.0
 10
-84.68646197605425
 20
-111.2607919932896
 30
0.0
 10
-84.26126459598026
 20
-111.3089629137801
 30
0.0
 10
-84.04935241766643
 20
-111.3289311868506
 30
0.0
 10
-83.01100136239735
 20
-111.4069017269085
 30
0.0
 10
-82.25340547674362
 20
-111.3991455768679
 30
0.0
 10
-80.86571971925127
 20
-111.3004927427894
 30
0.0
 10
-80.2643094665997
 20
-111.2132813035736
 30
0.0
 10
-79.47149758039164
 20
-111.0740014854047
 30
0.0
 10
-79.2254875793068
 20
-111.0258761244053
 30
0.0
 10
-78.77102733437016
 20
-110.9330938871646
 30
0.0
 10
-78.56532930793689
 20
-110.8890271966457
 30
0.0
 10
-78.00894356274101
 20
-110.77178945586
 30
0.0
 10
-77.71792379337317
 20
-110.7133982772916
 30
0.0
 10
-77.5101585310969
 20
-110.6946573572676
 30
0.0
  0
SPLINE
  5
37B
330
356
100
AcDbEntity
  8
0
  6
Continuous
 62
     7
370
    25
100
AcDbSpline
210
0.0
220
0.0
230
1.0
 70
     8
 71
     3
 72
    10
 73
     6
 74
     0
 42
0.000000001
 43
0.00000001
 40
0.0
 40
0.0
 40
0.0
 40
0.0
 40
0.2535709872671862
 40
0.6355467708590473
 40
1.0
 40
1.0
 40
1.0
 40
1.0
 10
-99.81769001083093
 20
-113.9165030799634
 30
0.0
 10
-99.7390259669882
 20
-113.9346752924854
 30
0.0
 10
-99.54186350930415
 20
-113.9802218714227
 30
0.0
 10
-99.25277671045049
 20
-114.1624022762407
 30
0.0
 10
-99.10063977436951
 20
-114.3600265405148
 30
0.0
 10
-99.02635702720876
 20
-114.4565190401936
 30
0.0
  0
SPLINE
  5
37C
330
356
100
AcDbEntity
  8
0
  6
Continuous
 62
     7
370
    25
100
AcDbSpline
210
0.0
220
0.0
230
1.0
 70
     8
 71
     3
 72
    14
 73
    10
 74
     0
 42
0.000000001
 43
0.00000001
 40
0.0
 40
0.0
 40
0.0
 40
0.0
 40
0.25
 40
0.25
 40
0.5
 40
0.5
 40
0.75
 40
0.75
 40
1.0
 40
1.0
 40
1.0
 40
1.0
 10
-93.07852863924293
 20
-109.6238615949188
 30
0.0
 10
-93.08201540707691
 20
-109.5158379405292
 30
0.0
 10
-93.12704484175848
 20
-109.410272540458
 30
0.0
 10
-93.2449939077827
 20
-109.2209537462862
 30
0.0
 10
-93.32040134383676
 20
-109.1351354806814
 30
0.0
 10
-93.48625835346046
 20
-108.9865721859352
 30
0.0
 10
-93.57931582454026
 20
-108.921857210815
 30
0.0
 10
-93.773708605635
 20
-108.822125607669
 30
0.0
 10
-93.87801085842142
 20
-108.7850849926689
 30
0.0
 10
-93.9840590673802
 20
-108.7717241742047
 30
0.0
  0
SPLINE
  5
37D
330
356
100
AcDbEntity
  8
0
  6
Continuous
 62
     7
370
    25
100
AcDbSpline
210
0.0
220
0.0
230
1.0
 70
     8
 71
     3
 72
     9
 73
     5
 74
     0
 42
0.000000001
 43
0.00000001
 40
0.0
 40
0.0
 40
0.0
 40
0.0
 40
0.6495866739900132
 40
1.0
 40
1.0
 40
1.0
 40
1.0
 10
-93.07852863924293
 20
-109.6238615949188
 30
0.0
 10
-93.0171215008342
 20
-111.5350710763579
 30
0.0
 10
-92.92258886821168
 20
-114.4772642554446
 30
0.0
 10
-92.82283601256971
 20
-117.419938839713
 30
0.0
 10
-92.7878812826452
 20
-118.4510912281515
 30
0.0
  0
LWPOLYLINE
  5
37F
330
356
100
AcDbEntity
  8
0
  6
Continuous
 62
     7
370
    25
100
AcDbPolyline
 90
       19
 70
   128
 43
0.0
 10
-31.7761466619
 20
-117.6316989819
 10
-32.0863410619
 20
-117.9138791722
 10
-32.9482791643
 20
-118.9269442211
 10
-33.7872230714
 20
-120.2516996762
 10
-34.5852921506
 20
-121.8599106749
 10
-35.3254769448
 20
-123.7173009918
 10
-35.9920017004
 20
-125.7842835772
 10
-36.5706605992
 20
-128.0168042857
 10
-37.0491205316
 20
-130.3672808145
 10
-37.4171839548
 20
-132.7856168371
 10
-37.6670062358
 20
-135.2202697198
 10
-37.7932628466
 20
-137.6193490633
 10
-37.7932628466
 20
-139.9317226566
 10
-37.6670062358
 20
-142.1081062711
 10
-37.4171839548
 20
-144.1021140687
 10
-37.0491205316
 20
-145.8712472351
 10
-36.5706605992
 20
-147.3777997682
 10
-35.9920017004
 20
-148.5896621165
 10
-35.7277187397
 20
-148.9963299514
  0
LWPOLYLINE
  5
380
330
356
100
AcDbEntity
  8
0
  6
Continuous
 62
     7
370
    25
100
AcDbPolyline
 90
       23
 70
   128
 43
0.0
 10
-34.1814941809
 20
-150.3942842544
 10
-34.8047069347
 20
-150.2054724014
 10
-35.5537034527
 20
-149.6470759746
 10
-36.2281630267
 20
-148.7451213219
 10
-36.813710722
 20
-147.5188320409
 10
-37.297866606
 20
-145.9943443586
 10
-37.6703117365
 20
-144.2041500831
 10
-37.9231080924
 20
-142.1864040975
 10
-38.050867758
 20
-139.9841111542
 10
-38.050867758
 20
-137.6442093038
 10
-37.9231080924
 20
-135.2165694919
 10
-37.6703117365
 20
-132.7529326463
 10
-37.297866606
 20
-130.3058069092
 10
-36.813710722
 20
-127.927348517
 10
-36.2281630267
 20
-125.668250181
 10
-35.5537034527
 20
-123.5766606601
 10
-34.8047069347
 20
-121.6971585536
 10
-33.9971370332
 20
-120.0698021859
 10
-33.1482056985
 20
-118.7292758325
 10
-32.2760064283
 20
-117.7041504854
 10
-31.3991286356
 20
-117.0162749115
 10
-30.5362614483
 20
-116.6803099845
 10
-29.931494183
 20
-116.6609550381
  0
LWPOLYLINE
  5
381
330
356
100
AcDbEntity
  8
0
  6
Continuous
 62
     7
370
    25
100
AcDbPolyline
 90
       23
 70
   128
 43
0.0
 10
-68.3770238333
 20
-111.8172735892
 10
-68.9817910987
 20
-111.8366285356
 10
-69.844658286
 20
-112.1725934627
 10
-70.7215360787
 20
-112.8604690366
 10
-71.5937353489
 20
-113.8855943837
 10
-72.4426666835
 20
-115.226120737
 10
-73.250236585
 20
-116.8534771048
 10
-73.999233103
 20
-118.7329792112
 10
-74.6736926771
 20
-120.8245687321
 10
-75.2592403724
 20
-123.0836670681
 10
-75.7433962563
 20
-125.4621254603
 10
-76.1158413869
 20
-127.9092511975
 10
-76.3686377427
 20
-130.3728880431
 10
-76.4963974084
 20
-132.8005278549
 10
-76.4963974084
 20
-135.1404297053
 10
-76.3686377427
 20
-137.3427226486
 10
-76.1158413869
 20
-139.3604686343
 10
-75.7433962563
 20
-141.1506629098
 10
-75.2592403724
 20
-142.6751505921
 10
-74.6736926771
 20
-143.9014398731
 10
-73.999233103
 20
-144.8033945257
 10
-73.250236585
 20
-145.3617909525
 10
-72.6270238312
 20
-145.5506028055
  0
SPLINE
  5
382
330
356
100
AcDbEntity
  8
0
  6
Continuous
 62
     7
370
    25
100
AcDbSpline
210
0.0
220
0.0
230
1.0
 70
     8
 71
     3
 72
    14
 73
    10
 74
     0
 42
0.000000001
 43
0.00000001
 40
0.0
 40
0.0
 40
0.0
 40
0.0
 40
0.1747503251739289
 40
0.3591818502060056
 40
0.578407990338723
 40
0.7029749495629307
 40
0.8315890332213143
 40
0.9479999893181953
 40
1.0
 40
1.0
 40
1.0
 40
1.0
 10
-54.96421130941694
 20
-121.6935316142242
 30
0.0
 10
-55.77694512385094
 20
-121.5135639150449
 30
0.0
 10
-57.44743835413728
 20
-121.1436582733575
 30
0.0
 10
-59.51575941967062
 20
-119.6768848377205
 30
0.0
 10
-60.80662920574816
 20
-118.0811507341431
 30
0.0
 10
-61.45575379508087
 20
-116.6373921287813
 30
0.0
 10
-61.63415596382424
 20
-115.5859749268825
 30
0.0
 10
-61.5739852151957
 20
-114.8104832659525
 30
0.0
 10
-61.34879168713351
 20
-114.4855314061732
 30
0.0
 10
-61.27925900711453
 20
-114.3851964903253
 30
0.0
  0
SPLINE
  5
383
330
356
100
AcDbEntity
  8
0
  6
Continuous
 62
     7
370
    25
100
AcDbSpline
210
0.0
220
0.0
230
1.0
 70
     8
 71
     3
 72
    17
 73
    13
 74
     0
 42
0.000000001
 43
0.00000001
 40
0.0
 40
0.0
 40
0.0
 40
0.0
 40
0.0570862211350822
 40
0.1424532343672799
 40
0.2169277051015838
 40
0.2942096711123144
 40
0.4256754572891716
 40
0.5573329289373519
 40
0.7046630585415259
 40
0.7860828860925798
 40
0.8701862821413928
 40
1.0
 40
1.0
 40
1.0
 40
1.0
 10
-41.32049163032656
 20
-115.2429298020789
 30
0.0
 10
-41.21726588246423
 20
-115.2559400811031
 30
0.0
 10
-40.95967584829162
 20
-115.2884059947714
 30
0.0
 10
-40.92935123493297
 20
-115.4912752841504
 30
0.0
 10
-41.17216528659721
 20
-115.8570509362098
 30
0.0
 10
-41.83474550278596
 20
-116.4844714816555
 30
0.0
 10
-43.20043674617957
 20
-117.5251863370338
 30
0.0
 10
-45.48897987647734
 20
-119.002110322706
 30
0.0
 10
-47.89764760844822
 20
-120.2802529085044
 30
0.0
 10
-50.15361532435715
 20
-121.1497754203844
 30
0.0
 10
-52.38346870007868
 20
-121.7644504091035
 30
0.0
 10
-53.98956556340379
 20
-121.7203148747831
 30
0.0
 10
-54.96421130941694
 20
-121.6935316142242
 30
0.0
  0
SPLINE
  5
384
330
356
100
AcDbEntity
  8
0
  6
Continuous
 62
     7
370
    25
100
AcDbSpline
210
0.0
220
0.0
230
1.0
 70
     8
 71
     3
 72
    16
 73
    12
 74
     0
 42
0.000000001
 43
0.00000001
 40
0.0
 40
0.0
 40
0.0
 40
0.0
 40
0.0053510624052247
 40
0.1742780019214404
 40
0.26735162695958
 40
0.3635928103783467
 40
0.5022402486056522
 40
0.6410425480627975
 40
0.7808309425719476
 40
0.9479533017245954
 40
1.0
 40
1.0
 40
1.0
 40
1.0
 10
-61.25918016484262
 20
-146.9748116674684
 30
0.0
 10
-61.25544446158629
 20
-146.9779324664538
 30
0.0
 10
-61.13377686551257
 20
-147.0795733314612
 30
0.0
 10
-60.2397040545519
 20
-146.9483314584574
 30
0.0
 10
-58.8591595622498
 20
-146.8648029742668
 30
0.0
 10
-57.23301959946569
 20
-146.8174802050441
 30
0.0
 10
-54.97824672317102
 20
-146.9624399660334
 30
0.0
 10
-52.17034520636756
 20
-147.4826252501389
 30
0.0
 10
-49.24198304600353
 20
-148.2095162718327
 30
0.0
 10
-47.01341227162987
 20
-148.7686560857666
 30
0.0
 10
-45.84812018210043
 20
-148.9077250770266
 30
0.0
 10
-45.57139496140469
 20
-148.9407501851897
 30
0.0
  0
SPLINE
  5
385
330
356
100
AcDbEntity
  8
0
  6
Continuous
 62
     7
370
    25
100
AcDbSpline
210
0.0
220
0.0
230
1.0
 70
     8
 71
     3
 72
     9
 73
     5
 74
     0
 42
0.000000001
 43
0.00000001
 40
0.0
 40
0.0
 40
0.0
 40
0.0
 40
0.5949610280728153
 40
1.0
 40
1.0
 40
1.0
 40
1.0
 10
-61.27925900711455
 20
-115.0439456894659
 30
0.0
 10
-61.33622890817778
 20
-115.2646852713924
 30
0.0
 10
-61.43198291285231
 20
-115.6357004665245
 30
0.0
 10
-61.32328563911883
 20
-116.0894667706262
 30
0.0
 10
-61.27925900711455
 20
-116.2732598079348
 30
0.0
  0
LWPOLYLINE
  5
386
330
356
100
AcDbEntity
  8
0
  6
Continuous
 62
     7
370
    25
100
AcDbPolyline
 90
       19
 70
   128
 43
0.0
 10
-74.5474136635
 20
-144.1055087002
 10
-74.8116970894
 20
-143.6988402156
 10
-75.3903559883
 20
-142.4869778673
 10
-75.8688159207
 20
-140.9804253342
 10
-76.2368793438
 20
-139.2112921678
 10
-76.4867016249
 20
-137.2172843702
 10
-76.6129582356
 20
-135.0409007557
 10
-76.6129582356
 20
-132.7285271624
 10
-76.4867016249
 20
-130.3294478188
 10
-76.2368793438
 20
-127.8947949362
 10
-75.8688159207
 20
-125.4764589136
 10
-75.3903559883
 20
-123.1259823848
 10
-74.8116970894
 20
-120.8934616763
 10
-74.1451723339
 20
-118.8264790909
 10
-73.4049875396
 20
-116.9690887739
 10
-72.6069184605
 20
-115.3608777752
 10
-71.7679745533
 20
-114.0361223202
 10
-70.906036451
 20
-113.0230572712
 10
-70.5958416762
 20
-112.7408767661
  0
LWPOLYLINE
  5
387
330
356
100
AcDbEntity
  8
0
  6
Continuous
 62
     7
370
    25
100
AcDbPolyline
 90
       34
 70
   128
 43
0.0
 10
-47.743725102
 20
162.7899089805
 10
-49.5779000966
 20
162.9565965246
 10
-51.4735666351
 20
163.0045651743
 10
-53.3622103897
 20
162.9320812177
 10
-55.1755708542
 20
162.7417644137
 10
-56.8481084569
 20
162.4404933075
 10
-58.3193733309
 20
162.0391566218
 10
-59.5361901304
 20
161.5522597102
 10
-60.4545799259
 20
160.9974002956
 10
-61.0413497173
 20
160.394632443
 10
-61.2752921156
 20
159.7657417529
 10
-61.147951833
 20
159.1334579736
 10
-60.6639312789
 20
158.5206334882
 10
-59.8407242175
 20
157.9494173703
 10
-58.7080834966
 20
157.4404548587
 10
-57.3069457031
 20
157.0121411847
 10
-55.6879516075
 20
156.6799567204
 10
-53.9096158745
 20
156.4559074778
 10
-52.036212191
 20
156.3480911803
 10
-50.1354502472
 20
156.3604045898
 10
-48.2760285321
 20
156.4924026677
 10
-46.5251513913
 20
156.7393146594
 10
-44.9461000864
 20
157.0922165223
 10
-43.5959456458
 20
157.5383534635
 10
-42.5234861687
 20
158.0616009317
 10
-41.767483135
 20
158.6430473999
 10
-41.355260464
 20
159.261677878
 10
-41.301716957
 20
159.8951334485
 10
-41.608787816
 20
160.5205193768
 10
-42.2653747
 20
161.1152325859
 10
-43.2477468483
 20
161.6577785909
 10
-44.5203987719
 20
162.1285483657
 10
-46.0373335144
 20
162.510527064
 10
-47.743725102
 20
162.7899089805
  0
LWPOLYLINE
  5
38C
330
356
100
AcDbEntity
  8
0
  6
Continuous
 62
     7
370
    25
100
AcDbPolyline
 90
       18
 70
   128
 43
0.0
 10
-61.2792590071
 20
-495.5804227602
 10
-61.147951833
 20
-496.1188259454
 10
-60.6639312789
 20
-496.7316504308
 10
-59.8407242175
 20
-497.3028665487
 10
-58.7080834966
 20
-497.8118290603
 10
-57.3069457031
 20
-498.2401427343
 10
-55.6879516075
 20
-498.5723271987
 10
-53.9096158745
 20
-498.7963764413
 10
-52.036212191
 20
-498.9041927387
 10
-50.1354502472
 20
-498.8918793292
 10
-48.2760285321
 20
-498.7598812514
 10
-46.5251513913
 20
-498.5129692596
 10
-44.9461000864
 20
-498.1600673968
 10
-43.5959456458
 20
-497.7139304555
 10
-42.5234861687
 20
-497.1906829874
 10
-41.767483135
 20
-496.6092365191
 10
-41.355260464
 20
-495.9906060411
 10
-41.2792590071
 20
-495.5804227602
  0
LWPOLYLINE
  5
38D
330
356
100
AcDbEntity
  8
0
  6
Continuous
 62
     7
370
    25
100
AcDbPolyline
 90
       18
 70
   128
 43
0.0
 10
-25.0426675559
 20
122.3365744886
 10
-24.3041924126
 20
123.0821432193
 10
-23.3427515282
 20
124.4688707893
 10
-22.6818109027
 20
126.0496011565
 10
-22.3452586523
 20
127.7672026067
 10
-22.3452586523
 20
129.5595965484
 10
-22.6818109027
 20
131.3620011946
 10
-23.3427515282
 20
133.1092729451
 10
-24.3041924126
 20
134.7382608465
 10
-25.5313845773
 20
136.1900890317
 10
-26.9799741001
 20
137.4122846474
 10
-28.5976051813
 20
138.3606743596
 10
-30.325812419
 20
139.0009808931
 10
-32.1021339008
 20
139.3100619016
 10
-33.8623687401
 20
139.276746392
 10
-35.5428974638
 20
138.9022384737
 10
-37.082981385
 20
138.2000738387
 10
-38.2714241114
 20
137.3365744885
  0
LWPOLYLINE
  5
38E
330
356
100
AcDbEntity
  8
0
  6
Continuous
 62
     7
370
    25
100
AcDbPolyline
 90
       18
 70
   128
 43
0.0
 10
-6.8685656455
 20
126.7135195398
 10
-7.0361764807
 20
123.8341201188
 10
-7.5367423371
 20
121.0358935961
 10
-8.3634939203
 20
118.3566811851
 10
-9.5052508335
 20
115.8327146374
 10
-10.946572773
 20
113.4981262707
 10
-12.6679683322
 20
111.3844873879
 10
-14.6461585891
 20
109.5203813289
 10
-16.8543919141
 20
107.9310169302
 10
-19.2628057396
 20
106.6378876189
 10
-21.8388304003
 20
105.6584807506
 10
-24.5476295817
 20
105.0060411229
 10
-27.3525714219
 20
104.6893918626
 10
-30.2157238942
 20
104.7128151077
 10
-33.0983677732
 20
105.0759940991
 10
-35.9615202455
 20
105.7740174638
 10
-38.7664620857
 20
106.7974456334
 10
-41.2748693483
 20
108.0211180971
  0
LWPOLYLINE
  5
38F
330
356
100
AcDbEntity
  8
0
  6
Continuous
 62
     7
370
    25
100
AcDbPolyline
 90
       18
 70
   128
 43
0.0
 10
-41.2792590071
 20
154.0741846122
 10
-38.7664620857
 20
154.6671078542
 10
-35.9615202455
 20
154.9837571145
 10
-33.0983677732
 20
154.9603338694
 10
-30.2157238942
 20
154.5971548781
 10
-27.3525714219
 20
153.8991315133
 10
-24.5476295817
 20
152.8757033437
 10
-21.8388304003
 20
151.5407104797
 10
-19.2628057396
 20
149.9122064094
 10
-16.8543919141
 20
148.0122138568
 10
-14.6461585891
 20
145.8664269618
 10
-12.6679683322
 20
143.503863811
 10
-10.946572773
 20
140.9564740182
 10
-9.5052508335
 20
138.2587066602
 10
-8.3634939203
 20
135.4470444127
 10
-7.5367423371
 20
132.5595101841
 10
-7.0361764807
 20
129.6351529213
 10
-6.8685656455
 20
126.7135195398
  0
LWPOLYLINE
  5
391
330
356
100
AcDbEntity
  8
0
  6
Continuous
 62
     7
370
    25
100
AcDbPolyline
 90
       20
 70
   128
 43
0.0
 10
-41.2792590071
 20
155.7189503077
 10
-40.6925287179
 20
155.9974067888
 10
-38.1165040572
 20
156.9768136571
 10
-35.4077048758
 20
157.6292532848
 10
-32.6027630356
 20
157.9459025451
 10
-29.7396105633
 20
157.9224793
 10
-26.8569666843
 20
157.5593003086
 10
-23.993814212
 20
156.8612769439
 10
-21.1888723719
 20
155.8378487743
 10
-18.4800731904
 20
154.5028559102
 10
-15.9040485297
 20
152.87435184
 10
-13.4956347042
 20
150.9743592874
 10
-11.2874013792
 20
148.8285723924
 10
-9.3092111223
 20
146.4660092416
 10
-7.5878155631
 20
143.9186194488
 10
-6.1464936236
 20
141.2208520908
 10
-5.0047367105
 20
138.4091898433
 10
-4.1779851272
 20
135.5216556147
 10
-3.6774192708
 20
132.5972983519
 10
-3.5098084356
 20
129.6756649704
  0
LWPOLYLINE
  5
392
330
356
100
AcDbEntity
  8
0
  6
Continuous
 62
     7
370
    25
100
AcDbPolyline
 90
       14
 70
   128
 43
0.0
 10
-22.3029023664
 20
-432.3133165709
 10
-22.4719439249
 20
-430.5077414932
 10
-22.9729589979
 20
-428.7248301342
 10
-23.7878395953
 20
-427.0290215557
 10
-24.8871338091
 20
-425.4816066981
 10
-26.2311102824
 20
-424.1385131661
 10
-27.7711942036
 20
-423.0482838595
 10
-29.4517229273
 20
-422.2503225058
 10
-31.2119577666
 20
-421.7734695075
 10
-32.9882792484
 20
-421.6349595743
 10
-34.7164864861
 20
-421.8397988162
 10
-36.3341175673
 20
-422.3805838092
 10
-37.7827070901
 20
-423.2377691747
 10
-38.2714241114
 20
-423.6348052695
  0
LWPOLYLINE
  5
394
330
356
100
AcDbEntity
  8
0
  6
Continuous
 62
     7
370
    25
100
AcDbPolyline
 90
       35
 70
   128
 43
0.0
 10
-41.2792590071
 20
-406.8971951458
 10
-38.7664620857
 20
-406.3042719038
 10
-35.9615202455
 20
-405.9876226435
 10
-33.0983677732
 20
-406.0110458886
 10
-30.2157238942
 20
-406.37422488
 10
-27.3525714219
 20
-407.0722482447
 10
-24.5476295817
 20
-408.0956764143
 10
-21.8388304003
 20
-409.4306692784
 10
-19.2628057396
 20
-411.0591733486
 10
-16.8543919141
 20
-412.9591659012
 10
-14.6461585891
 20
-415.1049527962
 10
-12.6679683322
 20
-417.467515947
 10
-10.946572773
 20
-420.0149057398
 10
-9.5052508335
 20
-422.7126730978
 10
-8.3634939203
 20
-425.5243353453
 10
-7.5367423371
 20
-428.4118695739
 10
-7.0361764807
 20
-431.3362268367
 10
-6.8685656455
 20
-434.2578602182
 10
-7.0361764807
 20
-437.1372596392
 10
-7.5367423371
 20
-439.9354861619
 10
-8.3634939203
 20
-442.614698573
 10
-9.5052508335
 20
-445.1386651207
 10
-10.946572773
 20
-447.4732534873
 10
-12.6679683322
 20
-449.5868923701
 10
-14.6461585891
 20
-451.4509984291
 10
-16.8543919141
 20
-453.0403628278
 10
-19.2628057396
 20
-454.3334921391
 10
-21.8388304003
 20
-455.3128990074
 10
-24.5476295817
 20
-455.9653386351
 10
-27.3525714219
 20
-456.2819878954
 10
-30.2157238942
 20
-456.2585646503
 10
-33.0983677732
 20
-455.895385659
 10
-35.9615202455
 20
-455.1973622942
 10
-38.7664620857
 20
-454.1739341246
 10
-41.2748693483
 20
-452.9502616609
  0
LWPOLYLINE
  5
395
330
356
100
AcDbEntity
  8
0
  6
Continuous
 62
     7
370
    25
100
AcDbPolyline
 90
       27
 70
   128
 43
0.0
 10
-41.2792590071
 20
-405.2524294504
 10
-40.6925287179
 20
-404.9739729692
 10
-38.1165040572
 20
-403.9945661009
 10
-35.4077048758
 20
-403.3421264732
 10
-32.6027630356
 20
-403.0254772129
 10
-29.7396105633
 20
-403.048900458
 10
-26.8569666843
 20
-403.4120794494
 10
-23.993814212
 20
-404.1101028141
 10
-21.1888723719
 20
-405.1335309837
 10
-18.4800731904
 20
-406.4685238478
 10
-15.9040485297
 20
-408.097027918
 10
-13.4956347042
 20
-409.9970204706
 10
-11.2874013792
 20
-412.1428073656
 10
-9.3092111223
 20
-414.5053705164
 10
-7.5878155631
 20
-417.0527603092
 10
-6.1464936236
 20
-419.7505276672
 10
-5.0047367105
 20
-422.5621899147
 10
-4.1779851272
 20
-425.4497241433
 10
-3.6774192708
 20
-428.3740814061
 10
-3.5098084356
 20
-431.2957147876
 10
-3.6774192708
 20
-434.1751142086
 10
-4.1779851272
 20
-436.9733407313
 10
-5.0047367105
 20
-439.6525531424
 10
-6.1464936236
 20
-442.1765196901
 10
-7.5878155631
 20
-444.5111080567
 10
-9.3092111223
 20
-446.6247469395
 10
-10.7701861878
 20
-448.0476598387
  0
LWPOLYLINE
  5
396
330
356
100
AcDbEntity
  8
0
  6
Continuous
 62
     7
370
    25
100
AcDbPolyline
 90
       44
 70
   128
 43
0.0
 10
-5.3505987241
 20
-130.905594395
 10
-5.4138958883
 20
-128.6552124103
 10
-5.6024383119
 20
-126.5644391141
 10
-5.9122075404
 20
-124.6778357094
 10
-6.3366013806
 20
-123.0356118723
 10
-6.8665746145
 20
-121.6727687528
 10
-7.4908317827
 20
-120.6183529858
 10
-8.1960679276
 20
-119.8948376127
 10
-8.9672521651
 20
-119.5176431077
 10
-9.787948042
 20
-119.4948087168
 10
-10.6406638507
 20
-119.8268211152
 10
-11.507225434
 20
-120.5066040353
 10
-12.3691635364
 20
-121.5196690842
 10
-13.2081074435
 20
-122.8444245393
 10
-14.0061765226
 20
-124.452635538
 10
-14.7463613169
 20
-126.310025855
 10
-15.4128860724
 20
-128.3770084403
 10
-15.9915449713
 20
-130.6095291489
 10
-16.4700049037
 20
-132.9600056776
 10
-16.8380683269
 20
-135.3783417002
 10
-17.0878906079
 20
-137.8129945829
 10
-17.2141472186
 20
-140.2120739264
 10
-17.2141472186
 20
-142.5244475197
 10
-17.0878906079
 20
-144.7008311343
 10
-16.8380683269
 20
-146.6948389319
 10
-16.4700049037
 20
-148.4639720982
 10
-15.9915449713
 20
-149.9705246314
 10
-15.4128860724
 20
-151.1823869796
 10
-14.7463613169
 20
-152.0737304011
 10
-14.0061765226
 20
-152.6255574581
 10
-13.2081074435
 20
-152.8261069152
 10
-12.3691635364
 20
-152.6711044087
 10
-11.507225434
 20
-152.163853548
 10
-10.6406638507
 20
-151.3151655046
 10
-9.787948042
 20
-150.1431285905
 10
-8.9672521651
 20
-148.6727227379
 10
-8.1960679276
 20
-146.9352870947
 10
-7.4908317827
 20
-144.967852085
 10
-6.8665746145
 20
-142.8123501704
 10
-6.3366013806
 20
-140.5147221319
 10
-5.9122075404
 20
-138.1239379221
 10
-5.6024383119
 20
-135.6909529557
 10
-5.4138958883
 20
-133.2676220832
 10
-5.3505987241
 20
-130.905594395
  0
LWPOLYLINE
  5
397
330
356
100
AcDbEntity
  8
0
  6
Continuous
 62
     7
370
    25
100
AcDbPolyline
 90
       23
 70
   128
 43
0.0
 10
-13.602378553
 20
-152.9870091175
 10
-14.2255913067
 20
-152.7981972645
 10
-14.9745878247
 20
-152.2398008377
 10
-15.6490473988
 20
-151.3378461851
 10
-16.2345950941
 20
-150.1115569041
 10
-16.718750978
 20
-148.5870692218
 10
-17.0911961086
 20
-146.7968749463
 10
-17.3439924644
 20
-144.7791289606
 10
-17.4717521301
 20
-142.5768360173
 10
-17.4717521301
 20
-140.236934167
 10
-17.3439924644
 20
-137.8092943551
 10
-17.0911961086
 20
-135.3456575095
 10
-16.718750978
 20
-132.8985317723
 10
-16.2345950941
 20
-130.5200733801
 10
-15.6490473988
 20
-128.2609750441
 10
-14.9745878247
 20
-126.1693855232
 10
-14.2255913067
 20
-124.2898834168
 10
-13.4180214052
 20
-122.662527049
 10
-12.5690900706
 20
-121.3220006957
 10
-11.6968908004
 20
-120.2968753486
 10
-10.8200130077
 20
-119.6089997747
 10
-9.9571458204
 20
-119.2730348477
 10
-9.352378555
 20
-119.2536799012
  0
LWPOLYLINE
  5
398
330
356
100
AcDbEntity
  8
0
  6
Continuous
 62
     7
370
    25
100
AcDbPolyline
 90
       23
 70
   128
 43
0.0
 10
-29.5573284443
 20
-116.7080954901
 10
-30.1620957096
 20
-116.7274504366
 10
-31.024962897
 20
-117.0634153636
 10
-31.9018406896
 20
-117.7512909375
 10
-32.7740399598
 20
-118.7764162846
 10
-33.6229712945
 20
-120.116942638
 10
-34.430541196
 20
-121.7442990057
 10
-35.179537714
 20
-123.6238011122
 10
-35.853997288
 20
-125.715390633
 10
-36.4395449833
 20
-127.974488969
 10
-36.9237008673
 20
-130.3529473613
 10
-37.2961459978
 20
-132.8000730984
 10
-37.5489423537
 20
-135.263709944
 10
-37.6767020193
 20
-137.6913497559
 10
-37.6767020193
 20
-140.0312516062
 10
-37.5489423537
 20
-142.2335445495
 10
-37.2961459978
 20
-144.2512905352
 10
-36.9237008673
 20
-146.0414848107
 10
-36.4395449833
 20
-147.565972493
 10
-35.853997288
 20
-148.792261774
 10
-35.179537714
 20
-149.6942164266
 10
-34.430541196
 20
-150.2526128534
 10
-33.8073284422
 20
-150.4414247065
  0
LWPOLYLINE
  5
399
330
356
100
AcDbEntity
  8
0
  6
Continuous
 62
     7
370
    25
100
AcDbPolyline
 90
       19
 70
   128
 43
0.0
 10
-35.72771873
 20
-148.9963299649
 10
-35.9920017004
 20
-148.5896621165
 10
-36.5706605992
 20
-147.3777997682
 10
-37.0491205316
 20
-145.8712472351
 10
-37.4171839548
 20
-144.1021140687
 10
-37.6670062358
 20
-142.1081062711
 10
-37.7932628466
 20
-139.9317226566
 10
-37.7932628466
 20
-137.6193490633
 10
-37.6670062358
 20
-135.2202697198
 10
-37.4171839548
 20
-132.7856168371
 10
-37.0491205316
 20
-130.3672808145
 10
-36.5706605992
 20
-128.0168042857
 10
-35.9920017004
 20
-125.7842835772
 10
-35.3254769448
 20
-123.7173009918
 10
-34.5852921506
 20
-121.8599106749
 10
-33.7872230714
 20
-120.2516996762
 10
-32.9482791643
 20
-118.9269442211
 10
-32.0863410619
 20
-117.9138791722
 10
-31.776146654
 20
-117.6316989752
  0
LWPOLYLINE
  5
39A
330
356
100
AcDbEntity
  8
0
  6
Continuous
 62
     7
370
    25
100
AcDbPolyline
 90
        7
 70
   128
 43
0.0
 10
-20.7696849767
 20
-166.6599627629
 10
-19.7459276947
 20
-166.7244727565
 10
-18.7177193796
 20
-166.6683771173
 10
-17.809077129
 20
-166.4984418074
 10
-17.1295966083
 20
-166.2351635331
 10
-16.7612331965
 20
-165.9102975398
 10
-16.7090248052
 20
-165.7245484164
  0
LWPOLYLINE
  5
39B
330
356
100
AcDbEntity
  8
0
  6
Continuous
 62
     7
370
    25
100
AcDbPolyline
 90
        5
 70
   128
 43
0.0
 10
-22.7090248052
 20
-165.7245484164
 10
-22.6696326529
 20
-165.886069372
 10
-22.3253558916
 20
-166.2138576399
 10
-21.6655109883
 20
-166.482627994
 10
-20.7696849767
 20
-166.6599627629
  0
LWPOLYLINE
  5
39D
330
356
100
AcDbEntity
  8
0
  6
Continuous
 62
     8
370
    25
100
AcDbPolyline
 90
       12
 70
   128
 43
0.0
 10
-70.5958418979
 20
-112.7408769524
 10
-71.3387385356
 20
-113.4891172022
 10
-72.1914543443
 20
-114.6611541162
 10
-73.0121502212
 20
-116.1315599688
 10
-73.7833344587
 20
-117.8689956121
 10
-74.4885706036
 20
-119.8364306218
 10
-75.1128277718
 20
-121.9919325364
 10
-75.6428010057
 20
-124.2895605749
 10
-76.0671948459
 20
-126.6803447847
 10
-76.3769640744
 20
-129.113329751
 10
-76.565506498
 20
-131.5366606235
 10
-76.6288036622
 20
-133.8986883118
  0
SPLINE
  5
39E
330
356
100
AcDbEntity
  8
0
  6
Continuous
 62
     8
370
    25
100
AcDbSpline
210
0.0
220
0.0
230
1.0
 70
     8
 71
     3
 72
    21
 73
    17
 74
     0
 42
0.000000001
 43
0.00000001
 40
0.0
 40
0.0
 40
0.0
 40
0.0
 40
0.051076897478149
 40
0.1057542679688181
 40
0.1624361295565127
 40
0.1862652395918365
 40
0.2913943838016974
 40
0.395481425276022
 40
0.5110471218535494
 40
0.5658614258879516
 40
0.6221152542372443
 40
0.7076102508086899
 40
0.7932503630338628
 40
0.8464080106298318
 40
0.9011415476879038
 40
1.0
 40
1.0
 40
1.0
 40
1.0
 10
-77.33428195344617
 20
-110.8011127028512
 30
0.0
 10
-77.25389418535143
 20
-110.8153605462434
 30
0.0
 10
-77.08745201700825
 20
-110.8448605809455
 30
0.0
 10
-77.41122866540802
 20
-111.2191772506986
 30
0.0
 10
-77.85645868346081
 20
-111.6440874696921
 30
0.0
 10
-78.72004720110601
 20
-112.3766838130439
 30
0.0
 10
-80.25482482859697
 20
-113.56451611463
 30
0.0
 10
-83.06752780180412
 20
-115.4892025551226
 30
0.0
 10
-85.82452025648027
 20
-117.0690331352304
 30
0.0
 10
-88.25785875379086
 20
-118.0934811545285
 30
0.0
 10
-90.44634862529094
 20
-118.7341616852098
 30
0.0
 10
-93.0531946689352
 20
-118.9217473490926
 30
0.0
 10
-95.40183856280784
 20
-118.2135438297304
 30
0.0
 10
-97.075815683353
 20
-117.1622181231798
 30
0.0
 10
-98.60796204960539
 20
-115.804926047081
 30
0.0
 10
-99.3439660071473
 20
-114.6560009813964
 30
0.0
 10
-99.81769001083093
 20
-113.9165030799634
 30
0.0
  0
SPLINE
  5
39F
330
356
100
AcDbEntity
  8
0
  6
Continuous
 62
     8
370
    25
100
AcDbSpline
210
0.0
220
0.0
230
1.0
 70
     8
 71
     3
 72
    15
 73
    11
 74
     0
 42
0.000000001
 43
0.00000001
 40
0.0
 40
0.0
 40
0.0
 40
0.0
 40
0.1344433988989541
 40
0.3058538889253032
 40
0.3886660875805575
 40
0.4736141420166852
 40
0.594192569922568
 40
0.7147180427775938
 40
0.8574563434316591
 40
1.0
 40
1.0
 40
1.0
 40
1.0
 10
-77.76540526833993
 20
-111.3472497455645
 30
0.0
 10
-77.81021088650301
 20
-111.276493330382
 30
0.0
 10
-77.9121420536195
 20
-111.1155250349713
 30
0.0
 10
-79.13801676929718
 20
-111.4657724360205
 30
0.0
 10
-80.61019494051045
 20
-111.764674533874
 30
0.0
 10
-82.14973239882224
 20
-111.9732363592192
 30
0.0
 10
-84.28243401836765
 20
-111.9971005022793
 30
0.0
 10
-87.14633324185924
 20
-111.5169959147513
 30
0.0
 10
-90.18137153099434
 20
-110.5647825644176
 30
0.0
 10
-92.11324896792175
 20
-109.9373592238845
 30
0.0
 10
-93.07852863924293
 20
-109.6238615949188
 30
0.0
  0
LINE
  5
3A0
330
356
100
AcDbEntity
  8
0
  6
Continuous
 62
     7
370
    25
100
AcDbLine
 10
-68.751189572
 20
-111.7701331371
 30
0.0
 11
-77.4103540307
 21
-110.6791809606
 31
0.0
  0
LINE
  5
3A1
330
356
100
AcDbEntity
  8
0
  6
Continuous
 62
     7
370
    25
100
AcDbLine
 10
-83.0749002628
 20
-144.234294103
 30
0.0
 11
-73.0011895699
 21
-145.5034623535
 31
0.0
  0
LINE
  5
3A2
330
356
100
AcDbEntity
  8
0
  6
Continuous
 62
     7
370
    25
100
AcDbLine
 10
-61.2792590071
 20
-112.7115079028
 30
0.0
 11
-68.3770238333
 21
-111.8172735892
 31
0.0
  0
LINE
  5
3A3
330
356
100
AcDbEntity
  8
0
  6
Continuous
 62
     7
370
    25
100
AcDbLine
 10
-29.931494183
 20
-116.6609550381
 30
0.0
 11
-41.2792590071
 21
-115.2312710549
 31
0.0
  0
LINE
  5
3A4
330
356
100
AcDbEntity
  8
0
  6
Continuous
 62
     7
370
    25
100
AcDbLine
 10
-45.5737253098
 20
-148.9589980434
 30
0.0
 11
-34.1814941809
 21
-150.3942842544
 31
0.0
  0
LINE
  5
3A5
330
356
100
AcDbEntity
  8
0
  6
Continuous
 62
     7
370
    25
100
AcDbLine
 10
-72.6270238312
 20
-145.5506028055
 30
0.0
 11
-61.2599666762
 21
-146.9827173939
 31
0.0
  0
LINE
  5
3A6
330
356
100
AcDbEntity
  8
0
  6
Continuous
 62
     7
370
    25
100
AcDbLine
 10
-61.2792590071
 20
159.6718611588
 30
0.0
 11
-61.2792590071
 21
-116.2732598079
 31
0.0
  0
LINE
  5
3A7
330
356
100
AcDbEntity
  8
0
  6
Continuous
 62
     7
370
    25
100
AcDbLine
 10
-61.2792590071
 20
-146.9802867887
 30
0.0
 11
-61.2792590071
 21
-495.5804227602
 31
0.0
  0
LINE
  5
3A8
330
356
100
AcDbEntity
  8
0
  6
Continuous
 62
     7
370
    25
100
AcDbLine
 10
-41.2792590071
 20
115.8647424109
 30
0.0
 11
-41.2792590071
 21
159.6718611588
 31
0.0
  0
LINE
  5
3A9
330
356
100
AcDbEntity
  8
0
  6
Continuous
 62
     7
370
    25
100
AcDbLine
 10
-41.2792590071
 20
-445.1066373471
 30
0.0
 11
-41.2792590071
 21
-149.5000499408
 31
0.0
  0
LINE
  5
3AA
330
356
100
AcDbEntity
  8
0
  6
Continuous
 62
     7
370
    25
100
AcDbLine
 10
-41.2792590071
 20
-115.847369658
 30
0.0
 11
-41.2792590071
 21
109.1980757456
 31
0.0
  0
LINE
  5
3AB
330
356
100
AcDbEntity
  8
0
  6
Continuous
 62
     7
370
    25
100
AcDbLine
 10
-41.2792590071
 20
-495.5804227602
 30
0.0
 11
-41.2792590071
 21
-451.7733040124
 31
0.0
  0
LINE
  5
3AC
330
356
100
AcDbEntity
  8
0
  6
Continuous
 62
     7
370
    25
100
AcDbLine
 10
-38.2714241114
 20
137.3365744885
 30
0.0
 11
-41.2792590071
 21
134.6839134488
 31
0.0
  0
LINE
  5
3AD
330
356
100
AcDbEntity
  8
0
  6
Continuous
 62
     7
370
    25
100
AcDbLine
 10
-41.2792590071
 20
108.0172467819
 30
0.0
 11
-25.0426675559
 21
122.3365744886
 31
0.0
  0
LINE
  5
3AE
330
356
100
AcDbEntity
  8
0
  6
Continuous
 62
     7
370
    25
100
AcDbLine
 10
-14.1289433976
 20
109.9615744888
 30
0.0
 11
-10.7701861878
 21
112.9237199194
 31
0.0
  0
LINE
  5
3AF
330
356
100
AcDbEntity
  8
0
  6
Continuous
 62
     7
370
    25
100
AcDbLine
 10
-38.2714241114
 20
-423.6348052695
 30
0.0
 11
-41.2792590071
 21
-426.2874663092
 31
0.0
  0
LINE
  5
3B0
330
356
100
AcDbEntity
  8
0
  6
Continuous
 62
     7
370
    25
100
AcDbLine
 10
-41.2792590071
 20
-452.9541329761
 30
0.0
 11
-25.0426675559
 21
-438.6348052694
 31
0.0
  0
LINE
  5
3B1
330
356
100
AcDbEntity
  8
0
  6
Continuous
 62
     7
370
    25
100
AcDbLine
 10
-14.1289433976
 20
-451.0098052692
 30
0.0
 11
-10.7701861878
 21
-448.0476598387
 31
0.0
  0
LINE
  5
3B2
330
356
100
AcDbEntity
  8
0
  6
Continuous
 62
     7
370
    25
100
AcDbLine
 10
-33.8073284422
 20
-150.4414247065
 30
0.0
 11
-13.602378553
 21
-152.9870091175
 31
0.0
  0
LINE
  5
3B3
330
356
100
AcDbEntity
  8
0
  6
Continuous
 62
     7
370
    25
100
AcDbLine
 10
-9.352378555
 20
-119.2536799012
 30
0.0
 11
-29.5573284443
 21
-116.7080954901
 31
0.0
  0
LINE
  5
3B4
330
356
100
AcDbEntity
  8
0
  6
Continuous
 62
     7
370
    25
100
AcDbLine
 10
-22.7090248052
 20
-151.8396795343
 30
0.0
 11
-22.7090248052
 21
-165.7245484164
 31
0.0
  0
LINE
  5
3B5
330
356
100
AcDbEntity
  8
0
  6
Continuous
 62
     7
370
    25
100
AcDbLine
 10
-16.7090248052
 20
-165.7245484164
 30
0.0
 11
-16.7090248052
 21
-152.5956084799
 31
0.0
  0
LINE
  5
3B6
330
356
100
AcDbEntity
  8
0
  6
Continuous
 62
     7
370
    25
100
AcDbLine
 10
-103.0714740952
 20
-141.5343288315
 30
0.0
 11
-97.9931925459
 21
-142.1741321677
 31
0.0
  0
LINE
  5
3B7
330
356
100
AcDbEntity
  8
0
  6
Continuous
 62
     7
370
    25
100
AcDbLine
 10
-99.8176900108
 20
-113.91650308
 30
0.0
 11
-103.0714740952
 21
-113.5065648179
 31
0.0
  0
LINE
  5
3B8
330
356
100
AcDbEntity
  8
0
  6
Continuous
 62
     7
370
    25
100
AcDbLine
 10
-77.4182299482
 20
-110.7503002927
 30
0.0
 11
-77.3342819534
 21
-110.8011127029
 31
0.0
  0
LINE
  5
3B9
330
356
100
AcDbEntity
  8
0
  6
Continuous
 62
     7
370
    25
100
AcDbLine
 10
-97.2378431517
 20
-108.3617859122
 30
0.0
 11
-93.9840590674
 21
-108.7717241742
 31
0.0
  0
LINE
  5
3BA
330
356
100
AcDbEntity
  8
0
  6
Continuous
 62
     7
370
    25
100
AcDbLine
 10
-97.2378431517
 20
-108.3617859122
 30
0.0
 11
-97.2378431517
 21
-116.4853782131
 31
0.0
  0
ARC
  5
3BB
330
356
100
AcDbEntity
  8
0
  6
Continuous
 62
     7
370
    25
100
AcDbCircle
 10
-45.5473178669
 20
109.093027918
 30
0.0
 40
4.269351411733202
100
AcDbArc
 50
1.4099107943
 51
31.9597867333
  0
ARC
  5
3BC
330
356
100
AcDbEntity
  8
0
  6
Continuous
 62
     7
370
    25
100
AcDbCircle
 10
-57.7618059043
 20
115.9220192632
 30
0.0
 40
16.48264641543475
100
AcDbArc
 50
343.9063599957
 51
359.8008979614
  0
ARC
  5
3BD
330
356
100
AcDbEntity
  8
0
  6
Continuous
 62
     7
370
    25
100
AcDbCircle
 10
-57.7618059043
 20
-445.0493604948
 30
0.0
 40
16.48264641543268
100
AcDbArc
 50
343.9063599957
 51
359.8008979614
  0
ARC
  5
3BE
330
356
100
AcDbEntity
  8
0
  6
Continuous
 62
     7
370
    25
100
AcDbCircle
 10
-45.5473178669
 20
-451.87835184
 30
0.0
 40
4.269351411733407
100
AcDbArc
 50
1.4099107943
 51
31.9597867333
  0
ARC
  5
3BF
330
356
100
AcDbEntity
  8
0
  6
Continuous
 62
     7
370
    25
100
AcDbCircle
 10
-25.4723198504
 20
129.2450137971
 30
0.0
 40
21.96673321355713
100
AcDbArc
 50
312.0123562519
 51
1.1233384267
  0
ARC
  5
3C0
330
356
100
AcDbEntity
  8
0
  6
Continuous
 62
     7
370
    25
100
AcDbCircle
 10
-30.6132887302
 20
-432.4660114668
 30
0.0
 40
8.311789052068482
100
AcDbArc
 50
312.0830614596
 51
1.052633219
  0
ARC
  5
3C1
330
356
100
AcDbEntity
  8
0
  6
Continuous
 62
     8
370
    25
100
AcDbCircle
 10
-57.4840243865
 20
-135.3102868351
 30
0.0
 40
19.19674930578576
100
AcDbArc
 50
175.7830515309
 51
207.2685696018
  0
VIEWPORT
  5
3D0
330
356
100
AcDbEntity
  8
0
100
AcDbViewport
 10
0.0
 20
0.0
 30
0.0
 40
205.6
 41
156.0
 68
     1
 69
     1
 12
-35.0021430454
 22
-160.4272048014
 13
0.0
 23
0.0
 14
10.0
 24
10.0
 15
10.0
 25
10.0
 16
0.0
 26
0.0
 36
1.0
 17
0.0
 27
0.0
 37
0.0
 42
50.0
 43
0.0
 44
0.0
 45
708.9
 50
0.0
 51
0.0
 72
   100
 90
   557152
  1

281
     0
 71
     1
 74
     0
110
0.0
120
0.0
130
0.0
111
1.0
121
0.0
131
0.0
112
0.0
122
1.0
132
0.0
 79
     0
146
0.0
  0
ENDBLK
  5
359
330
356
100
AcDbEntity
  8
0
100
AcDbBlockEnd
  0
ENDSEC
  0
SECTION
  2
ENTITIES
  0
SPLINE
  5
7F
330
1F
100
AcDbEntity
  8
0
  6
Continuous
 62
     7
370
    25
100
AcDbSpline
210
0.0
220
0.0
230
1.0
 70
     8
 71
     3
 72
     9
 73
     5
 74
     0
 42
0.000000001
 43
0.00000001
 40
0.0
 40
0.0
 40
0.0
 40
0.0
 40
0.5003258459283496
 40
1.0
 40
1.0
 40
1.0
 40
1.0
 10
-40.55214304540601
 20
-138.3434664698383
 30
0.0
 10
-40.53103588566405
 20
-138.3417545547055
 30
0.0
 10
-40.48884905899155
 20
-138.3383329542688
 30
0.0
 10
-40.45254440174751
 20
-138.3162116923235
 30
0.0
 10
-40.43440390285024
 20
-138.305158269474
 30
0.0
  0
SPLINE
  5
92
330
1F
100
AcDbEntity
  8
0
  6
Continuous
 62
     7
370
    25
100
AcDbSpline
210
0.0
220
0.0
230
1.0
 70
     8
 71
     3
 72
    18
 73
    14
 74
     0
 42
0.000000001
 43
0.00000001
 40
0.0
 40
0.0
 40
0.0
 40
0.0
 40
0.0076808263483869
 40
0.0873913281771145
 40
0.169699655910252
 40
0.2874889908154454
 40
0.4055214187417486
 40
0.5211806208631689
 40
0.6070391555128387
 40
0.7621884238876828
 40
0.8390548084858138
 40
0.9187148387194577
 40
0.9999999999999999
 40
0.9999999999999999
 40
0.9999999999999999
 40
0.9999999999999999
 10
-77.07323171096903
 20
-136.2074329660331
 30
0.0
 10
-77.0273922492469
 20
-136.1869566652553
 30
0.0
 10
-76.50583750225518
 20
-135.9539802848555
 30
0.0
 10
-75.40776761386284
 20
-135.5106337998342
 30
0.0
 10
-73.38665932095849
 20
-134.9015397657992
 30
0.0
 10
-70.82097469600714
 20
-134.5418353867935
 30
0.0
 10
-67.94591407296235
 20
-134.8043201454056
 30
0.0
 10
-65.59722330064793
 20
-135.4962193593087
 30
0.0
 10
-63.33997196077798
 20
-136.439449345874
 30
0.0
 10
-61.71638378168836
 20
-137.314702786681
 30
0.0
 10
-60.6628166060213
 20
-137.9346820949342
 30
0.0
 10
-60.07604301327016
 20
-138.296762700121
 30
0.0
 10
-60.11283720993272
 20
-138.2742362272775
 30
0.0
 10
-60.13142007147561
 20
-138.2628592612374
 30
0.0
  0
SPLINE
  5
96
330
1F
100
AcDbEntity
  8
0
  6
Continuous
 62
     7
370
    25
100
AcDbSpline
210
0.0
220
0.0
230
1.0
 70
     8
 71
     3
 72
    19
 73
    15
 74
     0
 42
0.000000001
 43
0.00000001
 40
0.0
 40
0.0
 40
0.0
 40
0.0
 40
0.0236093295080808
 40
0.0513881312755162
 40
0.1739425050081803
 40
0.2952820467446493
 40
0.4300028387332657
 40
0.4939026521771756
 40
0.5594805921026648
 40
0.6591464444297207
 40
0.7589814654320762
 40
0.8209500304688169
 40
0.884755689753318
 40
1.0
 40
1.0
 40
1.0
 40
1.0
 10
-58.81013614673041
 20
-104.3773540321591
 30
0.0
 10
-58.78931106890254
 20
-104.3623668781564
 30
0.0
 10
-58.74398314746054
 20
-104.3297457977028
 30
0.0
 10
-58.86199846935943
 20
-104.4146992011183
 30
0.0
 10
-59.47346610193141
 20
-104.8572408899975
 30
0.0
 10
-61.30998777489913
 20
-106.1016366535983
 30
0.0
 10
-63.49291131329629
 20
-107.3819568266088
 30
0.0
 10
-65.63972263783182
 20
-108.3390939384533
 30
0.0
 10
-67.69158754730641
 20
-109.0233775466535
 30
0.0
 10
-70.33042611574963
 20
-109.4226919377368
 30
0.0
 10
-72.95841251720239
 20
-109.1025620137117
 30
0.0
 10
-75.00955054091833
 20
-108.4727381658798
 30
0.0
 10
-77.03153260549027
 20
-107.6219029852762
 30
0.0
 10
-78.24357718912884
 20
-106.926859831262
 30
0.0
 10
-79.02370154433196
 20
-106.4794999736436
 30
0.0
  0
SPLINE
  5
99
330
1F
100
AcDbEntity
  8
0
  6
Continuous
 62
     7
370
    25
100
AcDbSpline
210
0.0
220
0.0
230
1.0
 70
     8
 71
     3
 72
    11
 73
     7
 74
     0
 42
0.000000001
 43
0.00000001
 40
0.0
 40
0.0
 40
0.0
 40
0.0
 40
0.0703664800077337
 40
0.4633012557819723
 40
0.8631295511676362
 40
0.9999999999999999
 40
0.9999999999999999
 40
0.9999999999999999
 40
0.9999999999999999
 10
-78.20201342635596
 20
-106.9189712363936
 30
0.0
 10
-78.21379290822173
 20
-106.8996579902608
 30
0.0
 10
-78.29135041486799
 20
-106.7724972855394
 30
0.0
 10
-78.52828399310101
 20
-106.6097681916797
 30
0.0
 10
-78.80724479666291
 20
-106.4912691696727
 30
0.0
 10
-78.97971715117394
 20
-106.4818914950486
 30
0.0
 10
-79.02370154433196
 20
-106.4794999736436
 30
0.0
  0
SPLINE
  5
9A
330
1F
100
AcDbEntity
  8
0
  6
Continuous
 62
     7
370
    25
100
AcDbSpline
210
0.0
220
0.0
230
1.0
 70
     8
 71
     3
 72
    15
 73
    11
 74
     0
 42
0.000000001
 43
0.00000001
 40
0.0
 40
0.0
 40
0.0
 40
0.0
 40
0.1602106663988027
 40
0.3292970329101523
 40
0.5302830165856774
 40
0.6444856970597747
 40
0.762398771216704
 40
0.8691240481730729
 40
0.9799722640459981
 40
1.0
 40
1.0
 40
1.0
 40
1.0
 10
-30.25214304540603
 20
-107.9133133736071
 30
0.0
 10
-31.14754467815843
 20
-107.8574997341853
 30
0.0
 10
-32.98795335728038
 20
-107.742780369547
 30
0.0
 10
-35.64066052355376
 20
-106.9065040599465
 30
0.0
 10
-37.63749864963979
 20
-105.9975180553987
 30
0.0
 10
-39.01943059356753
 20
-105.2546518265065
 30
0.0
 10
-39.85823207416764
 20
-104.7674848844587
 30
0.0
 10
-40.35069295275414
 20
-104.4684924694244
 30
0.0
 10
-40.61962106458673
 20
-104.3020641148351
 30
0.0
 10
-40.5230441294195
 20
-104.361344484277
 30
0.0
 10
-40.50826511669963
 20
-104.3704160636609
 30
0.0
  0
SPLINE
  5
9B
330
1F
100
AcDbEntity
  8
0
  6
Continuous
 62
     7
370
    25
100
AcDbSpline
210
0.0
220
0.0
230
1.0
 70
     8
 71
     3
 72
    14
 73
    10
 74
     0
 42
0.000000001
 43
0.00000001
 40
0.0
 40
0.0
 40
0.0
 40
0.0
 40
0.0181917146346747
 40
0.2010706700801588
 40
0.3842162746652334
 40
0.5891637442023853
 40
0.7024249465889676
 40
0.8194191978395059
 40
1.0
 40
1.0
 40
1.0
 40
1.0
 10
-19.97359359567471
 20
-104.3567385386721
 30
0.0
 10
-19.96700726697574
 20
-104.3526611297839
 30
0.0
 10
-19.89420942732928
 20
-104.3075940564599
 30
0.0
 10
-20.37910943033835
 20
-104.61076311151
 30
0.0
 10
-21.73099516838901
 20
-105.4045595498193
 30
0.0
 10
-23.58344798977233
 20
-106.355222498824
 30
0.0
 10
-25.52674277428372
 20
-107.1111855218859
 30
0.0
 10
-27.57983546920739
 20
-107.7302431162167
 30
0.0
 10
-29.24291678558597
 20
-107.8441748834139
 30
0.0
 10
-30.25214304540603
 20
-107.9133133736071
 30
0.0
  0
SPLINE
  5
9C
330
1F
100
AcDbEntity
  8
0
  6
Continuous
 62
     7
370
    25
100
AcDbSpline
210
0.0
220
0.0
230
1.0
 70
     8
 71
     3
 72
    22
 73
    18
 74
     0
 42
0.000000001
 43
0.00000001
 40
0.0
 40
0.0
 40
0.0
 40
0.0
 40
0.0067308831719067
 40
0.1025594010113024
 40
0.1978846239326127
 40
0.3009287915543331
 40
0.3577030055847162
 40
0.4164094064981368
 40
0.5009833051665915
 40
0.5856516680251357
 40
0.6709215414782644
 40
0.7728649285968697
 40
0.830153039790397
 40
0.8893513577322386
 40
0.9823021929888733
 40
0.9968087406248656
 40
1.0
 40
1.0
 40
1.0
 40
1.0
 10
-40.54360794113221
 20
-138.3381752446126
 30
0.0
 10
-40.54604571332138
 20
-138.339688515083
 30
0.0
 10
-40.58319038648498
 20
-138.3627464272543
 30
0.0
 10
-40.13026037719759
 20
-138.078880003461
 30
0.0
 10
-38.68289957910147
 20
-137.2296444778019
 30
0.0
 10
-36.76720200593223
 20
-136.2626331786302
 30
0.0
 10
-34.78698588079927
 20
-135.5065998204315
 30
0.0
 10
-32.76402263335069
 20
-134.9492048935355
 30
0.0
 10
-30.21452323284496
 20
-134.6659042573954
 30
0.0
 10
-27.37420148567741
 20
-134.9978398376194
 30
0.0
 10
-24.68562798730662
 20
-135.8414252935842
 30
0.0
 10
-22.70722751943752
 20
-136.7709346363093
 30
0.0
 10
-21.3523295658422
 20
-137.5069373129128
 30
0.0
 10
-20.37716605127641
 20
-138.0782055322476
 30
0.0
 10
-19.99418402215887
 20
-138.3174782467244
 30
0.0
 10
-19.95289337150202
 20
-138.3429998391883
 30
0.0
 10
-19.95225767404208
 20
-138.3433951818541
 30
0.0
 10
-19.95214304540603
 20
-138.3434664698383
 30
0.0
  0
SPLINE
  5
A8
330
1F
100
AcDbEntity
  8
0
  6
Continuous
 62
     7
370
    25
100
AcDbSpline
210
0.0
220
0.0
230
1.0
 70
     8
 71
     3
 72
    12
 73
     8
 74
     0
 42
0.000000001
 43
0.00000001
 40
0.0
 40
0.0
 40
0.0
 40
0.0
 40
0.2125550308754318
 40
0.4250292548883607
 40
0.639594518324596
 40
0.855572888499807
 40
1.0
 40
1.0
 40
1.0
 40
1.0
 10
3.497856954593981
 20
-138.0766670005199
 30
0.0
 10
3.832084262838479
 20
-138.0826575929064
 30
0.0
 10
4.500411816420378
 20
-138.094636500241
 30
0.0
 10
5.395038572360504
 20
-138.1785388023622
 30
0.0
 10
6.069934039965252
 20
-138.2699899598073
 30
0.0
 10
6.459195793461374
 20
-138.3365660638988
 30
0.0
 10
6.460351501592999
 20
-138.3368694584815
 30
0.0
 10
6.460814634357826
 20
-138.3369910393271
 30
0.0
  0
SPLINE
  5
A9
330
1F
100
AcDbEntity
  8
0
  6
Continuous
 62
     7
370
    25
100
AcDbSpline
210
0.0
220
0.0
230
1.0
 70
     8
 71
     3
 72
    12
 73
     8
 74
     0
 42
0.000000001
 43
0.00000001
 40
0.0
 40
0.0
 40
0.0
 40
0.0
 40
0.2030127275441838
 40
0.4145650186065731
 40
0.6288421131417941
 40
0.8447353749571793
 40
1.0
 40
1.0
 40
1.0
 40
1.0
 10
0.5044436878193365
 20
-138.3423315153822
 30
0.0
 10
0.5315996276745658
 20
-138.3374102124612
 30
0.0
 10
0.5870537996742684
 20
-138.3273605960568
 30
0.0
 10
1.075477086937386
 20
-138.2472138838336
 30
0.0
 10
1.814992398205193
 20
-138.154564052146
 30
0.0
 10
2.671555333648427
 20
-138.0874624940916
 30
0.0
 10
3.254145091123164
 20
-138.0798510555776
 30
0.0
 10
3.497856954593981
 20
-138.0766670005198
 30
0.0
  0
LINE
  5
B3
330
1F
100
AcDbEntity
  8
0
  6
Continuous
 62
     7
370
    25
100
AcDbLine
 10
-51.2021430454
 20
-104.3434664698
 30
0.0
 11
-58.7771335412
 21
-104.3434664698
 31
0.0
  0
LINE
  5
B4
330
1F
100
AcDbEntity
  8
0
  6
Continuous
 62
     7
370
    25
100
AcDbLine
 10
-60.1314200715
 20
-138.3434664698
 30
0.0
 11
-51.2021430454
 21
-138.3434664698
 31
0.0
  0
LINE
  5
B5
330
1F
100
AcDbEntity
  8
0
  6
Continuous
 62
     7
370
    25
100
AcDbLine
 10
-40.5082651167
 20
-104.3434664698
 30
0.0
 11
-50.8021430454
 21
-104.3434664698
 31
0.0
  0
LINE
  5
B6
330
1F
100
AcDbEntity
  8
0
  6
Continuous
 62
     7
370
    25
100
AcDbLine
 10
-9.7021430454
 20
-104.3434664698
 30
0.0
 11
-19.9735935957
 21
-104.3434664698
 31
0.0
  0
LINE
  5
B7
330
1F
100
AcDbEntity
  8
0
  6
Continuous
 62
     7
370
    25
100
AcDbLine
 10
-19.9521430454
 20
-138.3434664698
 30
0.0
 11
-9.7021430454
 21
-138.3434664698
 31
0.0
  0
LINE
  5
B8
330
1F
100
AcDbEntity
  8
0
  6
Continuous
 62
     7
370
    25
100
AcDbLine
 10
-50.8021430454
 20
-138.3434664698
 30
0.0
 11
-40.5436079411
 21
-138.3434664698
 31
0.0
  0
LINE
  5
B9
330
1F
100
AcDbEntity
  8
0
  6
Continuous
 62
     7
370
    25
100
AcDbLine
 10
-20.0737960746
 20
-138.3027598551
 30
0.0
 11
-19.9521430852
 21
-138.3434664451
 31
0.0
  0
LINE
  5
BA
330
1F
100
AcDbEntity
  8
0
  6
Continuous
 62
     7
370
    25
100
AcDbLine
 10
-40.2521430454
 20
-138.1933106873
 30
0.0
 11
-40.2521430454
 21
-507.9272048014
 31
0.0
  0
LINE
  5
BB
330
1F
100
AcDbEntity
  8
0
  6
Continuous
 62
     7
370
    25
100
AcDbLine
 10
-40.2521430454
 20
187.0727951986
 30
0.0
 11
-40.2521430454
 21
-104.5272428661
 31
0.0
  0
LINE
  5
BC
330
1F
100
AcDbEntity
  8
0
  6
Continuous
 62
     7
370
    25
100
AcDbLine
 10
-20.2521430454
 20
-104.5265704397
 30
0.0
 11
-20.2521430454
 21
187.0727951986
 31
0.0
  0
LINE
  5
BD
330
1F
100
AcDbEntity
  8
0
  6
Continuous
 62
     7
370
    25
100
AcDbLine
 10
-20.2521430454
 20
-507.9272048014
 30
0.0
 11
-20.2521430454
 21
-138.1985695713
 31
0.0
  0
LINE
  5
BE
330
1F
100
AcDbEntity
  8
0
  6
Continuous
 62
     7
370
    25
100
AcDbLine
 10
6.4608146344
 20
-138.3434664698
 30
0.0
 11
12.2978569546
 21
-138.3434664698
 31
0.0
  0
LINE
  5
BF
330
1F
100
AcDbEntity
  8
0
  6
Continuous
 62
     7
370
    25
100
AcDbLine
 10
-9.3021430454
 20
-138.3434664698
 30
0.0
 11
0.5044436878
 21
-138.3434664698
 31
0.0
  0
LINE
  5
C0
330
1F
100
AcDbEntity
  8
0
  6
Continuous
 62
     7
370
    25
100
AcDbLine
 10
12.2978569546
 20
-104.3434664698
 30
0.0
 11
-9.3021430454
 21
-104.3434664698
 31
0.0
  0
LINE
  5
C1
330
1F
100
AcDbEntity
  8
0
  6
Continuous
 62
     7
370
    25
100
AcDbLine
 10
0.4978569546
 20
-138.3423570702
 30
0.0
 11
0.4978569546
 21
-153.8434664698
 31
0.0
  0
LINE
  5
C2
330
1F
100
AcDbEntity
  8
0
  6
Continuous
 62
     7
370
    25
100
AcDbLine
 10
6.4978569546
 20
-153.8434664698
 30
0.0
 11
6.4978569546
 21
-138.3370131545
 31
0.0
  0
LINE
  5
C3
330
1F
100
AcDbEntity
  8
0
  6
Continuous
 62
     7
370
    25
100
AcDbLine
 10
-82.5021430454
 20
-136.207432966
 30
0.0
 11
-77.073231711
 21
-136.207432966
 31
0.0
  0
LINE
  5
C4
330
1F
100
AcDbEntity
  8
0
  6
Continuous
 62
     7
370
    25
100
AcDbLine
 10
-82.5021430454
 20
-136.207432966
 30
0.0
 11
-82.5021430454
 21
-106.4794999736
 31
0.0
  0
LINE
  5
C5
330
1F
100
AcDbEntity
  8
0
  6
Continuous
 62
     7
370
    25
100
AcDbLine
 10
-79.0237015443
 20
-106.4794999736
 30
0.0
 11
-82.5021430454
 21
-106.4794999736
 31
0.0
  0
LINE
  5
C6
330
1F
100
AcDbEntity
  8
0
  6
Continuous
 62
     7
370
    25
100
AcDbLine
 10
-51.0021430454
 20
-138.1434664698
 30
0.0
 11
-51.0021430454
 21
-104.5434664698
 31
0.0
  0
LINE
  5
C7
330
1F
100
AcDbEntity
  8
0
  6
Continuous
 62
     7
370
    25
100
AcDbLine
 10
-9.5021430454
 20
-138.1434664698
 30
0.0
 11
-9.5021430454
 21
-104.5434664698
 31
0.0
  0
LINE
  5
C8
330
1F
100
AcDbEntity
  8
0
  6
Continuous
 62
     7
370
    25
100
AcDbLine
 10
-40.2521430454
 20
-507.9272048014
 30
0.0
 11
-20.2521430454
 21
-507.9272048014
 31
0.0
  0
LINE
  5
C9
330
1F
100
AcDbEntity
  8
0
  6
Continuous
 62
     7
370
    25
100
AcDbLine
 10
-40.2521430454
 20
187.0727951986
 30
0.0
 11
-20.2521430454
 21
187.0727951986
 31
0.0
  0
LINE
  5
CA
330
1F
100
AcDbEntity
  8
0
  6
Continuous
 62
     7
370
    25
100
AcDbLine
 10
12.4978569546
 20
-104.5434664698
 30
0.0
 11
12.4978569546
 21
-138.1434664698
 31
0.0
  0
LINE
  5
CB
330
1F
100
AcDbEntity
  8
0
  6
Continuous
 62
     7
370
    25
100
AcDbLine
 10
0.4978569546
 20
-153.8434664698
 30
0.0
 11
6.4978569546
 21
-153.8434664698
 31
0.0
  0
LINE
  5
CC
330
1F
100
AcDbEntity
  8
0
  6
Continuous
 62
     8
370
    25
100
AcDbLine
 10
-51.2021430454
 20
-138.3434664698
 30
0.0
 11
-51.2021430454
 21
-104.3434664698
 31
0.0
  0
LINE
  5
CD
330
1F
100
AcDbEntity
  8
0
  6
Continuous
 62
     8
370
    25
100
AcDbLine
 10
-50.8021430454
 20
-104.3434664698
 30
0.0
 11
-50.8021430454
 21
-138.3434664698
 31
0.0
  0
LINE
  5
CE
330
1F
100
AcDbEntity
  8
0
  6
Continuous
 62
     8
370
    25
100
AcDbLine
 10
-9.7021430454
 20
-138.3434664698
 30
0.0
 11
-9.7021430454
 21
-104.3434664698
 31
0.0
  0
LINE
  5
CF
330
1F
100
AcDbEntity
  8
0
  6
Continuous
 62
     8
370
    25
100
AcDbLine
 10
-9.3021430454
 20
-104.3434664698
 30
0.0
 11
-9.3021430454
 21
-138.3434664698
 31
0.0
  0
LINE
  5
D0
330
1F
100
AcDbEntity
  8
0
  6
Continuous
 62
     8
370
    25
100
AcDbLine
 10
12.2978569546
 20
-138.3434664698
 30
0.0
 11
12.2978569546
 21
-104.3434664698
 31
0.0
  0
ARC
  5
D1
330
1F
100
AcDbEntity
  8
0
  6
Continuous
 62
     7
370
    25
100
AcDbCircle
 10
-51.2021430454
 20
-138.1434664698
 30
0.0
 40
0.1999999999999673
100
AcDbArc
 50
270.0
 51
0.0
  0
ARC
  5
D2
330
1F
100
AcDbEntity
  8
0
  6
Continuous
 62
     7
370
    25
100
AcDbCircle
 10
-51.2021430454
 20
-104.5434664698
 30
0.0
 40
0.2000000000000171
100
AcDbArc
 50
0.0
 51
90.0
  0
ARC
  5
D3
330
1F
100
AcDbEntity
  8
0
  6
Continuous
 62
     7
370
    25
100
AcDbCircle
 10
-9.7021430454
 20
-104.5434664698
 30
0.0
 40
0.2000000000000224
100
AcDbArc
 50
0.0
 51
90.0
  0
ARC
  5
D4
330
1F
100
AcDbEntity
  8
0
  6
Continuous
 62
     7
370
    25
100
AcDbCircle
 10
-9.7021430454
 20
-138.1434664698
 30
0.0
 40
0.1999999999999673
100
AcDbArc
 50
270.0
 51
0.0
  0
ARC
  5
D5
330
1F
100
AcDbEntity
  8
0
  6
Continuous
 62
     7
370
    25
100
AcDbCircle
 10
-50.8021430454
 20
-104.5434664698
 30
0.0
 40
0.2000000000000028
100
AcDbArc
 50
90.0
 51
180.0
  0
ARC
  5
D6
330
1F
100
AcDbEntity
  8
0
  6
Continuous
 62
     7
370
    25
100
AcDbCircle
 10
-50.8021430454
 20
-138.1434664698
 30
0.0
 40
0.1999999999999886
100
AcDbArc
 50
180.0
 51
270.0
  0
ARC
  5
D7
330
1F
100
AcDbEntity
  8
0
  6
Continuous
 62
     7
370
    25
100
AcDbCircle
 10
-9.3021430454
 20
-104.5434664698
 30
0.0
 40
0.2000000000000028
100
AcDbArc
 50
90.0
 51
180.0
  0
ARC
  5
D8
330
1F
100
AcDbEntity
  8
0
  6
Continuous
 62
     7
370
    25
100
AcDbCircle
 10
-9.3021430454
 20
-138.1434664698
 30
0.0
 40
0.199999999999962
100
AcDbArc
 50
180.0
 51
270.0
  0
ARC
  5
D9
330
1F
100
AcDbEntity
  8
0
  6
Continuous
 62
     7
370
    25
100
AcDbCircle
 10
12.2978569546
 20
-104.5434664698
 30
0.0
 40
0.2000000000000171
100
AcDbArc
 50
360.0
 51
90.0
  0
ARC
  5
DA
330
1F
100
AcDbEntity
  8
0
  6
Continuous
 62
     7
370
    25
100
AcDbCircle
 10
12.2978569546
 20
-138.1434664698
 30
0.0
 40
0.1999999999999602
100
AcDbArc
 50
270.0
 51
0.0
  0
ARC
  5
DB
330
1F
100
AcDbEntity
  8
0
  6
Continuous
 62
     7
370
    25
100
AcDbCircle
 10
-30.2521430454
 20
-457.9272048014
 30
0.0
 40
26.50000000000037
100
AcDbArc
 50
112.1701571635
 51
247.8298428365
  0
ARC
  5
DC
330
1F
100
AcDbEntity
  8
0
  6
Continuous
 62
     7
370
    25
100
AcDbCircle
 10
-30.2521430454
 20
-457.9272048014
 30
0.0
 40
26.50000000000012
100
AcDbArc
 50
292.1701571635
 51
67.8298428365
  0
ARC
  5
DD
330
1F
100
AcDbEntity
  8
0
  6
Continuous
 62
     7
370
    25
100
AcDbCircle
 10
-30.2521430454
 20
137.0727951986
 30
0.0
 40
26.50000000000047
100
AcDbArc
 50
292.1701571635
 51
67.8298428365
  0
ARC
  5
DE
330
1F
100
AcDbEntity
  8
0
  6
Continuous
 62
     7
370
    25
100
AcDbCircle
 10
-30.2521430454
 20
137.0727951986
 30
0.0
 40
26.50000000000005
100
AcDbArc
 50
112.1701571635
 51
247.8298428365
  0
SPLINE
  5
EB
330
1B
100
AcDbEntity
 67
     1
  8
0
  6
Continuous
 62
     7
370
    25
100
AcDbSpline
210
0.0
220
0.0
230
1.0
 70
     8
 71
     3
 72
     9
 73
     5
 74
     0
 42
0.000000001
 43
0.00000001
 40
0.0
 40
0.0
 40
0.0
 40
0.0
 40
0.4996741540716504
 40
1.0
 40
1.0
 40
1.0
 40
1.0
 10
40.43440390285024
 20
-138.305158269474
 30
0.0
 10
40.45254440174752
 20
-138.3162116923235
 30
0.0
 10
40.48884905899155
 20
-138.3383329542689
 30
0.0
 10
40.53103588566405
 20
-138.3417545547055
 30
0.0
 10
40.55214304540601
 20
-138.3434664698383
 30
0.0
  0
SPLINE
  5
FE
330
1B
100
AcDbEntity
 67
     1
  8
0
  6
Continuous
 62
     7
370
    25
100
AcDbSpline
210
0.0
220
0.0
230
1.0
 70
     8
 71
     3
 72
    16
 73
    12
 74
     0
 42
0.000000001
 43
0.00000001
 40
0.0
 40
0.0
 40
0.0
 40
0.0
 40
0.0571049700047283
 40
0.1827345127492272
 40
0.314993004060106
 40
0.4659097115292281
 40
0.6015178221142327
 40
0.7168056045791606
 40
0.8321088885354769
 40
0.9513324270622773
 40
1.0
 40
1.0
 40
1.0
 40
1.0
 10
60.13142007147562
 20
-138.2628592612374
 30
0.0
 10
60.09943257464763
 20
-138.2827617528798
 30
0.0
 10
59.99707336411928
 20
-138.3464492412452
 30
0.0
 10
60.83373447383315
 20
-137.8251746125347
 30
0.0
 10
62.49966556746243
 20
-136.8711271506639
 30
0.0
 10
64.9850463967154
 20
-135.6823704481216
 30
0.0
 10
67.93056550015386
 20
-134.7904643812143
 30
0.0
 10
70.9318292148152
 20
-134.5503044636641
 30
0.0
 10
73.73583787692863
 20
-134.9593625095407
 30
0.0
 10
75.7528220788479
 20
-135.633109273089
 30
0.0
 10
76.77649398255004
 20
-136.0783643013736
 30
0.0
 10
77.07323171096903
 20
-136.2074329660331
 30
0.0
  0
SPLINE
  5
FF
330
1B
100
AcDbEntity
 67
     1
  8
0
  6
Continuous
 62
     7
370
    25
100
AcDbSpline
210
0.0
220
0.0
230
1.0
 70
     8
 71
     3
 72
    46
 73
    42
 74
     0
 42
0.000000001
 43
0.00000001
 40
0.0
 40
0.0
 40
0.0
 40
0.0
 40
0.0624999999999986
 40
0.0624999999999986
 40
0.1249999999999971
 40
0.1249999999999971
 40
0.1874999999999957
 40
0.1874999999999957
 40
0.2499999999999943
 40
0.2499999999999943
 40
0.2812499999999944
 40
0.2812499999999944
 40
0.3124999999999945
 40
0.3124999999999945
 40
0.3437499999999946
 40
0.3437499999999946
 40
0.3749999999999947
 40
0.3749999999999947
 40
0.437499999999995
 40
0.437499999999995
 40
0.4687499999999946
 40
0.4687499999999946
 40
0.4999999999999942
 40
0.4999999999999942
 40
0.5624999999999949
 40
0.5624999999999949
 40
0.6249999999999956
 40
0.6249999999999956
 40
0.6874999999999962
 40
0.6874999999999962
 40
0.7187499999999969
 40
0.7187499999999969
 40
0.7499999999999974
 40
0.7499999999999974
 40
0.8124999999999986
 40
0.8124999999999986
 40
0.8437499999999988
 40
0.8437499999999988
 40
0.8749999999999991
 40
0.8749999999999991
 40
1.0
 40
1.0
 40
1.0
 40
1.0
 10
79.02370154433196
 20
-106.4794999736436
 30
0.0
 10
78.63134292990088
 20
-106.7140854666328
 30
0.0
 10
78.21325661097595
 20
-106.9534566451974
 30
0.0
 10
77.32800545222973
 20
-107.4271731647688
 30
0.0
 10
76.86026376012124
 20
-107.6620029688657
 30
0.0
 10
75.86696895610055
 20
-108.1124241699434
 30
0.0
 10
75.33941424646984
 20
-108.3283381274179
 30
0.0
 10
74.24978713156062
 20
-108.7076233013794
 30
0.0
 10
73.684145329774
 20
-108.8728695656389
 30
0.0
 10
72.79725315849159
 20
-109.0663524938421
 30
0.0
 10
72.49372662252823
 20
-109.1218323854426
 30
0.0
 10
71.88639805622232
 20
-109.2092910255762
 30
0.0
 10
71.58130335446197
 20
-109.2416430054531
 30
0.0
 10
70.96817541699473
 20
-109.2823728038317
 30
0.0
 10
70.66014207562897
 20
-109.2907484410236
 30
0.0
 10
70.0410509160368
 20
-109.2826653159056
 30
0.0
 10
69.72800979274277
 20
-109.2659561053022
 30
0.0
 10
68.80348292833722
 20
-109.1800919758838
 30
0.0
 10
68.20472882409997
 20
-109.0760010179646
 30
0.0
 10
67.32923829571396
 20
-108.8647199957387
 30
0.0
 10
67.03993359707178
 20
-108.7846961890718
 30
0.0
 10
66.47487249754029
 20
-108.610713525247
 30
0.0
 10
66.1999724984967
 20
-108.5171397802074
 30
0.0
 10
65.39550632219644
 20
-108.2212380390743
 30
0.0
 10
64.88598944297928
 20
-108.0039014765092
 30
0.0
 10
63.91206231812711
 20
-107.5477603933544
 30
0.0
 10
63.44507503886686
 20
-107.3072926691778
 30
0.0
 10
62.57403136493796
 20
-106.8308167776954
 30
0.0
 10
62.16785933874198
 20
-106.5939558698111
 30
0.0
 10
61.59994114203602
 20
-106.2494075348023
 30
0.0
 10
61.41757312439002
 20
-106.136331795643
 30
0.0
 10
61.06681703545448
 20
-105.9150874694228
 30
0.0
 10
60.89782747143122
 20
-105.8065205307386
 30
0.0
 10
60.41812205883251
 20
-105.4939512422199
 30
0.0
 10
60.13403484325682
 20
-105.3028419966457
 30
0.0
 10
59.76204657096766
 20
-105.0484196621187
 30
0.0
 10
59.64712108126209
 20
-104.9689910108571
 30
0.0
 10
59.43610478274876
 20
-104.8221032974475
 30
0.0
 10
59.33964724483248
 20
-104.7543839933153
 30
0.0
 10
58.91178770906608
 20
-104.4523828417033
 30
0.0
 10
58.7448169547466
 20
-104.33030812287
 30
0.0
 10
58.76458792233337
 20
-104.3445757463959
 30
0.0
  0
SPLINE
  5
107
330
1B
100
AcDbEntity
 67
     1
  8
0
  6
Continuous
 62
     7
370
    25
100
AcDbSpline
210
0.0
220
0.0
230
1.0
 70
     8
 71
     3
 72
    21
 73
    17
 74
     0
 42
0.000000001
 43
0.00000001
 40
0.0
 40
0.0
 40
0.0
 40
0.0
 40
0.0830765976031558
 40
0.1735620244748971
 40
0.2733858023848283
 40
0.3292752755597607
 40
0.3868301562511672
 40
0.4745635450552074
 40
0.499099768667061
 40
0.5911654977878051
 40
0.6829596306484882
 40
0.7868388657084637
 40
0.8442028496511704
 40
0.9035653762776245
 40
0.9553534450475968
 40
1.0
 40
1.0
 40
1.0
 40
1.0
 10
40.50826511669963
 20
-104.3704160636609
 30
0.0
 10
40.45390216540392
 20
-104.4047481131989
 30
0.0
 10
40.34032813666981
 20
-104.4764739685432
 30
0.0
 10
39.0823925128617
 20
-105.2309193349461
 30
0.0
 10
37.40350487865907
 20
-106.1199841143213
 30
0.0
 10
35.58481705871875
 20
-106.893541273869
 30
0.0
 10
33.65520120355134
 20
-107.5353358388695
 30
0.0
 10
31.80117800099991
 20
-107.871033178357
 30
0.0
 10
29.52892386275276
 20
-107.9475593688472
 30
0.0
 10
27.19247942021515
 20
-107.6630023514533
 30
0.0
 10
24.39287338728515
 20
-106.7278024799644
 30
0.0
 10
22.41595925783282
 20
-105.7662431256837
 30
0.0
 10
21.12428866910965
 20
-105.049185889752
 30
0.0
 10
20.41801325729691
 20
-104.630290639277
 30
0.0
 10
20.01077947322431
 20
-104.3799775900017
 30
0.0
 10
19.98536143984121
 20
-104.364092769704
 30
0.0
 10
19.97359359567471
 20
-104.3567385386721
 30
0.0
  0
SPLINE
  5
108
330
1B
100
AcDbEntity
 67
     1
  8
0
  6
Continuous
 62
     7
370
    25
100
AcDbSpline
210
0.0
220
0.0
230
1.0
 70
     8
 71
     3
 72
    22
 73
    18
 74
     0
 42
0.000000001
 43
0.00000001
 40
0.0
 40
0.0
 40
0.0
 40
0.0
 40
0.0824562969254909
 40
0.1663136870990912
 40
0.2593324565061435
 40
0.311215925603507
 40
0.3646996794279565
 40
0.4448169009540086
 40
0.5251058290120448
 40
0.6022817930648252
 40
0.6926180196571002
 40
0.7449589772144043
 40
0.7989079029934579
 40
0.8492216119423375
 40
0.9014917380953587
 40
0.9298671628749349
 40
1.0
 40
1.0
 40
1.0
 40
1.0
 10
19.95214304540603
 20
-138.3434664698383
 30
0.0
 10
20.03556648347859
 20
-138.2910464080201
 30
0.0
 10
20.20383088648553
 20
-138.1853155653308
 30
0.0
 10
21.53269821366098
 20
-137.3926465446061
 30
0.0
 10
23.26615087370276
 20
-136.485981974727
 30
0.0
 10
25.12976179161083
 20
-135.7137683349067
 30
0.0
 10
27.08645264764328
 20
-135.0927082006586
 30
0.0
 10
29.62925818766431
 20
-134.6756270059378
 30
0.0
 10
32.53991826555134
 20
-134.8764492893467
 30
0.0
 10
35.27772609135265
 20
-135.6349147997357
 30
0.0
 10
37.30478905462989
 20
-136.5276396001709
 30
0.0
 10
38.74484427962436
 20
-137.2795323671639
 30
0.0
 10
39.64623417988034
 20
-137.793540692467
 30
0.0
 10
40.27060984837411
 20
-138.1689805104489
 30
0.0
 10
40.52492696013415
 20
-138.326727788134
 30
0.0
 10
40.59687651709989
 20
-138.3707825882784
 30
0.0
 10
40.31606528814459
 20
-138.1995041893502
 30
0.0
 10
40.11614207558931
 20
-138.0775627417719
 30
0.0
  0
SPLINE
  5
109
330
1B
100
AcDbEntity
 67
     1
  8
0
  6
Continuous
 62
     7
370
    25
100
AcDbSpline
210
0.0
220
0.0
230
1.0
 70
     8
 71
     3
 72
     9
 73
     5
 74
     0
 42
0.000000001
 43
0.00000001
 40
0.0
 40
0.0
 40
0.0
 40
0.0
 40
0.6390989365729665
 40
0.9999999999999999
 40
0.9999999999999999
 40
0.9999999999999999
 40
0.9999999999999999
 10
19.9589138685111
 20
-138.339267898965
 30
0.0
 10
19.95627381367954
 20
-138.3409048937166
 30
0.0
 10
19.95214291206092
 20
-138.3434663042556
 30
0.0
 10
19.95214301004387
 20
-138.343466425927
 30
0.0
 10
19.95214304540603
 20
-138.3434664698383
 30
0.0
  0
CIRCLE
  5
10A
330
1B
100
AcDbEntity
 67
     1
  8
0
  6
Continuous
 62
     7
370
    25
100
AcDbCircle
 10
30.2521430454
 20
-457.9272048014
 30
0.0
 40
26.50000000000004
  0
CIRCLE
  5
10B
330
1B
100
AcDbEntity
 67
     1
  8
0
  6
Continuous
 62
     7
370
    25
100
AcDbCircle
 10
30.2521430454
 20
137.0727951986
 30
0.0
 40
26.49999999999999
  0
SPLINE
  5
112
330
1B
100
AcDbEntity
 67
     1
  8
0
  6
Continuous
 62
     7
370
    25
100
AcDbSpline
210
0.0
220
0.0
230
1.0
 70
     8
 71
     3
 72
    18
 73
    14
 74
     0
 42
0.000000001
 43
0.00000001
 40
0.0
 40
0.0
 40
0.0
 40
0.0
 40
0.0346336804896315
 40
0.1402668499367328
 40
0.2464484908254395
 40
0.3540693393472502
 40
0.4618208980815191
 40
0.5681291937728925
 40
0.6736874156642376
 40
0.780340297321985
 40
0.8882345499506243
 40
0.995596208923071
 40
1.0
 40
1.0
 40
1.0
 40
1.0
 10
-6.460814634357826
 20
-138.3369910393271
 30
0.0
 10
-6.471225266336686
 20
-138.3388086695537
 30
0.0
 10
-6.513388459300322
 20
-138.3461700952706
 30
0.0
 10
-6.245912179488375
 20
-138.2990040486115
 30
0.0
 10
-5.684778686555224
 20
-138.2142824474572
 30
0.0
 10
-4.85219802325599
 20
-138.1228631733804
 30
0.0
 10
-3.870055432540535
 20
-138.070397177816
 30
0.0
 10
-2.849171522893442
 20
-138.0794375714317
 30
0.0
 10
-1.909368370168633
 20
-138.1443973552787
 30
0.0
 10
-1.131883810839229
 20
-138.2392808660901
 30
0.0
 10
-0.6519879617695665
 20
-138.3158116317847
 30
0.0
 10
-0.4467987665281933
 20
-138.3522616293063
 30
0.0
 10
-0.5022584605806069
 20
-138.3427079501998
 30
0.0
 10
-0.5044436878193365
 20
-138.3423315153822
 30
0.0
  0
LINE
  5
11F
330
1B
100
AcDbEntity
 67
     1
  8
0
  6
Continuous
 62
     7
370
    25
100
AcDbLine
 10
51.2021430454
 20
-138.3434664698
 30
0.0
 11
60.1314200715
 21
-138.3434664698
 31
0.0
  0
LINE
  5
120
330
1B
100
AcDbEntity
 67
     1
  8
0
  6
Continuous
 62
     7
370
    25
100
AcDbLine
 10
58.7771335412
 20
-104.3434664698
 30
0.0
 11
51.2021430454
 21
-104.3434664698
 31
0.0
  0
LINE
  5
121
330
1B
100
AcDbEntity
 67
     1
  8
0
  6
Continuous
 62
     7
370
    25
100
AcDbLine
 10
40.5436079411
 20
-138.3434664698
 30
0.0
 11
50.8021430454
 21
-138.3434664698
 31
0.0
  0
LINE
  5
122
330
1B
100
AcDbEntity
 67
     1
  8
0
  6
Continuous
 62
     7
370
    25
100
AcDbLine
 10
9.7021430454
 20
-138.3434664698
 30
0.0
 11
19.9521430454
 21
-138.3434664698
 31
0.0
  0
LINE
  5
123
330
1B
100
AcDbEntity
 67
     1
  8
0
  6
Continuous
 62
     7
370
    25
100
AcDbLine
 10
19.9735935957
 20
-104.3434664698
 30
0.0
 11
9.7021430454
 21
-104.3434664698
 31
0.0
  0
LINE
  5
124
330
1B
100
AcDbEntity
 67
     1
  8
0
  6
Continuous
 62
     7
370
    25
100
AcDbLine
 10
50.8021430454
 20
-104.3434664698
 30
0.0
 11
40.5082651167
 21
-104.3434664698
 31
0.0
  0
LINE
  5
125
330
1B
100
AcDbEntity
 67
     1
  8
0
  6
Continuous
 62
     7
370
    25
100
AcDbLine
 10
20.2521430454
 20
-482.467987185
 30
0.0
 11
20.2521430454
 21
-507.9272048014
 31
0.0
  0
LINE
  5
126
330
1B
100
AcDbEntity
 67
     1
  8
0
  6
Continuous
 62
     7
370
    25
100
AcDbLine
 10
20.2521430454
 20
112.532012815
 30
0.0
 11
20.2521430454
 21
-104.5271785102
 31
0.0
  0
LINE
  5
127
330
1B
100
AcDbEntity
 67
     1
  8
0
  6
Continuous
 62
     7
370
    25
100
AcDbLine
 10
20.2521430454
 20
-138.1985695713
 30
0.0
 11
20.2521430454
 21
-433.3864224178
 31
0.0
  0
LINE
  5
128
330
1B
100
AcDbEntity
 67
     1
  8
0
  6
Continuous
 62
     7
370
    25
100
AcDbLine
 10
20.2521430454
 20
187.0727951986
 30
0.0
 11
20.2521430454
 21
161.6135775822
 31
0.0
  0
LINE
  5
129
330
1B
100
AcDbEntity
 67
     1
  8
0
  6
Continuous
 62
     7
370
    25
100
AcDbLine
 10
40.2521430454
 20
161.6135775822
 30
0.0
 11
40.2521430454
 21
187.0727951986
 31
0.0
  0
LINE
  5
12A
330
1B
100
AcDbEntity
 67
     1
  8
0
  6
Continuous
 62
     7
370
    25
100
AcDbLine
 10
40.2521430454
 20
-433.3864224178
 30
0.0
 11
40.2521430454
 21
-138.1933106873
 31
0.0
  0
LINE
  5
12B
330
1B
100
AcDbEntity
 67
     1
  8
0
  6
Continuous
 62
     7
370
    25
100
AcDbLine
 10
40.2521430454
 20
-104.5275115678
 30
0.0
 11
40.2521430454
 21
112.532012815
 31
0.0
  0
LINE
  5
12C
330
1B
100
AcDbEntity
 67
     1
  8
0
  6
Continuous
 62
     7
370
    25
100
AcDbLine
 10
40.2521430454
 20
-507.9272048014
 30
0.0
 11
40.2521430454
 21
-482.467987185
 31
0.0
  0
LINE
  5
12D
330
1B
100
AcDbEntity
 67
     1
  8
0
  6
Continuous
 62
     7
370
    25
100
AcDbLine
 10
9.3021430454
 20
-104.3434664698
 30
0.0
 11
-12.2978569546
 21
-104.3434664698
 31
0.0
  0
LINE
  5
12E
330
1B
100
AcDbEntity
 67
     1
  8
0
  6
Continuous
 62
     7
370
    25
100
AcDbLine
 10
-0.5044436878
 20
-138.3434664698
 30
0.0
 11
9.3021430454
 21
-138.3434664698
 31
0.0
  0
LINE
  5
12F
330
1B
100
AcDbEntity
 67
     1
  8
0
  6
Continuous
 62
     7
370
    25
100
AcDbLine
 10
-12.2978569546
 20
-138.3434664698
 30
0.0
 11
-6.4608146344
 21
-138.3434664698
 31
0.0
  0
LINE
  5
130
330
1B
100
AcDbEntity
 67
     1
  8
0
  6
Continuous
 62
     7
370
    25
100
AcDbLine
 10
-6.4978569546
 20
-138.3370131545
 30
0.0
 11
-6.4978569546
 21
-153.8434664698
 31
0.0
  0
LINE
  5
131
330
1B
100
AcDbEntity
 67
     1
  8
0
  6
Continuous
 62
     7
370
    25
100
AcDbLine
 10
-0.4978569546
 20
-153.8434664698
 30
0.0
 11
-0.4978569546
 21
-138.3423570702
 31
0.0
  0
LINE
  5
132
330
1B
100
AcDbEntity
 67
     1
  8
0
  6
Continuous
 62
     7
370
    25
100
AcDbLine
 10
77.073231711
 20
-136.207432966
 30
0.0
 11
82.5021430454
 21
-136.207432966
 31
0.0
  0
LINE
  5
133
330
1B
100
AcDbEntity
 67
     1
  8
0
  6
Continuous
 62
     7
370
    25
100
AcDbLine
 10
82.5021430454
 20
-106.4794999736
 30
0.0
 11
79.0237015443
 21
-106.4794999736
 31
0.0
  0
LINE
  5
134
330
1B
100
AcDbEntity
 67
     1
  8
0
  6
Continuous
 62
     7
370
    25
100
AcDbLine
 10
82.5021430454
 20
-106.4794999736
 30
0.0
 11
82.5021430454
 21
-136.207432966
 31
0.0
  0
LINE
  5
135
330
1B
100
AcDbEntity
 67
     1
  8
0
  6
Continuous
 62
     7
370
    25
100
AcDbLine
 10
51.0021430454
 20
-138.1434664698
 30
0.0
 11
51.0021430454
 21
-104.5434664698
 31
0.0
  0
LINE
  5
136
330
1B
100
AcDbEntity
 67
     1
  8
0
  6
Continuous
 62
     7
370
    25
100
AcDbLine
 10
9.5021430454
 20
-138.1434664698
 30
0.0
 11
9.5021430454
 21
-104.5434664698
 31
0.0
  0
LINE
  5
137
330
1B
100
AcDbEntity
 67
     1
  8
0
  6
Continuous
 62
     7
370
    25
100
AcDbLine
 10
20.2521430454
 20
187.0727951986
 30
0.0
 11
40.2521430454
 21
187.0727951986
 31
0.0
  0
LINE
  5
138
330
1B
100
AcDbEntity
 67
     1
  8
0
  6
Continuous
 62
     7
370
    25
100
AcDbLine
 10
20.2521430454
 20
-507.9272048014
 30
0.0
 11
40.2521430454
 21
-507.9272048014
 31
0.0
  0
LINE
  5
139
330
1B
100
AcDbEntity
 67
     1
  8
0
  6
Continuous
 62
     7
370
    25
100
AcDbLine
 10
-12.4978569546
 20
-138.1434664698
 30
0.0
 11
-12.4978569546
 21
-104.5434664698
 31
0.0
  0
LINE
  5
13A
330
1B
100
AcDbEntity
 67
     1
  8
0
  6
Continuous
 62
     7
370
    25
100
AcDbLine
 10
-6.4978569546
 20
-153.8434664698
 30
0.0
 11
-0.4978569546
 21
-153.8434664698
 31
0.0
  0
LINE
  5
13B
330
1B
100
AcDbEntity
 67
     1
  8
0
  6
Continuous
 62
     8
370
    25
100
AcDbLine
 10
51.2021430454
 20
-104.3434664698
 30
0.0
 11
51.2021430454
 21
-138.3434664698
 31
0.0
  0
LINE
  5
13C
330
1B
100
AcDbEntity
 67
     1
  8
0
  6
Continuous
 62
     8
370
    25
100
AcDbLine
 10
9.7021430454
 20
-104.3434664698
 30
0.0
 11
9.7021430454
 21
-138.3434664698
 31
0.0
  0
LINE
  5
13D
330
1B
100
AcDbEntity
 67
     1
  8
0
  6
Continuous
 62
     8
370
    25
100
AcDbLine
 10
50.8021430454
 20
-138.3434664698
 30
0.0
 11
50.8021430454
 21
-104.3434664698
 31
0.0
  0
LINE
  5
13E
330
1B
100
AcDbEntity
 67
     1
  8
0
  6
Continuous
 62
     8
370
    25
100
AcDbLine
 10
-12.2978569546
 20
-104.3434664698
 30
0.0
 11
-12.2978569546
 21
-138.3434664698
 31
0.0
  0
LINE
  5
13F
330
1B
100
AcDbEntity
 67
     1
  8
0
  6
Continuous
 62
     8
370
    25
100
AcDbLine
 10
9.3021430454
 20
-138.3434664698
 30
0.0
 11
9.3021430454
 21
-104.3434664698
 31
0.0
  0
ARC
  5
140
330
1B
100
AcDbEntity
 67
     1
  8
0
  6
Continuous
 62
     7
370
    25
100
AcDbCircle
 10
51.2021430454
 20
-104.5434664698
 30
0.0
 40
0.1999999999999957
100
AcDbArc
 50
90.0
 51
180.0
  0
ARC
  5
141
330
1B
100
AcDbEntity
 67
     1
  8
0
  6
Continuous
 62
     7
370
    25
100
AcDbCircle
 10
51.2021430454
 20
-138.1434664698
 30
0.0
 40
0.1999999999999886
100
AcDbArc
 50
180.0
 51
270.0
  0
ARC
  5
142
330
1B
100
AcDbEntity
 67
     1
  8
0
  6
Continuous
 62
     7
370
    25
100
AcDbCircle
 10
9.7021430454
 20
-138.1434664698
 30
0.0
 40
0.1999999999999886
100
AcDbArc
 50
180.0
 51
270.0
  0
ARC
  5
143
330
1B
100
AcDbEntity
 67
     1
  8
0
  6
Continuous
 62
     7
370
    25
100
AcDbCircle
 10
9.7021430454
 20
-104.5434664698
 30
0.0
 40
0.2000000000000028
100
AcDbArc
 50
90.0
 51
180.0
  0
ARC
  5
144
330
1B
100
AcDbEntity
 67
     1
  8
0
  6
Continuous
 62
     7
370
    25
100
AcDbCircle
 10
50.8021430454
 20
-138.1434664698
 30
0.0
 40
0.1999999999999602
100
AcDbArc
 50
270.0
 51
0.0
  0
ARC
  5
145
330
1B
100
AcDbEntity
 67
     1
  8
0
  6
Continuous
 62
     7
370
    25
100
AcDbCircle
 10
50.8021430454
 20
-104.5434664698
 30
0.0
 40
0.2000000000000171
100
AcDbArc
 50
0.0
 51
90.0
  0
ARC
  5
146
330
1B
100
AcDbEntity
 67
     1
  8
0
  6
Continuous
 62
     7
370
    25
100
AcDbCircle
 10
-12.2978569546
 20
-138.1434664698
 30
0.0
 40
0.199999999999962
100
AcDbArc
 50
180.0
 51
270.0
  0
ARC
  5
147
330
1B
100
AcDbEntity
 67
     1
  8
0
  6
Continuous
 62
     7
370
    25
100
AcDbCircle
 10
-12.2978569546
 20
-104.5434664698
 30
0.0
 40
0.2000000000000028
100
AcDbArc
 50
90.0
 51
180.0
  0
ARC
  5
148
330
1B
100
AcDbEntity
 67
     1
  8
0
  6
Continuous
 62
     7
370
    25
100
AcDbCircle
 10
9.3021430454
 20
-138.1434664698
 30
0.0
 40
0.1999999999999602
100
AcDbArc
 50
270.0
 51
0.0
  0
ARC
  5
149
330
1B
100
AcDbEntity
 67
     1
  8
0
  6
Continuous
 62
     7
370
    25
100
AcDbCircle
 10
9.3021430454
 20
-104.5434664698
 30
0.0
 40
0.2000000000000171
100
AcDbArc
 50
360.0
 51
90.0
  0
VIEWPORT
  5
3C2
330
1B
100
AcDbEntity
 67
     1
  8
0
100
AcDbViewport
 10
0.0
 20
0.0
 30
0.0
 40
205.6
 41
156.0
 68
     1
 69
     1
 12
-35.0021430454
 22
-160.4272048014
 13
0.0
 23
0.0
 14
10.0
 24
10.0
 15
10.0
 25
10.0
 16
0.0
 26
0.0
 36
1.0
 17
0.0
 27
0.0
 37
0.0
 42
50.0
 43
0.0
 44
0.0
 45
708.9
 50
0.0
 51
0.0
 72
   100
 90
   557152
  1

281
     0
 71
     1
 74
     0
110
0.0
120
0.0
130
0.0
111
1.0
121
0.0
131
0.0
112
0.0
122
1.0
132
0.0
 79
     0
146
0.0
  0
ENDSEC
  0
SECTION
  2
OBJECTS
  0
DICTIONARY
  5
C
330
0
100
AcDbDictionary
281
     1
  3
ACAD_GROUP
350
D
  3
ACAD_LAYOUT
350
1A
  3
ACAD_MLINESTYLE
350
17
  3
ACAD_PLOTSETTINGS
350
19
  3
ACAD_PLOTSTYLENAME
350
E
  3
ACAD_SCALELIST
350
47
  0
DICTIONARY
  5
D
102
{ACAD_REACTORS
330
C
102
}
330
C
100
AcDbDictionary
281
     1
  0
DICTIONARY
  5
1A
102
{ACAD_REACTORS
330
C
102
}
330
C
100
AcDbDictionary
281
     1
  3
_Back
350
1E
  3
_Bottom
350
220
  3
_Dimetric
350
357
  3
_Isometric
350
275
  3
_Left
350
26
  3
_Right
350
188
  3
_Top
350
1C8
  3
_Trimetric
350
2E2
  3
Model
350
22
  0
DICTIONARY
  5
17
102
{ACAD_REACTORS
330
C
102
}
330
C
100
AcDbDictionary
281
     1
  3
Standard
350
18
  0
DICTIONARY
  5
19
102
{ACAD_REACTORS
330
C
102
}
330
C
100
AcDbDictionary
281
     1
  0
ACDBDICTIONARYWDFLT
  5
E
102
{ACAD_REACTORS
330
C
102
}
330
C
100
AcDbDictionary
281
     1
  3
Normal
350
F
100
AcDbDictionaryWithDefault
340
F
  0
DICTIONARY
  5
47
102
{ACAD_REACTORS
330
C
102
}
330
C
100
AcDbDictionary
281
     1
  3
A0
350
48
  3
A1
350
49
  3
A2
350
4A
  3
A3
350
4B
  3
A4
350
4C
  3
A5
350
4D
  3
A6
350
4E
  3
A7
350
4F
  3
A8
350
50
  3
A9
350
51
  3
B0
350
52
  3
B1
350
53
  3
B2
350
54
  3
B3
350
55
  3
B4
350
56
  3
B5
350
57
  3
B6
350
58
  3
B7
350
59
  3
B8
350
5A
  3
B9
350
5B
  3
C0
350
5C
  3
C1
350
5D
  3
C2
350
5E
  3
C3
350
5F
  3
C4
350
60
  3
C5
350
61
  3
C6
350
62
  3
C7
350
63
  3
C8
350
64
  3
C9
350
65
  3
D0
350
66
  3
D1
350
67
  3
D2
350
68
  0
LAYOUT
  5
1E
102
{ACAD_REACTORS
330
1A
102
}
330
1A
100
AcDbPlotSettings
  1

  2
none_device
  4
ISO_A4_(210.00_x_297.00_MM)
  6

 40
7.5
 41
20.0
 42
7.5
 43
20.0
 44
210.0
 45
297.0
 46
0.0
 47
0.0
 48
0.0
 49
0.0
140
0.0
141
0.0
142
1.0
143
3.5641025641
 70
   688
 72
     1
 73
     1
 74
     1
  7

 75
     0
147
0.2805755396
148
12.4978569546
149
507.9272048014
100
AcDbLayout
  1
_Back
 70
     1
 71
     1
 10
-83.7799082366
 20
-534.6579740322
 11
974.7585533018
 21
213.8035644294
 12
0.0
 22
0.0
 32
0.0
 14
-12.4978569546
 24
-507.9272048014
 34
0.0
 15
82.5021430454
 25
187.0727951986
 35
0.0
146
0.0
 13
0.0
 23
0.0
 33
0.0
 16
1.0
 26
0.0
 36
0.0
 17
0.0
 27
1.0
 37
0.0
 76
     0
330
1B
331
3C2
  0
LAYOUT
  5
220
102
{ACAD_REACTORS
330
1A
102
}
330
1A
100
AcDbPlotSettings
  1

  2
none_device
  4
ISO_A4_(210.00_x_297.00_MM)
  6

 40
7.5
 41
20.0
 42
7.5
 43
20.0
 44
210.0
 45
297.0
 46
0.0
 47
0.0
 48
0.0
 49
0.0
140
0.0
141
0.0
142
1.0
143
3.5641025641
 70
   688
 72
     1
 73
     1
 74
     1
  7

 75
     0
147
0.2805755396
148
12.4978569546
149
507.9272048014
100
AcDbLayout
  1
_Bottom
 70
     1
 71
     5
 10
0.0
 20
0.0
 11
0.0
 21
0.0
 12
0.0
 22
0.0
 32
0.0
 14
0.0
 24
0.0
 34
0.0
 15
0.0
 25
0.0
 35
0.0
146
0.0
 13
0.0
 23
0.0
 33
0.0
 16
1.0
 26
0.0
 36
0.0
 17
0.0
 27
1.0
 37
0.0
 76
     0
330
21F
331
3CA
  0
LAYOUT
  5
357
102
{ACAD_REACTORS
330
1A
102
}
330
1A
100
AcDbPlotSettings
  1

  2
none_device
  4
ISO_A4_(210.00_x_297.00_MM)
  6

 40
7.5
 41
20.0
 42
7.5
 43
20.0
 44
210.0
 45
297.0
 46
0.0
 47
0.0
 48
0.0
 49
0.0
140
0.0
141
0.0
142
1.0
143
3.5641025641
 70
   688
 72
     1
 73
     1
 74
     1
  7

 75
     0
147
0.2805755396
148
12.4978569546
149
507.9272048014
100
AcDbLayout
  1
_Dimetric
 70
     1
 71
     8
 10
0.0
 20
0.0
 11
0.0
 21
0.0
 12
0.0
 22
0.0
 32
0.0
 14
0.0
 24
0.0
 34
0.0
 15
0.0
 25
0.0
 35
0.0
146
0.0
 13
0.0
 23
0.0
 33
0.0
 16
1.0
 26
0.0
 36
0.0
 17
0.0
 27
1.0
 37
0.0
 76
     0
330
356
331
3D0
  0
LAYOUT
  5
275
102
{ACAD_REACTORS
330
1A
102
}
330
1A
100
AcDbPlotSettings
  1

  2
none_device
  4
ISO_A4_(210.00_x_297.00_MM)
  6

 40
7.5
 41
20.0
 42
7.5
 43
20.0
 44
210.0
 45
297.0
 46
0.0
 47
0.0
 48
0.0
 49
0.0
140
0.0
141
0.0
142
1.0
143
3.5641025641
 70
   688
 72
     1
 73
     1
 74
     1
  7

 75
     0
147
0.2805755396
148
12.4978569546
149
507.9272048014
100
AcDbLayout
  1
_Isometric
 70
     1
 71
     6
 10
0.0
 20
0.0
 11
0.0
 21
0.0
 12
0.0
 22
0.0
 32
0.0
 14
0.0
 24
0.0
 34
0.0
 15
0.0
 25
0.0
 35
0.0
146
0.0
 13
0.0
 23
0.0
 33
0.0
 16
1.0
 26
0.0
 36
0.0
 17
0.0
 27
1.0
 37
0.0
 76
     0
330
274
331
3CC
  0
LAYOUT
  5
26
102
{ACAD_REACTORS
330
1A
102
}
330
1A
100
AcDbPlotSettings
  1

  2
none_device
  4
ISO_A4_(210.00_x_297.00_MM)
  6

 40
7.5
 41
20.0
 42
7.5
 43
20.0
 44
210.0
 45
297.0
 46
0.0
 47
0.0
 48
0.0
 49
0.0
140
0.0
141
0.0
142
1.0
143
3.5641025641
 70
   688
 72
     1
 73
     1
 74
     1
  7

 75
     0
147
0.2805755396
148
12.4978569546
149
507.9272048014
100
AcDbLayout
  1
_Left
 70
     1
 71
     2
 10
0.0
 20
0.0
 11
0.0
 21
0.0
 12
0.0
 22
0.0
 32
0.0
 14
0.0
 24
0.0
 34
0.0
 15
0.0
 25
0.0
 35
0.0
146
0.0
 13
0.0
 23
0.0
 33
0.0
 16
1.0
 26
0.0
 36
0.0
 17
0.0
 27
1.0
 37
0.0
 76
     0
330
23
331
3C4
  0
LAYOUT
  5
188
102
{ACAD_REACTORS
330
1A
102
}
330
1A
100
AcDbPlotSettings
  1

  2
none_device
  4
ISO_A4_(210.00_x_297.00_MM)
  6

 40
7.5
 41
20.0
 42
7.5
 43
20.0
 44
210.0
 45
297.0
 46
0.0
 47
0.0
 48
0.0
 49
0.0
140
0.0
141
0.0
142
1.0
143
3.5641025641
 70
   688
 72
     1
 73
     1
 74
     1
  7

 75
     0
147
0.2805755396
148
12.4978569546
149
507.9272048014
100
AcDbLayout
  1
_Right
 70
     1
 71
     3
 10
0.0
 20
0.0
 11
0.0
 21
0.0
 12
0.0
 22
0.0
 32
0.0
 14
0.0
 24
0.0
 34
0.0
 15
0.0
 25
0.0
 35
0.0
146
0.0
 13
0.0
 23
0.0
 33
0.0
 16
1.0
 26
0.0
 36
0.0
 17
0.0
 27
1.0
 37
0.0
 76
     0
330
187
331
3C6
  0
LAYOUT
  5
1C8
102
{ACAD_REACTORS
330
1A
102
}
330
1A
100
AcDbPlotSettings
  1

  2
none_device
  4
ISO_A4_(210.00_x_297.00_MM)
  6

 40
7.5
 41
20.0
 42
7.5
 43
20.0
 44
210.0
 45
297.0
 46
0.0
 47
0.0
 48
0.0
 49
0.0
140
0.0
141
0.0
142
1.0
143
3.5641025641
 70
   688
 72
     1
 73
     1
 74
     1
  7

 75
     0
147
0.2805755396
148
12.4978569546
149
507.9272048014
100
AcDbLayout
  1
_Top
 70
     1
 71
     4
 10
0.0
 20
0.0
 11
0.0
 21
0.0
 12
0.0
 22
0.0
 32
0.0
 14
0.0
 24
0.0
 34
0.0
 15
0.0
 25
0.0
 35
0.0
146
0.0
 13
0.0
 23
0.0
 33
0.0
 16
1.0
 26
0.0
 36
0.0
 17
0.0
 27
1.0
 37
0.0
 76
     0
330
1C7
331
3C8
  0
LAYOUT
  5
2E2
102
{ACAD_REACTORS
330
1A
102
}
330
1A
100
AcDbPlotSettings
  1

  2
none_device
  4
ISO_A4_(210.00_x_297.00_MM)
  6

 40
7.5
 41
20.0
 42
7.5
 43
20.0
 44
210.0
 45
297.0
 46
0.0
 47
0.0
 48
0.0
 49
0.0
140
0.0
141
0.0
142
1.0
143
3.5641025641
 70
   688
 72
     1
 73
     1
 74
     1
  7

 75
     0
147
0.2805755396
148
12.4978569546
149
507.9272048014
100
AcDbLayout
  1
_Trimetric
 70
     1
 71
     7
 10
0.0
 20
0.0
 11
0.0
 21
0.0
 12
0.0
 22
0.0
 32
0.0
 14
0.0
 24
0.0
 34
0.0
 15
0.0
 25
0.0
 35
0.0
146
0.0
 13
0.0
 23
0.0
 33
0.0
 16
1.0
 26
0.0
 36
0.0
 17
0.0
 27
1.0
 37
0.0
 76
     0
330
2E1
331
3CE
  0
LAYOUT
  5
22
102
{ACAD_REACTORS
330
1A
102
}
330
1A
100
AcDbPlotSettings
  1

  2
none_device
  4
ANSI_A_(11.00_x_8.50_Inches)
  6

 40
6.35
 41
19.05
 42
6.35000508
 43
19.05000254
 44
279.4
 45
215.9
 46
144.1145917861
 47
138.237942876
 48
0.0
 49
0.0
140
0.0
141
0.0
142
0.0121079137
143
1.0
 70
  1696
 72
     0
 73
     0
 74
     0
  7

 75
     0
147
0.0179189148
148
-1300.4909072572
149
0.0
100
AcDbLayout
  1
Model
 70
     1
 71
     0
 10
0.0
 20
0.0
 11
420.0
 21
297.0
 12
0.0
 22
0.0
 32
0.0
 14
-82.5021430454
 24
-507.9272048014
 34
0.0
 15
12.4978569546
 25
187.0727951986
 35
0.0
146
0.0
 13
0.0
 23
0.0
 33
0.0
 16
1.0
 26
0.0
 36
0.0
 17
0.0
 27
1.0
 37
0.0
 76
     0
330
1F
331
29
  0
MLINESTYLE
  5
18
102
{ACAD_REACTORS
330
17
102
}
330
17
100
AcDbMlineStyle
  2
Standard
 70
     0
  3

 62
   256
 51
90.0
 52
90.0
 71
     2
 49
0.5
 62
   256
  6
BYLAYER
 49
-0.5
 62
   256
  6
BYLAYER
  0
ACDBPLACEHOLDER
  5
F
102
{ACAD_REACTORS
330
E
102
}
330
E
  0
SCALE
  5
48
102
{ACAD_REACTORS
330
47
102
}
330
47
100
AcDbScale
 70
     0
300
1:1
140
1.0
141
1.0
290
     1
  0
SCALE
  5
49
102
{ACAD_REACTORS
330
47
102
}
330
47
100
AcDbScale
 70
     0
300
1:2
140
1.0
141
2.0
290
     0
  0
SCALE
  5
4A
102
{ACAD_REACTORS
330
47
102
}
330
47
100
AcDbScale
 70
     0
300
1:4
140
1.0
141
4.0
290
     0
  0
SCALE
  5
4B
102
{ACAD_REACTORS
330
47
102
}
330
47
100
AcDbScale
 70
     0
300
1:5
140
1.0
141
5.0
290
     0
  0
SCALE
  5
4C
102
{ACAD_REACTORS
330
47
102
}
330
47
100
AcDbScale
 70
     0
300
1:8
140
1.0
141
8.0
290
     0
  0
SCALE
  5
4D
102
{ACAD_REACTORS
330
47
102
}
330
47
100
AcDbScale
 70
     0
300
1:10
140
1.0
141
10.0
290
     0
  0
SCALE
  5
4E
102
{ACAD_REACTORS
330
47
102
}
330
47
100
AcDbScale
 70
     0
300
1:16
140
1.0
141
16.0
290
     0
  0
SCALE
  5
4F
102
{ACAD_REACTORS
330
47
102
}
330
47
100
AcDbScale
 70
     0
300
1:20
140
1.0
141
20.0
290
     0
  0
SCALE
  5
50
102
{ACAD_REACTORS
330
47
102
}
330
47
100
AcDbScale
 70
     0
300
1:30
140
1.0
141
30.0
290
     0
  0
SCALE
  5
51
102
{ACAD_REACTORS
330
47
102
}
330
47
100
AcDbScale
 70
     0
300
1:40
140
1.0
141
40.0
290
     0
  0
SCALE
  5
52
102
{ACAD_REACTORS
330
47
102
}
330
47
100
AcDbScale
 70
     0
300
1:50
140
1.0
141
50.0
290
     0
  0
SCALE
  5
53
102
{ACAD_REACTORS
330
47
102
}
330
47
100
AcDbScale
 70
     0
300
1:100
140
1.0
141
100.0
290
     0
  0
SCALE
  5
54
102
{ACAD_REACTORS
330
47
102
}
330
47
100
AcDbScale
 70
     0
300
2:1
140
2.0
141
1.0
290
     0
  0
SCALE
  5
55
102
{ACAD_REACTORS
330
47
102
}
330
47
100
AcDbScale
 70
     0
300
4:1
140
4.0
141
1.0
290
     0
  0
SCALE
  5
56
102
{ACAD_REACTORS
330
47
102
}
330
47
100
AcDbScale
 70
     0
300
8:1
140
8.0
141
1.0
290
     0
  0
SCALE
  5
57
102
{ACAD_REACTORS
330
47
102
}
330
47
100
AcDbScale
 70
     0
300
10:1
140
10.0
141
1.0
290
     0
  0
SCALE
  5
58
102
{ACAD_REACTORS
330
47
102
}
330
47
100
AcDbScale
 70
     0
300
100:1
140
100.0
141
1.0
290
     0
  0
SCALE
  5
59
102
{ACAD_REACTORS
330
47
102
}
330
47
100
AcDbScale
 70
     0
300
1/128" = 1'-0"
140
0.0078125
141
12.0
290
     0
  0
SCALE
  5
5A
102
{ACAD_REACTORS
330
47
102
}
330
47
100
AcDbScale
 70
     0
300
1/64" = 1'-0"
140
0.015625
141
12.0
290
     0
  0
SCALE
  5
5B
102
{ACAD_REACTORS
330
47
102
}
330
47
100
AcDbScale
 70
     0
300
1/32" = 1'-0"
140
0.03125
141
12.0
290
     0
  0
SCALE
  5
5C
102
{ACAD_REACTORS
330
47
102
}
330
47
100
AcDbScale
 70
     0
300
1/16" = 1'-0"
140
0.0625
141
12.0
290
     0
  0
SCALE
  5
5D
102
{ACAD_REACTORS
330
47
102
}
330
47
100
AcDbScale
 70
     0
300
3/32" = 1'-0"
140
0.09375
141
12.0
290
     0
  0
SCALE
  5
5E
102
{ACAD_REACTORS
330
47
102
}
330
47
100
AcDbScale
 70
     0
300
1/8" = 1'-0"
140
0.125
141
12.0
290
     0
  0
SCALE
  5
5F
102
{ACAD_REACTORS
330
47
102
}
330
47
100
AcDbScale
 70
     0
300
3/16" = 1'-0"
140
0.1875
141
12.0
290
     0
  0
SCALE
  5
60
102
{ACAD_REACTORS
330
47
102
}
330
47
100
AcDbScale
 70
     0
300
1/4" = 1'-0"
140
0.25
141
12.0
290
     0
  0
SCALE
  5
61
102
{ACAD_REACTORS
330
47
102
}
330
47
100
AcDbScale
 70
     0
300
3/8" = 1'-0"
140
0.375
141
12.0
290
     0
  0
SCALE
  5
62
102
{ACAD_REACTORS
330
47
102
}
330
47
100
AcDbScale
 70
     0
300
1/2" = 1'-0"
140
0.5
141
12.0
290
     0
  0
SCALE
  5
63
102
{ACAD_REACTORS
330
47
102
}
330
47
100
AcDbScale
 70
     0
300
3/4" = 1'-0"
140
0.75
141
12.0
290
     0
  0
SCALE
  5
64
102
{ACAD_REACTORS
330
47
102
}
330
47
100
AcDbScale
 70
     0
300
1" = 1'-0"
140
1.0
141
12.0
290
     0
  0
SCALE
  5
65
102
{ACAD_REACTORS
330
47
102
}
330
47
100
AcDbScale
 70
     0
300
1-1/2" = 1'-0"
140
1.5
141
12.0
290
     0
  0
SCALE
  5
66
102
{ACAD_REACTORS
330
47
102
}
330
47
100
AcDbScale
 70
     0
300
3" = 1'-0"
140
3.0
141
12.0
290
     0
  0
SCALE
  5
67
102
{ACAD_REACTORS
330
47
102
}
330
47
100
AcDbScale
 70
     0
300
6" = 1'-0"
140
6.0
141
12.0
290
     0
  0
SCALE
  5
68
102
{ACAD_REACTORS
330
47
102
}
330
47
100
AcDbScale
 70
     0
300
1'-0" = 1'-0"
140
12.0
141
12.0
290
     0
  0
ENDSEC
  0
EOF
