  0
SECTION
  2
HEADER
  9
$ACADVER
  1
AC1015
  9
$ACADMAINTVER
 70
     6
  9
$DWGCODEPAGE
  3
ANSI_1252
  9
$INSBASE
 10
0.0
 20
0.0
 30
0.0
  9
$EXTMIN
 10
-12.5
 20
-0.0105094159
 30
0.0
  9
$EXTMAX
 10
410.0099880311
 20
94.5
 30
0.0
  9
$LIMMIN
 10
0.0
 20
0.0
  9
$LIMMAX
 10
420.0
 20
297.0
  9
$ORTHOMODE
 70
     0
  9
$REGENMODE
 70
     1
  9
$FILLMODE
 70
     1
  9
$QTEXTMODE
 70
     0
  9
$MIRRTEXT
 70
     1
  9
$LTSCALE
 40
1.0
  9
$ATTMODE
 70
     1
  9
$TEXTSIZE
 40
3.5
  9
$TRACEWID
 40
1.0
  9
$TEXTSTYLE
  7
Standard
  9
$CLAYER
  8
0
  9
$CELTYPE
  6
ByLayer
  9
$CECOLOR
 62
   256
  9
$CELTSCALE
 40
1.0
  9
$DISPSILH
 70
     0
  9
$DIMSCALE
 40
1.0
  9
$DIMASZ
 40
3.302
  9
$DIMEXO
 40
1.0
  9
$DIMDLI
 40
3.75
  9
$DIMRND
 40
0.0
  9
$DIMDLE
 40
0.0
  9
$DIMEXE
 40
1.0
  9
$DIMTP
 40
0.0
  9
$DIMTM
 40
0.0
  9
$DIMTXT
 40
3.5
  9
$DIMCEN
 40
2.5
  9
$DIMTSZ
 40
0.0
  9
$DIMTOL
 70
     0
  9
$DIMLIM
 70
     0
  9
$DIMTIH
 70
     1
  9
$DIMTOH
 70
     1
  9
$DIMSE1
 70
     0
  9
$DIMSE2
 70
     0
  9
$DIMTAD
 70
     1
  9
$DIMZIN
 70
     1
  9
$DIMBLK
  1

  9
$DIMASO
 70
     1
  9
$DIMSHO
 70
     1
  9
$DIMPOST
  1

  9
$DIMAPOST
  1

  9
$DIMALT
 70
     0
  9
$DIMALTD
 70
     3
  9
$DIMALTF
 40
0.0393700787
  9
$DIMLFAC
 40
1.0
  9
$DIMTOFL
 70
     1
  9
$DIMTVP
 40
0.0
  9
$DIMTIX
 70
     0
  9
$DIMSOXD
 70
     0
  9
$DIMSAH
 70
     0
  9
$DIMBLK1
  1

  9
$DIMBLK2
  1

  9
$DIMSTYLE
  2
ISO-25
  9
$DIMCLRD
 70
     0
  9
$DIMCLRE
 70
     0
  9
$DIMCLRT
 70
     0
  9
$DIMTFAC
 40
1.0
  9
$DIMGAP
 40
1.524
  9
$DIMJUST
 70
     0
  9
$DIMSD1
 70
     0
  9
$DIMSD2
 70
     0
  9
$DIMTOLJ
 70
     0
  9
$DIMTZIN
 70
     1
  9
$DIMALTZ
 70
     0
  9
$DIMALTTZ
 70
     0
  9
$DIMUPT
 70
     0
  9
$DIMDEC
 70
     2
  9
$DIMTDEC
 70
     2
  9
$DIMALTU
 70
     2
  9
$DIMALTTD
 70
     3
  9
$DIMTXSTY
  7
Standard
  9
$DIMAUNIT
 70
     0
  9
$DIMADEC
 70
     2
  9
$DIMALTRND
 40
0.0
  9
$DIMAZIN
 70
     0
  9
$DIMDSEP
 70
    44
  9
$DIMATFIT
 70
     3
  9
$DIMFRAC
 70
     0
  9
$DIMLDRBLK
  1

  9
$DIMLUNIT
 70
     2
  9
$DIMLWD
 70
    -2
  9
$DIMLWE
 70
    -2
  9
$DIMTMOVE
 70
     0
  9
$LUNITS
 70
     2
  9
$LUPREC
 70
     2
  9
$SKETCHINC
 40
1.0
  9
$FILLETRAD
 40
10.0
  9
$AUNITS
 70
     0
  9
$AUPREC
 70
     2
  9
$MENU
  1
.
  9
$ELEVATION
 40
0.0
  9
$PELEVATION
 40
0.0
  9
$THICKNESS
 40
0.0
  9
$LIMCHECK
 70
     0
  9
$CHAMFERA
 40
0.0
  9
$CHAMFERB
 40
0.0
  9
$CHAMFERC
 40
0.0
  9
$CHAMFERD
 40
0.0
  9
$SKPOLY
 70
     0
  9
$TDCREATE
 40
2458654.432385914
  9
$TDUCREATE
 40
2458654.390719248
  9
$TDUPDATE
 40
2458654.432429213
  9
$TDUUPDATE
 40
2458654.390762546
  9
$TDINDWG
 40
0.0000000116
  9
$TDUSRTIMER
 40
0.0000000116
  9
$USRTIMER
 70
     1
  9
$ANGBASE
 50
0.0
  9
$ANGDIR
 70
     0
  9
$PDMODE
 70
     0
  9
$PDSIZE
 40
-1.0
  9
$PLINEWID
 40
0.0
  9
$SPLFRAME
 70
     0
  9
$SPLINETYPE
 70
     6
  9
$SPLINESEGS
 70
     8
  9
$HANDSEED
  5
2E5
  9
$SURFTAB1
 70
     6
  9
$SURFTAB2
 70
     6
  9
$SURFTYPE
 70
     6
  9
$SURFU
 70
     6
  9
$SURFV
 70
     6
  9
$UCSBASE
  2

  9
$UCSNAME
  2

  9
$UCSORG
 10
0.0
 20
0.0
 30
0.0
  9
$UCSXDIR
 10
1.0
 20
0.0
 30
0.0
  9
$UCSYDIR
 10
0.0
 20
1.0
 30
0.0
  9
$UCSORTHOREF
  2

  9
$UCSORTHOVIEW
 70
     0
  9
$UCSORGTOP
 10
0.0
 20
0.0
 30
0.0
  9
$UCSORGBOTTOM
 10
0.0
 20
0.0
 30
0.0
  9
$UCSORGLEFT
 10
0.0
 20
0.0
 30
0.0
  9
$UCSORGRIGHT
 10
0.0
 20
0.0
 30
0.0
  9
$UCSORGFRONT
 10
0.0
 20
0.0
 30
0.0
  9
$UCSORGBACK
 10
0.0
 20
0.0
 30
0.0
  9
$PUCSBASE
  2

  9
$PUCSNAME
  2

  9
$PUCSORG
 10
0.0
 20
0.0
 30
0.0
  9
$PUCSXDIR
 10
1.0
 20
0.0
 30
0.0
  9
$PUCSYDIR
 10
0.0
 20
1.0
 30
0.0
  9
$PUCSORTHOREF
  2

  9
$PUCSORTHOVIEW
 70
     0
  9
$PUCSORGTOP
 10
0.0
 20
0.0
 30
0.0
  9
$PUCSORGBOTTOM
 10
0.0
 20
0.0
 30
0.0
  9
$PUCSORGLEFT
 10
0.0
 20
0.0
 30
0.0
  9
$PUCSORGRIGHT
 10
0.0
 20
0.0
 30
0.0
  9
$PUCSORGFRONT
 10
0.0
 20
0.0
 30
0.0
  9
$PUCSORGBACK
 10
0.0
 20
0.0
 30
0.0
  9
$USERI1
 70
     0
  9
$USERI2
 70
     0
  9
$USERI3
 70
     0
  9
$USERI4
 70
     0
  9
$USERI5
 70
     0
  9
$USERR1
 40
0.0
  9
$USERR2
 40
0.0
  9
$USERR3
 40
0.0
  9
$USERR4
 40
0.0
  9
$USERR5
 40
0.0
  9
$WORLDVIEW
 70
     1
  9
$SHADEDGE
 70
     3
  9
$SHADEDIF
 70
    70
  9
$TILEMODE
 70
     1
  9
$MAXACTVP
 70
    64
  9
$PINSBASE
 10
0.0
 20
0.0
 30
0.0
  9
$PLIMCHECK
 70
     0
  9
$PEXTMIN
 10
-12.5
 20
-22.5
 30
0.0
  9
$PEXTMAX
 10
410.0346373381
 20
22.5
 30
0.0
  9
$PLIMMIN
 10
-45.3820729446
 20
-34.8307773542
  9
$PLIMMAX
 10
442.9167102827
 20
310.4309885641
  9
$UNITMODE
 70
     0
  9
$VISRETAIN
 70
     1
  9
$PLINEGEN
 70
     0
  9
$PSLTSCALE
 70
     1
  9
$TREEDEPTH
 70
  3020
  9
$CMLSTYLE
  2
Standard
  9
$CMLJUST
 70
     0
  9
$CMLSCALE
 40
20.0
  9
$PROXYGRAPHICS
 70
     1
  9
$MEASUREMENT
 70
     1
  9
$CELWEIGHT
370
    -1
  9
$ENDCAPS
280
     0
  9
$JOINSTYLE
280
     0
  9
$LWDISPLAY
290
     1
  9
$INSUNITS
 70
     4
  9
$HYPERLINKBASE
  1

  9
$STYLESHEET
  1

  9
$XEDIT
290
     1
  9
$CEPSNTYPE
380
     0
  9
$PSTYLEMODE
290
     1
  9
$FINGERPRINTGUID
  2
{f5cc2d9c-0387-4e6e-bae9-42d252f18cee}
  9
$VERSIONGUID
  2
{FAEB1C32-E019-11D5-929B-00C0DF256EC4}
  9
$EXTNAMES
290
     1
  9
$PSVPSCALE
 40
0.0
  9
$OLESTARTUP
290
     0
  0
ENDSEC
  0
SECTION
  2
CLASSES
  0
CLASS
  1
ACDBDICTIONARYWDFLT
  2
AcDbDictionaryWithDefault
  3
ObjectDBX Classes
 90
        0
280
     0
281
     0
  0
CLASS
  1
VISUALSTYLE
  2
AcDbVisualStyle
  3
ObjectDBX Classes
 90
     4095
280
     0
281
     0
  0
CLASS
  1
MATERIAL
  2
AcDbMaterial
  3
ObjectDBX Classes
 90
     1153
280
     0
281
     0
  0
CLASS
  1
SCALE
  2
AcDbScale
  3
ObjectDBX Classes
 90
     1153
280
     0
281
     0
  0
CLASS
  1
TABLESTYLE
  2
AcDbTableStyle
  3
ObjectDBX Classes
 90
     4095
280
     0
281
     0
  0
CLASS
  1
MLEADERSTYLE
  2
AcDbMLeaderStyle
  3
ACDB_MLEADERSTYLE_CLASS
 90
     4095
280
     0
281
     0
  0
CLASS
  1
SUN
  2
AcDbSun
  3
SCENEOE
 90
     1153
280
     0
281
     0
  0
CLASS
  1
ACDBPLACEHOLDER
  2
AcDbPlaceHolder
  3
ObjectDBX Classes
 90
        0
280
     0
281
     0
  0
CLASS
  1
LAYOUT
  2
AcDbLayout
  3
ObjectDBX Classes
 90
        0
280
     0
281
     0
  0
ENDSEC
  0
SECTION
  2
TABLES
  0
TABLE
  2
VPORT
  5
8
330
0
100
AcDbSymbolTable
 70
     1
  0
VPORT
  5
29
330
8
100
AcDbSymbolTableRecord
100
AcDbViewportTableRecord
  2
*Active
 70
     0
 10
0.0
 20
0.0
 11
1.0
 21
1.0
 12
198.7549940155
 22
47.2447452921
 13
0.0
 23
0.0
 14
10.0
 24
10.0
 15
10.0
 25
10.0
 16
0.0
 26
0.0
 36
1.0
 17
0.0
 27
0.0
 37
0.0
 40
96.4007196042
 41
4.4705079958
 42
50.0
 43
0.0
 44
0.0
 50
0.0
 51
0.0
 71
     0
 72
   100
 73
     1
 74
     3
 75
     0
 76
     0
 77
     0
 78
     0
281
     0
 65
     1
110
0.0
120
0.0
130
0.0
111
1.0
121
0.0
131
0.0
112
0.0
122
1.0
132
0.0
 79
     0
146
0.0
  0
ENDTAB
  0
TABLE
  2
LTYPE
  5
5
330
0
100
AcDbSymbolTable
 70
     6
  0
LTYPE
  5
14
330
5
100
AcDbSymbolTableRecord
100
AcDbLinetypeTableRecord
  2
ByBlock
 70
     0
  3

 72
    65
 73
     0
 40
0.0
  0
LTYPE
  5
15
330
5
100
AcDbSymbolTableRecord
100
AcDbLinetypeTableRecord
  2
ByLayer
 70
     0
  3

 72
    65
 73
     0
 40
0.0
  0
LTYPE
  5
16
330
5
100
AcDbSymbolTableRecord
100
AcDbLinetypeTableRecord
  2
Continuous
 70
     0
  3
Solid line
 72
    65
 73
     0
 40
0.0
  0
LTYPE
  5
6E
330
5
100
AcDbSymbolTableRecord
100
AcDbLinetypeTableRecord
  2
HIDDEN
 70
     0
  3
Hidden __ __ __ __ __ __ __ __ __ __ __ __ __ __
 72
    65
 73
     2
 40
1.905
 49
1.27
 74
     0
 49
-0.635
 74
     0
  0
LTYPE
  5
6F
330
5
100
AcDbSymbolTableRecord
100
AcDbLinetypeTableRecord
  2
PHANTOM
 70
     0
  3
Phantom ______  __  __  ______  __  __  ______
 72
    65
 73
     6
 40
12.7
 49
6.35
 74
     0
 49
-1.27
 74
     0
 49
1.27
 74
     0
 49
-1.27
 74
     0
 49
1.27
 74
     0
 49
-1.27
 74
     0
  0
LTYPE
  5
70
330
5
100
AcDbSymbolTableRecord
100
AcDbLinetypeTableRecord
  2
CENTER
 70
     0
  3
Center ____ _ ____ _ ____ _ ____ _ ____ _ ____
 72
    65
 73
     4
 40
10.16
 49
6.35
 74
     0
 49
-1.27
 74
     0
 49
1.27
 74
     0
 49
-1.27
 74
     0
  0
LTYPE
  5
71
330
5
100
AcDbSymbolTableRecord
100
AcDbLinetypeTableRecord
  2
CENTERX2
 70
     0
  3
Center (2x) ________  __  ________  __  _____
 72
    65
 73
     4
 40
20.32
 49
12.7
 74
     0
 49
-2.54
 74
     0
 49
2.54
 74
     0
 49
-2.54
 74
     0
  0
LTYPE
  5
72
330
5
100
AcDbSymbolTableRecord
100
AcDbLinetypeTableRecord
  2
DOT2
 70
     0
  3
Dot (.5x) ........................................
 72
    65
 73
     2
 40
0.635
 49
0.0
 74
     0
 49
-0.635
 74
     0
  0
ENDTAB
  0
TABLE
  2
LAYER
  5
2
330
0
100
AcDbSymbolTable
 70
     1
  0
LAYER
  5
10
330
2
100
AcDbSymbolTableRecord
100
AcDbLayerTableRecord
  2
0
 70
     0
 62
     7
  6
Continuous
370
    -3
390
F
  0
ENDTAB
  0
TABLE
  2
STYLE
  5
3
330
0
100
AcDbSymbolTable
 70
     1
  0
STYLE
  5
11
330
3
100
AcDbSymbolTableRecord
100
AcDbTextStyleTableRecord
  2
Standard
 70
     0
 40
0.0
 41
1.0
 50
0.0
 71
     0
 42
3.5
  3
txt
  4

  0
ENDTAB
  0
TABLE
  2
VIEW
  5
6
330
0
100
AcDbSymbolTable
 70
     0
  0
ENDTAB
  0
TABLE
  2
UCS
  5
7
330
0
100
AcDbSymbolTable
 70
     0
  0
ENDTAB
  0
TABLE
  2
APPID
  5
9
330
0
100
AcDbSymbolTable
 70
     1
  0
APPID
  5
12
330
9
100
AcDbSymbolTableRecord
100
AcDbRegAppTableRecord
  2
ACAD
 70
     0
  0
ENDTAB
  0
TABLE
  2
DIMSTYLE
  5
A
330
0
100
AcDbSymbolTable
 70
     1
100
AcDbDimStyleTable
  0
DIMSTYLE
105
27
330
A
100
AcDbSymbolTableRecord
100
AcDbDimStyleTableRecord
  2
ISO-25
 70
     0
 41
2.5
 42
0.625
 43
3.75
 44
1.25
 73
     0
 74
     0
 77
     1
 78
     8
140
2.5
141
2.5
143
0.0393700787
147
0.625
171
     3
172
     1
178
     0
271
     2
272
     2
274
     3
278
    44
283
     0
284
     8
340
11
  0
ENDTAB
  0
TABLE
  2
BLOCK_RECORD
  5
1
330
0
100
AcDbSymbolTable
 70
     2
  0
BLOCK_RECORD
  5
1F
330
1
100
AcDbSymbolTableRecord
100
AcDbBlockTableRecord
  2
*Model_Space
340
22
  0
BLOCK_RECORD
  5
1B
330
1
100
AcDbSymbolTableRecord
100
AcDbBlockTableRecord
  2
*Paper_Space
340
1E
  0
BLOCK_RECORD
  5
23
330
1
100
AcDbSymbolTableRecord
100
AcDbBlockTableRecord
  2
*Paper_Space0
340
26
  0
BLOCK_RECORD
  5
24A
330
1
100
AcDbSymbolTableRecord
100
AcDbBlockTableRecord
  2
*Paper_Space1
340
24B
  0
ENDTAB
  0
ENDSEC
  0
SECTION
  2
BLOCKS
  0
BLOCK
  5
20
330
1F
100
AcDbEntity
  8
0
100
AcDbBlockBegin
  2
*Model_Space
 70
     0
 10
0.0
 20
0.0
 30
0.0
  3
*Model_Space
  1

  0
ENDBLK
  5
21
330
1F
100
AcDbEntity
  8
0
100
AcDbBlockEnd
  0
BLOCK
  5
1C
330
1B
100
AcDbEntity
 67
     1
  8
0
100
AcDbBlockBegin
  2
*Paper_Space
 70
     0
 10
0.0
 20
0.0
 30
0.0
  3
*Paper_Space
  1

  0
ENDBLK
  5
1D
330
1B
100
AcDbEntity
 67
     1
  8
0
100
AcDbBlockEnd
  0
BLOCK
  5
24
330
23
100
AcDbEntity
  8
0
100
AcDbBlockBegin
  2
*Paper_Space0
 70
     0
 10
0.0
 20
0.0
 30
0.0
  3
*Paper_Space0
  1

  0
SPLINE
  5
1ED
330
23
100
AcDbEntity
  8
0
  6
Continuous
 62
     7
370
    25
100
AcDbSpline
210
0.0
220
0.0
230
1.0
 70
     8
 71
     3
 72
     9
 73
     5
 74
     0
 42
0.000000001
 43
0.00000001
 40
0.0
 40
0.0
 40
0.0
 40
0.0
 40
0.5040188836812922
 40
0.9999999999999999
 40
0.9999999999999999
 40
0.9999999999999999
 40
0.9999999999999999
 10
-10.19159609083506
 20
2.540350729124577
 30
0.0
 10
-9.99139615832972
 20
2.4277100870242
 30
0.0
 10
-9.594188952434772
 20
2.204225122973524
 30
0.0
 10
-9.19699881015748
 20
1.980709888002731
 30
0.0
 10
-9.0
 20
1.869850552247684
 30
0.0
  0
SPLINE
  5
1EE
330
23
100
AcDbEntity
  8
0
  6
Continuous
 62
     7
370
    25
100
AcDbSpline
210
0.0
220
0.0
230
1.0
 70
     8
 71
     3
 72
     9
 73
     5
 74
     0
 42
0.000000001
 43
0.00000001
 40
0.0
 40
0.0
 40
0.0
 40
0.0
 40
0.5040188836812909
 40
0.9999999999999999
 40
0.9999999999999999
 40
0.9999999999999999
 40
0.9999999999999999
 10
-10.19159609083506
 20
4.040350729124579
 30
0.0
 10
-9.991396158329723
 20
3.927710087024201
 30
0.0
 10
-9.594188952434779
 20
3.704225122973519
 30
0.0
 10
-9.196998810157478
 20
3.480709888002732
 30
0.0
 10
-9.0
 20
3.369850552247679
 30
0.0
  0
SPLINE
  5
1EF
330
23
100
AcDbEntity
  8
0
  6
Continuous
 62
     7
370
    25
100
AcDbSpline
210
0.0
220
0.0
230
1.0
 70
     8
 71
     3
 72
     9
 73
     5
 74
     0
 42
0.000000001
 43
0.00000001
 40
0.0
 40
0.0
 40
0.0
 40
0.0
 40
0.5040188836812922
 40
0.9999999999999999
 40
0.9999999999999999
 40
0.9999999999999999
 40
0.9999999999999999
 10
-10.19159609083506
 20
5.540350729124572
 30
0.0
 10
-9.99139615832972
 20
5.427710087024195
 30
0.0
 10
-9.594188952434772
 20
5.204225122973513
 30
0.0
 10
-9.19699881015748
 20
4.980709888002727
 30
0.0
 10
-9.0
 20
4.869850552247673
 30
0.0
  0
SPLINE
  5
1F0
330
23
100
AcDbEntity
  8
0
  6
Continuous
 62
     7
370
    25
100
AcDbSpline
210
0.0
220
0.0
230
1.0
 70
     8
 71
     3
 72
     9
 73
     5
 74
     0
 42
0.000000001
 43
0.00000001
 40
0.0
 40
0.0
 40
0.0
 40
0.0
 40
0.5040188836812908
 40
0.9999999999999999
 40
0.9999999999999999
 40
0.9999999999999999
 40
0.9999999999999999
 10
-10.19159609083506
 20
7.040350729124567
 30
0.0
 10
-9.99139615832972
 20
6.927710087024197
 30
0.0
 10
-9.594188952434775
 20
6.704225122973514
 30
0.0
 10
-9.19699881015748
 20
6.480709888002721
 30
0.0
 10
-9.0
 20
6.369850552247675
 30
0.0
  0
SPLINE
  5
1F1
330
23
100
AcDbEntity
  8
0
  6
Continuous
 62
     7
370
    25
100
AcDbSpline
210
0.0
220
0.0
230
1.0
 70
     8
 71
     3
 72
     9
 73
     5
 74
     0
 42
0.000000001
 43
0.00000001
 40
0.0
 40
0.0
 40
0.0
 40
0.0
 40
0.504018883681292
 40
0.9999999999999999
 40
0.9999999999999999
 40
0.9999999999999999
 40
0.9999999999999999
 10
-10.19159609083506
 20
8.540350729124569
 30
0.0
 10
-9.991396158329719
 20
8.427710087024192
 30
0.0
 10
-9.594188952434772
 20
8.20422512297351
 30
0.0
 10
-9.19699881015748
 20
7.980709888002722
 30
0.0
 10
-9.0
 20
7.869850552247668
 30
0.0
  0
SPLINE
  5
1F2
330
23
100
AcDbEntity
  8
0
  6
Continuous
 62
     7
370
    25
100
AcDbSpline
210
0.0
220
0.0
230
1.0
 70
     8
 71
     3
 72
     9
 73
     5
 74
     0
 42
0.000000001
 43
0.00000001
 40
0.0
 40
0.0
 40
0.0
 40
0.0
 40
0.4999781017899831
 40
0.9999999999999999
 40
0.9999999999999999
 40
0.9999999999999999
 40
0.9999999999999999
 10
8.990474970139275
 20
1.114490584134292
 30
0.0
 10
9.19064875624217
 20
1.227136636257738
 30
0.0
 10
9.591013863006342
 20
1.452438607924412
 30
0.0
 10
9.991396169788258
 20
1.677710066696716
 30
0.0
 10
10.19159609083506
 20
1.790350729124583
 30
0.0
  0
SPLINE
  5
1F3
330
23
100
AcDbEntity
  8
0
  6
Continuous
 62
     7
370
    25
100
AcDbSpline
210
0.0
220
0.0
230
1.0
 70
     8
 71
     3
 72
     9
 73
     5
 74
     0
 42
0.000000001
 43
0.00000001
 40
0.0
 40
0.0
 40
0.0
 40
0.0
 40
0.4999781017899856
 40
0.9999999999999999
 40
0.9999999999999999
 40
0.9999999999999999
 40
0.9999999999999999
 10
8.990474970139275
 20
2.614490584134294
 30
0.0
 10
9.190648756242172
 20
2.727136636257732
 30
0.0
 10
9.591013863006348
 20
2.952438607924407
 30
0.0
 10
9.991396169788262
 20
3.177710066696711
 30
0.0
 10
10.19159609083506
 20
3.290350729124578
 30
0.0
  0
SPLINE
  5
1F4
330
23
100
AcDbEntity
  8
0
  6
Continuous
 62
     7
370
    25
100
AcDbSpline
210
0.0
220
0.0
230
1.0
 70
     8
 71
     3
 72
     9
 73
     5
 74
     0
 42
0.000000001
 43
0.00000001
 40
0.0
 40
0.0
 40
0.0
 40
0.0
 40
0.4999781017899843
 40
0.9999999999999999
 40
0.9999999999999999
 40
0.9999999999999999
 40
0.9999999999999999
 10
8.990474970139275
 20
4.114490584134288
 30
0.0
 10
9.19064875624217
 20
4.227136636257733
 30
0.0
 10
9.591013863006348
 20
4.452438607924408
 30
0.0
 10
9.991396169788262
 20
4.677710066696705
 30
0.0
 10
10.19159609083506
 20
4.790350729124572
 30
0.0
  0
SPLINE
  5
1F5
330
23
100
AcDbEntity
  8
0
  6
Continuous
 62
     7
370
    25
100
AcDbSpline
210
0.0
220
0.0
230
1.0
 70
     8
 71
     3
 72
     9
 73
     5
 74
     0
 42
0.000000001
 43
0.00000001
 40
0.0
 40
0.0
 40
0.0
 40
0.0
 40
0.499978101789983
 40
0.9999999999999999
 40
0.9999999999999999
 40
0.9999999999999999
 40
0.9999999999999999
 10
8.990474970139275
 20
5.614490584134282
 30
0.0
 10
9.19064875624217
 20
5.727136636257728
 30
0.0
 10
9.591013863006346
 20
5.952438607924402
 30
0.0
 10
9.99139616978826
 20
6.177710066696706
 30
0.0
 10
10.19159609083506
 20
6.290350729124573
 30
0.0
  0
SPLINE
  5
1F6
330
23
100
AcDbEntity
  8
0
  6
Continuous
 62
     7
370
    25
100
AcDbSpline
210
0.0
220
0.0
230
1.0
 70
     8
 71
     3
 72
     9
 73
     5
 74
     0
 42
0.000000001
 43
0.00000001
 40
0.0
 40
0.0
 40
0.0
 40
0.0
 40
0.4999781017899846
 40
0.9999999999999999
 40
0.9999999999999999
 40
0.9999999999999999
 40
0.9999999999999999
 10
8.990474970139275
 20
7.114490584134284
 30
0.0
 10
9.190648756242169
 20
7.227136636257722
 30
0.0
 10
9.59101386300634
 20
7.452438607924397
 30
0.0
 10
9.99139616978826
 20
7.677710066696701
 30
0.0
 10
10.19159609083506
 20
7.790350729124568
 30
0.0
  0
SPLINE
  5
1F7
330
23
100
AcDbEntity
  8
0
  6
Continuous
 62
     7
370
    25
100
AcDbSpline
210
0.0
220
0.0
230
1.0
 70
     8
 71
     3
 72
     9
 73
     5
 74
     0
 42
0.000000001
 43
0.00000001
 40
0.0
 40
0.0
 40
0.0
 40
0.0
 40
0.4999781017899843
 40
0.9999999999999999
 40
0.9999999999999999
 40
0.9999999999999999
 40
0.9999999999999999
 10
8.990474970139275
 20
8.614490584134279
 30
0.0
 10
9.19064875624217
 20
8.727136636257724
 30
0.0
 10
9.591013863006348
 20
8.952438607924398
 30
0.0
 10
9.991396169788262
 20
9.177710066696696
 30
0.0
 10
10.19159609083506
 20
9.290350729124569
 30
0.0
  0
SPLINE
  5
1F8
330
23
100
AcDbEntity
  8
0
  6
Continuous
 62
     7
370
    25
100
AcDbSpline
210
0.0
220
0.0
230
1.0
 70
     8
 71
     3
 72
     9
 73
     5
 74
     0
 42
0.000000001
 43
0.00000001
 40
0.0
 40
0.0
 40
0.0
 40
0.0
 40
0.0152257489353599
 40
1.0
 40
1.0
 40
1.0
 40
1.0
 10
9.581714993501965
 20
-0.0528041415598021
 30
0.0
 10
9.584810204351697
 20
-0.0510623888595879
 30
0.0
 10
9.788098125548405
 20
0.0633328180763351
 30
0.0
 10
9.991394780102553
 20
0.1777125320042428
 30
0.0
 10
10.19159609083506
 20
0.2903507291245819
 30
0.0
  0
SPLINE
  5
1F9
330
23
100
AcDbEntity
  8
0
  6
Continuous
 62
     7
370
    25
100
AcDbSpline
210
0.0
220
0.0
230
1.0
 70
     8
 71
     3
 72
     9
 73
     5
 74
     0
 42
0.000000001
 43
0.00000001
 40
0.0
 40
0.0
 40
0.0
 40
0.0
 40
0.5040188836812923
 40
0.9999999999999999
 40
0.9999999999999999
 40
0.9999999999999999
 40
0.9999999999999999
 10
-10.19159609083506
 20
1.040350729124583
 30
0.0
 10
-9.991396158329719
 20
0.9277100870242055
 30
0.0
 10
-9.594188952434775
 20
0.704225122973523
 30
0.0
 10
-9.196998810157481
 20
0.4807098880027366
 30
0.0
 10
-9.0
 20
0.369850552247683
 30
0.0
  0
SPLINE
  5
1FA
330
23
100
AcDbEntity
  8
0
  6
Continuous
 62
     7
370
    25
100
AcDbSpline
210
0.0
220
0.0
230
1.0
 70
     8
 71
     3
 72
     9
 73
     5
 74
     0
 42
0.000000001
 43
0.00000001
 40
0.0
 40
0.0
 40
0.0
 40
0.0
 40
0.4999807032789119
 40
1.0
 40
1.0
 40
1.0
 40
1.0
 10
-8.991446651342839
 20
1.770837347728559
 30
0.0
 10
-9.191603909087513
 20
1.652092516134011
 30
0.0
 10
-9.59193387468824
 20
1.414593687047577
 30
0.0
 10
-9.992280157794367
 20
1.177123184775586
 30
0.0
 10
-10.19246102471799
 20
1.058383351237535
 30
0.0
  0
SPLINE
  5
1FB
330
23
100
AcDbEntity
  8
0
  6
Continuous
 62
     7
370
    25
100
AcDbSpline
210
0.0
220
0.0
230
1.0
 70
     8
 71
     3
 72
     9
 73
     5
 74
     0
 42
0.000000001
 43
0.00000001
 40
0.0
 40
0.0
 40
0.0
 40
0.0
 40
0.4999807032789131
 40
1.0
 40
1.0
 40
1.0
 40
1.0
 10
-8.99144665134284
 20
3.27083734772856
 30
0.0
 10
-9.191603909087517
 20
3.152092516134006
 30
0.0
 10
-9.591933874688245
 20
2.914593687047579
 30
0.0
 10
-9.992280157794369
 20
2.67712318477558
 30
0.0
 10
-10.19246102471799
 20
2.558383351237536
 30
0.0
  0
SPLINE
  5
1FC
330
23
100
AcDbEntity
  8
0
  6
Continuous
 62
     7
370
    25
100
AcDbSpline
210
0.0
220
0.0
230
1.0
 70
     8
 71
     3
 72
     9
 73
     5
 74
     0
 42
0.000000001
 43
0.00000001
 40
0.0
 40
0.0
 40
0.0
 40
0.0
 40
0.4999807032789129
 40
1.0
 40
1.0
 40
1.0
 40
1.0
 10
-8.991446651342839
 20
4.770837347728555
 30
0.0
 10
-9.191603909087513
 20
4.652092516134
 30
0.0
 10
-9.591933874688246
 20
4.414593687047573
 30
0.0
 10
-9.99228015779437
 20
4.177123184775581
 30
0.0
 10
-10.19246102471799
 20
4.058383351237531
 30
0.0
  0
SPLINE
  5
1FD
330
23
100
AcDbEntity
  8
0
  6
Continuous
 62
     7
370
    25
100
AcDbSpline
210
0.0
220
0.0
230
1.0
 70
     8
 71
     3
 72
     9
 73
     5
 74
     0
 42
0.000000001
 43
0.00000001
 40
0.0
 40
0.0
 40
0.0
 40
0.0
 40
0.4999807032789126
 40
1.0
 40
1.0
 40
1.0
 40
1.0
 10
-8.991446651342839
 20
6.270837347728548
 30
0.0
 10
-9.191603909087515
 20
6.152092516134002
 30
0.0
 10
-9.591933874688245
 20
5.914593687047567
 30
0.0
 10
-9.992280157794367
 20
5.677123184775576
 30
0.0
 10
-10.19246102471799
 20
5.558383351237525
 30
0.0
  0
SPLINE
  5
1FE
330
23
100
AcDbEntity
  8
0
  6
Continuous
 62
     7
370
    25
100
AcDbSpline
210
0.0
220
0.0
230
1.0
 70
     8
 71
     3
 72
     9
 73
     5
 74
     0
 42
0.000000001
 43
0.00000001
 40
0.0
 40
0.0
 40
0.0
 40
0.0
 40
0.4999807032789119
 40
1.0
 40
1.0
 40
1.0
 40
1.0
 10
-8.991446651342839
 20
7.77083734772855
 30
0.0
 10
-9.191603909087513
 20
7.652092516133996
 30
0.0
 10
-9.591933874688241
 20
7.414593687047569
 30
0.0
 10
-9.992280157794369
 20
7.177123184775571
 30
0.0
 10
-10.19246102471799
 20
7.058383351237526
 30
0.0
  0
SPLINE
  5
1FF
330
23
100
AcDbEntity
  8
0
  6
Continuous
 62
     7
370
    25
100
AcDbSpline
210
0.0
220
0.0
230
1.0
 70
     8
 71
     3
 72
     9
 73
     5
 74
     0
 42
0.000000001
 43
0.00000001
 40
0.0
 40
0.0
 40
0.0
 40
0.0
 40
0.499980703278913
 40
1.0
 40
1.0
 40
1.0
 40
1.0
 10
-8.99144665134284
 20
9.270837347728545
 30
0.0
 10
-9.191603909087515
 20
9.152092516133997
 30
0.0
 10
-9.591933874688245
 20
8.91459368704757
 30
0.0
 10
-9.992280157794367
 20
8.677123184775573
 30
0.0
 10
-10.19246102471799
 20
8.558383351237522
 30
0.0
  0
SPLINE
  5
200
330
23
100
AcDbEntity
  8
0
  6
Continuous
 62
     7
370
    25
100
AcDbSpline
210
0.0
220
0.0
230
1.0
 70
     8
 71
     3
 72
     9
 73
     5
 74
     0
 42
0.000000001
 43
0.00000001
 40
0.0
 40
0.0
 40
0.0
 40
0.0
 40
0.5036059111414908
 40
1.0
 40
1.0
 40
1.0
 40
1.0
 10
10.19246102471799
 20
1.808383351237536
 30
0.0
 10
9.992280148039892
 20
1.927123167842035
 30
0.0
 10
9.594785058626892
 20
2.162902403108277
 30
0.0
 10
9.197306170508181
 20
2.398709763449143
 30
0.0
 10
9.0
 20
2.515763143231674
 30
0.0
  0
SPLINE
  5
201
330
23
100
AcDbEntity
  8
0
  6
Continuous
 62
     7
370
    25
100
AcDbSpline
210
0.0
220
0.0
230
1.0
 70
     8
 71
     3
 72
     9
 73
     5
 74
     0
 42
0.000000001
 43
0.00000001
 40
0.0
 40
0.0
 40
0.0
 40
0.0
 40
0.5036059111414909
 40
1.0
 40
1.0
 40
1.0
 40
1.0
 10
10.19246102471799
 20
3.30838335123753
 30
0.0
 10
9.992280148039892
 20
3.427123167842036
 30
0.0
 10
9.594785058626892
 20
3.662902403108272
 30
0.0
 10
9.19730617050818
 20
3.898709763449137
 30
0.0
 10
9.0
 20
4.015763143231675
 30
0.0
  0
SPLINE
  5
202
330
23
100
AcDbEntity
  8
0
  6
Continuous
 62
     7
370
    25
100
AcDbSpline
210
0.0
220
0.0
230
1.0
 70
     8
 71
     3
 72
     9
 73
     5
 74
     0
 42
0.000000001
 43
0.00000001
 40
0.0
 40
0.0
 40
0.0
 40
0.0
 40
0.5036059111414904
 40
1.0
 40
1.0
 40
1.0
 40
1.0
 10
10.19246102471799
 20
4.808383351237532
 30
0.0
 10
9.992280148039892
 20
4.927123167842031
 30
0.0
 10
9.594785058626888
 20
5.162902403108266
 30
0.0
 10
9.197306170508181
 20
5.398709763449139
 30
0.0
 10
9.0
 20
5.51576314323167
 30
0.0
  0
SPLINE
  5
203
330
23
100
AcDbEntity
  8
0
  6
Continuous
 62
     7
370
    25
100
AcDbSpline
210
0.0
220
0.0
230
1.0
 70
     8
 71
     3
 72
     9
 73
     5
 74
     0
 42
0.000000001
 43
0.00000001
 40
0.0
 40
0.0
 40
0.0
 40
0.0
 40
0.5036059111414904
 40
1.0
 40
1.0
 40
1.0
 40
1.0
 10
10.19246102471799
 20
6.308383351237526
 30
0.0
 10
9.992280148039892
 20
6.427123167842025
 30
0.0
 10
9.594785058626888
 20
6.662902403108268
 30
0.0
 10
9.197306170508181
 20
6.898709763449133
 30
0.0
 10
9.0
 20
7.015763143231671
 30
0.0
  0
SPLINE
  5
204
330
23
100
AcDbEntity
  8
0
  6
Continuous
 62
     7
370
    25
100
AcDbSpline
210
0.0
220
0.0
230
1.0
 70
     8
 71
     3
 72
     9
 73
     5
 74
     0
 42
0.000000001
 43
0.00000001
 40
0.0
 40
0.0
 40
0.0
 40
0.0
 40
0.5036059111414906
 40
1.0
 40
1.0
 40
1.0
 40
1.0
 10
10.19246102471799
 20
7.808383351237527
 30
0.0
 10
9.992280148039894
 20
7.927123167842026
 30
0.0
 10
9.594785058626892
 20
8.16290240310827
 30
0.0
 10
9.197306170508178
 20
8.398709763449128
 30
0.0
 10
9.0
 20
8.515763143231665
 30
0.0
  0
SPLINE
  5
205
330
23
100
AcDbEntity
  8
0
  6
Continuous
 62
     7
370
    25
100
AcDbSpline
210
0.0
220
0.0
230
1.0
 70
     8
 71
     3
 72
     9
 73
     5
 74
     0
 42
0.000000001
 43
0.00000001
 40
0.0
 40
0.0
 40
0.0
 40
0.0
 40
0.5036059111414908
 40
1.0
 40
1.0
 40
1.0
 40
1.0
 10
10.19246102471799
 20
9.308383351237522
 30
0.0
 10
9.992280148039892
 20
9.427123167842021
 30
0.0
 10
9.594785058626892
 20
9.662902403108262
 30
0.0
 10
9.197306170508181
 20
9.898709763449128
 30
0.0
 10
9.0
 20
10.01576314323166
 30
0.0
  0
SPLINE
  5
206
330
23
100
AcDbEntity
  8
0
  6
Continuous
 62
     7
370
    25
100
AcDbSpline
210
0.0
220
0.0
230
1.0
 70
     8
 71
     3
 72
     9
 73
     5
 74
     0
 42
0.000000001
 43
0.00000001
 40
0.0
 40
0.0
 40
0.0
 40
0.0
 40
0.5036059111414907
 40
1.0
 40
1.0
 40
1.0
 40
1.0
 10
10.19246102471799
 20
0.3083833512375414
 30
0.0
 10
9.99228014803989
 20
0.4271231678420404
 30
0.0
 10
9.594785058626892
 20
0.6629024031082759
 30
0.0
 10
9.197306170508181
 20
0.8987097634491417
 30
0.0
 10
9.0
 20
1.015763143231679
 30
0.0
  0
SPLINE
  5
218
330
23
100
AcDbEntity
  8
0
  6
Continuous
 62
     7
370
    25
100
AcDbSpline
210
0.0
220
0.0
230
1.0
 70
     8
 71
     3
 72
    12
 73
     8
 74
     0
 42
0.000000001
 43
0.00000001
 40
0.0
 40
0.0
 40
0.0
 40
0.0
 40
0.1948061897244101
 40
0.385999745183522
 40
0.600684472303766
 40
0.819099796411344
 40
1.0
 40
1.0
 40
1.0
 40
1.0
 10
3.186000289595115
 20
0.0000000000000069
 30
0.0
 10
3.931083958318577
 20
0.0193963420121249
 30
0.0
 10
5.407433897068096
 20
0.0578293255059301
 30
0.0
 10
7.353922153159796
 20
0.1143007574622643
 30
0.0
 10
8.924199948290324
 20
0.1731399137301151
 30
0.0
 10
9.954547990927695
 20
0.2352273522167048
 30
0.0
 10
10.08626293988751
 20
0.2728887852336756
 30
0.0
 10
10.14593319919339
 20
0.2899503829619579
 30
0.0
  0
SPLINE
  5
21A
330
23
100
AcDbEntity
  8
0
  6
Continuous
 62
     7
370
    25
100
AcDbSpline
210
0.0
220
0.0
230
1.0
 70
     8
 71
     3
 72
    19
 73
    15
 74
     0
 42
0.000000001
 43
0.00000001
 40
0.0
 40
0.0
 40
0.0
 40
0.0
 40
0.0723474731648232
 40
0.1588405934624273
 40
0.2438563862175351
 40
0.3288721789726432
 40
0.4153652992702474
 40
0.5003810920253552
 40
0.6039970150857965
 40
0.6811408476964255
 40
0.7568540663545931
 40
0.8418698591097008
 40
0.928362979407305
 40
1.0
 40
1.0
 40
1.0
 40
1.0
 10
-10.1488043070375
 20
1.058763843253714
 30
0.0
 10
-10.08877668978788
 20
1.075993188624162
 30
0.0
 10
-9.956984632222245
 20
1.113820625076249
 30
0.0
 10
-8.92367134145788
 20
1.176094443411102
 30
0.0
 10
-7.297461333003493
 20
1.237111616059321
 30
0.0
 10
-5.158465196311825
 20
1.298141293720183
 30
0.0
 10
-2.67000859049984
 20
1.363612282253929
 30
0.0
 10
0.1922055843603808
 20
1.428901856559348
 30
0.0
 10
2.966157265194378
 20
1.492845410845989
 30
0.0
 10
5.399254713069442
 20
1.557943151390101
 30
0.0
 10
7.356394835679097
 20
1.614266346294344
 30
0.0
 10
8.923490824611672
 20
1.673149782273203
 30
0.0
 10
9.954691262595212
 20
1.735225358371811
 30
0.0
 10
10.08630760926206
 20
1.772888163590842
 30
0.0
 10
10.14593319919339
 20
1.789950382961952
 30
0.0
  0
SPLINE
  5
21B
330
23
100
AcDbEntity
  8
0
  6
Continuous
 62
     7
370
    25
100
AcDbSpline
210
0.0
220
0.0
230
1.0
 70
     8
 71
     3
 72
    19
 73
    15
 74
     0
 42
0.000000001
 43
0.00000001
 40
0.0
 40
0.0
 40
0.0
 40
0.0
 40
0.0723474731648225
 40
0.1588405934624266
 40
0.2438563862175345
 40
0.3288721789726427
 40
0.415365299270247
 40
0.5003810920253547
 40
0.6039970150857962
 40
0.6811408476964252
 40
0.7568540663545928
 40
0.8418698591097008
 40
0.9283629794073048
 40
1.0
 40
1.0
 40
1.0
 40
1.0
 10
-10.1488043070375
 20
2.558763843253716
 30
0.0
 10
-10.08877668978787
 20
2.575993188624163
 30
0.0
 10
-9.956984632222245
 20
2.61382062507625
 30
0.0
 10
-8.92367134145788
 20
2.676094443411096
 30
0.0
 10
-7.297461333003493
 20
2.737111616059322
 30
0.0
 10
-5.158465196311824
 20
2.798141293720177
 30
0.0
 10
-2.670008590499842
 20
2.863612282253923
 30
0.0
 10
0.1922055843603825
 20
2.928901856559342
 30
0.0
 10
2.966157265194379
 20
2.992845410845983
 30
0.0
 10
5.399254713069438
 20
3.057943151390095
 30
0.0
 10
7.356394835679103
 20
3.114266346294338
 30
0.0
 10
8.923490824611669
 20
3.173149782273198
 30
0.0
 10
9.954691262595215
 20
3.235225358371806
 30
0.0
 10
10.08630760926206
 20
3.272888163590844
 30
0.0
 10
10.14593319919339
 20
3.289950382961954
 30
0.0
  0
SPLINE
  5
21C
330
23
100
AcDbEntity
  8
0
  6
Continuous
 62
     7
370
    25
100
AcDbSpline
210
0.0
220
0.0
230
1.0
 70
     8
 71
     3
 72
    19
 73
    15
 74
     0
 42
0.000000001
 43
0.00000001
 40
0.0
 40
0.0
 40
0.0
 40
0.0
 40
0.0723474731648232
 40
0.1588405934624272
 40
0.243856386217535
 40
0.3288721789726431
 40
0.4153652992702473
 40
0.5003810920253551
 40
0.6039970150857965
 40
0.6811408476964255
 40
0.7568540663545931
 40
0.8418698591097008
 40
0.928362979407305
 40
1.0
 40
1.0
 40
1.0
 40
1.0
 10
-10.1488043070375
 20
4.058763843253709
 30
0.0
 10
-10.08877668978788
 20
4.075993188624158
 30
0.0
 10
-9.956984632222246
 20
4.113820625076245
 30
0.0
 10
-8.923671341457876
 20
4.176094443411091
 30
0.0
 10
-7.297461333003495
 20
4.237111616059316
 30
0.0
 10
-5.158465196311823
 20
4.298141293720178
 30
0.0
 10
-2.670008590499842
 20
4.363612282253924
 30
0.0
 10
0.1922055843603842
 20
4.428901856559343
 30
0.0
 10
2.966157265194377
 20
4.492845410845978
 30
0.0
 10
5.399254713069442
 20
4.557943151390097
 30
0.0
 10
7.356394835679097
 20
4.614266346294333
 30
0.0
 10
8.923490824611672
 20
4.673149782273192
 30
0.0
 10
9.954691262595212
 20
4.7352253583718
 30
0.0
 10
10.08630760926206
 20
4.772888163590839
 30
0.0
 10
10.14593319919339
 20
4.789950382961948
 30
0.0
  0
SPLINE
  5
21D
330
23
100
AcDbEntity
  8
0
  6
Continuous
 62
     7
370
    25
100
AcDbSpline
210
0.0
220
0.0
230
1.0
 70
     8
 71
     3
 72
    19
 73
    15
 74
     0
 42
0.000000001
 43
0.00000001
 40
0.0
 40
0.0
 40
0.0
 40
0.0
 40
0.0723474731648232
 40
0.1588405934624272
 40
0.243856386217535
 40
0.3288721789726431
 40
0.4153652992702473
 40
0.5003810920253551
 40
0.6039970150857965
 40
0.6811408476964255
 40
0.7568540663545931
 40
0.8418698591097008
 40
0.928362979407305
 40
1.0
 40
1.0
 40
1.0
 40
1.0
 10
-10.1488043070375
 20
5.558763843253704
 30
0.0
 10
-10.08877668978788
 20
5.575993188624159
 30
0.0
 10
-9.956984632222246
 20
5.613820625076239
 30
0.0
 10
-8.923671341457876
 20
5.676094443411092
 30
0.0
 10
-7.297461333003495
 20
5.737111616059318
 30
0.0
 10
-5.158465196311823
 20
5.798141293720173
 30
0.0
 10
-2.670008590499842
 20
5.863612282253919
 30
0.0
 10
0.1922055843603842
 20
5.928901856559338
 30
0.0
 10
2.966157265194377
 20
5.992845410845979
 30
0.0
 10
5.399254713069442
 20
6.057943151390098
 30
0.0
 10
7.356394835679097
 20
6.114266346294326
 30
0.0
 10
8.923490824611672
 20
6.173149782273193
 30
0.0
 10
9.954691262595212
 20
6.235225358371801
 30
0.0
 10
10.08630760926206
 20
6.27288816359084
 30
0.0
 10
10.14593319919339
 20
6.289950382961942
 30
0.0
  0
SPLINE
  5
21E
330
23
100
AcDbEntity
  8
0
  6
Continuous
 62
     7
370
    25
100
AcDbSpline
210
0.0
220
0.0
230
1.0
 70
     8
 71
     3
 72
    19
 73
    15
 74
     0
 42
0.000000001
 43
0.00000001
 40
0.0
 40
0.0
 40
0.0
 40
0.0
 40
0.0723474731648234
 40
0.1588405934624274
 40
0.2438563862175352
 40
0.3288721789726433
 40
0.4153652992702475
 40
0.5003810920253552
 40
0.6039970150857966
 40
0.6811408476964256
 40
0.7568540663545931
 40
0.8418698591097009
 40
0.928362979407305
 40
1.0
 40
1.0
 40
1.0
 40
1.0
 10
-10.1488043070375
 20
7.058763843253699
 30
0.0
 10
-10.08877668978788
 20
7.075993188624154
 30
0.0
 10
-9.956984632222248
 20
7.113820625076241
 30
0.0
 10
-8.92367134145788
 20
7.176094443411086
 30
0.0
 10
-7.297461333003493
 20
7.237111616059313
 30
0.0
 10
-5.158465196311823
 20
7.298141293720168
 30
0.0
 10
-2.670008590499841
 20
7.363612282253913
 30
0.0
 10
0.1922055843603837
 20
7.428901856559339
 30
0.0
 10
2.966157265194378
 20
7.49284541084598
 30
0.0
 10
5.399254713069439
 20
7.557943151390085
 30
0.0
 10
7.3563948356791
 20
7.614266346294328
 30
0.0
 10
8.92349082461167
 20
7.673149782273195
 30
0.0
 10
9.954691262595214
 20
7.735225358371796
 30
0.0
 10
10.08630760926206
 20
7.772888163590834
 30
0.0
 10
10.14593319919339
 20
7.789950382961944
 30
0.0
  0
SPLINE
  5
21F
330
23
100
AcDbEntity
  8
0
  6
Continuous
 62
     7
370
    25
100
AcDbSpline
210
0.0
220
0.0
230
1.0
 70
     8
 71
     3
 72
    19
 73
    15
 74
     0
 42
0.000000001
 43
0.00000001
 40
0.0
 40
0.0
 40
0.0
 40
0.0
 40
0.0723474731648246
 40
0.1588405934624286
 40
0.2438563862175362
 40
0.3288721789726443
 40
0.4153652992702483
 40
0.500381092025356
 40
0.6039970150857971
 40
0.681140847696426
 40
0.7568540663545934
 40
0.8418698591097011
 40
0.9283629794073051
 40
1.0
 40
1.0
 40
1.0
 40
1.0
 10
-10.14880430703751
 20
8.5587638432537
 30
0.0
 10
-10.08877668978788
 20
8.575993188624148
 30
0.0
 10
-9.95698463222225
 20
8.613820625076235
 30
0.0
 10
-8.923671341457878
 20
8.676094443411081
 30
0.0
 10
-7.297461333003493
 20
8.737111616059307
 30
0.0
 10
-5.158465196311826
 20
8.79814129372017
 30
0.0
 10
-2.670008590499838
 20
8.863612282253907
 30
0.0
 10
0.192205584360378
 20
8.928901856559333
 30
0.0
 10
2.966157265194382
 20
8.992845410845968
 30
0.0
 10
5.399254713069438
 20
9.057943151390086
 30
0.0
 10
7.356394835679101
 20
9.114266346294322
 30
0.0
 10
8.92349082461167
 20
9.173149782273189
 30
0.0
 10
9.954691262595214
 20
9.23522535837179
 30
0.0
 10
10.08630760926206
 20
9.272888163590828
 30
0.0
 10
10.14593319919339
 20
9.289950382961939
 30
0.0
  0
SPLINE
  5
220
330
23
100
AcDbEntity
  8
0
  6
Continuous
 62
     7
370
    25
100
AcDbSpline
210
0.0
220
0.0
230
1.0
 70
     8
 71
     3
 72
    19
 73
    15
 74
     0
 42
0.000000001
 43
0.00000001
 40
0.0
 40
0.0
 40
0.0
 40
0.0
 40
0.0840603930390346
 40
0.1695819836071435
 40
0.2536423766461784
 40
0.3377027696852133
 40
0.4232243602533223
 40
0.5072847532923569
 40
0.5913451463313917
 40
0.6768667368995006
 40
0.7609271299385354
 40
0.8449875229775698
 40
0.9305091135456787
 40
1.0
 40
1.0
 40
1.0
 40
1.0
 10
-9.0
 20
0.3749999999999934
 30
0.0
 10
-8.940940778710985
 20
0.3952280335935907
 30
0.0
 10
-8.821795726750144
 20
0.4360357188453179
 30
0.0
 10
-7.876775815989973
 20
0.5014642807529418
 30
0.0
 10
-6.438174874778228
 20
0.5625000019608208
 30
0.0
 10
-4.551710793345102
 20
0.6235357113355753
 30
0.0
 10
-2.356153664189053
 20
0.6889643091539388
 30
0.0
 10
-0.0000177998854657
 20
0.7499998980301098
 30
0.0
 10
2.356225482550022
 20
0.8110361022706167
 30
0.0
 10
4.551456622873761
 20
0.8764628326025716
 30
0.0
 10
6.43910053224757
 20
0.9375053008366039
 30
0.0
 10
7.87329517570912
 20
0.9985157797651676
 30
0.0
 10
8.779703609903976
 20
1.060275827946655
 30
0.0
 10
8.895532447970611
 20
1.097617194813841
 30
0.0
 10
8.94745761418197
 20
1.114357038824204
 30
0.0
  0
SPLINE
  5
221
330
23
100
AcDbEntity
  8
0
  6
Continuous
 62
     7
370
    25
100
AcDbSpline
210
0.0
220
0.0
230
1.0
 70
     8
 71
     3
 72
    19
 73
    15
 74
     0
 42
0.000000001
 43
0.00000001
 40
0.0
 40
0.0
 40
0.0
 40
0.0
 40
0.0840603930390346
 40
0.1695819836071435
 40
0.2536423766461784
 40
0.3377027696852133
 40
0.4232243602533223
 40
0.5072847532923569
 40
0.5913451463313917
 40
0.6768667368995006
 40
0.7609271299385354
 40
0.8449875229775698
 40
0.9305091135456787
 40
1.0
 40
1.0
 40
1.0
 40
1.0
 10
-9.0
 20
1.874999999999995
 30
0.0
 10
-8.940940778710985
 20
1.895228033593585
 30
0.0
 10
-8.821795726750144
 20
1.936035718845319
 30
0.0
 10
-7.876775815989973
 20
2.001464280752943
 30
0.0
 10
-6.438174874778228
 20
2.062500001960816
 30
0.0
 10
-4.551710793345102
 20
2.123535711335577
 30
0.0
 10
-2.356153664189053
 20
2.18896430915394
 30
0.0
 10
-0.0000177998854657
 20
2.249999898030104
 30
0.0
 10
2.356225482550022
 20
2.311036102270611
 30
0.0
 10
4.551456622873761
 20
2.376462832602566
 30
0.0
 10
6.43910053224757
 20
2.437505300836598
 30
0.0
 10
7.87329517570912
 20
2.498515779765162
 30
0.0
 10
8.779703609903976
 20
2.560275827946656
 30
0.0
 10
8.895532447970611
 20
2.597617194813835
 30
0.0
 10
8.94745761418197
 20
2.614357038824205
 30
0.0
  0
SPLINE
  5
222
330
23
100
AcDbEntity
  8
0
  6
Continuous
 62
     7
370
    25
100
AcDbSpline
210
0.0
220
0.0
230
1.0
 70
     8
 71
     3
 72
    19
 73
    15
 74
     0
 42
0.000000001
 43
0.00000001
 40
0.0
 40
0.0
 40
0.0
 40
0.0
 40
0.0840603930390346
 40
0.1695819836071436
 40
0.2536423766461786
 40
0.3377027696852136
 40
0.4232243602533226
 40
0.5072847532923572
 40
0.5913451463313921
 40
0.6768667368995009
 40
0.7609271299385358
 40
0.8449875229775704
 40
0.9305091135456792
 40
1.0
 40
1.0
 40
1.0
 40
1.0
 10
-9.0
 20
3.374999999999989
 30
0.0
 10
-8.940940778710987
 20
3.395228033593586
 30
0.0
 10
-8.821795726750148
 20
3.436035718845313
 30
0.0
 10
-7.876775815989975
 20
3.501464280752938
 30
0.0
 10
-6.438174874778227
 20
3.562500001960816
 30
0.0
 10
-4.551710793345104
 20
3.623535711335571
 30
0.0
 10
-2.356153664189051
 20
3.688964309153934
 30
0.0
 10
-0.0000177998854653
 20
3.749999898030106
 30
0.0
 10
2.356225482550017
 20
3.811036102270605
 30
0.0
 10
4.551456622873765
 20
3.876462832602567
 30
0.0
 10
6.439100532247568
 20
3.937505300836593
 30
0.0
 10
7.87329517570912
 20
3.998515779765163
 30
0.0
 10
8.779703609903974
 20
4.060275827946651
 30
0.0
 10
8.895532447970606
 20
4.09761719481383
 30
0.0
 10
8.947457614181968
 20
4.1143570388242
 30
0.0
  0
SPLINE
  5
223
330
23
100
AcDbEntity
  8
0
  6
Continuous
 62
     7
370
    25
100
AcDbSpline
210
0.0
220
0.0
230
1.0
 70
     8
 71
     3
 72
    19
 73
    15
 74
     0
 42
0.000000001
 43
0.00000001
 40
0.0
 40
0.0
 40
0.0
 40
0.0
 40
0.0840603930390346
 40
0.1695819836071436
 40
0.2536423766461786
 40
0.3377027696852136
 40
0.4232243602533227
 40
0.5072847532923573
 40
0.5913451463313922
 40
0.6768667368995012
 40
0.7609271299385361
 40
0.8449875229775705
 40
0.9305091135456794
 40
0.9999999999999999
 40
0.9999999999999999
 40
0.9999999999999999
 40
0.9999999999999999
 10
-9.0
 20
4.874999999999983
 30
0.0
 10
-8.940940778710987
 20
4.895228033593581
 30
0.0
 10
-8.82179572675015
 20
4.936035718845308
 30
0.0
 10
-7.876775815989971
 20
5.001464280752932
 30
0.0
 10
-6.438174874778225
 20
5.062500001960811
 30
0.0
 10
-4.551710793345102
 20
5.123535711335565
 30
0.0
 10
-2.356153664189053
 20
5.188964309153936
 30
0.0
 10
-0.0000177998854653
 20
5.2499998980301
 30
0.0
 10
2.356225482550018
 20
5.311036102270607
 30
0.0
 10
4.551456622873762
 20
5.376462832602562
 30
0.0
 10
6.439100532247565
 20
5.437505300836594
 30
0.0
 10
7.873295175709123
 20
5.498515779765158
 30
0.0
 10
8.77970360990397
 20
5.560275827946645
 30
0.0
 10
8.895532447970606
 20
5.59761719481383
 30
0.0
 10
8.947457614181966
 20
5.614357038824195
 30
0.0
  0
SPLINE
  5
224
330
23
100
AcDbEntity
  8
0
  6
Continuous
 62
     7
370
    25
100
AcDbSpline
210
0.0
220
0.0
230
1.0
 70
     8
 71
     3
 72
    19
 73
    15
 74
     0
 42
0.000000001
 43
0.00000001
 40
0.0
 40
0.0
 40
0.0
 40
0.0
 40
0.0840603930390346
 40
0.1695819836071436
 40
0.2536423766461786
 40
0.3377027696852136
 40
0.4232243602533227
 40
0.5072847532923573
 40
0.5913451463313922
 40
0.6768667368995012
 40
0.7609271299385361
 40
0.8449875229775705
 40
0.9305091135456794
 40
0.9999999999999999
 40
0.9999999999999999
 40
0.9999999999999999
 40
0.9999999999999999
 10
-9.0
 20
6.374999999999985
 30
0.0
 10
-8.940940778710987
 20
6.395228033593575
 30
0.0
 10
-8.82179572675015
 20
6.436035718845303
 30
0.0
 10
-7.876775815989971
 20
6.501464280752933
 30
0.0
 10
-6.438174874778225
 20
6.562500001960806
 30
0.0
 10
-4.551710793345102
 20
6.623535711335567
 30
0.0
 10
-2.356153664189053
 20
6.68896430915393
 30
0.0
 10
-0.0000177998854653
 20
6.749999898030095
 30
0.0
 10
2.356225482550018
 20
6.811036102270601
 30
0.0
 10
4.551456622873762
 20
6.876462832602556
 30
0.0
 10
6.439100532247565
 20
6.937505300836588
 30
0.0
 10
7.873295175709123
 20
6.998515779765152
 30
0.0
 10
8.77970360990397
 20
7.060275827946646
 30
0.0
 10
8.895532447970606
 20
7.097617194813825
 30
0.0
 10
8.947457614181966
 20
7.114357038824195
 30
0.0
  0
SPLINE
  5
225
330
23
100
AcDbEntity
  8
0
  6
Continuous
 62
     7
370
    25
100
AcDbSpline
210
0.0
220
0.0
230
1.0
 70
     8
 71
     3
 72
    19
 73
    15
 74
     0
 42
0.000000001
 43
0.00000001
 40
0.0
 40
0.0
 40
0.0
 40
0.0
 40
0.0840603930390346
 40
0.1695819836071436
 40
0.2536423766461786
 40
0.3377027696852136
 40
0.4232243602533227
 40
0.5072847532923573
 40
0.5913451463313922
 40
0.6768667368995012
 40
0.7609271299385361
 40
0.8449875229775705
 40
0.9305091135456794
 40
0.9999999999999999
 40
0.9999999999999999
 40
0.9999999999999999
 40
0.9999999999999999
 10
-9.0
 20
7.87499999999998
 30
0.0
 10
-8.940940778710987
 20
7.895228033593576
 30
0.0
 10
-8.82179572675015
 20
7.936035718845304
 30
0.0
 10
-7.876775815989971
 20
8.001464280752934
 30
0.0
 10
-6.438174874778225
 20
8.062500001960807
 30
0.0
 10
-4.551710793345102
 20
8.123535711335562
 30
0.0
 10
-2.356153664189053
 20
8.188964309153924
 30
0.0
 10
-0.0000177998854653
 20
8.249999898030088
 30
0.0
 10
2.356225482550018
 20
8.311036102270602
 30
0.0
 10
4.551456622873762
 20
8.37646283260255
 30
0.0
 10
6.439100532247565
 20
8.43750530083659
 30
0.0
 10
7.873295175709123
 20
8.498515779765153
 30
0.0
 10
8.77970360990397
 20
8.560275827946642
 30
0.0
 10
8.895532447970606
 20
8.59761719481382
 30
0.0
 10
8.947457614181966
 20
8.61435703882419
 30
0.0
  0
SPLINE
  5
226
330
23
100
AcDbEntity
  8
0
  6
Continuous
 62
     7
370
    25
100
AcDbSpline
210
0.0
220
0.0
230
1.0
 70
    24
 71
     3
 72
    11
 73
     7
 74
     0
 42
0.000000001
 43
0.00000001
 40
0.0
 40
0.0
 40
0.0
 40
0.0
 40
0.2677091188961104
 40
0.5354851137200393
 40
0.8152802460286886
 40
0.9999999999999999
 40
0.9999999999999999
 40
0.9999999999999999
 40
0.9999999999999999
 10
3.18600028959499
 20
0.0
 30
0.0
 10
4.1580060820292
 20
0.0
 30
0.0
 10
6.102260481895789
 20
0.0
 30
0.0
 10
8.272065867787042
 20
0.0
 30
0.0
 10
9.550485062280604
 20
0.0
 30
0.0
 10
9.551572912984449
 20
0.0
 30
0.0
 10
9.552005509485245
 20
0.0
 30
0.0
  0
SPLINE
  5
227
330
23
100
AcDbEntity
  8
0
  6
Continuous
 62
     7
370
    25
100
AcDbSpline
210
0.0
220
0.0
230
1.0
 70
     8
 71
     3
 72
    19
 73
    15
 74
     0
 42
0.000000001
 43
0.00000001
 40
0.0
 40
0.0
 40
0.0
 40
0.0
 40
0.0839947897524405
 40
0.1694496366709738
 40
0.2534444264234126
 40
0.337439216175852
 40
0.4228940630943858
 40
0.5068888528468252
 40
0.5908836425992657
 40
0.6763384895177988
 40
0.7603332792702377
 40
0.8443280690226772
 40
0.929782915941211
 40
1.0
 40
1.0
 40
1.0
 40
1.0
 10
9.000000000000002
 20
10.01088305742418
 30
0.0
 10
8.940940779158161
 20
9.990655023833153
 30
0.0
 10
8.821795728099447
 20
9.949847338586594
 30
0.0
 10
7.876775810521657
 20
9.884418776639905
 30
0.0
 10
6.438174894880884
 20
9.82338305557852
 30
0.0
 10
4.551710717701853
 20
9.762347345655266
 30
0.0
 10
2.356153949896591
 20
9.696918749906969
 30
0.0
 10
0.0000167544572849
 20
9.635883153405148
 30
0.0
 10
-2.356221550203015
 20
9.574846977680734
 30
0.0
 10
-4.551471475240395
 20
9.509420139737115
 30
0.0
 10
-6.439046186385363
 20
9.448378067917748
 30
0.0
 10
-7.873499596150228
 20
9.387366106599279
 30
0.0
 10
-8.781945798774265
 20
9.325409581224319
 30
0.0
 10
-8.897949769157242
 20
9.28788240761394
 30
0.0
 10
-8.950274298623775
 20
9.27095547231259
 30
0.0
  0
SPLINE
  5
228
330
23
100
AcDbEntity
  8
0
  6
Continuous
 62
     7
370
    25
100
AcDbSpline
210
0.0
220
0.0
230
1.0
 70
     8
 71
     3
 72
    19
 73
    15
 74
     0
 42
0.000000001
 43
0.00000001
 40
0.0
 40
0.0
 40
0.0
 40
0.0
 40
0.0839947897524405
 40
0.1694496366709738
 40
0.2534444264234126
 40
0.337439216175852
 40
0.4228940630943858
 40
0.5068888528468252
 40
0.5908836425992657
 40
0.6763384895177988
 40
0.7603332792702377
 40
0.8443280690226772
 40
0.929782915941211
 40
1.0
 40
1.0
 40
1.0
 40
1.0
 10
9.000000000000002
 20
8.510883057424188
 30
0.0
 10
8.940940779158161
 20
8.490655023833158
 30
0.0
 10
8.821795728099447
 20
8.449847338586599
 30
0.0
 10
7.876775810521657
 20
8.384418776639903
 30
0.0
 10
6.438174894880884
 20
8.323383055578525
 30
0.0
 10
4.551710717701853
 20
8.262347345655265
 30
0.0
 10
2.356153949896591
 20
8.196918749906967
 30
0.0
 10
0.0000167544572849
 20
8.135883153405146
 30
0.0
 10
-2.356221550203015
 20
8.074846977680739
 30
0.0
 10
-4.551471475240395
 20
8.00942013973712
 30
0.0
 10
-6.439046186385363
 20
7.948378067917747
 30
0.0
 10
-7.873499596150228
 20
7.887366106599278
 30
0.0
 10
-8.781945798774265
 20
7.825409581224324
 30
0.0
 10
-8.897949769157242
 20
7.787882407613939
 30
0.0
 10
-8.950274298623775
 20
7.770955472312595
 30
0.0
  0
SPLINE
  5
229
330
23
100
AcDbEntity
  8
0
  6
Continuous
 62
     7
370
    25
100
AcDbSpline
210
0.0
220
0.0
230
1.0
 70
     8
 71
     3
 72
    19
 73
    15
 74
     0
 42
0.000000001
 43
0.00000001
 40
0.0
 40
0.0
 40
0.0
 40
0.0
 40
0.0839947897524405
 40
0.1694496366709737
 40
0.2534444264234125
 40
0.3374392161758519
 40
0.4228940630943857
 40
0.506888852846825
 40
0.5908836425992656
 40
0.6763384895177987
 40
0.7603332792702376
 40
0.844328069022677
 40
0.9297829159412108
 40
1.0
 40
1.0
 40
1.0
 40
1.0
 10
9.0
 20
7.010883057424186
 30
0.0
 10
8.94094077915816
 20
6.990655023833156
 30
0.0
 10
8.821795728099445
 20
6.949847338586598
 30
0.0
 10
7.876775810521661
 20
6.884418776639915
 30
0.0
 10
6.438174894880884
 20
6.823383055578523
 30
0.0
 10
4.551710717701854
 20
6.76234734565527
 30
0.0
 10
2.35615394989659
 20
6.696918749906973
 30
0.0
 10
0.0000167544572852
 20
6.635883153405151
 30
0.0
 10
-2.356221550203015
 20
6.574846977680737
 30
0.0
 10
-4.551471475240394
 20
6.509420139737126
 30
0.0
 10
-6.439046186385363
 20
6.448378067917752
 30
0.0
 10
-7.873499596150228
 20
6.387366106599283
 30
0.0
 10
-8.781945798774261
 20
6.325409581224323
 30
0.0
 10
-8.897949769157243
 20
6.287882407613944
 30
0.0
 10
-8.950274298623775
 20
6.2709554723126
 30
0.0
  0
SPLINE
  5
22A
330
23
100
AcDbEntity
  8
0
  6
Continuous
 62
     7
370
    25
100
AcDbSpline
210
0.0
220
0.0
230
1.0
 70
     8
 71
     3
 72
    19
 73
    15
 74
     0
 42
0.000000001
 43
0.00000001
 40
0.0
 40
0.0
 40
0.0
 40
0.0
 40
0.0839947897524404
 40
0.1694496366709736
 40
0.2534444264234124
 40
0.3374392161758517
 40
0.4228940630943855
 40
0.5068888528468248
 40
0.5908836425992652
 40
0.6763384895177984
 40
0.7603332792702372
 40
0.8443280690226765
 40
0.9297829159412102
 40
1.0
 40
1.0
 40
1.0
 40
1.0
 10
9.0
 20
5.510883057424191
 30
0.0
 10
8.94094077915816
 20
5.490655023833154
 30
0.0
 10
8.821795728099444
 20
5.449847338586597
 30
0.0
 10
7.876775810521661
 20
5.384418776639921
 30
0.0
 10
6.438174894880882
 20
5.323383055578522
 30
0.0
 10
4.551710717701855
 20
5.262347345655276
 30
0.0
 10
2.356153949896589
 20
5.196918749906971
 30
0.0
 10
0.0000167544572899
 20
5.135883153405158
 30
0.0
 10
-2.356221550203021
 20
5.074846977680743
 30
0.0
 10
-4.55147147524039
 20
5.009420139737125
 30
0.0
 10
-6.439046186385363
 20
4.948378067917758
 30
0.0
 10
-7.873499596150228
 20
4.887366106599282
 30
0.0
 10
-8.781945798774267
 20
4.825409581224329
 30
0.0
 10
-8.897949769157243
 20
4.787882407613943
 30
0.0
 10
-8.950274298623777
 20
4.770955472312599
 30
0.0
  0
SPLINE
  5
22B
330
23
100
AcDbEntity
  8
0
  6
Continuous
 62
     7
370
    25
100
AcDbSpline
210
0.0
220
0.0
230
1.0
 70
     8
 71
     3
 72
    19
 73
    15
 74
     0
 42
0.000000001
 43
0.00000001
 40
0.0
 40
0.0
 40
0.0
 40
0.0
 40
0.0839947897524404
 40
0.1694496366709736
 40
0.2534444264234124
 40
0.3374392161758517
 40
0.4228940630943855
 40
0.5068888528468248
 40
0.5908836425992652
 40
0.6763384895177984
 40
0.7603332792702372
 40
0.8443280690226765
 40
0.9297829159412102
 40
1.0
 40
1.0
 40
1.0
 40
1.0
 10
9.0
 20
4.01088305742419
 30
0.0
 10
8.94094077915816
 20
3.99065502383316
 30
0.0
 10
8.821795728099444
 20
3.949847338586596
 30
0.0
 10
7.876775810521661
 20
3.88441877663992
 30
0.0
 10
6.438174894880882
 20
3.823383055578527
 30
0.0
 10
4.551710717701855
 20
3.762347345655281
 30
0.0
 10
2.356153949896589
 20
3.696918749906977
 30
0.0
 10
0.0000167544572899
 20
3.635883153405156
 30
0.0
 10
-2.356221550203021
 20
3.574846977680748
 30
0.0
 10
-4.55147147524039
 20
3.509420139737131
 30
0.0
 10
-6.439046186385363
 20
3.448378067917757
 30
0.0
 10
-7.873499596150228
 20
3.387366106599288
 30
0.0
 10
-8.781945798774267
 20
3.325409581224327
 30
0.0
 10
-8.897949769157243
 20
3.287882407613949
 30
0.0
 10
-8.950274298623777
 20
3.270955472312605
 30
0.0
  0
SPLINE
  5
22C
330
23
100
AcDbEntity
  8
0
  6
Continuous
 62
     7
370
    25
100
AcDbSpline
210
0.0
220
0.0
230
1.0
 70
     8
 71
     3
 72
    19
 73
    15
 74
     0
 42
0.000000001
 43
0.00000001
 40
0.0
 40
0.0
 40
0.0
 40
0.0
 40
0.0839947897524405
 40
0.1694496366709738
 40
0.2534444264234127
 40
0.3374392161758521
 40
0.422894063094386
 40
0.5068888528468254
 40
0.590883642599266
 40
0.6763384895177992
 40
0.7603332792702381
 40
0.8443280690226775
 40
0.9297829159412113
 40
1.0
 40
1.0
 40
1.0
 40
1.0
 10
9.0
 20
2.510883057424196
 30
0.0
 10
8.94094077915816
 20
2.490655023833166
 30
0.0
 10
8.821795728099444
 20
2.449847338586601
 30
0.0
 10
7.876775810521663
 20
2.384418776639925
 30
0.0
 10
6.438174894880883
 20
2.323383055578533
 30
0.0
 10
4.551710717701853
 20
2.26234734565528
 30
0.0
 10
2.356153949896592
 20
2.196918749906983
 30
0.0
 10
0.0000167544572858
 20
2.135883153405162
 30
0.0
 10
-2.356221550203016
 20
2.074846977680747
 30
0.0
 10
-4.551471475240394
 20
2.009420139737137
 30
0.0
 10
-6.439046186385363
 20
1.948378067917762
 30
0.0
 10
-7.873499596150228
 20
1.887366106599293
 30
0.0
 10
-8.78194579877426
 20
1.825409581224333
 30
0.0
 10
-8.89794976915724
 20
1.787882407613954
 30
0.0
 10
-8.950274298623773
 20
1.77095547231261
 30
0.0
  0
SPLINE
  5
22D
330
23
100
AcDbEntity
  8
0
  6
Continuous
 62
     7
370
    25
100
AcDbSpline
210
0.0
220
0.0
230
1.0
 70
     8
 71
     3
 72
    19
 73
    15
 74
     0
 42
0.000000001
 43
0.00000001
 40
0.0
 40
0.0
 40
0.0
 40
0.0
 40
0.0839947897524405
 40
0.1694496366709738
 40
0.2534444264234127
 40
0.3374392161758521
 40
0.422894063094386
 40
0.5068888528468254
 40
0.590883642599266
 40
0.6763384895177992
 40
0.7603332792702381
 40
0.8443280690226775
 40
0.9297829159412113
 40
1.0
 40
1.0
 40
1.0
 40
1.0
 10
9.0
 20
1.010883057424194
 30
0.0
 10
8.94094077915816
 20
0.9906550238331646
 30
0.0
 10
8.821795728099444
 20
0.9498473385866069
 30
0.0
 10
7.876775810521663
 20
0.8844187766399239
 30
0.0
 10
6.438174894880883
 20
0.8233830555785318
 30
0.0
 10
4.551710717701853
 20
0.7623473456552856
 30
0.0
 10
2.356153949896592
 20
0.6969187499069815
 30
0.0
 10
0.0000167544572858
 20
0.6358831534051603
 30
0.0
 10
-2.356221550203016
 20
0.5748469776807528
 30
0.0
 10
-4.551471475240394
 20
0.5094201397371351
 30
0.0
 10
-6.439046186385363
 20
0.4483780679177679
 30
0.0
 10
-7.873499596150228
 20
0.387366106599292
 30
0.0
 10
-8.78194579877426
 20
0.3254095812243382
 30
0.0
 10
-8.89794976915724
 20
0.2878824076139597
 30
0.0
 10
-8.950274298623773
 20
0.270955472312609
 30
0.0
  0
SPLINE
  5
22E
330
23
100
AcDbEntity
  8
0
  6
Continuous
 62
     7
370
    25
100
AcDbSpline
210
0.0
220
0.0
230
1.0
 70
    24
 71
     3
 72
    13
 73
     9
 74
     0
 42
0.000000001
 43
0.00000001
 40
0.0
 40
0.0
 40
0.0
 40
0.0
 40
0.1488058831058911
 40
0.3268013261540959
 40
0.5047723380530471
 40
0.686372044568059
 40
0.8702662852285922
 40
1.0
 40
1.0
 40
1.0
 40
1.0
 10
-9.388883518840725
 20
0.0
 30
0.0
 10
-9.337969469607405
 20
0.0
 30
0.0
 10
-9.226154140387631
 20
0.0
 30
0.0
 10
-7.794441936395485
 20
0.0
 30
0.0
 10
-5.474696182494428
 20
0.0
 30
0.0
 10
-2.474287471580227
 20
0.0
 30
0.0
 10
0.5608540379418803
 20
0.0
 30
0.0
 10
2.417846437032606
 20
0.0
 30
0.0
 10
3.18600028959499
 20
0.0
 30
0.0
  0
LINE
  5
234
330
23
100
AcDbEntity
  8
0
  6
Continuous
 62
     7
370
    25
100
AcDbLine
 10
-12.5
 20
72.0
 30
0.0
 11
-12.5
 21
12.0
 31
0.0
  0
LINE
  5
235
330
23
100
AcDbEntity
  8
0
  6
Continuous
 62
     7
370
    25
100
AcDbLine
 10
12.5
 20
12.0
 30
0.0
 11
12.5
 21
72.0
 31
0.0
  0
LINE
  5
236
330
23
100
AcDbEntity
  8
0
  6
Continuous
 62
     7
370
    25
100
AcDbLine
 10
-8.9914466513
 20
0.2708373477
 30
0.0
 11
-9.4042653809
 21
0.0259359953
 31
0.0
  0
LINE
  5
237
330
23
100
AcDbEntity
  8
0
  6
Continuous
 62
     7
370
    25
100
AcDbLine
 10
9.0
 20
10.0108830574
 30
0.0
 11
9.0
 21
12.0
 31
0.0
  0
LINE
  5
238
330
23
100
AcDbEntity
  8
0
  6
Continuous
 62
     7
370
    25
100
AcDbLine
 10
9.0
 20
8.5108830574
 30
0.0
 11
9.0
 21
8.6198505522
 31
0.0
  0
LINE
  5
239
330
23
100
AcDbEntity
  8
0
  6
Continuous
 62
     7
370
    25
100
AcDbLine
 10
9.0
 20
7.0108830574
 30
0.0
 11
9.0
 21
7.1198505522
 31
0.0
  0
LINE
  5
23A
330
23
100
AcDbEntity
  8
0
  6
Continuous
 62
     7
370
    25
100
AcDbLine
 10
9.0
 20
5.5108830574
 30
0.0
 11
9.0
 21
5.6198505522
 31
0.0
  0
LINE
  5
23B
330
23
100
AcDbEntity
  8
0
  6
Continuous
 62
     7
370
    25
100
AcDbLine
 10
9.0
 20
4.0108830574
 30
0.0
 11
9.0
 21
4.1198505522
 31
0.0
  0
LINE
  5
23C
330
23
100
AcDbEntity
  8
0
  6
Continuous
 62
     7
370
    25
100
AcDbLine
 10
9.0
 20
2.5108830574
 30
0.0
 11
9.0
 21
2.6198505522
 31
0.0
  0
LINE
  5
23D
330
23
100
AcDbEntity
  8
0
  6
Continuous
 62
     7
370
    25
100
AcDbLine
 10
9.0
 20
1.0108830574
 30
0.0
 11
9.0
 21
1.1198505522
 31
0.0
  0
LINE
  5
23E
330
23
100
AcDbEntity
  8
0
  6
Continuous
 62
     7
370
    25
100
AcDbLine
 10
-9.0
 20
0.375
 30
0.0
 11
-9.0
 21
0.2657631432
 31
0.0
  0
LINE
  5
23F
330
23
100
AcDbEntity
  8
0
  6
Continuous
 62
     7
370
    25
100
AcDbLine
 10
-9.0
 20
1.875
 30
0.0
 11
-9.0
 21
1.7657631432
 31
0.0
  0
LINE
  5
240
330
23
100
AcDbEntity
  8
0
  6
Continuous
 62
     7
370
    25
100
AcDbLine
 10
-9.0
 20
3.375
 30
0.0
 11
-9.0
 21
3.2657631432
 31
0.0
  0
LINE
  5
241
330
23
100
AcDbEntity
  8
0
  6
Continuous
 62
     7
370
    25
100
AcDbLine
 10
-9.0
 20
4.875
 30
0.0
 11
-9.0
 21
4.7657631432
 31
0.0
  0
LINE
  5
242
330
23
100
AcDbEntity
  8
0
  6
Continuous
 62
     7
370
    25
100
AcDbLine
 10
-9.0
 20
6.375
 30
0.0
 11
-9.0
 21
6.2657631432
 31
0.0
  0
LINE
  5
243
330
23
100
AcDbEntity
  8
0
  6
Continuous
 62
     7
370
    25
100
AcDbLine
 10
-9.0
 20
7.875
 30
0.0
 11
-9.0
 21
7.7657631432
 31
0.0
  0
LINE
  5
244
330
23
100
AcDbEntity
  8
0
  6
Continuous
 62
     7
370
    25
100
AcDbLine
 10
-9.0
 20
12.0
 30
0.0
 11
-9.0
 21
9.2657631432
 31
0.0
  0
LINE
  5
245
330
23
100
AcDbEntity
  8
0
  6
Continuous
 62
     7
370
    25
100
AcDbLine
 10
-12.5
 20
12.0
 30
0.0
 11
12.5
 21
12.0
 31
0.0
  0
LINE
  5
246
330
23
100
AcDbEntity
  8
0
  6
Continuous
 62
     7
370
    25
100
AcDbLine
 10
10.2
 20
0.2996136882
 30
0.0
 11
10.148804307
 21
0.3087638433
 31
0.0
  0
LINE
  5
247
330
23
100
AcDbEntity
  8
0
  6
Continuous
 62
     8
370
    25
100
AcDbLine
 10
-12.5
 20
32.0
 30
0.0
 11
12.5
 21
32.0
 31
0.0
  0
ARC
  5
248
330
23
100
AcDbEntity
  8
0
  6
Continuous
 62
     7
370
    25
100
AcDbCircle
 10
0.0
 20
72.0
 30
0.0
 40
12.5
100
AcDbArc
 50
0.0
 51
180.0
  0
ARC
  5
249
330
23
100
AcDbEntity
  8
0
  6
Continuous
 62
     7
370
    25
100
AcDbCircle
 10
0.0
 20
72.0
 30
0.0
 40
22.50000000000003
100
AcDbArc
 50
303.7489885959
 51
236.2510114041
  0
VIEWPORT
  5
2E1
330
23
100
AcDbEntity
  8
0
100
AcDbViewport
 10
0.0
 20
0.0
 30
0.0
 40
205.6
 41
156.0
 68
     1
 69
     1
 12
198.7549940155
 22
47.2447452921
 13
0.0
 23
0.0
 14
10.0
 24
10.0
 15
10.0
 25
10.0
 16
0.0
 26
0.0
 36
1.0
 17
0.0
 27
0.0
 37
0.0
 42
50.0
 43
0.0
 44
0.0
 45
326.9931385968
 50
0.0
 51
0.0
 72
   100
 90
   557152
  1

281
     0
 71
     1
 74
     0
110
0.0
120
0.0
130
0.0
111
1.0
121
0.0
131
0.0
112
0.0
122
1.0
132
0.0
 79
     0
146
0.0
  0
ENDBLK
  5
25
330
23
100
AcDbEntity
  8
0
100
AcDbBlockEnd
  0
BLOCK
  5
24C
330
24A
100
AcDbEntity
  8
0
100
AcDbBlockBegin
  2
*Paper_Space1
 70
     0
 10
0.0
 20
0.0
 30
0.0
  3
*Paper_Space1
  1

  0
SPLINE
  5
26A
330
24A
100
AcDbEntity
  8
0
  6
Continuous
 62
     7
370
    25
100
AcDbSpline
210
0.0
220
0.0
230
1.0
 70
     8
 71
     3
 72
    26
 73
    22
 74
     0
 42
0.000000001
 43
0.00000001
 40
0.0
 40
0.0
 40
0.0
 40
0.0
 40
0.027302626775533
 40
0.0787449153329903
 40
0.1298868384785132
 40
0.1809767932887343
 40
0.2323347913969501
 40
0.2846109485528612
 40
0.3388811337257687
 40
0.3969912405245363
 40
0.4626155856999625
 40
0.5459975121340518
 40
0.6235629406886021
 40
0.6806779860090724
 40
0.733383827188735
 40
0.7889852754513382
 40
0.841800351061886
 40
0.8934105440872119
 40
0.9447020014195427
 40
0.9934617147766404
 40
1.0
 40
1.0
 40
1.0
 40
1.0
 10
12.50000000000001
 20
26.129305980344
 30
0.0
 10
12.50352144420619
 20
26.43778082791313
 30
0.0
 10
12.5136778232296
 20
27.32746906025408
 30
0.0
 10
12.62103828898106
 20
28.65570900337534
 30
0.0
 10
12.83814926568322
 20
30.02539988438318
 30
0.0
 10
13.12569205622405
 20
31.16151935489501
 30
0.0
 10
13.4501556511564
 20
32.06167204412353
 30
0.0
 10
13.77809789993881
 20
32.7301553556966
 30
0.0
 10
14.07586991418638
 20
33.18444837584381
 30
0.0
 10
14.31531312556808
 20
33.45565098763124
 30
0.0
 10
14.48542500926825
 20
33.59235636809314
 30
0.0
 10
14.60409511878588
 20
33.65967477348357
 30
0.0
 10
14.85119025942616
 20
33.7483876804968
 30
0.0
 10
15.30475890152039
 20
33.81618398057495
 30
0.0
 10
15.92959337251129
 20
33.82329056111659
 30
0.0
 10
16.77282859701031
 20
33.73068769853511
 30
0.0
 10
17.83618693507832
 20
33.49200029374737
 30
0.0
 10
19.05870622105346
 20
33.09079058324935
 30
0.0
 10
20.39975279972614
 20
32.51830662952389
 30
0.0
 10
21.42183680028767
 20
31.98865838511441
 30
0.0
 10
21.969969451889
 20
31.67433069255925
 30
0.0
 10
22.03477916848645
 20
31.63716543956127
 30
0.0
  0
SPLINE
  5
26B
330
24A
100
AcDbEntity
  8
0
  6
Continuous
 62
     7
370
    25
100
AcDbSpline
210
0.0
220
0.0
230
1.0
 70
     8
 71
     3
 72
    31
 73
    27
 74
     0
 42
0.000000001
 43
0.00000001
 40
0.0
 40
0.0
 40
0.0
 40
0.0
 40
0.0257944744693511
 40
0.0727091705761184
 40
0.1195826372961462
 40
0.1660472105478258
 40
0.211843098376587
 40
0.2567486843037225
 40
0.3006275914559635
 40
0.3434490464702559
 40
0.3852780089351435
 40
0.4262490001000671
 40
0.4665390748198506
 40
0.5063478505471224
 40
0.5458854592267721
 40
0.5853207152878117
 40
0.6248466195999921
 40
0.6646755367668872
 40
0.7050087273095328
 40
0.7460263920340308
 40
0.787872754253476
 40
0.8306370372774348
 40
0.8743345435943015
 40
0.9188959939126302
 40
0.9641743301737633
 40
1.0
 40
1.0
 40
1.0
 40
1.0
 10
34.53376332643726
 20
53.28838699907829
 30
0.0
 10
33.98953097754021
 20
53.59442021646361
 30
0.0
 10
32.45545503674076
 20
54.45706316083788
 30
0.0
 10
29.88825669930603
 20
55.68706339542797
 30
0.0
 10
26.83299284260243
 20
56.88796790824652
 30
0.0
 10
23.76169004063591
 20
57.81132676152707
 30
0.0
 10
20.70462637715283
 20
58.44913951278971
 30
0.0
 10
17.68871098405575
 20
58.7952431651774
 30
0.0
 10
14.73952417786617
 20
58.8510561958543
 30
0.0
 10
11.87922203408845
 20
58.62289079041188
 30
0.0
 10
9.126231512207983
 20
58.12075732814785
 30
0.0
 10
6.49570062528701
 20
57.35666595723779
 30
0.0
 10
4.000268163538934
 20
56.34349649182722
 30
0.0
 10
1.650665586382188
 20
55.0942199773794
 30
0.0
 10
-0.5430972821268698
 20
53.62189245855939
 30
0.0
 10
-2.572270705766072
 20
51.93926009385459
 30
0.0
 10
-4.429772603589593
 20
50.05801488925244
 30
0.0
 10
-6.110391537720555
 20
47.98743069535686
 30
0.0
 10
-7.60961627424242
 20
45.73439691790124
 30
0.0
 10
-8.922589025390199
 20
43.30414964150315
 30
0.0
 10
-10.04372078245525
 20
40.70126080493547
 30
0.0
 10
-10.96599491873704
 20
37.93101517737076
 30
0.0
 10
-11.68315671675585
 20
35.0017518795997
 30
0.0
 10
-12.18339768132953
 20
31.92444236923191
 30
0.0
 10
-12.4566860703845
 20
28.95656253112745
 30
0.0
 10
-12.48672919830524
 20
26.99553911501264
 30
0.0
 10
-12.50000000000001
 20
26.129305980344
 30
0.0
  0
SPLINE
  5
272
330
24A
100
AcDbEntity
  8
0
  6
Continuous
 62
     7
370
    25
100
AcDbSpline
210
0.0
220
0.0
230
1.0
 70
     8
 71
     3
 72
    50
 73
    46
 74
     0
 42
0.000000001
 43
0.00000001
 40
0.0
 40
0.0
 40
0.0
 40
0.0
 40
0.0624999999999976
 40
0.0624999999999976
 40
0.0937499999999964
 40
0.0937499999999964
 40
0.1249999999999952
 40
0.1249999999999952
 40
0.1874999999999928
 40
0.1874999999999928
 40
0.2499999999999904
 40
0.2499999999999904
 40
0.312499999999988
 40
0.312499999999988
 40
0.3437499999999868
 40
0.3437499999999868
 40
0.3749999999999856
 40
0.3749999999999856
 40
0.4374999999999843
 40
0.4374999999999843
 40
0.4687499999999843
 40
0.4687499999999843
 40
0.4999999999999843
 40
0.4999999999999843
 40
0.5624999999999859
 40
0.5624999999999859
 40
0.6249999999999873
 40
0.6249999999999873
 40
0.6562499999999882
 40
0.6562499999999882
 40
0.687499999999989
 40
0.687499999999989
 40
0.7499999999999918
 40
0.7499999999999918
 40
0.7812499999999927
 40
0.7812499999999927
 40
0.8124999999999936
 40
0.8124999999999936
 40
0.8749999999999954
 40
0.8749999999999954
 40
0.9062499999999968
 40
0.9062499999999968
 40
0.9374999999999981
 40
0.9374999999999981
 40
1.0
 40
1.0
 40
1.0
 40
1.0
 10
289.9137802864839
 20
-100.9788949173442
 30
0.0
 10
289.4868474916876
 20
-101.2045764660352
 30
0.0
 10
289.065111215406
 20
-101.4744181102501
 30
0.0
 10
288.4399814709917
 20
-101.9427004390833
 30
0.0
 10
288.2328593630735
 20
-102.1094550845494
 30
0.0
 10
287.8211737438978
 20
-102.4647073698772
 30
0.0
 10
287.6156573214745
 20
-102.6542204346153
 30
0.0
 10
287.0147835263787
 20
-103.2450017116243
 30
0.0
 10
286.6322882318171
 20
-103.670151958587
 30
0.0
 10
285.902828246183
 20
-104.5819305031441
 30
0.0
 10
285.5530508123767
 20
-105.0737635707602
 30
0.0
 10
284.9161484828172
 20
-106.0838080622872
 30
0.0
 10
284.6258087398585
 20
-106.6042104672965
 30
0.0
 10
284.2317024924095
 20
-107.4074664465631
 30
0.0
 10
284.1067601273909
 20
-107.6804627648941
 30
0.0
 10
283.8750302473355
 20
-108.225737742044
 30
0.0
 10
283.7680855403962
 20
-108.4980977212067
 30
0.0
 10
283.4733636488277
 20
-109.3143653044301
 30
0.0
 10
283.3114799158807
 20
-109.8574673604195
 30
0.0
 10
283.1219566884703
 20
-110.6704622018688
 30
0.0
 10
283.0679407127776
 20
-110.9407298401906
 30
0.0
 10
282.9799877360792
 20
-111.4696805666795
 30
0.0
 10
282.9457037313055
 20
-111.7297622913375
 30
0.0
 10
282.8714761297479
 20
-112.4970319133335
 30
0.0
 10
282.8601621731781
 20
-112.9917896952212
 30
0.0
 10
282.91333062987
 20
-113.9447225785704
 30
0.0
 10
282.9773778165882
 20
-114.3897252985185
 30
0.0
 10
283.1275139354406
 20
-115.0118219453877
 30
0.0
 10
283.1866252448434
 20
-115.2115733572304
 30
0.0
 10
283.3232751915172
 20
-115.5955997652409
 30
0.0
 10
283.4012769417365
 20
-115.7807279953637
 30
0.0
 10
283.6599819025638
 20
-116.3042363642659
 30
0.0
 10
283.8647041507883
 20
-116.611430180106
 30
0.0
 10
284.2188713238868
 20
-117.0111815886854
 30
0.0
 10
284.3448209416719
 20
-117.1341984355941
 30
0.0
 10
284.6128568529962
 20
-117.3593125855049
 30
0.0
 10
284.7555496752141
 20
-117.4614892633969
 30
0.0
 10
285.1994826562866
 20
-117.7315217015223
 30
0.0
 10
285.5184698157257
 20
-117.8654441343863
 30
0.0
 10
286.0309487549409
 20
-117.9982789583312
 30
0.0
 10
286.207472446165
 20
-118.0311536913153
 30
0.0
 10
286.5722067977106
 20
-118.0735111977776
 30
0.0
 10
286.7600564827682
 20
-118.0828132746317
 30
0.0
 10
287.3304836110684
 20
-118.0751834540853
 30
0.0
 10
287.7232265038404
 20
-118.0234523932662
 30
0.0
 10
288.1283057882521
 20
-117.925532658737
 30
0.0
  0
SPLINE
  5
273
330
24A
100
AcDbEntity
  8
0
  6
Continuous
 62
     7
370
    25
100
AcDbSpline
210
0.0
220
0.0
230
1.0
 70
     8
 71
     3
 72
    24
 73
    20
 74
     0
 42
0.000000001
 43
0.00000001
 40
0.0
 40
0.0
 40
0.0
 40
0.0
 40
0.0640174518178985
 40
0.1269803350078545
 40
0.1879139726908216
 40
0.249906392236568
 40
0.310840029919535
 40
0.3717736676025019
 40
0.4337660871482481
 40
0.4946997248312152
 40
0.5556333625141818
 40
0.6176257820599285
 40
0.6785594197428955
 40
0.7394930574258625
 40
0.8014854769716091
 40
0.8624191146545757
 40
0.9233527523375428
 40
0.9853451718832892
 40
1.0
 40
1.0
 40
1.0
 40
1.0
 10
288.1283057882441
 20
-117.9255326587396
 30
0.0
 10
287.4682739685697
 20
-118.040042457549
 30
0.0
 10
286.1590831276643
 20
-118.2671757188956
 30
0.0
 10
284.5270447589228
 20
-117.7205447741513
 30
0.0
 10
283.2740021089966
 20
-116.588112651863
 30
0.0
 10
282.4777259568743
 20
-114.8997286696654
 30
0.0
 10
282.1801105141465
 20
-112.7779419648483
 30
0.0
 10
282.391319192147
 20
-110.3615962718998
 30
0.0
 10
283.0955173518112
 20
-107.8094986680667
 30
0.0
 10
284.2468658867245
 20
-105.3002814745032
 30
0.0
 10
285.7578794391809
 20
-102.9988012745805
 30
0.0
 10
287.5234615128328
 20
-101.0595074775013
 30
0.0
 10
289.4237536090813
 20
-99.6189975398533
 30
0.0
 10
291.3248225519856
 20
-98.76528478022983
 30
0.0
 10
293.0880470887216
 20
-98.5610326475395
 30
0.0
 10
294.6075931475455
 20
-99.01175617467356
 30
0.0
 10
295.7270753962147
 20
-100.1163526437204
 30
0.0
 10
296.3439986116491
 20
-101.2689478862781
 30
0.0
 10
296.4131549312746
 20
-102.1374998930653
 30
0.0
 10
296.4263775062294
 20
-102.3035656130758
 30
0.0
  0
SPLINE
  5
274
330
24A
100
AcDbEntity
  8
0
  6
Continuous
 62
     7
370
    25
100
AcDbSpline
210
0.0
220
0.0
230
1.0
 70
     8
 71
     3
 72
    21
 73
    17
 74
     0
 42
0.000000001
 43
0.00000001
 40
0.0
 40
0.0
 40
0.0
 40
0.0
 40
0.0270390595839162
 40
0.1052270520324788
 40
0.1847736377218124
 40
0.2629616301703748
 40
0.3411496226189372
 40
0.4206962083082705
 40
0.498884200756833
 40
0.5770721932053952
 40
0.6566187788947289
 40
0.7348067713432914
 40
0.812994763791854
 40
0.8925413494811878
 40
0.9707293419297497
 40
1.0
 40
1.0
 40
1.0
 40
1.0
 10
284.0561668297209
 20
-117.1693828212197
 30
0.0
 10
283.8699883209637
 20
-117.1213750830056
 30
0.0
 10
283.1454433134893
 20
-116.9345448882893
 30
0.0
 10
282.227899766724
 20
-115.9450386848788
 30
0.0
 10
281.4132114978303
 20
-114.2955686496663
 30
0.0
 10
281.1204746712936
 20
-112.1634707667012
 30
0.0
 10
281.3303803944795
 20
-109.7498798232636
 30
0.0
 10
282.0349259721368
 20
-107.1970443167613
 30
0.0
 10
283.1862055907719
 20
-104.6879861759688
 30
0.0
 10
284.6971509763022
 20
-102.38659994201
 30
0.0
 10
286.463078193849
 20
-100.4467657645776
 30
0.0
 10
288.3620755658038
 20
-99.00829569456141
 30
0.0
 10
290.2679923864362
 20
-98.14694162067386
 30
0.0
 10
292.0129207935021
 20
-97.971529093425
 30
0.0
 10
293.2708210886477
 20
-98.24458617753494
 30
0.0
 10
293.7684437402457
 20
-98.76375609838875
 30
0.0
 10
293.903991156974
 20
-98.90517277503879
 30
0.0
  0
SPLINE
  5
275
330
24A
100
AcDbEntity
  8
0
  6
Continuous
 62
     7
370
    25
100
AcDbSpline
210
0.0
220
0.0
230
1.0
 70
     8
 71
     3
 72
    21
 73
    17
 74
     0
 42
0.000000001
 43
0.00000001
 40
0.0
 40
0.0
 40
0.0
 40
0.0
 40
0.0270390595839163
 40
0.1052270520324789
 40
0.1847736377218125
 40
0.2629616301703749
 40
0.3411496226189373
 40
0.4206962083082706
 40
0.4988842007568331
 40
0.5770721932053952
 40
0.6566187788947289
 40
0.7348067713432914
 40
0.812994763791854
 40
0.8925413494811878
 40
0.9707293419297496
 40
1.0
 40
1.0
 40
1.0
 40
1.0
 10
282.9955066579411
 20
-116.5570767373527
 30
0.0
 10
282.8093281491838
 20
-116.5090689991386
 30
0.0
 10
282.0847831417094
 20
-116.3222388044222
 30
0.0
 10
281.1672395949441
 20
-115.3327326010118
 30
0.0
 10
280.3525513260505
 20
-113.6832625657993
 30
0.0
 10
280.0598144995138
 20
-111.5511646828342
 30
0.0
 10
280.2697202226997
 20
-109.1375737393966
 30
0.0
 10
280.9742658003569
 20
-106.5847382328942
 30
0.0
 10
282.125545418992
 20
-104.0756800921017
 30
0.0
 10
283.6364908045223
 20
-101.7742938581429
 30
0.0
 10
285.4024180220693
 20
-99.83445968071057
 30
0.0
 10
287.3014153940241
 20
-98.3959896106944
 30
0.0
 10
289.2073322146564
 20
-97.53463553680683
 30
0.0
 10
290.9522606217224
 20
-97.35922300955798
 30
0.0
 10
292.2101609168678
 20
-97.63228009366797
 30
0.0
 10
292.7077835684659
 20
-98.15145001452171
 30
0.0
 10
292.8433309851941
 20
-98.29286669117177
 30
0.0
  0
SPLINE
  5
276
330
24A
100
AcDbEntity
  8
0
  6
Continuous
 62
     7
370
    25
100
AcDbSpline
210
0.0
220
0.0
230
1.0
 70
     8
 71
     3
 72
    21
 73
    17
 74
     0
 42
0.000000001
 43
0.00000001
 40
0.0
 40
0.0
 40
0.0
 40
0.0
 40
0.0270390595839175
 40
0.10522705203248
 40
0.1847736377218135
 40
0.2629616301703758
 40
0.3411496226189382
 40
0.4206962083082714
 40
0.4988842007568338
 40
0.5770721932053958
 40
0.6566187788947295
 40
0.734806771343292
 40
0.8129947637918545
 40
0.8925413494811881
 40
0.9707293419297499
 40
1.0
 40
1.0
 40
1.0
 40
1.0
 10
281.9348464861612
 20
-115.9447706534856
 30
0.0
 10
281.748667977404
 20
-115.8967629152716
 30
0.0
 10
281.0241229699296
 20
-115.7099327205552
 30
0.0
 10
280.1065794231641
 20
-114.7204265171447
 30
0.0
 10
279.2918911542708
 20
-113.0709564819323
 30
0.0
 10
278.9991543277339
 20
-110.9388585989671
 30
0.0
 10
279.20906005092
 20
-108.5252676555295
 30
0.0
 10
279.9136056285772
 20
-105.9724321490272
 30
0.0
 10
281.0648852472122
 20
-103.4633740082347
 30
0.0
 10
282.5758306327426
 20
-101.1619877742759
 30
0.0
 10
284.3417578502895
 20
-99.22215359684354
 30
0.0
 10
286.2407552222442
 20
-97.78368352682735
 30
0.0
 10
288.1466720428766
 20
-96.92232945293985
 30
0.0
 10
289.8916004499425
 20
-96.74691692569093
 30
0.0
 10
291.1495007450881
 20
-97.01997400980089
 30
0.0
 10
291.6471233966861
 20
-97.53914393065472
 30
0.0
 10
291.7826708134143
 20
-97.68056060730471
 30
0.0
  0
SPLINE
  5
277
330
24A
100
AcDbEntity
  8
0
  6
Continuous
 62
     7
370
    25
100
AcDbSpline
210
0.0
220
0.0
230
1.0
 70
     8
 71
     3
 72
    21
 73
    17
 74
     0
 42
0.000000001
 43
0.00000001
 40
0.0
 40
0.0
 40
0.0
 40
0.0
 40
0.0270390595839167
 40
0.1052270520324793
 40
0.1847736377218128
 40
0.2629616301703752
 40
0.3411496226189376
 40
0.4206962083082709
 40
0.4988842007568334
 40
0.5770721932053955
 40
0.6566187788947292
 40
0.7348067713432918
 40
0.8129947637918543
 40
0.892541349481188
 40
0.9707293419297499
 40
1.0
 40
1.0
 40
1.0
 40
1.0
 10
280.8741863143814
 20
-115.3324645696186
 30
0.0
 10
280.6880078056241
 20
-115.2844568314045
 30
0.0
 10
279.9634627981498
 20
-115.0976266366882
 30
0.0
 10
279.0459192513844
 20
-114.1081204332776
 30
0.0
 10
278.2312309824908
 20
-112.4586503980652
 30
0.0
 10
277.9384941559541
 20
-110.3265525151001
 30
0.0
 10
278.14839987914
 20
-107.9129615716624
 30
0.0
 10
278.8529454567973
 20
-105.3601260651602
 30
0.0
 10
280.0042250754324
 20
-102.8510679243677
 30
0.0
 10
281.5151704609627
 20
-100.5496816904088
 30
0.0
 10
283.2810976785096
 20
-98.60984751297649
 30
0.0
 10
285.1800950504644
 20
-97.17137744296029
 30
0.0
 10
287.0860118710968
 20
-96.3100233690728
 30
0.0
 10
288.8309402781626
 20
-96.13461084182384
 30
0.0
 10
290.0888405733083
 20
-96.40766792593391
 30
0.0
 10
290.5864632249062
 20
-96.92683784678765
 30
0.0
 10
290.7220106416345
 20
-97.06825452343769
 30
0.0
  0
SPLINE
  5
278
330
24A
100
AcDbEntity
  8
0
  6
Continuous
 62
     7
370
    25
100
AcDbSpline
210
0.0
220
0.0
230
1.0
 70
     8
 71
     3
 72
    21
 73
    17
 74
     0
 42
0.000000001
 43
0.00000001
 40
0.0
 40
0.0
 40
0.0
 40
0.0
 40
0.0270390595839168
 40
0.1052270520324793
 40
0.1847736377218129
 40
0.2629616301703753
 40
0.3411496226189377
 40
0.420696208308271
 40
0.4988842007568334
 40
0.5770721932053955
 40
0.6566187788947292
 40
0.7348067713432918
 40
0.8129947637918543
 40
0.892541349481188
 40
0.9707293419297499
 40
1.0
 40
1.0
 40
1.0
 40
1.0
 10
279.8135261426016
 20
-114.7201584857515
 30
0.0
 10
279.6273476338443
 20
-114.6721507475375
 30
0.0
 10
278.9028026263699
 20
-114.485320552821
 30
0.0
 10
277.9852590796046
 20
-113.4958143494107
 30
0.0
 10
277.1705708107111
 20
-111.8463443141982
 30
0.0
 10
276.8778339841743
 20
-109.7142464312331
 30
0.0
 10
277.0877397073602
 20
-107.3006554877954
 30
0.0
 10
277.7922852850176
 20
-104.7478199812931
 30
0.0
 10
278.9435649036526
 20
-102.2387618405007
 30
0.0
 10
280.454510289183
 20
-99.93737560654185
 30
0.0
 10
282.2204375067298
 20
-97.99754142910942
 30
0.0
 10
284.1194348786846
 20
-96.5590713590933
 30
0.0
 10
286.025351699317
 20
-95.69771728520577
 30
0.0
 10
287.7702801063828
 20
-95.52230475795682
 30
0.0
 10
289.0281804015285
 20
-95.79536184206687
 30
0.0
 10
289.5258030531265
 20
-96.31453176292062
 30
0.0
 10
289.6613504698547
 20
-96.45594843957066
 30
0.0
  0
SPLINE
  5
279
330
24A
100
AcDbEntity
  8
0
  6
Continuous
 62
     7
370
    25
100
AcDbSpline
210
0.0
220
0.0
230
1.0
 70
     8
 71
     3
 72
    21
 73
    17
 74
     0
 42
0.000000001
 43
0.00000001
 40
0.0
 40
0.0
 40
0.0
 40
0.0
 40
0.0270390595839167
 40
0.1052270520324791
 40
0.1847736377218125
 40
0.2629616301703749
 40
0.3411496226189371
 40
0.4206962083082703
 40
0.4988842007568327
 40
0.5770721932053946
 40
0.6566187788947282
 40
0.7348067713432905
 40
0.812994763791853
 40
0.8925413494811866
 40
0.9707293419297484
 40
1.0
 40
1.0
 40
1.0
 40
1.0
 10
278.7528659708218
 20
-114.1078524018845
 30
0.0
 10
278.5666874620645
 20
-114.0598446636704
 30
0.0
 10
277.8421424545901
 20
-113.873014468954
 30
0.0
 10
276.9245989078246
 20
-112.8835082655436
 30
0.0
 10
276.1099106389313
 20
-111.2340382303312
 30
0.0
 10
275.8171738123944
 20
-109.101940347366
 30
0.0
 10
276.0270795355804
 20
-106.6883494039284
 30
0.0
 10
276.7316251132378
 20
-104.1355138974262
 30
0.0
 10
277.8829047318728
 20
-101.6264557566336
 30
0.0
 10
279.3938501174031
 20
-99.32506952267478
 30
0.0
 10
281.15977733495
 20
-97.38523534524246
 30
0.0
 10
283.0587747069048
 20
-95.94676527522624
 30
0.0
 10
284.9646915275371
 20
-95.08541120133872
 30
0.0
 10
286.7096199346029
 20
-94.90999867408978
 30
0.0
 10
287.9675202297487
 20
-95.18305575819987
 30
0.0
 10
288.4651428813465
 20
-95.70222567905357
 30
0.0
 10
288.6006902980749
 20
-95.84364235570361
 30
0.0
  0
SPLINE
  5
27A
330
24A
100
AcDbEntity
  8
0
  6
Continuous
 62
     7
370
    25
100
AcDbSpline
210
0.0
220
0.0
230
1.0
 70
     8
 71
     3
 72
    21
 73
    17
 74
     0
 42
0.000000001
 43
0.00000001
 40
0.0
 40
0.0
 40
0.0
 40
0.0
 40
0.0270390595839147
 40
0.1052270520324774
 40
0.1847736377218111
 40
0.2629616301703737
 40
0.3411496226189363
 40
0.4206962083082697
 40
0.4988842007568324
 40
0.5770721932053946
 40
0.6566187788947284
 40
0.7348067713432911
 40
0.8129947637918539
 40
0.8925413494811877
 40
0.9707293419297496
 40
1.0
 40
1.0
 40
1.0
 40
1.0
 10
277.6922057990419
 20
-113.4955463180174
 30
0.0
 10
277.5060272902847
 20
-113.4475385798034
 30
0.0
 10
276.7814822828104
 20
-113.260708385087
 30
0.0
 10
275.863938736045
 20
-112.2712021816766
 30
0.0
 10
275.0492504671515
 20
-110.6217321464641
 30
0.0
 10
274.7565136406147
 20
-108.489634263499
 30
0.0
 10
274.9664193638006
 20
-106.0760433200613
 30
0.0
 10
275.670964941458
 20
-103.5232078135591
 30
0.0
 10
276.822244560093
 20
-101.0141496727666
 30
0.0
 10
278.3331899456232
 20
-98.71276343880773
 30
0.0
 10
280.0991171631702
 20
-96.77292926137544
 30
0.0
 10
281.998114535125
 20
-95.33445919135926
 30
0.0
 10
283.9040313557574
 20
-94.47310511747175
 30
0.0
 10
285.6489597628232
 20
-94.29769259022278
 30
0.0
 10
286.9068600579689
 20
-94.57074967433282
 30
0.0
 10
287.4044827095668
 20
-95.08991959518656
 30
0.0
 10
287.5400301262951
 20
-95.23133627183662
 30
0.0
  0
SPLINE
  5
27B
330
24A
100
AcDbEntity
  8
0
  6
Continuous
 62
     7
370
    25
100
AcDbSpline
210
0.0
220
0.0
230
1.0
 70
     8
 71
     3
 72
    21
 73
    17
 74
     0
 42
0.000000001
 43
0.00000001
 40
0.0
 40
0.0
 40
0.0
 40
0.0
 40
0.0270390595839147
 40
0.1052270520324774
 40
0.1847736377218111
 40
0.2629616301703737
 40
0.3411496226189363
 40
0.4206962083082697
 40
0.4988842007568324
 40
0.5770721932053946
 40
0.6566187788947284
 40
0.7348067713432911
 40
0.8129947637918539
 40
0.8925413494811877
 40
0.9707293419297496
 40
1.0
 40
1.0
 40
1.0
 40
1.0
 10
276.6315456272621
 20
-112.8832402341504
 30
0.0
 10
276.4453671185049
 20
-112.8352324959364
 30
0.0
 10
275.7208221110305
 20
-112.64840230122
 30
0.0
 10
274.8032785642652
 20
-111.6588960978096
 30
0.0
 10
273.9885902953716
 20
-110.0094260625971
 30
0.0
 10
273.6958534688349
 20
-107.877328179632
 30
0.0
 10
273.9057591920208
 20
-105.4637372361943
 30
0.0
 10
274.6103047696781
 20
-102.9109017296921
 30
0.0
 10
275.7615843883132
 20
-100.4018435888996
 30
0.0
 10
277.2725297738434
 20
-98.10045735494069
 30
0.0
 10
279.0384569913904
 20
-96.16062317750838
 30
0.0
 10
280.9374543633452
 20
-94.7221531074922
 30
0.0
 10
282.8433711839776
 20
-93.8607990336047
 30
0.0
 10
284.5882995910434
 20
-93.68538650635574
 30
0.0
 10
285.8461998861891
 20
-93.95844359046582
 30
0.0
 10
286.3438225377869
 20
-94.4776135113195
 30
0.0
 10
286.4793699545153
 20
-94.61903018796959
 30
0.0
  0
SPLINE
  5
27C
330
24A
100
AcDbEntity
  8
0
  6
Continuous
 62
     7
370
    25
100
AcDbSpline
210
0.0
220
0.0
230
1.0
 70
     8
 71
     3
 72
    21
 73
    17
 74
     0
 42
0.000000001
 43
0.00000001
 40
0.0
 40
0.0
 40
0.0
 40
0.0
 40
0.0270390595839147
 40
0.1052270520324774
 40
0.1847736377218111
 40
0.2629616301703737
 40
0.3411496226189363
 40
0.4206962083082697
 40
0.4988842007568324
 40
0.5770721932053946
 40
0.6566187788947284
 40
0.7348067713432911
 40
0.8129947637918539
 40
0.8925413494811877
 40
0.9707293419297496
 40
1.0
 40
1.0
 40
1.0
 40
1.0
 10
275.5708854554823
 20
-112.2709341502834
 30
0.0
 10
275.3847069467251
 20
-112.2229264120694
 30
0.0
 10
274.6601619392507
 20
-112.0360962173529
 30
0.0
 10
273.7426183924854
 20
-111.0465900139425
 30
0.0
 10
272.9279301235918
 20
-109.3971199787301
 30
0.0
 10
272.635193297055
 20
-107.2650220957649
 30
0.0
 10
272.845099020241
 20
-104.8514311523273
 30
0.0
 10
273.5496445978984
 20
-102.298595645825
 30
0.0
 10
274.7009242165334
 20
-99.78953750503258
 30
0.0
 10
276.2118696020635
 20
-97.48815127107363
 30
0.0
 10
277.9777968196105
 20
-95.54831709364136
 30
0.0
 10
279.8767941915654
 20
-94.10984702362519
 30
0.0
 10
281.7827110121978
 20
-93.24849294973768
 30
0.0
 10
283.5276394192635
 20
-93.07308042248869
 30
0.0
 10
284.7855397144094
 20
-93.34613750659878
 30
0.0
 10
285.2831623660072
 20
-93.86530742745248
 30
0.0
 10
285.4187097827354
 20
-94.00672410410256
 30
0.0
  0
SPLINE
  5
27D
330
24A
100
AcDbEntity
  8
0
  6
Continuous
 62
     7
370
    25
100
AcDbSpline
210
0.0
220
0.0
230
1.0
 70
     8
 71
     3
 72
    21
 73
    17
 74
     0
 42
0.000000001
 43
0.00000001
 40
0.0
 40
0.0
 40
0.0
 40
0.0
 40
0.0271221990032458
 40
0.1055506030782063
 40
0.1853417777823116
 40
0.2637701818572721
 40
0.3421985859322325
 40
0.4219897606363375
 40
0.500418164711298
 40
0.578846568786258
 40
0.6586377434903635
 40
0.7370661475653241
 40
0.8154945516402845
 40
0.8952857263443901
 40
0.9737141304193497
 40
1.0
 40
1.0
 40
1.0
 40
1.0
 10
274.5102252837025
 20
-111.6586280664164
 30
0.0
 10
274.3240467749756
 20
-111.6106203281535
 30
0.0
 10
273.5995017676195
 20
-111.4237901332472
 30
0.0
 10
272.6819582186402
 20
-110.4342839333976
 30
0.0
 10
271.8672699593926
 20
-108.7848138826689
 30
0.0
 10
271.5745330975932
 20
-106.6527160564273
 30
0.0
 10
271.7844389525706
 20
-104.2391249009894
 30
0.0
 10
272.4889840329062
 20
-101.6862901944811
 30
0.0
 10
273.6402654835551
 20
-99.17722910670265
 30
0.0
 10
275.1512040182892
 20
-96.87585389296734
 30
0.0
 10
276.9171570886886
 20
-94.93597812851202
 30
0.0
 10
278.8160592246688
 20
-93.49766125554316
 30
0.0
 10
280.7223321793043
 20
-92.63573430278282
 30
0.0
 10
282.4659166432954
 20
-92.46248364883718
 30
0.0
 10
283.7070575423684
 20
-92.72485571092271
 30
0.0
 10
284.191985344072
 20
-93.22680236119281
 30
0.0
 10
284.3137142021028
 20
-93.3528033706525
 30
0.0
  0
SPLINE
  5
27E
330
24A
100
AcDbEntity
  8
0
  6
Continuous
 62
     7
370
    25
100
AcDbSpline
210
0.0
220
0.0
230
1.0
 70
     8
 71
     3
 72
    11
 73
     7
 74
     0
 42
0.000000001
 43
0.00000001
 40
0.0
 40
0.0
 40
0.0
 40
0.0
 40
0.1060642830658619
 40
0.4127670120449877
 40
0.7247990024806114
 40
1.0
 40
1.0
 40
1.0
 40
1.0
 10
273.4495651119227
 20
-111.0463219825493
 30
0.0
 10
273.2632695826118
 20
-110.9983872273683
 30
0.0
 10
272.5382691699546
 20
-110.8118410584106
 30
0.0
 10
271.6292620999398
 20
-109.8170108504072
 30
0.0
 10
270.8063748434471
 20
-108.2460977289373
 30
0.0
 10
270.6844496106115
 20
-106.8584488530663
 30
0.0
 10
270.6273105424949
 20
-106.20814077658
 30
0.0
  0
SPLINE
  5
27F
330
24A
100
AcDbEntity
  8
0
  6
Continuous
 62
     7
370
    25
100
AcDbSpline
210
0.0
220
0.0
230
1.0
 70
     8
 71
     3
 72
    11
 73
     7
 74
     0
 42
0.000000001
 43
0.00000001
 40
0.0
 40
0.0
 40
0.0
 40
0.0
 40
0.0601903573640662
 40
0.4599580311761055
 40
0.8528979869306873
 40
1.0
 40
1.0
 40
1.0
 40
1.0
 10
279.3379286336031
 20
-92.2700968988369
 30
0.0
 10
279.4336477399559
 20
-92.22527083829611
 30
0.0
 10
280.1651066252662
 20
-91.88272250572804
 30
0.0
 10
281.4003984231145
 20
-91.88733063415097
 30
0.0
 10
282.6646857229186
 20
-92.1184642656513
 30
0.0
 10
283.1619418578969
 20
-92.64003995305248
 30
0.0
 10
283.2973894391758
 20
-92.7821119363685
 30
0.0
  0
SPLINE
  5
280
330
24A
100
AcDbEntity
  8
0
  6
Continuous
 62
     7
370
    25
100
AcDbSpline
210
0.0
220
0.0
230
1.0
 70
     8
 71
     3
 72
     9
 73
     5
 74
     0
 42
0.000000001
 43
0.00000001
 40
0.0
 40
0.0
 40
0.0
 40
0.0
 40
0.2696715093946317
 40
1.0
 40
1.0
 40
1.0
 40
1.0
 10
272.3889049401428
 20
-110.4340158986823
 30
0.0
 10
272.2015952924251
 20
-110.3874040522732
 30
0.0
 10
271.5070108028056
 20
-110.2145572932155
 30
0.0
 10
271.0425035615641
 20
-109.642117832373
 30
0.0
 10
270.7032606891931
 20
-109.2240489849731
 30
0.0
  0
SPLINE
  5
281
330
24A
100
AcDbEntity
  8
0
  6
Continuous
 62
     7
370
    25
100
AcDbSpline
210
0.0
220
0.0
230
1.0
 70
     8
 71
     3
 72
     9
 73
     5
 74
     0
 42
0.000000001
 43
0.00000001
 40
0.0
 40
0.0
 40
0.0
 40
0.0
 40
0.577351735274685
 40
1.0
 40
1.0
 40
1.0
 40
1.0
 10
281.0541993490016
 20
-91.54288081150686
 30
0.0
 10
281.324662701917
 20
-91.58925427006926
 30
0.0
 10
281.7931177811881
 20
-91.66957525246022
 30
0.0
 10
282.1049386980003
 20
-92.02119456163486
 30
0.0
 10
282.2367292673961
 20
-92.16980585250147
 30
0.0
  0
SPLINE
  5
284
330
24A
100
AcDbEntity
  8
0
  6
Continuous
 62
     7
370
    25
100
AcDbSpline
210
0.0
220
0.0
230
1.0
 70
     8
 71
     3
 72
     9
 73
     5
 74
     0
 42
0.000000001
 43
0.00000001
 40
0.0
 40
0.0
 40
0.0
 40
0.0
 40
0.9996421200488264
 40
1.0
 40
1.0
 40
1.0
 40
1.0
 10
270.7069058556659
 20
-109.2545125671806
 30
0.0
 10
271.0077882245752
 20
-109.6643237285614
 30
0.0
 10
271.3087783118022
 20
-110.0742816056472
 30
0.0
 10
271.7631687811513
 20
-110.2185422279859
 30
0.0
 10
271.7633313983902
 20
-110.2185938559704
 30
0.0
  0
SPLINE
  5
285
330
24A
100
AcDbEntity
  8
0
  6
Continuous
 62
     7
370
    25
100
AcDbSpline
210
0.0
220
0.0
230
1.0
 70
     8
 71
     3
 72
     9
 73
     5
 74
     0
 42
0.000000001
 43
0.00000001
 40
0.0
 40
0.0
 40
0.0
 40
0.0
 40
0.5049789304614134
 40
0.9999999999999999
 40
0.9999999999999999
 40
0.9999999999999999
 40
0.9999999999999999
 10
282.7927127798187
 20
-92.33791919933009
 30
0.0
 10
282.3191275239845
 20
-92.13356287784607
 30
0.0
 10
281.3812958100921
 20
-91.72888001058799
 30
0.0
 10
280.1951658381691
 20
-91.96861226688235
 30
0.0
 10
279.608006510856
 20
-92.08728478479603
 30
0.0
  0
SPLINE
  5
286
330
24A
100
AcDbEntity
  8
0
  6
Continuous
 62
     7
370
    25
100
AcDbSpline
210
0.0
220
0.0
230
1.0
 70
     8
 71
     3
 72
    11
 73
     7
 74
     0
 42
0.000000001
 43
0.00000001
 40
0.0
 40
0.0
 40
0.0
 40
0.0
 40
0.2710341463098844
 40
0.6385998592808116
 40
0.999887838407439
 40
1.0
 40
1.0
 40
1.0
 40
1.0
 10
270.5896210694102
 20
-106.4684836883837
 30
0.0
 10
270.6390341485268
 20
-107.0113818663302
 30
0.0
 10
270.7554592772428
 20
-108.2905369276412
 30
0.0
 10
271.5631193782145
 20
-109.7464903529782
 30
0.0
 10
272.2998584357287
 20
-110.6644891365351
 30
0.0
 10
272.8238289543843
 20
-110.8308483097806
 30
0.0
 10
272.82399157017
 20
-110.8308999398374
 30
0.0
  0
SPLINE
  5
287
330
24A
100
AcDbEntity
  8
0
  6
Continuous
 62
     7
370
    25
100
AcDbSpline
210
0.0
220
0.0
230
1.0
 70
     8
 71
     3
 72
    20
 73
    16
 74
     0
 42
0.000000001
 43
0.00000001
 40
0.0
 40
0.0
 40
0.0
 40
0.0
 40
0.0828277248424575
 40
0.1671208315718632
 40
0.2499742782072458
 40
0.3328277248424045
 40
0.4171208315719235
 40
0.4999742782072455
 40
0.5828277248425133
 40
0.6671208315719743
 40
0.7499742782072456
 40
0.8328277248425112
 40
0.9171208315719733
 40
0.9999742782072456
 40
1.0
 40
1.0
 40
1.0
 40
1.0
 10
283.8533729515985
 20
-92.95022528319711
 30
0.0
 10
283.3778941955592
 20
-92.75519369231263
 30
0.0
 10
282.4185245490406
 20
-92.36168002628598
 30
0.0
 10
280.6325569592575
 20
-92.60338852155775
 30
0.0
 10
278.7375642356876
 20
-93.44716746612204
 30
0.0
 10
276.835644279334
 20
-94.89033982358758
 30
0.0
 10
275.0705153507989
 20
-96.82888840595128
 30
0.0
 10
273.5593402960671
 20
-99.1306488618708
 30
0.0
 10
272.4081899191909
 20
-101.6394814136223
 30
0.0
 10
271.7033534248063
 20
-104.1928516026723
 30
0.0
 10
271.4944672208816
 20
-106.6045568008349
 30
0.0
 10
271.7834056001052
 20
-108.7436838298856
 30
0.0
 10
272.612424285807
 20
-110.36663406356
 30
0.0
 10
273.3605191901875
 20
-111.2767948182779
 30
0.0
 10
273.8844891263449
 20
-111.4431543935228
 30
0.0
 10
273.8846517419498
 20
-111.4432060237044
 30
0.0
  0
SPLINE
  5
288
330
24A
100
AcDbEntity
  8
0
  6
Continuous
 62
     7
370
    25
100
AcDbSpline
210
0.0
220
0.0
230
1.0
 70
     8
 71
     3
 72
    20
 73
    16
 74
     0
 42
0.000000001
 43
0.00000001
 40
0.0
 40
0.0
 40
0.0
 40
0.0
 40
0.0828277248424575
 40
0.1671208315718632
 40
0.2499742782072458
 40
0.3328277248424045
 40
0.4171208315719235
 40
0.4999742782072455
 40
0.5828277248425133
 40
0.6671208315719743
 40
0.7499742782072456
 40
0.8328277248425112
 40
0.9171208315719733
 40
0.9999742782072456
 40
1.0
 40
1.0
 40
1.0
 40
1.0
 10
284.9140331233784
 20
-93.56253136706415
 30
0.0
 10
284.438554367339
 20
-93.36749977617966
 30
0.0
 10
283.4791847208204
 20
-92.973986110153
 30
0.0
 10
281.6932171310373
 20
-93.21569460542479
 30
0.0
 10
279.7982244074674
 20
-94.05947354998902
 30
0.0
 10
277.8963044511138
 20
-95.50264590745464
 30
0.0
 10
276.1311755225787
 20
-97.44119448981827
 30
0.0
 10
274.620000467847
 20
-99.74295494573786
 30
0.0
 10
273.4688500909707
 20
-102.2517874974894
 30
0.0
 10
272.7640135965859
 20
-104.8051576865392
 30
0.0
 10
272.5551273926624
 20
-107.2168628847025
 30
0.0
 10
272.8440657718815
 20
-109.3559899137506
 30
0.0
 10
273.6730844575997
 20
-110.9789401474345
 30
0.0
 10
274.4211793619403
 20
-111.8891009021293
 30
0.0
 10
274.9451492981247
 20
-112.0554604773899
 30
0.0
 10
274.9453119137296
 20
-112.0555121075715
 30
0.0
  0
SPLINE
  5
289
330
24A
100
AcDbEntity
  8
0
  6
Continuous
 62
     7
370
    25
100
AcDbSpline
210
0.0
220
0.0
230
1.0
 70
     8
 71
     3
 72
    20
 73
    16
 74
     0
 42
0.000000001
 43
0.00000001
 40
0.0
 40
0.0
 40
0.0
 40
0.0
 40
0.0828277248424575
 40
0.1671208315718632
 40
0.2499742782072458
 40
0.3328277248424045
 40
0.4171208315719235
 40
0.4999742782072455
 40
0.5828277248425133
 40
0.6671208315719743
 40
0.7499742782072456
 40
0.8328277248425112
 40
0.9171208315719733
 40
0.9999742782072456
 40
1.0
 40
1.0
 40
1.0
 40
1.0
 10
285.9746932951582
 20
-94.17483745093118
 30
0.0
 10
285.4992145391188
 20
-93.97980586004668
 30
0.0
 10
284.5398448926002
 20
-93.58629219402
 30
0.0
 10
282.7538773028172
 20
-93.82800068929184
 30
0.0
 10
280.8588845792472
 20
-94.67177963385605
 30
0.0
 10
278.9569646228936
 20
-96.11495199132165
 30
0.0
 10
277.1918356943586
 20
-98.05350057368534
 30
0.0
 10
275.6806606396268
 20
-100.3552610296049
 30
0.0
 10
274.5295102627505
 20
-102.8640935813564
 30
0.0
 10
273.824673768366
 20
-105.4174637704064
 30
0.0
 10
273.6157875644411
 20
-107.8291689685689
 30
0.0
 10
273.9047259436659
 20
-109.9682959976203
 30
0.0
 10
274.7337446293623
 20
-111.5912462312916
 30
0.0
 10
275.4818395337563
 20
-112.5014069860173
 30
0.0
 10
276.0058094699045
 20
-112.6677665612569
 30
0.0
 10
276.0059720855095
 20
-112.6678181914385
 30
0.0
  0
SPLINE
  5
28A
330
24A
100
AcDbEntity
  8
0
  6
Continuous
 62
     7
370
    25
100
AcDbSpline
210
0.0
220
0.0
230
1.0
 70
     8
 71
     3
 72
    20
 73
    16
 74
     0
 42
0.000000001
 43
0.00000001
 40
0.0
 40
0.0
 40
0.0
 40
0.0
 40
0.0828277248424575
 40
0.1671208315718632
 40
0.2499742782072458
 40
0.3328277248424045
 40
0.4171208315719235
 40
0.4999742782072455
 40
0.5828277248425133
 40
0.6671208315719743
 40
0.7499742782072456
 40
0.8328277248425112
 40
0.9171208315719733
 40
0.9999742782072456
 40
1.0
 40
1.0
 40
1.0
 40
1.0
 10
287.035353466938
 20
-94.7871435347982
 30
0.0
 10
286.5598747108987
 20
-94.59211194391375
 30
0.0
 10
285.6005050643801
 20
-94.1985982778871
 30
0.0
 10
283.8145374745969
 20
-94.44030677315884
 30
0.0
 10
281.9195447510271
 20
-95.2840857177231
 30
0.0
 10
280.0176247946734
 20
-96.7272580751887
 30
0.0
 10
278.2524958661384
 20
-98.66580665755237
 30
0.0
 10
276.7413208114067
 20
-100.9675671134719
 30
0.0
 10
275.5901704345303
 20
-103.4763996652234
 30
0.0
 10
274.8853339401457
 20
-106.0297698542733
 30
0.0
 10
274.6764477362217
 20
-108.4414750524364
 30
0.0
 10
274.9653861154424
 20
-110.5806020814854
 30
0.0
 10
275.794404801155
 20
-112.203552315166
 30
0.0
 10
276.5424997055091
 20
-113.1137130698687
 30
0.0
 10
277.0664696416844
 20
-113.2800726451239
 30
0.0
 10
277.0666322572893
 20
-113.2801242753055
 30
0.0
  0
SPLINE
  5
28B
330
24A
100
AcDbEntity
  8
0
  6
Continuous
 62
     7
370
    25
100
AcDbSpline
210
0.0
220
0.0
230
1.0
 70
     8
 71
     3
 72
    20
 73
    16
 74
     0
 42
0.000000001
 43
0.00000001
 40
0.0
 40
0.0
 40
0.0
 40
0.0
 40
0.0828277248424576
 40
0.1671208315718633
 40
0.2499742782072458
 40
0.3328277248424045
 40
0.4171208315719235
 40
0.4999742782072455
 40
0.5828277248425133
 40
0.6671208315719743
 40
0.7499742782072456
 40
0.8328277248425112
 40
0.9171208315719733
 40
0.9999742782072456
 40
1.0
 40
1.0
 40
1.0
 40
1.0
 10
288.0960136387178
 20
-95.39944961866524
 30
0.0
 10
287.6205348826784
 20
-95.20441802778072
 30
0.0
 10
286.66116523616
 20
-94.81090436175414
 30
0.0
 10
284.8751976463768
 20
-95.05261285702589
 30
0.0
 10
282.9802049228068
 20
-95.89639180159014
 30
0.0
 10
281.0782849664532
 20
-97.3395641590557
 30
0.0
 10
279.3131560379182
 20
-99.27811274141945
 30
0.0
 10
277.8019809831864
 20
-101.5798731973389
 30
0.0
 10
276.6508306063102
 20
-104.0887057490905
 30
0.0
 10
275.9459941119253
 20
-106.6420759381402
 30
0.0
 10
275.7371079080024
 20
-109.053781136304
 30
0.0
 10
276.0260462872188
 20
-111.1929081653504
 30
0.0
 10
276.8550649729477
 20
-112.8158583990404
 30
0.0
 10
277.6031598772619
 20
-113.7260191537201
 30
0.0
 10
278.1271298134641
 20
-113.892378728991
 30
0.0
 10
278.1272924290691
 20
-113.8924303591726
 30
0.0
  0
SPLINE
  5
28C
330
24A
100
AcDbEntity
  8
0
  6
Continuous
 62
     7
370
    25
100
AcDbSpline
210
0.0
220
0.0
230
1.0
 70
     8
 71
     3
 72
    20
 73
    16
 74
     0
 42
0.000000001
 43
0.00000001
 40
0.0
 40
0.0
 40
0.0
 40
0.0
 40
0.0828277248424576
 40
0.1671208315718633
 40
0.2499742782072458
 40
0.3328277248424045
 40
0.4171208315719235
 40
0.4999742782072455
 40
0.5828277248425133
 40
0.6671208315719743
 40
0.7499742782072456
 40
0.8328277248425112
 40
0.9171208315719733
 40
0.9999742782072456
 40
1.0
 40
1.0
 40
1.0
 40
1.0
 10
289.1566738104976
 20
-96.01175570253227
 30
0.0
 10
288.6811950544583
 20
-95.81672411164779
 30
0.0
 10
287.7218254079398
 20
-95.42321044562118
 30
0.0
 10
285.9358578181566
 20
-95.66491894089292
 30
0.0
 10
284.0408650945866
 20
-96.50869788545714
 30
0.0
 10
282.138945138233
 20
-97.95187024292271
 30
0.0
 10
280.3738162096979
 20
-99.89041882528643
 30
0.0
 10
278.8626411549662
 20
-102.1921792812059
 30
0.0
 10
277.71149077809
 20
-104.7010118329575
 30
0.0
 10
277.0066542837047
 20
-107.2543820220071
 30
0.0
 10
276.7977680797831
 20
-109.6660872201715
 30
0.0
 10
277.0867064589952
 20
-111.8052142492155
 30
0.0
 10
277.9157251447402
 20
-113.4281644829148
 30
0.0
 10
278.6638200490147
 20
-114.3383252375716
 30
0.0
 10
279.187789985244
 20
-114.504684812858
 30
0.0
 10
279.1879526008489
 20
-114.5047364430396
 30
0.0
  0
SPLINE
  5
28D
330
24A
100
AcDbEntity
  8
0
  6
Continuous
 62
     7
370
    25
100
AcDbSpline
210
0.0
220
0.0
230
1.0
 70
     8
 71
     3
 72
    20
 73
    16
 74
     0
 42
0.000000001
 43
0.00000001
 40
0.0
 40
0.0
 40
0.0
 40
0.0
 40
0.0828277248424576
 40
0.1671208315718633
 40
0.2499742782072458
 40
0.3328277248424045
 40
0.4171208315719235
 40
0.4999742782072455
 40
0.5828277248425133
 40
0.6671208315719743
 40
0.7499742782072456
 40
0.8328277248425112
 40
0.9171208315719733
 40
0.9999742782072456
 40
1.0
 40
1.0
 40
1.0
 40
1.0
 10
290.2173339822774
 20
-96.62406178639928
 30
0.0
 10
289.7418552262381
 20
-96.42903019551478
 30
0.0
 10
288.7824855797196
 20
-96.03551652948818
 30
0.0
 10
286.9965179899364
 20
-96.27722502475996
 30
0.0
 10
285.1015252663664
 20
-97.12100396932412
 30
0.0
 10
283.1996053100129
 20
-98.56417632678976
 30
0.0
 10
281.4344763814778
 20
-100.5027249091535
 30
0.0
 10
279.923301326746
 20
-102.804485365073
 30
0.0
 10
278.77215094987
 20
-105.3133179168246
 30
0.0
 10
278.0673144554843
 20
-107.866688105874
 30
0.0
 10
277.8584282515639
 20
-110.278393304039
 30
0.0
 10
278.1473666307717
 20
-112.4175203330806
 30
0.0
 10
278.9763853165327
 20
-114.0404705667892
 30
0.0
 10
279.7244802207675
 20
-114.950631321423
 30
0.0
 10
280.2484501570238
 20
-115.116990896725
 30
0.0
 10
280.2486127726287
 20
-115.1170425269066
 30
0.0
  0
SPLINE
  5
28E
330
24A
100
AcDbEntity
  8
0
  6
Continuous
 62
     7
370
    25
100
AcDbSpline
210
0.0
220
0.0
230
1.0
 70
     8
 71
     3
 72
    20
 73
    16
 74
     0
 42
0.000000001
 43
0.00000001
 40
0.0
 40
0.0
 40
0.0
 40
0.0
 40
0.0828277248424575
 40
0.1671208315718632
 40
0.2499742782072457
 40
0.3328277248424045
 40
0.4171208315719234
 40
0.4999742782072454
 40
0.5828277248425132
 40
0.6671208315719742
 40
0.7499742782072454
 40
0.832827724842511
 40
0.9171208315719731
 40
0.9999742782072454
 40
1.0
 40
1.0
 40
1.0
 40
1.0
 10
291.2779941540572
 20
-97.23636787026633
 30
0.0
 10
290.802515398018
 20
-97.04133627938184
 30
0.0
 10
289.8431457514994
 20
-96.64782261335523
 30
0.0
 10
288.0571781617161
 20
-96.88953110862691
 30
0.0
 10
286.1621854381463
 20
-97.73331005319122
 30
0.0
 10
284.2602654817925
 20
-99.17648241065672
 30
0.0
 10
282.4951365532576
 20
-101.1150309930205
 30
0.0
 10
280.9839614985258
 20
-103.41679144894
 30
0.0
 10
279.83281112165
 20
-105.9256240006918
 30
0.0
 10
279.1279746272633
 20
-108.4789941897406
 30
0.0
 10
278.9190884233466
 20
-110.8906993879074
 30
0.0
 10
279.2080268025404
 20
-113.0298264169428
 30
0.0
 10
280.0370454883542
 20
-114.6527766506745
 30
0.0
 10
280.785140392459
 20
-115.5629374052512
 30
0.0
 10
281.3091103288037
 20
-115.7292969805921
 30
0.0
 10
281.3092729444086
 20
-115.7293486107737
 30
0.0
  0
SPLINE
  5
28F
330
24A
100
AcDbEntity
  8
0
  6
Continuous
 62
     7
370
    25
100
AcDbSpline
210
0.0
220
0.0
230
1.0
 70
     8
 71
     3
 72
    20
 73
    16
 74
     0
 42
0.000000001
 43
0.00000001
 40
0.0
 40
0.0
 40
0.0
 40
0.0
 40
0.0828277248424575
 40
0.1671208315718632
 40
0.2499742782072457
 40
0.3328277248424045
 40
0.4171208315719234
 40
0.4999742782072454
 40
0.5828277248425132
 40
0.6671208315719742
 40
0.7499742782072454
 40
0.832827724842511
 40
0.9171208315719731
 40
0.9999742782072454
 40
1.0
 40
1.0
 40
1.0
 40
1.0
 10
292.3386543258371
 20
-97.84867395413336
 30
0.0
 10
291.8631755697978
 20
-97.65364236324888
 30
0.0
 10
290.9038059232793
 20
-97.2601286972223
 30
0.0
 10
289.1178383334958
 20
-97.50183719249392
 30
0.0
 10
287.2228456099262
 20
-98.3456161370583
 30
0.0
 10
285.3209256535723
 20
-99.78878849452377
 30
0.0
 10
283.5557967250375
 20
-101.7273370768876
 30
0.0
 10
282.0446216703056
 20
-104.029097532807
 30
0.0
 10
280.89347129343
 20
-106.5379300845589
 30
0.0
 10
280.1886347990427
 20
-109.0913002736074
 30
0.0
 10
279.9797485951276
 20
-111.5030054717751
 30
0.0
 10
280.2686869743157
 20
-113.6421325008072
 30
0.0
 10
281.0977056601512
 20
-115.2650827345514
 30
0.0
 10
281.8458005642026
 20
-116.1752434890974
 30
0.0
 10
282.3697705005835
 20
-116.3416030644591
 30
0.0
 10
282.3699331161883
 20
-116.3416546946407
 30
0.0
  0
SPLINE
  5
290
330
24A
100
AcDbEntity
  8
0
  6
Continuous
 62
     7
370
    25
100
AcDbSpline
210
0.0
220
0.0
230
1.0
 70
     8
 71
     3
 72
    20
 73
    16
 74
     0
 42
0.000000001
 43
0.00000001
 40
0.0
 40
0.0
 40
0.0
 40
0.0
 40
0.0828277248424575
 40
0.1671208315718632
 40
0.2499742782072457
 40
0.3328277248424045
 40
0.4171208315719234
 40
0.4999742782072454
 40
0.5828277248425132
 40
0.6671208315719742
 40
0.7499742782072454
 40
0.832827724842511
 40
0.9171208315719731
 40
0.9999742782072454
 40
1.0
 40
1.0
 40
1.0
 40
1.0
 10
293.3993144976169
 20
-98.4609800380004
 30
0.0
 10
292.9238357415776
 20
-98.26594844711593
 30
0.0
 10
291.9644660950592
 20
-97.87243478108932
 30
0.0
 10
290.1784985052757
 20
-98.11414327636095
 30
0.0
 10
288.283505781706
 20
-98.95792222092531
 30
0.0
 10
286.3815858253521
 20
-100.4010945783908
 30
0.0
 10
284.6164568968173
 20
-102.3396431607546
 30
0.0
 10
283.1052818420853
 20
-104.641403616674
 30
0.0
 10
281.9541314652099
 20
-107.150236168426
 30
0.0
 10
281.2492949708222
 20
-109.7036063574743
 30
0.0
 10
281.0404087669086
 20
-112.1153115556428
 30
0.0
 10
281.329347146091
 20
-114.2544385846716
 30
0.0
 10
282.1583658319481
 20
-115.8773888184284
 30
0.0
 10
282.9064607359463
 20
-116.7875495729436
 30
0.0
 10
283.4304306723633
 20
-116.9539091483261
 30
0.0
 10
283.4305932879682
 20
-116.9539607785077
 30
0.0
  0
SPLINE
  5
291
330
24A
100
AcDbEntity
  8
0
  6
Continuous
 62
     7
370
    25
100
AcDbSpline
210
0.0
220
0.0
230
1.0
 70
     8
 71
     3
 72
    20
 73
    16
 74
     0
 42
0.000000001
 43
0.00000001
 40
0.0
 40
0.0
 40
0.0
 40
0.0
 40
0.0828277248424576
 40
0.1671208315718634
 40
0.2499742782072459
 40
0.3328277248424047
 40
0.4171208315719236
 40
0.4999742782072458
 40
0.5828277248425137
 40
0.6671208315719747
 40
0.7499742782072459
 40
0.8328277248425116
 40
0.9171208315719738
 40
0.999974278207246
 40
1.0
 40
1.0
 40
1.0
 40
1.0
 10
294.4599746693967
 20
-99.0732861218674
 30
0.0
 10
293.9844959133575
 20
-98.87825453098296
 30
0.0
 10
293.0251262668389
 20
-98.48474086495635
 30
0.0
 10
291.2391586770556
 20
-98.72644936022806
 30
0.0
 10
289.3441659534858
 20
-99.57022830479232
 30
0.0
 10
287.442245997132
 20
-101.0134006622579
 30
0.0
 10
285.6771170685971
 20
-102.9519492446216
 30
0.0
 10
284.1659420138652
 20
-105.253709700541
 30
0.0
 10
283.0147916369894
 20
-107.7625422522928
 30
0.0
 10
282.3099551426027
 20
-110.3159124413417
 30
0.0
 10
282.1010689386866
 20
-112.7276176395088
 30
0.0
 10
282.3900073178778
 20
-114.8667446685427
 30
0.0
 10
283.2190260037013
 20
-116.4896949022801
 30
0.0
 10
283.9671209077822
 20
-117.3998556568427
 30
0.0
 10
284.4910908441432
 20
-117.5662152321932
 30
0.0
 10
284.491253459748
 20
-117.5662668623748
 30
0.0
  0
LWPOLYLINE
  5
292
330
24A
100
AcDbEntity
  8
0
  6
Continuous
 62
     7
370
    25
100
AcDbPolyline
 90
       32
 70
   128
 43
0.0
 10
289.9137802865
 20
-102.4486683787
 10
290.981326901
 20
-101.957746624
 10
292.0051680316
 20
-101.7376428395
 10
292.9433875023
 20
-101.7973680999
 10
293.7575744975
 20
-102.1344772461
 10
294.4143961062
 20
-102.73516899
 10
294.8869619743
 20
-103.574850941
 10
295.1559251999
 20
-104.6191464215
 10
295.2102743968
 20
-105.8253018517
 10
295.0477845024
 20
-107.1439370866
 10
294.6751078723
 20
-108.5210670448
 10
294.1075019314
 20
-109.900311864
 10
293.3682045336
 20
-111.2252050992
 10
292.4874826012
 20
-112.4415054657
 10
291.5013929937
 20
-113.4994174835
 10
290.4503063354
 20
-114.3556301105
 10
289.3772542376
 20
-114.9750899009
 10
288.3261675793
 20
-115.3324360983
 10
287.3400779718
 20
-115.4130389074
 10
286.4593560394
 20
-115.2135984395
 10
285.7200586416
 20
-114.742279811
 10
285.1524527007
 20
-114.0183788619
 10
284.7797760705
 20
-113.071532182
 10
284.6172861762
 20
-111.9405037857
 10
284.6716353731
 20
-110.6715981085
 10
284.9405985986
 20
-109.3167642978
 10
285.4131644668
 20
-107.931469409
 10
286.0699860754
 20
-106.5724275777
 10
286.8841730707
 20
-105.2952781361
 10
287.8223925413
 20
-104.1523077324
 10
288.846233672
 20
-103.1903097093
 10
289.9137802865
 20
-102.4486683787
  0
SPLINE
  5
293
330
24A
100
AcDbEntity
  8
0
  6
Continuous
 62
     7
370
    25
100
AcDbSpline
210
0.0
220
0.0
230
1.0
 70
     8
 71
     3
 72
    50
 73
    46
 74
     0
 42
0.000000001
 43
0.00000001
 40
0.0
 40
0.0
 40
0.0
 40
0.0
 40
0.0625000000000006
 40
0.0625000000000006
 40
0.0937500000000007
 40
0.0937500000000007
 40
0.1250000000000009
 40
0.1250000000000009
 40
0.1875000000000016
 40
0.1875000000000016
 40
0.2500000000000023
 40
0.2500000000000023
 40
0.3125000000000031
 40
0.3125000000000031
 40
0.3437500000000034
 40
0.3437500000000034
 40
0.3750000000000037
 40
0.3750000000000037
 40
0.4375000000000043
 40
0.4375000000000043
 40
0.468750000000004
 40
0.468750000000004
 40
0.5000000000000037
 40
0.5000000000000037
 40
0.562500000000003
 40
0.562500000000003
 40
0.6250000000000023
 40
0.6250000000000023
 40
0.6562500000000019
 40
0.6562500000000019
 40
0.6875000000000016
 40
0.6875000000000016
 40
0.7500000000000008
 40
0.7500000000000008
 40
0.7812500000000009
 40
0.7812500000000009
 40
0.8125000000000011
 40
0.8125000000000011
 40
0.8750000000000006
 40
0.8750000000000006
 40
0.9062500000000002
 40
0.9062500000000002
 40
0.9375
 40
0.9375
 40
1.0
 40
1.0
 40
1.0
 40
1.0
 10
289.9137802864839
 20
-100.9788949173442
 30
0.0
 10
290.3407130812805
 20
-100.7116503533907
 30
0.0
 10
290.7624493575624
 20
-100.494565657529
 30
0.0
 10
291.3875791019775
 20
-100.2410885465428
 30
0.0
 10
291.5947012098961
 20
-100.1687050964042
 30
0.0
 10
292.0063868290722
 20
-100.0486352833469
 30
0.0
 10
292.2119032514956
 20
-100.0008641374914
 30
0.0
 10
292.8127770465919
 20
-99.89789129765457
 30
0.0
 10
293.195272341154
 20
-99.88142187765544
 30
0.0
 10
293.9247323267885
 20
-99.95098384988411
 30
0.0
 10
294.274509760595
 20
-100.0389724884986
 30
0.0
 10
294.9114120901548
 20
-100.3136652027197
 30
0.0
 10
295.2017518331133
 20
-100.4988484758495
 30
0.0
 10
295.5958580805624
 20
-100.8470790673003
 30
0.0
 10
295.7208004455813
 20
-100.9758200015431
 30
0.0
 10
295.9525303256365
 20
-101.2535453541358
 30
0.0
 10
296.0594750325755
 20
-101.4024296029217
 30
0.0
 10
296.3541969241438
 20
-101.878418533176
 30
0.0
 10
296.5160806570903
 20
-102.2346136095329
 30
0.0
 10
296.7056038845002
 20
-102.8287895903059
 30
0.0
 10
296.7596198601929
 20
-103.0366917105807
 30
0.0
 10
296.8475728368907
 20
-103.4640940916917
 30
0.0
 10
296.8818568416639
 20
-103.6845923469965
 30
0.0
 10
296.9560844432205
 20
-104.3661606044405
 30
0.0
 10
296.9673983997899
 20
-104.8478555701234
 30
0.0
 10
296.9142299430966
 20
-105.8621754469116
 30
0.0
 10
296.8501827563774
 20
-106.3811254746326
 30
0.0
 10
296.7000466375239
 20
-107.1765655946102
 30
0.0
 10
296.6409353281206
 20
-107.4445654715809
 30
0.0
 10
296.5042853814459
 20
-107.9863645497361
 30
0.0
 10
296.4262836312261
 20
-108.2615516837044
 30
0.0
 10
296.1675786703976
 20
-109.0837544424895
 30
0.0
 10
295.9628564221721
 20
-109.6273155349114
 30
0.0
 10
295.6086892490722
 20
-110.435979657599
 30
0.0
 10
295.4827396312866
 20
-110.7044148378863
 30
0.0
 10
295.2147037199613
 20
-111.2389966638078
 30
0.0
 10
295.0720108977428
 20
-111.5059229674383
 30
0.0
 10
294.6280779166688
 20
-112.2885095154892
 30
0.0
 10
294.3090907572286
 20
-112.7907266832677
 30
0.0
 10
293.796611818012
 20
-113.5152570958356
 30
0.0
 10
293.6200881267874
 20
-113.751941744491
 30
0.0
 10
293.2553537752408
 20
-114.2154125695987
 30
0.0
 10
293.0675040901828
 20
-114.4416012762583
 30
0.0
 10
292.4970769618814
 20
-115.092572599327
 30
0.0
 10
292.1043340691083
 20
-115.4942928305199
 30
0.0
 10
291.6992547846958
 20
-115.8640676826124
 30
0.0
  0
LWPOLYLINE
  5
296
330
24A
100
AcDbEntity
  8
0
  6
Continuous
 62
     7
370
    25
100
AcDbPolyline
 90
       21
 70
   128
 43
0.0
 10
-12.5
 20
9.7984897426
 10
-12.3461042574
 20
8.6696435624
 10
-11.8882064537
 20
7.5685933217
 10
-11.1375815524
 20
6.5224505313
 10
-10.1127124297
 20
5.556974699
 10
-8.8388347648
 20
4.6959390437
 10
-7.3473156537
 20
3.9605451211
 10
-5.6748812467
 20
3.3689007701
 10
-3.8627124297
 20
2.9355742382
 10
-1.955430813
 20
2.6712354627
 10
0.0
 20
2.5823933416
 10
1.955430813
 20
2.6712354627
 10
3.8627124297
 20
2.9355742382
 10
5.6748812467
 20
3.3689007701
 10
7.3473156537
 20
3.9605451211
 10
8.8388347648
 20
4.6959390437
 10
10.1127124297
 20
5.556974699
 10
11.1375815524
 20
6.5224505313
 10
11.8882064537
 20
7.5685933217
 10
12.3461042574
 20
8.6696435624
 10
12.5
 20
9.7984897426
  0
SPLINE
  5
297
330
24A
100
AcDbEntity
  8
0
  6
Continuous
 62
     7
370
    25
100
AcDbSpline
210
0.0
220
0.0
230
1.0
 70
     8
 71
     3
 72
    19
 73
    15
 74
     0
 42
0.000000001
 43
0.00000001
 40
0.0
 40
0.0
 40
0.0
 40
0.0
 40
0.0632482807442073
 40
0.1520814224132944
 40
0.2393972682972063
 40
0.3267131141811182
 40
0.4155462558502052
 40
0.5028621017341168
 40
0.5901779476180288
 40
0.679011089287116
 40
0.7663269351710276
 40
0.8536427810549395
 40
0.9424759227240264
 40
0.9999999999999999
 40
0.9999999999999999
 40
0.9999999999999999
 40
0.9999999999999999
 10
-10.10529931640922
 20
-0.3123347627506171
 30
0.0
 10
-10.0516037512543
 20
-0.6697671890245199
 30
0.0
 10
-9.922491974144215
 20
-1.529218721378609
 30
0.0
 10
-8.920335028961668
 20
-2.782714387034729
 30
0.0
 10
-7.298370973874341
 20
-3.966524740918562
 30
0.0
 10
-5.158131331492289
 20
-4.863743563051914
 30
0.0
 10
-2.67041992519898
 20
-5.405582270942261
 30
0.0
 10
-0.000009916870769
 20
-5.557426034984124
 30
0.0
 10
2.670459937333114
 20
-5.305909374516374
 30
0.0
 10
5.157989726104622
 20
-4.657204390485732
 30
0.0
 10
7.298886686458895
 20
-3.660367156856442
 30
0.0
 10
8.91839586083512
 20
-2.376665497509638
 30
0.0
 10
9.904806028239177
 20
-1.059094381317558
 30
0.0
 10
10.03256253485832
 20
-0.1769283896923685
 30
0.0
 10
10.08277580901207
 20
0.1697971427976411
 30
0.0
  0
SPLINE
  5
298
330
24A
100
AcDbEntity
  8
0
  6
Continuous
 62
     7
370
    25
100
AcDbSpline
210
0.0
220
0.0
230
1.0
 70
     8
 71
     3
 72
    19
 73
    15
 74
     0
 42
0.000000001
 43
0.00000001
 40
0.0
 40
0.0
 40
0.0
 40
0.0
 40
0.0632482807442071
 40
0.1520814224132942
 40
0.2393972682972061
 40
0.326713114181118
 40
0.4155462558502051
 40
0.5028621017341167
 40
0.5901779476180287
 40
0.6790110892871158
 40
0.7663269351710275
 40
0.8536427810549394
 40
0.9424759227240264
 40
0.9999999999999999
 40
0.9999999999999999
 40
0.9999999999999999
 40
0.9999999999999999
 10
-10.10529931640922
 20
0.9124764550780053
 30
0.0
 10
-10.0516037512543
 20
0.5550440288040956
 30
0.0
 10
-9.922491974144215
 20
-0.304407503549993
 30
0.0
 10
-8.920335028961668
 20
-1.557903169206107
 30
0.0
 10
-7.298370973874341
 20
-2.741713523089939
 30
0.0
 10
-5.158131331492289
 20
-3.638932345223292
 30
0.0
 10
-2.67041992519898
 20
-4.180771053113638
 30
0.0
 10
-0.000009916870769
 20
-4.332614817155502
 30
0.0
 10
2.670459937333114
 20
-4.081098156687752
 30
0.0
 10
5.157989726104622
 20
-3.432393172657116
 30
0.0
 10
7.298886686458895
 20
-2.43555593902782
 30
0.0
 10
8.91839586083512
 20
-1.151854279681015
 30
0.0
 10
9.904806028239177
 20
0.1657168365110651
 30
0.0
 10
10.03256253485832
 20
1.047882828136254
 30
0.0
 10
10.08277580901207
 20
1.394608360626264
 30
0.0
  0
SPLINE
  5
299
330
24A
100
AcDbEntity
  8
0
  6
Continuous
 62
     7
370
    25
100
AcDbSpline
210
0.0
220
0.0
230
1.0
 70
     8
 71
     3
 72
    20
 73
    16
 74
     0
 42
0.000000001
 43
0.00000001
 40
0.0
 40
0.0
 40
0.0
 40
0.0
 40
0.0594467820358613
 40
0.1429406627900302
 40
0.225008443881664
 40
0.307076224973298
 40
0.3905701057274669
 40
0.4726378868191005
 40
0.5547056679107344
 40
0.6381995486649034
 40
0.720267329756537
 40
0.8023351108481709
 40
0.8858289916023397
 40
0.9678967726939735
 40
1.0
 40
1.0
 40
1.0
 40
1.0
 10
-10.10529931640922
 20
2.137287672906621
 30
0.0
 10
-10.05160378389433
 20
1.779855247336988
 30
0.0
 10
-9.922492085267631
 20
0.9204037166763226
 30
0.0
 10
-8.920334372440358
 20
-0.3330919655431461
 30
0.0
 10
-7.298373362162824
 20
-1.516902253729586
 30
0.0
 10
-5.158122351856642
 20
-2.414121321146885
 30
0.0
 10
-2.670453839848763
 20
-2.955959103513838
 30
0.0
 10
0.0001141797565385
 20
-3.107806276940697
 30
0.0
 10
2.669993152595779
 20
-2.85627686711671
 30
0.0
 10
5.159752752164848
 20
-2.207619995370412
 30
0.0
 10
7.292435608136
 20
-1.210605527275241
 30
0.0
 10
8.94266135007349
 20
0.0724333654214954
 30
0.0
 10
9.938917073727044
 20
1.560487159864968
 30
0.0
 10
10.32000022453075
 20
2.837394899277534
 30
0.0
 10
10.12143618163042
 20
3.562180019412838
 30
0.0
 10
10.06560286025143
 20
3.765979055492884
 30
0.0
  0
SPLINE
  5
29A
330
24A
100
AcDbEntity
  8
0
  6
Continuous
 62
     7
370
    25
100
AcDbSpline
210
0.0
220
0.0
230
1.0
 70
     8
 71
     3
 72
    21
 73
    17
 74
     0
 42
0.000000001
 43
0.00000001
 40
0.0
 40
0.0
 40
0.0
 40
0.0
 40
0.0342325220033108
 40
0.1117376720470064
 40
0.1905896364781732
 40
0.2680947865218689
 40
0.3455999365655646
 40
0.4244519009967315
 40
0.501957051040427
 40
0.5794622010841227
 40
0.6583141655152897
 40
0.735819315558985
 40
0.8133244656026809
 40
0.8921764300338476
 40
0.9696815800775431
 40
1.0
 40
1.0
 40
1.0
 40
1.0
 10
-10.06485614644154
 20
4.414427782876998
 30
0.0
 10
-10.12249452439376
 20
4.198647877888789
 30
0.0
 10
-10.31063077016398
 20
3.494325121430053
 30
0.0
 10
-9.945123801889972
 20
2.272816231122722
 30
0.0
 10
-8.941017477583745
 20
0.8913003010929608
 30
0.0
 10
-7.29287467512113
 20
-0.2919796560342872
 30
0.0
 10
-5.159625097298726
 20
-1.189340542509604
 30
0.0
 10
-2.670055967890633
 20
-1.731139826502123
 30
0.0
 10
0.0000084038843939
 20
-1.88299720167856
 30
0.0
 10
2.670022060281135
 20
-1.6314650637421
 30
0.0
 10
5.159745098396118
 20
-0.9828089325743874
 30
0.0
 10
7.292437643185407
 20
0.014205731774776
 30
0.0
 10
8.942660792918112
 20
1.297244571964534
 30
0.0
 10
9.93891722500334
 20
2.785298380757799
 30
0.0
 10
10.32000021199353
 20
4.062206116852208
 30
0.0
 10
10.12143617887884
 20
4.78699123718572
 30
0.0
 10
10.06560286025143
 20
4.990790273321499
 30
0.0
  0
SPLINE
  5
29B
330
24A
100
AcDbEntity
  8
0
  6
Continuous
 62
     7
370
    25
100
AcDbSpline
210
0.0
220
0.0
230
1.0
 70
     8
 71
     3
 72
    21
 73
    17
 74
     0
 42
0.000000001
 43
0.00000001
 40
0.0
 40
0.0
 40
0.0
 40
0.0
 40
0.0351329330149656
 40
0.1146766851386527
 40
0.1956026766326684
 40
0.2751464287563556
 40
0.3546901808800428
 40
0.4356161723740585
 40
0.5151599244977455
 40
0.5947036766214328
 40
0.6756296681154486
 40
0.7551734202391355
 40
0.8347171723628227
 40
0.9156431638568384
 40
0.9951869159805253
 40
1.0
 40
1.0
 40
1.0
 40
1.0
 10
-10.06485614644154
 20
5.639239000705613
 30
0.0
 10
-10.12249452348385
 20
5.423459095745133
 30
0.0
 10
-10.31063076628397
 20
4.719136339376879
 30
0.0
 10
-9.945123842551556
 20
3.497627447712564
 30
0.0
 10
-8.941017327301154
 20
2.116111523500046
 30
0.0
 10
-7.292875224176515
 20
0.9328315450669797
 30
0.0
 10
-5.159623032277794
 20
0.035470738231326
 30
0.0
 10
-2.670063767323372
 20
-0.5063288462886852
 30
0.0
 10
0.0000369427268498
 20
-0.6581851143940831
 30
0.0
 10
2.669914712499666
 20
-0.4066571163389154
 30
0.0
 10
5.16015054639532
 20
0.2420146375118545
 30
0.0
 10
7.290954070787198
 20
1.23897175152992
 30
0.0
 10
8.948241194869977
 20
2.522225800651923
 30
0.0
 10
9.917840284405427
 20
4.009467474810728
 30
0.0
 10
10.31422842080568
 20
5.113128728733006
 30
0.0
 10
10.18649887348508
 20
5.666359107067684
 30
0.0
 10
10.17921110557993
 20
5.697924353167378
 30
0.0
  0
SPLINE
  5
29C
330
24A
100
AcDbEntity
  8
0
  6
Continuous
 62
     7
370
    25
100
AcDbSpline
210
0.0
220
0.0
230
1.0
 70
     8
 71
     3
 72
    19
 73
    15
 74
     0
 42
0.000000001
 43
0.00000001
 40
0.0
 40
0.0
 40
0.0
 40
0.0
 40
0.0559656238782758
 40
0.1498227228900978
 40
0.2420767154704272
 40
0.3343307080507567
 40
0.4281878070625786
 40
0.5204417996429077
 40
0.6126957922232372
 40
0.7065528912350593
 40
0.7988068838153884
 40
0.8910608763957178
 40
0.9849179754075397
 40
1.0
 40
1.0
 40
1.0
 40
1.0
 10
-10.06485614644154
 20
5.639239000705627
 30
0.0
 10
-10.01752925114907
 20
5.340185592425057
 30
0.0
 10
-9.890832828822555
 20
4.539604935706071
 30
0.0
 10
-8.91673161137052
 20
3.341790182685642
 30
0.0
 10
-7.299326901929221
 20
2.157411879129274
 30
0.0
 10
-5.157877814357864
 20
1.260346073946775
 30
0.0
 10
-2.670457770694718
 20
0.7184615351080031
 30
0.0
 10
-0.0001066867095223
 20
0.5666457294913676
 30
0.0
 10
2.670888225341339
 20
0.8180957516066012
 30
0.0
 10
5.15635440908413
 20
1.467041982656452
 30
0.0
 10
7.304874990791826
 20
2.462993228268269
 30
0.0
 10
8.89586984185231
 20
3.750007302338231
 30
0.0
 10
9.777484566903667
 20
4.814681384458535
 30
0.0
 10
9.896167848526122
 20
5.432831003528642
 30
0.0
 10
9.912598898390662
 20
5.518410430351471
 30
0.0
  0
SPLINE
  5
29D
330
24A
100
AcDbEntity
  8
0
  6
Continuous
 62
     7
370
    25
100
AcDbSpline
210
0.0
220
0.0
230
1.0
 70
     8
 71
     3
 72
    15
 73
    11
 74
     0
 42
0.000000001
 43
0.00000001
 40
0.0
 40
0.0
 40
0.0
 40
0.0
 40
0.0250993142914131
 40
0.1636827898845395
 40
0.3022662654776661
 40
0.4432579193491309
 40
0.581841394942257
 40
0.7204248705353836
 40
0.8614165244068486
 40
1.0
 40
1.0
 40
1.0
 40
1.0
 10
-9.009210169560355
 20
4.837806530430699
 30
0.0
 10
-8.950613353498671
 20
4.754956643812008
 30
0.0
 10
-8.568479793196248
 20
4.214658991616598
 30
0.0
 10
-7.258404894667309
 20
3.391944450100118
 30
0.0
 10
-5.168942189110931
 20
2.482438275600455
 30
0.0
 10
-2.667980047056762
 20
1.944228417049172
 30
0.0
 10
0.00088293426595
 20
1.790342553410165
 30
0.0
 10
2.664417624325288
 20
2.046447610820568
 30
0.0
 10
5.181549820621134
 20
2.678659517028843
 30
0.0
 10
6.539408116825657
 20
3.385606681191783
 30
0.0
 10
7.212489168102937
 20
3.736035545368777
 30
0.0
  0
LWPOLYLINE
  5
29F
330
24A
100
AcDbEntity
  8
0
  6
Continuous
 62
     7
370
    25
100
AcDbPolyline
 90
       31
 70
   128
 43
0.0
 10
279.3071785687
 20
-84.0774953618
 10
277.4601516151
 20
-85.2679873553
 10
275.6381025325
 20
-86.6908320455
 10
273.8656714091
 20
-88.3267878989
 10
272.1668273352
 20
-90.153731419
 10
270.5645442626
 20
-92.1469563287
 10
269.0804903211
 20
-94.2795076806
 10
267.7347347944
 20
-96.5225463759
 10
266.5454767174
 20
-98.8457391641
 10
265.5287987655
 20
-101.2176688483
 10
264.6984497639
 20
-103.6062591484
 10
264.0656587582
 20
-105.9792084783
 10
263.6389831615
 20
-108.3044267689
 10
263.4241930291
 20
-110.5504694318
 10
263.4241930291
 20
-112.6869625931
 10
263.6389831615
 20
-114.6850138478
 10
264.0656587582
 20
-116.5176029803
 10
264.6984497639
 20
-118.1599473664
 10
265.5287987655
 20
-119.5898371157
 10
266.5454767174
 20
-120.7879354223
 10
267.7347347944
 20
-121.7380400619
 10
269.0804903211
 20
-122.4273024992
 10
270.5645442626
 20
-122.8464016421
 10
272.1668273352
 20
-122.9896698936
 10
273.8656714091
 20
-122.8551697964
 10
275.6381025325
 20
-122.4447202336
 10
277.4601516151
 20
-121.7638718315
 10
279.3071785687
 20
-120.8218318966
 10
281.1542055223
 20
-119.6313399031
 10
282.9762546048
 20
-118.2084952129
 10
284.0913916805
 20
-117.2096397031
  0
LWPOLYLINE
  5
2A0
330
24A
100
AcDbEntity
  8
0
  6
Continuous
 62
     7
370
    25
100
AcDbPolyline
 90
       18
 70
   128
 43
0.0
 10
294.4452553235
 20
-99.3635107772
 10
294.5486983791
 20
-98.9201187801
 10
294.9753739759
 20
-96.5949004895
 10
295.1901641083
 20
-94.3488578266
 10
295.1901641083
 20
-92.2123646653
 10
294.9753739759
 20
-90.2143134106
 10
294.5486983791
 20
-88.3817242781
 10
293.9159073735
 20
-86.739379892
 10
293.0855583718
 20
-85.3094901427
 10
292.0688804199
 20
-84.1113918361
 10
290.879622343
 20
-83.1612871965
 10
289.5338668163
 20
-82.4720247592
 10
288.0498128748
 20
-82.0529256164
 10
286.4475298022
 20
-81.9096573649
 10
284.7486857283
 20
-82.044157462
 10
282.9762546048
 20
-82.4546070248
 10
281.1542055223
 20
-83.1354554269
 10
279.3071785687
 20
-84.0774953618
  0
LWPOLYLINE
  5
2A1
330
24A
100
AcDbEntity
  8
0
  6
Continuous
 62
     7
370
    25
100
AcDbPolyline
 90
       30
 70
   128
 43
0.0
 10
279.3071785687
 20
-85.7105769856
 10
277.5599163369
 20
-86.84129679
 10
275.8381331229
 20
-88.1996217299
 10
274.1669364032
 20
-89.765744369
 10
272.570695989
 20
-91.5168271126
 10
271.0726886601
 20
-93.4273352312
 10
269.6947587365
 20
-95.4694092144
 10
268.4569995393
 20
-97.6132710251
 10
267.3774603849
 20
-99.8276583306
 10
266.471883385
 20
-102.0802803776
 10
265.7534738914
 20
-104.3382888642
 10
265.2327079323
 20
-106.568756942
 10
264.917179448
 20
-108.739159364
 10
264.8114895544
 20
-110.8178467754
 10
264.917179448
 20
-112.774507233
 10
265.2327079323
 20
-114.5806082214
 10
265.7534738914
 20
-116.2098127211
 10
266.471883385
 20
-117.6383632619
 10
267.3774603849
 20
-118.8454283601
 10
268.4569995393
 20
-119.8134062885
 10
269.6947587365
 20
-120.5281817491
 10
271.0726886601
 20
-120.9793317063
 10
272.570695989
 20
-121.1602773777
 10
274.1669364032
 20
-121.0683801681
 10
275.8381331229
 20
-120.7049801456
 10
277.5599163369
 20
-120.0753765009
 10
279.3071785687
 20
-119.1887502729
 10
281.0544408005
 20
-118.0580304685
 10
282.7762240145
 20
-116.6997055285
 10
282.9574328332
 20
-116.5420860924
  0
LWPOLYLINE
  5
2A2
330
24A
100
AcDbEntity
  8
0
  6
Continuous
 62
     7
370
    25
100
AcDbPolyline
 90
       17
 70
   128
 43
0.0
 10
293.369825663
 20
-98.3923891423
 10
293.3816492051
 20
-98.3305703164
 10
293.6971776894
 20
-96.1601678945
 10
293.802867583
 20
-94.081480483
 10
293.6971776894
 20
-92.1248200254
 10
293.3816492051
 20
-90.318719037
 10
292.860883246
 20
-88.6895145373
 10
292.1424737524
 20
-87.2609639965
 10
291.2368967525
 20
-86.0538988983
 10
290.1573575981
 20
-85.08592097
 10
288.9195984009
 20
-84.3711455093
 10
287.5416684773
 20
-83.9199955521
 10
286.0436611484
 20
-83.7390498807
 10
284.4474207342
 20
-83.8309470904
 10
282.7762240145
 20
-84.1943471129
 10
281.0544408005
 20
-84.8239507575
 10
279.3071785687
 20
-85.7105769856
  0
LWPOLYLINE
  5
2A3
330
24A
100
AcDbEntity
  8
0
  6
Continuous
 62
     7
370
    25
100
AcDbPolyline
 90
       22
 70
   128
 43
0.0
 10
275.7716446628
 20
-82.0364750822
 10
273.9246177092
 20
-83.2269670757
 10
272.1025686266
 20
-84.649811766
 10
270.3301375032
 20
-86.2857676194
 10
268.6312934293
 20
-88.1127111394
 10
267.0290103566
 20
-90.1059360492
 10
265.5449564151
 20
-92.238487401
 10
264.1992008885
 20
-94.4815260963
 10
263.0099428115
 20
-96.8047188846
 10
261.9932648596
 20
-99.1766485687
 10
261.1629158579
 20
-101.5652388689
 10
260.5301248523
 20
-103.9381881987
 10
260.1034492556
 20
-106.2634064894
 10
259.8886591231
 20
-108.5094491523
 10
259.8886591231
 20
-110.6459423135
 10
260.1034492556
 20
-112.6439935682
 10
260.5301248523
 20
-114.4765827007
 10
261.1629158579
 20
-116.1189270869
 10
261.9932648596
 20
-117.5488168362
 10
263.0099428115
 20
-118.7469151428
 10
264.1992008885
 20
-119.6970197824
 10
264.5225589206
 20
-119.8947427532
  0
LWPOLYLINE
  5
2A4
330
24A
100
AcDbEntity
  8
0
  6
Continuous
 62
     7
370
    25
100
AcDbPolyline
 90
        8
 70
   128
 43
0.0
 10
287.0207304049
 20
-80.9225439461
 10
285.9983329104
 20
-80.4310044797
 10
284.5142789689
 20
-80.0119053368
 10
282.9119958962
 20
-79.8686370853
 10
281.2131518223
 20
-80.0031371825
 10
279.4407206989
 20
-80.4135867452
 10
277.6186716163
 20
-81.0944351474
 10
275.7716446628
 20
-82.0364750822
  0
LWPOLYLINE
  5
2A5
330
24A
100
AcDbEntity
  8
0
  6
Continuous
 62
     7
370
    25
100
AcDbPolyline
 90
       10
 70
   128
 43
0.0
 10
268.0523636984
 20
-119.4960647811
 10
268.9513683165
 20
-119.7547195385
 10
270.4493756454
 20
-119.93566521
 10
272.0456160596
 20
-119.8437680003
 10
273.7168127794
 20
-119.4803679778
 10
275.4385959933
 20
-118.8507643331
 10
277.1858582251
 20
-117.9641381051
 10
278.9331204569
 20
-116.8334183007
 10
280.6549036709
 20
-115.4750933608
 10
280.8361124897
 20
-115.3174739247
  0
LWPOLYLINE
  5
2A6
330
24A
100
AcDbEntity
  8
0
  6
Continuous
 62
     7
370
    25
100
AcDbPolyline
 90
       10
 70
   128
 43
0.0
 10
291.2485053195
 20
-97.1677769746
 10
291.2603288615
 20
-97.1059581487
 10
291.5758573458
 20
-94.9355557267
 10
291.6815472395
 20
-92.8568683153
 10
291.5758573458
 20
-90.9002078577
 10
291.2603288615
 20
-89.0941068693
 10
290.7395629024
 20
-87.4649023696
 10
290.0211534089
 20
-86.0363518288
 10
289.1155764089
 20
-84.8292867306
 10
288.4406730954
 20
-84.1786503095
  0
LWPOLYLINE
  5
2A7
330
24A
100
AcDbEntity
  8
0
  6
Continuous
 62
     7
370
    25
100
AcDbPolyline
 90
       18
 70
   128
 43
0.0
 10
277.1858582251
 20
-89.3852096891
 10
275.6930024158
 20
-90.3731898396
 10
274.2319642363
 20
-91.59245858
 10
272.8338831787
 20
-93.0170293141
 10
271.5285569136
 20
-94.6165397899
 10
270.343806204
 20
-96.3568992186
 10
269.3048819544
 20
-98.2010148605
 10
268.4339270315
 20
-100.1095825924
 10
267.7495043272
 20
-102.0419246066
 10
267.2662011234
 20
-103.9568563879
 10
266.9943181887
 20
-105.8135644901
 10
266.9396502358
 20
-107.5724764034
 10
267.1033624173
 20
-109.1961039741
 10
267.4819654922
 20
-110.6498423995
 10
268.0673901932
 20
-111.9027077689
 10
268.8471592093
 20
-112.9279974321
 10
269.8046531178
 20
-113.70385912
 10
269.9364474135
 20
-113.782759966
  0
LWPOLYLINE
  5
2A9
330
24A
100
AcDbEntity
  8
0
  6
Continuous
 62
     7
370
    25
100
AcDbPolyline
 90
       23
 70
   128
 43
0.0
 10
279.3071785687
 20
-90.6098218569
 10
277.8143227594
 20
-91.5978020073
 10
276.3532845799
 20
-92.8170707477
 10
274.9552035223
 20
-94.2416414818
 10
273.6498772572
 20
-95.8411519576
 10
272.4651265476
 20
-97.5815113863
 10
271.426202298
 20
-99.4256270282
 10
270.555247375
 20
-101.3341947601
 10
269.8708246708
 20
-103.2665367743
 10
269.387521467
 20
-105.1814685557
 10
269.1156385323
 20
-107.0381766578
 10
269.0609705794
 20
-108.7970885711
 10
269.2246827608
 20
-110.4207161419
 10
269.6032858357
 20
-111.8744545672
 10
270.1887105368
 20
-113.1273199366
 10
270.9684795529
 20
-114.1526095998
 10
271.9259734613
 20
-114.9284712878
 10
273.0407849417
 20
-115.4383688555
 10
274.2891537229
 20
-115.6714347217
 10
275.6444729916
 20
-115.6227014921
 10
277.0778564707
 20
-115.2932078307
 10
278.5587540798
 20
-114.6899763231
 10
279.1757884351
 20
-114.3643831165
  0
LWPOLYLINE
  5
2AA
330
24A
100
AcDbEntity
  8
0
  6
Continuous
 62
     7
370
    25
100
AcDbPolyline
 90
       12
 70
   128
 43
0.0
 10
289.5587418961
 20
-96.3300589317
 10
289.4987186051
 20
-95.2712749973
 10
289.2268356704
 20
-93.7284762498
 10
288.7435324666
 20
-92.37155447
 10
288.0591097624
 20
-91.2294300899
 10
287.1881548394
 20
-90.3264455076
 10
286.1492305898
 20
-89.6818462718
 10
284.9644798802
 20
-89.3093708962
 10
283.6591536151
 20
-89.2169580467
 10
282.2610725575
 20
-89.4065773426
 10
280.800034378
 20
-89.8741873781
 10
279.3071785687
 20
-90.6098218569
  0
LWPOLYLINE
  5
2AB
330
24A
100
AcDbEntity
  8
0
  6
Continuous
 62
     7
370
    25
100
AcDbPolyline
 90
       20
 70
   128
 43
0.0
 10
279.3071785687
 20
-92.2429034806
 10
277.9244801807
 20
-93.1667804241
 10
276.5758284159
 20
-94.3192327603
 10
275.2944315567
 20
-95.6718832877
 10
274.1118418465
 20
-97.1914252614
 10
273.0571785687
 20
-98.8404425147
 10
272.1564110335
 20
-100.5783307703
 10
271.431719127
 20
-102.3622974514
 10
270.9009471691
 20
-104.1484153777
 10
270.577164527
 20
-105.8927043982
 10
270.4683438039
 20
-107.5522143281
 10
270.577164527
 20
-109.0860825254
 10
270.9009471691
 20
-110.4565400645
 10
271.431719127
 20
-111.6298417325
 10
272.1564110335
 20
-112.5770969483
 10
273.0571785687
 20
-113.2749811447
 10
274.1118418465
 20
-113.7063100968
 10
275.2944315567
 20
-113.8604630542
 10
276.5758284159
 20
-113.7336442594
 10
277.5103655752
 20
-113.4805781875
  0
LWPOLYLINE
  5
2AC
330
24A
100
AcDbEntity
  8
0
  6
Continuous
 62
     7
370
    25
100
AcDbPolyline
 90
       10
 70
   128
 43
0.0
 10
287.9512915472
 20
-95.3288960811
 10
287.7134099682
 20
-94.4427871939
 10
287.1826380104
 20
-93.2694855259
 10
286.4579461039
 20
-92.3222303101
 10
285.5571785687
 20
-91.6243461137
 10
284.5025152909
 20
-91.1930171616
 10
283.3199255807
 20
-91.0388642043
 10
282.0385287215
 20
-91.165682999
 10
280.6898769567
 20
-91.5703508463
 10
279.3071785687
 20
-92.2429034806
  0
LWPOLYLINE
  5
2B0
330
24A
100
AcDbEntity
  8
0
  6
Continuous
 62
     8
370
    25
100
AcDbPolyline
 90
       16
 70
   128
 43
0.0
 10
34.5337633264
 20
53.2883869991
 10
33.4796079697
 20
53.7194226869
 10
32.2970182595
 20
53.8735756443
 10
31.0156214003
 20
53.7467568495
 10
29.6669696355
 20
53.3420890022
 10
28.2842712475
 20
52.6695363679
 10
26.9015728594
 20
51.7456594244
 10
25.5529210947
 20
50.5932070883
 10
24.2715242355
 20
49.2405565608
 10
23.0889345252
 20
47.7210145871
 10
22.0342712475
 20
46.0719973338
 10
21.1335037122
 20
44.3341090783
 10
20.4088118058
 20
42.5501423972
 10
19.8780398479
 20
40.7640244708
 10
19.5542572058
 20
39.0197354504
 10
19.4454364826
 20
37.3602255204
  0
LWPOLYLINE
  5
2B1
330
24A
100
AcDbEntity
  8
0
  6
Continuous
 62
     8
370
    25
100
AcDbPolyline
 90
       16
 70
   128
 43
0.0
 10
-8.8388347648
 20
21.0267552815
 10
-7.3473156537
 20
20.2913613588
 10
-5.6748812467
 20
19.6997170078
 10
-3.8627124297
 20
19.2663904759
 10
-1.955430813
 20
19.0020517004
 10
0.0
 20
18.9132095793
 10
1.955430813
 20
19.0020517004
 10
3.8627124297
 20
19.2663904759
 10
5.6748812467
 20
19.6997170078
 10
7.3473156537
 20
20.2913613588
 10
8.8388347648
 20
21.0267552815
 10
10.1127124297
 20
21.8877909367
 10
11.1375815524
 20
22.8532667691
 10
11.8882064537
 20
23.8994095594
 10
12.3461042574
 20
25.0004598002
 10
12.4999695474
 20
26.1133774976
  0
LINE
  5
2B3
330
24A
100
AcDbEntity
  8
0
  6
Continuous
 62
     7
370
    25
100
AcDbLine
 10
281.8129645813
 20
-91.7721958619
 30
0.0
 11
281.1653113548
 21
-91.3983136125
 31
0.0
  0
LINE
  5
2B4
330
24A
100
AcDbEntity
  8
0
  6
Continuous
 62
     7
370
    25
100
AcDbLine
 10
282.8736247531
 20
-92.3845019457
 30
0.0
 11
282.7927604784
 21
-92.3378199936
 31
0.0
  0
LINE
  5
2B5
330
24A
100
AcDbEntity
  8
0
  6
Continuous
 62
     7
370
    25
100
AcDbLine
 10
283.9342849248
 20
-92.9968080296
 30
0.0
 11
283.8534206502
 21
-92.9501260775
 31
0.0
  0
LINE
  5
2B6
330
24A
100
AcDbEntity
  8
0
  6
Continuous
 62
     7
370
    25
100
AcDbLine
 10
284.9949450966
 20
-93.6091141135
 30
0.0
 11
284.9140808219
 21
-93.5624321614
 31
0.0
  0
LINE
  5
2B7
330
24A
100
AcDbEntity
  8
0
  6
Continuous
 62
     7
370
    25
100
AcDbLine
 10
286.0556052684
 20
-94.2214201973
 30
0.0
 11
285.9747409937
 21
-94.1747382452
 31
0.0
  0
LINE
  5
2B8
330
24A
100
AcDbEntity
  8
0
  6
Continuous
 62
     7
370
    25
100
AcDbLine
 10
287.1162654402
 20
-94.8337262812
 30
0.0
 11
287.0354011655
 21
-94.7870443291
 31
0.0
  0
LINE
  5
2B9
330
24A
100
AcDbEntity
  8
0
  6
Continuous
 62
     7
370
    25
100
AcDbLine
 10
288.176925612
 20
-95.4460323651
 30
0.0
 11
288.0960613373
 21
-95.399350413
 31
0.0
  0
LINE
  5
2BA
330
24A
100
AcDbEntity
  8
0
  6
Continuous
 62
     7
370
    25
100
AcDbLine
 10
289.2375857837
 20
-96.0583384489
 30
0.0
 11
289.1567215091
 21
-96.0116564968
 31
0.0
  0
LINE
  5
2BB
330
24A
100
AcDbEntity
  8
0
  6
Continuous
 62
     7
370
    25
100
AcDbLine
 10
290.2982459555
 20
-96.6706445328
 30
0.0
 11
290.2173816808
 21
-96.6239625807
 31
0.0
  0
LINE
  5
2BC
330
24A
100
AcDbEntity
  8
0
  6
Continuous
 62
     7
370
    25
100
AcDbLine
 10
291.3589061273
 20
-97.2829506167
 30
0.0
 11
291.2780418526
 21
-97.2362686646
 31
0.0
  0
LINE
  5
2BD
330
24A
100
AcDbEntity
  8
0
  6
Continuous
 62
     7
370
    25
100
AcDbLine
 10
292.4195662991
 20
-97.8952567005
 30
0.0
 11
292.3387020244
 21
-97.8485747484
 31
0.0
  0
LINE
  5
2BE
330
24A
100
AcDbEntity
  8
0
  6
Continuous
 62
     7
370
    25
100
AcDbLine
 10
293.4802264709
 20
-98.5075627844
 30
0.0
 11
293.3993621962
 21
-98.4608808323
 31
0.0
  0
LINE
  5
2BF
330
24A
100
AcDbEntity
  8
0
  6
Continuous
 62
     7
370
    25
100
AcDbLine
 10
294.5408866426
 20
-99.1198688683
 30
0.0
 11
294.460022368
 21
-99.0731869162
 31
0.0
  0
LINE
  5
2C0
330
24A
100
AcDbEntity
  8
0
  6
Continuous
 62
     7
370
    25
100
AcDbLine
 10
283.4305455894
 20
-116.9540599842
 30
0.0
 11
283.5114098719
 21
-117.0007419409
 31
0.0
  0
LINE
  5
2C1
330
24A
100
AcDbEntity
  8
0
  6
Continuous
 62
     7
370
    25
100
AcDbLine
 10
282.3698854176
 20
-116.3417539004
 30
0.0
 11
282.4507497001
 21
-116.388435857
 31
0.0
  0
LINE
  5
2C2
330
24A
100
AcDbEntity
  8
0
  6
Continuous
 62
     7
370
    25
100
AcDbLine
 10
281.3092252458
 20
-115.7294478165
 30
0.0
 11
281.3900895283
 21
-115.7761297731
 31
0.0
  0
LINE
  5
2C3
330
24A
100
AcDbEntity
  8
0
  6
Continuous
 62
     7
370
    25
100
AcDbLine
 10
280.2485650741
 20
-115.1171417326
 30
0.0
 11
280.3294293566
 21
-115.1638236893
 31
0.0
  0
LINE
  5
2C4
330
24A
100
AcDbEntity
  8
0
  6
Continuous
 62
     7
370
    25
100
AcDbLine
 10
279.1879049023
 20
-114.5048356487
 30
0.0
 11
279.2687691848
 21
-114.5515176054
 31
0.0
  0
LINE
  5
2C5
330
24A
100
AcDbEntity
  8
0
  6
Continuous
 62
     7
370
    25
100
AcDbLine
 10
278.1272447305
 20
-113.8925295649
 30
0.0
 11
278.208109013
 21
-113.9392115215
 31
0.0
  0
LINE
  5
2C6
330
24A
100
AcDbEntity
  8
0
  6
Continuous
 62
     7
370
    25
100
AcDbLine
 10
277.0665845587
 20
-113.280223481
 30
0.0
 11
277.1474488412
 21
-113.3269054377
 31
0.0
  0
LINE
  5
2C7
330
24A
100
AcDbEntity
  8
0
  6
Continuous
 62
     7
370
    25
100
AcDbLine
 10
276.0059243869
 20
-112.6679173971
 30
0.0
 11
276.0867886694
 21
-112.7145993538
 31
0.0
  0
LINE
  5
2C8
330
24A
100
AcDbEntity
  8
0
  6
Continuous
 62
     7
370
    25
100
AcDbLine
 10
274.9452642152
 20
-112.0556113133
 30
0.0
 11
275.0261284977
 21
-112.1022932699
 31
0.0
  0
LINE
  5
2C9
330
24A
100
AcDbEntity
  8
0
  6
Continuous
 62
     7
370
    25
100
AcDbLine
 10
273.8846040434
 20
-111.4433052294
 30
0.0
 11
273.9654683259
 21
-111.4899871861
 31
0.0
  0
LINE
  5
2CA
330
24A
100
AcDbEntity
  8
0
  6
Continuous
 62
     7
370
    25
100
AcDbLine
 10
272.8239438716
 20
-110.8309991455
 30
0.0
 11
272.9048081541
 21
-110.8776811022
 31
0.0
  0
LINE
  5
2CB
330
24A
100
AcDbEntity
  8
0
  6
Continuous
 62
     7
370
    25
100
AcDbLine
 10
271.7632836998
 20
-110.2186930617
 30
0.0
 11
271.8441479823
 21
-110.2653750183
 31
0.0
  0
LINE
  5
2CC
330
24A
100
AcDbEntity
  8
0
  6
Continuous
 62
     7
370
    25
100
AcDbLine
 10
270.6661646621
 20
-109.5853397225
 30
0.0
 11
270.7834878105
 21
-109.6530689345
 31
0.0
  0
LINE
  5
2CD
330
24A
100
AcDbEntity
  8
0
  6
Continuous
 62
     7
370
    25
100
AcDbLine
 10
272.66623315
 20
-84.1825616786
 30
0.0
 11
34.5337633264
 21
53.2883869991
 31
0.0
  0
LINE
  5
2CE
330
24A
100
AcDbEntity
  8
0
  6
Continuous
 62
     7
370
    25
100
AcDbLine
 10
22.0347791685
 20
31.6371654396
 30
0.0
 11
260.167248992
 21
-105.8337832382
 31
0.0
  0
LINE
  5
2CF
330
24A
100
AcDbEntity
  8
0
  6
Continuous
 62
     7
370
    25
100
AcDbLine
 10
-12.5
 20
26.1293059803
 30
0.0
 11
-12.5
 21
9.7984897426
 31
0.0
  0
LINE
  5
2D0
330
24A
100
AcDbEntity
  8
0
  6
Continuous
 62
     7
370
    25
100
AcDbLine
 10
12.5
 20
9.7984897426
 30
0.0
 11
12.5
 21
26.1293059803
 31
0.0
  0
LINE
  5
2D1
330
24A
100
AcDbEntity
  8
0
  6
Continuous
 62
     7
370
    25
100
AcDbLine
 10
264.5225589206
 20
-119.8947427532
 30
0.0
 11
268.0580928265
 21
-121.9357630328
 31
0.0
  0
LINE
  5
2D2
330
24A
100
AcDbEntity
  8
0
  6
Continuous
 62
     7
370
    25
100
AcDbLine
 10
290.5562643108
 20
-82.9635642256
 30
0.0
 11
287.0207304049
 21
-80.9225439461
 31
0.0
  0
LINE
  5
2D3
330
24A
100
AcDbEntity
  8
0
  6
Continuous
 62
     7
370
    25
100
AcDbLine
 10
269.9364474135
 20
-113.782759966
 30
0.0
 11
272.0577677571
 21
-115.0073721337
 31
0.0
  0
LINE
  5
2D4
330
24A
100
AcDbEntity
  8
0
  6
Continuous
 62
     7
370
    25
100
AcDbLine
 10
286.5565893803
 20
-89.8919551247
 30
0.0
 11
284.4352690367
 21
-88.667342957
 31
0.0
  0
LINE
  5
2D5
330
24A
100
AcDbEntity
  8
0
  6
Continuous
 62
     7
370
    25
100
AcDbLine
 10
271.3282447684
 20
-109.8217098148
 30
0.0
 11
270.783536818
 21
-109.6529663382
 31
0.0
  0
LINE
  5
2D6
330
24A
100
AcDbEntity
  8
0
  6
Continuous
 62
     7
370
    25
100
AcDbLine
 10
7.2124891681
 20
3.7360355454
 30
0.0
 11
7.1111595724
 21
3.8638875606
 31
0.0
  0
ARC
  5
2D7
330
24A
100
AcDbEntity
  8
0
  6
Continuous
 62
     7
370
    25
100
AcDbCircle
 10
285.1103387674
 20
-108.5740938426
 30
0.0
 40
9.826369261847777
100
AcDbArc
 50
287.8863204441
 51
312.1083030231
  0
ARC
  5
2D8
330
24A
100
AcDbEntity
  8
0
  6
Continuous
 62
     7
370
    25
100
AcDbCircle
 10
278.1061281561
 20
-94.4758356631
 30
0.0
 40
6.420764613168552
100
AcDbArc
 50
10.5274596193
 51
32.2933067105
  0
ARC
  5
2D9
330
24A
100
AcDbEntity
  8
0
  6
Continuous
 62
     7
370
    25
100
AcDbCircle
 10
271.8022452852
 20
-105.4257411666
 30
0.0
 40
6.39222239344909
100
AcDbArc
 50
267.6941968969
 51
288.9284660509
  0
ARC
  5
2DA
330
24A
100
AcDbEntity
  8
0
  6
Continuous
 62
     7
370
    25
100
AcDbCircle
 10
281.422523635
 20
-95.2061830812
 30
0.0
 40
7.199518388452272
100
AcDbArc
 50
65.2622948982
 51
126.0481635309
  0
ARC
  5
2DB
330
24A
100
AcDbEntity
  8
0
  6
Continuous
 62
     7
370
    25
100
AcDbCircle
 10
271.8024065675
 20
-105.4316325991
 30
0.0
 40
6.386342232342225
100
AcDbArc
 50
267.6906245741
 51
288.8120503303
  0
ARC
  5
2DC
330
24A
100
AcDbEntity
  8
0
  6
Continuous
 62
     7
370
    25
100
AcDbCircle
 10
278.0700244733
 20
-94.495384134
 30
0.0
 40
6.461728363816704
100
AcDbArc
 50
9.7317352638
 51
32.2688009017
  0
ARC
  5
2DD
330
24A
100
AcDbEntity
  8
0
  6
Continuous
 62
     8
370
    25
100
AcDbCircle
 10
25.5413514054
 20
36.6709712854
 30
0.0
 40
6.134757545829191
100
AcDbArc
 50
173.5490657244
 51
235.1387538822
  0
ARC
  5
2DE
330
24A
100
AcDbEntity
  8
0
  6
Continuous
 62
     8
370
    25
100
AcDbCircle
 10
-6.1545901232
 20
26.8177137333
 30
0.0
 40
6.382818271566076
100
AcDbArc
 50
186.2062620356
 51
245.1311744148
  0
VIEWPORT
  5
2E3
330
24A
100
AcDbEntity
  8
0
100
AcDbViewport
 10
0.0
 20
0.0
 30
0.0
 40
205.6
 41
156.0
 68
     1
 69
     1
 12
198.7549940155
 22
47.2447452921
 13
0.0
 23
0.0
 14
10.0
 24
10.0
 15
10.0
 25
10.0
 16
0.0
 26
0.0
 36
1.0
 17
0.0
 27
0.0
 37
0.0
 42
50.0
 43
0.0
 44
0.0
 45
326.9931385968
 50
0.0
 51
0.0
 72
   100
 90
   557152
  1

281
     0
 71
     1
 74
     0
110
0.0
120
0.0
130
0.0
111
1.0
121
0.0
131
0.0
112
0.0
122
1.0
132
0.0
 79
     0
146
0.0
  0
ENDBLK
  5
24D
330
24A
100
AcDbEntity
  8
0
100
AcDbBlockEnd
  0
ENDSEC
  0
SECTION
  2
ENTITIES
  0
SPLINE
  5
79
330
1F
100
AcDbEntity
  8
0
  6
Continuous
 62
     7
370
    25
100
AcDbSpline
210
0.0
220
0.0
230
1.0
 70
     8
 71
     3
 72
     9
 73
     5
 74
     0
 42
0.000000001
 43
0.00000001
 40
0.0
 40
0.0
 40
0.0
 40
0.0
 40
0.5570743320100493
 40
1.0
 40
1.0
 40
1.0
 40
1.0
 10
408.5099880310873
 20
81.29110202811401
 30
0.0
 10
408.3847815745633
 20
81.5077727672088
 30
0.0
 10
408.1600243934666
 20
81.89671680330002
 30
0.0
 10
407.9352948298975
 20
82.28567822830357
 30
0.0
 10
407.8357563378366
 20
82.45795922729559
 30
0.0
  0
SPLINE
  5
7A
330
1F
100
AcDbEntity
  8
0
  6
Continuous
 62
     7
370
    25
100
AcDbSpline
210
0.0
220
0.0
230
1.0
 70
     8
 71
     3
 72
     9
 73
     5
 74
     0
 42
0.000000001
 43
0.00000001
 40
0.0
 40
0.0
 40
0.0
 40
0.0
 40
0.5570743320100376
 40
1.0
 40
1.0
 40
1.0
 40
1.0
 10
407.0099880310873
 20
81.29110202811401
 30
0.0
 10
406.8847815745634
 20
81.50777276720883
 30
0.0
 10
406.6600243934666
 20
81.89671680330005
 30
0.0
 10
406.4352948298975
 20
82.28567822830358
 30
0.0
 10
406.3357563378365
 20
82.45795922729559
 30
0.0
  0
SPLINE
  5
7B
330
1F
100
AcDbEntity
  8
0
  6
Continuous
 62
     7
370
    25
100
AcDbSpline
210
0.0
220
0.0
230
1.0
 70
     8
 71
     3
 72
     9
 73
     5
 74
     0
 42
0.000000001
 43
0.00000001
 40
0.0
 40
0.0
 40
0.0
 40
0.0
 40
0.5570743320100121
 40
0.9999999999999999
 40
0.9999999999999999
 40
0.9999999999999999
 40
0.9999999999999999
 10
405.5099880310873
 20
81.29110202811401
 30
0.0
 10
405.3847815745634
 20
81.50777276720883
 30
0.0
 10
405.1600243934667
 20
81.8967168033001
 30
0.0
 10
404.9352948298975
 20
82.28567822830358
 30
0.0
 10
404.8357563378365
 20
82.45795922729559
 30
0.0
  0
SPLINE
  5
7C
330
1F
100
AcDbEntity
  8
0
  6
Continuous
 62
     7
370
    25
100
AcDbSpline
210
0.0
220
0.0
230
1.0
 70
     8
 71
     3
 72
     9
 73
     5
 74
     0
 42
0.000000001
 43
0.00000001
 40
0.0
 40
0.0
 40
0.0
 40
0.0
 40
0.5570743320100237
 40
1.0
 40
1.0
 40
1.0
 40
1.0
 10
404.0099880310873
 20
81.29110202811401
 30
0.0
 10
403.8847815745634
 20
81.50777276720883
 30
0.0
 10
403.6600243934667
 20
81.89671680330008
 30
0.0
 10
403.4352948298976
 20
82.28567822830358
 30
0.0
 10
403.3357563378366
 20
82.45795922729559
 30
0.0
  0
SPLINE
  5
7D
330
1F
100
AcDbEntity
  8
0
  6
Continuous
 62
     7
370
    25
100
AcDbSpline
210
0.0
220
0.0
230
1.0
 70
     8
 71
     3
 72
     9
 73
     5
 74
     0
 42
0.000000001
 43
0.00000001
 40
0.0
 40
0.0
 40
0.0
 40
0.0
 40
0.5570743320100288
 40
1.0
 40
1.0
 40
1.0
 40
1.0
 10
402.5099880310873
 20
81.29110202811401
 30
0.0
 10
402.3847815745634
 20
81.50777276720883
 30
0.0
 10
402.1600243934667
 20
81.89671680330008
 30
0.0
 10
401.9352948298975
 20
82.28567822830355
 30
0.0
 10
401.8357563378365
 20
82.45795922729559
 30
0.0
  0
SPLINE
  5
7E
330
1F
100
AcDbEntity
  8
0
  6
Continuous
 62
     7
370
    25
100
AcDbSpline
210
0.0
220
0.0
230
1.0
 70
     8
 71
     3
 72
     9
 73
     5
 74
     0
 42
0.000000001
 43
0.00000001
 40
0.0
 40
0.0
 40
0.0
 40
0.0
 40
0.5570743320100148
 40
1.0
 40
1.0
 40
1.0
 40
1.0
 10
401.0099880310873
 20
81.29110202811401
 30
0.0
 10
400.8847815745634
 20
81.50777276720883
 30
0.0
 10
400.6600243934667
 20
81.8967168033001
 30
0.0
 10
400.4352948298975
 20
82.28567822830358
 30
0.0
 10
400.3357563378366
 20
82.45795922729559
 30
0.0
  0
SPLINE
  5
7F
330
1F
100
AcDbEntity
  8
0
  6
Continuous
 62
     7
370
    25
100
AcDbSpline
210
0.0
220
0.0
230
1.0
 70
     8
 71
     3
 72
     9
 73
     5
 74
     0
 42
0.000000001
 43
0.00000001
 40
0.0
 40
0.0
 40
0.0
 40
0.0
 40
0.5570743320100403
 40
0.9999999999999999
 40
0.9999999999999999
 40
0.9999999999999999
 40
0.9999999999999999
 10
399.5099880310873
 20
81.29110202811401
 30
0.0
 10
399.3847815745635
 20
81.50777276720882
 30
0.0
 10
399.1600243934667
 20
81.89671680330004
 30
0.0
 10
398.9352948298975
 20
82.28567822830355
 30
0.0
 10
398.8357563378366
 20
82.45795922729559
 30
0.0
  0
SPLINE
  5
80
330
1F
100
AcDbEntity
  8
0
  6
Continuous
 62
     7
370
    25
100
AcDbSpline
210
0.0
220
0.0
230
1.0
 70
     8
 71
     3
 72
     9
 73
     5
 74
     0
 42
0.000000001
 43
0.00000001
 40
0.0
 40
0.0
 40
0.0
 40
0.0
 40
0.5570743320100289
 40
1.0
 40
1.0
 40
1.0
 40
1.0
 10
398.0099880310873
 20
81.29110202811401
 30
0.0
 10
397.8847815745634
 20
81.5077727672088
 30
0.0
 10
397.6600243934667
 20
81.89671680330005
 30
0.0
 10
397.4352948298975
 20
82.28567822830358
 30
0.0
 10
397.3357563378366
 20
82.45795922729559
 30
0.0
  0
SPLINE
  5
81
330
1F
100
AcDbEntity
  8
0
  6
Continuous
 62
     7
370
    25
100
AcDbSpline
210
0.0
220
0.0
230
1.0
 70
     8
 71
     3
 72
     9
 73
     5
 74
     0
 42
0.000000001
 43
0.00000001
 40
0.0
 40
0.0
 40
0.0
 40
0.0
 40
0.5570743320100403
 40
0.9999999999999999
 40
0.9999999999999999
 40
0.9999999999999999
 40
0.9999999999999999
 10
396.5099880310873
 20
81.29110202811401
 30
0.0
 10
396.3847815745635
 20
81.50777276720882
 30
0.0
 10
396.1600243934666
 20
81.89671680330004
 30
0.0
 10
395.9352948298975
 20
82.28567822830355
 30
0.0
 10
395.8357563378366
 20
82.45795922729559
 30
0.0
  0
SPLINE
  5
82
330
1F
100
AcDbEntity
  8
0
  6
Continuous
 62
     7
370
    25
100
AcDbSpline
210
0.0
220
0.0
230
1.0
 70
     8
 71
     3
 72
     9
 73
     5
 74
     0
 42
0.000000001
 43
0.00000001
 40
0.0
 40
0.0
 40
0.0
 40
0.0
 40
0.5570743320100403
 40
0.9999999999999999
 40
0.9999999999999999
 40
0.9999999999999999
 40
0.9999999999999999
 10
395.0099880310873
 20
81.29110202811401
 30
0.0
 10
394.8847815745634
 20
81.50777276720882
 30
0.0
 10
394.6600243934666
 20
81.89671680330004
 30
0.0
 10
394.4352948298975
 20
82.28567822830355
 30
0.0
 10
394.3357563378366
 20
82.45795922729559
 30
0.0
  0
SPLINE
  5
83
330
1F
100
AcDbEntity
  8
0
  6
Continuous
 62
     7
370
    25
100
AcDbSpline
210
0.0
220
0.0
230
1.0
 70
     8
 71
     3
 72
     9
 73
     5
 74
     0
 42
0.000000001
 43
0.00000001
 40
0.0
 40
0.0
 40
0.0
 40
0.0
 40
0.5000052249527495
 40
1.0
 40
1.0
 40
1.0
 40
1.0
 10
408.4927252165163
 20
61.40636653494968
 30
0.0
 10
408.6178270820337
 20
61.62261629103152
 30
0.0
 10
408.8680281984903
 20
62.0551112836634
 30
0.0
 10
409.1182369270718
 20
62.48769115654856
 30
0.0
 10
409.243339984034
 20
62.70397883278175
 30
0.0
  0
SPLINE
  5
85
330
1F
100
AcDbEntity
  8
0
  6
Continuous
 62
     7
370
    25
100
AcDbSpline
210
0.0
220
0.0
230
1.0
 70
     8
 71
     3
 72
     9
 73
     5
 74
     0
 42
0.000000001
 43
0.00000001
 40
0.0
 40
0.0
 40
0.0
 40
0.0
 40
0.4550223464844648
 40
1.0
 40
1.0
 40
1.0
 40
1.0
 10
407.0546809136613
 20
61.51346545505701
 30
0.0
 10
407.1591310324986
 20
61.6940172701107
 30
0.0
 10
407.3886804593438
 20
62.09081495806743
 30
0.0
 10
407.6182368700033
 20
62.48769052019552
 30
0.0
 10
407.743339984034
 20
62.70397883278175
 30
0.0
  0
SPLINE
  5
86
330
1F
100
AcDbEntity
  8
0
  6
Continuous
 62
     7
370
    25
100
AcDbSpline
210
0.0
220
0.0
230
1.0
 70
     8
 71
     3
 72
     9
 73
     5
 74
     0
 42
0.000000001
 43
0.00000001
 40
0.0
 40
0.0
 40
0.0
 40
0.0
 40
0.5000052249527147
 40
1.0
 40
1.0
 40
1.0
 40
1.0
 10
405.4927252165163
 20
61.40636653494968
 30
0.0
 10
405.6178270820337
 20
61.62261629103154
 30
0.0
 10
405.8680281984901
 20
62.05511128366346
 30
0.0
 10
406.1182369270719
 20
62.48769115654857
 30
0.0
 10
406.243339984034
 20
62.70397883278175
 30
0.0
  0
SPLINE
  5
88
330
1F
100
AcDbEntity
  8
0
  6
Continuous
 62
     7
370
    25
100
AcDbSpline
210
0.0
220
0.0
230
1.0
 70
     8
 71
     3
 72
     9
 73
     5
 74
     0
 42
0.000000001
 43
0.00000001
 40
0.0
 40
0.0
 40
0.0
 40
0.0
 40
0.4550223464843956
 40
1.0
 40
1.0
 40
1.0
 40
1.0
 10
404.0546809136614
 20
61.51346545505705
 30
0.0
 10
404.1591310324987
 20
61.69401727011073
 30
0.0
 10
404.3886804593438
 20
62.0908149580675
 30
0.0
 10
404.6182368700033
 20
62.48769052019554
 30
0.0
 10
404.743339984034
 20
62.70397883278175
 30
0.0
  0
SPLINE
  5
89
330
1F
100
AcDbEntity
  8
0
  6
Continuous
 62
     7
370
    25
100
AcDbSpline
210
0.0
220
0.0
230
1.0
 70
     8
 71
     3
 72
     9
 73
     5
 74
     0
 42
0.000000001
 43
0.00000001
 40
0.0
 40
0.0
 40
0.0
 40
0.0
 40
0.5000052249527093
 40
1.0
 40
1.0
 40
1.0
 40
1.0
 10
402.4927252165163
 20
61.40636653494968
 30
0.0
 10
402.6178270820336
 20
61.62261629103153
 30
0.0
 10
402.8680281984901
 20
62.05511128366346
 30
0.0
 10
403.118236927072
 20
62.48769115654857
 30
0.0
 10
403.243339984034
 20
62.70397883278175
 30
0.0
  0
SPLINE
  5
8A
330
1F
100
AcDbEntity
  8
0
  6
Continuous
 62
     7
370
    25
100
AcDbSpline
210
0.0
220
0.0
230
1.0
 70
     8
 71
     3
 72
     9
 73
     5
 74
     0
 42
0.000000001
 43
0.00000001
 40
0.0
 40
0.0
 40
0.0
 40
0.0
 40
0.5000052249527507
 40
1.0
 40
1.0
 40
1.0
 40
1.0
 10
400.9927252165163
 20
61.40636653494968
 30
0.0
 10
401.1178270820336
 20
61.62261629103153
 30
0.0
 10
401.3680281984903
 20
62.0551112836634
 30
0.0
 10
401.618236927072
 20
62.48769115654856
 30
0.0
 10
401.743339984034
 20
62.70397883278175
 30
0.0
  0
SPLINE
  5
8C
330
1F
100
AcDbEntity
  8
0
  6
Continuous
 62
     7
370
    25
100
AcDbSpline
210
0.0
220
0.0
230
1.0
 70
     8
 71
     3
 72
     9
 73
     5
 74
     0
 42
0.000000001
 43
0.00000001
 40
0.0
 40
0.0
 40
0.0
 40
0.0
 40
0.4550223464844194
 40
1.0
 40
1.0
 40
1.0
 40
1.0
 10
399.5546809136614
 20
61.51346545505697
 30
0.0
 10
399.6591310324987
 20
61.69401727011066
 30
0.0
 10
399.8886804593436
 20
62.0908149580675
 30
0.0
 10
400.1182368700033
 20
62.48769052019554
 30
0.0
 10
400.243339984034
 20
62.70397883278175
 30
0.0
  0
SPLINE
  5
8D
330
1F
100
AcDbEntity
  8
0
  6
Continuous
 62
     7
370
    25
100
AcDbSpline
210
0.0
220
0.0
230
1.0
 70
     8
 71
     3
 72
     9
 73
     5
 74
     0
 42
0.000000001
 43
0.00000001
 40
0.0
 40
0.0
 40
0.0
 40
0.0
 40
0.5000052249527507
 40
1.0
 40
1.0
 40
1.0
 40
1.0
 10
397.9927252165164
 20
61.40636653494968
 30
0.0
 10
398.1178270820336
 20
61.62261629103153
 30
0.0
 10
398.3680281984903
 20
62.0551112836634
 30
0.0
 10
398.618236927072
 20
62.48769115654856
 30
0.0
 10
398.743339984034
 20
62.70397883278175
 30
0.0
  0
SPLINE
  5
8F
330
1F
100
AcDbEntity
  8
0
  6
Continuous
 62
     7
370
    25
100
AcDbSpline
210
0.0
220
0.0
230
1.0
 70
     8
 71
     3
 72
     9
 73
     5
 74
     0
 42
0.000000001
 43
0.00000001
 40
0.0
 40
0.0
 40
0.0
 40
0.0
 40
0.4550223464843913
 40
0.9999999999999999
 40
0.9999999999999999
 40
0.9999999999999999
 40
0.9999999999999999
 10
396.5546809136615
 20
61.51346545505704
 30
0.0
 10
396.6591310324987
 20
61.69401727011072
 30
0.0
 10
396.8886804593437
 20
62.0908149580675
 30
0.0
 10
397.1182368700033
 20
62.48769052019552
 30
0.0
 10
397.243339984034
 20
62.70397883278175
 30
0.0
  0
SPLINE
  5
90
330
1F
100
AcDbEntity
  8
0
  6
Continuous
 62
     7
370
    25
100
AcDbSpline
210
0.0
220
0.0
230
1.0
 70
     8
 71
     3
 72
     9
 73
     5
 74
     0
 42
0.000000001
 43
0.00000001
 40
0.0
 40
0.0
 40
0.0
 40
0.0
 40
0.5000052249527284
 40
1.0
 40
1.0
 40
1.0
 40
1.0
 10
394.9927252165164
 20
61.40636653494968
 30
0.0
 10
395.1178270820336
 20
61.62261629103152
 30
0.0
 10
395.3680281984902
 20
62.05511128366341
 30
0.0
 10
395.618236927072
 20
62.48769115654857
 30
0.0
 10
395.743339984034
 20
62.70397883278175
 30
0.0
  0
SPLINE
  5
91
330
1F
100
AcDbEntity
  8
0
  6
Continuous
 62
     7
370
    25
100
AcDbSpline
210
0.0
220
0.0
230
1.0
 70
     8
 71
     3
 72
     9
 73
     5
 74
     0
 42
0.000000001
 43
0.00000001
 40
0.0
 40
0.0
 40
0.0
 40
0.0
 40
0.5570743320100197
 40
1.0
 40
1.0
 40
1.0
 40
1.0
 10
410.0099880310873
 20
81.29110202811401
 30
0.0
 10
409.8847815745634
 20
81.50777276720882
 30
0.0
 10
409.6600243934667
 20
81.89671680330007
 30
0.0
 10
409.4352948298976
 20
82.28567822830357
 30
0.0
 10
409.3357563378366
 20
82.45795922729559
 30
0.0
  0
SPLINE
  5
92
330
1F
100
AcDbEntity
  8
0
  6
Continuous
 62
     7
370
    25
100
AcDbSpline
210
0.0
220
0.0
230
1.0
 70
     8
 71
     3
 72
     9
 73
     5
 74
     0
 42
0.000000001
 43
0.00000001
 40
0.0
 40
0.0
 40
0.0
 40
0.0
 40
0.5040419751119328
 40
1.0
 40
1.0
 40
1.0
 40
1.0
 10
409.1891228366555
 20
82.4986081797486
 30
0.0
 10
409.0734472015312
 20
82.2984806017868
 30
0.0
 10
408.8439511658117
 20
81.90143514159998
 30
0.0
 10
408.6144226982717
 20
81.50432327195466
 30
0.0
 10
408.5005862128551
 20
81.30737245342577
 30
0.0
  0
SPLINE
  5
93
330
1F
100
AcDbEntity
  8
0
  6
Continuous
 62
     7
370
    25
100
AcDbSpline
210
0.0
220
0.0
230
1.0
 70
     8
 71
     3
 72
     9
 73
     5
 74
     0
 42
0.000000001
 43
0.00000001
 40
0.0
 40
0.0
 40
0.0
 40
0.0
 40
0.5040419751119177
 40
0.9999999999999999
 40
0.9999999999999999
 40
0.9999999999999999
 40
0.9999999999999999
 10
407.6891228366555
 20
82.4986081797486
 30
0.0
 10
407.5734472015312
 20
82.2984806017868
 30
0.0
 10
407.3439511658116
 20
81.90143514159993
 30
0.0
 10
407.1144226982717
 20
81.50432327195466
 30
0.0
 10
407.0005862128551
 20
81.30737245342577
 30
0.0
  0
SPLINE
  5
94
330
1F
100
AcDbEntity
  8
0
  6
Continuous
 62
     7
370
    25
100
AcDbSpline
210
0.0
220
0.0
230
1.0
 70
     8
 71
     3
 72
     9
 73
     5
 74
     0
 42
0.000000001
 43
0.00000001
 40
0.0
 40
0.0
 40
0.0
 40
0.0
 40
0.5040419751119526
 40
1.0
 40
1.0
 40
1.0
 40
1.0
 10
406.1891228366555
 20
82.4986081797486
 30
0.0
 10
406.0734472015311
 20
82.2984806017868
 30
0.0
 10
405.8439511658117
 20
81.90143514160002
 30
0.0
 10
405.6144226982717
 20
81.50432327195466
 30
0.0
 10
405.5005862128551
 20
81.30737245342577
 30
0.0
  0
SPLINE
  5
95
330
1F
100
AcDbEntity
  8
0
  6
Continuous
 62
     7
370
    25
100
AcDbSpline
210
0.0
220
0.0
230
1.0
 70
     8
 71
     3
 72
     9
 73
     5
 74
     0
 42
0.000000001
 43
0.00000001
 40
0.0
 40
0.0
 40
0.0
 40
0.0
 40
0.5040419751119469
 40
0.9999999999999999
 40
0.9999999999999999
 40
0.9999999999999999
 40
0.9999999999999999
 10
404.6891228366555
 20
82.4986081797486
 30
0.0
 10
404.5734472015311
 20
82.29848060178679
 30
0.0
 10
404.3439511658116
 20
81.90143514159996
 30
0.0
 10
404.1144226982718
 20
81.50432327195468
 30
0.0
 10
404.0005862128551
 20
81.30737245342578
 30
0.0
  0
SPLINE
  5
96
330
1F
100
AcDbEntity
  8
0
  6
Continuous
 62
     7
370
    25
100
AcDbSpline
210
0.0
220
0.0
230
1.0
 70
     8
 71
     3
 72
     9
 73
     5
 74
     0
 42
0.000000001
 43
0.00000001
 40
0.0
 40
0.0
 40
0.0
 40
0.0
 40
0.5040419751119651
 40
1.0
 40
1.0
 40
1.0
 40
1.0
 10
403.1891228366555
 20
82.4986081797486
 30
0.0
 10
403.0734472015311
 20
82.29848060178679
 30
0.0
 10
402.8439511658117
 20
81.90143514159999
 30
0.0
 10
402.6144226982717
 20
81.50432327195468
 30
0.0
 10
402.500586212855
 20
81.30737245342577
 30
0.0
  0
SPLINE
  5
97
330
1F
100
AcDbEntity
  8
0
  6
Continuous
 62
     7
370
    25
100
AcDbSpline
210
0.0
220
0.0
230
1.0
 70
     8
 71
     3
 72
     9
 73
     5
 74
     0
 42
0.000000001
 43
0.00000001
 40
0.0
 40
0.0
 40
0.0
 40
0.0
 40
0.5040419751119589
 40
1.0
 40
1.0
 40
1.0
 40
1.0
 10
401.6891228366555
 20
82.4986081797486
 30
0.0
 10
401.5734472015311
 20
82.2984806017868
 30
0.0
 10
401.3439511658117
 20
81.90143514159999
 30
0.0
 10
401.1144226982718
 20
81.50432327195466
 30
0.0
 10
401.000586212855
 20
81.30737245342576
 30
0.0
  0
SPLINE
  5
98
330
1F
100
AcDbEntity
  8
0
  6
Continuous
 62
     7
370
    25
100
AcDbSpline
210
0.0
220
0.0
230
1.0
 70
     8
 71
     3
 72
     9
 73
     5
 74
     0
 42
0.000000001
 43
0.00000001
 40
0.0
 40
0.0
 40
0.0
 40
0.0
 40
0.5040419751119634
 40
1.0
 40
1.0
 40
1.0
 40
1.0
 10
400.1891228366555
 20
82.4986081797486
 30
0.0
 10
400.0734472015311
 20
82.29848060178679
 30
0.0
 10
399.8439511658117
 20
81.9014351416
 30
0.0
 10
399.6144226982718
 20
81.50432327195468
 30
0.0
 10
399.5005862128551
 20
81.30737245342577
 30
0.0
  0
SPLINE
  5
99
330
1F
100
AcDbEntity
  8
0
  6
Continuous
 62
     7
370
    25
100
AcDbSpline
210
0.0
220
0.0
230
1.0
 70
     8
 71
     3
 72
     9
 73
     5
 74
     0
 42
0.000000001
 43
0.00000001
 40
0.0
 40
0.0
 40
0.0
 40
0.0
 40
0.5040419751119735
 40
0.9999999999999999
 40
0.9999999999999999
 40
0.9999999999999999
 40
0.9999999999999999
 10
398.6891228366555
 20
82.4986081797486
 30
0.0
 10
398.5734472015311
 20
82.29848060178679
 30
0.0
 10
398.3439511658116
 20
81.90143514159999
 30
0.0
 10
398.1144226982719
 20
81.50432327195469
 30
0.0
 10
398.0005862128552
 20
81.30737245342578
 30
0.0
  0
SPLINE
  5
9A
330
1F
100
AcDbEntity
  8
0
  6
Continuous
 62
     7
370
    25
100
AcDbSpline
210
0.0
220
0.0
230
1.0
 70
     8
 71
     3
 72
     9
 73
     5
 74
     0
 42
0.000000001
 43
0.00000001
 40
0.0
 40
0.0
 40
0.0
 40
0.0
 40
0.5040419751119402
 40
1.0
 40
1.0
 40
1.0
 40
1.0
 10
397.1891228366555
 20
82.4986081797486
 30
0.0
 10
397.0734472015312
 20
82.2984806017868
 30
0.0
 10
396.8439511658117
 20
81.90143514159998
 30
0.0
 10
396.6144226982718
 20
81.50432327195468
 30
0.0
 10
396.5005862128552
 20
81.30737245342577
 30
0.0
  0
SPLINE
  5
9B
330
1F
100
AcDbEntity
  8
0
  6
Continuous
 62
     7
370
    25
100
AcDbSpline
210
0.0
220
0.0
230
1.0
 70
     8
 71
     3
 72
     9
 73
     5
 74
     0
 42
0.000000001
 43
0.00000001
 40
0.0
 40
0.0
 40
0.0
 40
0.0
 40
0.5040419751119501
 40
1.0
 40
1.0
 40
1.0
 40
1.0
 10
395.6891228366555
 20
82.4986081797486
 30
0.0
 10
395.5734472015312
 20
82.2984806017868
 30
0.0
 10
395.3439511658117
 20
81.90143514159999
 30
0.0
 10
395.1144226982717
 20
81.50432327195466
 30
0.0
 10
395.0005862128551
 20
81.30737245342576
 30
0.0
  0
SPLINE
  5
9C
330
1F
100
AcDbEntity
  8
0
  6
Continuous
 62
     7
370
    25
100
AcDbSpline
210
0.0
220
0.0
230
1.0
 70
     8
 71
     3
 72
     9
 73
     5
 74
     0
 42
0.000000001
 43
0.00000001
 40
0.0
 40
0.0
 40
0.0
 40
0.0
 40
0.4999812489224445
 40
0.9999999999999999
 40
0.9999999999999999
 40
0.9999999999999999
 40
0.9999999999999999
 10
407.7400432120477
 20
62.7088428588703
 30
0.0
 10
407.8557059597103
 20
62.50868726474161
 30
0.0
 10
408.0870401305654
 20
62.10836106338891
 30
0.0
 10
408.3183475045684
 20
61.70801881879999
 30
0.0
 10
408.4340055288324
 20
61.50784018965705
 30
0.0
  0
SPLINE
  5
9D
330
1F
100
AcDbEntity
  8
0
  6
Continuous
 62
     7
370
    25
100
AcDbSpline
210
0.0
220
0.0
230
1.0
 70
     8
 71
     3
 72
     9
 73
     5
 74
     0
 42
0.000000001
 43
0.00000001
 40
0.0
 40
0.0
 40
0.0
 40
0.0
 40
0.4999812489224245
 40
0.9999999999999999
 40
0.9999999999999999
 40
0.9999999999999999
 40
0.9999999999999999
 10
406.2400432120477
 20
62.7088428588703
 30
0.0
 10
406.3557059597103
 20
62.5086872647416
 30
0.0
 10
406.5870401305654
 20
62.10836106338887
 30
0.0
 10
406.8183475045683
 20
61.70801881879998
 30
0.0
 10
406.9340055288324
 20
61.50784018965705
 30
0.0
  0
SPLINE
  5
9E
330
1F
100
AcDbEntity
  8
0
  6
Continuous
 62
     7
370
    25
100
AcDbSpline
210
0.0
220
0.0
230
1.0
 70
     8
 71
     3
 72
     9
 73
     5
 74
     0
 42
0.000000001
 43
0.00000001
 40
0.0
 40
0.0
 40
0.0
 40
0.0
 40
0.4999812489224332
 40
0.9999999999999999
 40
0.9999999999999999
 40
0.9999999999999999
 40
0.9999999999999999
 10
404.7400432120476
 20
62.7088428588703
 30
0.0
 10
404.8557059597103
 20
62.5086872647416
 30
0.0
 10
405.0870401305655
 20
62.10836106338888
 30
0.0
 10
405.3183475045684
 20
61.70801881879997
 30
0.0
 10
405.4340055288324
 20
61.50784018965705
 30
0.0
  0
SPLINE
  5
9F
330
1F
100
AcDbEntity
  8
0
  6
Continuous
 62
     7
370
    25
100
AcDbSpline
210
0.0
220
0.0
230
1.0
 70
     8
 71
     3
 72
     9
 73
     5
 74
     0
 42
0.000000001
 43
0.00000001
 40
0.0
 40
0.0
 40
0.0
 40
0.0
 40
0.4999812489224332
 40
0.9999999999999999
 40
0.9999999999999999
 40
0.9999999999999999
 40
0.9999999999999999
 10
403.2400432120476
 20
62.7088428588703
 30
0.0
 10
403.3557059597103
 20
62.5086872647416
 30
0.0
 10
403.5870401305655
 20
62.10836106338888
 30
0.0
 10
403.8183475045682
 20
61.70801881879997
 30
0.0
 10
403.9340055288324
 20
61.50784018965705
 30
0.0
  0
SPLINE
  5
A0
330
1F
100
AcDbEntity
  8
0
  6
Continuous
 62
     7
370
    25
100
AcDbSpline
210
0.0
220
0.0
230
1.0
 70
     8
 71
     3
 72
     9
 73
     5
 74
     0
 42
0.000000001
 43
0.00000001
 40
0.0
 40
0.0
 40
0.0
 40
0.0
 40
0.4999812489224489
 40
0.9999999999999999
 40
0.9999999999999999
 40
0.9999999999999999
 40
0.9999999999999999
 10
401.7400432120477
 20
62.70884285887031
 30
0.0
 10
401.8557059597103
 20
62.50868726474161
 30
0.0
 10
402.0870401305655
 20
62.1083610633889
 30
0.0
 10
402.3183475045684
 20
61.70801881879999
 30
0.0
 10
402.4340055288324
 20
61.50784018965705
 30
0.0
  0
SPLINE
  5
A1
330
1F
100
AcDbEntity
  8
0
  6
Continuous
 62
     7
370
    25
100
AcDbSpline
210
0.0
220
0.0
230
1.0
 70
     8
 71
     3
 72
     9
 73
     5
 74
     0
 42
0.000000001
 43
0.00000001
 40
0.0
 40
0.0
 40
0.0
 40
0.0
 40
0.4999812489224488
 40
0.9999999999999999
 40
0.9999999999999999
 40
0.9999999999999999
 40
0.9999999999999999
 10
400.2400432120477
 20
62.70884285887031
 30
0.0
 10
400.3557059597103
 20
62.5086872647416
 30
0.0
 10
400.5870401305655
 20
62.1083610633889
 30
0.0
 10
400.8183475045684
 20
61.70801881879999
 30
0.0
 10
400.9340055288324
 20
61.50784018965705
 30
0.0
  0
SPLINE
  5
A2
330
1F
100
AcDbEntity
  8
0
  6
Continuous
 62
     7
370
    25
100
AcDbSpline
210
0.0
220
0.0
230
1.0
 70
     8
 71
     3
 72
     9
 73
     5
 74
     0
 42
0.000000001
 43
0.00000001
 40
0.0
 40
0.0
 40
0.0
 40
0.0
 40
0.4999812489224689
 40
0.9999999999999999
 40
0.9999999999999999
 40
0.9999999999999999
 40
0.9999999999999999
 10
398.7400432120477
 20
62.70884285887031
 30
0.0
 10
398.8557059597104
 20
62.50868726474161
 30
0.0
 10
399.0870401305655
 20
62.10836106338892
 30
0.0
 10
399.3183475045686
 20
61.7080188188
 30
0.0
 10
399.4340055288324
 20
61.50784018965705
 30
0.0
  0
SPLINE
  5
A3
330
1F
100
AcDbEntity
  8
0
  6
Continuous
 62
     7
370
    25
100
AcDbSpline
210
0.0
220
0.0
230
1.0
 70
     8
 71
     3
 72
     9
 73
     5
 74
     0
 42
0.000000001
 43
0.00000001
 40
0.0
 40
0.0
 40
0.0
 40
0.0
 40
0.4999812489224087
 40
0.9999999999999999
 40
0.9999999999999999
 40
0.9999999999999999
 40
0.9999999999999999
 10
397.2400432120477
 20
62.70884285887031
 30
0.0
 10
397.3557059597103
 20
62.5086872647416
 30
0.0
 10
397.5870401305654
 20
62.10836106338885
 30
0.0
 10
397.8183475045684
 20
61.70801881879999
 30
0.0
 10
397.9340055288324
 20
61.50784018965705
 30
0.0
  0
SPLINE
  5
A4
330
1F
100
AcDbEntity
  8
0
  6
Continuous
 62
     7
370
    25
100
AcDbSpline
210
0.0
220
0.0
230
1.0
 70
     8
 71
     3
 72
     9
 73
     5
 74
     0
 42
0.000000001
 43
0.00000001
 40
0.0
 40
0.0
 40
0.0
 40
0.0
 40
0.4999812489224288
 40
0.9999999999999999
 40
0.9999999999999999
 40
0.9999999999999999
 40
0.9999999999999999
 10
395.7400432120477
 20
62.70884285887031
 30
0.0
 10
395.8557059597103
 20
62.5086872647416
 30
0.0
 10
396.0870401305655
 20
62.10836106338887
 30
0.0
 10
396.3183475045684
 20
61.70801881879998
 30
0.0
 10
396.4340055288324
 20
61.50784018965705
 30
0.0
  0
SPLINE
  5
A5
330
1F
100
AcDbEntity
  8
0
  6
Continuous
 62
     7
370
    25
100
AcDbSpline
210
0.0
220
0.0
230
1.0
 70
     8
 71
     3
 72
     9
 73
     5
 74
     0
 42
0.000000001
 43
0.00000001
 40
0.0
 40
0.0
 40
0.0
 40
0.0
 40
0.4999812489224245
 40
0.9999999999999999
 40
0.9999999999999999
 40
0.9999999999999999
 40
0.9999999999999999
 10
409.2400432120477
 20
62.7088428588703
 30
0.0
 10
409.3557059597103
 20
62.5086872647416
 30
0.0
 10
409.5870401305654
 20
62.10836106338887
 30
0.0
 10
409.8183475045683
 20
61.70801881879998
 30
0.0
 10
409.9340055288324
 20
61.50784018965705
 30
0.0
  0
SPLINE
  5
BA
330
1F
100
AcDbEntity
  8
0
  6
Continuous
 62
     7
370
    25
100
AcDbSpline
210
0.0
220
0.0
230
1.0
 70
     8
 71
     3
 72
     9
 73
     5
 74
     0
 42
0.000000001
 43
0.00000001
 40
0.0
 40
0.0
 40
0.0
 40
0.0
 40
0.5000045567552974
 40
1.0
 40
1.0
 40
1.0
 40
1.0
 10
-10.05730860515314
 20
2.885576551850518
 30
0.0
 10
-9.85943000367573
 20
2.773043615148567
 30
0.0
 10
-9.463676407425487
 20
2.547979792866209
 30
0.0
 10
-9.068145064320966
 20
2.322909694325644
 30
0.0
 10
-8.870381195108273
 20
2.210375670644728
 30
0.0
  0
SPLINE
  5
BB
330
1F
100
AcDbEntity
  8
0
  6
Continuous
 62
     7
370
    25
100
AcDbSpline
210
0.0
220
0.0
230
1.0
 70
     8
 71
     3
 72
     9
 73
     5
 74
     0
 42
0.000000001
 43
0.00000001
 40
0.0
 40
0.0
 40
0.0
 40
0.0
 40
0.5000045567552974
 40
1.0
 40
1.0
 40
1.0
 40
1.0
 10
-10.05730860515314
 20
4.385576551850512
 30
0.0
 10
-9.85943000367573
 20
4.273043615148568
 30
0.0
 10
-9.463676407425487
 20
4.047979792866204
 30
0.0
 10
-9.068145064320966
 20
3.822909694325645
 30
0.0
 10
-8.870381195108273
 20
3.710375670644722
 30
0.0
  0
SPLINE
  5
BC
330
1F
100
AcDbEntity
  8
0
  6
Continuous
 62
     7
370
    25
100
AcDbSpline
210
0.0
220
0.0
230
1.0
 70
     8
 71
     3
 72
     9
 73
     5
 74
     0
 42
0.000000001
 43
0.00000001
 40
0.0
 40
0.0
 40
0.0
 40
0.0
 40
0.5000045567552978
 40
1.0
 40
1.0
 40
1.0
 40
1.0
 10
-10.05730860515314
 20
5.885576551850513
 30
0.0
 10
-9.859430003675701
 20
5.773043615148563
 30
0.0
 10
-9.463676407425458
 20
5.547979792866197
 30
0.0
 10
-9.068145064320966
 20
5.32290969432564
 30
0.0
 10
-8.870381195108273
 20
5.210375670644724
 30
0.0
  0
SPLINE
  5
BD
330
1F
100
AcDbEntity
  8
0
  6
Continuous
 62
     7
370
    25
100
AcDbSpline
210
0.0
220
0.0
230
1.0
 70
     8
 71
     3
 72
     9
 73
     5
 74
     0
 42
0.000000001
 43
0.00000001
 40
0.0
 40
0.0
 40
0.0
 40
0.0
 40
0.5000045567552973
 40
1.0
 40
1.0
 40
1.0
 40
1.0
 10
-10.05730860515314
 20
7.385576551850508
 30
0.0
 10
-9.85943000367573
 20
7.273043615148557
 30
0.0
 10
-9.463676407425487
 20
7.047979792866199
 30
0.0
 10
-9.068145064320966
 20
6.822909694325634
 30
0.0
 10
-8.870381195108273
 20
6.710375670644718
 30
0.0
  0
SPLINE
  5
BE
330
1F
100
AcDbEntity
  8
0
  6
Continuous
 62
     7
370
    25
100
AcDbSpline
210
0.0
220
0.0
230
1.0
 70
     8
 71
     3
 72
     9
 73
     5
 74
     0
 42
0.000000001
 43
0.00000001
 40
0.0
 40
0.0
 40
0.0
 40
0.0
 40
0.5000045567552954
 40
1.0
 40
1.0
 40
1.0
 40
1.0
 10
-10.05730860515314
 20
8.885576551850502
 30
0.0
 10
-9.85943000367573
 20
8.77304361514856
 30
0.0
 10
-9.463676407425487
 20
8.547979792866201
 30
0.0
 10
-9.068145064320966
 20
8.322909694325634
 30
0.0
 10
-8.870381195108273
 20
8.210375670644712
 30
0.0
  0
SPLINE
  5
BF
330
1F
100
AcDbEntity
  8
0
  6
Continuous
 62
     7
370
    25
100
AcDbSpline
210
0.0
220
0.0
230
1.0
 70
     8
 71
     3
 72
     9
 73
     5
 74
     0
 42
0.000000001
 43
0.00000001
 40
0.0
 40
0.0
 40
0.0
 40
0.0
 40
0.4999781017899841
 40
0.9999999999999999
 40
0.9999999999999999
 40
0.9999999999999999
 40
0.9999999999999999
 10
8.990474970139273
 20
1.489490584134292
 30
0.0
 10
9.190648756242176
 20
1.602136636257738
 30
0.0
 10
9.591013863006342
 20
1.827438607924413
 30
0.0
 10
9.991396169788253
 20
2.052710066696717
 30
0.0
 10
10.19159609083506
 20
2.165350729124577
 30
0.0
  0
SPLINE
  5
C0
330
1F
100
AcDbEntity
  8
0
  6
Continuous
 62
     7
370
    25
100
AcDbSpline
210
0.0
220
0.0
230
1.0
 70
     8
 71
     3
 72
     9
 73
     5
 74
     0
 42
0.000000001
 43
0.00000001
 40
0.0
 40
0.0
 40
0.0
 40
0.0
 40
0.4999781017899868
 40
0.9999999999999999
 40
0.9999999999999999
 40
0.9999999999999999
 40
0.9999999999999999
 10
8.990474970139273
 20
2.989490584134287
 30
0.0
 10
9.190648756242176
 20
3.102136636257733
 30
0.0
 10
9.591013863006342
 20
3.327438607924407
 30
0.0
 10
9.991396169788253
 20
3.552710066696711
 30
0.0
 10
10.19159609083506
 20
3.665350729124578
 30
0.0
  0
SPLINE
  5
C1
330
1F
100
AcDbEntity
  8
0
  6
Continuous
 62
     7
370
    25
100
AcDbSpline
210
0.0
220
0.0
230
1.0
 70
     8
 71
     3
 72
     9
 73
     5
 74
     0
 42
0.000000001
 43
0.00000001
 40
0.0
 40
0.0
 40
0.0
 40
0.0
 40
0.4999781017899841
 40
0.9999999999999999
 40
0.9999999999999999
 40
0.9999999999999999
 40
0.9999999999999999
 10
8.990474970139273
 20
4.489490584134288
 30
0.0
 10
9.190648756242176
 20
4.602136636257733
 30
0.0
 10
9.591013863006342
 20
4.827438607924401
 30
0.0
 10
9.991396169788253
 20
5.052710066696705
 30
0.0
 10
10.19159609083506
 20
5.165350729124572
 30
0.0
  0
SPLINE
  5
C2
330
1F
100
AcDbEntity
  8
0
  6
Continuous
 62
     7
370
    25
100
AcDbSpline
210
0.0
220
0.0
230
1.0
 70
     8
 71
     3
 72
     9
 73
     5
 74
     0
 42
0.000000001
 43
0.00000001
 40
0.0
 40
0.0
 40
0.0
 40
0.0
 40
0.4999781017899855
 40
0.9999999999999999
 40
0.9999999999999999
 40
0.9999999999999999
 40
0.9999999999999999
 10
8.990474970139273
 20
5.989490584134282
 30
0.0
 10
9.190648756242176
 20
6.102136636257728
 30
0.0
 10
9.591013863006342
 20
6.327438607924403
 30
0.0
 10
9.991396169788253
 20
6.5527100666967
 30
0.0
 10
10.19159609083506
 20
6.665350729124573
 30
0.0
  0
SPLINE
  5
C3
330
1F
100
AcDbEntity
  8
0
  6
Continuous
 62
     7
370
    25
100
AcDbSpline
210
0.0
220
0.0
230
1.0
 70
     8
 71
     3
 72
     9
 73
     5
 74
     0
 42
0.000000001
 43
0.00000001
 40
0.0
 40
0.0
 40
0.0
 40
0.0
 40
0.499978101789986
 40
0.9999999999999999
 40
0.9999999999999999
 40
0.9999999999999999
 40
0.9999999999999999
 10
8.990474970139273
 20
7.489490584134284
 30
0.0
 10
9.190648756242176
 20
7.602136636257723
 30
0.0
 10
9.591013863006342
 20
7.827438607924398
 30
0.0
 10
9.991396169788253
 20
8.0527100666967
 30
0.0
 10
10.19159609083506
 20
8.165350729124569
 30
0.0
  0
SPLINE
  5
C4
330
1F
100
AcDbEntity
  8
0
  6
Continuous
 62
     7
370
    25
100
AcDbSpline
210
0.0
220
0.0
230
1.0
 70
     8
 71
     3
 72
     9
 73
     5
 74
     0
 42
0.000000001
 43
0.00000001
 40
0.0
 40
0.0
 40
0.0
 40
0.0
 40
0.4999781017899843
 40
0.9999999999999999
 40
0.9999999999999999
 40
0.9999999999999999
 40
0.9999999999999999
 10
8.990474970139273
 20
8.989490584134279
 30
0.0
 10
9.190648756242176
 20
9.102136636257724
 30
0.0
 10
9.591013863006342
 20
9.327438607924392
 30
0.0
 10
9.991396169788253
 20
9.552710066696696
 30
0.0
 10
10.19159609083506
 20
9.665350729124562
 30
0.0
  0
SPLINE
  5
C5
330
1F
100
AcDbEntity
  8
0
  6
Continuous
 62
     7
370
    25
100
AcDbSpline
210
0.0
220
0.0
230
1.0
 70
     8
 71
     3
 72
     9
 73
     5
 74
     0
 42
0.000000001
 43
0.00000001
 40
0.0
 40
0.0
 40
0.0
 40
0.0
 40
0.4999781017899843
 40
0.9999999999999999
 40
0.9999999999999999
 40
0.9999999999999999
 40
0.9999999999999999
 10
8.990474970139273
 20
-0.0105094158657018
 30
0.0
 10
9.190648756242176
 20
0.1021366362577367
 30
0.0
 10
9.591013863006342
 20
0.3274386079244115
 30
0.0
 10
9.991396169788253
 20
0.5527100666967155
 30
0.0
 10
10.19159609083506
 20
0.6653507291245822
 30
0.0
  0
SPLINE
  5
C6
330
1F
100
AcDbEntity
  8
0
  6
Continuous
 62
     7
370
    25
100
AcDbSpline
210
0.0
220
0.0
230
1.0
 70
     8
 71
     3
 72
     9
 73
     5
 74
     0
 42
0.000000001
 43
0.00000001
 40
0.0
 40
0.0
 40
0.0
 40
0.0
 40
0.5000045567552986
 40
1.0
 40
1.0
 40
1.0
 40
1.0
 10
-10.05730860515314
 20
1.385576551850516
 30
0.0
 10
-9.859430003675701
 20
1.273043615148572
 30
0.0
 10
-9.463676407425458
 20
1.047979792866208
 30
0.0
 10
-9.068145064320966
 20
0.8229096943256492
 30
0.0
 10
-8.870381195108273
 20
0.7103756706447334
 30
0.0
  0
SPLINE
  5
C7
330
1F
100
AcDbEntity
  8
0
  6
Continuous
 62
     7
370
    25
100
AcDbSpline
210
0.0
220
0.0
230
1.0
 70
     8
 71
     3
 72
     9
 73
     5
 74
     0
 42
0.000000001
 43
0.00000001
 40
0.0
 40
0.0
 40
0.0
 40
0.0
 40
0.499980703278912
 40
1.0
 40
1.0
 40
1.0
 40
1.0
 10
-8.991446651342855
 20
2.145837347728559
 30
0.0
 10
-9.19160390908752
 20
2.027092516134005
 30
0.0
 10
-9.591933874688236
 20
1.789593687047577
 30
0.0
 10
-9.992280157794381
 20
1.552123184775586
 30
0.0
 10
-10.19246102471799
 20
1.433383351237536
 30
0.0
  0
SPLINE
  5
C8
330
1F
100
AcDbEntity
  8
0
  6
Continuous
 62
     7
370
    25
100
AcDbSpline
210
0.0
220
0.0
230
1.0
 70
     8
 71
     3
 72
     9
 73
     5
 74
     0
 42
0.000000001
 43
0.00000001
 40
0.0
 40
0.0
 40
0.0
 40
0.0
 40
0.499980703278912
 40
1.0
 40
1.0
 40
1.0
 40
1.0
 10
-8.991446651342855
 20
3.645837347728553
 30
0.0
 10
-9.19160390908752
 20
3.527092516134006
 30
0.0
 10
-9.591933874688236
 20
3.289593687047572
 30
0.0
 10
-9.992280157794381
 20
3.052123184775581
 30
0.0
 10
-10.19246102471799
 20
2.933383351237537
 30
0.0
  0
SPLINE
  5
C9
330
1F
100
AcDbEntity
  8
0
  6
Continuous
 62
     7
370
    25
100
AcDbSpline
210
0.0
220
0.0
230
1.0
 70
     8
 71
     3
 72
     9
 73
     5
 74
     0
 42
0.000000001
 43
0.00000001
 40
0.0
 40
0.0
 40
0.0
 40
0.0
 40
0.4999807032789124
 40
1.0
 40
1.0
 40
1.0
 40
1.0
 10
-8.991446651342855
 20
5.145837347728555
 30
0.0
 10
-9.19160390908752
 20
5.027092516134
 30
0.0
 10
-9.591933874688236
 20
4.789593687047566
 30
0.0
 10
-9.992280157794381
 20
4.552123184775575
 30
0.0
 10
-10.19246102471799
 20
4.433383351237532
 30
0.0
  0
SPLINE
  5
CA
330
1F
100
AcDbEntity
  8
0
  6
Continuous
 62
     7
370
    25
100
AcDbSpline
210
0.0
220
0.0
230
1.0
 70
     8
 71
     3
 72
     9
 73
     5
 74
     0
 42
0.000000001
 43
0.00000001
 40
0.0
 40
0.0
 40
0.0
 40
0.0
 40
0.4999807032789115
 40
1.0
 40
1.0
 40
1.0
 40
1.0
 10
-8.991446651342855
 20
6.645837347728549
 30
0.0
 10
-9.19160390908752
 20
6.527092516134002
 30
0.0
 10
-9.591933874688236
 20
6.289593687047567
 30
0.0
 10
-9.992280157794381
 20
6.052123184775576
 30
0.0
 10
-10.19246102471799
 20
5.933383351237525
 30
0.0
  0
SPLINE
  5
CB
330
1F
100
AcDbEntity
  8
0
  6
Continuous
 62
     7
370
    25
100
AcDbSpline
210
0.0
220
0.0
230
1.0
 70
     8
 71
     3
 72
     9
 73
     5
 74
     0
 42
0.000000001
 43
0.00000001
 40
0.0
 40
0.0
 40
0.0
 40
0.0
 40
0.4999807032789112
 40
1.0
 40
1.0
 40
1.0
 40
1.0
 10
-8.991446651342855
 20
8.14583734772855
 30
0.0
 10
-9.19160390908752
 20
8.027092516133996
 30
0.0
 10
-9.591933874688236
 20
7.789593687047569
 30
0.0
 10
-9.992280157794381
 20
7.552123184775571
 30
0.0
 10
-10.19246102471799
 20
7.433383351237527
 30
0.0
  0
SPLINE
  5
CC
330
1F
100
AcDbEntity
  8
0
  6
Continuous
 62
     7
370
    25
100
AcDbSpline
210
0.0
220
0.0
230
1.0
 70
     8
 71
     3
 72
     9
 73
     5
 74
     0
 42
0.000000001
 43
0.00000001
 40
0.0
 40
0.0
 40
0.0
 40
0.0
 40
0.4999807032789118
 40
1.0
 40
1.0
 40
1.0
 40
1.0
 10
-8.991446651342855
 20
9.645837347728545
 30
0.0
 10
-9.19160390908752
 20
9.52709251613399
 30
0.0
 10
-9.591933874688236
 20
9.28959368704757
 30
0.0
 10
-9.992280157794381
 20
9.052123184775573
 30
0.0
 10
-10.19246102471799
 20
8.933383351237522
 30
0.0
  0
SPLINE
  5
CD
330
1F
100
AcDbEntity
  8
0
  6
Continuous
 62
     7
370
    25
100
AcDbSpline
210
0.0
220
0.0
230
1.0
 70
     8
 71
     3
 72
     9
 73
     5
 74
     0
 42
0.000000001
 43
0.00000001
 40
0.0
 40
0.0
 40
0.0
 40
0.0
 40
0.5000045124918653
 40
1.0
 40
1.0
 40
1.0
 40
1.0
 10
10.18387856536765
 20
2.161745368771256
 30
0.0
 10
9.98442209329356
 20
2.280384427677751
 30
0.0
 10
9.585512749295644
 20
2.517660404078914
 30
0.0
 10
9.186496957173162
 20
2.754942622833906
 30
0.0
 10
8.986990861667433
 20
2.873582661477324
 30
0.0
  0
SPLINE
  5
CE
330
1F
100
AcDbEntity
  8
0
  6
Continuous
 62
     7
370
    25
100
AcDbSpline
210
0.0
220
0.0
230
1.0
 70
     8
 71
     3
 72
     9
 73
     5
 74
     0
 42
0.000000001
 43
0.00000001
 40
0.0
 40
0.0
 40
0.0
 40
0.0
 40
0.5000045124918655
 40
1.0
 40
1.0
 40
1.0
 40
1.0
 10
10.18387856536765
 20
3.661745368771258
 30
0.0
 10
9.98442209329356
 20
3.780384427677745
 30
0.0
 10
9.585512749295644
 20
4.017660404078908
 30
0.0
 10
9.186496957173162
 20
4.254942622833907
 30
0.0
 10
8.986990861667433
 20
4.373582661477318
 30
0.0
  0
SPLINE
  5
CF
330
1F
100
AcDbEntity
  8
0
  6
Continuous
 62
     7
370
    25
100
AcDbSpline
210
0.0
220
0.0
230
1.0
 70
     8
 71
     3
 72
     9
 73
     5
 74
     0
 42
0.000000001
 43
0.00000001
 40
0.0
 40
0.0
 40
0.0
 40
0.0
 40
0.500004512491863
 40
1.0
 40
1.0
 40
1.0
 40
1.0
 10
10.18387856536765
 20
5.161745368771252
 30
0.0
 10
9.98442209329356
 20
5.280384427677746
 30
0.0
 10
9.585512749295644
 20
5.517660404078903
 30
0.0
 10
9.186496957173162
 20
5.754942622833902
 30
0.0
 10
8.986990861667433
 20
5.87358266147732
 30
0.0
  0
SPLINE
  5
D0
330
1F
100
AcDbEntity
  8
0
  6
Continuous
 62
     7
370
    25
100
AcDbSpline
210
0.0
220
0.0
230
1.0
 70
     8
 71
     3
 72
     9
 73
     5
 74
     0
 42
0.000000001
 43
0.00000001
 40
0.0
 40
0.0
 40
0.0
 40
0.0
 40
0.5000045124918644
 40
1.0
 40
1.0
 40
1.0
 40
1.0
 10
10.18387856536765
 20
6.661745368771246
 30
0.0
 10
9.98442209329356
 20
6.780384427677741
 30
0.0
 10
9.585512749295644
 20
7.017660404078904
 30
0.0
 10
9.186496957173162
 20
7.254942622833902
 30
0.0
 10
8.986990861667433
 20
7.373582661477314
 30
0.0
  0
SPLINE
  5
D1
330
1F
100
AcDbEntity
  8
0
  6
Continuous
 62
     7
370
    25
100
AcDbSpline
210
0.0
220
0.0
230
1.0
 70
     8
 71
     3
 72
     9
 73
     5
 74
     0
 42
0.000000001
 43
0.00000001
 40
0.0
 40
0.0
 40
0.0
 40
0.0
 40
0.500004512491865
 40
1.0
 40
1.0
 40
1.0
 40
1.0
 10
10.18387856536765
 20
8.161745368771248
 30
0.0
 10
9.98442209329356
 20
8.280384427677742
 30
0.0
 10
9.585512749295672
 20
8.5176604040789
 30
0.0
 10
9.186496957173162
 20
8.754942622833898
 30
0.0
 10
8.986990861667433
 20
8.873582661477307
 30
0.0
  0
SPLINE
  5
D2
330
1F
100
AcDbEntity
  8
0
  6
Continuous
 62
     7
370
    25
100
AcDbSpline
210
0.0
220
0.0
230
1.0
 70
     8
 71
     3
 72
     9
 73
     5
 74
     0
 42
0.000000001
 43
0.00000001
 40
0.0
 40
0.0
 40
0.0
 40
0.0
 40
0.5000045124918637
 40
1.0
 40
1.0
 40
1.0
 40
1.0
 10
10.18387856536765
 20
9.661745368771243
 30
0.0
 10
9.98442209329356
 20
9.780384427677737
 30
0.0
 10
9.585512749295644
 20
10.01766040407889
 30
0.0
 10
9.186496957173162
 20
10.25494262283389
 30
0.0
 10
8.986990861667433
 20
10.37358266147731
 30
0.0
  0
SPLINE
  5
D3
330
1F
100
AcDbEntity
  8
0
  6
Continuous
 62
     7
370
    25
100
AcDbSpline
210
0.0
220
0.0
230
1.0
 70
     8
 71
     3
 72
     9
 73
     5
 74
     0
 42
0.000000001
 43
0.00000001
 40
0.0
 40
0.0
 40
0.0
 40
0.0
 40
0.5000045124918635
 40
1.0
 40
1.0
 40
1.0
 40
1.0
 10
10.18387856536765
 20
0.6617453687712618
 30
0.0
 10
9.98442209329356
 20
0.7803844276777563
 30
0.0
 10
9.585512749295644
 20
1.017660404078913
 30
0.0
 10
9.186496957173162
 20
1.254942622833911
 30
0.0
 10
8.986990861667433
 20
1.373582661477329
 30
0.0
  0
SPLINE
  5
D4
330
1F
100
AcDbEntity
  8
0
  6
Continuous
 62
     7
370
    25
100
AcDbSpline
210
0.0
220
0.0
230
1.0
 70
     8
 71
     3
 72
     9
 73
     5
 74
     0
 42
0.000000001
 43
0.00000001
 40
0.0
 40
0.0
 40
0.0
 40
0.0
 40
0.5783964034853706
 40
1.0
 40
1.0
 40
1.0
 40
1.0
 10
-8.991446651342855
 20
0.6458373477285645
 30
0.0
 10
-9.19160369583763
 20
0.5270921459371372
 30
0.0
 10
-9.537658829114198
 20
0.3217914195220301
 30
0.0
 10
-9.883728067661412
 20
0.1165151795327057
 30
0.0
 10
-10.02963210327598
 20
0.0299699784742091
 30
0.0
  0
SPLINE
  5
E6
330
1F
100
AcDbEntity
  8
0
  6
Continuous
 62
     7
370
    25
100
AcDbSpline
210
0.0
220
0.0
230
1.0
 70
     8
 71
     3
 72
    19
 73
    15
 74
     0
 42
0.000000001
 43
0.00000001
 40
0.0
 40
0.0
 40
0.0
 40
0.0
 40
0.0754164283359272
 40
0.1616770875051642
 40
0.2464640557596059
 40
0.3312510240140476
 40
0.4175116831832849
 40
0.5022986514377267
 40
0.5870856196921687
 40
0.6733462788614051
 40
0.7581332471158468
 40
0.8429202153702904
 40
0.9291808745395288
 40
0.9999999999999999
 40
0.9999999999999999
 40
0.9999999999999999
 40
0.9999999999999999
 10
409.2432135202299
 20
62.73462041816106
 30
0.0
 10
409.2252093105694
 20
62.79102468506366
 30
0.0
 10
409.1866120414471
 20
62.91194366514391
 30
0.0
 10
409.1235233893755
 20
63.86287808042425
 30
0.0
 10
409.0625032584063
 20
65.34663145566223
 30
0.0
 10
409.0014634637304
 20
67.29672397264015
 30
0.0
 10
408.93603586179
 20
69.565267515944
 30
0.0
 10
408.8750000337245
 20
71.99999391705438
 30
0.0
 10
408.8139640021391
 20
74.43475702729376
 30
0.0
 10
408.7485370178332
 20
76.7031891671206
 30
0.0
 10
408.6874949877956
 20
78.65368487917337
 30
0.0
 10
408.62648320522
 20
80.13593244397507
 30
0.0
 10
408.5645415663861
 20
81.07450080011144
 30
0.0
 10
408.5270286421067
 20
81.19435729903604
 30
0.0
 10
408.5101160107506
 20
81.24839437614689
 30
0.0
  0
SPLINE
  5
E7
330
1F
100
AcDbEntity
  8
0
  6
Continuous
 62
     7
370
    25
100
AcDbSpline
210
0.0
220
0.0
230
1.0
 70
     8
 71
     3
 72
    19
 73
    15
 74
     0
 42
0.000000001
 43
0.00000001
 40
0.0
 40
0.0
 40
0.0
 40
0.0
 40
0.0754164283359265
 40
0.1616770875051635
 40
0.2464640557596054
 40
0.331251024014047
 40
0.4175116831832844
 40
0.5022986514377263
 40
0.5870856196921684
 40
0.673346278861405
 40
0.7581332471158467
 40
0.8429202153702904
 40
0.9291808745395289
 40
1.0
 40
1.0
 40
1.0
 40
1.0
 10
407.7432135202298
 20
62.73462041816106
 30
0.0
 10
407.7252093105694
 20
62.79102468506366
 30
0.0
 10
407.686612041447
 20
62.91194366514389
 30
0.0
 10
407.6235233893758
 20
63.86287808042427
 30
0.0
 10
407.5625032584062
 20
65.3466314556622
 30
0.0
 10
407.5014634637301
 20
67.29672397264012
 30
0.0
 10
407.4360358617902
 20
69.56526751594402
 30
0.0
 10
407.3750000337246
 20
71.99999391705438
 30
0.0
 10
407.3139640021392
 20
74.4347570272938
 30
0.0
 10
407.248537017833
 20
76.70318916712056
 30
0.0
 10
407.1874949877954
 20
78.65368487917338
 30
0.0
 10
407.12648320522
 20
80.13593244397508
 30
0.0
 10
407.0645415663861
 20
81.07450080011141
 30
0.0
 10
407.0270286421066
 20
81.19435729903604
 30
0.0
 10
407.0101160107506
 20
81.24839437614689
 30
0.0
  0
SPLINE
  5
E8
330
1F
100
AcDbEntity
  8
0
  6
Continuous
 62
     7
370
    25
100
AcDbSpline
210
0.0
220
0.0
230
1.0
 70
     8
 71
     3
 72
    19
 73
    15
 74
     0
 42
0.000000001
 43
0.00000001
 40
0.0
 40
0.0
 40
0.0
 40
0.0
 40
0.0754164283359272
 40
0.1616770875051641
 40
0.2464640557596059
 40
0.3312510240140475
 40
0.4175116831832848
 40
0.5022986514377267
 40
0.5870856196921687
 40
0.6733462788614052
 40
0.7581332471158468
 40
0.8429202153702905
 40
0.9291808745395289
 40
1.0
 40
1.0
 40
1.0
 40
1.0
 10
406.2432135202298
 20
62.73462041816106
 30
0.0
 10
406.2252093105694
 20
62.79102468506366
 30
0.0
 10
406.1866120414471
 20
62.91194366514389
 30
0.0
 10
406.1235233893757
 20
63.86287808042426
 30
0.0
 10
406.0625032584063
 20
65.34663145566222
 30
0.0
 10
406.0014634637304
 20
67.29672397264017
 30
0.0
 10
405.9360358617899
 20
69.56526751594399
 30
0.0
 10
405.8750000337247
 20
71.99999391705441
 30
0.0
 10
405.8139640021391
 20
74.43475702729377
 30
0.0
 10
405.7485370178332
 20
76.70318916712057
 30
0.0
 10
405.6874949877956
 20
78.65368487917338
 30
0.0
 10
405.6264832052199
 20
80.13593244397507
 30
0.0
 10
405.5645415663863
 20
81.07450080011145
 30
0.0
 10
405.5270286421067
 20
81.19435729903606
 30
0.0
 10
405.5101160107505
 20
81.24839437614689
 30
0.0
  0
SPLINE
  5
E9
330
1F
100
AcDbEntity
  8
0
  6
Continuous
 62
     7
370
    25
100
AcDbSpline
210
0.0
220
0.0
230
1.0
 70
     8
 71
     3
 72
    19
 73
    15
 74
     0
 42
0.000000001
 43
0.00000001
 40
0.0
 40
0.0
 40
0.0
 40
0.0
 40
0.0754164283359271
 40
0.1616770875051641
 40
0.2464640557596059
 40
0.3312510240140475
 40
0.4175116831832847
 40
0.5022986514377266
 40
0.5870856196921685
 40
0.673346278861405
 40
0.7581332471158466
 40
0.8429202153702903
 40
0.9291808745395287
 40
0.9999999999999999
 40
0.9999999999999999
 40
0.9999999999999999
 40
0.9999999999999999
 10
404.7432135202298
 20
62.73462041816106
 30
0.0
 10
404.7252093105694
 20
62.79102468506366
 30
0.0
 10
404.6866120414469
 20
62.91194366514389
 30
0.0
 10
404.6235233893756
 20
63.86287808042426
 30
0.0
 10
404.5625032584063
 20
65.34663145566223
 30
0.0
 10
404.5014634637301
 20
67.29672397264014
 30
0.0
 10
404.4360358617902
 20
69.56526751594402
 30
0.0
 10
404.3750000337244
 20
71.9999939170544
 30
0.0
 10
404.3139640021391
 20
74.43475702729374
 30
0.0
 10
404.2485370178332
 20
76.7031891671206
 30
0.0
 10
404.1874949877956
 20
78.65368487917338
 30
0.0
 10
404.1264832052199
 20
80.13593244397507
 30
0.0
 10
404.0645415663861
 20
81.07450080011145
 30
0.0
 10
404.0270286421067
 20
81.19435729903604
 30
0.0
 10
404.0101160107506
 20
81.24839437614689
 30
0.0
  0
SPLINE
  5
EA
330
1F
100
AcDbEntity
  8
0
  6
Continuous
 62
     7
370
    25
100
AcDbSpline
210
0.0
220
0.0
230
1.0
 70
     8
 71
     3
 72
    19
 73
    15
 74
     0
 42
0.000000001
 43
0.00000001
 40
0.0
 40
0.0
 40
0.0
 40
0.0
 40
0.0754164283359271
 40
0.1616770875051641
 40
0.2464640557596059
 40
0.3312510240140475
 40
0.4175116831832847
 40
0.5022986514377266
 40
0.5870856196921685
 40
0.673346278861405
 40
0.7581332471158466
 40
0.8429202153702903
 40
0.9291808745395287
 40
1.0
 40
1.0
 40
1.0
 40
1.0
 10
403.2432135202298
 20
62.73462041816106
 30
0.0
 10
403.2252093105694
 20
62.79102468506366
 30
0.0
 10
403.186612041447
 20
62.91194366514389
 30
0.0
 10
403.1235233893756
 20
63.86287808042426
 30
0.0
 10
403.0625032584063
 20
65.34663145566223
 30
0.0
 10
403.0014634637303
 20
67.29672397264014
 30
0.0
 10
402.9360358617902
 20
69.56526751594402
 30
0.0
 10
402.8750000337245
 20
71.9999939170544
 30
0.0
 10
402.813964002139
 20
74.43475702729374
 30
0.0
 10
402.7485370178333
 20
76.7031891671206
 30
0.0
 10
402.6874949877955
 20
78.65368487917338
 30
0.0
 10
402.6264832052199
 20
80.13593244397507
 30
0.0
 10
402.5645415663862
 20
81.07450080011144
 30
0.0
 10
402.5270286421066
 20
81.19435729903603
 30
0.0
 10
402.5101160107505
 20
81.24839437614689
 30
0.0
  0
SPLINE
  5
EB
330
1F
100
AcDbEntity
  8
0
  6
Continuous
 62
     7
370
    25
100
AcDbSpline
210
0.0
220
0.0
230
1.0
 70
     8
 71
     3
 72
    19
 73
    15
 74
     0
 42
0.000000001
 43
0.00000001
 40
0.0
 40
0.0
 40
0.0
 40
0.0
 40
0.0754164283359289
 40
0.1616770875051659
 40
0.2464640557596077
 40
0.3312510240140494
 40
0.4175116831832866
 40
0.5022986514377284
 40
0.5870856196921704
 40
0.673346278861407
 40
0.7581332471158487
 40
0.8429202153702924
 40
0.9291808745395308
 40
1.0
 40
1.0
 40
1.0
 40
1.0
 10
401.7432135202298
 20
62.73462041816105
 30
0.0
 10
401.7252093105693
 20
62.79102468506365
 30
0.0
 10
401.686612041447
 20
62.91194366514389
 30
0.0
 10
401.6235233893756
 20
63.86287808042426
 30
0.0
 10
401.5625032584061
 20
65.34663145566219
 30
0.0
 10
401.5014634637302
 20
67.29672397264014
 30
0.0
 10
401.4360358617901
 20
69.565267515944
 30
0.0
 10
401.3750000337246
 20
71.99999391705441
 30
0.0
 10
401.3139640021391
 20
74.43475702729377
 30
0.0
 10
401.2485370178331
 20
76.70318916712058
 30
0.0
 10
401.1874949877955
 20
78.65368487917337
 30
0.0
 10
401.12648320522
 20
80.13593244397507
 30
0.0
 10
401.0645415663861
 20
81.07450080011144
 30
0.0
 10
401.0270286421067
 20
81.19435729903604
 30
0.0
 10
401.0101160107505
 20
81.24839437614688
 30
0.0
  0
SPLINE
  5
EC
330
1F
100
AcDbEntity
  8
0
  6
Continuous
 62
     7
370
    25
100
AcDbSpline
210
0.0
220
0.0
230
1.0
 70
     8
 71
     3
 72
    19
 73
    15
 74
     0
 42
0.000000001
 43
0.00000001
 40
0.0
 40
0.0
 40
0.0
 40
0.0
 40
0.075416428335929
 40
0.1616770875051662
 40
0.2464640557596081
 40
0.3312510240140498
 40
0.4175116831832872
 40
0.5022986514377292
 40
0.5870856196921713
 40
0.673346278861408
 40
0.7581332471158497
 40
0.8429202153702935
 40
0.929180874539532
 40
1.0
 40
1.0
 40
1.0
 40
1.0
 10
400.2432135202299
 20
62.73462041816105
 30
0.0
 10
400.2252093105694
 20
62.79102468506365
 30
0.0
 10
400.186612041447
 20
62.91194366514391
 30
0.0
 10
400.1235233893757
 20
63.86287808042426
 30
0.0
 10
400.0625032584061
 20
65.3466314556622
 30
0.0
 10
400.0014634637304
 20
67.29672397264017
 30
0.0
 10
399.9360358617899
 20
69.56526751594399
 30
0.0
 10
399.8750000337246
 20
71.99999391705441
 30
0.0
 10
399.8139640021391
 20
74.43475702729378
 30
0.0
 10
399.7485370178331
 20
76.70318916712056
 30
0.0
 10
399.6874949877956
 20
78.6536848791734
 30
0.0
 10
399.62648320522
 20
80.13593244397507
 30
0.0
 10
399.5645415663861
 20
81.07450080011141
 30
0.0
 10
399.5270286421066
 20
81.19435729903603
 30
0.0
 10
399.5101160107506
 20
81.24839437614689
 30
0.0
  0
SPLINE
  5
ED
330
1F
100
AcDbEntity
  8
0
  6
Continuous
 62
     7
370
    25
100
AcDbSpline
210
0.0
220
0.0
230
1.0
 70
     8
 71
     3
 72
    19
 73
    15
 74
     0
 42
0.000000001
 43
0.00000001
 40
0.0
 40
0.0
 40
0.0
 40
0.0
 40
0.075416428335929
 40
0.1616770875051661
 40
0.246464055759608
 40
0.3312510240140498
 40
0.4175116831832871
 40
0.5022986514377291
 40
0.5870856196921712
 40
0.6733462788614077
 40
0.7581332471158496
 40
0.8429202153702934
 40
0.9291808745395319
 40
1.0
 40
1.0
 40
1.0
 40
1.0
 10
398.7432135202299
 20
62.73462041816105
 30
0.0
 10
398.7252093105694
 20
62.79102468506365
 30
0.0
 10
398.6866120414471
 20
62.91194366514389
 30
0.0
 10
398.6235233893758
 20
63.86287808042427
 30
0.0
 10
398.5625032584061
 20
65.34663145566219
 30
0.0
 10
398.5014634637303
 20
67.29672397264012
 30
0.0
 10
398.4360358617903
 20
69.56526751594404
 30
0.0
 10
398.3750000337244
 20
71.99999391705435
 30
0.0
 10
398.3139640021394
 20
74.4347570272938
 30
0.0
 10
398.2485370178331
 20
76.70318916712057
 30
0.0
 10
398.1874949877955
 20
78.65368487917337
 30
0.0
 10
398.12648320522
 20
80.13593244397507
 30
0.0
 10
398.0645415663863
 20
81.07450080011144
 30
0.0
 10
398.0270286421067
 20
81.19435729903603
 30
0.0
 10
398.0101160107506
 20
81.24839437614689
 30
0.0
  0
SPLINE
  5
EE
330
1F
100
AcDbEntity
  8
0
  6
Continuous
 62
     7
370
    25
100
AcDbSpline
210
0.0
220
0.0
230
1.0
 70
     8
 71
     3
 72
    19
 73
    15
 74
     0
 42
0.000000001
 43
0.00000001
 40
0.0
 40
0.0
 40
0.0
 40
0.0
 40
0.075416428335929
 40
0.1616770875051661
 40
0.246464055759608
 40
0.3312510240140498
 40
0.4175116831832871
 40
0.5022986514377291
 40
0.5870856196921712
 40
0.6733462788614077
 40
0.7581332471158496
 40
0.8429202153702934
 40
0.9291808745395319
 40
1.0
 40
1.0
 40
1.0
 40
1.0
 10
397.2432135202299
 20
62.73462041816105
 30
0.0
 10
397.2252093105694
 20
62.79102468506365
 30
0.0
 10
397.186612041447
 20
62.91194366514389
 30
0.0
 10
397.1235233893759
 20
63.86287808042427
 30
0.0
 10
397.0625032584061
 20
65.34663145566219
 30
0.0
 10
397.0014634637302
 20
67.29672397264012
 30
0.0
 10
396.9360358617903
 20
69.56526751594404
 30
0.0
 10
396.8750000337245
 20
71.99999391705435
 30
0.0
 10
396.8139640021392
 20
74.4347570272938
 30
0.0
 10
396.7485370178332
 20
76.70318916712057
 30
0.0
 10
396.6874949877955
 20
78.65368487917337
 30
0.0
 10
396.62648320522
 20
80.13593244397507
 30
0.0
 10
396.5645415663863
 20
81.07450080011144
 30
0.0
 10
396.5270286421067
 20
81.19435729903603
 30
0.0
 10
396.5101160107506
 20
81.24839437614689
 30
0.0
  0
SPLINE
  5
EF
330
1F
100
AcDbEntity
  8
0
  6
Continuous
 62
     7
370
    25
100
AcDbSpline
210
0.0
220
0.0
230
1.0
 70
     8
 71
     3
 72
    19
 73
    15
 74
     0
 42
0.000000001
 43
0.00000001
 40
0.0
 40
0.0
 40
0.0
 40
0.0
 40
0.075416428335929
 40
0.1616770875051661
 40
0.246464055759608
 40
0.3312510240140498
 40
0.4175116831832871
 40
0.5022986514377291
 40
0.5870856196921712
 40
0.6733462788614077
 40
0.7581332471158496
 40
0.8429202153702934
 40
0.9291808745395319
 40
1.0
 40
1.0
 40
1.0
 40
1.0
 10
395.7432135202299
 20
62.73462041816105
 30
0.0
 10
395.7252093105694
 20
62.79102468506365
 30
0.0
 10
395.6866120414471
 20
62.91194366514389
 30
0.0
 10
395.6235233893757
 20
63.86287808042427
 30
0.0
 10
395.5625032584061
 20
65.34663145566219
 30
0.0
 10
395.5014634637303
 20
67.29672397264012
 30
0.0
 10
395.4360358617903
 20
69.56526751594404
 30
0.0
 10
395.3750000337246
 20
71.99999391705435
 30
0.0
 10
395.3139640021393
 20
74.4347570272938
 30
0.0
 10
395.2485370178331
 20
76.70318916712057
 30
0.0
 10
395.1874949877956
 20
78.65368487917337
 30
0.0
 10
395.12648320522
 20
80.13593244397507
 30
0.0
 10
395.0645415663863
 20
81.07450080011144
 30
0.0
 10
395.0270286421068
 20
81.19435729903603
 30
0.0
 10
395.0101160107506
 20
81.24839437614689
 30
0.0
  0
SPLINE
  5
F0
330
1F
100
AcDbEntity
  8
0
  6
Continuous
 62
     7
370
    25
100
AcDbSpline
210
0.0
220
0.0
230
1.0
 70
    24
 71
     3
 72
    16
 73
    12
 74
     0
 42
0.000000001
 43
0.00000001
 40
0.0
 40
0.0
 40
0.0
 40
0.0
 40
0.0984668255362923
 40
0.2110653311581318
 40
0.3235998360194136
 40
0.438698627821064
 40
0.5551360243898489
 40
0.672646985908997
 40
0.7929681297233405
 40
0.9132082163182765
 40
1.0
 40
1.0
 40
1.0
 40
1.0
 10
409.9999999999999
 20
81.2497085464961
 30
0.0
 10
409.9999999999999
 20
81.19354630492842
 30
0.0
 10
409.9999999999998
 20
81.07316157585339
 30
0.0
 10
410.0000000000002
 20
79.60688904218343
 30
0.0
 10
410.0
 20
77.29161160765766
 30
0.0
 10
409.9999999999996
 20
74.30838556316363
 30
0.0
 10
410.0000000000002
 20
70.98726774357354
 30
0.0
 10
409.9999999999997
 20
67.67769629198463
 30
0.0
 10
410.0000000000006
 20
64.7816404231338
 30
0.0
 10
409.9999999999995
 20
62.76536375134555
 30
0.0
 10
409.9999999999998
 20
62.09088653245897
 30
0.0
 10
409.9999999999999
 20
61.80813257384562
 30
0.0
  0
SPLINE
  5
F1
330
1F
100
AcDbEntity
  8
0
  6
Continuous
 62
     7
370
    25
100
AcDbSpline
210
0.0
220
0.0
230
1.0
 70
     8
 71
     3
 72
    42
 73
    38
 74
     0
 42
0.000000001
 43
0.00000001
 40
0.0
 40
0.0
 40
0.0
 40
0.0
 40
0.0624999999999984
 40
0.0624999999999984
 40
0.1249999999999969
 40
0.1249999999999969
 40
0.1874999999999953
 40
0.1874999999999953
 40
0.2499999999999938
 40
0.2499999999999938
 40
0.3124999999999922
 40
0.3124999999999922
 40
0.3749999999999907
 40
0.3749999999999907
 40
0.4374999999999892
 40
0.4374999999999892
 40
0.4687499999999891
 40
0.4687499999999891
 40
0.499999999999989
 40
0.499999999999989
 40
0.5624999999999902
 40
0.5624999999999902
 40
0.6249999999999913
 40
0.6249999999999913
 40
0.6874999999999926
 40
0.6874999999999926
 40
0.7187499999999938
 40
0.7187499999999938
 40
0.7499999999999948
 40
0.7499999999999948
 40
0.8124999999999961
 40
0.8124999999999961
 40
0.8749999999999974
 40
0.8749999999999974
 40
0.9374999999999987
 40
0.9374999999999987
 40
1.0
 40
1.0
 40
1.0
 40
1.0
 10
409.9999999999991
 20
61.80813257384717
 30
0.0
 10
409.9852718224128
 20
61.96165778321464
 30
0.0
 10
409.9702378542933
 20
62.17323049706807
 30
0.0
 10
409.9403047900921
 20
62.70368767811343
 30
0.0
 10
409.9254098390886
 20
63.0224877936237
 30
0.0
 10
409.8964870338996
 20
63.74806155128154
 30
0.0
 10
409.8824985642006
 20
64.1543004057839
 30
0.0
 10
409.8558376193173
 20
65.03004351327516
 30
0.0
 10
409.8417825173074
 20
65.51446070711539
 30
0.0
 10
409.8128161594892
 20
66.55958022588237
 30
0.0
 10
409.7979081623377
 20
67.12019251004742
 30
0.0
 10
409.7679685690403
 20
68.29168506952233
 30
0.0
 10
409.752941124244
 20
68.9024067862692
 30
0.0
 10
409.7235163293244
 20
70.14273775680877
 30
0.0
 10
409.7091226478393
 20
70.77217185450125
 30
0.0
 10
409.6884937773119
 20
71.70685081114829
 30
0.0
 10
409.6818961715971
 20
72.01505057753053
 30
0.0
 10
409.6683395520577
 20
72.63599057933475
 30
0.0
 10
409.661391958529
 20
72.94856412679282
 30
0.0
 10
409.6401498011506
 20
73.88699194822739
 30
0.0
 10
409.6254523872746
 20
74.51356141271349
 30
0.0
 10
409.595677965924
 20
75.73687597468819
 30
0.0
 10
409.5806049523219
 20
76.3334447977701
 30
0.0
 10
409.5508401410518
 20
77.46662423972082
 30
0.0
 10
409.53615232817
 20
78.0030956458451
 30
0.0
 10
409.5149306245995
 20
78.74537935379063
 30
0.0
 10
409.5079908466216
 20
78.98247045953
 30
0.0
 10
409.494451556487
 20
79.4340040899935
 30
0.0
 10
409.4878452144973
 20
79.64867517489382
 30
0.0
 10
409.4671920506137
 20
80.27010794958741
 30
0.0
 10
409.4527858110215
 20
80.64869545335853
 30
0.0
 10
409.4233451191458
 20
81.31036683967979
 30
0.0
 10
409.4083143500504
 20
81.59331913658913
 30
0.0
 10
409.3783778977128
 20
82.0476241986638
 30
0.0
 10
409.3634763628024
 20
82.21892413860586
 30
0.0
 10
409.3345316710927
 20
82.44509112551792
 30
0.0
 10
409.3204917540317
 20
82.49999999999997
 30
0.0
 10
409.3071796769724
 20
82.49999999999999
 30
0.0
  0
SPLINE
  5
F2
330
1F
100
AcDbEntity
  8
0
  6
Continuous
 62
     7
370
    25
100
AcDbSpline
210
0.0
220
0.0
230
1.0
 70
     8
 71
     3
 72
    38
 73
    34
 74
     0
 42
0.000000001
 43
0.00000001
 40
0.0
 40
0.0
 40
0.0
 40
0.0
 40
0.0624999999999998
 40
0.0624999999999998
 40
0.1249999999999996
 40
0.1249999999999996
 40
0.1874999999999996
 40
0.1874999999999996
 40
0.2499999999999997
 40
0.2499999999999997
 40
0.3124999999999997
 40
0.3124999999999997
 40
0.3749999999999997
 40
0.3749999999999997
 40
0.4374999999999997
 40
0.4374999999999997
 40
0.4999999999999998
 40
0.4999999999999998
 40
0.5624999999999998
 40
0.5624999999999998
 40
0.6249999999999999
 40
0.6249999999999999
 40
0.6874999999999999
 40
0.6874999999999999
 40
0.7499999999999999
 40
0.7499999999999999
 40
0.8125
 40
0.8125
 40
0.875
 40
0.875
 40
0.9375
 40
0.9375
 40
1.0
 40
1.0
 40
1.0
 40
1.0
 10
408.5571796769724
 20
61.49999999999999
 30
0.0
 10
408.5427440592769
 20
61.49999999999997
 30
0.0
 10
408.5274510968645
 20
61.56466105896263
 30
0.0
 10
408.4959130019405
 20
61.8310571359768
 30
0.0
 10
408.4796728977522
 20
62.03284327242066
 30
0.0
 10
408.4471864561927
 20
62.56568654484155
 30
0.0
 10
408.4309463520045
 20
62.89664144403384
 30
0.0
 10
408.3994082570806
 20
63.66482231042419
 30
0.0
 10
408.384115294668
 20
64.10183220991321
 30
0.0
 10
408.3552440592768
 20
65.04892538516897
 30
0.0
 10
408.3399510968645
 20
65.57737983119979
 30
0.0
 10
408.3084130019404
 20
66.7223016426668
 30
0.0
 10
408.292172897752
 20
67.33862523271694
 30
0.0
 10
408.2596864561929
 20
68.62502268761502
 30
0.0
 10
408.2434463520044
 20
69.29484973103045
 30
0.0
 10
408.2119082570801
 20
70.64761760764962
 30
0.0
 10
408.1966152946678
 20
71.33030399336087
 30
0.0
 10
408.1677440592768
 20
72.66969600663869
 30
0.0
 10
408.1524510968642
 20
73.3523823923494
 30
0.0
 10
408.1209130019405
 20
74.70515026896861
 30
0.0
 10
408.104672897752
 20
75.37497731238412
 30
0.0
 10
408.0721864561927
 20
76.6613747672822
 30
0.0
 10
408.0559463520044
 20
77.27769835733237
 30
0.0
 10
408.0244082570803
 20
78.42262016879945
 30
0.0
 10
408.0091152946679
 20
78.95107461483065
 30
0.0
 10
407.980244059277
 20
79.89816779008655
 30
0.0
 10
407.9649510968645
 20
80.33517768957523
 30
0.0
 10
407.9334130019406
 20
81.10335855596568
 30
0.0
 10
407.917172897752
 20
81.43431345515799
 30
0.0
 10
407.8846864561928
 20
81.967156727579
 30
0.0
 10
407.8684463520042
 20
82.1689428640229
 30
0.0
 10
407.8369082570803
 20
82.4353389410372
 30
0.0
 10
407.8216152946678
 20
82.49999999999997
 30
0.0
 10
407.8071796769724
 20
82.49999999999999
 30
0.0
  0
SPLINE
  5
F3
330
1F
100
AcDbEntity
  8
0
  6
Continuous
 62
     7
370
    25
100
AcDbSpline
210
0.0
220
0.0
230
1.0
 70
     8
 71
     3
 72
    38
 73
    34
 74
     0
 42
0.000000001
 43
0.00000001
 40
0.0
 40
0.0
 40
0.0
 40
0.0
 40
0.0625
 40
0.0625
 40
0.1250000000000001
 40
0.1250000000000001
 40
0.1875000000000001
 40
0.1875000000000001
 40
0.2500000000000001
 40
0.2500000000000001
 40
0.3125000000000001
 40
0.3125000000000001
 40
0.3750000000000002
 40
0.3750000000000002
 40
0.4375000000000002
 40
0.4375000000000002
 40
0.5000000000000002
 40
0.5000000000000002
 40
0.5625000000000002
 40
0.5625000000000002
 40
0.6250000000000002
 40
0.6250000000000002
 40
0.6875000000000003
 40
0.6875000000000003
 40
0.7500000000000003
 40
0.7500000000000003
 40
0.8125000000000002
 40
0.8125000000000002
 40
0.8750000000000001
 40
0.8750000000000001
 40
0.9375000000000001
 40
0.9375000000000001
 40
1.0
 40
1.0
 40
1.0
 40
1.0
 10
407.0571796769724
 20
61.49999999999999
 30
0.0
 10
407.042744059277
 20
61.49999999999996
 30
0.0
 10
407.0274510968645
 20
61.56466105896267
 30
0.0
 10
406.9959130019406
 20
61.83105713597687
 30
0.0
 10
406.979672897752
 20
62.03284327242073
 30
0.0
 10
406.9471864561928
 20
62.56568654484167
 30
0.0
 10
406.9309463520044
 20
62.89664144403392
 30
0.0
 10
406.8994082570806
 20
63.66482231042429
 30
0.0
 10
406.8841152946679
 20
64.10183220991318
 30
0.0
 10
406.8552440592769
 20
65.048925385169
 30
0.0
 10
406.8399510968644
 20
65.57737983119996
 30
0.0
 10
406.8084130019405
 20
66.72230164266698
 30
0.0
 10
406.7921728977521
 20
67.33862523271713
 30
0.0
 10
406.7596864561929
 20
68.62502268761521
 30
0.0
 10
406.7434463520042
 20
69.29484973103068
 30
0.0
 10
406.7119082570803
 20
70.64761760764989
 30
0.0
 10
406.6966152946679
 20
71.33030399336086
 30
0.0
 10
406.6677440592768
 20
72.66969600663872
 30
0.0
 10
406.6524510968645
 20
73.35238239234965
 30
0.0
 10
406.6209130019405
 20
74.70515026896882
 30
0.0
 10
406.604672897752
 20
75.37497731238432
 30
0.0
 10
406.5721864561927
 20
76.6613747672824
 30
0.0
 10
406.5559463520044
 20
77.27769835733254
 30
0.0
 10
406.5244082570804
 20
78.4226201687996
 30
0.0
 10
406.5091152946679
 20
78.95107461483063
 30
0.0
 10
406.4802440592769
 20
79.89816779008657
 30
0.0
 10
406.4649510968645
 20
80.33517768957535
 30
0.0
 10
406.4334130019405
 20
81.10335855596578
 30
0.0
 10
406.417172897752
 20
81.43431345515808
 30
0.0
 10
406.3846864561926
 20
81.96715672757905
 30
0.0
 10
406.3684463520043
 20
82.16894286402295
 30
0.0
 10
406.3369082570802
 20
82.43533894103722
 30
0.0
 10
406.3216152946678
 20
82.49999999999997
 30
0.0
 10
406.3071796769724
 20
82.49999999999999
 30
0.0
  0
SPLINE
  5
F4
330
1F
100
AcDbEntity
  8
0
  6
Continuous
 62
     7
370
    25
100
AcDbSpline
210
0.0
220
0.0
230
1.0
 70
     8
 71
     3
 72
    38
 73
    34
 74
     0
 42
0.000000001
 43
0.00000001
 40
0.0
 40
0.0
 40
0.0
 40
0.0
 40
0.0625000000000004
 40
0.0625000000000004
 40
0.1250000000000008
 40
0.1250000000000008
 40
0.1875000000000007
 40
0.1875000000000007
 40
0.2500000000000006
 40
0.2500000000000006
 40
0.3125000000000005
 40
0.3125000000000005
 40
0.3750000000000004
 40
0.3750000000000004
 40
0.4375000000000004
 40
0.4375000000000004
 40
0.5000000000000003
 40
0.5000000000000003
 40
0.5625000000000003
 40
0.5625000000000003
 40
0.6250000000000002
 40
0.6250000000000002
 40
0.6875000000000002
 40
0.6875000000000002
 40
0.7500000000000001
 40
0.7500000000000001
 40
0.8125000000000001
 40
0.8125000000000001
 40
0.8750000000000001
 40
0.8750000000000001
 40
0.9375
 40
0.9375
 40
1.0
 40
1.0
 40
1.0
 40
1.0
 10
405.5571796769724
 20
61.49999999999999
 30
0.0
 10
405.542744059277
 20
61.5
 30
0.0
 10
405.5274510968646
 20
61.5646610589627
 30
0.0
 10
405.4959130019405
 20
61.83105713597691
 30
0.0
 10
405.479672897752
 20
62.03284327242076
 30
0.0
 10
405.4471864561928
 20
62.56568654484172
 30
0.0
 10
405.4309463520044
 20
62.89664144403402
 30
0.0
 10
405.3994082570803
 20
63.66482231042442
 30
0.0
 10
405.3841152946679
 20
64.10183220991318
 30
0.0
 10
405.3552440592771
 20
65.04892538516901
 30
0.0
 10
405.3399510968646
 20
65.5773798312001
 30
0.0
 10
405.3084130019405
 20
66.72230164266716
 30
0.0
 10
405.2921728977521
 20
67.3386252327173
 30
0.0
 10
405.2596864561928
 20
68.62502268761536
 30
0.0
 10
405.2434463520044
 20
69.29484973103084
 30
0.0
 10
405.2119082570803
 20
70.64761760765
 30
0.0
 10
405.1966152946678
 20
71.33030399336081
 30
0.0
 10
405.1677440592769
 20
72.6696960066387
 30
0.0
 10
405.1524510968644
 20
73.35238239234977
 30
0.0
 10
405.1209130019404
 20
74.70515026896896
 30
0.0
 10
405.1046728977519
 20
75.37497731238443
 30
0.0
 10
405.0721864561928
 20
76.66137476728248
 30
0.0
 10
405.0559463520044
 20
77.27769835733272
 30
0.0
 10
405.0244082570804
 20
78.4226201687998
 30
0.0
 10
405.0091152946678
 20
78.95107461483062
 30
0.0
 10
404.9802440592769
 20
79.89816779008656
 30
0.0
 10
404.9649510968644
 20
80.33517768957545
 30
0.0
 10
404.9334130019403
 20
81.10335855596584
 30
0.0
 10
404.917172897752
 20
81.43431345515818
 30
0.0
 10
404.8846864561929
 20
81.96715672757915
 30
0.0
 10
404.8684463520043
 20
82.16894286402301
 30
0.0
 10
404.8369082570803
 20
82.43533894103726
 30
0.0
 10
404.8216152946679
 20
82.5
 30
0.0
 10
404.8071796769724
 20
82.49999999999999
 30
0.0
  0
SPLINE
  5
F5
330
1F
100
AcDbEntity
  8
0
  6
Continuous
 62
     7
370
    25
100
AcDbSpline
210
0.0
220
0.0
230
1.0
 70
     8
 71
     3
 72
    38
 73
    34
 74
     0
 42
0.000000001
 43
0.00000001
 40
0.0
 40
0.0
 40
0.0
 40
0.0
 40
0.0625
 40
0.0625
 40
0.125
 40
0.125
 40
0.1875
 40
0.1875
 40
0.25
 40
0.25
 40
0.3125
 40
0.3125
 40
0.375
 40
0.375
 40
0.4375
 40
0.4375
 40
0.5
 40
0.5
 40
0.5625
 40
0.5625
 40
0.625
 40
0.625
 40
0.6875
 40
0.6875
 40
0.75
 40
0.75
 40
0.8125
 40
0.8125
 40
0.875
 40
0.875
 40
0.9375
 40
0.9375
 40
1.0
 40
1.0
 40
1.0
 40
1.0
 10
404.0571796769724
 20
61.49999999999999
 30
0.0
 10
404.042744059277
 20
61.49999999999999
 30
0.0
 10
404.0274510968644
 20
61.56466105896271
 30
0.0
 10
403.9959130019405
 20
61.83105713597694
 30
0.0
 10
403.979672897752
 20
62.03284327242084
 30
0.0
 10
403.9471864561928
 20
62.56568654484179
 30
0.0
 10
403.9309463520044
 20
62.89664144403412
 30
0.0
 10
403.8994082570803
 20
63.66482231042451
 30
0.0
 10
403.8841152946679
 20
64.10183220991317
 30
0.0
 10
403.855244059277
 20
65.04892538516901
 30
0.0
 10
403.8399510968646
 20
65.5773798312003
 30
0.0
 10
403.8084130019404
 20
66.72230164266735
 30
0.0
 10
403.792172897752
 20
67.33862523271749
 30
0.0
 10
403.7596864561928
 20
68.62502268761556
 30
0.0
 10
403.7434463520045
 20
69.294849731031
 30
0.0
 10
403.7119082570802
 20
70.64761760765019
 30
0.0
 10
403.6966152946679
 20
71.33030399336081
 30
0.0
 10
403.6677440592769
 20
72.66969600663873
 30
0.0
 10
403.6524510968646
 20
73.35238239235002
 30
0.0
 10
403.6209130019404
 20
74.70515026896922
 30
0.0
 10
403.6046728977522
 20
75.37497731238467
 30
0.0
 10
403.5721864561927
 20
76.66137476728272
 30
0.0
 10
403.5559463520045
 20
77.27769835733288
 30
0.0
 10
403.5244082570804
 20
78.42262016879994
 30
0.0
 10
403.5091152946679
 20
78.95107461483062
 30
0.0
 10
403.4802440592769
 20
79.89816779008656
 30
0.0
 10
403.4649510968645
 20
80.33517768957554
 30
0.0
 10
403.4334130019403
 20
81.10335855596594
 30
0.0
 10
403.417172897752
 20
81.4343134551582
 30
0.0
 10
403.3846864561928
 20
81.96715672757917
 30
0.0
 10
403.3684463520044
 20
82.1689428640231
 30
0.0
 10
403.3369082570804
 20
82.43533894103732
 30
0.0
 10
403.3216152946679
 20
82.49999999999999
 30
0.0
 10
403.3071796769724
 20
82.49999999999999
 30
0.0
  0
SPLINE
  5
F6
330
1F
100
AcDbEntity
  8
0
  6
Continuous
 62
     7
370
    25
100
AcDbSpline
210
0.0
220
0.0
230
1.0
 70
     8
 71
     3
 72
    38
 73
    34
 74
     0
 42
0.000000001
 43
0.00000001
 40
0.0
 40
0.0
 40
0.0
 40
0.0
 40
0.0625
 40
0.0625
 40
0.125
 40
0.125
 40
0.1875
 40
0.1875
 40
0.25
 40
0.25
 40
0.3125
 40
0.3125
 40
0.375
 40
0.375
 40
0.4375
 40
0.4375
 40
0.5
 40
0.5
 40
0.5625
 40
0.5625
 40
0.625
 40
0.625
 40
0.6875
 40
0.6875
 40
0.75
 40
0.75
 40
0.8125
 40
0.8125
 40
0.875
 40
0.875
 40
0.9375
 40
0.9375
 40
1.0
 40
1.0
 40
1.0
 40
1.0
 10
402.5571796769724
 20
61.49999999999999
 30
0.0
 10
402.5427440592769
 20
61.49999999999996
 30
0.0
 10
402.5274510968646
 20
61.56466105896273
 30
0.0
 10
402.4959130019405
 20
61.83105713597701
 30
0.0
 10
402.479672897752
 20
62.0328432724209
 30
0.0
 10
402.4471864561928
 20
62.56568654484186
 30
0.0
 10
402.4309463520044
 20
62.8966414440342
 30
0.0
 10
402.3994082570804
 20
63.66482231042464
 30
0.0
 10
402.3841152946679
 20
64.10183220991314
 30
0.0
 10
402.3552440592769
 20
65.04892538516903
 30
0.0
 10
402.3399510968645
 20
65.57737983120039
 30
0.0
 10
402.3084130019405
 20
66.72230164266747
 30
0.0
 10
402.2921728977522
 20
67.3386252327176
 30
0.0
 10
402.2596864561929
 20
68.62502268761567
 30
0.0
 10
402.2434463520044
 20
69.2948497310312
 30
0.0
 10
402.2119082570804
 20
70.64761760765042
 30
0.0
 10
402.1966152946679
 20
71.33030399336081
 30
0.0
 10
402.167744059277
 20
72.66969600663874
 30
0.0
 10
402.1524510968645
 20
73.35238239235021
 30
0.0
 10
402.1209130019404
 20
74.70515026896939
 30
0.0
 10
402.1046728977521
 20
75.37497731238486
 30
0.0
 10
402.0721864561927
 20
76.66137476728287
 30
0.0
 10
402.0559463520043
 20
77.27769835733301
 30
0.0
 10
402.0244082570803
 20
78.42262016880001
 30
0.0
 10
402.0091152946679
 20
78.95107461483057
 30
0.0
 10
401.980244059277
 20
79.89816779008662
 30
0.0
 10
401.9649510968645
 20
80.33517768957573
 30
0.0
 10
401.9334130019404
 20
81.1033585559661
 30
0.0
 10
401.9171728977521
 20
81.43431345515833
 30
0.0
 10
401.8846864561926
 20
81.96715672757928
 30
0.0
 10
401.8684463520044
 20
82.16894286402312
 30
0.0
 10
401.8369082570805
 20
82.43533894103732
 30
0.0
 10
401.8216152946679
 20
82.49999999999997
 30
0.0
 10
401.8071796769724
 20
82.49999999999999
 30
0.0
  0
SPLINE
  5
F7
330
1F
100
AcDbEntity
  8
0
  6
Continuous
 62
     7
370
    25
100
AcDbSpline
210
0.0
220
0.0
230
1.0
 70
     8
 71
     3
 72
    38
 73
    34
 74
     0
 42
0.000000001
 43
0.00000001
 40
0.0
 40
0.0
 40
0.0
 40
0.0
 40
0.0625
 40
0.0625
 40
0.125
 40
0.125
 40
0.1875
 40
0.1875
 40
0.25
 40
0.25
 40
0.3125
 40
0.3125
 40
0.375
 40
0.375
 40
0.4375
 40
0.4375
 40
0.5
 40
0.5
 40
0.5625
 40
0.5625
 40
0.625
 40
0.625
 40
0.6875
 40
0.6875
 40
0.75
 40
0.75
 40
0.8125
 40
0.8125
 40
0.875
 40
0.875
 40
0.9375
 40
0.9375
 40
1.0
 40
1.0
 40
1.0
 40
1.0
 10
401.0571796769724
 20
61.49999999999999
 30
0.0
 10
401.0427440592769
 20
61.49999999999996
 30
0.0
 10
401.0274510968645
 20
61.56466105896276
 30
0.0
 10
400.9959130019404
 20
61.83105713597703
 30
0.0
 10
400.979672897752
 20
62.03284327242094
 30
0.0
 10
400.9471864561928
 20
62.56568654484197
 30
0.0
 10
400.9309463520044
 20
62.89664144403429
 30
0.0
 10
400.8994082570803
 20
63.66482231042473
 30
0.0
 10
400.8841152946679
 20
64.10183220991316
 30
0.0
 10
400.8552440592767
 20
65.04892538516906
 30
0.0
 10
400.8399510968646
 20
65.57737983120053
 30
0.0
 10
400.8084130019404
 20
66.72230164266763
 30
0.0
 10
400.792172897752
 20
67.33862523271777
 30
0.0
 10
400.7596864561926
 20
68.62502268761583
 30
0.0
 10
400.7434463520045
 20
69.2948497310314
 30
0.0
 10
400.7119082570803
 20
70.64761760765057
 30
0.0
 10
400.6966152946679
 20
71.3303039933608
 30
0.0
 10
400.667744059277
 20
72.66969600663876
 30
0.0
 10
400.6524510968645
 20
73.35238239235032
 30
0.0
 10
400.6209130019405
 20
74.70515026896955
 30
0.0
 10
400.6046728977522
 20
75.37497731238501
 30
0.0
 10
400.5721864561929
 20
76.66137476728305
 30
0.0
 10
400.5559463520044
 20
77.27769835733321
 30
0.0
 10
400.5244082570803
 20
78.42262016880021
 30
0.0
 10
400.5091152946679
 20
78.9510746148306
 30
0.0
 10
400.4802440592769
 20
79.89816779008657
 30
0.0
 10
400.4649510968644
 20
80.33517768957583
 30
0.0
 10
400.4334130019404
 20
81.10335855596617
 30
0.0
 10
400.417172897752
 20
81.43431345515842
 30
0.0
 10
400.3846864561928
 20
81.96715672757931
 30
0.0
 10
400.3684463520044
 20
82.16894286402318
 30
0.0
 10
400.3369082570803
 20
82.43533894103736
 30
0.0
 10
400.3216152946679
 20
82.49999999999999
 30
0.0
 10
400.3071796769725
 20
82.49999999999999
 30
0.0
  0
SPLINE
  5
F8
330
1F
100
AcDbEntity
  8
0
  6
Continuous
 62
     7
370
    25
100
AcDbSpline
210
0.0
220
0.0
230
1.0
 70
     8
 71
     3
 72
    38
 73
    34
 74
     0
 42
0.000000001
 43
0.00000001
 40
0.0
 40
0.0
 40
0.0
 40
0.0
 40
0.0624999999999999
 40
0.0624999999999999
 40
0.1249999999999998
 40
0.1249999999999998
 40
0.1874999999999998
 40
0.1874999999999998
 40
0.2499999999999998
 40
0.2499999999999998
 40
0.3124999999999998
 40
0.3124999999999998
 40
0.3749999999999998
 40
0.3749999999999998
 40
0.4374999999999998
 40
0.4374999999999998
 40
0.4999999999999999
 40
0.4999999999999999
 40
0.5624999999999999
 40
0.5624999999999999
 40
0.6249999999999999
 40
0.6249999999999999
 40
0.6875
 40
0.6875
 40
0.75
 40
0.75
 40
0.8125
 40
0.8125
 40
0.875
 40
0.875
 40
0.9375000000000001
 40
0.9375000000000001
 40
1.0
 40
1.0
 40
1.0
 40
1.0
 10
399.5571796769724
 20
61.49999999999999
 30
0.0
 10
399.5427440592769
 20
61.49999999999996
 30
0.0
 10
399.5274510968646
 20
61.56466105896278
 30
0.0
 10
399.4959130019405
 20
61.83105713597704
 30
0.0
 10
399.4796728977521
 20
62.03284327242094
 30
0.0
 10
399.4471864561928
 20
62.56568654484193
 30
0.0
 10
399.4309463520044
 20
62.89664144403417
 30
0.0
 10
399.3994082570803
 20
63.66482231042454
 30
0.0
 10
399.3841152946678
 20
64.10183220991317
 30
0.0
 10
399.355244059277
 20
65.04892538516901
 30
0.0
 10
399.3399510968644
 20
65.57737983120015
 30
0.0
 10
399.3084130019405
 20
66.72230164266708
 30
0.0
 10
399.292172897752
 20
67.3386252327172
 30
0.0
 10
399.2596864561928
 20
68.62502268761519
 30
0.0
 10
399.2434463520045
 20
69.29484973103045
 30
0.0
 10
399.2119082570803
 20
70.64761760764951
 30
0.0
 10
399.1966152946678
 20
71.3303039933609
 30
0.0
 10
399.1677440592769
 20
72.66969600663866
 30
0.0
 10
399.1524510968645
 20
73.35238239234909
 30
0.0
 10
399.1209130019404
 20
74.7051502689682
 30
0.0
 10
399.104672897752
 20
75.37497731238375
 30
0.0
 10
399.0721864561928
 20
76.66137476728174
 30
0.0
 10
399.0559463520042
 20
77.27769835733186
 30
0.0
 10
399.0244082570802
 20
78.42262016879889
 30
0.0
 10
399.0091152946679
 20
78.95107461483073
 30
0.0
 10
398.980244059277
 20
79.89816779008646
 30
0.0
 10
398.9649510968646
 20
80.33517768957464
 30
0.0
 10
398.9334130019406
 20
81.10335855596516
 30
0.0
 10
398.9171728977522
 20
81.43431345515752
 30
0.0
 10
398.8846864561928
 20
81.96715672757865
 30
0.0
 10
398.8684463520045
 20
82.16894286402261
 30
0.0
 10
398.8369082570803
 20
82.43533894103705
 30
0.0
 10
398.8216152946678
 20
82.49999999999996
 30
0.0
 10
398.8071796769725
 20
82.49999999999999
 30
0.0
  0
SPLINE
  5
F9
330
1F
100
AcDbEntity
  8
0
  6
Continuous
 62
     7
370
    25
100
AcDbSpline
210
0.0
220
0.0
230
1.0
 70
     8
 71
     3
 72
    38
 73
    34
 74
     0
 42
0.000000001
 43
0.00000001
 40
0.0
 40
0.0
 40
0.0
 40
0.0
 40
0.0625
 40
0.0625
 40
0.125
 40
0.125
 40
0.1875
 40
0.1875
 40
0.25
 40
0.25
 40
0.3125
 40
0.3125
 40
0.375
 40
0.375
 40
0.4375
 40
0.4375
 40
0.5
 40
0.5
 40
0.5625
 40
0.5625
 40
0.625
 40
0.625
 40
0.6875
 40
0.6875
 40
0.75
 40
0.75
 40
0.8125
 40
0.8125
 40
0.875
 40
0.875
 40
0.9375
 40
0.9375
 40
1.0
 40
1.0
 40
1.0
 40
1.0
 10
398.0571796769724
 20
61.49999999999999
 30
0.0
 10
398.0427440592769
 20
61.49999999999996
 30
0.0
 10
398.0274510968646
 20
61.56466105896251
 30
0.0
 10
397.9959130019404
 20
61.83105713597651
 30
0.0
 10
397.979672897752
 20
62.03284327242034
 30
0.0
 10
397.9471864561928
 20
62.56568654484109
 30
0.0
 10
397.9309463520043
 20
62.89664144403331
 30
0.0
 10
397.8994082570804
 20
63.6648223104236
 30
0.0
 10
397.884115294668
 20
64.10183220991325
 30
0.0
 10
397.8552440592769
 20
65.04892538516891
 30
0.0
 10
397.8399510968645
 20
65.57737983119897
 30
0.0
 10
397.8084130019404
 20
66.72230164266587
 30
0.0
 10
397.792172897752
 20
67.33862523271598
 30
0.0
 10
397.7596864561928
 20
68.62502268761398
 30
0.0
 10
397.7434463520044
 20
69.29484973102944
 30
0.0
 10
397.7119082570804
 20
70.64761760764858
 30
0.0
 10
397.6966152946679
 20
71.33030399336097
 30
0.0
 10
397.667744059277
 20
72.6696960066386
 30
0.0
 10
397.6524510968646
 20
73.35238239234826
 30
0.0
 10
397.6209130019404
 20
74.70515026896747
 30
0.0
 10
397.604672897752
 20
75.37497731238302
 30
0.0
 10
397.5721864561929
 20
76.66137476728117
 30
0.0
 10
397.5559463520044
 20
77.27769835733143
 30
0.0
 10
397.5244082570804
 20
78.4226201687986
 30
0.0
 10
397.5091152946679
 20
78.9510746148307
 30
0.0
 10
397.4802440592769
 20
79.89816779008648
 30
0.0
 10
397.4649510968646
 20
80.33517768957462
 30
0.0
 10
397.4334130019406
 20
81.10335855596519
 30
0.0
 10
397.4171728977522
 20
81.43431345515755
 30
0.0
 10
397.3846864561929
 20
81.96715672757871
 30
0.0
 10
397.3684463520045
 20
82.16894286402264
 30
0.0
 10
397.3369082570804
 20
82.43533894103705
 30
0.0
 10
397.321615294668
 20
82.49999999999996
 30
0.0
 10
397.3071796769725
 20
82.49999999999999
 30
0.0
  0
SPLINE
  5
FA
330
1F
100
AcDbEntity
  8
0
  6
Continuous
 62
     7
370
    25
100
AcDbSpline
210
0.0
220
0.0
230
1.0
 70
     8
 71
     3
 72
    38
 73
    34
 74
     0
 42
0.000000001
 43
0.00000001
 40
0.0
 40
0.0
 40
0.0
 40
0.0
 40
0.0625
 40
0.0625
 40
0.125
 40
0.125
 40
0.1875
 40
0.1875
 40
0.25
 40
0.25
 40
0.3125
 40
0.3125
 40
0.375
 40
0.375
 40
0.4375
 40
0.4375
 40
0.5
 40
0.5
 40
0.5625
 40
0.5625
 40
0.625
 40
0.625
 40
0.6875
 40
0.6875
 40
0.75
 40
0.75
 40
0.8125
 40
0.8125
 40
0.875
 40
0.875
 40
0.9375
 40
0.9375
 40
1.0
 40
1.0
 40
1.0
 40
1.0
 10
396.5571796769723
 20
61.49999999999999
 30
0.0
 10
396.5427440592767
 20
61.49999999999998
 30
0.0
 10
396.5274510968646
 20
61.56466105896255
 30
0.0
 10
396.4959130019406
 20
61.83105713597656
 30
0.0
 10
396.4796728977522
 20
62.03284327242034
 30
0.0
 10
396.4471864561928
 20
62.56568654484111
 30
0.0
 10
396.4309463520044
 20
62.89664144403331
 30
0.0
 10
396.3994082570804
 20
63.6648223104236
 30
0.0
 10
396.3841152946679
 20
64.10183220991325
 30
0.0
 10
396.3552440592769
 20
65.04892538516894
 30
0.0
 10
396.3399510968645
 20
65.577379831199
 30
0.0
 10
396.3084130019404
 20
66.72230164266591
 30
0.0
 10
396.2921728977521
 20
67.33862523271603
 30
0.0
 10
396.2596864561928
 20
68.62502268761402
 30
0.0
 10
396.2434463520044
 20
69.2948497310295
 30
0.0
 10
396.2119082570805
 20
70.6476176076487
 30
0.0
 10
396.1966152946679
 20
71.33030399336094
 30
0.0
 10
396.1677440592768
 20
72.6696960066386
 30
0.0
 10
396.1524510968644
 20
73.35238239234849
 30
0.0
 10
396.1209130019405
 20
74.70515026896773
 30
0.0
 10
396.1046728977521
 20
75.37497731238327
 30
0.0
 10
396.0721864561928
 20
76.66137476728142
 30
0.0
 10
396.0559463520044
 20
77.27769835733152
 30
0.0
 10
396.0244082570803
 20
78.42262016879869
 30
0.0
 10
396.0091152946679
 20
78.95107461483072
 30
0.0
 10
395.980244059277
 20
79.89816779008649
 30
0.0
 10
395.9649510968645
 20
80.33517768957464
 30
0.0
 10
395.9334130019403
 20
81.10335855596523
 30
0.0
 10
395.9171728977521
 20
81.43431345515762
 30
0.0
 10
395.8846864561928
 20
81.96715672757874
 30
0.0
 10
395.8684463520045
 20
82.16894286402267
 30
0.0
 10
395.8369082570803
 20
82.43533894103709
 30
0.0
 10
395.821615294668
 20
82.49999999999996
 30
0.0
 10
395.8071796769725
 20
82.49999999999999
 30
0.0
  0
SPLINE
  5
FB
330
1F
100
AcDbEntity
  8
0
  6
Continuous
 62
     7
370
    25
100
AcDbSpline
210
0.0
220
0.0
230
1.0
 70
     8
 71
     3
 72
     8
 73
     4
 74
     0
 42
0.000000001
 43
0.00000001
 40
0.0
 40
0.0
 40
0.0
 40
0.0
 40
1.0
 40
1.0
 40
1.0
 40
1.0
 10
395.0571796769723
 20
61.49999999999999
 30
0.0
 10
395.0392030267917
 20
61.49999999999996
 30
0.0
 10
395.0198889545994
 20
61.60081188523998
 30
0.0
 10
394.9999999999989
 20
61.80813257384972
 30
0.0
  0
SPLINE
  5
FC
330
1F
100
AcDbEntity
  8
0
  6
Continuous
 62
     7
370
    25
100
AcDbSpline
210
0.0
220
0.0
230
1.0
 70
     8
 71
     3
 72
    20
 73
    16
 74
     0
 42
0.000000001
 43
0.00000001
 40
0.0
 40
0.0
 40
0.0
 40
0.0
 40
0.0052138443899419
 40
0.0876353060471746
 40
0.1714889216350611
 40
0.2539103832924562
 40
0.3363318449497974
 40
0.4201854605376262
 40
0.5026069221949708
 40
0.5850283838523098
 40
0.6688819994401398
 40
0.7513034610974854
 40
0.8337249227548276
 40
0.9175785383426578
 40
1.0
 40
1.0
 40
1.0
 40
1.0
 10
395.6889358974657
 20
82.47762717094923
 30
0.0
 10
395.6902312234537
 20
82.48548652756376
 30
0.0
 10
395.7120033134705
 20
82.61758811532428
 30
0.0
 10
395.753749742206
 20
82.20978607696145
 30
0.0
 10
395.8193129528602
 20
81.21135963677585
 30
0.0
 10
395.8803128603215
 20
79.50540947322528
 30
0.0
 10
395.9413578033628
 20
77.31192213381145
 30
0.0
 10
396.0067843422017
 20
74.7484207840531
 30
0.0
 10
396.0678204665845
 20
72.00011145343127
 30
0.0
 10
396.128855724637
 20
69.25112952899502
 30
0.0
 10
396.1942848925723
 20
66.68966933463739
 30
0.0
 10
396.2553203202672
 20
64.48879455143177
 30
0.0
 10
396.3163557646207
 20
62.8104342176885
 30
0.0
 10
396.3817848819997
 20
61.70790158307157
 30
0.0
 10
396.4225923364033
 20
61.56890145087364
 30
0.0
 10
396.4428203230276
 20
61.5
 30
0.0
  0
SPLINE
  5
FD
330
1F
100
AcDbEntity
  8
0
  6
Continuous
 62
     7
370
    25
100
AcDbSpline
210
0.0
220
0.0
230
1.0
 70
     8
 71
     3
 72
    20
 73
    16
 74
     0
 42
0.000000001
 43
0.00000001
 40
0.0
 40
0.0
 40
0.0
 40
0.0
 40
0.0052138443899419
 40
0.0876353060471746
 40
0.1714889216350611
 40
0.2539103832924562
 40
0.3363318449497974
 40
0.4201854605376262
 40
0.5026069221949708
 40
0.5850283838523098
 40
0.6688819994401398
 40
0.7513034610974854
 40
0.8337249227548276
 40
0.9175785383426578
 40
1.0
 40
1.0
 40
1.0
 40
1.0
 10
397.1889358974657
 20
82.47762717094923
 30
0.0
 10
397.1902312234537
 20
82.48548652756376
 30
0.0
 10
397.2120033134705
 20
82.61758811532428
 30
0.0
 10
397.2537497422059
 20
82.20978607696145
 30
0.0
 10
397.3193129528603
 20
81.21135963677585
 30
0.0
 10
397.3803128603215
 20
79.50540947322528
 30
0.0
 10
397.4413578033627
 20
77.31192213381145
 30
0.0
 10
397.5067843422017
 20
74.7484207840531
 30
0.0
 10
397.5678204665844
 20
72.00011145343127
 30
0.0
 10
397.6288557246371
 20
69.25112952899502
 30
0.0
 10
397.6942848925723
 20
66.68966933463739
 30
0.0
 10
397.7553203202671
 20
64.48879455143177
 30
0.0
 10
397.8163557646208
 20
62.8104342176885
 30
0.0
 10
397.8817848819997
 20
61.70790158307157
 30
0.0
 10
397.9225923364035
 20
61.56890145087364
 30
0.0
 10
397.9428203230276
 20
61.5
 30
0.0
  0
SPLINE
  5
FE
330
1F
100
AcDbEntity
  8
0
  6
Continuous
 62
     7
370
    25
100
AcDbSpline
210
0.0
220
0.0
230
1.0
 70
     8
 71
     3
 72
    20
 73
    16
 74
     0
 42
0.000000001
 43
0.00000001
 40
0.0
 40
0.0
 40
0.0
 40
0.0
 40
0.0052138443899419
 40
0.0876353060471746
 40
0.1714889216350611
 40
0.2539103832924562
 40
0.3363318449497974
 40
0.4201854605376262
 40
0.5026069221949708
 40
0.5850283838523098
 40
0.6688819994401398
 40
0.7513034610974854
 40
0.8337249227548276
 40
0.9175785383426578
 40
1.0
 40
1.0
 40
1.0
 40
1.0
 10
398.6889358974657
 20
82.47762717094923
 30
0.0
 10
398.6902312234537
 20
82.48548652756376
 30
0.0
 10
398.7120033134705
 20
82.61758811532428
 30
0.0
 10
398.7537497422059
 20
82.20978607696145
 30
0.0
 10
398.8193129528603
 20
81.21135963677585
 30
0.0
 10
398.8803128603214
 20
79.50540947322528
 30
0.0
 10
398.9413578033628
 20
77.31192213381145
 30
0.0
 10
399.0067843422017
 20
74.7484207840531
 30
0.0
 10
399.0678204665845
 20
72.00011145343127
 30
0.0
 10
399.128855724637
 20
69.25112952899502
 30
0.0
 10
399.1942848925723
 20
66.68966933463739
 30
0.0
 10
399.2553203202672
 20
64.48879455143177
 30
0.0
 10
399.3163557646207
 20
62.8104342176885
 30
0.0
 10
399.3817848819997
 20
61.70790158307157
 30
0.0
 10
399.4225923364035
 20
61.56890145087364
 30
0.0
 10
399.4428203230276
 20
61.5
 30
0.0
  0
SPLINE
  5
FF
330
1F
100
AcDbEntity
  8
0
  6
Continuous
 62
     7
370
    25
100
AcDbSpline
210
0.0
220
0.0
230
1.0
 70
     8
 71
     3
 72
    20
 73
    16
 74
     0
 42
0.000000001
 43
0.00000001
 40
0.0
 40
0.0
 40
0.0
 40
0.0
 40
0.0052138443899454
 40
0.0876353060471778
 40
0.171488921635064
 40
0.2539103832924589
 40
0.3363318449497997
 40
0.4201854605376283
 40
0.5026069221949726
 40
0.5850283838523113
 40
0.6688819994401409
 40
0.7513034610974862
 40
0.8337249227548281
 40
0.9175785383426581
 40
1.0
 40
1.0
 40
1.0
 40
1.0
 10
400.1889358974657
 20
82.47762717094922
 30
0.0
 10
400.1902312234537
 20
82.48548652756375
 30
0.0
 10
400.2120033134713
 20
82.61758811532454
 30
0.0
 10
400.2537497422058
 20
82.20978607696141
 30
0.0
 10
400.3193129528602
 20
81.21135963677582
 30
0.0
 10
400.3803128603216
 20
79.50540947322528
 30
0.0
 10
400.4413578033627
 20
77.31192213381144
 30
0.0
 10
400.5067843422018
 20
74.74842078405311
 30
0.0
 10
400.5678204665844
 20
72.00011145343126
 30
0.0
 10
400.6288557246373
 20
69.25112952899507
 30
0.0
 10
400.6942848925721
 20
66.68966933463737
 30
0.0
 10
400.7553203202673
 20
64.48879455143178
 30
0.0
 10
400.8163557646206
 20
62.81043421768849
 30
0.0
 10
400.8817848819999
 20
61.70790158307159
 30
0.0
 10
400.9225923364035
 20
61.56890145087366
 30
0.0
 10
400.9428203230276
 20
61.5
 30
0.0
  0
SPLINE
  5
100
330
1F
100
AcDbEntity
  8
0
  6
Continuous
 62
     7
370
    25
100
AcDbSpline
210
0.0
220
0.0
230
1.0
 70
     8
 71
     3
 72
    20
 73
    16
 74
     0
 42
0.000000001
 43
0.00000001
 40
0.0
 40
0.0
 40
0.0
 40
0.0
 40
0.0052138443899436
 40
0.0876353060471761
 40
0.1714889216350625
 40
0.2539103832924575
 40
0.3363318449497985
 40
0.4201854605376272
 40
0.5026069221949716
 40
0.5850283838523105
 40
0.6688819994401403
 40
0.7513034610974857
 40
0.8337249227548277
 40
0.9175785383426579
 40
1.0
 40
1.0
 40
1.0
 40
1.0
 10
401.6889358974656
 20
82.47762717094922
 30
0.0
 10
401.6902312234537
 20
82.48548652756376
 30
0.0
 10
401.7120033134702
 20
82.61758811532437
 30
0.0
 10
401.7537497422061
 20
82.20978607696146
 30
0.0
 10
401.8193129528603
 20
81.21135963677588
 30
0.0
 10
401.8803128603212
 20
79.50540947322526
 30
0.0
 10
401.9413578033628
 20
77.31192213381144
 30
0.0
 10
402.0067843422017
 20
74.74842078405311
 30
0.0
 10
402.0678204665844
 20
72.00011145343124
 30
0.0
 10
402.1288557246371
 20
69.25112952899507
 30
0.0
 10
402.1942848925723
 20
66.68966933463737
 30
0.0
 10
402.2553203202671
 20
64.48879455143177
 30
0.0
 10
402.3163557646205
 20
62.81043421768849
 30
0.0
 10
402.3817848819999
 20
61.7079015830716
 30
0.0
 10
402.4225923364034
 20
61.56890145087364
 30
0.0
 10
402.4428203230275
 20
61.5
 30
0.0
  0
SPLINE
  5
101
330
1F
100
AcDbEntity
  8
0
  6
Continuous
 62
     7
370
    25
100
AcDbSpline
210
0.0
220
0.0
230
1.0
 70
     8
 71
     3
 72
    20
 73
    16
 74
     0
 42
0.000000001
 43
0.00000001
 40
0.0
 40
0.0
 40
0.0
 40
0.0
 40
0.0052138443899436
 40
0.0876353060471761
 40
0.1714889216350625
 40
0.2539103832924575
 40
0.3363318449497985
 40
0.4201854605376272
 40
0.5026069221949716
 40
0.5850283838523105
 40
0.6688819994401403
 40
0.7513034610974857
 40
0.8337249227548277
 40
0.9175785383426579
 40
1.0
 40
1.0
 40
1.0
 40
1.0
 10
403.1889358974656
 20
82.47762717094922
 30
0.0
 10
403.1902312234537
 20
82.48548652756376
 30
0.0
 10
403.2120033134705
 20
82.61758811532437
 30
0.0
 10
403.253749742206
 20
82.20978607696146
 30
0.0
 10
403.3193129528602
 20
81.21135963677588
 30
0.0
 10
403.3803128603213
 20
79.50540947322526
 30
0.0
 10
403.4413578033628
 20
77.31192213381144
 30
0.0
 10
403.5067843422016
 20
74.74842078405311
 30
0.0
 10
403.5678204665844
 20
72.00011145343124
 30
0.0
 10
403.6288557246371
 20
69.25112952899507
 30
0.0
 10
403.6942848925723
 20
66.68966933463737
 30
0.0
 10
403.7553203202669
 20
64.48879455143177
 30
0.0
 10
403.8163557646206
 20
62.81043421768849
 30
0.0
 10
403.8817848819999
 20
61.7079015830716
 30
0.0
 10
403.9225923364034
 20
61.56890145087364
 30
0.0
 10
403.9428203230275
 20
61.5
 30
0.0
  0
SPLINE
  5
102
330
1F
100
AcDbEntity
  8
0
  6
Continuous
 62
     7
370
    25
100
AcDbSpline
210
0.0
220
0.0
230
1.0
 70
     8
 71
     3
 72
    20
 73
    16
 74
     0
 42
0.000000001
 43
0.00000001
 40
0.0
 40
0.0
 40
0.0
 40
0.0
 40
0.0052138443899436
 40
0.0876353060471761
 40
0.1714889216350625
 40
0.2539103832924575
 40
0.3363318449497985
 40
0.4201854605376272
 40
0.5026069221949716
 40
0.5850283838523105
 40
0.6688819994401403
 40
0.7513034610974857
 40
0.8337249227548277
 40
0.9175785383426579
 40
1.0
 40
1.0
 40
1.0
 40
1.0
 10
404.6889358974656
 20
82.47762717094922
 30
0.0
 10
404.6902312234537
 20
82.48548652756376
 30
0.0
 10
404.7120033134706
 20
82.61758811532437
 30
0.0
 10
404.753749742206
 20
82.20978607696146
 30
0.0
 10
404.8193129528603
 20
81.21135963677588
 30
0.0
 10
404.8803128603212
 20
79.50540947322526
 30
0.0
 10
404.9413578033628
 20
77.31192213381144
 30
0.0
 10
405.0067843422017
 20
74.74842078405311
 30
0.0
 10
405.0678204665843
 20
72.00011145343124
 30
0.0
 10
405.1288557246372
 20
69.25112952899507
 30
0.0
 10
405.1942848925722
 20
66.68966933463737
 30
0.0
 10
405.2553203202671
 20
64.48879455143177
 30
0.0
 10
405.3163557646205
 20
62.81043421768849
 30
0.0
 10
405.381784882
 20
61.7079015830716
 30
0.0
 10
405.4225923364035
 20
61.56890145087364
 30
0.0
 10
405.4428203230275
 20
61.5
 30
0.0
  0
SPLINE
  5
103
330
1F
100
AcDbEntity
  8
0
  6
Continuous
 62
     7
370
    25
100
AcDbSpline
210
0.0
220
0.0
230
1.0
 70
     8
 71
     3
 72
    20
 73
    16
 74
     0
 42
0.000000001
 43
0.00000001
 40
0.0
 40
0.0
 40
0.0
 40
0.0
 40
0.0052138443899436
 40
0.0876353060471761
 40
0.1714889216350625
 40
0.2539103832924575
 40
0.3363318449497985
 40
0.4201854605376272
 40
0.5026069221949716
 40
0.5850283838523105
 40
0.6688819994401403
 40
0.7513034610974857
 40
0.8337249227548277
 40
0.9175785383426579
 40
1.0
 40
1.0
 40
1.0
 40
1.0
 10
406.1889358974656
 20
82.47762717094922
 30
0.0
 10
406.1902312234537
 20
82.48548652756376
 30
0.0
 10
406.2120033134705
 20
82.61758811532437
 30
0.0
 10
406.253749742206
 20
82.20978607696146
 30
0.0
 10
406.3193129528603
 20
81.21135963677588
 30
0.0
 10
406.3803128603212
 20
79.50540947322526
 30
0.0
 10
406.4413578033628
 20
77.31192213381144
 30
0.0
 10
406.5067843422017
 20
74.74842078405311
 30
0.0
 10
406.5678204665843
 20
72.00011145343124
 30
0.0
 10
406.6288557246372
 20
69.25112952899507
 30
0.0
 10
406.6942848925722
 20
66.68966933463737
 30
0.0
 10
406.755320320267
 20
64.48879455143177
 30
0.0
 10
406.8163557646207
 20
62.81043421768849
 30
0.0
 10
406.8817848819999
 20
61.7079015830716
 30
0.0
 10
406.9225923364035
 20
61.56890145087364
 30
0.0
 10
406.9428203230275
 20
61.5
 30
0.0
  0
SPLINE
  5
104
330
1F
100
AcDbEntity
  8
0
  6
Continuous
 62
     7
370
    25
100
AcDbSpline
210
0.0
220
0.0
230
1.0
 70
     8
 71
     3
 72
    20
 73
    16
 74
     0
 42
0.000000001
 43
0.00000001
 40
0.0
 40
0.0
 40
0.0
 40
0.0
 40
0.0052138443899419
 40
0.0876353060471746
 40
0.1714889216350611
 40
0.2539103832924562
 40
0.3363318449497974
 40
0.4201854605376262
 40
0.5026069221949708
 40
0.5850283838523098
 40
0.6688819994401398
 40
0.7513034610974854
 40
0.8337249227548276
 40
0.9175785383426578
 40
1.0
 40
1.0
 40
1.0
 40
1.0
 10
407.6889358974656
 20
82.47762717094923
 30
0.0
 10
407.6902312234537
 20
82.48548652756376
 30
0.0
 10
407.7120033134705
 20
82.61758811532428
 30
0.0
 10
407.7537497422059
 20
82.20978607696145
 30
0.0
 10
407.8193129528602
 20
81.21135963677585
 30
0.0
 10
407.8803128603215
 20
79.50540947322528
 30
0.0
 10
407.9413578033628
 20
77.31192213381145
 30
0.0
 10
408.0067843422017
 20
74.7484207840531
 30
0.0
 10
408.0678204665844
 20
72.00011145343127
 30
0.0
 10
408.128855724637
 20
69.25112952899502
 30
0.0
 10
408.1942848925722
 20
66.68966933463739
 30
0.0
 10
408.2553203202672
 20
64.48879455143177
 30
0.0
 10
408.3163557646207
 20
62.8104342176885
 30
0.0
 10
408.3817848819997
 20
61.70790158307157
 30
0.0
 10
408.4225923364034
 20
61.56890145087364
 30
0.0
 10
408.4428203230275
 20
61.5
 30
0.0
  0
SPLINE
  5
105
330
1F
100
AcDbEntity
  8
0
  6
Continuous
 62
     7
370
    25
100
AcDbSpline
210
0.0
220
0.0
230
1.0
 70
     8
 71
     3
 72
    20
 73
    16
 74
     0
 42
0.000000001
 43
0.00000001
 40
0.0
 40
0.0
 40
0.0
 40
0.0
 40
0.0052790151630789
 40
0.0887307090208789
 40
0.1736324581067116
 40
0.2570841519646762
 40
0.340535845822586
 40
0.4254375949083603
 40
0.5088892887662736
 40
0.5923409826241813
 40
0.6772427317099567
 40
0.7606944255678711
 40
0.8441461194257819
 40
0.9290478685115577
 40
1.0
 40
1.0
 40
1.0
 40
1.0
 10
409.1889358974656
 20
82.47762717094923
 30
0.0
 10
409.1902312234536
 20
82.48548652758005
 30
0.0
 10
409.212003313469
 20
82.61758811561427
 30
0.0
 10
409.2537497423346
 20
82.20978605077467
 30
0.0
 10
409.3193129524012
 20
81.21135973024971
 30
0.0
 10
409.3803128619944
 20
79.50540913258486
 30
0.0
 10
409.4413577970719
 20
77.3119234147372
 30
0.0
 10
409.5067843659614
 20
74.7484159461592
 30
0.0
 10
409.5678203796456
 20
72.00012915573596
 30
0.0
 10
409.6288560516542
 20
69.25106294248023
 30
0.0
 10
409.6942836574437
 20
66.68992082887577
 30
0.0
 10
409.7553248397241
 20
64.48787430918553
 30
0.0
 10
409.816338764861
 20
62.81389567266258
 30
0.0
 10
409.8785971684222
 20
61.75037815459834
 30
0.0
 10
409.9164090647494
 20
61.6147282986657
 30
0.0
 10
409.9336228462103
 20
61.55297400432884
 30
0.0
  0
SPLINE
  5
106
330
1F
100
AcDbEntity
  8
0
  6
Continuous
 62
     7
370
    25
100
AcDbSpline
210
0.0
220
0.0
230
1.0
 70
     8
 71
     3
 72
    18
 73
    14
 74
     0
 42
0.000000001
 43
0.00000001
 40
0.0
 40
0.0
 40
0.0
 40
0.0
 40
0.0853308747090531
 40
0.169079308725139
 40
0.2631175709475088
 40
0.3587899450251872
 40
0.4528282072475571
 40
0.546866469469927
 40
0.6425388435476055
 40
0.736577105769975
 40
0.830615367992345
 40
0.9262877420700235
 40
1.0
 40
1.0
 40
1.0
 40
1.0
 10
-9.689654387783907
 20
0.0000000000000069
 30
0.0
 10
-9.386763365041489
 20
0.0193966829101777
 30
0.0
 10
-8.78659836123774
 20
0.057830341878215
 30
0.0
 10
-7.210021655823434
 20
0.1142965765228779
 30
0.0
 10
-5.161206186722861
 20
0.1731579032350841
 30
0.0
 10
-2.669610451506016
 20
0.238575923684238
 30
0.0
 10
-0.0002082041281326
 20
0.2996141727973287
 30
0.0
 10
2.670450503982902
 20
0.3606494976376717
 30
0.0
 10
5.158233189724331
 20
0.426076392535793
 30
0.0
 10
7.297942666952245
 20
0.4871204582044888
 30
0.0
 10
8.921961283876122
 20
0.548123668713242
 30
0.0
 10
9.938647687726315
 20
0.608978892077644
 30
0.0
 10
10.06900877258901
 20
0.6454637230293923
 30
0.0
 10
10.12573888911455
 20
0.6613410741076464
 30
0.0
  0
SPLINE
  5
108
330
1F
100
AcDbEntity
  8
0
  6
Continuous
 62
     7
370
    25
100
AcDbSpline
210
0.0
220
0.0
230
1.0
 70
     8
 71
     3
 72
    19
 73
    15
 74
     0
 42
0.000000001
 43
0.00000001
 40
0.0
 40
0.0
 40
0.0
 40
0.0
 40
0.091375248993129
 40
0.1689089937788409
 40
0.2450048937839223
 40
0.3304503863808418
 40
0.4173806734554087
 40
0.5028261660523283
 40
0.5882716586492481
 40
0.6752019457238149
 40
0.7606474383207343
 40
0.8460929309176541
 40
0.933023217992221
 40
1.0
 40
1.0
 40
1.0
 40
1.0
 10
-10.13744698470742
 20
1.433853781606022
 30
0.0
 10
-10.0480629029146
 20
1.455668799555915
 30
0.0
 10
-9.88283462193218
 20
1.495994300955761
 30
0.0
 10
-8.75279093572215
 20
1.557962297576931
 30
0.0
 10
-7.220241500188656
 20
1.614256686863033
 30
0.0
 10
-5.15827797986862
 20
1.673169332486957
 30
0.0
 10
-2.670385733443803
 20
1.738572897636903
 30
0.0
 10
-0.0000020922754362
 20
1.7996149772843
 30
0.0
 10
2.670394175259244
 20
1.860649277777807
 30
0.0
 10
5.158248103766139
 20
1.926076450747639
 30
0.0
 10
7.29793870104975
 20
1.987120442724942
 30
0.0
 10
8.921962371275988
 20
2.048123672957536
 30
0.0
 10
9.938647485852908
 20
2.108978891289699
 30
0.0
 10
10.06900871137661
 20
2.145463722790466
 30
0.0
 10
10.12573888911455
 20
2.161341074107648
 30
0.0
  0
SPLINE
  5
10A
330
1F
100
AcDbEntity
  8
0
  6
Continuous
 62
     7
370
    25
100
AcDbSpline
210
0.0
220
0.0
230
1.0
 70
     8
 71
     3
 72
    19
 73
    15
 74
     0
 42
0.000000001
 43
0.00000001
 40
0.0
 40
0.0
 40
0.0
 40
0.0
 40
0.091375248993129
 40
0.1689089937788409
 40
0.2450048937839223
 40
0.3304503863808419
 40
0.4173806734554087
 40
0.5028261660523283
 40
0.5882716586492481
 40
0.6752019457238149
 40
0.7606474383207342
 40
0.846092930917654
 40
0.9330232179922209
 40
1.0
 40
1.0
 40
1.0
 40
1.0
 10
-10.13744698470742
 20
2.933853781606016
 30
0.0
 10
-10.0480629029146
 20
2.955668799555909
 30
0.0
 10
-9.88283462193218
 20
2.995994300955755
 30
0.0
 10
-8.75279093572215
 20
3.057962297576926
 30
0.0
 10
-7.220241500188656
 20
3.114256686863027
 30
0.0
 10
-5.15827797986862
 20
3.173169332486951
 30
0.0
 10
-2.670385733443803
 20
3.238572897636897
 30
0.0
 10
-0.0000020922754362
 20
3.299614977284302
 30
0.0
 10
2.670394175259244
 20
3.360649277777801
 30
0.0
 10
5.158248103766139
 20
3.426076450747634
 30
0.0
 10
7.29793870104975
 20
3.487120442724936
 30
0.0
 10
8.921962371275988
 20
3.54812367295753
 30
0.0
 10
9.938647485852908
 20
3.608978891289694
 30
0.0
 10
10.06900871137661
 20
3.645463722790468
 30
0.0
 10
10.12573888911455
 20
3.661341074107642
 30
0.0
  0
SPLINE
  5
10C
330
1F
100
AcDbEntity
  8
0
  6
Continuous
 62
     7
370
    25
100
AcDbSpline
210
0.0
220
0.0
230
1.0
 70
     8
 71
     3
 72
    19
 73
    15
 74
     0
 42
0.000000001
 43
0.00000001
 40
0.0
 40
0.0
 40
0.0
 40
0.0
 40
0.0913752489931289
 40
0.1689089937788408
 40
0.2450048937839223
 40
0.3304503863808418
 40
0.4173806734554087
 40
0.5028261660523283
 40
0.5882716586492481
 40
0.6752019457238149
 40
0.7606474383207343
 40
0.8460929309176541
 40
0.933023217992221
 40
1.0
 40
1.0
 40
1.0
 40
1.0
 10
-10.13744698470742
 20
4.43385378160601
 30
0.0
 10
-10.0480629029146
 20
4.455668799555903
 30
0.0
 10
-9.88283462193218
 20
4.49599430095575
 30
0.0
 10
-8.75279093572215
 20
4.557962297576927
 30
0.0
 10
-7.220241500188656
 20
4.614256686863029
 30
0.0
 10
-5.15827797986862
 20
4.673169332486945
 30
0.0
 10
-2.670385733443803
 20
4.738572897636899
 30
0.0
 10
-0.0000020922754362
 20
4.799614977284296
 30
0.0
 10
2.670394175259244
 20
4.860649277777796
 30
0.0
 10
5.158248103766139
 20
4.926076450747635
 30
0.0
 10
7.29793870104975
 20
4.987120442724938
 30
0.0
 10
8.921962371275988
 20
5.048123672957525
 30
0.0
 10
9.938647485852908
 20
5.108978891289695
 30
0.0
 10
10.06900871137661
 20
5.145463722790462
 30
0.0
 10
10.12573888911455
 20
5.161341074107637
 30
0.0
  0
SPLINE
  5
10E
330
1F
100
AcDbEntity
  8
0
  6
Continuous
 62
     7
370
    25
100
AcDbSpline
210
0.0
220
0.0
230
1.0
 70
     8
 71
     3
 72
    19
 73
    15
 74
     0
 42
0.000000001
 43
0.00000001
 40
0.0
 40
0.0
 40
0.0
 40
0.0
 40
0.0913752489931289
 40
0.1689089937788408
 40
0.2450048937839223
 40
0.3304503863808418
 40
0.4173806734554087
 40
0.5028261660523283
 40
0.5882716586492481
 40
0.6752019457238149
 40
0.7606474383207343
 40
0.8460929309176541
 40
0.933023217992221
 40
1.0
 40
1.0
 40
1.0
 40
1.0
 10
-10.13744698470742
 20
5.933853781606012
 30
0.0
 10
-10.0480629029146
 20
5.955668799555905
 30
0.0
 10
-9.88283462193218
 20
5.995994300955751
 30
0.0
 10
-8.75279093572215
 20
6.057962297576921
 30
0.0
 10
-7.220241500188656
 20
6.114256686863023
 30
0.0
 10
-5.15827797986862
 20
6.173169332486947
 30
0.0
 10
-2.670385733443803
 20
6.238572897636893
 30
0.0
 10
-0.0000020922754362
 20
6.299614977284297
 30
0.0
 10
2.670394175259244
 20
6.360649277777797
 30
0.0
 10
5.158248103766139
 20
6.42607645074763
 30
0.0
 10
7.29793870104975
 20
6.487120442724932
 30
0.0
 10
8.921962371275988
 20
6.548123672957526
 30
0.0
 10
9.938647485852908
 20
6.60897889128969
 30
0.0
 10
10.06900871137661
 20
6.645463722790463
 30
0.0
 10
10.12573888911455
 20
6.661341074107638
 30
0.0
  0
SPLINE
  5
110
330
1F
100
AcDbEntity
  8
0
  6
Continuous
 62
     7
370
    25
100
AcDbSpline
210
0.0
220
0.0
230
1.0
 70
     8
 71
     3
 72
    19
 73
    15
 74
     0
 42
0.000000001
 43
0.00000001
 40
0.0
 40
0.0
 40
0.0
 40
0.0
 40
0.0913752489931289
 40
0.1689089937788408
 40
0.2450048937839223
 40
0.3304503863808418
 40
0.4173806734554087
 40
0.5028261660523283
 40
0.5882716586492481
 40
0.6752019457238149
 40
0.7606474383207343
 40
0.8460929309176541
 40
0.933023217992221
 40
1.0
 40
1.0
 40
1.0
 40
1.0
 10
-10.13744698470742
 20
7.433853781606007
 30
0.0
 10
-10.0480629029146
 20
7.455668799555899
 30
0.0
 10
-9.88283462193218
 20
7.495994300955745
 30
0.0
 10
-8.75279093572215
 20
7.557962297576916
 30
0.0
 10
-7.220241500188656
 20
7.614256686863024
 30
0.0
 10
-5.15827797986862
 20
7.673169332486942
 30
0.0
 10
-2.670385733443803
 20
7.738572897636888
 30
0.0
 10
-0.0000020922754362
 20
7.799614977284292
 30
0.0
 10
2.670394175259244
 20
7.860649277777791
 30
0.0
 10
5.158248103766139
 20
7.926076450747624
 30
0.0
 10
7.29793870104975
 20
7.987120442724933
 30
0.0
 10
8.921962371275988
 20
8.048123672957521
 30
0.0
 10
9.938647485852908
 20
8.108978891289684
 30
0.0
 10
10.06900871137661
 20
8.145463722790458
 30
0.0
 10
10.12573888911455
 20
8.16134107410764
 30
0.0
  0
SPLINE
  5
112
330
1F
100
AcDbEntity
  8
0
  6
Continuous
 62
     7
370
    25
100
AcDbSpline
210
0.0
220
0.0
230
1.0
 70
     8
 71
     3
 72
    19
 73
    15
 74
     0
 42
0.000000001
 43
0.00000001
 40
0.0
 40
0.0
 40
0.0
 40
0.0
 40
0.0913752489931274
 40
0.1689089937788394
 40
0.2450048937839211
 40
0.3304503863808408
 40
0.4173806734554079
 40
0.5028261660523277
 40
0.5882716586492476
 40
0.6752019457238146
 40
0.7606474383207342
 40
0.8460929309176541
 40
0.9330232179922213
 40
0.9999999999999999
 40
0.9999999999999999
 40
0.9999999999999999
 40
0.9999999999999999
 10
-10.13744698470742
 20
8.933853781606008
 30
0.0
 10
-10.04806290291457
 20
8.9556687995559
 30
0.0
 10
-9.88283462193218
 20
8.995994300955747
 30
0.0
 10
-8.75279093572215
 20
9.05796229757691
 30
0.0
 10
-7.220241500188656
 20
9.114256686863019
 30
0.0
 10
-5.15827797986862
 20
9.173169332486935
 30
0.0
 10
-2.670385733443803
 20
9.238572897636889
 30
0.0
 10
-0.0000020922754362
 20
9.299614977284286
 30
0.0
 10
2.670394175259244
 20
9.360649277777785
 30
0.0
 10
5.158248103766139
 20
9.426076450747626
 30
0.0
 10
7.29793870104975
 20
9.487120442724928
 30
0.0
 10
8.921962371275988
 20
9.548123672957514
 30
0.0
 10
9.938647485852908
 20
9.608978891289684
 30
0.0
 10
10.06900871137659
 20
9.645463722790453
 30
0.0
 10
10.12573888911453
 20
9.661341074107627
 30
0.0
  0
SPLINE
  5
113
330
1F
100
AcDbEntity
  8
0
  6
Continuous
 62
     7
370
    25
100
AcDbSpline
210
0.0
220
0.0
230
1.0
 70
     8
 71
     3
 72
    19
 73
    15
 74
     0
 42
0.000000001
 43
0.00000001
 40
0.0
 40
0.0
 40
0.0
 40
0.0
 40
0.0840603930390348
 40
0.1695819836071436
 40
0.2536423766461784
 40
0.337702769685213
 40
0.4232243602533219
 40
0.5072847532923569
 40
0.5913451463313916
 40
0.6768667368995
 40
0.7609271299385354
 40
0.8449875229775746
 40
0.930509113545688
 40
1.0
 40
1.0
 40
1.0
 40
1.0
 10
-9.000000000000007
 20
0.7499999999999938
 30
0.0
 10
-8.940940778710992
 20
0.7702280335935909
 30
0.0
 10
-8.821795726750153
 20
0.8110357188453182
 30
0.0
 10
-7.876775815989973
 20
0.8764642807529421
 30
0.0
 10
-6.438174874778241
 20
0.9375000019608213
 30
0.0
 10
-4.551710793345098
 20
0.9985357113355755
 30
0.0
 10
-2.356153664189065
 20
1.063964309153939
 30
0.0
 10
-0.0000177998854822
 20
1.12499989803011
 30
0.0
 10
2.356225482550017
 20
1.18603610227061
 30
0.0
 10
4.551456622873761
 20
1.251462832602565
 30
0.0
 10
6.43910053224761
 20
1.312505300836604
 30
0.0
 10
7.8732951757092
 20
1.373515779765168
 30
0.0
 10
8.779703609904017
 20
1.435275827946662
 30
0.0
 10
8.895532447970616
 20
1.472617194813841
 30
0.0
 10
8.947457614181975
 20
1.489357038824204
 30
0.0
  0
SPLINE
  5
114
330
1F
100
AcDbEntity
  8
0
  6
Continuous
 62
     7
370
    25
100
AcDbSpline
210
0.0
220
0.0
230
1.0
 70
     8
 71
     3
 72
    19
 73
    15
 74
     0
 42
0.000000001
 43
0.00000001
 40
0.0
 40
0.0
 40
0.0
 40
0.0
 40
0.0840603930390348
 40
0.1695819836071436
 40
0.2536423766461784
 40
0.3377027696852129
 40
0.4232243602533218
 40
0.5072847532923568
 40
0.5913451463313915
 40
0.6768667368994999
 40
0.7609271299385353
 40
0.8449875229775744
 40
0.9305091135456878
 40
0.9999999999999999
 40
0.9999999999999999
 40
0.9999999999999999
 40
0.9999999999999999
 10
-9.000000000000007
 20
2.249999999999988
 30
0.0
 10
-8.940940778710992
 20
2.270228033593585
 30
0.0
 10
-8.821795726750153
 20
2.31103571884532
 30
0.0
 10
-7.876775815989973
 20
2.376464280752936
 30
0.0
 10
-6.438174874778241
 20
2.437500001960816
 30
0.0
 10
-4.551710793345098
 20
2.49853571133557
 30
0.0
 10
-2.356153664189065
 20
2.563964309153933
 30
0.0
 10
-0.0000177998854822
 20
2.624999898030104
 30
0.0
 10
2.356225482550017
 20
2.686036102270611
 30
0.0
 10
4.551456622873761
 20
2.751462832602567
 30
0.0
 10
6.43910053224761
 20
2.812505300836599
 30
0.0
 10
7.8732951757092
 20
2.873515779765162
 30
0.0
 10
8.779703609904017
 20
2.935275827946657
 30
0.0
 10
8.895532447970616
 20
2.972617194813835
 30
0.0
 10
8.947457614181975
 20
2.989357038824206
 30
0.0
  0
SPLINE
  5
115
330
1F
100
AcDbEntity
  8
0
  6
Continuous
 62
     7
370
    25
100
AcDbSpline
210
0.0
220
0.0
230
1.0
 70
     8
 71
     3
 72
    19
 73
    15
 74
     0
 42
0.000000001
 43
0.00000001
 40
0.0
 40
0.0
 40
0.0
 40
0.0
 40
0.0840603930390348
 40
0.1695819836071437
 40
0.2536423766461785
 40
0.337702769685213
 40
0.4232243602533219
 40
0.507284753292357
 40
0.5913451463313917
 40
0.6768667368995002
 40
0.7609271299385355
 40
0.8449875229775747
 40
0.9305091135456881
 40
1.0
 40
1.0
 40
1.0
 40
1.0
 10
-9.000000000000007
 20
3.749999999999989
 30
0.0
 10
-8.940940778710992
 20
3.77022803359358
 30
0.0
 10
-8.821795726750153
 20
3.811035718845314
 30
0.0
 10
-7.876775815989973
 20
3.876464280752938
 30
0.0
 10
-6.438174874778241
 20
3.93750000196081
 30
0.0
 10
-4.551710793345098
 20
3.998535711335571
 30
0.0
 10
-2.356153664189065
 20
4.063964309153935
 30
0.0
 10
-0.0000177998854822
 20
4.124999898030099
 30
0.0
 10
2.356225482550017
 20
4.186036102270606
 30
0.0
 10
4.551456622873761
 20
4.251462832602561
 30
0.0
 10
6.439100532247583
 20
4.3125053008366
 30
0.0
 10
7.8732951757092
 20
4.373515779765164
 30
0.0
 10
8.779703609904017
 20
4.435275827946652
 30
0.0
 10
8.895532447970616
 20
4.47261719481383
 30
0.0
 10
8.947457614181975
 20
4.4893570388242
 30
0.0
  0
SPLINE
  5
116
330
1F
100
AcDbEntity
  8
0
  6
Continuous
 62
     7
370
    25
100
AcDbSpline
210
0.0
220
0.0
230
1.0
 70
     8
 71
     3
 72
    19
 73
    15
 74
     0
 42
0.000000001
 43
0.00000001
 40
0.0
 40
0.0
 40
0.0
 40
0.0
 40
0.0840603930390348
 40
0.1695819836071436
 40
0.2536423766461784
 40
0.3377027696852129
 40
0.4232243602533218
 40
0.5072847532923568
 40
0.5913451463313915
 40
0.6768667368994999
 40
0.7609271299385353
 40
0.8449875229775744
 40
0.9305091135456878
 40
0.9999999999999999
 40
0.9999999999999999
 40
0.9999999999999999
 40
0.9999999999999999
 10
-9.000000000000007
 20
5.249999999999984
 30
0.0
 10
-8.940940778710992
 20
5.270228033593581
 30
0.0
 10
-8.821795726750153
 20
5.311035718845308
 30
0.0
 10
-7.876775815989973
 20
5.376464280752932
 30
0.0
 10
-6.438174874778241
 20
5.437500001960811
 30
0.0
 10
-4.551710793345098
 20
5.498535711335566
 30
0.0
 10
-2.356153664189065
 20
5.563964309153929
 30
0.0
 10
-0.0000177998854822
 20
5.6249998980301
 30
0.0
 10
2.356225482550017
 20
5.686036102270601
 30
0.0
 10
4.551456622873761
 20
5.751462832602562
 30
0.0
 10
6.43910053224761
 20
5.812505300836595
 30
0.0
 10
7.8732951757092
 20
5.873515779765158
 30
0.0
 10
8.779703609904017
 20
5.935275827946652
 30
0.0
 10
8.895532447970616
 20
5.972617194813831
 30
0.0
 10
8.947457614181975
 20
5.989357038824195
 30
0.0
  0
SPLINE
  5
117
330
1F
100
AcDbEntity
  8
0
  6
Continuous
 62
     7
370
    25
100
AcDbSpline
210
0.0
220
0.0
230
1.0
 70
     8
 71
     3
 72
    19
 73
    15
 74
     0
 42
0.000000001
 43
0.00000001
 40
0.0
 40
0.0
 40
0.0
 40
0.0
 40
0.0840603930390348
 40
0.1695819836071437
 40
0.2536423766461785
 40
0.337702769685213
 40
0.4232243602533219
 40
0.507284753292357
 40
0.5913451463313917
 40
0.6768667368995002
 40
0.7609271299385355
 40
0.8449875229775747
 40
0.9305091135456881
 40
1.0
 40
1.0
 40
1.0
 40
1.0
 10
-9.000000000000007
 20
6.749999999999985
 30
0.0
 10
-8.940940778710992
 20
6.770228033593575
 30
0.0
 10
-8.821795726750153
 20
6.81103571884531
 30
0.0
 10
-7.876775815989973
 20
6.876464280752933
 30
0.0
 10
-6.438174874778241
 20
6.937500001960806
 30
0.0
 10
-4.551710793345098
 20
6.998535711335567
 30
0.0
 10
-2.356153664189065
 20
7.06396430915393
 30
0.0
 10
-0.0000177998854822
 20
7.124999898030095
 30
0.0
 10
2.356225482550017
 20
7.186036102270601
 30
0.0
 10
4.551456622873761
 20
7.251462832602557
 30
0.0
 10
6.439100532247583
 20
7.312505300836588
 30
0.0
 10
7.8732951757092
 20
7.373515779765159
 30
0.0
 10
8.779703609904017
 20
7.435275827946647
 30
0.0
 10
8.895532447970616
 20
7.472617194813826
 30
0.0
 10
8.947457614181975
 20
7.489357038824195
 30
0.0
  0
SPLINE
  5
118
330
1F
100
AcDbEntity
  8
0
  6
Continuous
 62
     7
370
    25
100
AcDbSpline
210
0.0
220
0.0
230
1.0
 70
     8
 71
     3
 72
    19
 73
    15
 74
     0
 42
0.000000001
 43
0.00000001
 40
0.0
 40
0.0
 40
0.0
 40
0.0
 40
0.0840603930390348
 40
0.1695819836071437
 40
0.2536423766461785
 40
0.337702769685213
 40
0.4232243602533219
 40
0.507284753292357
 40
0.5913451463313917
 40
0.6768667368995002
 40
0.7609271299385355
 40
0.8449875229775747
 40
0.9305091135456881
 40
1.0
 40
1.0
 40
1.0
 40
1.0
 10
-9.000000000000007
 20
8.249999999999979
 30
0.0
 10
-8.940940778710992
 20
8.270228033593577
 30
0.0
 10
-8.821795726750153
 20
8.311035718845304
 30
0.0
 10
-7.876775815989973
 20
8.376464280752929
 30
0.0
 10
-6.438174874778241
 20
8.437500001960807
 30
0.0
 10
-4.551710793345098
 20
8.498535711335562
 30
0.0
 10
-2.356153664189065
 20
8.563964309153924
 30
0.0
 10
-0.0000177998854822
 20
8.624999898030088
 30
0.0
 10
2.356225482550017
 20
8.686036102270595
 30
0.0
 10
4.551456622873761
 20
8.75146283260255
 30
0.0
 10
6.43910053224761
 20
8.81250530083659
 30
0.0
 10
7.8732951757092
 20
8.87351577976516
 30
0.0
 10
8.779703609904043
 20
8.935275827946642
 30
0.0
 10
8.895532447970561
 20
8.97261719481382
 30
0.0
 10
8.947457614181891
 20
8.98935703882419
 30
0.0
  0
SPLINE
  5
119
330
1F
100
AcDbEntity
  8
0
  6
Continuous
 62
     7
370
    25
100
AcDbSpline
210
0.0
220
0.0
230
1.0
 70
    24
 71
     3
 72
    16
 73
    12
 74
     0
 42
0.000000001
 43
0.00000001
 40
0.0
 40
0.0
 40
0.0
 40
0.0
 40
0.1206337585497788
 40
0.2412976523992535
 40
0.3673775505121878
 40
0.4914121243105336
 40
0.6147129253241943
 40
0.7345389946163116
 40
0.8544668057231803
 40
0.9704942745176037
 40
1.0
 40
1.0
 40
1.0
 40
1.0
 10
-9.689654387783936
 20
0.0
 30
0.0
 10
-9.218241840724534
 20
0.0
 30
0.0
 10
-8.27529898389523
 20
0.0
 30
0.0
 10
-5.762785111576852
 20
0.0
 30
0.0
 10
-2.687920630371682
 20
0.0
 30
0.0
 10
0.6851555109356477
 20
0.0
 30
0.0
 10
3.86973874104457
 20
0.0
 30
0.0
 10
6.53001951722279
 20
0.0
 30
0.0
 10
8.334008177966867
 20
0.0
 30
0.0
 10
8.988069488348739
 20
0.0
 30
0.0
 10
8.990836390864288
 20
0.0
 30
0.0
 10
8.991397358872083
 20
0.0
 30
0.0
  0
SPLINE
  5
11A
330
1F
100
AcDbEntity
  8
0
  6
Continuous
 62
     7
370
    25
100
AcDbSpline
210
0.0
220
0.0
230
1.0
 70
    24
 71
     3
 72
     9
 73
     5
 74
     0
 42
0.000000001
 43
0.00000001
 40
0.0
 40
0.0
 40
0.0
 40
0.0
 40
0.1695648010570879
 40
1.0
 40
1.0
 40
1.0
 40
1.0
 10
-10.01186033725582
 20
0.0
 30
0.0
 10
-10.03461437518971
 20
0.0
 30
0.0
 10
-10.16880518479202
 20
0.0
 30
0.0
 10
-9.90703640036042
 20
0.0
 30
0.0
 10
-9.689654387783936
 20
0.0
 30
0.0
  0
SPLINE
  5
11B
330
1F
100
AcDbEntity
  8
0
  6
Continuous
 62
     7
370
    25
100
AcDbSpline
210
0.0
220
0.0
230
1.0
 70
     8
 71
     3
 72
    19
 73
    15
 74
     0
 42
0.000000001
 43
0.00000001
 40
0.0
 40
0.0
 40
0.0
 40
0.0
 40
0.0679251857606635
 40
0.1548791786816388
 40
0.2403475004550699
 40
0.3258158222285
 40
0.4127698151494757
 40
0.498238136922906
 40
0.5837064586963372
 40
0.6706604516173124
 40
0.7561287733907419
 40
0.841597095164172
 40
0.9285510880851479
 40
1.0
 40
1.0
 40
1.0
 40
1.0
 10
8.937775929844877
 20
10.37327897878271
 30
0.0
 10
8.887239886711306
 20
10.35718231067472
 30
0.0
 10
8.772010450579543
 20
10.32047959564849
 30
0.0
 10
7.872575319634173
 20
10.25939471336271
 30
0.0
 10
6.439291609527747
 20
10.19838945288179
 30
0.0
 10
4.55140552694569
 20
10.13734559731443
 30
0.0
 10
2.356234752921432
 20
10.07191921280181
 30
0.0
 10
-0.0000047272996351
 20
10.01088303034298
 30
0.0
 10
-2.356215679377854
 20
9.949847011312823
 30
0.0
 10
-4.551473029623498
 20
9.884420130832558
 30
0.0
 10
-6.43904577311244
 20
9.823378070285257
 30
0.0
 10
-7.873499709226489
 20
9.762366105951505
 30
0.0
 10
-8.781945776139555
 20
9.700409581353979
 30
0.0
 10
-8.897949762121298
 20
9.662882407654248
 30
0.0
 10
-8.950274298623773
 20
9.645955472312597
 30
0.0
  0
SPLINE
  5
11C
330
1F
100
AcDbEntity
  8
0
  6
Continuous
 62
     7
370
    25
100
AcDbSpline
210
0.0
220
0.0
230
1.0
 70
     8
 71
     3
 72
    19
 73
    15
 74
     0
 42
0.000000001
 43
0.00000001
 40
0.0
 40
0.0
 40
0.0
 40
0.0
 40
0.0679251857606635
 40
0.1548791786816388
 40
0.2403475004550699
 40
0.3258158222285
 40
0.4127698151494757
 40
0.498238136922906
 40
0.5837064586963372
 40
0.6706604516173124
 40
0.7561287733907419
 40
0.841597095164172
 40
0.9285510880851479
 40
1.0
 40
1.0
 40
1.0
 40
1.0
 10
8.937775929844877
 20
8.87327897878272
 30
0.0
 10
8.887239886711306
 20
8.85718231067472
 30
0.0
 10
8.772010450579543
 20
8.820479595648495
 30
0.0
 10
7.872575319634173
 20
8.759394713362706
 30
0.0
 10
6.439291609527747
 20
8.698389452881795
 30
0.0
 10
4.55140552694569
 20
8.637345597314432
 30
0.0
 10
2.356234752921432
 20
8.571919212801815
 30
0.0
 10
-0.0000047272996351
 20
8.510883030342988
 30
0.0
 10
-2.356215679377854
 20
8.44984701131283
 30
0.0
 10
-4.551473029623498
 20
8.384420130832556
 30
0.0
 10
-6.43904577311244
 20
8.323378070285257
 30
0.0
 10
-7.873499709226489
 20
8.262366105951505
 30
0.0
 10
-8.781945776139555
 20
8.200409581353984
 30
0.0
 10
-8.897949762121298
 20
8.162882407654253
 30
0.0
 10
-8.950274298623773
 20
8.145955472312595
 30
0.0
  0
SPLINE
  5
11D
330
1F
100
AcDbEntity
  8
0
  6
Continuous
 62
     7
370
    25
100
AcDbSpline
210
0.0
220
0.0
230
1.0
 70
     8
 71
     3
 72
    19
 73
    15
 74
     0
 42
0.000000001
 43
0.00000001
 40
0.0
 40
0.0
 40
0.0
 40
0.0
 40
0.0679251857606635
 40
0.1548791786816388
 40
0.2403475004550699
 40
0.3258158222285
 40
0.4127698151494758
 40
0.4982381369229061
 40
0.5837064586963373
 40
0.6706604516173125
 40
0.756128773390742
 40
0.8415970951641722
 40
0.9285510880851481
 40
1.0
 40
1.0
 40
1.0
 40
1.0
 10
8.937775929844877
 20
7.373278978782719
 30
0.0
 10
8.887239886711306
 20
7.357182310674726
 30
0.0
 10
8.772010450579543
 20
7.320479595648494
 30
0.0
 10
7.872575319634173
 20
7.259394713362711
 30
0.0
 10
6.439291609527747
 20
7.198389452881801
 30
0.0
 10
4.55140552694569
 20
7.137345597314431
 30
0.0
 10
2.356234752921432
 20
7.071919212801814
 30
0.0
 10
-0.0000047272996351
 20
7.010883030342987
 30
0.0
 10
-2.356215679377854
 20
6.949847011312828
 30
0.0
 10
-4.551473029623498
 20
6.884420130832562
 30
0.0
 10
-6.43904577311244
 20
6.823378070285262
 30
0.0
 10
-7.873499709226489
 20
6.76236610595151
 30
0.0
 10
-8.781945776139555
 20
6.70040958135399
 30
0.0
 10
-8.897949762121298
 20
6.662882407654252
 30
0.0
 10
-8.950274298623773
 20
6.6459554723126
 30
0.0
  0
SPLINE
  5
11E
330
1F
100
AcDbEntity
  8
0
  6
Continuous
 62
     7
370
    25
100
AcDbSpline
210
0.0
220
0.0
230
1.0
 70
     8
 71
     3
 72
    19
 73
    15
 74
     0
 42
0.000000001
 43
0.00000001
 40
0.0
 40
0.0
 40
0.0
 40
0.0
 40
0.0679251857606635
 40
0.1548791786816388
 40
0.2403475004550699
 40
0.3258158222285
 40
0.4127698151494757
 40
0.498238136922906
 40
0.5837064586963372
 40
0.6706604516173124
 40
0.7561287733907419
 40
0.841597095164172
 40
0.9285510880851479
 40
1.0
 40
1.0
 40
1.0
 40
1.0
 10
8.937775929844877
 20
5.873278978782724
 30
0.0
 10
8.887239886711306
 20
5.857182310674731
 30
0.0
 10
8.772010450579543
 20
5.820479595648499
 30
0.0
 10
7.872575319634173
 20
5.759394713362717
 30
0.0
 10
6.439291609527747
 20
5.698389452881799
 30
0.0
 10
4.55140552694569
 20
5.637345597314436
 30
0.0
 10
2.356234752921432
 20
5.571919212801819
 30
0.0
 10
-0.0000047272996351
 20
5.510883030342993
 30
0.0
 10
-2.356215679377854
 20
5.449847011312833
 30
0.0
 10
-4.551473029623498
 20
5.384420130832561
 30
0.0
 10
-6.43904577311244
 20
5.32337807028526
 30
0.0
 10
-7.873499709226489
 20
5.262366105951509
 30
0.0
 10
-8.781945776139555
 20
5.200409581353989
 30
0.0
 10
-8.897949762121298
 20
5.162882407654251
 30
0.0
 10
-8.950274298623773
 20
5.1459554723126
 30
0.0
  0
SPLINE
  5
11F
330
1F
100
AcDbEntity
  8
0
  6
Continuous
 62
     7
370
    25
100
AcDbSpline
210
0.0
220
0.0
230
1.0
 70
     8
 71
     3
 72
    19
 73
    15
 74
     0
 42
0.000000001
 43
0.00000001
 40
0.0
 40
0.0
 40
0.0
 40
0.0
 40
0.0679251857606634
 40
0.1548791786816386
 40
0.2403475004550697
 40
0.3258158222284997
 40
0.4127698151494754
 40
0.4982381369229056
 40
0.5837064586963367
 40
0.6706604516173118
 40
0.7561287733907412
 40
0.8415970951641714
 40
0.9285510880851471
 40
1.0
 40
1.0
 40
1.0
 40
1.0
 10
8.937775929844877
 20
4.37327897878273
 30
0.0
 10
8.887239886711306
 20
4.357182310674737
 30
0.0
 10
8.772010450579543
 20
4.320479595648504
 30
0.0
 10
7.872575319634173
 20
4.259394713362716
 30
0.0
 10
6.439291609527747
 20
4.198389452881806
 30
0.0
 10
4.55140552694569
 20
4.137345597314434
 30
0.0
 10
2.356234752921432
 20
4.071919212801825
 30
0.0
 10
-0.0000047272996351
 20
4.010883030342999
 30
0.0
 10
-2.356215679377854
 20
3.949847011312832
 30
0.0
 10
-4.551473029623498
 20
3.884420130832567
 30
0.0
 10
-6.43904577311244
 20
3.823378070285266
 30
0.0
 10
-7.873499709226489
 20
3.762366105951514
 30
0.0
 10
-8.781945776139555
 20
3.700409581353994
 30
0.0
 10
-8.897949762121298
 20
3.662882407654257
 30
0.0
 10
-8.950274298623773
 20
3.645955472312605
 30
0.0
  0
SPLINE
  5
120
330
1F
100
AcDbEntity
  8
0
  6
Continuous
 62
     7
370
    25
100
AcDbSpline
210
0.0
220
0.0
230
1.0
 70
     8
 71
     3
 72
    19
 73
    15
 74
     0
 42
0.000000001
 43
0.00000001
 40
0.0
 40
0.0
 40
0.0
 40
0.0
 40
0.0679251857606635
 40
0.1548791786816388
 40
0.24034750045507
 40
0.3258158222285001
 40
0.4127698151494759
 40
0.4982381369229061
 40
0.5837064586963374
 40
0.6706604516173126
 40
0.7561287733907421
 40
0.8415970951641724
 40
0.9285510880851482
 40
1.0
 40
1.0
 40
1.0
 40
1.0
 10
8.937775929844877
 20
2.873278978782729
 30
0.0
 10
8.887239886711306
 20
2.857182310674736
 30
0.0
 10
8.772010450579543
 20
2.820479595648504
 30
0.0
 10
7.872575319634173
 20
2.759394713362721
 30
0.0
 10
6.439291609527747
 20
2.698389452881804
 30
0.0
 10
4.55140552694569
 20
2.63734559731444
 30
0.0
 10
2.35623475292146
 20
2.571919212801831
 30
0.0
 10
-0.0000047272996351
 20
2.510883030342997
 30
0.0
 10
-2.356215679377854
 20
2.449847011312837
 30
0.0
 10
-4.551473029623498
 20
2.384420130832565
 30
0.0
 10
-6.43904577311244
 20
2.323378070285265
 30
0.0
 10
-7.873499709226489
 20
2.26236610595152
 30
0.0
 10
-8.781945776139555
 20
2.200409581354
 30
0.0
 10
-8.897949762121298
 20
2.162882407654263
 30
0.0
 10
-8.950274298623773
 20
2.145955472312611
 30
0.0
  0
SPLINE
  5
121
330
1F
100
AcDbEntity
  8
0
  6
Continuous
 62
     7
370
    25
100
AcDbSpline
210
0.0
220
0.0
230
1.0
 70
     8
 71
     3
 72
    19
 73
    15
 74
     0
 42
0.000000001
 43
0.00000001
 40
0.0
 40
0.0
 40
0.0
 40
0.0
 40
0.0679251857606635
 40
0.1548791786816388
 40
0.24034750045507
 40
0.3258158222285001
 40
0.4127698151494759
 40
0.4982381369229061
 40
0.5837064586963374
 40
0.6706604516173126
 40
0.7561287733907421
 40
0.8415970951641724
 40
0.9285510880851482
 40
1.0
 40
1.0
 40
1.0
 40
1.0
 10
8.937775929844877
 20
1.373278978782734
 30
0.0
 10
8.887239886711306
 20
1.357182310674741
 30
0.0
 10
8.772010450579543
 20
1.320479595648509
 30
0.0
 10
7.872575319634173
 20
1.25939471336272
 30
0.0
 10
6.439291609527747
 20
1.19838945288181
 30
0.0
 10
4.55140552694569
 20
1.137345597314446
 30
0.0
 10
2.35623475292146
 20
1.071919212801829
 30
0.0
 10
-0.0000047272996351
 20
1.010883030343003
 30
0.0
 10
-2.356215679377854
 20
0.9498470113128432
 30
0.0
 10
-4.551473029623498
 20
0.8844201308325708
 30
0.0
 10
-6.43904577311244
 20
0.8233780702852702
 30
0.0
 10
-7.873499709226489
 20
0.7623661059515188
 30
0.0
 10
-8.781945776139555
 20
0.7004095813539988
 30
0.0
 10
-8.897949762121298
 20
0.6628824076542611
 30
0.0
 10
-8.950274298623773
 20
0.6459554723126093
 30
0.0
  0
LINE
  5
128
330
1F
100
AcDbEntity
  8
0
  6
Continuous
 62
     7
370
    25
100
AcDbLine
 10
-12.5
 20
32.0
 30
0.0
 11
-12.5
 21
12.0
 31
0.0
  0
LINE
  5
129
330
1F
100
AcDbEntity
  8
0
  6
Continuous
 62
     7
370
    25
100
AcDbLine
 10
12.5
 20
12.0
 30
0.0
 11
12.5
 21
32.0
 31
0.0
  0
LINE
  5
12A
330
1F
100
AcDbEntity
  8
0
  6
Continuous
 62
     7
370
    25
100
AcDbLine
 10
390.0
 20
84.5
 30
0.0
 11
40.0
 21
84.5
 31
0.0
  0
LINE
  5
12B
330
1F
100
AcDbEntity
  8
0
  6
Continuous
 62
     7
370
    25
100
AcDbLine
 10
40.0
 20
59.5
 30
0.0
 11
390.0
 21
59.5
 31
0.0
  0
LINE
  5
12C
330
1F
100
AcDbEntity
  8
0
  6
Continuous
 62
     7
370
    25
100
AcDbLine
 10
406.9927252165
 20
61.4063665349
 30
0.0
 11
407.0506309456
 21
61.5064645297
 31
0.0
  0
LINE
  5
12D
330
1F
100
AcDbEntity
  8
0
  6
Continuous
 62
     7
370
    25
100
AcDbLine
 10
403.9927252165
 20
61.4063665349
 30
0.0
 11
404.0506309456
 21
61.5064645297
 31
0.0
  0
LINE
  5
12E
330
1F
100
AcDbEntity
  8
0
  6
Continuous
 62
     7
370
    25
100
AcDbLine
 10
399.4927252165
 20
61.4063665349
 30
0.0
 11
399.5506309456
 21
61.5064645297
 31
0.0
  0
LINE
  5
12F
330
1F
100
AcDbEntity
  8
0
  6
Continuous
 62
     7
370
    25
100
AcDbLine
 10
396.4927252165
 20
61.4063665349
 30
0.0
 11
396.5506309456
 21
61.5064645297
 31
0.0
  0
LINE
  5
130
330
1F
100
AcDbEntity
  8
0
  6
Continuous
 62
     7
370
    25
100
AcDbLine
 10
395.807179677
 20
82.5
 30
0.0
 11
395.692820323
 21
82.5
 31
0.0
  0
LINE
  5
131
330
1F
100
AcDbEntity
  8
0
  6
Continuous
 62
     7
370
    25
100
AcDbLine
 10
397.307179677
 20
82.5
 30
0.0
 11
397.192820323
 21
82.5
 31
0.0
  0
LINE
  5
132
330
1F
100
AcDbEntity
  8
0
  6
Continuous
 62
     7
370
    25
100
AcDbLine
 10
398.807179677
 20
82.5
 30
0.0
 11
398.692820323
 21
82.5
 31
0.0
  0
LINE
  5
133
330
1F
100
AcDbEntity
  8
0
  6
Continuous
 62
     7
370
    25
100
AcDbLine
 10
400.307179677
 20
82.5
 30
0.0
 11
400.192820323
 21
82.5
 31
0.0
  0
LINE
  5
134
330
1F
100
AcDbEntity
  8
0
  6
Continuous
 62
     7
370
    25
100
AcDbLine
 10
401.807179677
 20
82.5
 30
0.0
 11
401.692820323
 21
82.5
 31
0.0
  0
LINE
  5
135
330
1F
100
AcDbEntity
  8
0
  6
Continuous
 62
     7
370
    25
100
AcDbLine
 10
403.307179677
 20
82.5
 30
0.0
 11
403.192820323
 21
82.5
 31
0.0
  0
LINE
  5
136
330
1F
100
AcDbEntity
  8
0
  6
Continuous
 62
     7
370
    25
100
AcDbLine
 10
404.807179677
 20
82.5
 30
0.0
 11
404.692820323
 21
82.5
 31
0.0
  0
LINE
  5
137
330
1F
100
AcDbEntity
  8
0
  6
Continuous
 62
     7
370
    25
100
AcDbLine
 10
406.307179677
 20
82.5
 30
0.0
 11
406.192820323
 21
82.5
 31
0.0
  0
LINE
  5
138
330
1F
100
AcDbEntity
  8
0
  6
Continuous
 62
     7
370
    25
100
AcDbLine
 10
407.807179677
 20
82.5
 30
0.0
 11
407.692820323
 21
82.5
 31
0.0
  0
LINE
  5
139
330
1F
100
AcDbEntity
  8
0
  6
Continuous
 62
     7
370
    25
100
AcDbLine
 10
409.307179677
 20
82.5
 30
0.0
 11
409.192820323
 21
82.5
 31
0.0
  0
LINE
  5
13A
330
1F
100
AcDbEntity
  8
0
  6
Continuous
 62
     7
370
    25
100
AcDbLine
 10
408.442820323
 20
61.5
 30
0.0
 11
408.557179677
 21
61.5
 31
0.0
  0
LINE
  5
13B
330
1F
100
AcDbEntity
  8
0
  6
Continuous
 62
     7
370
    25
100
AcDbLine
 10
406.942820323
 20
61.5
 30
0.0
 11
407.057179677
 21
61.5
 31
0.0
  0
LINE
  5
13C
330
1F
100
AcDbEntity
  8
0
  6
Continuous
 62
     7
370
    25
100
AcDbLine
 10
405.442820323
 20
61.5
 30
0.0
 11
405.557179677
 21
61.5
 31
0.0
  0
LINE
  5
13D
330
1F
100
AcDbEntity
  8
0
  6
Continuous
 62
     7
370
    25
100
AcDbLine
 10
403.942820323
 20
61.5
 30
0.0
 11
404.057179677
 21
61.5
 31
0.0
  0
LINE
  5
13E
330
1F
100
AcDbEntity
  8
0
  6
Continuous
 62
     7
370
    25
100
AcDbLine
 10
402.442820323
 20
61.5
 30
0.0
 11
402.557179677
 21
61.5
 31
0.0
  0
LINE
  5
13F
330
1F
100
AcDbEntity
  8
0
  6
Continuous
 62
     7
370
    25
100
AcDbLine
 10
400.942820323
 20
61.5
 30
0.0
 11
401.057179677
 21
61.5
 31
0.0
  0
LINE
  5
140
330
1F
100
AcDbEntity
  8
0
  6
Continuous
 62
     7
370
    25
100
AcDbLine
 10
399.442820323
 20
61.5
 30
0.0
 11
399.557179677
 21
61.5
 31
0.0
  0
LINE
  5
141
330
1F
100
AcDbEntity
  8
0
  6
Continuous
 62
     7
370
    25
100
AcDbLine
 10
397.942820323
 20
61.5
 30
0.0
 11
398.057179677
 21
61.5
 31
0.0
  0
LINE
  5
142
330
1F
100
AcDbEntity
  8
0
  6
Continuous
 62
     7
370
    25
100
AcDbLine
 10
396.442820323
 20
61.5
 30
0.0
 11
396.557179677
 21
61.5
 31
0.0
  0
LINE
  5
143
330
1F
100
AcDbEntity
  8
0
  6
Continuous
 62
     7
370
    25
100
AcDbLine
 10
395.0
 20
61.5
 30
0.0
 11
395.057179677
 21
61.5
 31
0.0
  0
LINE
  5
144
330
1F
100
AcDbEntity
  8
0
  6
Continuous
 62
     7
370
    25
100
AcDbLine
 10
9.0
 20
10.3858830574
 30
0.0
 11
9.0
 21
12.0
 31
0.0
  0
LINE
  5
145
330
1F
100
AcDbEntity
  8
0
  6
Continuous
 62
     7
370
    25
100
AcDbLine
 10
9.0
 20
8.8858830574
 30
0.0
 11
9.0
 21
8.9948505522
 31
0.0
  0
LINE
  5
146
330
1F
100
AcDbEntity
  8
0
  6
Continuous
 62
     7
370
    25
100
AcDbLine
 10
9.0
 20
7.3858830574
 30
0.0
 11
9.0
 21
7.4948505522
 31
0.0
  0
LINE
  5
147
330
1F
100
AcDbEntity
  8
0
  6
Continuous
 62
     7
370
    25
100
AcDbLine
 10
9.0
 20
5.8858830574
 30
0.0
 11
9.0
 21
5.9948505522
 31
0.0
  0
LINE
  5
148
330
1F
100
AcDbEntity
  8
0
  6
Continuous
 62
     7
370
    25
100
AcDbLine
 10
9.0
 20
4.3858830574
 30
0.0
 11
9.0
 21
4.4948505522
 31
0.0
  0
LINE
  5
149
330
1F
100
AcDbEntity
  8
0
  6
Continuous
 62
     7
370
    25
100
AcDbLine
 10
9.0
 20
2.8858830574
 30
0.0
 11
9.0
 21
2.9948505522
 31
0.0
  0
LINE
  5
14A
330
1F
100
AcDbEntity
  8
0
  6
Continuous
 62
     7
370
    25
100
AcDbLine
 10
9.0
 20
1.3858830574
 30
0.0
 11
9.0
 21
1.4948505522
 31
0.0
  0
LINE
  5
14B
330
1F
100
AcDbEntity
  8
0
  6
Continuous
 62
     7
370
    25
100
AcDbLine
 10
-9.0
 20
0.75
 30
0.0
 11
-9.0
 21
0.6407631432
 31
0.0
  0
LINE
  5
14C
330
1F
100
AcDbEntity
  8
0
  6
Continuous
 62
     7
370
    25
100
AcDbLine
 10
-9.0
 20
2.25
 30
0.0
 11
-9.0
 21
2.1407631432
 31
0.0
  0
LINE
  5
14D
330
1F
100
AcDbEntity
  8
0
  6
Continuous
 62
     7
370
    25
100
AcDbLine
 10
-9.0
 20
3.75
 30
0.0
 11
-9.0
 21
3.6407631432
 31
0.0
  0
LINE
  5
14E
330
1F
100
AcDbEntity
  8
0
  6
Continuous
 62
     7
370
    25
100
AcDbLine
 10
-9.0
 20
5.25
 30
0.0
 11
-9.0
 21
5.1407631432
 31
0.0
  0
LINE
  5
14F
330
1F
100
AcDbEntity
  8
0
  6
Continuous
 62
     7
370
    25
100
AcDbLine
 10
-9.0
 20
6.75
 30
0.0
 11
-9.0
 21
6.6407631432
 31
0.0
  0
LINE
  5
150
330
1F
100
AcDbEntity
  8
0
  6
Continuous
 62
     7
370
    25
100
AcDbLine
 10
-9.0
 20
8.25
 30
0.0
 11
-9.0
 21
8.1407631432
 31
0.0
  0
LINE
  5
151
330
1F
100
AcDbEntity
  8
0
  6
Continuous
 62
     7
370
    25
100
AcDbLine
 10
-9.0
 20
12.0
 30
0.0
 11
-9.0
 21
9.6407631432
 31
0.0
  0
LINE
  5
152
330
1F
100
AcDbEntity
  8
0
  6
Continuous
 62
     7
370
    25
100
AcDbLine
 10
390.0
 20
49.5
 30
0.0
 11
395.0
 21
49.5
 31
0.0
  0
LINE
  5
153
330
1F
100
AcDbEntity
  8
0
  6
Continuous
 62
     7
370
    25
100
AcDbLine
 10
395.0
 20
94.5
 30
0.0
 11
390.0
 21
94.5
 31
0.0
  0
LINE
  5
154
330
1F
100
AcDbEntity
  8
0
  6
Continuous
 62
     7
370
    25
100
AcDbLine
 10
-12.5
 20
12.0
 30
0.0
 11
12.5
 21
12.0
 31
0.0
  0
LINE
  5
155
330
1F
100
AcDbEntity
  8
0
  6
Continuous
 62
     7
370
    25
100
AcDbLine
 10
-9.9788615495
 20
1.385089834
 30
0.0
 11
-10.2
 21
1.4246136882
 31
0.0
  0
LINE
  5
156
330
1F
100
AcDbEntity
  8
0
  6
Continuous
 62
     7
370
    25
100
AcDbLine
 10
-9.9788615495
 20
2.885089834
 30
0.0
 11
-10.2
 21
2.9246136882
 31
0.0
  0
LINE
  5
157
330
1F
100
AcDbEntity
  8
0
  6
Continuous
 62
     7
370
    25
100
AcDbLine
 10
-9.9788615495
 20
4.385089834
 30
0.0
 11
-10.2
 21
4.4246136882
 31
0.0
  0
LINE
  5
158
330
1F
100
AcDbEntity
  8
0
  6
Continuous
 62
     7
370
    25
100
AcDbLine
 10
-9.9788615495
 20
5.885089834
 30
0.0
 11
-10.2
 21
5.9246136882
 31
0.0
  0
LINE
  5
159
330
1F
100
AcDbEntity
  8
0
  6
Continuous
 62
     7
370
    25
100
AcDbLine
 10
-9.9788615495
 20
7.385089834
 30
0.0
 11
-10.2
 21
7.4246136882
 31
0.0
  0
LINE
  5
15A
330
1F
100
AcDbEntity
  8
0
  6
Continuous
 62
     7
370
    25
100
AcDbLine
 10
-9.9788615495
 20
8.885089834
 30
0.0
 11
-10.2
 21
8.9246136882
 31
0.0
  0
LINE
  5
15B
330
1F
100
AcDbEntity
  8
0
  6
Continuous
 62
     7
370
    25
100
AcDbLine
 10
390.0
 20
94.5
 30
0.0
 11
390.0
 21
49.5
 31
0.0
  0
LINE
  5
15C
330
1F
100
AcDbEntity
  8
0
  6
Continuous
 62
     7
370
    25
100
AcDbLine
 10
395.0
 20
94.5
 30
0.0
 11
395.0
 21
49.5
 31
0.0
  0
LINE
  5
15D
330
1F
100
AcDbEntity
  8
0
  6
Continuous
 62
     8
370
    25
100
AcDbLine
 10
-12.5
 20
32.0
 30
0.0
 11
12.5
 21
32.0
 31
0.0
  0
LINE
  5
15E
330
1F
100
AcDbEntity
  8
0
  6
Continuous
 62
     8
370
    25
100
AcDbLine
 10
40.0
 20
84.5
 30
0.0
 11
40.0
 21
59.5
 31
0.0
  0
ARC
  5
15F
330
1F
100
AcDbEntity
  8
0
  6
Continuous
 62
     7
370
    25
100
AcDbCircle
 10
40.0
 20
32.0
 30
0.0
 40
27.50000000000003
100
AcDbArc
 50
90.0
 51
180.0
  0
ARC
  5
160
330
1F
100
AcDbEntity
  8
0
  6
Continuous
 62
     7
370
    25
100
AcDbCircle
 10
40.0
 20
32.0
 30
0.0
 40
52.49999999999996
100
AcDbArc
 50
90.0
 51
180.0
  0
SPLINE
  5
165
330
1B
100
AcDbEntity
 67
     1
  8
0
  6
Continuous
 62
     7
370
    25
100
AcDbSpline
210
0.0
220
0.0
230
1.0
 70
     8
 71
     3
 72
     9
 73
     5
 74
     0
 42
0.000000001
 43
0.00000001
 40
0.0
 40
0.0
 40
0.0
 40
0.0
 40
0.5570743320100158
 40
1.0
 40
1.0
 40
1.0
 40
1.0
 10
408.1349880310874
 20
9.291102028114048
 30
0.0
 10
408.0097815745635
 20
9.507772767208847
 30
0.0
 10
407.7850243934666
 20
9.896716803300068
 30
0.0
 10
407.5602948298975
 20
10.2856782283036
 30
0.0
 10
407.4607563378365
 20
10.45795922729562
 30
0.0
  0
SPLINE
  5
166
330
1B
100
AcDbEntity
 67
     1
  8
0
  6
Continuous
 62
     7
370
    25
100
AcDbSpline
210
0.0
220
0.0
230
1.0
 70
     8
 71
     3
 72
     9
 73
     5
 74
     0
 42
0.000000001
 43
0.00000001
 40
0.0
 40
0.0
 40
0.0
 40
0.0
 40
0.5570743320100147
 40
1.0
 40
1.0
 40
1.0
 40
1.0
 10
406.6349880310873
 20
9.291102028114047
 30
0.0
 10
406.5097815745634
 20
9.507772767208843
 30
0.0
 10
406.2850243934667
 20
9.896716803300066
 30
0.0
 10
406.0602948298975
 20
10.2856782283036
 30
0.0
 10
405.9607563378365
 20
10.45795922729562
 30
0.0
  0
SPLINE
  5
167
330
1B
100
AcDbEntity
 67
     1
  8
0
  6
Continuous
 62
     7
370
    25
100
AcDbSpline
210
0.0
220
0.0
230
1.0
 70
     8
 71
     3
 72
     9
 73
     5
 74
     0
 42
0.000000001
 43
0.00000001
 40
0.0
 40
0.0
 40
0.0
 40
0.0
 40
0.5570743320099928
 40
1.0
 40
1.0
 40
1.0
 40
1.0
 10
405.1349880310873
 20
9.291102028114047
 30
0.0
 10
405.0097815745635
 20
9.507772767208849
 30
0.0
 10
404.7850243934667
 20
9.896716803300095
 30
0.0
 10
404.5602948298975
 20
10.2856782283036
 30
0.0
 10
404.4607563378365
 20
10.45795922729563
 30
0.0
  0
SPLINE
  5
168
330
1B
100
AcDbEntity
 67
     1
  8
0
  6
Continuous
 62
     7
370
    25
100
AcDbSpline
210
0.0
220
0.0
230
1.0
 70
     8
 71
     3
 72
     9
 73
     5
 74
     0
 42
0.000000001
 43
0.00000001
 40
0.0
 40
0.0
 40
0.0
 40
0.0
 40
0.5570743320099928
 40
1.0
 40
1.0
 40
1.0
 40
1.0
 10
403.6349880310873
 20
9.291102028114047
 30
0.0
 10
403.5097815745634
 20
9.507772767208849
 30
0.0
 10
403.2850243934668
 20
9.896716803300095
 30
0.0
 10
403.0602948298975
 20
10.2856782283036
 30
0.0
 10
402.9607563378365
 20
10.45795922729563
 30
0.0
  0
SPLINE
  5
169
330
1B
100
AcDbEntity
 67
     1
  8
0
  6
Continuous
 62
     7
370
    25
100
AcDbSpline
210
0.0
220
0.0
230
1.0
 70
     8
 71
     3
 72
     9
 73
     5
 74
     0
 42
0.000000001
 43
0.00000001
 40
0.0
 40
0.0
 40
0.0
 40
0.0
 40
0.5570743320099455
 40
0.9999999999999999
 40
0.9999999999999999
 40
0.9999999999999999
 40
0.9999999999999999
 10
402.1349880310873
 20
9.291102028114047
 30
0.0
 10
402.0097815745634
 20
9.507772767208857
 30
0.0
 10
401.7850243934667
 20
9.896716803300151
 30
0.0
 10
401.5602948298977
 20
10.28567822830362
 30
0.0
 10
401.4607563378365
 20
10.45795922729564
 30
0.0
  0
SPLINE
  5
16A
330
1B
100
AcDbEntity
 67
     1
  8
0
  6
Continuous
 62
     7
370
    25
100
AcDbSpline
210
0.0
220
0.0
230
1.0
 70
     8
 71
     3
 72
     9
 73
     5
 74
     0
 42
0.000000001
 43
0.00000001
 40
0.0
 40
0.0
 40
0.0
 40
0.0
 40
0.5570743320100253
 40
1.0
 40
1.0
 40
1.0
 40
1.0
 10
400.6349880310873
 20
9.291102028114047
 30
0.0
 10
400.5097815745634
 20
9.507772767208841
 30
0.0
 10
400.2850243934666
 20
9.896716803300047
 30
0.0
 10
400.0602948298975
 20
10.28567822830359
 30
0.0
 10
399.9607563378366
 20
10.45795922729562
 30
0.0
  0
SPLINE
  5
16B
330
1B
100
AcDbEntity
 67
     1
  8
0
  6
Continuous
 62
     7
370
    25
100
AcDbSpline
210
0.0
220
0.0
230
1.0
 70
     8
 71
     3
 72
     9
 73
     5
 74
     0
 42
0.000000001
 43
0.00000001
 40
0.0
 40
0.0
 40
0.0
 40
0.0
 40
0.5570743320099895
 40
1.0
 40
1.0
 40
1.0
 40
1.0
 10
399.1349880310874
 20
9.291102028114047
 30
0.0
 10
399.0097815745634
 20
9.507772767208847
 30
0.0
 10
398.7850243934668
 20
9.896716803300093
 30
0.0
 10
398.5602948298975
 20
10.2856782283036
 30
0.0
 10
398.4607563378366
 20
10.45795922729563
 30
0.0
  0
SPLINE
  5
16C
330
1B
100
AcDbEntity
 67
     1
  8
0
  6
Continuous
 62
     7
370
    25
100
AcDbSpline
210
0.0
220
0.0
230
1.0
 70
     8
 71
     3
 72
     9
 73
     5
 74
     0
 42
0.000000001
 43
0.00000001
 40
0.0
 40
0.0
 40
0.0
 40
0.0
 40
0.5570743320100128
 40
1.0
 40
1.0
 40
1.0
 40
1.0
 10
397.6349880310874
 20
9.291102028114047
 30
0.0
 10
397.5097815745634
 20
9.507772767208841
 30
0.0
 10
397.2850243934668
 20
9.896716803300064
 30
0.0
 10
397.0602948298976
 20
10.28567822830359
 30
0.0
 10
396.9607563378366
 20
10.45795922729562
 30
0.0
  0
SPLINE
  5
16D
330
1B
100
AcDbEntity
 67
     1
  8
0
  6
Continuous
 62
     7
370
    25
100
AcDbSpline
210
0.0
220
0.0
230
1.0
 70
     8
 71
     3
 72
     9
 73
     5
 74
     0
 42
0.000000001
 43
0.00000001
 40
0.0
 40
0.0
 40
0.0
 40
0.0
 40
0.5570743320100127
 40
1.0
 40
1.0
 40
1.0
 40
1.0
 10
396.1349880310874
 20
9.291102028114047
 30
0.0
 10
396.0097815745635
 20
9.507772767208841
 30
0.0
 10
395.7850243934667
 20
9.896716803300063
 30
0.0
 10
395.5602948298976
 20
10.28567822830359
 30
0.0
 10
395.4607563378366
 20
10.45795922729562
 30
0.0
  0
SPLINE
  5
16E
330
1B
100
AcDbEntity
 67
     1
  8
0
  6
Continuous
 62
     7
370
    25
100
AcDbSpline
210
0.0
220
0.0
230
1.0
 70
     8
 71
     3
 72
     9
 73
     5
 74
     0
 42
0.000000001
 43
0.00000001
 40
0.0
 40
0.0
 40
0.0
 40
0.0
 40
0.4495857543797213
 40
1.0
 40
1.0
 40
1.0
 40
1.0
 10
408.2107563378365
 20
-10.45795922729559
 30
0.0
 10
408.3102948027409
 20
-10.28567821120492
 30
0.0
 10
408.5316952006289
 20
-9.902478756123541
 30
0.0
 10
408.7531228069232
 20
-9.519296432358052
 30
0.0
 10
408.8749997158011
 20
-9.308387422687648
 30
0.0
  0
SPLINE
  5
16F
330
1B
100
AcDbEntity
 67
     1
  8
0
  6
Continuous
 62
     7
370
    25
100
AcDbSpline
210
0.0
220
0.0
230
1.0
 70
     8
 71
     3
 72
     9
 73
     5
 74
     0
 42
0.000000001
 43
0.00000001
 40
0.0
 40
0.0
 40
0.0
 40
0.0
 40
0.4495857543797588
 40
1.0
 40
1.0
 40
1.0
 40
1.0
 10
406.7107563378365
 20
-10.45795922729559
 30
0.0
 10
406.8102948027411
 20
-10.28567821120493
 30
0.0
 10
407.0316952006291
 20
-9.902478756123585
 30
0.0
 10
407.2531228069232
 20
-9.519296432358063
 30
0.0
 10
407.3749997158011
 20
-9.308387422687652
 30
0.0
  0
SPLINE
  5
170
330
1B
100
AcDbEntity
 67
     1
  8
0
  6
Continuous
 62
     7
370
    25
100
AcDbSpline
210
0.0
220
0.0
230
1.0
 70
     8
 71
     3
 72
     9
 73
     5
 74
     0
 42
0.000000001
 43
0.00000001
 40
0.0
 40
0.0
 40
0.0
 40
0.0
 40
0.4495857543796929
 40
1.0
 40
1.0
 40
1.0
 40
1.0
 10
405.2107563378365
 20
-10.45795922729558
 30
0.0
 10
405.3102948027409
 20
-10.28567821120491
 30
0.0
 10
405.5316952006289
 20
-9.902478756123493
 30
0.0
 10
405.7531228069232
 20
-9.519296432358043
 30
0.0
 10
405.8749997158012
 20
-9.30838742268765
 30
0.0
  0
SPLINE
  5
171
330
1B
100
AcDbEntity
 67
     1
  8
0
  6
Continuous
 62
     7
370
    25
100
AcDbSpline
210
0.0
220
0.0
230
1.0
 70
     8
 71
     3
 72
     9
 73
     5
 74
     0
 42
0.000000001
 43
0.00000001
 40
0.0
 40
0.0
 40
0.0
 40
0.0
 40
0.4495857543797273
 40
1.0
 40
1.0
 40
1.0
 40
1.0
 10
403.7107563378365
 20
-10.45795922729558
 30
0.0
 10
403.810294802741
 20
-10.28567821120492
 30
0.0
 10
404.0316952006289
 20
-9.902478756123534
 30
0.0
 10
404.2531228069232
 20
-9.519296432358052
 30
0.0
 10
404.3749997158012
 20
-9.308387422687648
 30
0.0
  0
SPLINE
  5
172
330
1B
100
AcDbEntity
 67
     1
  8
0
  6
Continuous
 62
     7
370
    25
100
AcDbSpline
210
0.0
220
0.0
230
1.0
 70
     8
 71
     3
 72
     9
 73
     5
 74
     0
 42
0.000000001
 43
0.00000001
 40
0.0
 40
0.0
 40
0.0
 40
0.0
 40
0.4495857543797505
 40
0.9999999999999999
 40
0.9999999999999999
 40
0.9999999999999999
 40
0.9999999999999999
 10
402.2107563378365
 20
-10.45795922729559
 30
0.0
 10
402.3102948027409
 20
-10.28567821120492
 30
0.0
 10
402.5316952006289
 20
-9.902478756123562
 30
0.0
 10
402.7531228069232
 20
-9.519296432358058
 30
0.0
 10
402.8749997158011
 20
-9.308387422687654
 30
0.0
  0
SPLINE
  5
173
330
1B
100
AcDbEntity
 67
     1
  8
0
  6
Continuous
 62
     7
370
    25
100
AcDbSpline
210
0.0
220
0.0
230
1.0
 70
     8
 71
     3
 72
     9
 73
     5
 74
     0
 42
0.000000001
 43
0.00000001
 40
0.0
 40
0.0
 40
0.0
 40
0.0
 40
0.4495857543797376
 40
1.0
 40
1.0
 40
1.0
 40
1.0
 10
400.7107563378365
 20
-10.45795922729558
 30
0.0
 10
400.810294802741
 20
-10.28567821120492
 30
0.0
 10
401.031695200629
 20
-9.902478756123552
 30
0.0
 10
401.2531228069232
 20
-9.519296432358054
 30
0.0
 10
401.3749997158011
 20
-9.30838742268765
 30
0.0
  0
SPLINE
  5
174
330
1B
100
AcDbEntity
 67
     1
  8
0
  6
Continuous
 62
     7
370
    25
100
AcDbSpline
210
0.0
220
0.0
230
1.0
 70
     8
 71
     3
 72
     9
 73
     5
 74
     0
 42
0.000000001
 43
0.00000001
 40
0.0
 40
0.0
 40
0.0
 40
0.0
 40
0.4495857543797374
 40
1.0
 40
1.0
 40
1.0
 40
1.0
 10
399.2107563378365
 20
-10.45795922729557
 30
0.0
 10
399.310294802741
 20
-10.28567821120491
 30
0.0
 10
399.5316952006291
 20
-9.902478756123543
 30
0.0
 10
399.7531228069232
 20
-9.519296432358082
 30
0.0
 10
399.8749997158011
 20
-9.308387422687694
 30
0.0
  0
SPLINE
  5
175
330
1B
100
AcDbEntity
 67
     1
  8
0
  6
Continuous
 62
     7
370
    25
100
AcDbSpline
210
0.0
220
0.0
230
1.0
 70
     8
 71
     3
 72
     9
 73
     5
 74
     0
 42
0.000000001
 43
0.00000001
 40
0.0
 40
0.0
 40
0.0
 40
0.0
 40
0.4495857543797152
 40
1.0
 40
1.0
 40
1.0
 40
1.0
 10
397.7107563378365
 20
-10.45795922729557
 30
0.0
 10
397.810294802741
 20
-10.28567821120491
 30
0.0
 10
398.031695200629
 20
-9.902478756123521
 30
0.0
 10
398.2531228069233
 20
-9.519296432358052
 30
0.0
 10
398.3749997158012
 20
-9.308387422687652
 30
0.0
  0
SPLINE
  5
176
330
1B
100
AcDbEntity
 67
     1
  8
0
  6
Continuous
 62
     7
370
    25
100
AcDbSpline
210
0.0
220
0.0
230
1.0
 70
     8
 71
     3
 72
     9
 73
     5
 74
     0
 42
0.000000001
 43
0.00000001
 40
0.0
 40
0.0
 40
0.0
 40
0.0
 40
0.4495857543797032
 40
1.0
 40
1.0
 40
1.0
 40
1.0
 10
396.2107563378366
 20
-10.45795922729557
 30
0.0
 10
396.310294802741
 20
-10.28567821120491
 30
0.0
 10
396.531695200629
 20
-9.902478756123505
 30
0.0
 10
396.7531228069232
 20
-9.519296432358045
 30
0.0
 10
396.8749997158012
 20
-9.30838742268765
 30
0.0
  0
SPLINE
  5
177
330
1B
100
AcDbEntity
 67
     1
  8
0
  6
Continuous
 62
     7
370
    25
100
AcDbSpline
210
0.0
220
0.0
230
1.0
 70
     8
 71
     3
 72
     9
 73
     5
 74
     0
 42
0.000000001
 43
0.00000001
 40
0.0
 40
0.0
 40
0.0
 40
0.0
 40
0.4495857543797147
 40
1.0
 40
1.0
 40
1.0
 40
1.0
 10
394.7107563378365
 20
-10.45795922729557
 30
0.0
 10
394.8102948027409
 20
-10.28567821120491
 30
0.0
 10
395.031695200629
 20
-9.90247875612352
 30
0.0
 10
395.2531228069233
 20
-9.51929643235805
 30
0.0
 10
395.3749997158012
 20
-9.30838742268765
 30
0.0
  0
SPLINE
  5
178
330
1B
100
AcDbEntity
 67
     1
  8
0
  6
Continuous
 62
     7
370
    25
100
AcDbSpline
210
0.0
220
0.0
230
1.0
 70
     8
 71
     3
 72
     9
 73
     5
 74
     0
 42
0.000000001
 43
0.00000001
 40
0.0
 40
0.0
 40
0.0
 40
0.0
 40
0.922013955587488
 40
1.0
 40
1.0
 40
1.0
 40
1.0
 10
409.7107563378366
 20
-10.45795922729559
 30
0.0
 10
409.8102928764135
 20
-10.28567699832499
 30
0.0
 10
409.9182484425669
 20
-10.09882274527757
 30
0.0
 10
410.0262172758852
 20
-9.911976845677957
 30
0.0
 10
410.0346373381155
 20
-9.897405473053487
 30
0.0
  0
SPLINE
  5
179
330
1B
100
AcDbEntity
 67
     1
  8
0
  6
Continuous
 62
     7
370
    25
100
AcDbSpline
210
0.0
220
0.0
230
1.0
 70
     8
 71
     3
 72
     9
 73
     5
 74
     0
 42
0.000000001
 43
0.00000001
 40
0.0
 40
0.0
 40
0.0
 40
0.0
 40
0.5570743320100272
 40
0.9999999999999999
 40
0.9999999999999999
 40
0.9999999999999999
 40
0.9999999999999999
 10
409.6349880310873
 20
9.291102028114047
 30
0.0
 10
409.5097815745632
 20
9.50777276720884
 30
0.0
 10
409.2850243934665
 20
9.89671680330005
 30
0.0
 10
409.0602948298975
 20
10.28567822830359
 30
0.0
 10
408.9607563378366
 20
10.45795922729562
 30
0.0
  0
SPLINE
  5
18E
330
1B
100
AcDbEntity
 67
     1
  8
0
  6
Continuous
 62
     7
370
    25
100
AcDbSpline
210
0.0
220
0.0
230
1.0
 70
     8
 71
     3
 72
     9
 73
     5
 74
     0
 42
0.000000001
 43
0.00000001
 40
0.0
 40
0.0
 40
0.0
 40
0.0
 40
0.5072968230476397
 40
1.0
 40
1.0
 40
1.0
 40
1.0
 10
408.8090055288324
 20
10.49215981034293
 30
0.0
 10
408.6933475370745
 20
10.29198116173864
 30
0.0
 10
408.4653587413572
 20
9.897382497781514
 30
0.0
 10
408.237343533236
 20
9.502799646891889
 30
0.0
 10
408.1249997158012
 20
9.30838742268765
 30
0.0
  0
SPLINE
  5
18F
330
1B
100
AcDbEntity
 67
     1
  8
0
  6
Continuous
 62
     7
370
    25
100
AcDbSpline
210
0.0
220
0.0
230
1.0
 70
     8
 71
     3
 72
     9
 73
     5
 74
     0
 42
0.000000001
 43
0.00000001
 40
0.0
 40
0.0
 40
0.0
 40
0.0
 40
0.5072968230476305
 40
1.0
 40
1.0
 40
1.0
 40
1.0
 10
407.3090055288324
 20
10.49215981034293
 30
0.0
 10
407.1933475370745
 20
10.29198116173863
 30
0.0
 10
406.9653587413571
 20
9.897382497781496
 30
0.0
 10
406.7373435332359
 20
9.502799646891885
 30
0.0
 10
406.6249997158012
 20
9.308387422687652
 30
0.0
  0
SPLINE
  5
190
330
1B
100
AcDbEntity
 67
     1
  8
0
  6
Continuous
 62
     7
370
    25
100
AcDbSpline
210
0.0
220
0.0
230
1.0
 70
     8
 71
     3
 72
     9
 73
     5
 74
     0
 42
0.000000001
 43
0.00000001
 40
0.0
 40
0.0
 40
0.0
 40
0.0
 40
0.5072968230476391
 40
1.0
 40
1.0
 40
1.0
 40
1.0
 10
405.8090055288324
 20
10.49215981034293
 30
0.0
 10
405.6933475370745
 20
10.29198116173864
 30
0.0
 10
405.4653587413571
 20
9.897382497781512
 30
0.0
 10
405.237343533236
 20
9.502799646891892
 30
0.0
 10
405.1249997158012
 20
9.308387422687652
 30
0.0
  0
SPLINE
  5
191
330
1B
100
AcDbEntity
 67
     1
  8
0
  6
Continuous
 62
     7
370
    25
100
AcDbSpline
210
0.0
220
0.0
230
1.0
 70
     8
 71
     3
 72
     9
 73
     5
 74
     0
 42
0.000000001
 43
0.00000001
 40
0.0
 40
0.0
 40
0.0
 40
0.0
 40
0.5072968230476594
 40
1.0
 40
1.0
 40
1.0
 40
1.0
 10
404.3090055288324
 20
10.49215981034293
 30
0.0
 10
404.1933475370744
 20
10.29198116173864
 30
0.0
 10
403.965358741357
 20
9.89738249778154
 30
0.0
 10
403.7373435332358
 20
9.502799646891894
 30
0.0
 10
403.6249997158012
 20
9.308387422687652
 30
0.0
  0
SPLINE
  5
192
330
1B
100
AcDbEntity
 67
     1
  8
0
  6
Continuous
 62
     7
370
    25
100
AcDbSpline
210
0.0
220
0.0
230
1.0
 70
     8
 71
     3
 72
     9
 73
     5
 74
     0
 42
0.000000001
 43
0.00000001
 40
0.0
 40
0.0
 40
0.0
 40
0.0
 40
0.5072968230476075
 40
1.0
 40
1.0
 40
1.0
 40
1.0
 10
402.8090055288324
 20
10.49215981034293
 30
0.0
 10
402.6933475370745
 20
10.29198116173863
 30
0.0
 10
402.4653587413572
 20
9.897382497781468
 30
0.0
 10
402.2373435332359
 20
9.502799646891885
 30
0.0
 10
402.1249997158011
 20
9.308387422687652
 30
0.0
  0
SPLINE
  5
193
330
1B
100
AcDbEntity
 67
     1
  8
0
  6
Continuous
 62
     7
370
    25
100
AcDbSpline
210
0.0
220
0.0
230
1.0
 70
     8
 71
     3
 72
     9
 73
     5
 74
     0
 42
0.000000001
 43
0.00000001
 40
0.0
 40
0.0
 40
0.0
 40
0.0
 40
0.5072968230476353
 40
1.0
 40
1.0
 40
1.0
 40
1.0
 10
401.3090055288324
 20
10.49215981034293
 30
0.0
 10
401.1933475370745
 20
10.29198116173864
 30
0.0
 10
400.9653587413571
 20
9.897382497781518
 30
0.0
 10
400.737343533236
 20
9.50279964689189
 30
0.0
 10
400.6249997158012
 20
9.30838742268765
 30
0.0
  0
SPLINE
  5
194
330
1B
100
AcDbEntity
 67
     1
  8
0
  6
Continuous
 62
     7
370
    25
100
AcDbSpline
210
0.0
220
0.0
230
1.0
 70
     8
 71
     3
 72
     9
 73
     5
 74
     0
 42
0.000000001
 43
0.00000001
 40
0.0
 40
0.0
 40
0.0
 40
0.0
 40
0.5072968230476359
 40
1.0
 40
1.0
 40
1.0
 40
1.0
 10
399.8090055288324
 20
10.49215981034293
 30
0.0
 10
399.6933475370745
 20
10.29198116173864
 30
0.0
 10
399.4653587413571
 20
9.897382497781516
 30
0.0
 10
399.237343533236
 20
9.50279964689189
 30
0.0
 10
399.1249997158012
 20
9.308387422687652
 30
0.0
  0
SPLINE
  5
195
330
1B
100
AcDbEntity
 67
     1
  8
0
  6
Continuous
 62
     7
370
    25
100
AcDbSpline
210
0.0
220
0.0
230
1.0
 70
     8
 71
     3
 72
     9
 73
     5
 74
     0
 42
0.000000001
 43
0.00000001
 40
0.0
 40
0.0
 40
0.0
 40
0.0
 40
0.5072968230476459
 40
1.0
 40
1.0
 40
1.0
 40
1.0
 10
398.3090055288324
 20
10.49215981034293
 30
0.0
 10
398.1933475370746
 20
10.29198116173864
 30
0.0
 10
397.9653587413571
 20
9.897382497781528
 30
0.0
 10
397.7373435332359
 20
9.502799646891894
 30
0.0
 10
397.6249997158012
 20
9.308387422687654
 30
0.0
  0
SPLINE
  5
196
330
1B
100
AcDbEntity
 67
     1
  8
0
  6
Continuous
 62
     7
370
    25
100
AcDbSpline
210
0.0
220
0.0
230
1.0
 70
     8
 71
     3
 72
     9
 73
     5
 74
     0
 42
0.000000001
 43
0.00000001
 40
0.0
 40
0.0
 40
0.0
 40
0.0
 40
0.507296823047625
 40
1.0
 40
1.0
 40
1.0
 40
1.0
 10
396.8090055288324
 20
10.49215981034293
 30
0.0
 10
396.6933475370745
 20
10.29198116173864
 30
0.0
 10
396.4653587413572
 20
9.8973824977815
 30
0.0
 10
396.2373435332359
 20
9.502799646891887
 30
0.0
 10
396.1249997158012
 20
9.30838742268765
 30
0.0
  0
SPLINE
  5
198
330
1B
100
AcDbEntity
 67
     1
  8
0
  6
Continuous
 62
     7
370
    25
100
AcDbSpline
210
0.0
220
0.0
230
1.0
 70
     8
 71
     3
 72
     9
 73
     5
 74
     0
 42
0.000000001
 43
0.00000001
 40
0.0
 40
0.0
 40
0.0
 40
0.0
 40
0.4999812489224268
 40
1.0
 40
1.0
 40
1.0
 40
1.0
 10
407.3650432120476
 20
-9.291157141129707
 30
0.0
 10
407.4807059597102
 20
-9.491312735258406
 30
0.0
 10
407.7120401305655
 20
-9.891638936611123
 30
0.0
 10
407.9433475045684
 20
-10.29198118120001
 30
0.0
 10
408.0590055288324
 20
-10.49215981034294
 30
0.0
  0
SPLINE
  5
199
330
1B
100
AcDbEntity
 67
     1
  8
0
  6
Continuous
 62
     7
370
    25
100
AcDbSpline
210
0.0
220
0.0
230
1.0
 70
     8
 71
     3
 72
     9
 73
     5
 74
     0
 42
0.000000001
 43
0.00000001
 40
0.0
 40
0.0
 40
0.0
 40
0.0
 40
0.4999812489224101
 40
1.0
 40
1.0
 40
1.0
 40
1.0
 10
405.8650432120476
 20
-9.291157141129707
 30
0.0
 10
405.9807059597102
 20
-9.491312735258413
 30
0.0
 10
406.2120401305654
 20
-9.891638936611153
 30
0.0
 10
406.4433475045684
 20
-10.29198118120001
 30
0.0
 10
406.5590055288324
 20
-10.49215981034294
 30
0.0
  0
SPLINE
  5
19A
330
1B
100
AcDbEntity
 67
     1
  8
0
  6
Continuous
 62
     7
370
    25
100
AcDbSpline
210
0.0
220
0.0
230
1.0
 70
     8
 71
     3
 72
     9
 73
     5
 74
     0
 42
0.000000001
 43
0.00000001
 40
0.0
 40
0.0
 40
0.0
 40
0.0
 40
0.4999812489224301
 40
1.0
 40
1.0
 40
1.0
 40
1.0
 10
404.3650432120476
 20
-9.291157141129707
 30
0.0
 10
404.4807059597103
 20
-9.49131273525841
 30
0.0
 10
404.7120401305655
 20
-9.891638936611123
 30
0.0
 10
404.9433475045683
 20
-10.29198118120001
 30
0.0
 10
405.0590055288324
 20
-10.49215981034294
 30
0.0
  0
SPLINE
  5
19B
330
1B
100
AcDbEntity
 67
     1
  8
0
  6
Continuous
 62
     7
370
    25
100
AcDbSpline
210
0.0
220
0.0
230
1.0
 70
     8
 71
     3
 72
     9
 73
     5
 74
     0
 42
0.000000001
 43
0.00000001
 40
0.0
 40
0.0
 40
0.0
 40
0.0
 40
0.4999812489224101
 40
1.0
 40
1.0
 40
1.0
 40
1.0
 10
402.8650432120476
 20
-9.291157141129707
 30
0.0
 10
402.9807059597102
 20
-9.491312735258413
 30
0.0
 10
403.2120401305654
 20
-9.891638936611153
 30
0.0
 10
403.4433475045684
 20
-10.29198118120001
 30
0.0
 10
403.5590055288324
 20
-10.49215981034294
 30
0.0
  0
SPLINE
  5
19C
330
1B
100
AcDbEntity
 67
     1
  8
0
  6
Continuous
 62
     7
370
    25
100
AcDbSpline
210
0.0
220
0.0
230
1.0
 70
     8
 71
     3
 72
     9
 73
     5
 74
     0
 42
0.000000001
 43
0.00000001
 40
0.0
 40
0.0
 40
0.0
 40
0.0
 40
0.4999812489224101
 40
1.0
 40
1.0
 40
1.0
 40
1.0
 10
401.3650432120476
 20
-9.291157141129707
 30
0.0
 10
401.4807059597101
 20
-9.491312735258413
 30
0.0
 10
401.7120401305653
 20
-9.891638936611153
 30
0.0
 10
401.9433475045684
 20
-10.29198118120001
 30
0.0
 10
402.0590055288324
 20
-10.49215981034294
 30
0.0
  0
SPLINE
  5
19D
330
1B
100
AcDbEntity
 67
     1
  8
0
  6
Continuous
 62
     7
370
    25
100
AcDbSpline
210
0.0
220
0.0
230
1.0
 70
     8
 71
     3
 72
     9
 73
     5
 74
     0
 42
0.000000001
 43
0.00000001
 40
0.0
 40
0.0
 40
0.0
 40
0.0
 40
0.4999812489224333
 40
1.0
 40
1.0
 40
1.0
 40
1.0
 10
399.8650432120476
 20
-9.291157141129707
 30
0.0
 10
399.9807059597102
 20
-9.491312735258411
 30
0.0
 10
400.2120401305654
 20
-9.89163893661113
 30
0.0
 10
400.4433475045683
 20
-10.29198118120001
 30
0.0
 10
400.5590055288324
 20
-10.49215981034294
 30
0.0
  0
SPLINE
  5
19E
330
1B
100
AcDbEntity
 67
     1
  8
0
  6
Continuous
 62
     7
370
    25
100
AcDbSpline
210
0.0
220
0.0
230
1.0
 70
     8
 71
     3
 72
     9
 73
     5
 74
     0
 42
0.000000001
 43
0.00000001
 40
0.0
 40
0.0
 40
0.0
 40
0.0
 40
0.4999812489223933
 40
1.0
 40
1.0
 40
1.0
 40
1.0
 10
398.3650432120477
 20
-9.291157141129707
 30
0.0
 10
398.4807059597102
 20
-9.491312735258418
 30
0.0
 10
398.7120401305653
 20
-9.891638936611185
 30
0.0
 10
398.9433475045684
 20
-10.29198118120002
 30
0.0
 10
399.0590055288324
 20
-10.49215981034294
 30
0.0
  0
SPLINE
  5
19F
330
1B
100
AcDbEntity
 67
     1
  8
0
  6
Continuous
 62
     7
370
    25
100
AcDbSpline
210
0.0
220
0.0
230
1.0
 70
     8
 71
     3
 72
     9
 73
     5
 74
     0
 42
0.000000001
 43
0.00000001
 40
0.0
 40
0.0
 40
0.0
 40
0.0
 40
0.4999812489224132
 40
1.0
 40
1.0
 40
1.0
 40
1.0
 10
396.8650432120477
 20
-9.291157141129709
 30
0.0
 10
396.9807059597103
 20
-9.491312735258418
 30
0.0
 10
397.2120401305654
 20
-9.891638936611159
 30
0.0
 10
397.4433475045685
 20
-10.29198118120002
 30
0.0
 10
397.5590055288324
 20
-10.49215981034294
 30
0.0
  0
SPLINE
  5
1A0
330
1B
100
AcDbEntity
 67
     1
  8
0
  6
Continuous
 62
     7
370
    25
100
AcDbSpline
210
0.0
220
0.0
230
1.0
 70
     8
 71
     3
 72
     9
 73
     5
 74
     0
 42
0.000000001
 43
0.00000001
 40
0.0
 40
0.0
 40
0.0
 40
0.0
 40
0.4999812489224132
 40
1.0
 40
1.0
 40
1.0
 40
1.0
 10
395.3650432120477
 20
-9.291157141129709
 30
0.0
 10
395.4807059597104
 20
-9.491312735258418
 30
0.0
 10
395.7120401305655
 20
-9.891638936611159
 30
0.0
 10
395.9433475045685
 20
-10.29198118120002
 30
0.0
 10
396.0590055288324
 20
-10.49215981034294
 30
0.0
  0
SPLINE
  5
1A1
330
1B
100
AcDbEntity
 67
     1
  8
0
  6
Continuous
 62
     7
370
    25
100
AcDbSpline
210
0.0
220
0.0
230
1.0
 70
     8
 71
     3
 72
     9
 73
     5
 74
     0
 42
0.000000001
 43
0.00000001
 40
0.0
 40
0.0
 40
0.0
 40
0.0
 40
0.4999812489224479
 40
1.0
 40
1.0
 40
1.0
 40
1.0
 10
408.8650432120476
 20
-9.291157141129707
 30
0.0
 10
408.9807059597103
 20
-9.491312735258406
 30
0.0
 10
409.2120401305656
 20
-9.891638936611095
 30
0.0
 10
409.4433475045684
 20
-10.29198118120001
 30
0.0
 10
409.5590055288324
 20
-10.49215981034294
 30
0.0
  0
SPLINE
  5
1A2
330
1B
100
AcDbEntity
 67
     1
  8
0
  6
Continuous
 62
     7
370
    25
100
AcDbSpline
210
0.0
220
0.0
230
1.0
 70
     8
 71
     3
 72
     9
 73
     5
 74
     0
 42
0.000000001
 43
0.00000001
 40
0.0
 40
0.0
 40
0.0
 40
0.0
 40
0.0095804737710697
 40
0.9999999999999999
 40
0.9999999999999999
 40
0.9999999999999999
 40
0.9999999999999999
 10
409.9652845973569
 20
9.897269856016553
 30
0.0
 10
409.9641979840816
 20
9.8953892151117
 30
0.0
 10
409.8507784078387
 20
9.699089851448521
 30
0.0
 10
409.7373456922417
 20
9.502798354298122
 30
0.0
 10
409.6249997158012
 20
9.30838742268765
 30
0.0
  0
SPLINE
  5
1A6
330
1B
100
AcDbEntity
 67
     1
  8
0
  6
Continuous
 62
     7
370
    25
100
AcDbSpline
210
0.0
220
0.0
230
1.0
 70
     8
 71
     3
 72
    13
 73
     9
 74
     0
 42
0.000000001
 43
0.00000001
 40
0.0
 40
0.0
 40
0.0
 40
0.0
 40
0.1703571197855352
 40
0.343675233988799
 40
0.5140323537743214
 40
0.6843894735598488
 40
0.8577075877631165
 40
1.0
 40
1.0
 40
1.0
 40
1.0
 10
410.0
 20
-0.00000000000019
 30
0.0
 10
409.9797718662019
 20
0.8069101259785384
 30
0.0
 10
409.9389640113558
 20
2.434755364867211
 30
0.0
 10
409.873537015393
 20
4.703189607271909
 30
0.0
 10
409.8124949884442
 20
6.653684762147493
 30
0.0
 10
409.7514832050422
 20
8.135932475995524
 30
0.0
 10
409.6895415664218
 20
9.074500793708212
 30
0.0
 10
409.6520286421176
 20
9.194357297046245
 30
0.0
 10
409.6351160107505
 20
9.248394376146905
 30
0.0
  0
SPLINE
  5
1A7
330
1B
100
AcDbEntity
 67
     1
  8
0
  6
Continuous
 62
     7
370
    25
100
AcDbSpline
210
0.0
220
0.0
230
1.0
 70
     8
 71
     3
 72
    19
 73
    15
 74
     0
 42
0.000000001
 43
0.00000001
 40
0.0
 40
0.0
 40
0.0
 40
0.0
 40
0.0711880942119886
 40
0.1578432432898681
 40
0.2430179619241809
 40
0.3281926805584957
 40
0.4148478296363772
 40
0.5000225482706876
 40
0.5851972669050048
 40
0.6718524159828827
 40
0.7570271346171935
 40
0.8422018532515068
 40
0.9288570023293866
 40
1.0
 40
1.0
 40
1.0
 40
1.0
 10
408.8649165010916
 20
-9.248560231437036
 30
0.0
 10
408.8479932088874
 20
-9.194499692637288
 30
0.0
 10
408.8104696965896
 20
-9.074632868379574
 30
0.0
 10
408.748516861365
 20
-8.135944454001622
 30
0.0
 10
408.687504993901
 20
-6.653681577752237
 30
0.0
 10
408.6264629894321
 20
-4.703190477544911
 30
0.0
 10
408.5610359873667
 20
-2.434755134451771
 30
0.0
 10
408.5000000003394
 20
-0.0000000612569676
 30
0.0
 10
408.4389640112632
 20
2.434755381608279
 30
0.0
 10
408.3735370154174
 20
4.70318960283947
 30
0.0
 10
408.3124949884378
 20
6.653684763325975
 30
0.0
 10
408.2514832050441
 20
8.135932475673073
 30
0.0
 10
408.1895415664213
 20
9.074500793772696
 30
0.0
 10
408.1520286421175
 20
9.194357297066283
 30
0.0
 10
408.1351160107505
 20
9.248394376146903
 30
0.0
  0
SPLINE
  5
1A8
330
1B
100
AcDbEntity
 67
     1
  8
0
  6
Continuous
 62
     7
370
    25
100
AcDbSpline
210
0.0
220
0.0
230
1.0
 70
     8
 71
     3
 72
    19
 73
    15
 74
     0
 42
0.000000001
 43
0.00000001
 40
0.0
 40
0.0
 40
0.0
 40
0.0
 40
0.0711880942119882
 40
0.1578432432898677
 40
0.2430179619241806
 40
0.3281926805584955
 40
0.414847829636377
 40
0.5000225482706875
 40
0.5851972669050047
 40
0.6718524159828826
 40
0.7570271346171935
 40
0.8422018532515068
 40
0.9288570023293866
 40
1.0
 40
1.0
 40
1.0
 40
1.0
 10
407.3649165010916
 20
-9.248560231437038
 30
0.0
 10
407.3479932088875
 20
-9.194499692637288
 30
0.0
 10
407.3104696965895
 20
-9.07463286837957
 30
0.0
 10
407.248516861365
 20
-8.135944454001624
 30
0.0
 10
407.187504993901
 20
-6.653681577752234
 30
0.0
 10
407.1264629894319
 20
-4.703190477544912
 30
0.0
 10
407.0610359873666
 20
-2.434755134451768
 30
0.0
 10
407.0000000003396
 20
-0.0000000612569702
 30
0.0
 10
406.9389640112631
 20
2.43475538160828
 30
0.0
 10
406.8735370154174
 20
4.703189602839472
 30
0.0
 10
406.812494988438
 20
6.653684763325977
 30
0.0
 10
406.751483205044
 20
8.135932475673073
 30
0.0
 10
406.6895415664214
 20
9.074500793772696
 30
0.0
 10
406.6520286421175
 20
9.194357297066283
 30
0.0
 10
406.6351160107506
 20
9.248394376146903
 30
0.0
  0
SPLINE
  5
1A9
330
1B
100
AcDbEntity
 67
     1
  8
0
  6
Continuous
 62
     7
370
    25
100
AcDbSpline
210
0.0
220
0.0
230
1.0
 70
     8
 71
     3
 72
    19
 73
    15
 74
     0
 42
0.000000001
 43
0.00000001
 40
0.0
 40
0.0
 40
0.0
 40
0.0
 40
0.0711880942119882
 40
0.1578432432898678
 40
0.2430179619241808
 40
0.3281926805584958
 40
0.4148478296363773
 40
0.5000225482706879
 40
0.5851972669050053
 40
0.6718524159828833
 40
0.7570271346171942
 40
0.8422018532515076
 40
0.9288570023293876
 40
1.0
 40
1.0
 40
1.0
 40
1.0
 10
405.8649165010916
 20
-9.248560231437038
 30
0.0
 10
405.8479932088875
 20
-9.194499692637288
 30
0.0
 10
405.8104696965895
 20
-9.074632868379569
 30
0.0
 10
405.748516861365
 20
-8.13594445400162
 30
0.0
 10
405.687504993901
 20
-6.653681577752237
 30
0.0
 10
405.626462989432
 20
-4.703190477544911
 30
0.0
 10
405.5610359873667
 20
-2.434755134451769
 30
0.0
 10
405.5000000003396
 20
-0.0000000612569691
 30
0.0
 10
405.4389640112631
 20
2.43475538160828
 30
0.0
 10
405.3735370154175
 20
4.703189602839471
 30
0.0
 10
405.3124949884377
 20
6.653684763325975
 30
0.0
 10
405.2514832050442
 20
8.135932475673073
 30
0.0
 10
405.1895415664212
 20
9.074500793772685
 30
0.0
 10
405.1520286421174
 20
9.19435729706628
 30
0.0
 10
405.1351160107506
 20
9.2483943761469
 30
0.0
  0
SPLINE
  5
1AA
330
1B
100
AcDbEntity
 67
     1
  8
0
  6
Continuous
 62
     7
370
    25
100
AcDbSpline
210
0.0
220
0.0
230
1.0
 70
     8
 71
     3
 72
    19
 73
    15
 74
     0
 42
0.000000001
 43
0.00000001
 40
0.0
 40
0.0
 40
0.0
 40
0.0
 40
0.0711880942119887
 40
0.1578432432898683
 40
0.2430179619241812
 40
0.3281926805584961
 40
0.4148478296363776
 40
0.5000225482706881
 40
0.5851972669050054
 40
0.6718524159828834
 40
0.7570271346171943
 40
0.8422018532515076
 40
0.9288570023293875
 40
1.0
 40
1.0
 40
1.0
 40
1.0
 10
404.3649165010916
 20
-9.248560231437038
 30
0.0
 10
404.3479932088875
 20
-9.19449969263729
 30
0.0
 10
404.3104696965896
 20
-9.074632868379574
 30
0.0
 10
404.248516861365
 20
-8.13594445400162
 30
0.0
 10
404.1875049939012
 20
-6.653681577752237
 30
0.0
 10
404.1264629894318
 20
-4.70319047754491
 30
0.0
 10
404.0610359873667
 20
-2.434755134451769
 30
0.0
 10
404.0000000003396
 20
-0.0000000612569701
 30
0.0
 10
403.9389640112631
 20
2.434755381608281
 30
0.0
 10
403.8735370154175
 20
4.703189602839471
 30
0.0
 10
403.8124949884377
 20
6.653684763325975
 30
0.0
 10
403.7514832050443
 20
8.135932475673076
 30
0.0
 10
403.689541566421
 20
9.074500793772687
 30
0.0
 10
403.6520286421176
 20
9.19435729706628
 30
0.0
 10
403.6351160107506
 20
9.2483943761469
 30
0.0
  0
SPLINE
  5
1AB
330
1B
100
AcDbEntity
 67
     1
  8
0
  6
Continuous
 62
     7
370
    25
100
AcDbSpline
210
0.0
220
0.0
230
1.0
 70
     8
 71
     3
 72
    19
 73
    15
 74
     0
 42
0.000000001
 43
0.00000001
 40
0.0
 40
0.0
 40
0.0
 40
0.0
 40
0.0711880942119887
 40
0.1578432432898682
 40
0.2430179619241812
 40
0.328192680558496
 40
0.4148478296363776
 40
0.500022548270688
 40
0.5851972669050054
 40
0.6718524159828834
 40
0.7570271346171943
 40
0.8422018532515076
 40
0.9288570023293875
 40
1.0
 40
1.0
 40
1.0
 40
1.0
 10
402.8649165010916
 20
-9.248560231437038
 30
0.0
 10
402.8479932088874
 20
-9.19449969263729
 30
0.0
 10
402.8104696965895
 20
-9.074632868379574
 30
0.0
 10
402.748516861365
 20
-8.135944454001624
 30
0.0
 10
402.687504993901
 20
-6.653681577752235
 30
0.0
 10
402.6264629894321
 20
-4.703190477544911
 30
0.0
 10
402.5610359873668
 20
-2.434755134451771
 30
0.0
 10
402.5000000003394
 20
-0.0000000612569671
 30
0.0
 10
402.4389640112632
 20
2.434755381608279
 30
0.0
 10
402.3735370154175
 20
4.703189602839471
 30
0.0
 10
402.3124949884378
 20
6.653684763325975
 30
0.0
 10
402.2514832050443
 20
8.135932475673076
 30
0.0
 10
402.1895415664212
 20
9.074500793772687
 30
0.0
 10
402.1520286421176
 20
9.19435729706628
 30
0.0
 10
402.1351160107506
 20
9.2483943761469
 30
0.0
  0
SPLINE
  5
1AC
330
1B
100
AcDbEntity
 67
     1
  8
0
  6
Continuous
 62
     7
370
    25
100
AcDbSpline
210
0.0
220
0.0
230
1.0
 70
     8
 71
     3
 72
    19
 73
    15
 74
     0
 42
0.000000001
 43
0.00000001
 40
0.0
 40
0.0
 40
0.0
 40
0.0
 40
0.0711880942119886
 40
0.157843243289868
 40
0.2430179619241808
 40
0.3281926805584956
 40
0.414847829636377
 40
0.5000225482706874
 40
0.5851972669050046
 40
0.6718524159828824
 40
0.7570271346171932
 40
0.8422018532515064
 40
0.9288570023293862
 40
1.0
 40
1.0
 40
1.0
 40
1.0
 10
401.3649165010916
 20
-9.248560231437038
 30
0.0
 10
401.3479932088875
 20
-9.194499692637288
 30
0.0
 10
401.3104696965896
 20
-9.074632868379574
 30
0.0
 10
401.248516861365
 20
-8.135944454001622
 30
0.0
 10
401.1875049939011
 20
-6.653681577752237
 30
0.0
 10
401.1264629894322
 20
-4.703190477544912
 30
0.0
 10
401.0610359873667
 20
-2.434755134451771
 30
0.0
 10
401.0000000003395
 20
-0.0000000612569665
 30
0.0
 10
400.9389640112632
 20
2.434755381608276
 30
0.0
 10
400.8735370154175
 20
4.703189602839474
 30
0.0
 10
400.8124949884378
 20
6.653684763325977
 30
0.0
 10
400.7514832050441
 20
8.135932475673073
 30
0.0
 10
400.6895415664213
 20
9.074500793772694
 30
0.0
 10
400.6520286421176
 20
9.194357297066286
 30
0.0
 10
400.6351160107506
 20
9.248394376146907
 30
0.0
  0
SPLINE
  5
1AD
330
1B
100
AcDbEntity
 67
     1
  8
0
  6
Continuous
 62
     7
370
    25
100
AcDbSpline
210
0.0
220
0.0
230
1.0
 70
     8
 71
     3
 72
    19
 73
    15
 74
     0
 42
0.000000001
 43
0.00000001
 40
0.0
 40
0.0
 40
0.0
 40
0.0
 40
0.0711880942119881
 40
0.1578432432898676
 40
0.2430179619241804
 40
0.3281926805584953
 40
0.4148478296363767
 40
0.500022548270687
 40
0.5851972669050042
 40
0.671852415982882
 40
0.7570271346171928
 40
0.8422018532515061
 40
0.928857002329386
 40
1.0
 40
1.0
 40
1.0
 40
1.0
 10
399.8649165010916
 20
-9.248560231437038
 30
0.0
 10
399.8479932088875
 20
-9.19449969263729
 30
0.0
 10
399.8104696965896
 20
-9.07463286837957
 30
0.0
 10
399.7485168613649
 20
-8.135944454001619
 30
0.0
 10
399.687504993901
 20
-6.653681577752235
 30
0.0
 10
399.6264629894321
 20
-4.703190477544914
 30
0.0
 10
399.5610359873667
 20
-2.434755134451769
 30
0.0
 10
399.5000000003396
 20
-0.0000000612569692
 30
0.0
 10
399.4389640112632
 20
2.434755381608281
 30
0.0
 10
399.3735370154175
 20
4.703189602839471
 30
0.0
 10
399.3124949884379
 20
6.653684763325977
 30
0.0
 10
399.2514832050442
 20
8.135932475673075
 30
0.0
 10
399.1895415664213
 20
9.074500793772692
 30
0.0
 10
399.1520286421175
 20
9.194357297066285
 30
0.0
 10
399.1351160107506
 20
9.248394376146907
 30
0.0
  0
SPLINE
  5
1AE
330
1B
100
AcDbEntity
 67
     1
  8
0
  6
Continuous
 62
     7
370
    25
100
AcDbSpline
210
0.0
220
0.0
230
1.0
 70
     8
 71
     3
 72
    19
 73
    15
 74
     0
 42
0.000000001
 43
0.00000001
 40
0.0
 40
0.0
 40
0.0
 40
0.0
 40
0.0711880942119881
 40
0.1578432432898676
 40
0.2430179619241804
 40
0.3281926805584953
 40
0.4148478296363767
 40
0.5000225482706872
 40
0.5851972669050043
 40
0.6718524159828823
 40
0.757027134617193
 40
0.8422018532515062
 40
0.9288570023293861
 40
1.0
 40
1.0
 40
1.0
 40
1.0
 10
398.3649165010916
 20
-9.248560231437038
 30
0.0
 10
398.3479932088876
 20
-9.19449969263729
 30
0.0
 10
398.3104696965896
 20
-9.07463286837957
 30
0.0
 10
398.248516861365
 20
-8.135944454001619
 30
0.0
 10
398.187504993901
 20
-6.653681577752235
 30
0.0
 10
398.1264629894321
 20
-4.703190477544914
 30
0.0
 10
398.0610359873668
 20
-2.434755134451767
 30
0.0
 10
398.0000000003395
 20
-0.0000000612569718
 30
0.0
 10
397.9389640112633
 20
2.434755381608284
 30
0.0
 10
397.8735370154176
 20
4.703189602839467
 30
0.0
 10
397.8124949884378
 20
6.653684763325978
 30
0.0
 10
397.7514832050442
 20
8.135932475673071
 30
0.0
 10
397.6895415664214
 20
9.074500793772696
 30
0.0
 10
397.6520286421175
 20
9.194357297066283
 30
0.0
 10
397.6351160107506
 20
9.248394376146907
 30
0.0
  0
SPLINE
  5
1AF
330
1B
100
AcDbEntity
 67
     1
  8
0
  6
Continuous
 62
     7
370
    25
100
AcDbSpline
210
0.0
220
0.0
230
1.0
 70
     8
 71
     3
 72
    19
 73
    15
 74
     0
 42
0.000000001
 43
0.00000001
 40
0.0
 40
0.0
 40
0.0
 40
0.0
 40
0.0711880942119881
 40
0.1578432432898676
 40
0.2430179619241804
 40
0.3281926805584953
 40
0.4148478296363767
 40
0.5000225482706872
 40
0.5851972669050043
 40
0.6718524159828823
 40
0.757027134617193
 40
0.8422018532515062
 40
0.9288570023293861
 40
1.0
 40
1.0
 40
1.0
 40
1.0
 10
396.8649165010916
 20
-9.248560231437038
 30
0.0
 10
396.8479932088877
 20
-9.19449969263729
 30
0.0
 10
396.8104696965897
 20
-9.07463286837957
 30
0.0
 10
396.748516861365
 20
-8.135944454001619
 30
0.0
 10
396.6875049939011
 20
-6.653681577752235
 30
0.0
 10
396.6264629894321
 20
-4.703190477544914
 30
0.0
 10
396.5610359873667
 20
-2.434755134451767
 30
0.0
 10
396.5000000003395
 20
-0.0000000612569718
 30
0.0
 10
396.4389640112633
 20
2.434755381608284
 30
0.0
 10
396.3735370154175
 20
4.703189602839467
 30
0.0
 10
396.3124949884378
 20
6.653684763325978
 30
0.0
 10
396.2514832050442
 20
8.135932475673071
 30
0.0
 10
396.1895415664214
 20
9.074500793772696
 30
0.0
 10
396.1520286421176
 20
9.194357297066283
 30
0.0
 10
396.1351160107506
 20
9.248394376146907
 30
0.0
  0
SPLINE
  5
1B0
330
1B
100
AcDbEntity
 67
     1
  8
0
  6
Continuous
 62
     7
370
    25
100
AcDbSpline
210
0.0
220
0.0
230
1.0
 70
     8
 71
     3
 72
    13
 73
     9
 74
     0
 42
0.000000001
 43
0.00000001
 40
0.0
 40
0.0
 40
0.0
 40
0.0
 40
0.1423697680398415
 40
0.3156722508530139
 40
0.4860140062976175
 40
0.6563557617422249
 40
0.8296582445554013
 40
1.0
 40
1.0
 40
1.0
 40
1.0
 10
395.3649165010917
 20
-9.248560231437038
 30
0.0
 10
395.3479932088878
 20
-9.194499692657343
 30
0.0
 10
395.3104696965899
 20
-9.074632868444096
 30
0.0
 10
395.2485168613634
 20
-8.135944453679178
 30
0.0
 10
395.1875049939076
 20
-6.653681578930714
 30
0.0
 10
395.1264629894074
 20
-4.703190473112473
 30
0.0
 10
395.0610359874595
 20
-2.434755151192837
 30
0.0
 10
395.0202281334055
 20
-0.8069100551642469
 30
0.0
 10
395.0
 20
-0.00000000000019
 30
0.0
  0
SPLINE
  5
1B1
330
1B
100
AcDbEntity
 67
     1
  8
0
  6
Continuous
 62
     7
370
    25
100
AcDbSpline
210
0.0
220
0.0
230
1.0
 70
    24
 71
     3
 72
    12
 73
     8
 74
     0
 42
0.000000001
 43
0.00000001
 40
0.0
 40
0.0
 40
0.0
 40
0.0
 40
0.2052777376372041
 40
0.4105562995750652
 40
0.6157181815977031
 40
0.825555020295901
 40
1.0
 40
1.0
 40
1.0
 40
1.0
 10
410.0000000000001
 20
-0.0000000000001877
 30
0.0
 10
410.0000000000001
 20
-1.066219427853773
 30
0.0
 10
410.0000000000001
 20
-3.198662565006097
 30
0.0
 10
409.9999999999997
 20
-6.100601910992714
 30
0.0
 10
410.0000000000001
 20
-8.342548530393854
 30
0.0
 10
409.9999999999997
 20
-9.753542189376313
 30
0.0
 10
409.9999999999999
 20
-9.838718065687921
 30
0.0
 10
410.0
 20
-9.87738370976193
 30
0.0
  0
SPLINE
  5
1B2
330
1B
100
AcDbEntity
 67
     1
  8
0
  6
Continuous
 62
     7
370
    25
100
AcDbSpline
210
0.0
220
0.0
230
1.0
 70
     8
 71
     3
 72
    20
 73
    16
 74
     0
 42
0.000000001
 43
0.00000001
 40
0.0
 40
0.0
 40
0.0
 40
0.0
 40
0.0123130766141007
 40
0.0941463424132073
 40
0.1774015416614687
 40
0.2592348074605754
 40
0.3410680732596817
 40
0.4243232725079436
 40
0.5061565383070503
 40
0.5879898041061571
 40
0.671245003354419
 40
0.753078269153525
 40
0.8349115349526318
 40
0.9181667342008933
 40
1.0
 40
1.0
 40
1.0
 40
1.0
 10
409.6914191190783
 20
-10.44678429140558
 30
0.0
 10
409.6883366283065
 20
-10.46660100280534
 30
0.0
 10
409.6647677640187
 20
-10.61812047721593
 30
0.0
 10
409.6212411708478
 20
-10.21684092282882
 30
0.0
 10
409.555689453032
 20
-9.209491770544096
 30
0.0
 10
409.494686500062
 20
-7.505906053255413
 30
0.0
 10
409.4336423714387
 20
-5.311786422789088
 30
0.0
 10
409.368215611517
 20
-2.748456715389054
 30
0.0
 10
409.3071795457195
 20
-0.0001019009373681
 30
0.0
 10
409.2461442720002
 20
2.748867860395196
 30
0.0
 10
409.1807151083179
 20
5.310331356539336
 30
0.0
 10
409.1196796794963
 20
7.511205264878745
 30
0.0
 10
409.0586442354434
 20
9.189565832274777
 30
0.0
 10
408.9932151179843
 20
10.29209840459813
 30
0.0
 10
408.9524076635913
 20
10.43109854503994
 30
0.0
 10
408.9321796769723
 20
10.50000000000001
 30
0.0
  0
SPLINE
  5
1B3
330
1B
100
AcDbEntity
 67
     1
  8
0
  6
Continuous
 62
     7
370
    25
100
AcDbSpline
210
0.0
220
0.0
230
1.0
 70
     8
 71
     3
 72
    20
 73
    16
 74
     0
 42
0.000000001
 43
0.00000001
 40
0.0
 40
0.0
 40
0.0
 40
0.0
 40
0.0123130766141003
 40
0.0941463424132069
 40
0.1774015416614684
 40
0.2592348074605751
 40
0.3410680732596815
 40
0.4243232725079434
 40
0.5061565383070502
 40
0.587989804106157
 40
0.6712450033544188
 40
0.7530782691535249
 40
0.8349115349526317
 40
0.9181667342008933
 40
1.0
 40
1.0
 40
1.0
 40
1.0
 10
408.1914191190783
 20
-10.44678429140558
 30
0.0
 10
408.1883366283065
 20
-10.46660100280534
 30
0.0
 10
408.1647677640187
 20
-10.61812047721594
 30
0.0
 10
408.1212411708477
 20
-10.21684092282882
 30
0.0
 10
408.0556894530318
 20
-9.209491770544092
 30
0.0
 10
407.9946865000621
 20
-7.505906053255415
 30
0.0
 10
407.9336423714386
 20
-5.311786422789089
 30
0.0
 10
407.868215611517
 20
-2.748456715389051
 30
0.0
 10
407.8071795457196
 20
-0.0001019009373713
 30
0.0
 10
407.7461442720002
 20
2.748867860395197
 30
0.0
 10
407.6807151083178
 20
5.310331356539335
 30
0.0
 10
407.6196796794965
 20
7.511205264878747
 30
0.0
 10
407.5586442354434
 20
9.189565832274775
 30
0.0
 10
407.4932151179844
 20
10.29209840459813
 30
0.0
 10
407.4524076635912
 20
10.43109854503994
 30
0.0
 10
407.4321796769723
 20
10.50000000000001
 30
0.0
  0
SPLINE
  5
1B4
330
1B
100
AcDbEntity
 67
     1
  8
0
  6
Continuous
 62
     7
370
    25
100
AcDbSpline
210
0.0
220
0.0
230
1.0
 70
     8
 71
     3
 72
    20
 73
    16
 74
     0
 42
0.000000001
 43
0.00000001
 40
0.0
 40
0.0
 40
0.0
 40
0.0
 40
0.0123130766141011
 40
0.0941463424132077
 40
0.1774015416614691
 40
0.2592348074605758
 40
0.341068073259682
 40
0.4243232725079438
 40
0.5061565383070505
 40
0.5879898041061573
 40
0.6712450033544192
 40
0.7530782691535252
 40
0.8349115349526319
 40
0.9181667342008935
 40
1.0
 40
1.0
 40
1.0
 40
1.0
 10
406.6914191190783
 20
-10.44678429140558
 30
0.0
 10
406.6883366283066
 20
-10.46660100280534
 30
0.0
 10
406.6647677640186
 20
-10.61812047721594
 30
0.0
 10
406.6212411708477
 20
-10.21684092282882
 30
0.0
 10
406.555689453032
 20
-9.209491770544098
 30
0.0
 10
406.494686500062
 20
-7.505906053255413
 30
0.0
 10
406.4336423714387
 20
-5.31178642278909
 30
0.0
 10
406.3682156115169
 20
-2.748456715389051
 30
0.0
 10
406.3071795457197
 20
-0.0001019009373686
 30
0.0
 10
406.246144272
 20
2.748867860395197
 30
0.0
 10
406.1807151083179
 20
5.310331356539334
 30
0.0
 10
406.1196796794962
 20
7.511205264878747
 30
0.0
 10
406.0586442354435
 20
9.189565832274777
 30
0.0
 10
405.9932151179843
 20
10.29209840459812
 30
0.0
 10
405.9524076635914
 20
10.43109854503994
 30
0.0
 10
405.9321796769723
 20
10.50000000000001
 30
0.0
  0
SPLINE
  5
1B5
330
1B
100
AcDbEntity
 67
     1
  8
0
  6
Continuous
 62
     7
370
    25
100
AcDbSpline
210
0.0
220
0.0
230
1.0
 70
     8
 71
     3
 72
    20
 73
    16
 74
     0
 42
0.000000001
 43
0.00000001
 40
0.0
 40
0.0
 40
0.0
 40
0.0
 40
0.0123130766141024
 40
0.0941463424132088
 40
0.1774015416614701
 40
0.2592348074605766
 40
0.3410680732596828
 40
0.4243232725079445
 40
0.5061565383070512
 40
0.5879898041061578
 40
0.6712450033544195
 40
0.7530782691535254
 40
0.834911534952632
 40
0.9181667342008935
 40
1.0
 40
1.0
 40
1.0
 40
1.0
 10
405.1914191190783
 20
-10.44678429140557
 30
0.0
 10
405.1883366283066
 20
-10.46660100280534
 30
0.0
 10
405.1647677640185
 20
-10.61812047721593
 30
0.0
 10
405.121241170848
 20
-10.21684092282882
 30
0.0
 10
405.0556894530317
 20
-9.20949177054409
 30
0.0
 10
404.9946865000621
 20
-7.505906053255416
 30
0.0
 10
404.9336423714387
 20
-5.311786422789089
 30
0.0
 10
404.8682156115171
 20
-2.748456715389051
 30
0.0
 10
404.8071795457196
 20
-0.0001019009373723
 30
0.0
 10
404.746144272
 20
2.7488678603952
 30
0.0
 10
404.6807151083179
 20
5.310331356539331
 30
0.0
 10
404.6196796794964
 20
7.511205264878749
 30
0.0
 10
404.5586442354435
 20
9.189565832274777
 30
0.0
 10
404.4932151179842
 20
10.29209840459813
 30
0.0
 10
404.4524076635913
 20
10.43109854503994
 30
0.0
 10
404.4321796769723
 20
10.50000000000001
 30
0.0
  0
SPLINE
  5
1B6
330
1B
100
AcDbEntity
 67
     1
  8
0
  6
Continuous
 62
     7
370
    25
100
AcDbSpline
210
0.0
220
0.0
230
1.0
 70
     8
 71
     3
 72
    20
 73
    16
 74
     0
 42
0.000000001
 43
0.00000001
 40
0.0
 40
0.0
 40
0.0
 40
0.0
 40
0.0123130766141024
 40
0.0941463424132088
 40
0.1774015416614701
 40
0.2592348074605766
 40
0.3410680732596828
 40
0.4243232725079445
 40
0.5061565383070512
 40
0.5879898041061578
 40
0.6712450033544195
 40
0.7530782691535254
 40
0.834911534952632
 40
0.9181667342008935
 40
1.0
 40
1.0
 40
1.0
 40
1.0
 10
403.6914191190783
 20
-10.44678429140557
 30
0.0
 10
403.6883366283066
 20
-10.46660100280534
 30
0.0
 10
403.6647677640187
 20
-10.61812047721593
 30
0.0
 10
403.6212411708479
 20
-10.21684092282882
 30
0.0
 10
403.5556894530318
 20
-9.20949177054409
 30
0.0
 10
403.4946865000621
 20
-7.505906053255416
 30
0.0
 10
403.4336423714386
 20
-5.311786422789089
 30
0.0
 10
403.3682156115171
 20
-2.748456715389051
 30
0.0
 10
403.3071795457195
 20
-0.0001019009373723
 30
0.0
 10
403.2461442720001
 20
2.7488678603952
 30
0.0
 10
403.1807151083178
 20
5.310331356539331
 30
0.0
 10
403.1196796794963
 20
7.511205264878749
 30
0.0
 10
403.0586442354435
 20
9.189565832274777
 30
0.0
 10
402.9932151179842
 20
10.29209840459813
 30
0.0
 10
402.9524076635913
 20
10.43109854503994
 30
0.0
 10
402.9321796769723
 20
10.50000000000001
 30
0.0
  0
SPLINE
  5
1B7
330
1B
100
AcDbEntity
 67
     1
  8
0
  6
Continuous
 62
     7
370
    25
100
AcDbSpline
210
0.0
220
0.0
230
1.0
 70
     8
 71
     3
 72
    20
 73
    16
 74
     0
 42
0.000000001
 43
0.00000001
 40
0.0
 40
0.0
 40
0.0
 40
0.0
 40
0.0123130766141024
 40
0.0941463424132088
 40
0.1774015416614701
 40
0.2592348074605766
 40
0.3410680732596828
 40
0.4243232725079445
 40
0.5061565383070512
 40
0.5879898041061578
 40
0.6712450033544195
 40
0.7530782691535254
 40
0.834911534952632
 40
0.9181667342008935
 40
1.0
 40
1.0
 40
1.0
 40
1.0
 10
402.1914191190783
 20
-10.44678429140557
 30
0.0
 10
402.1883366283066
 20
-10.46660100280534
 30
0.0
 10
402.1647677640186
 20
-10.61812047721593
 30
0.0
 10
402.121241170848
 20
-10.21684092282882
 30
0.0
 10
402.0556894530317
 20
-9.20949177054409
 30
0.0
 10
401.9946865000621
 20
-7.505906053255416
 30
0.0
 10
401.9336423714386
 20
-5.311786422789089
 30
0.0
 10
401.868215611517
 20
-2.748456715389051
 30
0.0
 10
401.8071795457196
 20
-0.0001019009373723
 30
0.0
 10
401.7461442720001
 20
2.7488678603952
 30
0.0
 10
401.6807151083178
 20
5.310331356539331
 30
0.0
 10
401.6196796794965
 20
7.511205264878749
 30
0.0
 10
401.5586442354435
 20
9.189565832274777
 30
0.0
 10
401.4932151179842
 20
10.29209840459813
 30
0.0
 10
401.4524076635913
 20
10.43109854503994
 30
0.0
 10
401.4321796769723
 20
10.50000000000001
 30
0.0
  0
SPLINE
  5
1B8
330
1B
100
AcDbEntity
 67
     1
  8
0
  6
Continuous
 62
     7
370
    25
100
AcDbSpline
210
0.0
220
0.0
230
1.0
 70
     8
 71
     3
 72
    20
 73
    16
 74
     0
 42
0.000000001
 43
0.00000001
 40
0.0
 40
0.0
 40
0.0
 40
0.0
 40
0.0123130766141024
 40
0.0941463424132088
 40
0.1774015416614701
 40
0.2592348074605766
 40
0.3410680732596828
 40
0.4243232725079445
 40
0.5061565383070512
 40
0.5879898041061578
 40
0.6712450033544195
 40
0.7530782691535254
 40
0.834911534952632
 40
0.9181667342008935
 40
1.0
 40
1.0
 40
1.0
 40
1.0
 10
400.6914191190783
 20
-10.44678429140557
 30
0.0
 10
400.6883366283066
 20
-10.46660100280534
 30
0.0
 10
400.6647677640186
 20
-10.61812047721593
 30
0.0
 10
400.6212411708479
 20
-10.21684092282882
 30
0.0
 10
400.5556894530318
 20
-9.20949177054409
 30
0.0
 10
400.4946865000621
 20
-7.505906053255416
 30
0.0
 10
400.4336423714386
 20
-5.311786422789089
 30
0.0
 10
400.368215611517
 20
-2.748456715389051
 30
0.0
 10
400.3071795457196
 20
-0.0001019009373723
 30
0.0
 10
400.246144272
 20
2.7488678603952
 30
0.0
 10
400.1807151083179
 20
5.310331356539331
 30
0.0
 10
400.1196796794963
 20
7.511205264878749
 30
0.0
 10
400.0586442354436
 20
9.189565832274777
 30
0.0
 10
399.9932151179842
 20
10.29209840459813
 30
0.0
 10
399.9524076635913
 20
10.43109854503994
 30
0.0
 10
399.9321796769723
 20
10.50000000000001
 30
0.0
  0
SPLINE
  5
1B9
330
1B
100
AcDbEntity
 67
     1
  8
0
  6
Continuous
 62
     7
370
    25
100
AcDbSpline
210
0.0
220
0.0
230
1.0
 70
     8
 71
     3
 72
    20
 73
    16
 74
     0
 42
0.000000001
 43
0.00000001
 40
0.0
 40
0.0
 40
0.0
 40
0.0
 40
0.0123130766141032
 40
0.0941463424132096
 40
0.1774015416614708
 40
0.2592348074605773
 40
0.3410680732596834
 40
0.424323272507945
 40
0.5061565383070515
 40
0.5879898041061582
 40
0.6712450033544198
 40
0.7530782691535256
 40
0.8349115349526322
 40
0.9181667342008936
 40
1.0
 40
1.0
 40
1.0
 40
1.0
 10
399.1914191190783
 20
-10.44678429140557
 30
0.0
 10
399.1883366283066
 20
-10.46660100280534
 30
0.0
 10
399.1647677640186
 20
-10.61812047721593
 30
0.0
 10
399.121241170848
 20
-10.21684092282882
 30
0.0
 10
399.0556894530318
 20
-9.209491770544092
 30
0.0
 10
398.994686500062
 20
-7.505906053255413
 30
0.0
 10
398.9336423714389
 20
-5.31178642278909
 30
0.0
 10
398.8682156115169
 20
-2.748456715389053
 30
0.0
 10
398.8071795457197
 20
-0.0001019009373661
 30
0.0
 10
398.7461442720001
 20
2.748867860395194
 30
0.0
 10
398.6807151083181
 20
5.310331356539335
 30
0.0
 10
398.6196796794964
 20
7.511205264878749
 30
0.0
 10
398.5586442354434
 20
9.189565832274775
 30
0.0
 10
398.4932151179844
 20
10.29209840459813
 30
0.0
 10
398.4524076635914
 20
10.43109854503994
 30
0.0
 10
398.4321796769723
 20
10.50000000000001
 30
0.0
  0
SPLINE
  5
1BA
330
1B
100
AcDbEntity
 67
     1
  8
0
  6
Continuous
 62
     7
370
    25
100
AcDbSpline
210
0.0
220
0.0
230
1.0
 70
     8
 71
     3
 72
    20
 73
    16
 74
     0
 42
0.000000001
 43
0.00000001
 40
0.0
 40
0.0
 40
0.0
 40
0.0
 40
0.0123130766141032
 40
0.0941463424132096
 40
0.1774015416614708
 40
0.2592348074605773
 40
0.3410680732596834
 40
0.424323272507945
 40
0.5061565383070515
 40
0.5879898041061582
 40
0.6712450033544198
 40
0.7530782691535256
 40
0.8349115349526322
 40
0.9181667342008936
 40
1.0
 40
1.0
 40
1.0
 40
1.0
 10
397.6914191190783
 20
-10.44678429140557
 30
0.0
 10
397.6883366283066
 20
-10.46660100280534
 30
0.0
 10
397.6647677640188
 20
-10.61812047721593
 30
0.0
 10
397.6212411708479
 20
-10.21684092282882
 30
0.0
 10
397.5556894530319
 20
-9.209491770544092
 30
0.0
 10
397.494686500062
 20
-7.505906053255413
 30
0.0
 10
397.4336423714389
 20
-5.31178642278909
 30
0.0
 10
397.3682156115169
 20
-2.748456715389053
 30
0.0
 10
397.3071795457197
 20
-0.0001019009373661
 30
0.0
 10
397.2461442720002
 20
2.748867860395194
 30
0.0
 10
397.180715108318
 20
5.310331356539335
 30
0.0
 10
397.1196796794964
 20
7.511205264878749
 30
0.0
 10
397.0586442354435
 20
9.189565832274775
 30
0.0
 10
396.9932151179843
 20
10.29209840459813
 30
0.0
 10
396.9524076635914
 20
10.43109854503994
 30
0.0
 10
396.9321796769723
 20
10.50000000000001
 30
0.0
  0
SPLINE
  5
1BB
330
1B
100
AcDbEntity
 67
     1
  8
0
  6
Continuous
 62
     7
370
    25
100
AcDbSpline
210
0.0
220
0.0
230
1.0
 70
     8
 71
     3
 72
    20
 73
    16
 74
     0
 42
0.000000001
 43
0.00000001
 40
0.0
 40
0.0
 40
0.0
 40
0.0
 40
0.0123130766141032
 40
0.0941463424132096
 40
0.1774015416614708
 40
0.2592348074605773
 40
0.3410680732596834
 40
0.424323272507945
 40
0.5061565383070515
 40
0.5879898041061582
 40
0.6712450033544198
 40
0.7530782691535256
 40
0.8349115349526322
 40
0.9181667342008936
 40
1.0
 40
1.0
 40
1.0
 40
1.0
 10
396.1914191190783
 20
-10.44678429140557
 30
0.0
 10
396.1883366283066
 20
-10.46660100280534
 30
0.0
 10
396.1647677640187
 20
-10.61812047721593
 30
0.0
 10
396.121241170848
 20
-10.21684092282882
 30
0.0
 10
396.0556894530319
 20
-9.209491770544092
 30
0.0
 10
395.994686500062
 20
-7.505906053255413
 30
0.0
 10
395.9336423714389
 20
-5.31178642278909
 30
0.0
 10
395.8682156115169
 20
-2.748456715389053
 30
0.0
 10
395.8071795457197
 20
-0.0001019009373661
 30
0.0
 10
395.7461442720002
 20
2.748867860395194
 30
0.0
 10
395.6807151083181
 20
5.310331356539335
 30
0.0
 10
395.6196796794964
 20
7.511205264878749
 30
0.0
 10
395.5586442354434
 20
9.189565832274775
 30
0.0
 10
395.4932151179844
 20
10.29209840459813
 30
0.0
 10
395.4524076635914
 20
10.43109854503994
 30
0.0
 10
395.4321796769723
 20
10.50000000000001
 30
0.0
  0
SPLINE
  5
1BC
330
1B
100
AcDbEntity
 67
     1
  8
0
  6
Continuous
 62
     7
370
    25
100
AcDbSpline
210
0.0
220
0.0
230
1.0
 70
     8
 71
     3
 72
    20
 73
    16
 74
     0
 42
0.000000001
 43
0.00000001
 40
0.0
 40
0.0
 40
0.0
 40
0.0
 40
0.0122578364907112
 40
0.0940956791244299
 40
0.1773555347343079
 40
0.2591933773680335
 40
0.3410312200016989
 40
0.4242910756115216
 40
0.5061289182453558
 40
0.5879667608789688
 40
0.6712266164889034
 40
0.7530644591226777
 40
0.8349023017563986
 40
0.9181621573662758
 40
1.0
 40
1.0
 40
1.0
 40
1.0
 10
395.3086228462103
 20
10.44702599567114
 30
0.0
 10
395.3116913260752
 20
10.46674468822267
 30
0.0
 10
395.3352461105582
 20
10.61811265340054
 30
0.0
 10
395.3787587640007
 20
10.21679034112427
 30
0.0
 10
395.4443105642175
 20
9.209505162736933
 30
0.0
 10
395.5053134953521
 20
7.505902492885132
 30
0.0
 10
395.5663576298144
 20
5.311787395808661
 30
0.0
 10
395.6317843881509
 20
2.748456457770705
 30
0.0
 10
395.6928204543686
 20
0.0001019694286882
 30
0.0
 10
395.7538557279755
 20
-2.74886787911128
 30
0.0
 10
395.8192848916885
 20
-5.310331351582603
 30
0.0
 10
395.8803203205019
 20
-7.511205266195682
 30
0.0
 10
395.9413557645568
 20
-9.18956583191673
 30
0.0
 10
396.0067848820157
 20
-10.29209840468662
 30
0.0
 10
396.0475923364087
 20
-10.43109854506926
 30
0.0
 10
396.0678203230275
 20
-10.49999999999999
 30
0.0
  0
SPLINE
  5
1BD
330
1B
100
AcDbEntity
 67
     1
  8
0
  6
Continuous
 62
     7
370
    25
100
AcDbSpline
210
0.0
220
0.0
230
1.0
 70
     8
 71
     3
 72
    20
 73
    16
 74
     0
 42
0.000000001
 43
0.00000001
 40
0.0
 40
0.0
 40
0.0
 40
0.0
 40
0.0122578364907112
 40
0.0940956791244299
 40
0.1773555347343079
 40
0.2591933773680335
 40
0.3410312200016989
 40
0.4242910756115216
 40
0.5061289182453558
 40
0.5879667608789688
 40
0.6712266164889034
 40
0.7530644591226777
 40
0.8349023017563986
 40
0.9181621573662758
 40
1.0
 40
1.0
 40
1.0
 40
1.0
 10
396.8086228462103
 20
10.44702599567114
 30
0.0
 10
396.8116913260752
 20
10.46674468822267
 30
0.0
 10
396.8352461105581
 20
10.61811265340054
 30
0.0
 10
396.8787587640007
 20
10.21679034112427
 30
0.0
 10
396.9443105642175
 20
9.209505162736933
 30
0.0
 10
397.0053134953522
 20
7.505902492885132
 30
0.0
 10
397.0663576298143
 20
5.311787395808661
 30
0.0
 10
397.1317843881509
 20
2.748456457770705
 30
0.0
 10
397.1928204543687
 20
0.0001019694286882
 30
0.0
 10
397.2538557279755
 20
-2.74886787911128
 30
0.0
 10
397.3192848916885
 20
-5.310331351582603
 30
0.0
 10
397.3803203205019
 20
-7.511205266195682
 30
0.0
 10
397.4413557645568
 20
-9.18956583191673
 30
0.0
 10
397.5067848820157
 20
-10.29209840468662
 30
0.0
 10
397.5475923364086
 20
-10.43109854506926
 30
0.0
 10
397.5678203230275
 20
-10.49999999999999
 30
0.0
  0
SPLINE
  5
1BE
330
1B
100
AcDbEntity
 67
     1
  8
0
  6
Continuous
 62
     7
370
    25
100
AcDbSpline
210
0.0
220
0.0
230
1.0
 70
     8
 71
     3
 72
    20
 73
    16
 74
     0
 42
0.000000001
 43
0.00000001
 40
0.0
 40
0.0
 40
0.0
 40
0.0
 40
0.0122578364907112
 40
0.0940956791244299
 40
0.177355534734308
 40
0.2591933773680335
 40
0.3410312200016989
 40
0.4242910756115216
 40
0.5061289182453558
 40
0.5879667608789688
 40
0.6712266164889034
 40
0.7530644591226777
 40
0.8349023017563986
 40
0.9181621573662758
 40
1.0
 40
1.0
 40
1.0
 40
1.0
 10
398.3086228462103
 20
10.44702599567114
 30
0.0
 10
398.3116913260752
 20
10.46674468822267
 30
0.0
 10
398.3352461105582
 20
10.61811265340054
 30
0.0
 10
398.3787587640011
 20
10.21679034112428
 30
0.0
 10
398.4443105642172
 20
9.209505162736926
 30
0.0
 10
398.5053134953523
 20
7.505902492885135
 30
0.0
 10
398.5663576298143
 20
5.31178739580866
 30
0.0
 10
398.6317843881509
 20
2.748456457770705
 30
0.0
 10
398.6928204543686
 20
0.000101969428688
 30
0.0
 10
398.7538557279755
 20
-2.74886787911128
 30
0.0
 10
398.8192848916885
 20
-5.310331351582603
 30
0.0
 10
398.8803203205019
 20
-7.511205266195682
 30
0.0
 10
398.9413557645568
 20
-9.18956583191673
 30
0.0
 10
399.0067848820157
 20
-10.29209840468662
 30
0.0
 10
399.0475923364086
 20
-10.43109854506926
 30
0.0
 10
399.0678203230275
 20
-10.49999999999999
 30
0.0
  0
SPLINE
  5
1BF
330
1B
100
AcDbEntity
 67
     1
  8
0
  6
Continuous
 62
     7
370
    25
100
AcDbSpline
210
0.0
220
0.0
230
1.0
 70
     8
 71
     3
 72
    20
 73
    16
 74
     0
 42
0.000000001
 43
0.00000001
 40
0.0
 40
0.0
 40
0.0
 40
0.0
 40
0.0122578364907112
 40
0.0940956791244299
 40
0.1773555347343079
 40
0.2591933773680335
 40
0.3410312200016989
 40
0.4242910756115216
 40
0.5061289182453558
 40
0.5879667608789688
 40
0.6712266164889034
 40
0.7530644591226777
 40
0.8349023017563986
 40
0.9181621573662758
 40
1.0
 40
1.0
 40
1.0
 40
1.0
 10
399.8086228462103
 20
10.44702599567114
 30
0.0
 10
399.8116913260752
 20
10.46674468822267
 30
0.0
 10
399.8352461105581
 20
10.61811265340054
 30
0.0
 10
399.8787587640008
 20
10.21679034112427
 30
0.0
 10
399.9443105642175
 20
9.209505162736933
 30
0.0
 10
400.0053134953521
 20
7.505902492885132
 30
0.0
 10
400.0663576298144
 20
5.311787395808661
 30
0.0
 10
400.1317843881508
 20
2.748456457770705
 30
0.0
 10
400.1928204543687
 20
0.0001019694286882
 30
0.0
 10
400.2538557279755
 20
-2.74886787911128
 30
0.0
 10
400.3192848916885
 20
-5.310331351582603
 30
0.0
 10
400.3803203205019
 20
-7.511205266195682
 30
0.0
 10
400.4413557645568
 20
-9.18956583191673
 30
0.0
 10
400.5067848820157
 20
-10.29209840468662
 30
0.0
 10
400.5475923364086
 20
-10.43109854506926
 30
0.0
 10
400.5678203230275
 20
-10.49999999999999
 30
0.0
  0
SPLINE
  5
1C0
330
1B
100
AcDbEntity
 67
     1
  8
0
  6
Continuous
 62
     7
370
    25
100
AcDbSpline
210
0.0
220
0.0
230
1.0
 70
     8
 71
     3
 72
    20
 73
    16
 74
     0
 42
0.000000001
 43
0.00000001
 40
0.0
 40
0.0
 40
0.0
 40
0.0
 40
0.0122578364907112
 40
0.0940956791244299
 40
0.177355534734308
 40
0.2591933773680335
 40
0.3410312200016989
 40
0.4242910756115216
 40
0.5061289182453558
 40
0.5879667608789688
 40
0.6712266164889034
 40
0.7530644591226777
 40
0.8349023017563986
 40
0.9181621573662758
 40
1.0
 40
1.0
 40
1.0
 40
1.0
 10
401.3086228462103
 20
10.44702599567114
 30
0.0
 10
401.3116913260752
 20
10.46674468822267
 30
0.0
 10
401.3352461105581
 20
10.61811265340054
 30
0.0
 10
401.378758764001
 20
10.21679034112428
 30
0.0
 10
401.4443105642173
 20
9.209505162736926
 30
0.0
 10
401.5053134953523
 20
7.505902492885135
 30
0.0
 10
401.5663576298143
 20
5.31178739580866
 30
0.0
 10
401.6317843881509
 20
2.748456457770705
 30
0.0
 10
401.6928204543685
 20
0.000101969428688
 30
0.0
 10
401.7538557279755
 20
-2.74886787911128
 30
0.0
 10
401.8192848916884
 20
-5.310331351582603
 30
0.0
 10
401.8803203205018
 20
-7.511205266195682
 30
0.0
 10
401.9413557645568
 20
-9.18956583191673
 30
0.0
 10
402.0067848820157
 20
-10.29209840468662
 30
0.0
 10
402.0475923364086
 20
-10.43109854506926
 30
0.0
 10
402.0678203230275
 20
-10.49999999999999
 30
0.0
  0
SPLINE
  5
1C1
330
1B
100
AcDbEntity
 67
     1
  8
0
  6
Continuous
 62
     7
370
    25
100
AcDbSpline
210
0.0
220
0.0
230
1.0
 70
     8
 71
     3
 72
    20
 73
    16
 74
     0
 42
0.000000001
 43
0.00000001
 40
0.0
 40
0.0
 40
0.0
 40
0.0
 40
0.0122578364907112
 40
0.0940956791244299
 40
0.177355534734308
 40
0.2591933773680335
 40
0.3410312200016989
 40
0.4242910756115216
 40
0.5061289182453558
 40
0.5879667608789688
 40
0.6712266164889034
 40
0.7530644591226777
 40
0.8349023017563986
 40
0.9181621573662758
 40
1.0
 40
1.0
 40
1.0
 40
1.0
 10
402.8086228462102
 20
10.44702599567114
 30
0.0
 10
402.8116913260751
 20
10.46674468822267
 30
0.0
 10
402.835246110558
 20
10.61811265340054
 30
0.0
 10
402.8787587640011
 20
10.21679034112428
 30
0.0
 10
402.9443105642172
 20
9.209505162736926
 30
0.0
 10
403.0053134953522
 20
7.505902492885135
 30
0.0
 10
403.0663576298143
 20
5.31178739580866
 30
0.0
 10
403.1317843881508
 20
2.748456457770705
 30
0.0
 10
403.1928204543685
 20
0.000101969428688
 30
0.0
 10
403.2538557279755
 20
-2.74886787911128
 30
0.0
 10
403.3192848916884
 20
-5.310331351582603
 30
0.0
 10
403.3803203205018
 20
-7.511205266195682
 30
0.0
 10
403.4413557645568
 20
-9.18956583191673
 30
0.0
 10
403.5067848820157
 20
-10.29209840468662
 30
0.0
 10
403.5475923364085
 20
-10.43109854506926
 30
0.0
 10
403.5678203230275
 20
-10.49999999999999
 30
0.0
  0
SPLINE
  5
1C2
330
1B
100
AcDbEntity
 67
     1
  8
0
  6
Continuous
 62
     7
370
    25
100
AcDbSpline
210
0.0
220
0.0
230
1.0
 70
     8
 71
     3
 72
    20
 73
    16
 74
     0
 42
0.000000001
 43
0.00000001
 40
0.0
 40
0.0
 40
0.0
 40
0.0
 40
0.0122578364907112
 40
0.0940956791244299
 40
0.177355534734308
 40
0.2591933773680335
 40
0.3410312200016989
 40
0.4242910756115216
 40
0.5061289182453558
 40
0.5879667608789688
 40
0.6712266164889034
 40
0.7530644591226777
 40
0.8349023017563986
 40
0.9181621573662758
 40
1.0
 40
1.0
 40
1.0
 40
1.0
 10
404.3086228462102
 20
10.44702599567114
 30
0.0
 10
404.3116913260752
 20
10.46674468822267
 30
0.0
 10
404.3352461105581
 20
10.61811265340054
 30
0.0
 10
404.3787587640009
 20
10.21679034112428
 30
0.0
 10
404.4443105642172
 20
9.209505162736926
 30
0.0
 10
404.5053134953522
 20
7.505902492885135
 30
0.0
 10
404.5663576298144
 20
5.31178739580866
 30
0.0
 10
404.6317843881507
 20
2.748456457770705
 30
0.0
 10
404.6928204543686
 20
0.000101969428688
 30
0.0
 10
404.7538557279755
 20
-2.74886787911128
 30
0.0
 10
404.8192848916884
 20
-5.310331351582603
 30
0.0
 10
404.8803203205019
 20
-7.511205266195682
 30
0.0
 10
404.9413557645567
 20
-9.18956583191673
 30
0.0
 10
405.0067848820157
 20
-10.29209840468662
 30
0.0
 10
405.0475923364085
 20
-10.43109854506926
 30
0.0
 10
405.0678203230275
 20
-10.49999999999999
 30
0.0
  0
SPLINE
  5
1C3
330
1B
100
AcDbEntity
 67
     1
  8
0
  6
Continuous
 62
     7
370
    25
100
AcDbSpline
210
0.0
220
0.0
230
1.0
 70
     8
 71
     3
 72
    20
 73
    16
 74
     0
 42
0.000000001
 43
0.00000001
 40
0.0
 40
0.0
 40
0.0
 40
0.0
 40
0.0122578364907112
 40
0.0940956791244299
 40
0.177355534734308
 40
0.2591933773680335
 40
0.3410312200016989
 40
0.4242910756115216
 40
0.5061289182453558
 40
0.5879667608789688
 40
0.6712266164889034
 40
0.7530644591226777
 40
0.8349023017563986
 40
0.9181621573662758
 40
1.0
 40
1.0
 40
1.0
 40
1.0
 10
405.8086228462102
 20
10.44702599567114
 30
0.0
 10
405.8116913260752
 20
10.46674468822267
 30
0.0
 10
405.8352461105581
 20
10.61811265340054
 30
0.0
 10
405.878758764001
 20
10.21679034112428
 30
0.0
 10
405.9443105642172
 20
9.209505162736926
 30
0.0
 10
406.0053134953521
 20
7.505902492885135
 30
0.0
 10
406.0663576298144
 20
5.31178739580866
 30
0.0
 10
406.1317843881508
 20
2.748456457770705
 30
0.0
 10
406.1928204543686
 20
0.000101969428688
 30
0.0
 10
406.2538557279755
 20
-2.74886787911128
 30
0.0
 10
406.3192848916884
 20
-5.310331351582603
 30
0.0
 10
406.3803203205019
 20
-7.511205266195682
 30
0.0
 10
406.4413557645567
 20
-9.18956583191673
 30
0.0
 10
406.5067848820156
 20
-10.29209840468662
 30
0.0
 10
406.5475923364086
 20
-10.43109854506926
 30
0.0
 10
406.5678203230275
 20
-10.49999999999999
 30
0.0
  0
SPLINE
  5
1C4
330
1B
100
AcDbEntity
 67
     1
  8
0
  6
Continuous
 62
     7
370
    25
100
AcDbSpline
210
0.0
220
0.0
230
1.0
 70
     8
 71
     3
 72
    20
 73
    16
 74
     0
 42
0.000000001
 43
0.00000001
 40
0.0
 40
0.0
 40
0.0
 40
0.0
 40
0.0122578364907137
 40
0.0940956791244322
 40
0.17735553473431
 40
0.2591933773680353
 40
0.3410312200017006
 40
0.424291075611523
 40
0.506128918245357
 40
0.5879667608789698
 40
0.6712266164889041
 40
0.7530644591226783
 40
0.8349023017563989
 40
0.9181621573662759
 40
1.0
 40
1.0
 40
1.0
 40
1.0
 10
407.3086228462102
 20
10.44702599567113
 30
0.0
 10
407.3116913260751
 20
10.46674468822266
 30
0.0
 10
407.335246110558
 20
10.61811265340054
 30
0.0
 10
407.3787587640008
 20
10.21679034112428
 30
0.0
 10
407.4443105642173
 20
9.209505162736928
 30
0.0
 10
407.5053134953523
 20
7.505902492885135
 30
0.0
 10
407.5663576298143
 20
5.311787395808661
 30
0.0
 10
407.631784388151
 20
2.748456457770704
 30
0.0
 10
407.6928204543685
 20
0.0001019694286891
 30
0.0
 10
407.7538557279754
 20
-2.74886787911128
 30
0.0
 10
407.8192848916885
 20
-5.310331351582604
 30
0.0
 10
407.8803203205019
 20
-7.511205266195683
 30
0.0
 10
407.9413557645566
 20
-9.18956583191673
 30
0.0
 10
408.0067848820157
 20
-10.29209840468662
 30
0.0
 10
408.0475923364085
 20
-10.43109854506925
 30
0.0
 10
408.0678203230275
 20
-10.49999999999999
 30
0.0
  0
SPLINE
  5
1C5
330
1B
100
AcDbEntity
 67
     1
  8
0
  6
Continuous
 62
     7
370
    25
100
AcDbSpline
210
0.0
220
0.0
230
1.0
 70
     8
 71
     3
 72
    20
 73
    16
 74
     0
 42
0.000000001
 43
0.00000001
 40
0.0
 40
0.0
 40
0.0
 40
0.0
 40
0.0122578364907137
 40
0.0940956791244322
 40
0.17735553473431
 40
0.2591933773680353
 40
0.3410312200017006
 40
0.424291075611523
 40
0.506128918245357
 40
0.5879667608789698
 40
0.6712266164889041
 40
0.7530644591226784
 40
0.834902301756399
 40
0.918162157366276
 40
1.0
 40
1.0
 40
1.0
 40
1.0
 10
408.8086228462103
 20
10.44702599567113
 30
0.0
 10
408.8116913260752
 20
10.46674468822266
 30
0.0
 10
408.8352461105583
 20
10.61811265340055
 30
0.0
 10
408.8787587640008
 20
10.21679034112428
 30
0.0
 10
408.9443105642176
 20
9.209505162736935
 30
0.0
 10
409.005313495352
 20
7.50590249288513
 30
0.0
 10
409.0663576298143
 20
5.311787395808661
 30
0.0
 10
409.1317843881509
 20
2.748456457770705
 30
0.0
 10
409.1928204543685
 20
0.0001019694286878
 30
0.0
 10
409.2538557279755
 20
-2.74886787911128
 30
0.0
 10
409.3192848916883
 20
-5.310331351582604
 30
0.0
 10
409.380320320502
 20
-7.511205266195682
 30
0.0
 10
409.4413557645566
 20
-9.18956583191673
 30
0.0
 10
409.5067848820157
 20
-10.29209840468662
 30
0.0
 10
409.5475923364086
 20
-10.43109854506926
 30
0.0
 10
409.5678203230275
 20
-10.49999999999999
 30
0.0
  0
SPLINE
  5
1C6
330
1B
100
AcDbEntity
 67
     1
  8
0
  6
Continuous
 62
     7
370
    25
100
AcDbSpline
210
0.0
220
0.0
230
1.0
 70
    24
 71
     3
 72
    12
 73
     8
 74
     0
 42
0.000000001
 43
0.00000001
 40
0.0
 40
0.0
 40
0.0
 40
0.0
 40
0.2052985187995627
 40
0.4105978619832276
 40
0.6157805134396978
 40
0.825638594838018
 40
1.0
 40
1.0
 40
1.0
 40
1.0
 10
410.0
 20
-0.0000000000001877
 30
0.0
 10
409.9999999999999
 20
1.066219020379717
 30
0.0
 10
409.9999999999996
 20
3.198661342583031
 30
0.0
 10
410.0000000000001
 20
6.100606799545059
 30
0.0
 10
409.9999999999999
 20
8.34253003370379
 30
0.0
 10
410.0
 20
9.75336561906104
 30
0.0
 10
410.0
 20
9.838556425396561
 30
0.0
 10
410.0
 20
9.877216590273994
 30
0.0
  0
LINE
  5
1CC
330
1B
100
AcDbEntity
 67
     1
  8
0
  6
Continuous
 62
     7
370
    25
100
AcDbLine
 10
390.0
 20
12.5
 30
0.0
 11
0.0
 21
12.5
 31
0.0
  0
LINE
  5
1CD
330
1B
100
AcDbEntity
 67
     1
  8
0
  6
Continuous
 62
     7
370
    25
100
AcDbLine
 10
0.0
 20
-12.5
 30
0.0
 11
390.0
 21
-12.5
 31
0.0
  0
LINE
  5
1CE
330
1B
100
AcDbEntity
 67
     1
  8
0
  6
Continuous
 62
     7
370
    25
100
AcDbLine
 10
395.432179677
 20
10.5
 30
0.0
 11
395.317820323
 21
10.5
 31
0.0
  0
LINE
  5
1CF
330
1B
100
AcDbEntity
 67
     1
  8
0
  6
Continuous
 62
     7
370
    25
100
AcDbLine
 10
396.932179677
 20
10.5
 30
0.0
 11
396.817820323
 21
10.5
 31
0.0
  0
LINE
  5
1D0
330
1B
100
AcDbEntity
 67
     1
  8
0
  6
Continuous
 62
     7
370
    25
100
AcDbLine
 10
398.432179677
 20
10.5
 30
0.0
 11
398.317820323
 21
10.5
 31
0.0
  0
LINE
  5
1D1
330
1B
100
AcDbEntity
 67
     1
  8
0
  6
Continuous
 62
     7
370
    25
100
AcDbLine
 10
399.932179677
 20
10.5
 30
0.0
 11
399.817820323
 21
10.5
 31
0.0
  0
LINE
  5
1D2
330
1B
100
AcDbEntity
 67
     1
  8
0
  6
Continuous
 62
     7
370
    25
100
AcDbLine
 10
401.432179677
 20
10.5
 30
0.0
 11
401.317820323
 21
10.5
 31
0.0
  0
LINE
  5
1D3
330
1B
100
AcDbEntity
 67
     1
  8
0
  6
Continuous
 62
     7
370
    25
100
AcDbLine
 10
402.932179677
 20
10.5
 30
0.0
 11
402.817820323
 21
10.5
 31
0.0
  0
LINE
  5
1D4
330
1B
100
AcDbEntity
 67
     1
  8
0
  6
Continuous
 62
     7
370
    25
100
AcDbLine
 10
404.432179677
 20
10.5
 30
0.0
 11
404.317820323
 21
10.5
 31
0.0
  0
LINE
  5
1D5
330
1B
100
AcDbEntity
 67
     1
  8
0
  6
Continuous
 62
     7
370
    25
100
AcDbLine
 10
405.932179677
 20
10.5
 30
0.0
 11
405.817820323
 21
10.5
 31
0.0
  0
LINE
  5
1D6
330
1B
100
AcDbEntity
 67
     1
  8
0
  6
Continuous
 62
     7
370
    25
100
AcDbLine
 10
407.432179677
 20
10.5
 30
0.0
 11
407.317820323
 21
10.5
 31
0.0
  0
LINE
  5
1D7
330
1B
100
AcDbEntity
 67
     1
  8
0
  6
Continuous
 62
     7
370
    25
100
AcDbLine
 10
408.932179677
 20
10.5
 30
0.0
 11
408.817820323
 21
10.5
 31
0.0
  0
LINE
  5
1D8
330
1B
100
AcDbEntity
 67
     1
  8
0
  6
Continuous
 62
     7
370
    25
100
AcDbLine
 10
409.567820323
 20
-10.5
 30
0.0
 11
409.682179677
 21
-10.5
 31
0.0
  0
LINE
  5
1D9
330
1B
100
AcDbEntity
 67
     1
  8
0
  6
Continuous
 62
     7
370
    25
100
AcDbLine
 10
408.067820323
 20
-10.5
 30
0.0
 11
408.182179677
 21
-10.5
 31
0.0
  0
LINE
  5
1DA
330
1B
100
AcDbEntity
 67
     1
  8
0
  6
Continuous
 62
     7
370
    25
100
AcDbLine
 10
406.567820323
 20
-10.5
 30
0.0
 11
406.682179677
 21
-10.5
 31
0.0
  0
LINE
  5
1DB
330
1B
100
AcDbEntity
 67
     1
  8
0
  6
Continuous
 62
     7
370
    25
100
AcDbLine
 10
405.067820323
 20
-10.5
 30
0.0
 11
405.182179677
 21
-10.5
 31
0.0
  0
LINE
  5
1DC
330
1B
100
AcDbEntity
 67
     1
  8
0
  6
Continuous
 62
     7
370
    25
100
AcDbLine
 10
403.567820323
 20
-10.5
 30
0.0
 11
403.682179677
 21
-10.5
 31
0.0
  0
LINE
  5
1DD
330
1B
100
AcDbEntity
 67
     1
  8
0
  6
Continuous
 62
     7
370
    25
100
AcDbLine
 10
402.067820323
 20
-10.5
 30
0.0
 11
402.182179677
 21
-10.5
 31
0.0
  0
LINE
  5
1DE
330
1B
100
AcDbEntity
 67
     1
  8
0
  6
Continuous
 62
     7
370
    25
100
AcDbLine
 10
400.567820323
 20
-10.5
 30
0.0
 11
400.682179677
 21
-10.5
 31
0.0
  0
LINE
  5
1DF
330
1B
100
AcDbEntity
 67
     1
  8
0
  6
Continuous
 62
     7
370
    25
100
AcDbLine
 10
399.067820323
 20
-10.5
 30
0.0
 11
399.182179677
 21
-10.5
 31
0.0
  0
LINE
  5
1E0
330
1B
100
AcDbEntity
 67
     1
  8
0
  6
Continuous
 62
     7
370
    25
100
AcDbLine
 10
397.567820323
 20
-10.5
 30
0.0
 11
397.682179677
 21
-10.5
 31
0.0
  0
LINE
  5
1E1
330
1B
100
AcDbEntity
 67
     1
  8
0
  6
Continuous
 62
     7
370
    25
100
AcDbLine
 10
396.067820323
 20
-10.5
 30
0.0
 11
396.182179677
 21
-10.5
 31
0.0
  0
LINE
  5
1E2
330
1B
100
AcDbEntity
 67
     1
  8
0
  6
Continuous
 62
     7
370
    25
100
AcDbLine
 10
395.3090055288
 20
10.4921598103
 30
0.0
 11
395.0
 21
9.9573530293
 31
0.0
  0
LINE
  5
1E3
330
1B
100
AcDbEntity
 67
     1
  8
0
  6
Continuous
 62
     7
370
    25
100
AcDbLine
 10
390.0
 20
-22.5
 30
0.0
 11
395.0
 21
-22.5
 31
0.0
  0
LINE
  5
1E4
330
1B
100
AcDbEntity
 67
     1
  8
0
  6
Continuous
 62
     7
370
    25
100
AcDbLine
 10
395.0
 20
22.5
 30
0.0
 11
390.0
 21
22.5
 31
0.0
  0
LINE
  5
1E5
330
1B
100
AcDbEntity
 67
     1
  8
0
  6
Continuous
 62
     7
370
    25
100
AcDbLine
 10
390.0
 20
22.5
 30
0.0
 11
390.0
 21
-22.5
 31
0.0
  0
LINE
  5
1E6
330
1B
100
AcDbEntity
 67
     1
  8
0
  6
Continuous
 62
     7
370
    25
100
AcDbLine
 10
395.0
 20
22.5
 30
0.0
 11
395.0
 21
-22.5
 31
0.0
  0
LINE
  5
1E7
330
1B
100
AcDbEntity
 67
     1
  8
0
  6
Continuous
 62
     8
370
    25
100
AcDbLine
 10
40.0
 20
12.5
 30
0.0
 11
40.0
 21
-12.5
 31
0.0
  0
ARC
  5
1E8
330
1B
100
AcDbEntity
 67
     1
  8
0
  6
Continuous
 62
     7
370
    25
100
AcDbCircle
 10
0.0
 20
0.0
 30
0.0
 40
12.5
100
AcDbArc
 50
90.0
 51
270.0
  0
VIEWPORT
  5
2DF
330
1B
100
AcDbEntity
 67
     1
  8
0
100
AcDbViewport
 10
0.0
 20
0.0
 30
0.0
 40
205.6
 41
156.0
 68
     1
 69
     1
 12
198.7549940155
 22
47.2447452921
 13
0.0
 23
0.0
 14
10.0
 24
10.0
 15
10.0
 25
10.0
 16
0.0
 26
0.0
 36
1.0
 17
0.0
 27
0.0
 37
0.0
 42
50.0
 43
0.0
 44
0.0
 45
326.9931385968
 50
0.0
 51
0.0
 72
   100
 90
   557152
  1

281
     0
 71
     1
 74
     0
110
0.0
120
0.0
130
0.0
111
1.0
121
0.0
131
0.0
112
0.0
122
1.0
132
0.0
 79
     0
146
0.0
  0
ENDSEC
  0
SECTION
  2
OBJECTS
  0
DICTIONARY
  5
C
330
0
100
AcDbDictionary
281
     1
  3
ACAD_GROUP
350
D
  3
ACAD_LAYOUT
350
1A
  3
ACAD_MLINESTYLE
350
17
  3
ACAD_PLOTSETTINGS
350
19
  3
ACAD_PLOTSTYLENAME
350
E
  3
ACAD_SCALELIST
350
47
  0
DICTIONARY
  5
D
102
{ACAD_REACTORS
330
C
102
}
330
C
100
AcDbDictionary
281
     1
  0
DICTIONARY
  5
1A
102
{ACAD_REACTORS
330
C
102
}
330
C
100
AcDbDictionary
281
     1
  3
_Isometric
350
24B
  3
_Left
350
26
  3
_Top
350
1E
  3
Model
350
22
  0
DICTIONARY
  5
17
102
{ACAD_REACTORS
330
C
102
}
330
C
100
AcDbDictionary
281
     1
  3
Standard
350
18
  0
DICTIONARY
  5
19
102
{ACAD_REACTORS
330
C
102
}
330
C
100
AcDbDictionary
281
     1
  0
ACDBDICTIONARYWDFLT
  5
E
102
{ACAD_REACTORS
330
C
102
}
330
C
100
AcDbDictionary
281
     1
  3
Normal
350
F
100
AcDbDictionaryWithDefault
340
F
  0
DICTIONARY
  5
47
102
{ACAD_REACTORS
330
C
102
}
330
C
100
AcDbDictionary
281
     1
  3
A0
350
48
  3
A1
350
49
  3
A2
350
4A
  3
A3
350
4B
  3
A4
350
4C
  3
A5
350
4D
  3
A6
350
4E
  3
A7
350
4F
  3
A8
350
50
  3
A9
350
51
  3
B0
350
52
  3
B1
350
53
  3
B2
350
54
  3
B3
350
55
  3
B4
350
56
  3
B5
350
57
  3
B6
350
58
  3
B7
350
59
  3
B8
350
5A
  3
B9
350
5B
  3
C0
350
5C
  3
C1
350
5D
  3
C2
350
5E
  3
C3
350
5F
  3
C4
350
60
  3
C5
350
61
  3
C6
350
62
  3
C7
350
63
  3
C8
350
64
  3
C9
350
65
  3
D0
350
66
  3
D1
350
67
  3
D2
350
68
  0
LAYOUT
  5
24B
102
{ACAD_REACTORS
330
1A
102
}
330
1A
100
AcDbPlotSettings
  1

  2
none_device
  4
ISO_A4_(210.00_x_297.00_MM)
  6

 40
7.5
 41
20.0
 42
7.5
 43
20.0
 44
210.0
 45
297.0
 46
0.0
 47
0.0
 48
0.0
 49
0.0
140
0.0
141
0.0
142
1.0
143
1.6441036472
 70
   688
 72
     1
 73
     1
 74
     1
  7

 75
     0
147
0.6082341595
148
12.5
149
22.5
100
AcDbLayout
  1
_Isometric
 70
     1
 71
     3
 10
0.0
 20
0.0
 11
0.0
 21
0.0
 12
0.0
 22
0.0
 32
0.0
 14
0.0
 24
0.0
 34
0.0
 15
0.0
 25
0.0
 35
0.0
146
0.0
 13
0.0
 23
0.0
 33
0.0
 16
1.0
 26
0.0
 36
0.0
 17
0.0
 27
1.0
 37
0.0
 76
     0
330
24A
331
2E3
  0
LAYOUT
  5
26
102
{ACAD_REACTORS
330
1A
102
}
330
1A
100
AcDbPlotSettings
  1

  2
none_device
  4
ISO_A4_(210.00_x_297.00_MM)
  6

 40
7.5
 41
20.0
 42
7.5
 43
20.0
 44
210.0
 45
297.0
 46
0.0
 47
0.0
 48
0.0
 49
0.0
140
0.0
141
0.0
142
1.0
143
1.6441036472
 70
   688
 72
     1
 73
     1
 74
     1
  7

 75
     0
147
0.6082341595
148
12.5
149
22.5
100
AcDbLayout
  1
_Left
 70
     1
 71
     2
 10
0.0
 20
0.0
 11
0.0
 21
0.0
 12
0.0
 22
0.0
 32
0.0
 14
0.0
 24
0.0
 34
0.0
 15
0.0
 25
0.0
 35
0.0
146
0.0
 13
0.0
 23
0.0
 33
0.0
 16
1.0
 26
0.0
 36
0.0
 17
0.0
 27
1.0
 37
0.0
 76
     0
330
23
331
2E1
  0
LAYOUT
  5
1E
102
{ACAD_REACTORS
330
1A
102
}
330
1A
100
AcDbPlotSettings
  1

  2
none_device
  4
ISO_A4_(210.00_x_297.00_MM)
  6

 40
7.5
 41
20.0
 42
7.5
 43
20.0
 44
210.0
 45
297.0
 46
0.0
 47
0.0
 48
0.0
 49
0.0
140
0.0
141
0.0
142
1.0
143
1.6441036472
 70
   688
 72
     1
 73
     1
 74
     1
  7

 75
     0
147
0.6082341595
148
12.5
149
22.5
100
AcDbLayout
  1
_Top
 70
     1
 71
     1
 10
-45.3820729446
 20
-34.8307773542
 11
442.9167102827
 21
310.4309885641
 12
0.0
 22
0.0
 32
0.0
 14
-12.5
 24
-22.5
 34
0.0
 15
410.0346373381
 25
22.5
 35
0.0
146
0.0
 13
0.0
 23
0.0
 33
0.0
 16
1.0
 26
0.0
 36
0.0
 17
0.0
 27
1.0
 37
0.0
 76
     0
330
1B
331
2DF
  0
LAYOUT
  5
22
102
{ACAD_REACTORS
330
1A
102
}
330
1A
100
AcDbPlotSettings
  1

  2
none_device
  4
ANSI_A_(11.00_x_8.50_Inches)
  6

 40
6.35
 41
19.05
 42
6.35000508
 43
19.05000254
 44
279.4
 45
215.9
 46
3.230413469
 47
57.970126333
 48
0.0
 49
0.0
140
0.0
141
0.0
142
0.0257745386
143
1.0
 70
  1696
 72
     0
 73
     0
 74
     0
  7

 75
     0
147
0.0179189148
148
-1300.4909072572
149
0.0
100
AcDbLayout
  1
Model
 70
     1
 71
     0
 10
0.0
 20
0.0
 11
420.0
 21
297.0
 12
0.0
 22
0.0
 32
0.0
 14
-12.5
 24
-0.0105094159
 34
0.0
 15
410.0099880311
 25
94.5
 35
0.0
146
0.0
 13
0.0
 23
0.0
 33
0.0
 16
1.0
 26
0.0
 36
0.0
 17
0.0
 27
1.0
 37
0.0
 76
     0
330
1F
331
29
  0
MLINESTYLE
  5
18
102
{ACAD_REACTORS
330
17
102
}
330
17
100
AcDbMlineStyle
  2
Standard
 70
     0
  3

 62
   256
 51
90.0
 52
90.0
 71
     2
 49
0.5
 62
   256
  6
BYLAYER
 49
-0.5
 62
   256
  6
BYLAYER
  0
ACDBPLACEHOLDER
  5
F
102
{ACAD_REACTORS
330
E
102
}
330
E
  0
SCALE
  5
48
102
{ACAD_REACTORS
330
47
102
}
330
47
100
AcDbScale
 70
     0
300
1:1
140
1.0
141
1.0
290
     1
  0
SCALE
  5
49
102
{ACAD_REACTORS
330
47
102
}
330
47
100
AcDbScale
 70
     0
300
1:2
140
1.0
141
2.0
290
     0
  0
SCALE
  5
4A
102
{ACAD_REACTORS
330
47
102
}
330
47
100
AcDbScale
 70
     0
300
1:4
140
1.0
141
4.0
290
     0
  0
SCALE
  5
4B
102
{ACAD_REACTORS
330
47
102
}
330
47
100
AcDbScale
 70
     0
300
1:5
140
1.0
141
5.0
290
     0
  0
SCALE
  5
4C
102
{ACAD_REACTORS
330
47
102
}
330
47
100
AcDbScale
 70
     0
300
1:8
140
1.0
141
8.0
290
     0
  0
SCALE
  5
4D
102
{ACAD_REACTORS
330
47
102
}
330
47
100
AcDbScale
 70
     0
300
1:10
140
1.0
141
10.0
290
     0
  0
SCALE
  5
4E
102
{ACAD_REACTORS
330
47
102
}
330
47
100
AcDbScale
 70
     0
300
1:16
140
1.0
141
16.0
290
     0
  0
SCALE
  5
4F
102
{ACAD_REACTORS
330
47
102
}
330
47
100
AcDbScale
 70
     0
300
1:20
140
1.0
141
20.0
290
     0
  0
SCALE
  5
50
102
{ACAD_REACTORS
330
47
102
}
330
47
100
AcDbScale
 70
     0
300
1:30
140
1.0
141
30.0
290
     0
  0
SCALE
  5
51
102
{ACAD_REACTORS
330
47
102
}
330
47
100
AcDbScale
 70
     0
300
1:40
140
1.0
141
40.0
290
     0
  0
SCALE
  5
52
102
{ACAD_REACTORS
330
47
102
}
330
47
100
AcDbScale
 70
     0
300
1:50
140
1.0
141
50.0
290
     0
  0
SCALE
  5
53
102
{ACAD_REACTORS
330
47
102
}
330
47
100
AcDbScale
 70
     0
300
1:100
140
1.0
141
100.0
290
     0
  0
SCALE
  5
54
102
{ACAD_REACTORS
330
47
102
}
330
47
100
AcDbScale
 70
     0
300
2:1
140
2.0
141
1.0
290
     0
  0
SCALE
  5
55
102
{ACAD_REACTORS
330
47
102
}
330
47
100
AcDbScale
 70
     0
300
4:1
140
4.0
141
1.0
290
     0
  0
SCALE
  5
56
102
{ACAD_REACTORS
330
47
102
}
330
47
100
AcDbScale
 70
     0
300
8:1
140
8.0
141
1.0
290
     0
  0
SCALE
  5
57
102
{ACAD_REACTORS
330
47
102
}
330
47
100
AcDbScale
 70
     0
300
10:1
140
10.0
141
1.0
290
     0
  0
SCALE
  5
58
102
{ACAD_REACTORS
330
47
102
}
330
47
100
AcDbScale
 70
     0
300
100:1
140
100.0
141
1.0
290
     0
  0
SCALE
  5
59
102
{ACAD_REACTORS
330
47
102
}
330
47
100
AcDbScale
 70
     0
300
1/128" = 1'-0"
140
0.0078125
141
12.0
290
     0
  0
SCALE
  5
5A
102
{ACAD_REACTORS
330
47
102
}
330
47
100
AcDbScale
 70
     0
300
1/64" = 1'-0"
140
0.015625
141
12.0
290
     0
  0
SCALE
  5
5B
102
{ACAD_REACTORS
330
47
102
}
330
47
100
AcDbScale
 70
     0
300
1/32" = 1'-0"
140
0.03125
141
12.0
290
     0
  0
SCALE
  5
5C
102
{ACAD_REACTORS
330
47
102
}
330
47
100
AcDbScale
 70
     0
300
1/16" = 1'-0"
140
0.0625
141
12.0
290
     0
  0
SCALE
  5
5D
102
{ACAD_REACTORS
330
47
102
}
330
47
100
AcDbScale
 70
     0
300
3/32" = 1'-0"
140
0.09375
141
12.0
290
     0
  0
SCALE
  5
5E
102
{ACAD_REACTORS
330
47
102
}
330
47
100
AcDbScale
 70
     0
300
1/8" = 1'-0"
140
0.125
141
12.0
290
     0
  0
SCALE
  5
5F
102
{ACAD_REACTORS
330
47
102
}
330
47
100
AcDbScale
 70
     0
300
3/16" = 1'-0"
140
0.1875
141
12.0
290
     0
  0
SCALE
  5
60
102
{ACAD_REACTORS
330
47
102
}
330
47
100
AcDbScale
 70
     0
300
1/4" = 1'-0"
140
0.25
141
12.0
290
     0
  0
SCALE
  5
61
102
{ACAD_REACTORS
330
47
102
}
330
47
100
AcDbScale
 70
     0
300
3/8" = 1'-0"
140
0.375
141
12.0
290
     0
  0
SCALE
  5
62
102
{ACAD_REACTORS
330
47
102
}
330
47
100
AcDbScale
 70
     0
300
1/2" = 1'-0"
140
0.5
141
12.0
290
     0
  0
SCALE
  5
63
102
{ACAD_REACTORS
330
47
102
}
330
47
100
AcDbScale
 70
     0
300
3/4" = 1'-0"
140
0.75
141
12.0
290
     0
  0
SCALE
  5
64
102
{ACAD_REACTORS
330
47
102
}
330
47
100
AcDbScale
 70
     0
300
1" = 1'-0"
140
1.0
141
12.0
290
     0
  0
SCALE
  5
65
102
{ACAD_REACTORS
330
47
102
}
330
47
100
AcDbScale
 70
     0
300
1-1/2" = 1'-0"
140
1.5
141
12.0
290
     0
  0
SCALE
  5
66
102
{ACAD_REACTORS
330
47
102
}
330
47
100
AcDbScale
 70
     0
300
3" = 1'-0"
140
3.0
141
12.0
290
     0
  0
SCALE
  5
67
102
{ACAD_REACTORS
330
47
102
}
330
47
100
AcDbScale
 70
     0
300
6" = 1'-0"
140
6.0
141
12.0
290
     0
  0
SCALE
  5
68
102
{ACAD_REACTORS
330
47
102
}
330
47
100
AcDbScale
 70
     0
300
1'-0" = 1'-0"
140
12.0
141
12.0
290
     0
  0
ENDSEC
  0
EOF
