  0
SECTION
  2
HEADER
  9
$ACADVER
  1
AC1015
  9
$ACADMAINTVER
 70
     6
  9
$DWGCODEPAGE
  3
ANSI_1252
  9
$INSBASE
 10
0.0
 20
0.0
 30
0.0
  9
$EXTMIN
 10
-125.0
 20
-5.0046510314
 30
0.0
  9
$EXTMAX
 10
125.0
 20
54.8
 30
0.0
  9
$LIMMIN
 10
0.0
 20
0.0
  9
$LIMMAX
 10
420.0
 20
297.0
  9
$ORTHOMODE
 70
     0
  9
$REGENMODE
 70
     1
  9
$FILLMODE
 70
     1
  9
$QTEXTMODE
 70
     0
  9
$MIRRTEXT
 70
     1
  9
$LTSCALE
 40
1.0
  9
$ATTMODE
 70
     1
  9
$TEXTSIZE
 40
3.5
  9
$TRACEWID
 40
1.0
  9
$TEXTSTYLE
  7
Standard
  9
$CLAYER
  8
0
  9
$CELTYPE
  6
ByLayer
  9
$CECOLOR
 62
   256
  9
$CELTSCALE
 40
1.0
  9
$DISPSILH
 70
     0
  9
$DIMSCALE
 40
1.0
  9
$DIMASZ
 40
3.302
  9
$DIMEXO
 40
1.0
  9
$DIMDLI
 40
3.75
  9
$DIMRND
 40
0.0
  9
$DIMDLE
 40
0.0
  9
$DIMEXE
 40
1.0
  9
$DIMTP
 40
0.0
  9
$DIMTM
 40
0.0
  9
$DIMTXT
 40
3.5
  9
$DIMCEN
 40
2.5
  9
$DIMTSZ
 40
0.0
  9
$DIMTOL
 70
     0
  9
$DIMLIM
 70
     0
  9
$DIMTIH
 70
     1
  9
$DIMTOH
 70
     1
  9
$DIMSE1
 70
     0
  9
$DIMSE2
 70
     0
  9
$DIMTAD
 70
     1
  9
$DIMZIN
 70
     1
  9
$DIMBLK
  1

  9
$DIMASO
 70
     1
  9
$DIMSHO
 70
     1
  9
$DIMPOST
  1

  9
$DIMAPOST
  1

  9
$DIMALT
 70
     0
  9
$DIMALTD
 70
     3
  9
$DIMALTF
 40
0.0393700787
  9
$DIMLFAC
 40
1.0
  9
$DIMTOFL
 70
     1
  9
$DIMTVP
 40
0.0
  9
$DIMTIX
 70
     0
  9
$DIMSOXD
 70
     0
  9
$DIMSAH
 70
     0
  9
$DIMBLK1
  1

  9
$DIMBLK2
  1

  9
$DIMSTYLE
  2
ISO-25
  9
$DIMCLRD
 70
     0
  9
$DIMCLRE
 70
     0
  9
$DIMCLRT
 70
     0
  9
$DIMTFAC
 40
1.0
  9
$DIMGAP
 40
1.524
  9
$DIMJUST
 70
     0
  9
$DIMSD1
 70
     0
  9
$DIMSD2
 70
     0
  9
$DIMTOLJ
 70
     0
  9
$DIMTZIN
 70
     1
  9
$DIMALTZ
 70
     0
  9
$DIMALTTZ
 70
     0
  9
$DIMUPT
 70
     0
  9
$DIMDEC
 70
     2
  9
$DIMTDEC
 70
     2
  9
$DIMALTU
 70
     2
  9
$DIMALTTD
 70
     3
  9
$DIMTXSTY
  7
Standard
  9
$DIMAUNIT
 70
     0
  9
$DIMADEC
 70
     2
  9
$DIMALTRND
 40
0.0
  9
$DIMAZIN
 70
     0
  9
$DIMDSEP
 70
    44
  9
$DIMATFIT
 70
     3
  9
$DIMFRAC
 70
     0
  9
$DIMLDRBLK
  1

  9
$DIMLUNIT
 70
     2
  9
$DIMLWD
 70
    -2
  9
$DIMLWE
 70
    -2
  9
$DIMTMOVE
 70
     0
  9
$LUNITS
 70
     2
  9
$LUPREC
 70
     2
  9
$SKETCHINC
 40
1.0
  9
$FILLETRAD
 40
10.0
  9
$AUNITS
 70
     0
  9
$AUPREC
 70
     2
  9
$MENU
  1
.
  9
$ELEVATION
 40
0.0
  9
$PELEVATION
 40
0.0
  9
$THICKNESS
 40
0.0
  9
$LIMCHECK
 70
     0
  9
$CHAMFERA
 40
0.0
  9
$CHAMFERB
 40
0.0
  9
$CHAMFERC
 40
0.0
  9
$CHAMFERD
 40
0.0
  9
$SKPOLY
 70
     0
  9
$TDCREATE
 40
2459261.710700254
  9
$TDUCREATE
 40
2459261.710700254
  9
$TDUPDATE
 40
2459261.710723229
  9
$TDUUPDATE
 40
2459261.710723229
  9
$TDINDWG
 40
0.0000000116
  9
$TDUSRTIMER
 40
0.0000000116
  9
$USRTIMER
 70
     1
  9
$ANGBASE
 50
0.0
  9
$ANGDIR
 70
     0
  9
$PDMODE
 70
     0
  9
$PDSIZE
 40
-1.0
  9
$PLINEWID
 40
0.0
  9
$SPLFRAME
 70
     0
  9
$SPLINETYPE
 70
     6
  9
$SPLINESEGS
 70
     8
  9
$HANDSEED
  5
211
  9
$SURFTAB1
 70
     6
  9
$SURFTAB2
 70
     6
  9
$SURFTYPE
 70
     6
  9
$SURFU
 70
     6
  9
$SURFV
 70
     6
  9
$UCSBASE
  2

  9
$UCSNAME
  2

  9
$UCSORG
 10
0.0
 20
0.0
 30
0.0
  9
$UCSXDIR
 10
1.0
 20
0.0
 30
0.0
  9
$UCSYDIR
 10
0.0
 20
1.0
 30
0.0
  9
$UCSORTHOREF
  2

  9
$UCSORTHOVIEW
 70
     0
  9
$UCSORGTOP
 10
0.0
 20
0.0
 30
0.0
  9
$UCSORGBOTTOM
 10
0.0
 20
0.0
 30
0.0
  9
$UCSORGLEFT
 10
0.0
 20
0.0
 30
0.0
  9
$UCSORGRIGHT
 10
0.0
 20
0.0
 30
0.0
  9
$UCSORGFRONT
 10
0.0
 20
0.0
 30
0.0
  9
$UCSORGBACK
 10
0.0
 20
0.0
 30
0.0
  9
$PUCSBASE
  2

  9
$PUCSNAME
  2

  9
$PUCSORG
 10
0.0
 20
0.0
 30
0.0
  9
$PUCSXDIR
 10
1.0
 20
0.0
 30
0.0
  9
$PUCSYDIR
 10
0.0
 20
1.0
 30
0.0
  9
$PUCSORTHOREF
  2

  9
$PUCSORTHOVIEW
 70
     0
  9
$PUCSORGTOP
 10
0.0
 20
0.0
 30
0.0
  9
$PUCSORGBOTTOM
 10
0.0
 20
0.0
 30
0.0
  9
$PUCSORGLEFT
 10
0.0
 20
0.0
 30
0.0
  9
$PUCSORGRIGHT
 10
0.0
 20
0.0
 30
0.0
  9
$PUCSORGFRONT
 10
0.0
 20
0.0
 30
0.0
  9
$PUCSORGBACK
 10
0.0
 20
0.0
 30
0.0
  9
$USERI1
 70
     0
  9
$USERI2
 70
     0
  9
$USERI3
 70
     0
  9
$USERI4
 70
     0
  9
$USERI5
 70
     0
  9
$USERR1
 40
0.0
  9
$USERR2
 40
0.0
  9
$USERR3
 40
0.0
  9
$USERR4
 40
0.0
  9
$USERR5
 40
0.0
  9
$WORLDVIEW
 70
     1
  9
$SHADEDGE
 70
     3
  9
$SHADEDIF
 70
    70
  9
$TILEMODE
 70
     1
  9
$MAXACTVP
 70
    64
  9
$PINSBASE
 10
0.0
 20
0.0
 30
0.0
  9
$PLIMCHECK
 70
     0
  9
$PEXTMIN
 10
-125.0
 20
-125.0
 30
0.0
  9
$PEXTMAX
 10
125.0
 20
125.0
 30
0.0
  9
$PLIMMIN
 10
-150.641025641
 20
-134.6153846154
  9
$PLIMMAX
 10
230.1282051282
 20
134.6153846154
  9
$UNITMODE
 70
     0
  9
$VISRETAIN
 70
     1
  9
$PLINEGEN
 70
     0
  9
$PSLTSCALE
 70
     1
  9
$TREEDEPTH
 70
  3020
  9
$CMLSTYLE
  2
Standard
  9
$CMLJUST
 70
     0
  9
$CMLSCALE
 40
20.0
  9
$PROXYGRAPHICS
 70
     1
  9
$MEASUREMENT
 70
     1
  9
$CELWEIGHT
370
    -1
  9
$ENDCAPS
280
     0
  9
$JOINSTYLE
280
     0
  9
$LWDISPLAY
290
     1
  9
$INSUNITS
 70
     4
  9
$HYPERLINKBASE
  1

  9
$STYLESHEET
  1

  9
$XEDIT
290
     1
  9
$CEPSNTYPE
380
     0
  9
$PSTYLEMODE
290
     1
  9
$FINGERPRINTGUID
  2
{3c11c96d-b9c9-4ae2-811b-59515a9b66e3}
  9
$VERSIONGUID
  2
{FAEB1C32-E019-11D5-929B-00C0DF256EC4}
  9
$EXTNAMES
290
     1
  9
$PSVPSCALE
 40
0.0
  9
$OLESTARTUP
290
     0
  0
ENDSEC
  0
SECTION
  2
CLASSES
  0
CLASS
  1
ACDBDICTIONARYWDFLT
  2
AcDbDictionaryWithDefault
  3
ObjectDBX Classes
 90
        0
280
     0
281
     0
  0
CLASS
  1
VISUALSTYLE
  2
AcDbVisualStyle
  3
ObjectDBX Classes
 90
     4095
280
     0
281
     0
  0
CLASS
  1
MATERIAL
  2
AcDbMaterial
  3
ObjectDBX Classes
 90
     1153
280
     0
281
     0
  0
CLASS
  1
SCALE
  2
AcDbScale
  3
ObjectDBX Classes
 90
     1153
280
     0
281
     0
  0
CLASS
  1
TABLESTYLE
  2
AcDbTableStyle
  3
ObjectDBX Classes
 90
     4095
280
     0
281
     0
  0
CLASS
  1
MLEADERSTYLE
  2
AcDbMLeaderStyle
  3
ACDB_MLEADERSTYLE_CLASS
 90
     4095
280
     0
281
     0
  0
CLASS
  1
SUN
  2
AcDbSun
  3
SCENEOE
 90
     1153
280
     0
281
     0
  0
CLASS
  1
ACDBPLACEHOLDER
  2
AcDbPlaceHolder
  3
ObjectDBX Classes
 90
        0
280
     0
281
     0
  0
CLASS
  1
LAYOUT
  2
AcDbLayout
  3
ObjectDBX Classes
 90
        0
280
     0
281
     0
  0
ENDSEC
  0
SECTION
  2
TABLES
  0
TABLE
  2
VPORT
  5
8
330
0
100
AcDbSymbolTable
 70
     1
  0
VPORT
  5
29
330
8
100
AcDbSymbolTableRecord
100
AcDbViewportTableRecord
  2
*Active
 70
     0
 10
0.0
 20
0.0
 11
1.0
 21
1.0
 12
0.0
 22
24.8976744843
 13
0.0
 23
0.0
 14
10.0
 24
10.0
 15
10.0
 25
10.0
 16
0.0
 26
0.0
 36
1.0
 17
0.0
 27
0.0
 37
0.0
 40
61.000744052
 41
4.1802768796
 42
50.0
 43
0.0
 44
0.0
 50
0.0
 51
0.0
 71
     0
 72
   100
 73
     1
 74
     3
 75
     0
 76
     0
 77
     0
 78
     0
281
     0
 65
     1
110
0.0
120
0.0
130
0.0
111
1.0
121
0.0
131
0.0
112
0.0
122
1.0
132
0.0
 79
     0
146
0.0
  0
ENDTAB
  0
TABLE
  2
LTYPE
  5
5
330
0
100
AcDbSymbolTable
 70
     6
  0
LTYPE
  5
14
330
5
100
AcDbSymbolTableRecord
100
AcDbLinetypeTableRecord
  2
ByBlock
 70
     0
  3

 72
    65
 73
     0
 40
0.0
  0
LTYPE
  5
15
330
5
100
AcDbSymbolTableRecord
100
AcDbLinetypeTableRecord
  2
ByLayer
 70
     0
  3

 72
    65
 73
     0
 40
0.0
  0
LTYPE
  5
16
330
5
100
AcDbSymbolTableRecord
100
AcDbLinetypeTableRecord
  2
Continuous
 70
     0
  3
Solid line
 72
    65
 73
     0
 40
0.0
  0
LTYPE
  5
6E
330
5
100
AcDbSymbolTableRecord
100
AcDbLinetypeTableRecord
  2
HIDDEN
 70
     0
  3
Hidden __ __ __ __ __ __ __ __ __ __ __ __ __ __
 72
    65
 73
     2
 40
1.905
 49
1.27
 74
     0
 49
-0.635
 74
     0
  0
LTYPE
  5
6F
330
5
100
AcDbSymbolTableRecord
100
AcDbLinetypeTableRecord
  2
PHANTOM
 70
     0
  3
Phantom ______  __  __  ______  __  __  ______
 72
    65
 73
     6
 40
12.7
 49
6.35
 74
     0
 49
-1.27
 74
     0
 49
1.27
 74
     0
 49
-1.27
 74
     0
 49
1.27
 74
     0
 49
-1.27
 74
     0
  0
LTYPE
  5
70
330
5
100
AcDbSymbolTableRecord
100
AcDbLinetypeTableRecord
  2
CENTER
 70
     0
  3
Center ____ _ ____ _ ____ _ ____ _ ____ _ ____
 72
    65
 73
     4
 40
10.16
 49
6.35
 74
     0
 49
-1.27
 74
     0
 49
1.27
 74
     0
 49
-1.27
 74
     0
  0
LTYPE
  5
71
330
5
100
AcDbSymbolTableRecord
100
AcDbLinetypeTableRecord
  2
CENTERX2
 70
     0
  3
Center (2x) ________  __  ________  __  _____
 72
    65
 73
     4
 40
20.32
 49
12.7
 74
     0
 49
-2.54
 74
     0
 49
2.54
 74
     0
 49
-2.54
 74
     0
  0
LTYPE
  5
72
330
5
100
AcDbSymbolTableRecord
100
AcDbLinetypeTableRecord
  2
DOT2
 70
     0
  3
Dot (.5x) ........................................
 72
    65
 73
     2
 40
0.635
 49
0.0
 74
     0
 49
-0.635
 74
     0
  0
ENDTAB
  0
TABLE
  2
LAYER
  5
2
330
0
100
AcDbSymbolTable
 70
     1
  0
LAYER
  5
10
330
2
100
AcDbSymbolTableRecord
100
AcDbLayerTableRecord
  2
0
 70
     0
 62
     7
  6
Continuous
370
    -3
390
F
  0
ENDTAB
  0
TABLE
  2
STYLE
  5
3
330
0
100
AcDbSymbolTable
 70
     1
  0
STYLE
  5
11
330
3
100
AcDbSymbolTableRecord
100
AcDbTextStyleTableRecord
  2
Standard
 70
     0
 40
0.0
 41
1.0
 50
0.0
 71
     0
 42
3.5
  3
txt
  4

  0
ENDTAB
  0
TABLE
  2
VIEW
  5
6
330
0
100
AcDbSymbolTable
 70
     0
  0
ENDTAB
  0
TABLE
  2
UCS
  5
7
330
0
100
AcDbSymbolTable
 70
     0
  0
ENDTAB
  0
TABLE
  2
APPID
  5
9
330
0
100
AcDbSymbolTable
 70
     1
  0
APPID
  5
12
330
9
100
AcDbSymbolTableRecord
100
AcDbRegAppTableRecord
  2
ACAD
 70
     0
  0
ENDTAB
  0
TABLE
  2
DIMSTYLE
  5
A
330
0
100
AcDbSymbolTable
 70
     1
100
AcDbDimStyleTable
  0
DIMSTYLE
105
27
330
A
100
AcDbSymbolTableRecord
100
AcDbDimStyleTableRecord
  2
ISO-25
 70
     0
 41
2.5
 42
0.625
 43
3.75
 44
1.25
 73
     0
 74
     0
 77
     1
 78
     8
140
2.5
141
2.5
143
0.0393700787
147
0.625
171
     3
172
     1
178
     0
271
     2
272
     2
274
     3
278
    44
283
     0
284
     8
340
11
  0
ENDTAB
  0
TABLE
  2
BLOCK_RECORD
  5
1
330
0
100
AcDbSymbolTable
 70
     1
  0
BLOCK_RECORD
  5
1F
330
1
100
AcDbSymbolTableRecord
100
AcDbBlockTableRecord
  2
*Model_Space
340
22
  0
BLOCK_RECORD
  5
1B
330
1
100
AcDbSymbolTableRecord
100
AcDbBlockTableRecord
  2
*Paper_Space
340
1E
  0
BLOCK_RECORD
  5
23
330
1
100
AcDbSymbolTableRecord
100
AcDbBlockTableRecord
  2
*Paper_Space0
340
26
  0
ENDTAB
  0
ENDSEC
  0
SECTION
  2
BLOCKS
  0
BLOCK
  5
20
330
1F
100
AcDbEntity
  8
0
100
AcDbBlockBegin
  2
*Model_Space
 70
     0
 10
0.0
 20
0.0
 30
0.0
  3
*Model_Space
  1

  0
ENDBLK
  5
21
330
1F
100
AcDbEntity
  8
0
100
AcDbBlockEnd
  0
BLOCK
  5
1C
330
1B
100
AcDbEntity
 67
     1
  8
0
100
AcDbBlockBegin
  2
*Paper_Space
 70
     0
 10
0.0
 20
0.0
 30
0.0
  3
*Paper_Space
  1

  0
ENDBLK
  5
1D
330
1B
100
AcDbEntity
 67
     1
  8
0
100
AcDbBlockEnd
  0
BLOCK
  5
24
330
23
100
AcDbEntity
  8
0
100
AcDbBlockBegin
  2
*Paper_Space0
 70
     0
 10
0.0
 20
0.0
 30
0.0
  3
*Paper_Space0
  1

  0
ENDBLK
  5
25
330
23
100
AcDbEntity
  8
0
100
AcDbBlockEnd
  0
ENDSEC
  0
SECTION
  2
ENTITIES
  0
SPLINE
  5
7D
330
1F
100
AcDbEntity
  8
0
  6
Continuous
 62
     7
370
    25
100
AcDbSpline
210
0.0
220
0.0
230
1.0
 70
     8
 71
     3
 72
    10
 73
     6
 74
     0
 42
0.000000001
 43
0.00000001
 40
0.0
 40
0.0
 40
0.0
 40
0.0
 40
0.3787535265416136
 40
0.8562884913165004
 40
1.0
 40
1.0
 40
1.0
 40
1.0
 10
1.315154519895388
 20
-5.003640686310731
 30
0.0
 10
1.328694975795124
 20
-4.363611490058698
 30
0.0
 10
1.35930732853014
 20
-2.916629227315462
 30
0.0
 10
1.746856087266636
 20
-1.175868666087841
 30
0.0
 10
2.415316536184238
 20
-0.3525488186123839
 30
0.0
 10
2.569949944522826
 20
-0.1620921440640445
 30
0.0
  0
SPLINE
  5
7E
330
1F
100
AcDbEntity
  8
0
  6
Continuous
 62
     7
370
    25
100
AcDbSpline
210
0.0
220
0.0
230
1.0
 70
     8
 71
     3
 72
    10
 73
     6
 74
     0
 42
0.000000001
 43
0.00000001
 40
0.0
 40
0.0
 40
0.0
 40
0.0
 40
0.1413631861067772
 40
0.6201400706195545
 40
1.0
 40
1.0
 40
1.0
 40
1.0
 10
-2.561618286260731
 20
-0.1731474684622571
 30
0.0
 10
-2.41001134376598
 20
-0.3600695833417822
 30
0.0
 10
-1.744933379591524
 20
-1.18007015572694
 30
0.0
 10
-1.359510919253561
 20
-2.916981118727287
 30
0.0
 10
-1.328737029377332
 20
-4.364067730304476
 30
0.0
 10
-1.315122696232051
 20
-5.004257166847152
 30
0.0
  0
SPLINE
  5
83
330
1F
100
AcDbEntity
  8
0
  6
Continuous
 62
     7
370
    25
100
AcDbSpline
210
0.0
220
0.0
230
1.0
 70
     8
 71
     3
 72
    10
 73
     6
 74
     0
 42
0.000000001
 43
0.00000001
 40
0.0
 40
0.0
 40
0.0
 40
0.0
 40
0.380480765640019
 40
0.859953776780698
 40
1.0
 40
1.0
 40
1.0
 40
1.0
 10
19.56333818411144
 20
-5.004604721423757
 30
0.0
 10
19.57699412814843
 20
-4.364324921541925
 30
0.0
 10
19.60785897523304
 20
-2.917179410313338
 30
0.0
 10
19.99209187825667
 20
-1.182416041663938
 30
0.0
 10
20.65528048434118
 20
-0.3642691714637394
 30
0.0
 10
20.80519844396701
 20
-0.1793219206675627
 30
0.0
  0
SPLINE
  5
84
330
1F
100
AcDbEntity
  8
0
  6
Continuous
 62
     7
370
    25
100
AcDbSpline
210
0.0
220
0.0
230
1.0
 70
     8
 71
     3
 72
    10
 73
     6
 74
     0
 42
0.000000001
 43
0.00000001
 40
0.0
 40
0.0
 40
0.0
 40
0.0
 40
0.1412229981340363
 40
0.6200739959946255
 40
0.9999999999999999
 40
0.9999999999999999
 40
0.9999999999999999
 40
0.9999999999999999
 10
15.68711112827766
 20
-0.1738055943924649
 30
0.0
 10
15.83853799949067
 20
-0.3605172386507288
 30
0.0
 10
16.50341458740235
 20
-1.180320223176403
 30
0.0
 10
16.88871032350953
 20
-2.917002194109161
 30
0.0
 10
16.91949388305818
 20
-4.364095062539725
 30
0.0
 10
16.93311263943261
 20
-5.004294101094452
 30
0.0
  0
SPLINE
  5
85
330
1F
100
AcDbEntity
  8
0
  6
Continuous
 62
     7
370
    25
100
AcDbSpline
210
0.0
220
0.0
230
1.0
 70
     8
 71
     3
 72
    10
 73
     6
 74
     0
 42
0.000000001
 43
0.00000001
 40
0.0
 40
0.0
 40
0.0
 40
0.0
 40
0.380513511341112
 40
0.8600232243451466
 40
1.0
 40
1.0
 40
1.0
 40
1.0
 10
-16.93312962211829
 20
-5.004623085321558
 30
0.0
 10
-16.91947148019555
 20
-4.364338510412406
 30
0.0
 10
-16.88860182930312
 20
-2.917189885726142
 30
0.0
 10
-16.50443159816633
 20
-1.182539541973119
 30
0.0
 10
-15.84134247348771
 20
-0.3644902687916507
 30
0.0
 10
-15.69151341451138
 20
-0.1796470128319697
 30
0.0
  0
SPLINE
  5
86
330
1F
100
AcDbEntity
  8
0
  6
Continuous
 62
     7
370
    25
100
AcDbSpline
210
0.0
220
0.0
230
1.0
 70
     8
 71
     3
 72
    10
 73
     6
 74
     0
 42
0.000000001
 43
0.00000001
 40
0.0
 40
0.0
 40
0.0
 40
0.0
 40
0.1410158584901257
 40
0.6199763598386672
 40
1.0
 40
1.0
 40
1.0
 40
1.0
 10
-20.808623154958
 20
-0.1747776522655897
 30
0.0
 10
-20.65746223101532
 20
-0.361178417652111
 30
0.0
 10
-19.9928830809873
 20
-1.180689565070805
 30
0.0
 10
-19.60777454777877
 20
-2.917033348894364
 30
0.0
 10
-19.57697669498523
 20
-4.364135467989104
 30
0.0
 10
-19.56335140021881
 20
-5.004348701747902
 30
0.0
  0
SPLINE
  5
8B
330
1F
100
AcDbEntity
  8
0
  6
Continuous
 62
     7
370
    25
100
AcDbSpline
210
0.0
220
0.0
230
1.0
 70
     8
 71
     3
 72
    10
 73
     6
 74
     0
 42
0.000000001
 43
0.00000001
 40
0.0
 40
0.0
 40
0.0
 40
0.0
 40
0.37858024996239
 40
0.8559205586702279
 40
0.9999999999999999
 40
0.9999999999999999
 40
0.9999999999999999
 40
0.9999999999999999
 10
-34.48003799496144
 20
-5.00354447678791
 30
0.0
 10
-34.46650907702226
 20
-4.36354028276325
 30
0.0
 10
-34.43592195843414
 20
-2.916574289805882
 30
0.0
 10
-34.04803944968759
 20
-1.175208227829367
 30
0.0
 10
-33.37904746061183
 20
-0.3513667010220933
 30
0.0
 10
-33.22393814515429
 20
-0.1603547048319581
 30
0.0
  0
SPLINE
  5
8C
330
1F
100
AcDbEntity
  8
0
  6
Continuous
 62
     7
370
    25
100
AcDbSpline
210
0.0
220
0.0
230
1.0
 70
     8
 71
     3
 72
    10
 73
     6
 74
     0
 42
0.000000001
 43
0.00000001
 40
0.0
 40
0.0
 40
0.0
 40
0.0
 40
0.1415980870453885
 40
0.6202507797205622
 40
1.0
 40
1.0
 40
1.0
 40
1.0
 10
-38.35764719792496
 20
-0.1720442387658991
 30
0.0
 10
-38.20573837429919
 20
-0.3593191552120553
 30
0.0
 10
-37.54032284315492
 20
-1.179650950447378
 30
0.0
 10
-37.15468798927247
 20
-2.916945821814246
 30
0.0
 10
-37.12393029533201
 20
-4.364021956230459
 30
0.0
 10
-37.11032337051599
 20
-5.004195312599244
 30
0.0
  0
SPLINE
  5
8D
330
1F
100
AcDbEntity
  8
0
  6
Continuous
 62
     7
370
    25
100
AcDbSpline
210
0.0
220
0.0
230
1.0
 70
     8
 71
     3
 72
    10
 73
     6
 74
     0
 42
0.000000001
 43
0.00000001
 40
0.0
 40
0.0
 40
0.0
 40
0.0
 40
0.378919135803566
 40
0.8566401038227536
 40
1.0
 40
1.0
 40
1.0
 40
1.0
 10
37.11034724993672
 20
-5.003732724770435
 30
0.0
 10
37.12389874138166
 20
-4.363679608864465
 30
0.0
 10
37.15453522801285
 20
-2.916681777786312
 30
0.0
 10
37.54176519408145
 20
-1.176499263298776
 30
0.0
 10
38.2097180800386
 20
-0.3536775445630719
 30
0.0
 10
38.36389712805355
 20
-0.1637511710900243
 30
0.0
  0
SPLINE
  5
8E
330
1F
100
AcDbEntity
  8
0
  6
Continuous
 62
     7
370
    25
100
AcDbSpline
210
0.0
220
0.0
230
1.0
 70
     8
 71
     3
 72
    10
 73
     6
 74
     0
 42
0.000000001
 43
0.00000001
 40
0.0
 40
0.0
 40
0.0
 40
0.0
 40
0.1411452536510355
 40
0.6200373515403049
 40
1.0
 40
1.0
 40
1.0
 40
1.0
 10
33.23435017343375
 20
-0.1741704840478274
 30
0.0
 10
33.38567721100292
 20
-0.3607654327151683
 30
0.0
 10
34.05044214757532
 20
-1.180458867597083
 30
0.0
 10
34.43566761599473
 20
-2.917013885265572
 30
0.0
 10
34.46645653936303
 20
-4.364110224911
 30
0.0
 10
34.48007774937087
 20
-5.00431459023053
 30
0.0
  0
SPLINE
  5
93
330
1F
100
AcDbEntity
  8
0
  6
Continuous
 62
     7
370
    25
100
AcDbSpline
210
0.0
220
0.0
230
1.0
 70
     8
 71
     3
 72
    10
 73
     6
 74
     0
 42
0.000000001
 43
0.00000001
 40
0.0
 40
0.0
 40
0.0
 40
0.0
 40
0.3805380788259539
 40
0.8600753264463749
 40
1.0
 40
1.0
 40
1.0
 40
1.0
 10
-50.65146907281672
 20
-5.004636864967379
 30
0.0
 10
-50.63780928173987
 20
-4.364348707008848
 30
0.0
 10
-50.60693602641186
 20
-2.917197745993454
 30
0.0
 10
-50.22281281018643
 20
-1.182632182924637
 30
0.0
 10
-49.55979831022436
 20
-0.3646561204450824
 30
0.0
 10
-49.41003593694937
 20
-0.1798908756335746
 30
0.0
  0
SPLINE
  5
94
330
1F
100
AcDbEntity
  8
0
  6
Continuous
 62
     7
370
    25
100
AcDbSpline
210
0.0
220
0.0
230
1.0
 70
     8
 71
     3
 72
    10
 73
     6
 74
     0
 42
0.000000001
 43
0.00000001
 40
0.0
 40
0.0
 40
0.0
 40
0.0
 40
0.1408257821646894
 40
0.6198867610103577
 40
1.0
 40
1.0
 40
1.0
 40
1.0
 10
-54.52628996546768
 20
-0.1756692383811792
 30
0.0
 10
-54.37537295177047
 20
-0.3617848485098218
 30
0.0
 10
-53.71106661976143
 20
-1.181028320569429
 30
0.0
 10
-53.32612982331917
 20
-2.917061952070733
 30
0.0
 10
-53.29531884900985
 20
-4.364172565713999
 30
0.0
 10
-53.28168755165708
 20
-5.004398833110757
 30
0.0
  0
SPLINE
  5
95
330
1F
100
AcDbEntity
  8
0
  6
Continuous
 62
     7
370
    25
100
AcDbSpline
210
0.0
220
0.0
230
1.0
 70
     8
 71
     3
 72
    10
 73
     6
 74
     0
 42
0.000000001
 43
0.00000001
 40
0.0
 40
0.0
 40
0.0
 40
0.0
 40
0.3804398511113331
 40
0.8598670025326686
 40
1.0
 40
1.0
 40
1.0
 40
1.0
 10
53.28167810762002
 20
-5.004581780959888
 30
0.0
 10
53.29533130594477
 20
-4.364307946053823
 30
0.0
 10
53.32619015178906
 20
-2.917166324027321
 30
0.0
 10
53.7105013708366
 20
-1.182261699979609
 30
0.0
 10
54.37381429937971
 20
-0.3639928612731505
 30
0.0
 10
54.52384336290536
 20
-0.1789156491449478
 30
0.0
  0
SPLINE
  5
96
330
1F
100
AcDbEntity
  8
0
  6
Continuous
 62
     7
370
    25
100
AcDbSpline
210
0.0
220
0.0
230
1.0
 70
     8
 71
     3
 72
    10
 73
     6
 74
     0
 42
0.000000001
 43
0.00000001
 40
0.0
 40
0.0
 40
0.0
 40
0.0
 40
0.1414471445822024
 40
0.6201796412819989
 40
1.0
 40
1.0
 40
1.0
 40
1.0
 10
49.40465676207396
 20
-0.172753218098131
 30
0.0
 10
49.55637158140986
 20
-0.3598014123022686
 30
0.0
 10
50.22157017916746
 20
-1.179920350203853
 30
0.0
 10
50.60706854576117
 20
-2.916968500394697
 30
0.0
 10
50.63783664592733
 20
-4.364051366218785
 30
0.0
 10
50.65144833071579
 20
-5.004235054064665
 30
0.0
  0
SPLINE
  5
97
330
1F
100
AcDbEntity
  8
0
  6
Continuous
 62
     7
370
    25
100
AcDbSpline
210
0.0
220
0.0
230
1.0
 70
     8
 71
     3
 72
    10
 73
     6
 74
     0
 42
0.000000001
 43
0.00000001
 40
0.0
 40
0.0
 40
0.0
 40
0.0
 40
0.3805072693686837
 40
0.8600099868184687
 40
1.0
 40
1.0
 40
1.0
 40
1.0
 10
20.34585581653131
 20
-5.004619582925373
 30
0.0
 10
20.3595135394827
 20
-4.364335918873759
 30
0.0
 10
20.39038227467109
 20
-2.917187888312568
 30
0.0
 10
20.77456445121741
 20
-1.182516003113438
 30
0.0
 10
21.43767253699277
 20
-0.3644481280510002
 30
0.0
 10
21.58751854014744
 20
-0.1795850506478638
 30
0.0
  0
SPLINE
  5
98
330
1F
100
AcDbEntity
  8
0
  6
Continuous
 62
     7
370
    25
100
AcDbSpline
210
0.0
220
0.0
230
1.0
 70
     8
 71
     3
 72
    10
 73
     6
 74
     0
 42
0.000000001
 43
0.00000001
 40
0.0
 40
0.0
 40
0.0
 40
0.0
 40
0.1432161651803468
 40
0.621013161963468
 40
1.0
 40
1.0
 40
1.0
 40
1.0
 10
-21.59894066792691
 20
-0.1644289646850622
 30
0.0
 10
-21.44494722894489
 20
-0.3541386725719117
 30
0.0
 10
-20.7772017105292
 20
-1.176756883313843
 30
0.0
 10
-20.39010201652378
 20
-2.916703272676454
 30
0.0
 10
-20.3594556591287
 20
-4.363707472798503
 30
0.0
 10
-20.3458996539679
 20
-5.003770373314443
 30
0.0
  0
SPLINE
  5
9F
330
1F
100
AcDbEntity
  8
0
  6
Continuous
 62
     7
370
    25
100
AcDbSpline
210
0.0
220
0.0
230
1.0
 70
     8
 71
     3
 72
    10
 73
     6
 74
     0
 42
0.000000001
 43
0.00000001
 40
0.0
 40
0.0
 40
0.0
 40
0.0
 40
0.3790770291240863
 40
0.856975298353945
 40
0.9999999999999999
 40
0.9999999999999999
 40
0.9999999999999999
 40
0.9999999999999999
 10
67.45604586520035
 20
-5.003820553278113
 30
0.0
 10
67.46960788542611
 20
-4.363744610595983
 30
0.0
 10
67.5002673963865
 20
-2.916731919754077
 30
0.0
 10
67.8871935947785
 20
-1.177099919224871
 30
0.0
 10
68.55466298107594
 20
-0.3547526965446725
 30
0.0
 10
68.70840928184234
 20
-0.1653315095536678
 30
0.0
  0
SPLINE
  5
A0
330
1F
100
AcDbEntity
  8
0
  6
Continuous
 62
     7
370
    25
100
AcDbSpline
210
0.0
220
0.0
230
1.0
 70
     8
 71
     3
 72
    10
 73
     6
 74
     0
 42
0.000000001
 43
0.00000001
 40
0.0
 40
0.0
 40
0.0
 40
0.0
 40
0.140944349213132
 40
0.6199426521749748
 40
1.0
 40
1.0
 40
1.0
 40
1.0
 10
63.58076372680863
 20
-0.1751131236138424
 30
0.0
 10
63.73183287390073
 20
-0.3614065968756824
 30
0.0
 10
64.39630937283773
 20
-1.180817027599583
 30
0.0
 10
64.78135329137599
 20
-2.917044108121627
 30
0.0
 10
64.81215607999623
 20
-4.36414942232487
 30
0.0
 10
64.82578363269076
 20
-5.004367558642139
 30
0.0
  0
SPLINE
  5
A1
330
1F
100
AcDbEntity
  8
0
  6
Continuous
 62
     7
370
    25
100
AcDbSpline
210
0.0
220
0.0
230
1.0
 70
     8
 71
     3
 72
    10
 73
     6
 74
     0
 42
0.000000001
 43
0.00000001
 40
0.0
 40
0.0
 40
0.0
 40
0.0
 40
0.3783993570979503
 40
0.8555364086423572
 40
0.9999999999999999
 40
0.9999999999999999
 40
0.9999999999999999
 40
0.9999999999999999
 10
-64.82573596425595
 20
-5.003444136918008
 30
0.0
 10
-64.81221908219645
 20
-4.363466016891859
 30
0.0
 10
-64.78165828837821
 20
-2.91651698765466
 30
0.0
 10
-64.39342714301897
 20
-1.174518054633065
 30
0.0
 10
-63.72387972764644
 20
-0.3501313846048342
 30
0.0
 10
-63.56827302853274
 20
-0.1585391454725915
 30
0.0
  0
SPLINE
  5
A2
330
1F
100
AcDbEntity
  8
0
  6
Continuous
 62
     7
370
    25
100
AcDbSpline
210
0.0
220
0.0
230
1.0
 70
     8
 71
     3
 72
    10
 73
     6
 74
     0
 42
0.000000001
 43
0.00000001
 40
0.0
 40
0.0
 40
0.0
 40
0.0
 40
0.1418498921636998
 40
0.6203694467848992
 40
1.0
 40
1.0
 40
1.0
 40
1.0
 10
-68.70424209707075
 20
-0.170860970547318
 30
0.0
 10
-68.55200945764251
 20
-0.3585142638191547
 30
0.0
 10
-67.88623187498696
 20
-1.179201315171081
 30
0.0
 10
-67.50036926966024
 20
-2.916908008873068
 30
0.0
 10
-67.46962892788544
 20
-4.363972921798625
 30
0.0
 10
-67.4560299399608
 20
-5.004129053477261
 30
0.0
  0
SPLINE
  5
A3
330
1F
100
AcDbEntity
  8
0
  6
Continuous
 62
     7
370
    25
100
AcDbSpline
210
0.0
220
0.0
230
1.0
 70
     8
 71
     3
 72
    10
 73
     6
 74
     0
 42
0.000000001
 43
0.00000001
 40
0.0
 40
0.0
 40
0.0
 40
0.0
 40
0.3797970012939421
 40
0.858503296527777
 40
1.0
 40
1.0
 40
1.0
 40
1.0
 10
38.07971388155779
 20
-5.00422200212115
 30
0.0
 10
38.09332400331529
 20
-4.364041707520077
 30
0.0
 10
38.1240886864359
 20
-2.916961052815831
 30
0.0
 10
38.50963186271672
 20
-1.179831909204645
 30
0.0
 10
39.17490167818334
 20
-0.359643092096542
 30
0.0
 10
39.32668018619522
 20
-0.1725204659762149
 30
0.0
  0
SPLINE
  5
A4
330
1F
100
AcDbEntity
  8
0
  6
Continuous
 62
     7
370
    25
100
AcDbSpline
210
0.0
220
0.0
230
1.0
 70
     8
 71
     3
 72
    10
 73
     6
 74
     0
 42
0.000000001
 43
0.00000001
 40
0.0
 40
0.0
 40
0.0
 40
0.0
 40
0.1399158826782847
 40
0.6194577762150539
 40
1.0
 40
1.0
 40
1.0
 40
1.0
 10
-39.32109459476191
 20
-0.1799320186574235
 30
0.0
 10
-39.17134347211672
 20
-0.3646841018482838
 30
0.0
 10
-38.5083415623708
 20
-1.182647812713475
 30
0.0
 10
-38.12422627857789
 20
-2.917199071799704
 30
0.0
 10
-38.09335241501385
 20
-4.364350426440209
 30
0.0
 10
-38.07969234565449
 20
-5.004639188384997
 30
0.0
  0
SPLINE
  5
AD
330
1F
100
AcDbEntity
  8
0
  6
Continuous
 62
     7
370
    25
100
AcDbSpline
210
0.0
220
0.0
230
1.0
 70
     8
 71
     3
 72
    10
 73
     6
 74
     0
 42
0.000000001
 43
0.00000001
 40
0.0
 40
0.0
 40
0.0
 40
0.0
 40
0.3803907794908605
 40
0.8597629250937449
 40
1.0
 40
1.0
 40
1.0
 40
1.0
 10
79.08857873240491
 20
-5.004554273531418
 30
0.0
 10
79.10222863824184
 20
-4.364287591008019
 30
0.0
 10
79.13308028765705
 20
-2.917150632159592
 30
0.0
 10
79.51748545114397
 20
-1.182076539481689
 30
0.0
 10
80.18094752360304
 20
-0.3636613793415178
 30
0.0
 10
80.33110987960615
 20
-0.1784282609210326
 30
0.0
  0
SPLINE
  5
AE
330
1F
100
AcDbEntity
  8
0
  6
Continuous
 62
     7
370
    25
100
AcDbSpline
210
0.0
220
0.0
230
1.0
 70
     8
 71
     3
 72
    10
 73
     6
 74
     0
 42
0.000000001
 43
0.00000001
 40
0.0
 40
0.0
 40
0.0
 40
0.0
 40
0.1416882365292457
 40
0.6202932651317375
 40
1.0
 40
1.0
 40
1.0
 40
1.0
 10
75.21070245648642
 20
-0.1716206904053379
 30
0.0
 10
75.36272718532382
 20
-0.359031048443103
 30
0.0
 10
76.02827231271938
 20
-1.179490006465052
 30
0.0
 10
76.41398869583068
 20
-2.916932281433408
 30
0.0
 10
76.4447401763619
 20
-4.364004397265455
 30
0.0
 10
76.45834425912277
 20
-5.004171585467131
 30
0.0
  0
SPLINE
  5
AF
330
1F
100
AcDbEntity
  8
0
  6
Continuous
 62
     7
370
    25
100
AcDbSpline
210
0.0
220
0.0
230
1.0
 70
     8
 71
     3
 72
    10
 73
     6
 74
     0
 42
0.000000001
 43
0.00000001
 40
0.0
 40
0.0
 40
0.0
 40
0.0
 40
0.3805544610677127
 40
0.8601100690171063
 40
1.0
 40
1.0
 40
1.0
 40
1.0
 10
-76.45836875191438
 20
-5.004646054610033
 30
0.0
 10
-76.44470786102356
 20
-4.36435550710355
 30
0.0
 10
-76.41383220192868
 20
-2.917202987956467
 30
0.0
 10
-76.02974033433397
 20
-1.182693951058234
 30
0.0
 10
-75.3667755907048
 20
-0.3647667018979693
 30
0.0
 10
-75.2170576794414
 20
-0.1800534716900684
 30
0.0
  0
SPLINE
  5
B0
330
1F
100
AcDbEntity
  8
0
  6
Continuous
 62
     7
370
    25
100
AcDbSpline
210
0.0
220
0.0
230
1.0
 70
     8
 71
     3
 72
    10
 73
     6
 74
     0
 42
0.000000001
 43
0.00000001
 40
0.0
 40
0.0
 40
0.0
 40
0.0
 40
0.1406528209499859
 40
0.6198052253506141
 40
1.0
 40
1.0
 40
1.0
 40
1.0
 10
-80.33257799322884
 20
-0.1764802126598651
 30
0.0
 10
-80.18188281974852
 20
-0.3623364391681094
 30
0.0
 10
-79.51782464212108
 20
-1.181336439137672
 30
0.0
 10
-79.13304408136258
 20
-2.917087992045153
 30
0.0
 10
-79.10222116222802
 20
-4.364206340256298
 30
0.0
 10
-79.08858440041617
 20
-5.004444474158525
 30
0.0
  0
SPLINE
  5
B1
330
1F
100
AcDbEntity
  8
0
  6
Continuous
 62
     7
370
    25
100
AcDbSpline
210
0.0
220
0.0
230
1.0
 70
     8
 71
     3
 72
    10
 73
     6
 74
     0
 42
0.000000001
 43
0.00000001
 40
0.0
 40
0.0
 40
0.0
 40
0.0
 40
0.3789191347525766
 40
0.8566401024990474
 40
1.0
 40
1.0
 40
1.0
 40
1.0
 10
21.80817975456545
 20
-5.003732720595629
 30
0.0
 10
21.82173124597454
 20
-4.363679606077531
 30
0.0
 10
21.85236773256229
 20
-2.916681776359478
 30
0.0
 10
22.2395976994772
 20
-1.17649926120492
 30
0.0
 10
22.90755058717928
 20
-0.3536775407559992
 30
0.0
 10
23.0617296367597
 20
-0.1637511654552191
 30
0.0
  0
SPLINE
  5
B2
330
1F
100
AcDbEntity
  8
0
  6
Continuous
 62
     7
370
    25
100
AcDbSpline
210
0.0
220
0.0
230
1.0
 70
     8
 71
     3
 72
    10
 73
     6
 74
     0
 42
0.000000001
 43
0.00000001
 40
0.0
 40
0.0
 40
0.0
 40
0.0
 40
0.1415980883832999
 40
0.6202507807823241
 40
1.0
 40
1.0
 40
1.0
 40
1.0
 10
-23.055479706522
 20
-0.1720442330745177
 30
0.0
 10
-22.90357088132151
 20
-0.3593191513679012
 30
0.0
 10
-22.23815534842762
 20
-1.17965094834797
 30
0.0
 10
-21.85252049355531
 20
-2.916945820364333
 30
0.0
 10
-21.82176279971136
 20
-4.364021953433213
 30
0.0
 10
-21.80815587495489
 20
-5.004195308413829
 30
0.0
  0
SPLINE
  5
B5
330
1F
100
AcDbEntity
  8
0
  6
Continuous
 62
     7
370
    25
100
AcDbSpline
210
0.0
220
0.0
230
1.0
 70
     8
 71
     3
 72
    10
 73
     6
 74
     0
 42
0.000000001
 43
0.00000001
 40
0.0
 40
0.0
 40
0.0
 40
0.0
 40
0.3790770280700443
 40
0.8569752970228383
 40
1.0
 40
1.0
 40
1.0
 40
1.0
 10
39.18132716075915
 20
-5.003820549101288
 30
0.0
 10
39.19488918094392
 20
-4.36374460780856
 30
0.0
 10
39.22554869184923
 20
-2.91673191833176
 30
0.0
 10
39.61247489105617
 20
-1.177099917111915
 30
0.0
 10
40.27994427911787
 20
-0.3547526927198535
 30
0.0
 10
40.43369058146057
 20
-0.1653315038931749
 30
0.0
  0
SPLINE
  5
B6
330
1F
100
AcDbEntity
  8
0
  6
Continuous
 62
     7
370
    25
100
AcDbSpline
210
0.0
220
0.0
230
1.0
 70
     8
 71
     3
 72
    10
 73
     6
 74
     0
 42
0.000000001
 43
0.00000001
 40
0.0
 40
0.0
 40
0.0
 40
0.0
 40
0.1418498934970281
 40
0.6203694478443241
 40
1.0
 40
1.0
 40
1.0
 40
1.0
 10
-40.42952339665003
 20
-0.1708609648749873
 30
0.0
 10
-40.2772907556522
 20
-0.3585142599878618
 30
0.0
 10
-39.61151317125321
 20
-1.179201313078821
 30
0.0
 10
-39.2256505649337
 20
-2.916908007423741
 30
0.0
 10
-39.19491022327237
 20
-4.363972919003107
 30
0.0
 10
-39.18131123541474
 20
-5.00412904929437
 30
0.0
  0
SPLINE
  5
B9
330
1F
100
AcDbEntity
  8
0
  6
Continuous
 62
     7
370
    25
100
AcDbSpline
210
0.0
220
0.0
230
1.0
 70
     8
 71
     3
 72
    10
 73
     6
 74
     0
 42
0.000000001
 43
0.00000001
 40
0.0
 40
0.0
 40
0.0
 40
0.0
 40
0.1402136327221526
 40
0.6195981680649617
 40
1.0
 40
1.0
 40
1.0
 40
1.0
 10
61.12058094202201
 20
-0.1785380494682583
 30
0.0
 10
61.27071327221084
 20
-0.3637360489445601
 30
0.0
 10
61.93414174878883
 20
-1.18211824885658
 30
0.0
 10
62.31852575115094
 20
-2.917154165670493
 30
0.0
 10
62.34937902134489
 20
-4.36429217409012
 30
0.0
 10
62.36302966870291
 20
-5.00456046679236
 30
0.0
  0
SPLINE
  5
BA
330
1F
100
AcDbEntity
  8
0
  6
Continuous
 62
     7
370
    25
100
AcDbSpline
210
0.0
220
0.0
230
1.0
 70
     8
 71
     3
 72
    10
 73
     6
 74
     0
 42
0.000000001
 43
0.00000001
 40
0.0
 40
0.0
 40
0.0
 40
0.0
 40
0.3801782101421133
 40
0.8593120420073119
 40
1.0
 40
1.0
 40
1.0
 40
1.0
 10
-62.36302320219792
 20
-5.004435198616617
 30
0.0
 10
-62.34938755067537
 20
-4.364199476486624
 30
0.0
 10
-62.31856705849209
 20
-2.917082700530687
 30
0.0
 10
-61.93375476146061
 20
-1.181273855424058
 30
0.0
 10
-61.269646178972
 20
-0.3622244019859701
 30
0.0
 10
-61.11890594704634
 20
-0.1763154891585364
 30
0.0
  0
SPLINE
  5
C1
330
1F
100
AcDbEntity
  8
0
  6
Continuous
 62
     7
370
    25
100
AcDbSpline
210
0.0
220
0.0
230
1.0
 70
     8
 71
     3
 72
    10
 73
     6
 74
     0
 42
0.000000001
 43
0.00000001
 40
0.0
 40
0.0
 40
0.0
 40
0.0
 40
0.3792271602287933
 40
0.857293981835418
 40
1.0
 40
1.0
 40
1.0
 40
1.0
 10
87.73239214749964
 20
-5.003904134742665
 30
0.0
 10
87.74596418560115
 20
-4.363806467997732
 30
0.0
 10
87.77664560245601
 20
-2.916779632798874
 30
0.0
 10
88.16328312198962
 20
-1.177670538999431
 30
0.0
 10
88.83029315352174
 20
-0.3557741020953215
 30
0.0
 10
88.98362838273518
 20
-0.1668328979384653
 30
0.0
  0
SPLINE
  5
C2
330
1F
100
AcDbEntity
  8
0
  6
Continuous
 62
     7
370
    25
100
AcDbSpline
210
0.0
220
0.0
230
1.0
 70
     8
 71
     3
 72
    10
 73
     6
 74
     0
 42
0.000000001
 43
0.00000001
 40
0.0
 40
0.0
 40
0.0
 40
0.0
 40
0.1407605275767286
 40
0.6198559998555307
 40
1.0
 40
1.0
 40
1.0
 40
1.0
 10
83.85776404193417
 20
-0.1759752386978168
 30
0.0
 10
84.00859734800059
 20
-0.3619929782413788
 30
0.0
 10
84.67281004564312
 20
-1.181144582179411
 30
0.0
 10
85.05768789351033
 20
-2.917071775020343
 30
0.0
 10
85.08850337383892
 20
-4.364185306205661
 30
0.0
 10
85.10213673256422
 20
-5.00441604986147
 30
0.0
  0
SPLINE
  5
C3
330
1F
100
AcDbEntity
  8
0
  6
Continuous
 62
     7
370
    25
100
AcDbSpline
210
0.0
220
0.0
230
1.0
 70
     8
 71
     3
 72
    10
 73
     6
 74
     0
 42
0.000000001
 43
0.00000001
 40
0.0
 40
0.0
 40
0.0
 40
0.0
 40
0.3781839555174812
 40
0.8551298709854203
 40
0.9999999999999999
 40
0.9999999999999999
 40
0.9999999999999999
 40
0.9999999999999999
 10
-85.102069765129
 20
-5.003118769134965
 30
0.0
 10
-85.08856582148299
 20
-4.363240943768147
 30
0.0
 10
-85.05803140716073
 20
-2.916382518736247
 30
0.0
 10
-84.66944850235375
 20
-1.17379821057401
 30
0.0
 10
-83.999322139998
 20
-0.3488430634802607
 30
0.0
 10
-83.84319671764526
 20
-0.1566457735403225
 30
0.0
  0
SPLINE
  5
C4
330
1F
100
AcDbEntity
  8
0
  6
Continuous
 62
     7
370
    25
100
AcDbSpline
210
0.0
220
0.0
230
1.0
 70
     8
 71
     3
 72
    10
 73
     6
 74
     0
 42
0.000000001
 43
0.00000001
 40
0.0
 40
0.0
 40
0.0
 40
0.0
 40
0.1421185324151705
 40
0.6204960374008143
 40
1.0
 40
1.0
 40
1.0
 40
1.0
 10
-88.98154462097563
 20
-0.1695978530774425
 30
0.0
 10
-88.82896627592112
 20
-0.3576550337006968
 30
0.0
 10
-88.16280221631108
 20
-1.178721318290631
 30
0.0
 10
-87.77669654871954
 20
-2.916867695284195
 30
0.0
 10
-87.74597470869159
 20
-4.363920647488258
 30
0.0
 10
-87.7323841831126
 20
-5.004058417334638
 30
0.0
  0
SPLINE
  5
C5
330
1F
100
AcDbEntity
  8
0
  6
Continuous
 62
     7
370
    25
100
AcDbSpline
210
0.0
220
0.0
230
1.0
 70
     8
 71
     3
 72
    10
 73
     6
 74
     0
 42
0.000000001
 43
0.00000001
 40
0.0
 40
0.0
 40
0.0
 40
0.0
 40
0.3781839544618997
 40
0.8551298696528884
 40
1.0
 40
1.0
 40
1.0
 40
1.0
 10
-48.15936946279463
 20
-5.003118764955107
 30
0.0
 10
-48.14586551920213
 20
-4.363240940976977
 30
0.0
 10
-48.11533110496318
 20
-2.916382517301263
 30
0.0
 10
-47.72674819925059
 20
-1.173798208461096
 30
0.0
 10
-47.0566218351338
 20
-0.3488430596342504
 30
0.0
 10
-46.90049641119975
 20
-0.1566457678489515
 30
0.0
  0
SPLINE
  5
C6
330
1F
100
AcDbEntity
  8
0
  6
Continuous
 62
     7
370
    25
100
AcDbSpline
210
0.0
220
0.0
230
1.0
 70
     8
 71
     3
 72
    10
 73
     6
 74
     0
 42
0.000000001
 43
0.00000001
 40
0.0
 40
0.0
 40
0.0
 40
0.0
 40
0.1407605289420018
 40
0.6198560009295571
 40
1.0
 40
1.0
 40
1.0
 40
1.0
 10
46.91506373571626
 20
-0.1759752328935847
 30
0.0
 10
47.06589704339221
 20
-0.3619929743202653
 30
0.0
 10
47.73010974283093
 20
-1.181144580025023
 30
0.0
 10
48.11498759163027
 20
-2.917071773576464
 30
0.0
 10
48.14580307187172
 20
-4.364185303402556
 30
0.0
 10
48.1594364305416
 20
-5.004416045665445
 30
0.0
  0
SPLINE
  5
C9
330
1F
100
AcDbEntity
  8
0
  6
Continuous
 62
     7
370
    25
100
AcDbSpline
210
0.0
220
0.0
230
1.0
 70
     8
 71
     3
 72
    10
 73
     6
 74
     0
 42
0.000000001
 43
0.00000001
 40
0.0
 40
0.0
 40
0.0
 40
0.0
 40
0.3795584500513187
 40
0.8579970995699122
 40
1.0
 40
1.0
 40
1.0
 40
1.0
 10
72.33886411763442
 20
-5.004088813111169
 30
0.0
 10
72.35245828503243
 20
-4.363943142129595
 30
0.0
 10
72.38318808750941
 20
-2.916885043620223
 30
0.0
 10
72.76918912200851
 20
-1.17892796357159
 30
0.0
 10
73.43518680080028
 20
-0.3580249426124831
 30
0.0
 10
73.58761631180894
 20
-0.1701416360259771
 30
0.0
  0
SPLINE
  5
CA
330
1F
100
AcDbEntity
  8
0
  6
Continuous
 62
     7
370
    25
100
AcDbSpline
210
0.0
220
0.0
230
1.0
 70
     8
 71
     3
 72
    10
 73
     6
 74
     0
 42
0.000000001
 43
0.00000001
 40
0.0
 40
0.0
 40
0.0
 40
0.0
 40
0.1447192658811104
 40
0.6217178670471278
 40
1.0
 40
1.0
 40
1.0
 40
1.0
 10
68.45019086558626
 20
-0.1573260044869206
 30
0.0
 10
68.60612996498479
 20
-0.3493059311154116
 30
0.0
 10
69.27604853924669
 20
-1.174056870616322
 30
0.0
 10
69.66451411113823
 20
-2.916488610121236
 30
0.0
 10
69.69505720515289
 20
-4.363435930323359
 30
0.0
 10
69.70856611081388
 20
-5.003406289436369
 30
0.0
  0
SPLINE
  5
CB
330
1F
100
AcDbEntity
  8
0
  6
Continuous
 62
     7
370
    25
100
AcDbSpline
210
0.0
220
0.0
230
1.0
 70
     8
 71
     3
 72
    10
 73
     6
 74
     0
 42
0.000000001
 43
0.00000001
 40
0.0
 40
0.0
 40
0.0
 40
0.0
 40
0.3803204274212668
 40
0.8596137078684277
 40
1.0
 40
1.0
 40
1.0
 40
1.0
 10
-69.70862333630757
 20
-5.004514848241656
 30
0.0
 10
-69.69497814954137
 20
-4.364258416913573
 30
0.0
 10
-69.66413681485372
 20
-2.917128141392212
 30
0.0
 10
-69.27959693966847
 20
-1.181810991916672
 30
0.0
 10
-68.61592097867452
 20
-0.3631859882420839
 30
0.0
 10
-68.46556745491212
 20
-0.1777292877188988
 30
0.0
  0
SPLINE
  5
CC
330
1F
100
AcDbEntity
  8
0
  6
Continuous
 62
     7
370
    25
100
AcDbSpline
210
0.0
220
0.0
230
1.0
 70
     8
 71
     3
 72
    10
 73
     6
 74
     0
 42
0.000000001
 43
0.00000001
 40
0.0
 40
0.0
 40
0.0
 40
0.0
 40
0.1398711103746415
 40
0.619436664541922
 40
1.0
 40
1.0
 40
1.0
 40
1.0
 10
-73.58008004754663
 20
-0.1801415476187021
 30
0.0
 10
-73.43038622041313
 20
-0.3648266021290328
 30
0.0
 10
-72.76744842908712
 20
-1.182727409881273
 30
0.0
 10
-72.38337354308318
 20
-2.917205827282964
 30
0.0
 10
-72.35249658175049
 20
-4.364359189968313
 30
0.0
 10
-72.33883509504155
 20
-5.004651031418714
 30
0.0
  0
SPLINE
  5
D3
330
1F
100
AcDbEntity
  8
0
  6
Continuous
 62
     7
370
    25
100
AcDbSpline
210
0.0
220
0.0
230
1.0
 70
     8
 71
     3
 72
    10
 73
     6
 74
     0
 42
0.000000001
 43
0.00000001
 40
0.0
 40
0.0
 40
0.0
 40
0.0
 40
0.3803335648585189
 40
0.8596415726464847
 40
1.0
 40
1.0
 40
1.0
 40
1.0
 10
93.05517359400561
 20
-5.004522210649797
 30
0.0
 10
93.06881966187485
 20
-4.364263864871522
 30
0.0
 10
93.09966292244249
 20
-2.917132341074474
 30
0.0
 10
93.48417763975975
 20
-1.181860587263883
 30
0.0
 10
94.14781365405932
 20
-0.3632747750665043
 30
0.0
 10
94.29813147348577
 20
-0.1778598312545294
 30
0.0
  0
SPLINE
  5
D4
330
1F
100
AcDbEntity
  8
0
  6
Continuous
 62
     7
370
    25
100
AcDbSpline
210
0.0
220
0.0
230
1.0
 70
     8
 71
     3
 72
    10
 73
     6
 74
     0
 42
0.000000001
 43
0.00000001
 40
0.0
 40
0.0
 40
0.0
 40
0.0
 40
0.1430893823687377
 40
0.6209499383672409
 40
1.0
 40
1.0
 40
1.0
 40
1.0
 10
89.17232296277655
 20
-0.1650223862815769
 30
0.0
 10
89.32615391548624
 20
-0.3545423948534202
 30
0.0
 10
89.99371791655166
 20
-1.176982436832081
 30
0.0
 10
90.38070524135527
 20
-2.916733008712383
 30
0.0
 10
90.41136009862207
 20
-4.36375341829338
 30
0.0
 10
90.42492011911574
 20
-5.003835550723628
 30
0.0
  0
SPLINE
  5
D5
330
1F
100
AcDbEntity
  8
0
  6
Continuous
 62
     7
370
    25
100
AcDbSpline
210
0.0
220
0.0
230
1.0
 70
     8
 71
     3
 72
    10
 73
     6
 74
     0
 42
0.000000001
 43
0.00000001
 40
0.0
 40
0.0
 40
0.0
 40
0.0
 40
0.3805626533569887
 40
0.8601274426428152
 40
1.0
 40
1.0
 40
1.0
 40
1.0
 10
-90.42496219571652
 20
-5.004650650386608
 30
0.0
 10
-90.41130075481796
 20
-4.364358907852698
 30
0.0
 10
-90.38042389362506
 20
-2.917205609459059
 30
0.0
 10
-89.99634770186316
 20
-1.182724837360431
 30
0.0
 10
-89.33340783834144
 20
-0.3648219966937531
 30
0.0
 10
-89.18371215953333
 20
-0.1801347759219536
 30
0.0
  0
SPLINE
  5
D6
330
1F
100
AcDbEntity
  8
0
  6
Continuous
 62
     7
370
    25
100
AcDbSpline
210
0.0
220
0.0
230
1.0
 70
     8
 71
     3
 72
    10
 73
     6
 74
     0
 42
0.000000001
 43
0.00000001
 40
0.0
 40
0.0
 40
0.0
 40
0.0
 40
0.140497021899275
 40
0.6197317763504093
 40
1.0
 40
1.0
 40
1.0
 40
1.0
 10
-94.29862087006946
 20
-0.1772104482376802
 30
0.0
 10
-94.14812543693233
 20
-0.3628331062818027
 30
0.0
 10
-93.48429071040303
 20
-1.181613875051692
 30
0.0
 10
-93.099650852198
 20
-2.917111458219487
 30
0.0
 10
-93.06881716961722
 20
-4.364236777536782
 30
0.0
 10
-93.05517548366348
 20
-5.004485605750435
 30
0.0
  0
SPLINE
  5
E7
330
1F
100
AcDbEntity
  8
0
  6
Continuous
 62
     7
370
    25
100
AcDbSpline
210
0.0
220
0.0
230
1.0
 70
     8
 71
     3
 72
    10
 73
     6
 74
     0
 42
0.000000001
 43
0.00000001
 40
0.0
 40
0.0
 40
0.0
 40
0.0
 40
0.0589951800749204
 40
0.4733969976065664
 40
1.0
 40
1.0
 40
1.0
 40
1.0
 10
11.20049037123507
 20
35.8
 30
0.0
 10
11.25941300922254
 20
35.8868176446297
 30
0.0
 10
11.73222790492939
 20
36.58347137557485
 30
0.0
 10
12.28899001128792
 20
38.3008352324881
 30
0.0
 10
12.74487735136489
 20
39.90325657165785
 30
0.0
 10
13.0
 20
40.79999999999999
 30
0.0
  0
SPLINE
  5
E8
330
1F
100
AcDbEntity
  8
0
  6
Continuous
 62
     7
370
    25
100
AcDbSpline
210
0.0
220
0.0
230
1.0
 70
     8
 71
     3
 72
    10
 73
     6
 74
     0
 42
0.000000001
 43
0.00000001
 40
0.0
 40
0.0
 40
0.0
 40
0.0
 40
0.4543108055235204
 40
0.827252155839968
 40
1.0
 40
1.0
 40
1.0
 40
1.0
 10
-13.0
 20
40.79999999999999
 30
0.0
 10
-12.78802106112312
 20
40.02202603264526
 30
0.0
 10
-12.40202972645412
 20
38.60541732808242
 30
0.0
 10
-11.82257334883259
 20
36.91631468090826
 30
0.0
 10
-11.35080180432141
 20
36.068417333963
 30
0.0
 10
-11.20145393730245
 20
35.8
 30
0.0
  0
SPLINE
  5
E9
330
1F
100
AcDbEntity
  8
0
  6
Continuous
 62
     7
370
    25
100
AcDbSpline
210
0.0
220
0.0
230
1.0
 70
     8
 71
     3
 72
     9
 73
     5
 74
     0
 42
0.000000001
 43
0.00000001
 40
0.0
 40
0.0
 40
0.0
 40
0.0
 40
0.5203829610571835
 40
1.0
 40
1.0
 40
1.0
 40
1.0
 10
33.23678279742161
 20
-5.003530050516049
 30
0.0
 10
33.22947280853312
 20
-4.3535487708172
 30
0.0
 10
33.21542548293729
 20
-3.104504646892811
 30
0.0
 10
33.64998694309333
 20
-1.934613608928881
 30
0.0
 10
33.85841002385204
 20
-1.373513933414883
 30
0.0
  0
SPLINE
  5
EA
330
1F
100
AcDbEntity
  8
0
  6
Continuous
 62
     7
370
    25
100
AcDbSpline
210
0.0
220
0.0
230
1.0
 70
     8
 71
     3
 72
    10
 73
     6
 74
     0
 42
0.000000001
 43
0.00000001
 40
0.0
 40
0.0
 40
0.0
 40
0.0
 40
0.1433098260553575
 40
0.6210572799288865
 40
1.0
 40
1.0
 40
1.0
 40
1.0
 10
29.35310088299899
 20
-0.1639873123478325
 30
0.0
 10
29.50721526412307
 20
-0.3538382009692191
 30
0.0
 10
30.17509590408607
 20
-1.176589018025777
 30
0.0
 10
30.56228048566139
 20
-2.916689264481454
 30
0.0
 10
30.59292041051985
 20
-4.363689313512747
 30
0.0
 10
30.60647347418484
 20
-5.003745837096011
 30
0.0
  0
SPLINE
  5
EB
330
1F
100
AcDbEntity
  8
0
  6
Continuous
 62
     7
370
    25
100
AcDbSpline
210
0.0
220
0.0
230
1.0
 70
     8
 71
     3
 72
    10
 73
     6
 74
     0
 42
0.000000001
 43
0.00000001
 40
0.0
 40
0.0
 40
0.0
 40
0.0
 40
0.3797323530013689
 40
0.8583661231188444
 40
1.0
 40
1.0
 40
1.0
 40
1.0
 10
-30.60649619050634
 20
-5.004185890317935
 30
0.0
 10
-30.59289039408047
 20
-4.364014983541508
 30
0.0
 10
-30.56213516704305
 20
-2.916940445278047
 30
0.0
 10
-30.17646794686723
 20
-1.179587059156995
 30
0.0
 10
-29.51100096844993
 20
-0.359204782807706
 30
0.0
 10
-29.35904613323371
 20
-0.1718760983499892
 30
0.0
  0
SPLINE
  5
EC
330
1F
100
AcDbEntity
  8
0
  6
Continuous
 62
     7
370
    25
100
AcDbSpline
210
0.0
220
0.0
230
1.0
 70
     8
 71
     3
 72
     9
 73
     5
 74
     0
 42
0.000000001
 43
0.00000001
 40
0.0
 40
0.0
 40
0.0
 40
0.0
 40
0.4794836911773134
 40
1.0
 40
1.0
 40
1.0
 40
1.0
 10
-33.85841002372626
 20
-1.373513933326104
 30
0.0
 10
-33.64999650669469
 20
-1.934615296314373
 30
0.0
 10
-33.21533413784574
 20
-3.104835208508991
 30
0.0
 10
-33.22940531595022
 20
-4.354230219680312
 30
0.0
 10
-33.23672959363795
 20
-5.004560699156686
 30
0.0
  0
SPLINE
  5
EF
330
1F
100
AcDbEntity
  8
0
  6
Continuous
 62
     7
370
    25
100
AcDbSpline
210
0.0
220
0.0
230
1.0
 70
     8
 71
     3
 72
    10
 73
     6
 74
     0
 42
0.000000001
 43
0.00000001
 40
0.0
 40
0.0
 40
0.0
 40
0.0
 40
0.2451398960816938
 40
0.5137143691210911
 40
1.0
 40
1.0
 40
1.0
 40
1.0
 10
11.0
 20
-0.0999999999999994
 30
0.0
 10
11.20751315895997
 20
-0.4642110159347075
 30
0.0
 10
11.64237706011754
 20
-1.227450436642866
 30
0.0
 10
12.11995290891827
 20
-2.881870411993708
 30
0.0
 10
12.19904705389736
 20
-4.170108751849995
 30
0.0
 10
12.25
 20
-5.000000000000008
 30
0.0
  0
SPLINE
  5
F0
330
1F
100
AcDbEntity
  8
0
  6
Continuous
 62
     7
370
    25
100
AcDbSpline
210
0.0
220
0.0
230
1.0
 70
     8
 71
     3
 72
    10
 73
     6
 74
     0
 42
0.000000001
 43
0.00000001
 40
0.0
 40
0.0
 40
0.0
 40
0.0
 40
0.3423704124280709
 40
0.6480252137671342
 40
1.0
 40
1.0
 40
1.0
 40
1.0
 10
14.75
 20
-5.000000000000012
 30
0.0
 10
14.77756612555617
 20
-4.455697705572248
 30
0.0
 10
14.82974220081798
 20
-3.425463789624283
 30
0.0
 10
15.11989148150736
 20
-1.842698178962744
 30
0.0
 10
15.60322779951779
 20
-0.9067130583127435
 30
0.0
 10
15.8619177983033
 20
-0.4057575523807727
 30
0.0
  0
SPLINE
  5
F3
330
1F
100
AcDbEntity
  8
0
  6
Continuous
 62
     7
370
    25
100
AcDbSpline
210
0.0
220
0.0
230
1.0
 70
     8
 71
     3
 72
    10
 73
     6
 74
     0
 42
0.000000001
 43
0.00000001
 40
0.0
 40
0.0
 40
0.0
 40
0.0
 40
0.1937660676928781
 40
0.4806190254686151
 40
1.0
 40
1.0
 40
1.0
 40
1.0
 10
-15.84939756170326
 20
-0.3891443799592872
 30
0.0
 10
-15.69741373070695
 20
-0.6594103708315244
 30
0.0
 10
-15.32043172549739
 20
-1.329780465538763
 30
0.0
 10
-14.88389081543551
 20
-2.883627934287529
 30
0.0
 10
-14.80245893195901
 20
-4.170797355785433
 30
0.0
 10
-14.75
 20
-5.000000000000008
 30
0.0
  0
SPLINE
  5
F4
330
1F
100
AcDbEntity
  8
0
  6
Continuous
 62
     7
370
    25
100
AcDbSpline
210
0.0
220
0.0
230
1.0
 70
     8
 71
     3
 72
    10
 73
     6
 74
     0
 42
0.000000001
 43
0.00000001
 40
0.0
 40
0.0
 40
0.0
 40
0.0
 40
0.3199108967076886
 40
0.6055147282009642
 40
1.0
 40
1.0
 40
1.0
 40
1.0
 10
-12.25
 20
-5.000000000000008
 30
0.0
 10
-12.22306639822825
 20
-4.455470906961703
 30
0.0
 10
-12.17208753903922
 20
-3.424807715548494
 30
0.0
 10
-11.85231833335706
 20
-1.734239833429289
 30
0.0
 10
-11.31289321352473
 20
-0.699943158723064
 30
0.0
 10
-11.0
 20
-0.0999999999999994
 30
0.0
  0
SPLINE
  5
F5
330
1F
100
AcDbEntity
  8
0
  6
Continuous
 62
     7
370
    25
100
AcDbSpline
210
0.0
220
0.0
230
1.0
 70
     8
 71
     3
 72
     9
 73
     5
 74
     0
 42
0.000000001
 43
0.00000001
 40
0.0
 40
0.0
 40
0.0
 40
0.0
 40
0.4447216486716777
 40
1.0
 40
1.0
 40
1.0
 40
1.0
 10
74.84431556682904
 20
-5.003983431820732
 30
0.0
 10
74.84289291354516
 20
-4.354888417264575
 30
0.0
 10
74.83969393888734
 20
-2.895334971879323
 30
0.0
 10
75.36154979640392
 20
-1.528422846912823
 30
0.0
 10
75.65132505659673
 20
-0.7694061357507304
 30
0.0
  0
SPLINE
  5
F6
330
1F
100
AcDbEntity
  8
0
  6
Continuous
 62
     7
370
    25
100
AcDbSpline
210
0.0
220
0.0
230
1.0
 70
     8
 71
     3
 72
     9
 73
     5
 74
     0
 42
0.000000001
 43
0.00000001
 40
0.0
 40
0.0
 40
0.0
 40
0.0
 40
0.5552783513672103
 40
1.0
 40
1.0
 40
1.0
 40
1.0
 10
-75.65132505659655
 20
-0.7694061354716099
 30
0.0
 10
-75.36154979633902
 20
-1.528422846732731
 30
0.0
 10
-74.83969393874246
 20
-2.895334971781845
 30
0.0
 10
-74.84289291341564
 20
-4.354888417269192
 30
0.0
 10
-74.84431556670623
 20
-5.003983431813994
 30
0.0
  0
SPLINE
  5
F9
330
1F
100
AcDbEntity
  8
0
  6
Continuous
 62
     7
370
    25
100
AcDbSpline
210
0.0
220
0.0
230
1.0
 70
     8
 71
     3
 72
    10
 73
     6
 74
     0
 42
0.000000001
 43
0.00000001
 40
0.0
 40
0.0
 40
0.0
 40
0.0
 40
0.1424039339513166
 40
0.6206305147789251
 40
1.0
 40
1.0
 40
1.0
 40
1.0
 10
-96.10266404373833
 20
-0.1682550897298164
 30
0.0
 10
-95.94971815151646
 20
-0.3567415987303646
 30
0.0
 10
-95.28314325299279
 20
-1.17821103334504
 30
0.0
 10
-94.89677926275371
 20
-2.9168248974565
 30
0.0
 10
-94.866077066879
 20
-4.363865155155216
 30
0.0
 10
-94.85249552574882
 20
-5.003983433899943
 30
0.0
  0
SPLINE
  5
FA
330
1F
100
AcDbEntity
  8
0
  6
Continuous
 62
     7
370
    25
100
AcDbSpline
210
0.0
220
0.0
230
1.0
 70
     8
 71
     3
 72
    10
 73
     6
 74
     0
 42
0.000000001
 43
0.00000001
 40
0.0
 40
0.0
 40
0.0
 40
0.0
 40
0.3793694852255766
 40
0.8575960660488167
 40
0.9999999999999999
 40
0.9999999999999999
 40
0.9999999999999999
 40
0.9999999999999999
 10
94.85249552573848
 20
-5.003983433898594
 30
0.0
 10
94.8660770668575
 20
-4.363865155144014
 30
0.0
 10
94.89677926270656
 20
-2.916824897439978
 30
0.0
 10
95.28314325299986
 20
-1.178211033341207
 30
0.0
 10
95.94971815151705
 20
-0.3567415987306422
 30
0.0
 10
96.10266404373839
 20
-0.1682550897298442
 30
0.0
  0
SPLINE
  5
FB
330
1F
100
AcDbEntity
  8
0
  6
Continuous
 62
     7
370
    25
100
AcDbSpline
210
0.0
220
0.0
230
1.0
 70
     8
 71
     3
 72
    10
 73
     6
 74
     0
 42
0.000000001
 43
0.00000001
 40
0.0
 40
0.0
 40
0.0
 40
0.0
 40
0.3793694841654775
 40
0.8575960647114329
 40
1.0
 40
1.0
 40
1.0
 40
1.0
 10
54.86600486133132
 20
-5.003983429714695
 30
0.0
 10
54.87958640240105
 20
-4.363865152348701
 30
0.0
 10
54.91028859817656
 20
-2.916824895996702
 30
0.0
 10
55.29665258941602
 20
-1.178211031236824
 30
0.0
 10
55.96322748968464
 20
-0.3567415948828798
 30
0.0
 10
56.11617338348299
 20
-0.1682550840338484
 30
0.0
  0
SPLINE
  5
FC
330
1F
100
AcDbEntity
  8
0
  6
Continuous
 62
     7
370
    25
100
AcDbSpline
210
0.0
220
0.0
230
1.0
 70
     8
 71
     3
 72
    10
 73
     6
 74
     0
 42
0.000000001
 43
0.00000001
 40
0.0
 40
0.0
 40
0.0
 40
0.0
 40
0.1424039352915651
 40
0.6206305158395651
 40
1.0
 40
1.0
 40
1.0
 40
1.0
 10
-56.11617338347006
 20
-0.1682550840260283
 30
0.0
 10
-55.96322748966501
 20
-0.3567415948768949
 30
0.0
 10
-55.29665258937571
 20
-1.178211031228234
 30
0.0
 10
-54.91028859823265
 20
-2.916824896019483
 30
0.0
 10
-54.87958640242532
 20
-4.363865152360972
 30
0.0
 10
-54.86600486134166
 20
-5.003983429716044
 30
0.0
  0
LINE
  5
162
330
1F
100
AcDbEntity
  8
0
  6
Continuous
 62
     7
370
    25
100
AcDbLine
 10
125.0
 20
0.5
 30
0.0
 11
125.0
 21
7.5
 31
0.0
  0
LINE
  5
163
330
1F
100
AcDbEntity
  8
0
  6
Continuous
 62
     7
370
    25
100
AcDbLine
 10
-125.0
 20
7.5
 30
0.0
 11
-125.0
 21
0.5
 31
0.0
  0
LINE
  5
164
330
1F
100
AcDbEntity
  8
0
  6
Continuous
 62
     7
370
    25
100
AcDbLine
 10
111.0
 20
8.0
 30
0.0
 11
101.0
 21
11.0
 31
0.0
  0
LINE
  5
165
330
1F
100
AcDbEntity
  8
0
  6
Continuous
 62
     7
370
    25
100
AcDbLine
 10
-101.0
 20
11.0
 30
0.0
 11
-111.0
 21
8.0
 31
0.0
  0
LINE
  5
166
330
1F
100
AcDbEntity
  8
0
  6
Continuous
 62
     7
370
    25
100
AcDbLine
 10
2.499999998
 20
-0.1000000061
 30
0.0
 11
2.499999998
 21
0.0
 31
0.0
  0
LINE
  5
167
330
1F
100
AcDbEntity
  8
0
  6
Continuous
 62
     7
370
    25
100
AcDbLine
 10
-2.499999998
 20
0.0
 30
0.0
 11
-2.499999998
 21
-0.1000000061
 31
0.0
  0
LINE
  5
168
330
1F
100
AcDbEntity
  8
0
  6
Continuous
 62
     7
370
    25
100
AcDbLine
 10
20.7482334272
 20
-0.1000000061
 30
0.0
 11
20.7482334272
 21
0.0
 31
0.0
  0
LINE
  5
169
330
1F
100
AcDbEntity
  8
0
  6
Continuous
 62
     7
370
    25
100
AcDbLine
 10
15.7482334311
 20
0.0
 30
0.0
 11
15.7482334311
 21
-0.1000000061
 31
0.0
  0
LINE
  5
16A
330
1F
100
AcDbEntity
  8
0
  6
Continuous
 62
     7
370
    25
100
AcDbLine
 10
-15.7482334311
 20
-0.1000000061
 30
0.0
 11
-15.7482334311
 21
0.0
 31
0.0
  0
LINE
  5
16B
330
1F
100
AcDbEntity
  8
0
  6
Continuous
 62
     7
370
    25
100
AcDbLine
 10
-20.7482334272
 20
0.0
 30
0.0
 11
-20.7482334272
 21
-0.1000000061
 31
0.0
  0
LINE
  5
16C
330
1F
100
AcDbEntity
  8
0
  6
Continuous
 62
     7
370
    25
100
AcDbLine
 10
38.2951974793
 20
-0.1000000061
 30
0.0
 11
38.2951974793
 21
0.0
 31
0.0
  0
LINE
  5
16D
330
1F
100
AcDbEntity
  8
0
  6
Continuous
 62
     7
370
    25
100
AcDbLine
 10
33.2951974833
 20
0.0
 30
0.0
 11
33.2951974833
 21
-0.1000000061
 31
0.0
  0
LINE
  5
16E
330
1F
100
AcDbEntity
  8
0
  6
Continuous
 62
     7
370
    25
100
AcDbLine
 10
-33.2951974833
 20
-0.1000000061
 30
0.0
 11
-33.2951974833
 21
0.0
 31
0.0
  0
LINE
  5
16F
330
1F
100
AcDbEntity
  8
0
  6
Continuous
 62
     7
370
    25
100
AcDbLine
 10
-38.2951974793
 20
0.0
 30
0.0
 11
-38.2951974793
 21
-0.1000000061
 31
0.0
  0
LINE
  5
170
330
1F
100
AcDbEntity
  8
0
  6
Continuous
 62
     7
370
    25
100
AcDbLine
 10
54.4665721665
 20
-0.1000000061
 30
0.0
 11
54.4665721665
 21
0.0
 31
0.0
  0
LINE
  5
171
330
1F
100
AcDbEntity
  8
0
  6
Continuous
 62
     7
370
    25
100
AcDbLine
 10
49.4665721704
 20
0.0
 30
0.0
 11
49.4665721704
 21
-0.1000000061
 31
0.0
  0
LINE
  5
172
330
1F
100
AcDbEntity
  8
0
  6
Continuous
 62
     7
370
    25
100
AcDbLine
 10
-49.4665721704
 20
-0.1000000061
 30
0.0
 11
-49.4665721704
 21
0.0
 31
0.0
  0
LINE
  5
173
330
1F
100
AcDbEntity
  8
0
  6
Continuous
 62
     7
370
    25
100
AcDbLine
 10
-54.4665721665
 20
0.0
 30
0.0
 11
-54.4665721665
 21
-0.1000000061
 31
0.0
  0
LINE
  5
174
330
1F
100
AcDbEntity
  8
0
  6
Continuous
 62
     7
370
    25
100
AcDbLine
 10
21.5307518286
 20
-0.1
 30
0.0
 11
21.5307518286
 21
0.0
 31
0.0
  0
LINE
  5
175
330
1F
100
AcDbEntity
  8
0
  6
Continuous
 62
     7
370
    25
100
AcDbLine
 10
-21.5307518286
 20
0.0
 30
0.0
 11
-21.5307518286
 21
-0.1
 31
0.0
  0
LINE
  5
176
330
1F
100
AcDbEntity
  8
0
  6
Continuous
 62
     7
370
    25
100
AcDbLine
 10
68.6409006284
 20
-0.1000000061
 30
0.0
 11
68.6409006284
 21
0.0
 31
0.0
  0
LINE
  5
177
330
1F
100
AcDbEntity
  8
0
  6
Continuous
 62
     7
370
    25
100
AcDbLine
 10
63.6409006323
 20
0.0
 30
0.0
 11
63.6409006323
 21
-0.1000000061
 31
0.0
  0
LINE
  5
178
330
1F
100
AcDbEntity
  8
0
  6
Continuous
 62
     7
370
    25
100
AcDbLine
 10
-63.6409006323
 20
-0.1000000061
 30
0.0
 11
-63.6409006323
 21
0.0
 31
0.0
  0
LINE
  5
179
330
1F
100
AcDbEntity
  8
0
  6
Continuous
 62
     7
370
    25
100
AcDbLine
 10
-68.6409006284
 20
0.0
 30
0.0
 11
-68.6409006284
 21
-0.1000000061
 31
0.0
  0
LINE
  5
17A
330
1F
100
AcDbEntity
  8
0
  6
Continuous
 62
     7
370
    25
100
AcDbLine
 10
39.2645893699
 20
-0.1
 30
0.0
 11
39.2645893699
 21
0.0
 31
0.0
  0
LINE
  5
17B
330
1F
100
AcDbEntity
  8
0
  6
Continuous
 62
     7
370
    25
100
AcDbLine
 10
-39.2645893699
 20
0.0
 30
0.0
 11
-39.2645893699
 21
-0.1
 31
0.0
  0
LINE
  5
17C
330
1F
100
AcDbEntity
  8
0
  6
Continuous
 62
     7
370
    25
100
AcDbLine
 10
54.4929809021
 20
-0.1
 30
0.0
 11
54.4929809021
 21
0.0
 31
0.0
  0
LINE
  5
17D
330
1F
100
AcDbEntity
  8
0
  6
Continuous
 62
     7
370
    25
100
AcDbLine
 10
-54.4929809021
 20
0.0
 30
0.0
 11
-54.4929809021
 21
-0.1
 31
0.0
  0
LINE
  5
17E
330
1F
100
AcDbEntity
  8
0
  6
Continuous
 62
     7
370
    25
100
AcDbLine
 10
80.2734713713
 20
-0.1000000061
 30
0.0
 11
80.2734713713
 21
0.0
 31
0.0
  0
LINE
  5
17F
330
1F
100
AcDbEntity
  8
0
  6
Continuous
 62
     7
370
    25
100
AcDbLine
 10
75.2734713752
 20
0.0
 30
0.0
 11
75.2734713752
 21
-0.1000000061
 31
0.0
  0
LINE
  5
180
330
1F
100
AcDbEntity
  8
0
  6
Continuous
 62
     7
370
    25
100
AcDbLine
 10
-75.2734713752
 20
-0.1000000061
 30
0.0
 11
-75.2734713752
 21
0.0
 31
0.0
  0
LINE
  5
181
330
1F
100
AcDbEntity
  8
0
  6
Continuous
 62
     7
370
    25
100
AcDbLine
 10
-80.2734713713
 20
0.0
 30
0.0
 11
-80.2734713713
 21
-0.1000000061
 31
0.0
  0
LINE
  5
182
330
1F
100
AcDbEntity
  8
0
  6
Continuous
 62
     7
370
    25
100
AcDbLine
 10
22.9930299855
 20
-0.1
 30
0.0
 11
22.9930299855
 21
0.0
 31
0.0
  0
LINE
  5
183
330
1F
100
AcDbEntity
  8
0
  6
Continuous
 62
     7
370
    25
100
AcDbLine
 10
-22.9930299855
 20
0.0
 30
0.0
 11
-22.9930299855
 21
-0.1
 31
0.0
  0
LINE
  5
184
330
1F
100
AcDbEntity
  8
0
  6
Continuous
 62
     7
370
    25
100
AcDbLine
 10
40.3661819255
 20
-0.1
 30
0.0
 11
40.3661819255
 21
0.0
 31
0.0
  0
LINE
  5
185
330
1F
100
AcDbEntity
  8
0
  6
Continuous
 62
     7
370
    25
100
AcDbLine
 10
-40.3661819255
 20
0.0
 30
0.0
 11
-40.3661819255
 21
-0.1
 31
0.0
  0
LINE
  5
186
330
1F
100
AcDbEntity
  8
0
  6
Continuous
 62
     7
370
    25
100
AcDbLine
 10
61.1781367082
 20
0.0
 30
0.0
 11
61.1781367082
 21
-0.1
 31
0.0
  0
LINE
  5
187
330
1F
100
AcDbEntity
  8
0
  6
Continuous
 62
     7
370
    25
100
AcDbLine
 10
-61.1781367082
 20
-0.1
 30
0.0
 11
-61.1781367082
 21
0.0
 31
0.0
  0
LINE
  5
188
330
1F
100
AcDbEntity
  8
0
  6
Continuous
 62
     7
370
    25
100
AcDbLine
 10
88.9172512252
 20
-0.1000000061
 30
0.0
 11
88.9172512252
 21
0.0
 31
0.0
  0
LINE
  5
189
330
1F
100
AcDbEntity
  8
0
  6
Continuous
 62
     7
370
    25
100
AcDbLine
 10
83.9172512291
 20
0.0
 30
0.0
 11
83.9172512291
 21
-0.1000000061
 31
0.0
  0
LINE
  5
18A
330
1F
100
AcDbEntity
  8
0
  6
Continuous
 62
     7
370
    25
100
AcDbLine
 10
-83.9172512291
 20
-0.1000000061
 30
0.0
 11
-83.9172512291
 21
0.0
 31
0.0
  0
LINE
  5
18B
330
1F
100
AcDbEntity
  8
0
  6
Continuous
 62
     7
370
    25
100
AcDbLine
 10
-88.9172512252
 20
0.0
 30
0.0
 11
-88.9172512252
 21
-0.1000000061
 31
0.0
  0
LINE
  5
18C
330
1F
100
AcDbEntity
  8
0
  6
Continuous
 62
     7
370
    25
100
AcDbLine
 10
46.9745509252
 20
0.0
 30
0.0
 11
46.9745509252
 21
-0.1
 31
0.0
  0
LINE
  5
18D
330
1F
100
AcDbEntity
  8
0
  6
Continuous
 62
     7
370
    25
100
AcDbLine
 10
-46.9745509252
 20
-0.1
 30
0.0
 11
-46.9745509252
 21
0.0
 31
0.0
  0
LINE
  5
18E
330
1F
100
AcDbEntity
  8
0
  6
Continuous
 62
     7
370
    25
100
AcDbLine
 10
73.5237327307
 20
-0.1
 30
0.0
 11
73.5237327307
 21
0.0
 31
0.0
  0
LINE
  5
18F
330
1F
100
AcDbEntity
  8
0
  6
Continuous
 62
     7
370
    25
100
AcDbLine
 10
-73.5237327307
 20
0.0
 30
0.0
 11
-73.5237327307
 21
-0.1
 31
0.0
  0
LINE
  5
190
330
1F
100
AcDbEntity
  8
0
  6
Continuous
 62
     7
370
    25
100
AcDbLine
 10
94.2400645778
 20
-0.1000000061
 30
0.0
 11
94.2400645778
 21
0.0
 31
0.0
  0
LINE
  5
191
330
1F
100
AcDbEntity
  8
0
  6
Continuous
 62
     7
370
    25
100
AcDbLine
 10
89.2400645817
 20
0.0
 30
0.0
 11
89.2400645817
 21
-0.1000000061
 31
0.0
  0
LINE
  5
192
330
1F
100
AcDbEntity
  8
0
  6
Continuous
 62
     7
370
    25
100
AcDbLine
 10
-89.2400645817
 20
-0.1000000061
 30
0.0
 11
-89.2400645817
 21
0.0
 31
0.0
  0
LINE
  5
193
330
1F
100
AcDbEntity
  8
0
  6
Continuous
 62
     7
370
    25
100
AcDbLine
 10
-94.2400645778
 20
0.0
 30
0.0
 11
-94.2400645778
 21
-0.1000000061
 31
0.0
  0
LINE
  5
194
330
1F
100
AcDbEntity
  8
0
  6
Continuous
 62
     7
370
    25
100
AcDbLine
 10
19.0
 20
11.0
 30
0.0
 11
17.0
 21
12.8
 31
0.0
  0
LINE
  5
195
330
1F
100
AcDbEntity
  8
0
  6
Continuous
 62
     7
370
    25
100
AcDbLine
 10
-17.0
 20
12.8
 30
0.0
 11
-19.0
 21
11.0
 31
0.0
  0
LINE
  5
196
330
1F
100
AcDbEntity
  8
0
  6
Continuous
 62
     7
370
    25
100
AcDbLine
 10
16.75
 20
12.8
 30
0.0
 11
16.75
 21
19.8
 31
0.0
  0
LINE
  5
197
330
1F
100
AcDbEntity
  8
0
  6
Continuous
 62
     7
370
    25
100
AcDbLine
 10
-16.75
 20
19.8
 30
0.0
 11
-16.75
 21
12.8
 31
0.0
  0
LINE
  5
198
330
1F
100
AcDbEntity
  8
0
  6
Continuous
 62
     7
370
    25
100
AcDbLine
 10
15.25
 20
20.3
 30
0.0
 11
15.25
 21
35.3
 31
0.0
  0
LINE
  5
199
330
1F
100
AcDbEntity
  8
0
  6
Continuous
 62
     7
370
    25
100
AcDbLine
 10
-15.25
 20
35.3
 30
0.0
 11
-15.25
 21
20.3
 31
0.0
  0
LINE
  5
19A
330
1F
100
AcDbEntity
  8
0
  6
Continuous
 62
     7
370
    25
100
AcDbLine
 10
13.0
 20
40.862145265
 30
0.0
 11
13.0
 21
54.3
 31
0.0
  0
LINE
  5
19B
330
1F
100
AcDbEntity
  8
0
  6
Continuous
 62
     7
370
    25
100
AcDbLine
 10
-13.0
 20
54.3
 30
0.0
 11
-13.0
 21
40.862145265
 31
0.0
  0
LINE
  5
19C
330
1F
100
AcDbEntity
  8
0
  6
Continuous
 62
     7
370
    25
100
AcDbLine
 10
29.4216225662
 20
0.0
 30
0.0
 11
29.4216225662
 21
-0.1
 31
0.0
  0
LINE
  5
19D
330
1F
100
AcDbEntity
  8
0
  6
Continuous
 62
     7
370
    25
100
AcDbLine
 10
-29.4216225662
 20
-0.1
 30
0.0
 11
-29.4216225662
 21
0.0
 31
0.0
  0
LINE
  5
19E
330
1F
100
AcDbEntity
  8
0
  6
Continuous
 62
     7
370
    25
100
AcDbLine
 10
11.0
 20
0.0
 30
0.0
 11
11.0
 21
-0.1
 31
0.0
  0
LINE
  5
19F
330
1F
100
AcDbEntity
  8
0
  6
Continuous
 62
     7
370
    25
100
AcDbLine
 10
-11.0
 20
-0.1
 30
0.0
 11
-11.0
 21
0.0
 31
0.0
  0
LINE
  5
1A0
330
1F
100
AcDbEntity
  8
0
  6
Continuous
 62
     7
370
    25
100
AcDbLine
 10
96.037358697
 20
-0.1000000061
 30
0.0
 11
96.037358697
 21
0.0
 31
0.0
  0
LINE
  5
1A1
330
1F
100
AcDbEntity
  8
0
  6
Continuous
 62
     7
370
    25
100
AcDbLine
 10
-96.037358697
 20
0.0
 30
0.0
 11
-96.037358697
 21
-0.1000000061
 31
0.0
  0
LINE
  5
1A2
330
1F
100
AcDbEntity
  8
0
  6
Continuous
 62
     7
370
    25
100
AcDbLine
 10
56.0508680344
 20
-0.1
 30
0.0
 11
56.0508680344
 21
0.0
 31
0.0
  0
LINE
  5
1A3
330
1F
100
AcDbEntity
  8
0
  6
Continuous
 62
     7
370
    25
100
AcDbLine
 10
-56.0508680344
 20
0.0
 30
0.0
 11
-56.0508680344
 21
-0.1
 31
0.0
  0
LINE
  5
1A4
330
1F
100
AcDbEntity
  8
0
  6
Continuous
 62
     7
370
    25
100
AcDbLine
 10
-124.5
 20
8.0
 30
0.0
 11
124.5
 21
8.0
 31
0.0
  0
LINE
  5
1A5
330
1F
100
AcDbEntity
  8
0
  6
Continuous
 62
     7
370
    25
100
AcDbLine
 10
124.5
 20
0.0
 30
0.0
 11
-124.5
 21
0.0
 31
0.0
  0
LINE
  5
1A6
330
1F
100
AcDbEntity
  8
0
  6
Continuous
 62
     7
370
    25
100
AcDbLine
 10
101.0
 20
11.0
 30
0.0
 11
-101.0
 21
11.0
 31
0.0
  0
LINE
  5
1A7
330
1F
100
AcDbEntity
  8
0
  6
Continuous
 62
     7
370
    25
100
AcDbLine
 10
2.4999999961
 20
-0.1000000061
 30
0.0
 11
-2.4999999961
 21
-0.1000000061
 31
0.0
  0
LINE
  5
1A8
330
1F
100
AcDbEntity
  8
0
  6
Continuous
 62
     7
370
    25
100
AcDbLine
 10
1.249947916
 20
-5.0000000042
 30
0.0
 11
-1.25
 21
-5.0000000042
 31
0.0
  0
LINE
  5
1A9
330
1F
100
AcDbEntity
  8
0
  6
Continuous
 62
     7
370
    25
100
AcDbLine
 10
21.5307508812
 20
-0.1
 30
0.0
 11
15.7482334331
 21
-0.1000000061
 31
0.0
  0
LINE
  5
1AA
330
1F
100
AcDbEntity
  8
0
  6
Continuous
 62
     7
370
    25
100
AcDbLine
 10
-11.0
 20
-0.1
 30
0.0
 11
-21.5307241887
 21
-0.1
 31
0.0
  0
LINE
  5
1AB
330
1F
100
AcDbEntity
  8
0
  6
Continuous
 62
     7
370
    25
100
AcDbLine
 10
21.7429819118
 20
-5.0
 30
0.0
 11
16.9982538815
 21
-5.0000000042
 31
0.0
  0
LINE
  5
1AC
330
1F
100
AcDbEntity
  8
0
  6
Continuous
 62
     7
370
    25
100
AcDbLine
 10
-16.9982351232
 20
-5.0000000042
 30
0.0
 11
-20.2807054371
 21
-5.0000000021
 31
0.0
  0
LINE
  5
1AD
330
1F
100
AcDbEntity
  8
0
  6
Continuous
 62
     7
370
    25
100
AcDbLine
 10
39.2645762261
 20
-0.1
 30
0.0
 11
33.2951974852
 21
-0.1000000061
 31
0.0
  0
LINE
  5
1AE
330
1F
100
AcDbEntity
  8
0
  6
Continuous
 62
     7
370
    25
100
AcDbLine
 10
-33.2951974852
 20
-0.1000000061
 30
0.0
 11
-39.26458901
 21
-0.1
 31
0.0
  0
LINE
  5
1AF
330
1F
100
AcDbEntity
  8
0
  6
Continuous
 62
     7
370
    25
100
AcDbLine
 10
-34.5452536035
 20
-5.0000000042
 30
0.0
 11
-39.1161819255
 21
-5.0
 31
0.0
  0
LINE
  5
1B0
330
1F
100
AcDbEntity
  8
0
  6
Continuous
 62
     7
370
    25
100
AcDbLine
 10
37.0451494075
 20
-5.0000000042
 30
0.0
 11
34.5451974813
 21
-5.0000000042
 31
0.0
  0
LINE
  5
1B1
330
1F
100
AcDbEntity
  8
0
  6
Continuous
 62
     7
370
    25
100
AcDbLine
 10
54.4929549056
 20
-0.1
 30
0.0
 11
49.4665721724
 21
-0.1000000061
 31
0.0
  0
LINE
  5
1B2
330
1F
100
AcDbEntity
  8
0
  6
Continuous
 62
     7
370
    25
100
AcDbLine
 10
-46.9745930011
 20
-0.1
 30
0.0
 11
-54.4929648298
 21
-0.1
 31
0.0
  0
LINE
  5
1B3
330
1F
100
AcDbEntity
  8
0
  6
Continuous
 62
     7
370
    25
100
AcDbLine
 10
-48.2245906315
 20
-5.0
 30
0.0
 11
-54.8008680344
 21
-5.0
 31
0.0
  0
LINE
  5
1B4
330
1F
100
AcDbEntity
  8
0
  6
Continuous
 62
     7
370
    25
100
AcDbLine
 10
53.24293679
 20
-5.0000000021
 30
0.0
 11
50.7165957847
 21
-5.0000000042
 31
0.0
  0
LINE
  5
1B5
330
1F
100
AcDbEntity
  8
0
  6
Continuous
 62
     7
370
    25
100
AcDbLine
 10
73.5237153818
 20
-0.1
 30
0.0
 11
63.6409006343
 21
-0.1000000061
 31
0.0
  0
LINE
  5
1B6
330
1F
100
AcDbEntity
  8
0
  6
Continuous
 62
     7
370
    25
100
AcDbLine
 10
-61.178143245
 20
-0.1
 30
0.0
 11
-73.523732725
 21
-0.1
 31
0.0
  0
LINE
  5
1B7
330
1F
100
AcDbEntity
  8
0
  6
Continuous
 62
     7
370
    25
100
AcDbLine
 10
67.3908565183
 20
-5.0000000042
 30
0.0
 11
62.428142121
 21
-5.0000000021
 31
0.0
  0
LINE
  5
1B8
330
1F
100
AcDbEntity
  8
0
  6
Continuous
 62
     7
370
    25
100
AcDbLine
 10
-64.8909607978
 20
-5.0000000042
 30
0.0
 11
-67.3909006303
 21
-5.0000000042
 31
0.0
  0
LINE
  5
1B9
330
1F
100
AcDbEntity
  8
0
  6
Continuous
 62
     7
370
    25
100
AcDbLine
 10
38.0145650628
 20
-5.0000000021
 30
0.0
 11
37.0451717702
 21
-5.0000000021
 31
0.0
  0
LINE
  5
1BA
330
1F
100
AcDbEntity
  8
0
  6
Continuous
 62
     7
370
    25
100
AcDbLine
 10
80.2734713693
 20
-0.1000000061
 30
0.0
 11
75.2734713772
 21
-0.1000000061
 31
0.0
  0
LINE
  5
1BB
330
1F
100
AcDbEntity
  8
0
  6
Continuous
 62
     7
370
    25
100
AcDbLine
 10
-75.2734713772
 20
-0.1000000061
 30
0.0
 11
-80.2734713693
 21
-0.1000000061
 31
0.0
  0
LINE
  5
1BC
330
1F
100
AcDbEntity
  8
0
  6
Continuous
 62
     7
370
    25
100
AcDbLine
 10
79.0234655962
 20
-5.0000000042
 30
0.0
 11
76.5234983219
 21
-5.0000000042
 31
0.0
  0
LINE
  5
1BD
330
1F
100
AcDbEntity
  8
0
  6
Continuous
 62
     7
370
    25
100
AcDbLine
 10
-76.5234716856
 20
-5.0000000042
 30
0.0
 11
-79.0234592563
 21
-5.0000000042
 31
0.0
  0
LINE
  5
1BE
330
1F
100
AcDbEntity
  8
0
  6
Continuous
 62
     7
370
    25
100
AcDbLine
 10
22.993001107
 20
-0.1
 30
0.0
 11
21.5307518286
 21
-0.1
 31
0.0
  0
LINE
  5
1BF
330
1F
100
AcDbEntity
  8
0
  6
Continuous
 62
     7
370
    25
100
AcDbLine
 10
-20.2807499248
 20
-5.0
 30
0.0
 11
-21.7430299855
 21
-5.0
 31
0.0
  0
LINE
  5
1C0
330
1F
100
AcDbEntity
  8
0
  6
Continuous
 62
     7
370
    25
100
AcDbLine
 10
-21.5307518286
 20
-0.1
 30
0.0
 11
-22.9930160037
 21
-0.1
 31
0.0
  0
LINE
  5
1C1
330
1F
100
AcDbEntity
  8
0
  6
Continuous
 62
     7
370
    25
100
AcDbLine
 10
39.1161378135
 20
-5.0
 30
0.0
 11
38.0145886438
 21
-5.0
 31
0.0
  0
LINE
  5
1C2
330
1F
100
AcDbEntity
  8
0
  6
Continuous
 62
     7
370
    25
100
AcDbLine
 10
40.3661559291
 20
-0.1
 30
0.0
 11
39.2645893699
 21
-0.1
 31
0.0
  0
LINE
  5
1C3
330
1F
100
AcDbEntity
  8
0
  6
Continuous
 62
     7
370
    25
100
AcDbLine
 10
-39.2645893699
 20
-0.1
 30
0.0
 11
-40.3661658532
 21
-0.1
 31
0.0
  0
LINE
  5
1C4
330
1F
100
AcDbEntity
  8
0
  6
Continuous
 62
     7
370
    25
100
AcDbLine
 10
63.5917534483
 20
-0.1
 30
0.0
 11
61.1781394349
 21
-0.1
 31
0.0
  0
LINE
  5
1C5
330
1F
100
AcDbEntity
  8
0
  6
Continuous
 62
     7
370
    25
100
AcDbLine
 10
-62.4281493507
 20
-5.0000000021
 30
0.0
 11
-64.8909170609
 21
-5.0000000021
 31
0.0
  0
LINE
  5
1C6
330
1F
100
AcDbEntity
  8
0
  6
Continuous
 62
     7
370
    25
100
AcDbLine
 10
88.9172512232
 20
-0.1000000061
 30
0.0
 11
83.9172512311
 21
-0.1000000061
 31
0.0
  0
LINE
  5
1C7
330
1F
100
AcDbEntity
  8
0
  6
Continuous
 62
     7
370
    25
100
AcDbLine
 10
-83.9172512311
 20
-0.1000000061
 30
0.0
 11
-88.9172512232
 21
-0.1000000061
 31
0.0
  0
LINE
  5
1C8
330
1F
100
AcDbEntity
  8
0
  6
Continuous
 62
     7
370
    25
100
AcDbLine
 10
87.6672110082
 20
-5.0000000042
 30
0.0
 11
85.1672512272
 21
-5.0000000042
 31
0.0
  0
LINE
  5
1C9
330
1F
100
AcDbEntity
  8
0
  6
Continuous
 62
     7
370
    25
100
AcDbLine
 10
-85.1672909335
 20
-5.0000000042
 30
0.0
 11
-87.6672512272
 21
-5.0000000042
 31
0.0
  0
LINE
  5
1CA
330
1F
100
AcDbEntity
  8
0
  6
Continuous
 62
     7
370
    25
100
AcDbLine
 10
50.7165730347
 20
-5.0
 30
0.0
 11
48.2245509252
 21
-5.0
 31
0.0
  0
LINE
  5
1CB
330
1F
100
AcDbEntity
  8
0
  6
Continuous
 62
     7
370
    25
100
AcDbLine
 10
49.4472188719
 20
-0.1
 30
0.0
 11
46.9745580492
 21
-0.1
 31
0.0
  0
LINE
  5
1CC
330
1F
100
AcDbEntity
  8
0
  6
Continuous
 62
     7
370
    25
100
AcDbLine
 10
72.2737015422
 20
-5.0000000021
 30
0.0
 11
69.7737599053
 21
-5.0000000021
 31
0.0
  0
LINE
  5
1CD
330
1F
100
AcDbEntity
  8
0
  6
Continuous
 62
     7
370
    25
100
AcDbLine
 10
-69.7737408088
 20
-5.0000000021
 30
0.0
 11
-72.2737327192
 21
-5.0000000021
 31
0.0
  0
LINE
  5
1CE
330
1F
100
AcDbEntity
  8
0
  6
Continuous
 62
     7
370
    25
100
AcDbLine
 10
96.0373586951
 20
-0.1000000061
 30
0.0
 11
89.2400645837
 21
-0.1000000061
 31
0.0
  0
LINE
  5
1CF
330
1F
100
AcDbEntity
  8
0
  6
Continuous
 62
     7
370
    25
100
AcDbLine
 10
-89.2400645837
 20
-0.1000000061
 30
0.0
 11
-96.0373586951
 21
-0.1000000061
 31
0.0
  0
LINE
  5
1D0
330
1F
100
AcDbEntity
  8
0
  6
Continuous
 62
     7
370
    25
100
AcDbLine
 10
94.7873222851
 20
-5.0000000042
 30
0.0
 11
90.4900712784
 21
-5.0000000042
 31
0.0
  0
LINE
  5
1D1
330
1F
100
AcDbEntity
  8
0
  6
Continuous
 62
     7
370
    25
100
AcDbLine
 10
-90.4900646145
 20
-5.0000000042
 30
0.0
 11
-92.9900548126
 21
-5.0000000042
 31
0.0
  0
LINE
  5
1D2
330
1F
100
AcDbEntity
  8
0
  6
Continuous
 62
     7
370
    25
100
AcDbLine
 10
17.0
 20
12.8
 30
0.0
 11
-17.0
 21
12.8
 31
0.0
  0
LINE
  5
1D3
330
1F
100
AcDbEntity
  8
0
  6
Continuous
 62
     7
370
    25
100
AcDbLine
 10
-16.2499998848
 20
20.3
 30
0.0
 11
16.25
 21
20.3
 31
0.0
  0
LINE
  5
1D4
330
1F
100
AcDbEntity
  8
0
  6
Continuous
 62
     7
370
    25
100
AcDbLine
 10
14.75
 20
35.8
 30
0.0
 11
-14.75
 21
35.8
 31
0.0
  0
LINE
  5
1D5
330
1F
100
AcDbEntity
  8
0
  6
Continuous
 62
     7
370
    25
100
AcDbLine
 10
-12.5
 20
54.8
 30
0.0
 11
12.5
 21
54.8
 31
0.0
  0
LINE
  5
1D6
330
1F
100
AcDbEntity
  8
0
  6
Continuous
 62
     7
370
    25
100
AcDbLine
 10
33.1715658521
 20
-5.0000000021
 30
0.0
 11
30.6716700567
 21
-5.0000000021
 31
0.0
  0
LINE
  5
1D7
330
1F
100
AcDbEntity
  8
0
  6
Continuous
 62
     7
370
    25
100
AcDbLine
 10
33.2739658241
 20
-0.1
 30
0.0
 11
29.4216510128
 21
-0.1
 31
0.0
  0
LINE
  5
1D8
330
1F
100
AcDbEntity
  8
0
  6
Continuous
 62
     7
370
    25
100
AcDbLine
 10
-30.6716487698
 20
-5.0000000021
 30
0.0
 11
-33.171617167
 21
-5.0000000021
 31
0.0
  0
LINE
  5
1D9
330
1F
100
AcDbEntity
  8
0
  6
Continuous
 62
     7
370
    25
100
AcDbLine
 10
-29.4216368443
 20
-0.1
 30
0.0
 11
-33.2587244941
 21
-0.1
 31
0.0
  0
LINE
  5
1DA
330
1F
100
AcDbEntity
  8
0
  6
Continuous
 62
     7
370
    25
100
AcDbLine
 10
11.0000000404
 20
-0.1
 30
0.0
 11
15.7437578702
 21
-0.1
 31
0.0
  0
LINE
  5
1DB
330
1F
100
AcDbEntity
  8
0
  6
Continuous
 62
     7
370
    25
100
AcDbLine
 10
12.2500011475
 20
-5.0
 30
0.0
 11
14.75
 21
-5.0
 31
0.0
  0
LINE
  5
1DC
330
1F
100
AcDbEntity
  8
0
  6
Continuous
 62
     7
370
    25
100
AcDbLine
 10
-14.75
 20
-5.0
 30
0.0
 11
-12.25
 21
-5.0
 31
0.0
  0
LINE
  5
1DD
330
1F
100
AcDbEntity
  8
0
  6
Continuous
 62
     7
370
    25
100
AcDbLine
 10
74.7791423261
 20
-5.0000000021
 30
0.0
 11
72.2791787398
 21
-5.0000000021
 31
0.0
  0
LINE
  5
1DE
330
1F
100
AcDbEntity
  8
0
  6
Continuous
 62
     7
370
    25
100
AcDbLine
 10
75.2524789891
 20
-0.1
 30
0.0
 11
73.5237327307
 21
-0.1
 31
0.0
  0
LINE
  5
1DF
330
1F
100
AcDbEntity
  8
0
  6
Continuous
 62
     7
370
    25
100
AcDbLine
 10
-72.2791787398
 20
-5.0000000021
 30
0.0
 11
-74.77917874
 21
-5.0000000021
 31
0.0
  0
LINE
  5
1E0
330
1F
100
AcDbEntity
  8
0
  6
Continuous
 62
     7
370
    25
100
AcDbLine
 10
-73.5684038196
 20
-0.1
 30
0.0
 11
-75.2476560201
 21
-0.1
 31
0.0
  0
LINE
  5
1E1
330
1F
100
AcDbEntity
  8
0
  6
Continuous
 62
     7
370
    25
100
AcDbLine
 10
-92.9900569291
 20
-5.0000000042
 30
0.0
 11
-94.787358699
 21
-5.0000000042
 31
0.0
  0
LINE
  5
1E2
330
1F
100
AcDbEntity
  8
0
  6
Continuous
 62
     7
370
    25
100
AcDbLine
 10
54.8008316205
 20
-5.0
 30
0.0
 11
53.2429517598
 21
-5.0
 31
0.0
  0
LINE
  5
1E3
330
1F
100
AcDbEntity
  8
0
  6
Continuous
 62
     7
370
    25
100
AcDbLine
 10
56.0508473166
 20
-0.1
 30
0.0
 11
54.4929809021
 21
-0.1
 31
0.0
  0
LINE
  5
1E4
330
1F
100
AcDbEntity
  8
0
  6
Continuous
 62
     7
370
    25
100
AcDbLine
 10
-54.4929809021
 20
-0.1
 30
0.0
 11
-56.0508473166
 21
-0.1
 31
0.0
  0
LINE
  5
1E5
330
1F
100
AcDbEntity
  8
0
  6
Continuous
 62
     8
370
    25
100
AcDbLine
 10
125.0
 20
7.5
 30
0.0
 11
-125.0
 21
7.5
 31
0.0
  0
LINE
  5
1E6
330
1F
100
AcDbEntity
  8
0
  6
Continuous
 62
     8
370
    25
100
AcDbLine
 10
-125.0
 20
0.5
 30
0.0
 11
125.0
 21
0.5
 31
0.0
  0
LINE
  5
1E7
330
1F
100
AcDbEntity
  8
0
  6
Continuous
 62
     8
370
    25
100
AcDbLine
 10
16.75
 20
19.8
 30
0.0
 11
-16.75
 21
19.8
 31
0.0
  0
LINE
  5
1E8
330
1F
100
AcDbEntity
  8
0
  6
Continuous
 62
     8
370
    25
100
AcDbLine
 10
15.25
 20
35.3
 30
0.0
 11
-15.25
 21
35.3
 31
0.0
  0
LINE
  5
1E9
330
1F
100
AcDbEntity
  8
0
  6
Continuous
 62
     8
370
    25
100
AcDbLine
 10
13.0
 20
54.3
 30
0.0
 11
-13.0
 21
54.3
 31
0.0
  0
LINE
  5
1EA
330
1F
100
AcDbEntity
  8
0
  6
Continuous
 62
     8
370
    25
100
AcDbLine
 10
-13.0
 20
40.862145265
 30
0.0
 11
13.0
 21
40.862145265
 31
0.0
  0
LINE
  5
1EB
330
1F
100
AcDbEntity
  8
0
  6
Continuous
 62
     8
370
    25
100
AcDbLine
 10
12.9847030522
 20
40.7394140498
 30
0.0
 11
-12.9847030522
 21
40.7394140498
 31
0.0
  0
ARC
  5
1EC
330
1F
100
AcDbEntity
  8
0
  6
Continuous
 62
     7
370
    25
100
AcDbCircle
 10
124.5
 20
7.5
 30
0.0
 40
0.5000000000000062
100
AcDbArc
 50
0.0
 51
90.0
  0
ARC
  5
1ED
330
1F
100
AcDbEntity
  8
0
  6
Continuous
 62
     7
370
    25
100
AcDbCircle
 10
-124.5
 20
7.5
 30
0.0
 40
0.5000000000000044
100
AcDbArc
 50
90.0
 51
180.0
  0
ARC
  5
1EE
330
1F
100
AcDbEntity
  8
0
  6
Continuous
 62
     7
370
    25
100
AcDbCircle
 10
-124.5
 20
0.5
 30
0.0
 40
0.5000000000000057
100
AcDbArc
 50
180.0
 51
270.0
  0
ARC
  5
1EF
330
1F
100
AcDbEntity
  8
0
  6
Continuous
 62
     7
370
    25
100
AcDbCircle
 10
124.5
 20
0.5
 30
0.0
 40
0.5000000000000284
100
AcDbArc
 50
270.0
 51
0.0
  0
ARC
  5
1F0
330
1F
100
AcDbEntity
  8
0
  6
Continuous
 62
     7
370
    25
100
AcDbCircle
 10
16.25
 20
19.8
 30
0.0
 40
0.4999999999999964
100
AcDbArc
 50
0.0
 51
90.0
  0
ARC
  5
1F1
330
1F
100
AcDbEntity
  8
0
  6
Continuous
 62
     7
370
    25
100
AcDbCircle
 10
-16.25
 20
19.8
 30
0.0
 40
0.4999999999999964
100
AcDbArc
 50
90.0
 51
180.0
  0
ARC
  5
1F2
330
1F
100
AcDbEntity
  8
0
  6
Continuous
 62
     7
370
    25
100
AcDbCircle
 10
14.75
 20
35.3
 30
0.0
 40
0.4999999999999947
100
AcDbArc
 50
0.0
 51
90.0
  0
ARC
  5
1F3
330
1F
100
AcDbEntity
  8
0
  6
Continuous
 62
     7
370
    25
100
AcDbCircle
 10
-14.75
 20
35.3
 30
0.0
 40
0.4999999999999947
100
AcDbArc
 50
90.0
 51
180.0
  0
ARC
  5
1F4
330
1F
100
AcDbEntity
  8
0
  6
Continuous
 62
     7
370
    25
100
AcDbCircle
 10
12.5
 20
54.3
 30
0.0
 40
0.5000000000000089
100
AcDbArc
 50
0.0
 51
90.0
  0
ARC
  5
1F5
330
1F
100
AcDbEntity
  8
0
  6
Continuous
 62
     7
370
    25
100
AcDbCircle
 10
-12.5
 20
54.3
 30
0.0
 40
0.5000000000000089
100
AcDbArc
 50
90.0
 51
180.0
  0
ARC
  5
1F6
330
1F
100
AcDbEntity
  8
0
  6
Continuous
 62
     7
370
    25
100
AcDbCircle
 10
-12.5
 20
40.862145265
 30
0.0
 40
0.5000000000000746
100
AcDbArc
 50
180.0
 51
194.2091635659
  0
ARC
  5
1F7
330
1F
100
AcDbEntity
  8
0
  6
Continuous
 62
     7
370
    25
100
AcDbCircle
 10
12.5
 20
40.862145265
 30
0.0
 40
0.500000000000151
100
AcDbArc
 50
345.7908364341
 51
360.0
  0
SPLINE
  5
1F8
330
1B
100
AcDbEntity
 67
     1
  8
0
  6
Continuous
 62
     7
370
    25
100
AcDbSpline
210
0.0
220
0.0
230
1.0
 70
     8
 71
     3
 72
    17
 73
    13
 74
     0
 42
0.000000001
 43
0.00000001
 40
0.0
 40
0.0
 40
0.0
 40
0.0
 40
0.1010350440157064
 40
0.2038260065145683
 40
0.3048610505302785
 40
0.4058960945459874
 40
0.5086870570448482
 40
0.6097221010605567
 40
0.7107571450762659
 40
0.8135481075751266
 40
0.9145831515908349
 40
0.9999999999999999
 40
0.9999999999999999
 40
0.9999999999999999
 40
0.9999999999999999
 10
9.67389033434124
 20
0.0000000000003621
 30
0.0
 10
9.610409121104336
 20
-0.8392823883603783
 30
0.0
 10
9.482343435491657
 20
-2.532433306679228
 30
0.0
 10
8.466563530635973
 20
-4.893103745646728
 30
0.0
 10
6.920231958494238
 20
-6.918140690962939
 30
0.0
 10
4.892577076480116
 20
-8.474474621128898
 30
0.0
 10
2.532402854060674
 20
-9.452451194554632
 30
0.0
 10
0.0006280476269552
 20
-9.783271743847433
 30
0.0
 10
-2.53493687462436
 20
-9.454001891133656
 30
0.0
 10
-4.88360901046078
 20
-8.4681909847442
 30
0.0
 10
-6.846882157441008
 20
-7.019468609251221
 30
0.0
 10
-7.729597145789707
 20
-5.742417585102609
 30
0.0
 10
-8.133984204390677
 20
-5.157378343495432
 30
0.0
  0
SPLINE
  5
1F9
330
1B
100
AcDbEntity
 67
     1
  8
0
  6
Continuous
 62
     7
370
    25
100
AcDbSpline
210
0.0
220
0.0
230
1.0
 70
     8
 71
     3
 72
    44
 73
    40
 74
     0
 42
0.000000001
 43
0.00000001
 40
0.0
 40
0.0
 40
0.0
 40
0.0
 40
0.0625
 40
0.0625
 40
0.1250000000000001
 40
0.1250000000000001
 40
0.1562500000000001
 40
0.1562500000000001
 40
0.1875000000000001
 40
0.1875000000000001
 40
0.2500000000000001
 40
0.2500000000000001
 40
0.3125000000000001
 40
0.3125000000000001
 40
0.3750000000000002
 40
0.3750000000000002
 40
0.4375000000000002
 40
0.4375000000000002
 40
0.5000000000000002
 40
0.5000000000000002
 40
0.5625000000000002
 40
0.5625000000000002
 40
0.5937500000000002
 40
0.5937500000000002
 40
0.6250000000000002
 40
0.6250000000000002
 40
0.6875000000000003
 40
0.6875000000000003
 40
0.7500000000000003
 40
0.7500000000000003
 40
0.7812500000000003
 40
0.7812500000000003
 40
0.8125000000000003
 40
0.8125000000000003
 40
0.8750000000000002
 40
0.8750000000000002
 40
0.9375000000000002
 40
0.9375000000000002
 40
1.0
 40
1.0
 40
1.0
 40
1.0
 10
-7.851840186592598
 20
-5.650907881488634
 30
0.0
 10
-8.29471717306204
 20
-5.035537857236579
 30
0.0
 10
-8.670348977005752
 20
-4.358853827305935
 30
0.0
 10
-9.249724568764051
 20
-2.935498845662699
 30
0.0
 10
-9.453248120757959
 20
-2.189388254845395
 30
0.0
 10
-9.622378019449783
 20
-1.066436656451066
 30
0.0
 10
-9.656307038931361
 20
-0.6915204599169825
 30
0.0
 10
-9.680897412631408
 20
0.0518793090328036
 30
0.0
 10
-9.671988125015625
 20
0.4212278036860426
 30
0.0
 10
-9.579536532053927
 20
1.542454485755683
 30
0.0
 10
-9.42861346633975
 20
2.296557240697255
 30
0.0
 10
-8.948677593987076
 20
3.754210486416004
 30
0.0
 10
-8.61976677494624
 20
4.457170051425388
 30
0.0
 10
-7.814114039845691
 20
5.753813161206832
 30
0.0
 10
-7.338627616379679
 20
6.346327880111606
 30
0.0
 10
-6.288405968508843
 20
7.388320731329601
 30
0.0
 10
-5.690576851285323
 20
7.860332986053629
 30
0.0
 10
-4.386588132069873
 20
8.65594270496351
 30
0.0
 10
-3.680817286722283
 20
8.979094212724549
 30
0.0
 10
-2.219765236886189
 20
9.446967294975078
 30
0.0
 10
-1.465076702219718
 20
9.591601327015306
 30
0.0
 10
-0.3445656734338578
 20
9.675004216396184
 30
0.0
 10
0.024248566951426
 20
9.68102641441009
 30
0.0
 10
0.7684887702335483
 20
9.650507004273399
 30
0.0
 10
1.143573786050697
 20
9.613530186262073
 30
0.0
 10
2.266212612841024
 20
9.435184808792844
 30
0.0
 10
3.011002134205771
 20
9.225423246705343
 30
0.0
 10
4.429585594616647
 20
8.634427566029366
 30
0.0
 10
5.102824674363586
 20
8.253427235743395
 30
0.0
 10
6.019620881442322
 20
7.582331454941835
 30
0.0
 10
6.309857897006997
 20
7.342231100479368
 30
0.0
 10
6.855306368920433
 20
6.835747128259423
 30
0.0
 10
7.110990246670868
 20
6.569507463243077
 30
0.0
 10
7.841401985845257
 20
5.714752373044529
 30
0.0
 10
8.270352006521724
 20
5.076812038004745
 30
0.0
 10
8.967179124145845
 20
3.709776453708621
 30
0.0
 10
9.234704732562115
 20
2.981166716897315
 30
0.0
 10
9.588036574623874
 20
1.495553788807461
 30
0.0
 10
9.673890334341221
 20
0.739139747244245
 30
0.0
 10
9.67389033434124
 20
0.0000000000002847
 30
0.0
  0
SPLINE
  5
1FA
330
1B
100
AcDbEntity
 67
     1
  8
0
  6
Continuous
 62
     7
370
    25
100
AcDbSpline
210
0.0
220
0.0
230
1.0
 70
     8
 71
     3
 72
   101
 73
    97
 74
     0
 42
0.000000001
 43
0.00000001
 40
0.0
 40
0.0
 40
0.0
 40
0.0
 40
0.0312500000000001
 40
0.0312500000000001
 40
0.0468750000000002
 40
0.0468750000000002
 40
0.0625000000000003
 40
0.0625000000000003
 40
0.0937500000000004
 40
0.0937500000000004
 40
0.1093750000000005
 40
0.1093750000000005
 40
0.1250000000000006
 40
0.1250000000000006
 40
0.1562500000000007
 40
0.1562500000000007
 40
0.1718750000000007
 40
0.1718750000000007
 40
0.1875000000000008
 40
0.1875000000000008
 40
0.218750000000001
 40
0.218750000000001
 40
0.2343750000000011
 40
0.2343750000000011
 40
0.2500000000000012
 40
0.2656250000000013
 40
0.2656250000000013
 40
0.2812500000000014
 40
0.2812500000000014
 40
0.3125000000000015
 40
0.3125000000000015
 40
0.3281250000000016
 40
0.3281250000000016
 40
0.3437500000000016
 40
0.3437500000000016
 40
0.3750000000000017
 40
0.3750000000000017
 40
0.3906250000000016
 40
0.3906250000000016
 40
0.4062500000000016
 40
0.4062500000000016
 40
0.4375000000000017
 40
0.4375000000000017
 40
0.4531250000000017
 40
0.4531250000000017
 40
0.4687500000000016
 40
0.4843750000000017
 40
0.4843750000000017
 40
0.5000000000000017
 40
0.5000000000000017
 40
0.5312500000000018
 40
0.5312500000000018
 40
0.5468750000000018
 40
0.5468750000000018
 40
0.5625000000000019
 40
0.5625000000000019
 40
0.5937500000000017
 40
0.5937500000000017
 40
0.6093750000000017
 40
0.6093750000000017
 40
0.6250000000000016
 40
0.6250000000000016
 40
0.6562500000000014
 40
0.6562500000000014
 40
0.6875000000000013
 40
0.6875000000000013
 40
0.7031250000000012
 40
0.7031250000000012
 40
0.7187500000000012
 40
0.7187500000000012
 40
0.750000000000001
 40
0.750000000000001
 40
0.765625000000001
 40
0.765625000000001
 40
0.7812500000000009
 40
0.7812500000000009
 40
0.8125000000000008
 40
0.8125000000000008
 40
0.8281250000000008
 40
0.8281250000000008
 40
0.8437500000000007
 40
0.8593750000000006
 40
0.8593750000000006
 40
0.8750000000000006
 40
0.8750000000000006
 40
0.9062500000000004
 40
0.9062500000000004
 40
0.9218750000000003
 40
0.9218750000000003
 40
0.9375000000000002
 40
0.9375000000000002
 40
0.9687500000000001
 40
0.9687500000000001
 40
0.9843750000000001
 40
0.9843750000000001
 40
1.0
 40
1.0
 40
1.0
 40
1.0
 10
-8.570781839528381
 20
-6.132490941723053
 30
0.0
 10
-8.175126303131059
 20
-6.670484899069456
 30
0.0
 10
-7.735380603977211
 20
-7.162787582968477
 30
0.0
 10
-7.011948664747346
 20
-7.835110869155192
 30
0.0
 10
-6.760037962367694
 20
-8.048060920804172
 30
0.0
 10
-6.23427409267181
 20
-8.451221730281366
 30
0.0
 10
-5.958892761812828
 20
-8.642290533575572
 30
0.0
 10
-5.114398278486951
 20
-9.170303326854302
 30
0.0
 10
-4.52522486437735
 20
-9.4647976102478
 30
0.0
 10
-3.603018919319957
 20
-9.822068897809304
 30
0.0
 10
-3.289166611355911
 20
-9.9269871779135
 30
0.0
 10
-2.64816801966183
 20
-10.10761526116521
 30
0.0
 10
-2.322833359066404
 20
-10.1826502668811
 30
0.0
 10
-1.346955320961067
 20
-10.35958791759465
 30
0.0
 10
-0.6908929113163321
 20
-10.4154035458093
 30
0.0
 10
0.3014305128094005
 20
-10.40575128827048
 30
0.0
 10
0.6353312034110438
 20
-10.38650784797857
 30
0.0
 10
1.29696280809006
 20
-10.31608339634855
 30
0.0
 10
1.623754328035946
 20
-10.2652133553119
 30
0.0
 10
2.592391364690554
 20
-10.06693447658748
 30
0.0
 10
3.222606117902301
 20
-9.874272267513541
 30
0.0
 10
4.143987601582838
 20
-9.492129871200683
 30
0.0
 10
4.446611637837522
 20
-9.349081085271981
 30
0.0
 10
5.030746068864222
 20
-9.037866504611634
 30
0.0
 10
5.597165696026488
 20
-8.700217869030606
 30
0.0
 10
6.128691542771806
 20
-8.310500685867373
 30
0.0
 10
6.642556814196911
 20
-7.894430367692329
 30
0.0
 10
6.891701212859845
 20
-7.672173906962679
 30
0.0
 10
7.604114295488674
 20
-6.971735860473785
 30
0.0
 10
8.027129669330009
 20
-6.465988666781219
 30
0.0
 10
8.58578132223981
 20
-5.650693008294696
 30
0.0
 10
8.759288931220766
 20
-5.369433890997525
 30
0.0
 10
9.08021491530063
 20
-4.787427367902882
 30
0.0
 10
9.2274416170449
 20
-4.48652909090516
 30
0.0
 10
9.620163196302542
 20
-3.574291746599389
 30
0.0
 10
9.820938863901363
 20
-2.947107032156767
 30
0.0
 10
10.03095862751788
 20
-1.977919387799273
 30
0.0
 10
10.08582243900064
 20
-1.6486522751836
 30
0.0
 10
10.16297912072327
 20
-0.9869691102028897
 30
0.0
 10
10.18517653095126
 20
-0.6567178610153692
 30
0.0
 10
10.20409230148683
 20
0.33231773006289
 30
0.0
 10
10.15330588123765
 20
0.9893901024303992
 30
0.0
 10
9.978779740281325
 20
1.971454465495235
 30
0.0
 10
9.903960299274042
 20
2.297876394611508
 30
0.0
 10
9.724645072317633
 20
2.935075597308823
 30
0.0
 10
9.515091245598352
 20
3.560347653481565
 30
0.0
 10
9.245984692091408
 20
4.162130060533472
 30
0.0
 10
8.946706044403262
 20
4.7520115531557
 30
0.0
 10
8.781044606801297
 20
5.042422038858728
 30
0.0
 10
8.243933593191509
 20
5.884252143588462
 30
0.0
 10
7.836249870395957
 20
6.40248442134869
 30
0.0
 10
7.152400866564073
 20
7.117163173296752
 30
0.0
 10
6.912318590986257
 20
7.344876280955131
 30
0.0
 10
6.406795873484092
 20
7.77832914669728
 30
0.0
 10
6.142475823138434
 20
7.98293210296331
 30
0.0
 10
5.328973125465436
 20
8.5507074031844
 30
0.0
 10
4.754470396163483
 20
8.872675182925688
 30
0.0
 10
3.844277219123229
 20
9.270473277561377
 30
0.0
 10
3.530914900206607
 20
9.389301736260927
 30
0.0
 10
2.898420545872598
 20
9.593656151204126
 30
0.0
 10
2.579222940093835
 20
9.679470499186165
 30
0.0
 10
1.612999171572183
 20
9.889046924382134
 30
0.0
 10
0.9574275586127428
 20
9.965416564913554
 30
0.0
 10
-0.37744366790682
 20
9.986562104561713
 30
0.0
 10
-1.036800519217789
 20
9.930419397777833
 30
0.0
 10
-2.008208279110428
 20
9.749757018294936
 30
0.0
 10
-2.32939381420708
 20
9.673384500867119
 30
0.0
 10
-2.966414380646047
 20
9.487617624370905
 30
0.0
 10
-3.283379576857173
 20
9.37759601244521
 30
0.0
 10
-4.205532463990138
 20
9.004577948993902
 30
0.0
 10
-4.78852652866533
 20
8.697740720911494
 30
0.0
 10
-5.615808509772377
 20
8.151075652564423
 30
0.0
 10
-5.884694997664227
 20
7.953472460711871
 30
0.0
 10
-6.401115904515087
 20
7.532071410093812
 30
0.0
 10
-6.646726063262562
 20
7.310037087626377
 30
0.0
 10
-7.34692187982822
 20
6.610981732017621
 30
0.0
 10
-7.764855733958244
 20
6.100992889860027
 30
0.0
 10
-8.31600361242605
 20
5.267870900060939
 30
0.0
 10
-8.485976069988924
 20
4.979941192197811
 30
0.0
 10
-8.793049070308168
 20
4.394103956926667
 30
0.0
 10
-9.069185188471172
 20
3.795448806113201
 30
0.0
 10
-9.284187266219405
 20
3.171464310123936
 30
0.0
 10
-9.46804893732616
 20
2.534577573363632
 30
0.0
 10
-9.544622556863379
 20
2.207913065831022
 30
0.0
 10
-9.722241619675184
 20
1.227894158136038
 30
0.0
 10
-9.773589757197689
 20
0.5708897369135332
 30
0.0
 10
-9.751180321108295
 20
-0.4200410547079027
 30
0.0
 10
-9.726732859627518
 20
-0.7522556948153346
 30
0.0
 10
-9.643335890492077
 20
-1.414314972750326
 30
0.0
 10
-9.584960879761605
 20
-1.74045495718699
 30
0.0
 10
-9.36145717645934
 20
-2.704690002555951
 30
0.0
 10
-9.14844857506768
 20
-3.328746395553851
 30
0.0
 10
-8.730251300241695
 20
-4.235896152605665
 30
0.0
 10
-8.574592343885625
 20
-4.532341497044973
 30
0.0
 10
-8.235189739196455
 20
-5.104995775099579
 30
0.0
 10
-8.050899772162667
 20
-5.382445560999865
 30
0.0
 10
-7.851840186592639
 20
-5.650907881488576
 30
0.0
  0
CIRCLE
  5
1FB
330
1B
100
AcDbEntity
 67
     1
  8
0
  6
Continuous
 62
     7
370
    25
100
AcDbCircle
 10
0.0
 20
0.0
 30
0.0
 40
12.5
  0
SPLINE
  5
1FC
330
1B
100
AcDbEntity
 67
     1
  8
0
  6
Continuous
 62
     7
370
    25
100
AcDbSpline
210
0.0
220
0.0
230
1.0
 70
     8
 71
     3
 72
    14
 73
    10
 74
     0
 42
0.000000001
 43
0.00000001
 40
0.0
 40
0.0
 40
0.0
 40
0.0
 40
0.0002340358156817
 40
0.0002340358156817
 40
0.0002340358156817
 40
0.0004680716312995
 40
0.0004680716312995
 40
0.0004680716312995
 40
0.0008653330740052
 40
0.0008653330740052
 40
0.0008653330740052
 40
0.0008653330740052
 10
-7.851840186592599
 20
-5.650907881488638
 30
0.0
 10
-7.916535088155617
 20
-5.694501829115901
 30
0.0
 10
-7.981262424332929
 20
-5.738047681245898
 30
0.0
 10
-8.046022078181704
 20
-5.781545379936337
 30
0.0
 10
-8.110781732019866
 20
-5.825043078619647
 30
0.0
 10
-8.175573739317047
 20
-5.868492647901252
 30
0.0
 10
-8.240397983116456
 20
-5.911894030043038
 30
0.0
 10
-8.350433103919324
 20
-5.985565176007511
 30
0.0
 10
-8.460561246760017
 20
-6.059097573578457
 30
0.0
 10
-8.570781839528577
 20
-6.132490941722778
 30
0.0
  0
CIRCLE
  5
1FD
330
1B
100
AcDbEntity
 67
     1
  8
0
  6
Continuous
 62
     7
370
    25
100
AcDbCircle
 10
0.0
 20
0.0
 30
0.0
 40
13.0
  0
SPLINE
  5
1FF
330
1B
100
AcDbEntity
 67
     1
  8
0
  6
Continuous
 62
     7
370
    25
100
AcDbSpline
210
0.0
220
0.0
230
1.0
 70
     8
 71
     3
 72
    10
 73
     6
 74
     0
 42
0.000000001
 43
0.00000001
 40
0.0
 40
0.0
 40
0.0
 40
0.0
 40
0.5
 40
0.5
 40
1.0
 40
1.0
 40
1.0
 40
1.0
 10
8.521567784179773
 20
3.79272479701625
 30
0.0
 10
8.78946361042839
 20
3.190811248141734
 30
0.0
 10
8.993201958864024
 20
2.559493511713341
 30
0.0
 10
9.262184901628634
 20
1.280866643121335
 30
0.0
 10
9.327479771421217
 20
0.6338704324462051
 30
0.0
 10
9.327479771421238
 20
0.0000000000003624
 30
0.0
  0
SPLINE
  5
200
330
1B
100
AcDbEntity
 67
     1
  8
0
  6
Continuous
 62
     7
370
    25
100
AcDbSpline
210
0.0
220
0.0
230
1.0
 70
     8
 71
     3
 72
    20
 73
    16
 74
     0
 42
0.000000001
 43
0.00000001
 40
0.0
 40
0.0
 40
0.0
 40
0.0
 40
0.2500000000000001
 40
0.2500000000000001
 40
0.3750000000000001
 40
0.3750000000000001
 40
0.5000000000000001
 40
0.5000000000000001
 40
0.6250000000000001
 40
0.6250000000000001
 40
0.7500000000000002
 40
0.7500000000000002
 40
0.8750000000000002
 40
0.8750000000000002
 40
1.0
 40
1.0
 40
1.0
 40
1.0
 10
-0.9627779411557691
 20
9.451087695922824
 30
0.0
 10
0.0206954822389629
 20
9.537097867515113
 30
0.0
 10
1.015812394753347
 20
9.469139452539057
 30
0.0
 10
2.45580222960524
 20
9.139277920548246
 30
0.0
 10
2.928165777321863
 20
8.991107264751186
 30
0.0
 10
3.83523323306641
 20
8.627184871610607
 30
0.0
 10
4.272886828073886
 20
8.410918680915184
 30
0.0
 10
5.11604963383017
 20
7.908946520742997
 30
0.0
 10
5.520953931627288
 20
7.622894788498326
 30
0.0
 10
6.277874444609368
 20
6.99358264924133
 30
0.0
 10
6.632761134811905
 20
6.648312374716916
 30
0.0
 10
7.28165726415745
 20
5.908322368939648
 30
0.0
 10
7.577762855107906
 20
5.510976560169753
 30
0.0
 10
8.09984100840961
 20
4.681111499447498
 30
0.0
 10
8.327671188154852
 20
4.246812626400934
 30
0.0
 10
8.521567784179668
 20
3.792724797016481
 30
0.0
  0
SPLINE
  5
202
330
1B
100
AcDbEntity
 67
     1
  8
0
  6
Continuous
 62
     7
370
    25
100
AcDbSpline
210
0.0
220
0.0
230
1.0
 70
     8
 71
     3
 72
    12
 73
     8
 74
     0
 42
0.000000001
 43
0.00000001
 40
0.0
 40
0.0
 40
0.0
 40
0.0
 40
0.5
 40
0.5
 40
0.75
 40
0.75
 40
1.0
 40
1.0
 40
1.0
 40
1.0
 10
8.5215677841796
 20
3.79272479701662
 30
0.0
 10
8.778433075880809
 20
3.191170127444837
 30
0.0
 10
8.968134154924307
 20
2.573543182890893
 30
0.0
 10
9.155942405372487
 20
1.623952252513048
 30
0.0
 10
9.202287473646528
 20
1.303531508429388
 30
0.0
 10
9.26151285507611
 20
0.6546819647042093
 30
0.0
 10
9.27418543877468
 20
0.3270176759645886
 30
0.0
 10
9.269567361605056
 20
-0.0000000000005237
 30
0.0
  0
CIRCLE
  5
204
330
1B
100
AcDbEntity
 67
     1
  8
0
  6
Continuous
 62
     7
370
    25
100
AcDbCircle
 10
0.0
 20
0.0
 30
0.0
 40
15.25000000000001
  0
CIRCLE
  5
205
330
1B
100
AcDbEntity
 67
     1
  8
0
  6
Continuous
 62
     7
370
    25
100
AcDbCircle
 10
0.0
 20
0.0
 30
0.0
 40
14.75
  0
CIRCLE
  5
206
330
1B
100
AcDbEntity
 67
     1
  8
0
  6
Continuous
 62
     7
370
    25
100
AcDbCircle
 10
0.0
 20
0.0
 30
0.0
 40
16.74999999999999
  0
CIRCLE
  5
207
330
1B
100
AcDbEntity
 67
     1
  8
0
  6
Continuous
 62
     7
370
    25
100
AcDbCircle
 10
0.0
 20
0.0
 30
0.0
 40
16.24999999999999
  0
CIRCLE
  5
208
330
1B
100
AcDbEntity
 67
     1
  8
0
  6
Continuous
 62
     7
370
    25
100
AcDbCircle
 10
0.0
 20
0.0
 30
0.0
 40
16.99999999999999
  0
CIRCLE
  5
209
330
1B
100
AcDbEntity
 67
     1
  8
0
  6
Continuous
 62
     7
370
    25
100
AcDbCircle
 10
0.0
 20
0.0
 30
0.0
 40
18.99999999999999
  0
CIRCLE
  5
20A
330
1B
100
AcDbEntity
 67
     1
  8
0
  6
Continuous
 62
     7
370
    25
100
AcDbCircle
 10
0.0
 20
0.0
 30
0.0
 40
101.0000000000001
  0
CIRCLE
  5
20B
330
1B
100
AcDbEntity
 67
     1
  8
0
  6
Continuous
 62
     7
370
    25
100
AcDbCircle
 10
0.0
 20
0.0
 30
0.0
 40
111.0
  0
CIRCLE
  5
20C
330
1B
100
AcDbEntity
 67
     1
  8
0
  6
Continuous
 62
     7
370
    25
100
AcDbCircle
 10
0.0
 20
0.0
 30
0.0
 40
125.0
  0
CIRCLE
  5
20D
330
1B
100
AcDbEntity
 67
     1
  8
0
  6
Continuous
 62
     7
370
    25
100
AcDbCircle
 10
0.0
 20
0.0
 30
0.0
 40
124.4999999999999
  0
LINE
  5
20E
330
1B
100
AcDbEntity
 67
     1
  8
0
  6
Continuous
 62
     7
370
    25
100
AcDbLine
 10
9.2695673616
 20
0.0
 30
0.0
 11
9.6738903343
 21
0.0
 31
0.0
  0
VIEWPORT
  5
20F
330
1B
100
AcDbEntity
 67
     1
  8
0
100
AcDbViewport
 10
0.0
 20
0.0
 30
0.0
 40
205.6
 41
156.0
 68
     1
 69
     1
 12
0.0
 22
24.8976744843
 13
0.0
 23
0.0
 14
10.0
 24
10.0
 15
10.0
 25
10.0
 16
0.0
 26
0.0
 36
1.0
 17
0.0
 27
0.0
 37
0.0
 42
50.0
 43
0.0
 44
0.0
 45
193.4824902724
 50
0.0
 51
0.0
 72
   100
 90
   557152
  1

281
     0
 71
     1
 74
     0
110
0.0
120
0.0
130
0.0
111
1.0
121
0.0
131
0.0
112
0.0
122
1.0
132
0.0
 79
     0
146
0.0
  0
ENDSEC
  0
SECTION
  2
OBJECTS
  0
DICTIONARY
  5
C
330
0
100
AcDbDictionary
281
     1
  3
ACAD_GROUP
350
D
  3
ACAD_LAYOUT
350
1A
  3
ACAD_MLINESTYLE
350
17
  3
ACAD_PLOTSETTINGS
350
19
  3
ACAD_PLOTSTYLENAME
350
E
  3
ACAD_SCALELIST
350
47
  0
DICTIONARY
  5
D
102
{ACAD_REACTORS
330
C
102
}
330
C
100
AcDbDictionary
281
     1
  0
DICTIONARY
  5
1A
102
{ACAD_REACTORS
330
C
102
}
330
C
100
AcDbDictionary
281
     1
  3
_Top
350
1E
  3
Layout2
350
26
  3
Model
350
22
  0
DICTIONARY
  5
17
102
{ACAD_REACTORS
330
C
102
}
330
C
100
AcDbDictionary
281
     1
  3
Standard
350
18
  0
DICTIONARY
  5
19
102
{ACAD_REACTORS
330
C
102
}
330
C
100
AcDbDictionary
281
     1
  0
ACDBDICTIONARYWDFLT
  5
E
102
{ACAD_REACTORS
330
C
102
}
330
C
100
AcDbDictionary
281
     1
  3
Normal
350
F
100
AcDbDictionaryWithDefault
340
F
  0
DICTIONARY
  5
47
102
{ACAD_REACTORS
330
C
102
}
330
C
100
AcDbDictionary
281
     1
  3
A0
350
48
  3
A1
350
49
  3
A2
350
4A
  3
A3
350
4B
  3
A4
350
4C
  3
A5
350
4D
  3
A6
350
4E
  3
A7
350
4F
  3
A8
350
50
  3
A9
350
51
  3
B0
350
52
  3
B1
350
53
  3
B2
350
54
  3
B3
350
55
  3
B4
350
56
  3
B5
350
57
  3
B6
350
58
  3
B7
350
59
  3
B8
350
5A
  3
B9
350
5B
  3
C0
350
5C
  3
C1
350
5D
  3
C2
350
5E
  3
C3
350
5F
  3
C4
350
60
  3
C5
350
61
  3
C6
350
62
  3
C7
350
63
  3
C8
350
64
  3
C9
350
65
  3
D0
350
66
  3
D1
350
67
  3
D2
350
68
  0
LAYOUT
  5
1E
102
{ACAD_REACTORS
330
1A
102
}
330
1A
100
AcDbPlotSettings
  1

  2
none_device
  4
ISO_A4_(210.00_x_297.00_MM)
  6

 40
7.5
 41
20.0
 42
7.5
 43
20.0
 44
210.0
 45
297.0
 46
0.0
 47
0.0
 48
0.0
 49
0.0
140
0.0
141
0.0
142
1.0
143
1.2820512821
 70
   688
 72
     1
 73
     1
 74
     1
  7

 75
     0
147
0.78
148
125.0
149
125.0
100
AcDbLayout
  1
_Top
 70
     1
 71
     1
 10
-150.641025641
 20
-134.6153846154
 11
230.1282051282
 21
134.6153846154
 12
0.0
 22
0.0
 32
0.0
 14
-125.0
 24
-125.0
 34
0.0
 15
125.0
 25
125.0
 35
0.0
146
0.0
 13
0.0
 23
0.0
 33
0.0
 16
1.0
 26
0.0
 36
0.0
 17
0.0
 27
1.0
 37
0.0
 76
     0
330
1B
331
20F
  0
LAYOUT
  5
26
102
{ACAD_REACTORS
330
1A
102
}
330
1A
100
AcDbPlotSettings
  1

  2
none_device
  4

  6

 40
0.0
 41
0.0
 42
0.0
 43
0.0
 44
0.0
 45
0.0
 46
0.0
 47
0.0
 48
0.0
 49
0.0
140
0.0
141
0.0
142
1.0
143
1.0
 70
   688
 72
     1
 73
     0
 74
     5
  7

 75
    16
147
1.0
148
0.0
149
0.0
100
AcDbLayout
  1
Layout2
 70
     1
 71
     2
 10
0.0
 20
0.0
 11
0.0
 21
0.0
 12
0.0
 22
0.0
 32
0.0
 14
0.0
 24
0.0
 34
0.0
 15
0.0
 25
0.0
 35
0.0
146
0.0
 13
0.0
 23
0.0
 33
0.0
 16
1.0
 26
0.0
 36
0.0
 17
0.0
 27
1.0
 37
0.0
 76
     0
330
23
  0
LAYOUT
  5
22
102
{ACAD_REACTORS
330
1A
102
}
330
1A
100
AcDbPlotSettings
  1

  2
none_device
  4
ANSI_A_(11.00_x_8.50_Inches)
  6

 40
6.35
 41
19.05
 42
6.35000508
 43
19.05000254
 44
279.4
 45
215.9
 46
133.34999746
 47
61.3526141364
 48
0.0
 49
0.0
140
0.0
141
0.0
142
0.04356
143
1.0
 70
  1696
 72
     0
 73
     0
 74
     0
  7

 75
     0
147
0.0179189148
148
-1300.4909072572
149
0.0
100
AcDbLayout
  1
Model
 70
     1
 71
     0
 10
0.0
 20
0.0
 11
420.0
 21
297.0
 12
0.0
 22
0.0
 32
0.0
 14
-125.0
 24
-5.0046510314
 34
0.0
 15
125.0
 25
54.8
 35
0.0
146
0.0
 13
0.0
 23
0.0
 33
0.0
 16
1.0
 26
0.0
 36
0.0
 17
0.0
 27
1.0
 37
0.0
 76
     0
330
1F
331
29
  0
MLINESTYLE
  5
18
102
{ACAD_REACTORS
330
17
102
}
330
17
100
AcDbMlineStyle
  2
Standard
 70
     0
  3

 62
   256
 51
90.0
 52
90.0
 71
     2
 49
0.5
 62
   256
  6
BYLAYER
 49
-0.5
 62
   256
  6
BYLAYER
  0
ACDBPLACEHOLDER
  5
F
102
{ACAD_REACTORS
330
E
102
}
330
E
  0
SCALE
  5
48
102
{ACAD_REACTORS
330
47
102
}
330
47
100
AcDbScale
 70
     0
300
1:1
140
1.0
141
1.0
290
     1
  0
SCALE
  5
49
102
{ACAD_REACTORS
330
47
102
}
330
47
100
AcDbScale
 70
     0
300
1:2
140
1.0
141
2.0
290
     0
  0
SCALE
  5
4A
102
{ACAD_REACTORS
330
47
102
}
330
47
100
AcDbScale
 70
     0
300
1:4
140
1.0
141
4.0
290
     0
  0
SCALE
  5
4B
102
{ACAD_REACTORS
330
47
102
}
330
47
100
AcDbScale
 70
     0
300
1:5
140
1.0
141
5.0
290
     0
  0
SCALE
  5
4C
102
{ACAD_REACTORS
330
47
102
}
330
47
100
AcDbScale
 70
     0
300
1:8
140
1.0
141
8.0
290
     0
  0
SCALE
  5
4D
102
{ACAD_REACTORS
330
47
102
}
330
47
100
AcDbScale
 70
     0
300
1:10
140
1.0
141
10.0
290
     0
  0
SCALE
  5
4E
102
{ACAD_REACTORS
330
47
102
}
330
47
100
AcDbScale
 70
     0
300
1:16
140
1.0
141
16.0
290
     0
  0
SCALE
  5
4F
102
{ACAD_REACTORS
330
47
102
}
330
47
100
AcDbScale
 70
     0
300
1:20
140
1.0
141
20.0
290
     0
  0
SCALE
  5
50
102
{ACAD_REACTORS
330
47
102
}
330
47
100
AcDbScale
 70
     0
300
1:30
140
1.0
141
30.0
290
     0
  0
SCALE
  5
51
102
{ACAD_REACTORS
330
47
102
}
330
47
100
AcDbScale
 70
     0
300
1:40
140
1.0
141
40.0
290
     0
  0
SCALE
  5
52
102
{ACAD_REACTORS
330
47
102
}
330
47
100
AcDbScale
 70
     0
300
1:50
140
1.0
141
50.0
290
     0
  0
SCALE
  5
53
102
{ACAD_REACTORS
330
47
102
}
330
47
100
AcDbScale
 70
     0
300
1:100
140
1.0
141
100.0
290
     0
  0
SCALE
  5
54
102
{ACAD_REACTORS
330
47
102
}
330
47
100
AcDbScale
 70
     0
300
2:1
140
2.0
141
1.0
290
     0
  0
SCALE
  5
55
102
{ACAD_REACTORS
330
47
102
}
330
47
100
AcDbScale
 70
     0
300
4:1
140
4.0
141
1.0
290
     0
  0
SCALE
  5
56
102
{ACAD_REACTORS
330
47
102
}
330
47
100
AcDbScale
 70
     0
300
8:1
140
8.0
141
1.0
290
     0
  0
SCALE
  5
57
102
{ACAD_REACTORS
330
47
102
}
330
47
100
AcDbScale
 70
     0
300
10:1
140
10.0
141
1.0
290
     0
  0
SCALE
  5
58
102
{ACAD_REACTORS
330
47
102
}
330
47
100
AcDbScale
 70
     0
300
100:1
140
100.0
141
1.0
290
     0
  0
SCALE
  5
59
102
{ACAD_REACTORS
330
47
102
}
330
47
100
AcDbScale
 70
     0
300
1/128" = 1'-0"
140
0.0078125
141
12.0
290
     0
  0
SCALE
  5
5A
102
{ACAD_REACTORS
330
47
102
}
330
47
100
AcDbScale
 70
     0
300
1/64" = 1'-0"
140
0.015625
141
12.0
290
     0
  0
SCALE
  5
5B
102
{ACAD_REACTORS
330
47
102
}
330
47
100
AcDbScale
 70
     0
300
1/32" = 1'-0"
140
0.03125
141
12.0
290
     0
  0
SCALE
  5
5C
102
{ACAD_REACTORS
330
47
102
}
330
47
100
AcDbScale
 70
     0
300
1/16" = 1'-0"
140
0.0625
141
12.0
290
     0
  0
SCALE
  5
5D
102
{ACAD_REACTORS
330
47
102
}
330
47
100
AcDbScale
 70
     0
300
3/32" = 1'-0"
140
0.09375
141
12.0
290
     0
  0
SCALE
  5
5E
102
{ACAD_REACTORS
330
47
102
}
330
47
100
AcDbScale
 70
     0
300
1/8" = 1'-0"
140
0.125
141
12.0
290
     0
  0
SCALE
  5
5F
102
{ACAD_REACTORS
330
47
102
}
330
47
100
AcDbScale
 70
     0
300
3/16" = 1'-0"
140
0.1875
141
12.0
290
     0
  0
SCALE
  5
60
102
{ACAD_REACTORS
330
47
102
}
330
47
100
AcDbScale
 70
     0
300
1/4" = 1'-0"
140
0.25
141
12.0
290
     0
  0
SCALE
  5
61
102
{ACAD_REACTORS
330
47
102
}
330
47
100
AcDbScale
 70
     0
300
3/8" = 1'-0"
140
0.375
141
12.0
290
     0
  0
SCALE
  5
62
102
{ACAD_REACTORS
330
47
102
}
330
47
100
AcDbScale
 70
     0
300
1/2" = 1'-0"
140
0.5
141
12.0
290
     0
  0
SCALE
  5
63
102
{ACAD_REACTORS
330
47
102
}
330
47
100
AcDbScale
 70
     0
300
3/4" = 1'-0"
140
0.75
141
12.0
290
     0
  0
SCALE
  5
64
102
{ACAD_REACTORS
330
47
102
}
330
47
100
AcDbScale
 70
     0
300
1" = 1'-0"
140
1.0
141
12.0
290
     0
  0
SCALE
  5
65
102
{ACAD_REACTORS
330
47
102
}
330
47
100
AcDbScale
 70
     0
300
1-1/2" = 1'-0"
140
1.5
141
12.0
290
     0
  0
SCALE
  5
66
102
{ACAD_REACTORS
330
47
102
}
330
47
100
AcDbScale
 70
     0
300
3" = 1'-0"
140
3.0
141
12.0
290
     0
  0
SCALE
  5
67
102
{ACAD_REACTORS
330
47
102
}
330
47
100
AcDbScale
 70
     0
300
6" = 1'-0"
140
6.0
141
12.0
290
     0
  0
SCALE
  5
68
102
{ACAD_REACTORS
330
47
102
}
330
47
100
AcDbScale
 70
     0
300
1'-0" = 1'-0"
140
12.0
141
12.0
290
     0
  0
ENDSEC
  0
EOF
