  0
SECTION
  2
HEADER
  9
$ACADVER
  1
AC1015
  9
$ACADMAINTVER
 70
     6
  9
$DWGCODEPAGE
  3
ANSI_1252
  9
$INSBASE
 10
0.0
 20
0.0
 30
0.0
  9
$EXTMIN
 10
-100.0
 20
-5.0017676952
 30
0.0
  9
$EXTMAX
 10
100.0
 20
48.8
 30
0.0
  9
$LIMMIN
 10
0.0
 20
0.0
  9
$LIMMAX
 10
420.0
 20
297.0
  9
$ORTHOMODE
 70
     0
  9
$REGENMODE
 70
     1
  9
$FILLMODE
 70
     1
  9
$QTEXTMODE
 70
     0
  9
$MIRRTEXT
 70
     1
  9
$LTSCALE
 40
1.0
  9
$ATTMODE
 70
     1
  9
$TEXTSIZE
 40
3.5
  9
$TRACEWID
 40
1.0
  9
$TEXTSTYLE
  7
Standard
  9
$CLAYER
  8
0
  9
$CELTYPE
  6
ByLayer
  9
$CECOLOR
 62
   256
  9
$CELTSCALE
 40
1.0
  9
$DISPSILH
 70
     0
  9
$DIMSCALE
 40
1.0
  9
$DIMASZ
 40
3.302
  9
$DIMEXO
 40
1.0
  9
$DIMDLI
 40
3.75
  9
$DIMRND
 40
0.0
  9
$DIMDLE
 40
0.0
  9
$DIMEXE
 40
1.0
  9
$DIMTP
 40
0.0
  9
$DIMTM
 40
0.0
  9
$DIMTXT
 40
3.5
  9
$DIMCEN
 40
2.5
  9
$DIMTSZ
 40
0.0
  9
$DIMTOL
 70
     0
  9
$DIMLIM
 70
     0
  9
$DIMTIH
 70
     1
  9
$DIMTOH
 70
     1
  9
$DIMSE1
 70
     0
  9
$DIMSE2
 70
     0
  9
$DIMTAD
 70
     1
  9
$DIMZIN
 70
     1
  9
$DIMBLK
  1

  9
$DIMASO
 70
     1
  9
$DIMSHO
 70
     1
  9
$DIMPOST
  1

  9
$DIMAPOST
  1

  9
$DIMALT
 70
     0
  9
$DIMALTD
 70
     3
  9
$DIMALTF
 40
0.0393700787
  9
$DIMLFAC
 40
1.0
  9
$DIMTOFL
 70
     1
  9
$DIMTVP
 40
0.0
  9
$DIMTIX
 70
     0
  9
$DIMSOXD
 70
     0
  9
$DIMSAH
 70
     0
  9
$DIMBLK1
  1

  9
$DIMBLK2
  1

  9
$DIMSTYLE
  2
ISO-25
  9
$DIMCLRD
 70
     0
  9
$DIMCLRE
 70
     0
  9
$DIMCLRT
 70
     0
  9
$DIMTFAC
 40
1.0
  9
$DIMGAP
 40
1.524
  9
$DIMJUST
 70
     0
  9
$DIMSD1
 70
     0
  9
$DIMSD2
 70
     0
  9
$DIMTOLJ
 70
     0
  9
$DIMTZIN
 70
     1
  9
$DIMALTZ
 70
     0
  9
$DIMALTTZ
 70
     0
  9
$DIMUPT
 70
     0
  9
$DIMDEC
 70
     2
  9
$DIMTDEC
 70
     2
  9
$DIMALTU
 70
     2
  9
$DIMALTTD
 70
     3
  9
$DIMTXSTY
  7
Standard
  9
$DIMAUNIT
 70
     0
  9
$DIMADEC
 70
     2
  9
$DIMALTRND
 40
0.0
  9
$DIMAZIN
 70
     0
  9
$DIMDSEP
 70
    44
  9
$DIMATFIT
 70
     3
  9
$DIMFRAC
 70
     0
  9
$DIMLDRBLK
  1

  9
$DIMLUNIT
 70
     2
  9
$DIMLWD
 70
    -2
  9
$DIMLWE
 70
    -2
  9
$DIMTMOVE
 70
     0
  9
$LUNITS
 70
     2
  9
$LUPREC
 70
     2
  9
$SKETCHINC
 40
1.0
  9
$FILLETRAD
 40
10.0
  9
$AUNITS
 70
     0
  9
$AUPREC
 70
     2
  9
$MENU
  1
.
  9
$ELEVATION
 40
0.0
  9
$PELEVATION
 40
0.0
  9
$THICKNESS
 40
0.0
  9
$LIMCHECK
 70
     0
  9
$CHAMFERA
 40
0.0
  9
$CHAMFERB
 40
0.0
  9
$CHAMFERC
 40
0.0
  9
$CHAMFERD
 40
0.0
  9
$SKPOLY
 70
     0
  9
$TDCREATE
 40
2458654.434321458
  9
$TDUCREATE
 40
2458654.392654791
  9
$TDUPDATE
 40
2458654.434382708
  9
$TDUUPDATE
 40
2458654.392716042
  9
$TDINDWG
 40
0.0000000116
  9
$TDUSRTIMER
 40
0.0000000116
  9
$USRTIMER
 70
     1
  9
$ANGBASE
 50
0.0
  9
$ANGDIR
 70
     0
  9
$PDMODE
 70
     0
  9
$PDSIZE
 40
-1.0
  9
$PLINEWID
 40
0.0
  9
$SPLFRAME
 70
     0
  9
$SPLINETYPE
 70
     6
  9
$SPLINESEGS
 70
     8
  9
$HANDSEED
  5
41C
  9
$SURFTAB1
 70
     6
  9
$SURFTAB2
 70
     6
  9
$SURFTYPE
 70
     6
  9
$SURFU
 70
     6
  9
$SURFV
 70
     6
  9
$UCSBASE
  2

  9
$UCSNAME
  2

  9
$UCSORG
 10
0.0
 20
0.0
 30
0.0
  9
$UCSXDIR
 10
1.0
 20
0.0
 30
0.0
  9
$UCSYDIR
 10
0.0
 20
1.0
 30
0.0
  9
$UCSORTHOREF
  2

  9
$UCSORTHOVIEW
 70
     0
  9
$UCSORGTOP
 10
0.0
 20
0.0
 30
0.0
  9
$UCSORGBOTTOM
 10
0.0
 20
0.0
 30
0.0
  9
$UCSORGLEFT
 10
0.0
 20
0.0
 30
0.0
  9
$UCSORGRIGHT
 10
0.0
 20
0.0
 30
0.0
  9
$UCSORGFRONT
 10
0.0
 20
0.0
 30
0.0
  9
$UCSORGBACK
 10
0.0
 20
0.0
 30
0.0
  9
$PUCSBASE
  2

  9
$PUCSNAME
  2

  9
$PUCSORG
 10
0.0
 20
0.0
 30
0.0
  9
$PUCSXDIR
 10
1.0
 20
0.0
 30
0.0
  9
$PUCSYDIR
 10
0.0
 20
1.0
 30
0.0
  9
$PUCSORTHOREF
  2

  9
$PUCSORTHOVIEW
 70
     0
  9
$PUCSORGTOP
 10
0.0
 20
0.0
 30
0.0
  9
$PUCSORGBOTTOM
 10
0.0
 20
0.0
 30
0.0
  9
$PUCSORGLEFT
 10
0.0
 20
0.0
 30
0.0
  9
$PUCSORGRIGHT
 10
0.0
 20
0.0
 30
0.0
  9
$PUCSORGFRONT
 10
0.0
 20
0.0
 30
0.0
  9
$PUCSORGBACK
 10
0.0
 20
0.0
 30
0.0
  9
$USERI1
 70
     0
  9
$USERI2
 70
     0
  9
$USERI3
 70
     0
  9
$USERI4
 70
     0
  9
$USERI5
 70
     0
  9
$USERR1
 40
0.0
  9
$USERR2
 40
0.0
  9
$USERR3
 40
0.0
  9
$USERR4
 40
0.0
  9
$USERR5
 40
0.0
  9
$WORLDVIEW
 70
     1
  9
$SHADEDGE
 70
     3
  9
$SHADEDIF
 70
    70
  9
$TILEMODE
 70
     1
  9
$MAXACTVP
 70
    64
  9
$PINSBASE
 10
0.0
 20
0.0
 30
0.0
  9
$PLIMCHECK
 70
     0
  9
$PEXTMIN
 10
-100.0
 20
-100.0
 30
0.0
  9
$PEXTMAX
 10
100.0
 20
100.0
 30
0.0
  9
$PLIMMIN
 10
-120.5128205128
 20
-107.6923076923
  9
$PLIMMAX
 10
184.1025641026
 20
107.6923076923
  9
$UNITMODE
 70
     0
  9
$VISRETAIN
 70
     1
  9
$PLINEGEN
 70
     0
  9
$PSLTSCALE
 70
     1
  9
$TREEDEPTH
 70
  3020
  9
$CMLSTYLE
  2
Standard
  9
$CMLJUST
 70
     0
  9
$CMLSCALE
 40
20.0
  9
$PROXYGRAPHICS
 70
     1
  9
$MEASUREMENT
 70
     1
  9
$CELWEIGHT
370
    -1
  9
$ENDCAPS
280
     0
  9
$JOINSTYLE
280
     0
  9
$LWDISPLAY
290
     1
  9
$INSUNITS
 70
     4
  9
$HYPERLINKBASE
  1

  9
$STYLESHEET
  1

  9
$XEDIT
290
     1
  9
$CEPSNTYPE
380
     0
  9
$PSTYLEMODE
290
     1
  9
$FINGERPRINTGUID
  2
{0bb03913-c0b6-49b5-b8c2-7c9ba077490b}
  9
$VERSIONGUID
  2
{FAEB1C32-E019-11D5-929B-00C0DF256EC4}
  9
$EXTNAMES
290
     1
  9
$PSVPSCALE
 40
0.0
  9
$OLESTARTUP
290
     0
  0
ENDSEC
  0
SECTION
  2
CLASSES
  0
CLASS
  1
ACDBDICTIONARYWDFLT
  2
AcDbDictionaryWithDefault
  3
ObjectDBX Classes
 90
        0
280
     0
281
     0
  0
CLASS
  1
VISUALSTYLE
  2
AcDbVisualStyle
  3
ObjectDBX Classes
 90
     4095
280
     0
281
     0
  0
CLASS
  1
MATERIAL
  2
AcDbMaterial
  3
ObjectDBX Classes
 90
     1153
280
     0
281
     0
  0
CLASS
  1
SCALE
  2
AcDbScale
  3
ObjectDBX Classes
 90
     1153
280
     0
281
     0
  0
CLASS
  1
TABLESTYLE
  2
AcDbTableStyle
  3
ObjectDBX Classes
 90
     4095
280
     0
281
     0
  0
CLASS
  1
MLEADERSTYLE
  2
AcDbMLeaderStyle
  3
ACDB_MLEADERSTYLE_CLASS
 90
     4095
280
     0
281
     0
  0
CLASS
  1
SUN
  2
AcDbSun
  3
SCENEOE
 90
     1153
280
     0
281
     0
  0
CLASS
  1
ACDBPLACEHOLDER
  2
AcDbPlaceHolder
  3
ObjectDBX Classes
 90
        0
280
     0
281
     0
  0
CLASS
  1
LAYOUT
  2
AcDbLayout
  3
ObjectDBX Classes
 90
        0
280
     0
281
     0
  0
ENDSEC
  0
SECTION
  2
TABLES
  0
TABLE
  2
VPORT
  5
8
330
0
100
AcDbSymbolTable
 70
     1
  0
VPORT
  5
29
330
8
100
AcDbSymbolTableRecord
100
AcDbViewportTableRecord
  2
*Active
 70
     0
 10
0.0
 20
0.0
 11
1.0
 21
1.0
 12
0.0
 22
21.8991161524
 13
0.0
 23
0.0
 14
10.0
 24
10.0
 15
10.0
 25
10.0
 16
0.0
 26
0.0
 36
1.0
 17
0.0
 27
0.0
 37
0.0
 40
54.8778030491
 41
3.7173499788
 42
50.0
 43
0.0
 44
0.0
 50
0.0
 51
0.0
 71
     0
 72
   100
 73
     1
 74
     3
 75
     0
 76
     0
 77
     0
 78
     0
281
     0
 65
     1
110
0.0
120
0.0
130
0.0
111
1.0
121
0.0
131
0.0
112
0.0
122
1.0
132
0.0
 79
     0
146
0.0
  0
ENDTAB
  0
TABLE
  2
LTYPE
  5
5
330
0
100
AcDbSymbolTable
 70
     6
  0
LTYPE
  5
14
330
5
100
AcDbSymbolTableRecord
100
AcDbLinetypeTableRecord
  2
ByBlock
 70
     0
  3

 72
    65
 73
     0
 40
0.0
  0
LTYPE
  5
15
330
5
100
AcDbSymbolTableRecord
100
AcDbLinetypeTableRecord
  2
ByLayer
 70
     0
  3

 72
    65
 73
     0
 40
0.0
  0
LTYPE
  5
16
330
5
100
AcDbSymbolTableRecord
100
AcDbLinetypeTableRecord
  2
Continuous
 70
     0
  3
Solid line
 72
    65
 73
     0
 40
0.0
  0
LTYPE
  5
6E
330
5
100
AcDbSymbolTableRecord
100
AcDbLinetypeTableRecord
  2
HIDDEN
 70
     0
  3
Hidden __ __ __ __ __ __ __ __ __ __ __ __ __ __
 72
    65
 73
     2
 40
1.905
 49
1.27
 74
     0
 49
-0.635
 74
     0
  0
LTYPE
  5
6F
330
5
100
AcDbSymbolTableRecord
100
AcDbLinetypeTableRecord
  2
PHANTOM
 70
     0
  3
Phantom ______  __  __  ______  __  __  ______
 72
    65
 73
     6
 40
12.7
 49
6.35
 74
     0
 49
-1.27
 74
     0
 49
1.27
 74
     0
 49
-1.27
 74
     0
 49
1.27
 74
     0
 49
-1.27
 74
     0
  0
LTYPE
  5
70
330
5
100
AcDbSymbolTableRecord
100
AcDbLinetypeTableRecord
  2
CENTER
 70
     0
  3
Center ____ _ ____ _ ____ _ ____ _ ____ _ ____
 72
    65
 73
     4
 40
10.16
 49
6.35
 74
     0
 49
-1.27
 74
     0
 49
1.27
 74
     0
 49
-1.27
 74
     0
  0
LTYPE
  5
71
330
5
100
AcDbSymbolTableRecord
100
AcDbLinetypeTableRecord
  2
CENTERX2
 70
     0
  3
Center (2x) ________  __  ________  __  _____
 72
    65
 73
     4
 40
20.32
 49
12.7
 74
     0
 49
-2.54
 74
     0
 49
2.54
 74
     0
 49
-2.54
 74
     0
  0
LTYPE
  5
72
330
5
100
AcDbSymbolTableRecord
100
AcDbLinetypeTableRecord
  2
DOT2
 70
     0
  3
Dot (.5x) ........................................
 72
    65
 73
     2
 40
0.635
 49
0.0
 74
     0
 49
-0.635
 74
     0
  0
ENDTAB
  0
TABLE
  2
LAYER
  5
2
330
0
100
AcDbSymbolTable
 70
     1
  0
LAYER
  5
10
330
2
100
AcDbSymbolTableRecord
100
AcDbLayerTableRecord
  2
0
 70
     0
 62
     7
  6
Continuous
370
    -3
390
F
  0
ENDTAB
  0
TABLE
  2
STYLE
  5
3
330
0
100
AcDbSymbolTable
 70
     1
  0
STYLE
  5
11
330
3
100
AcDbSymbolTableRecord
100
AcDbTextStyleTableRecord
  2
Standard
 70
     0
 40
0.0
 41
1.0
 50
0.0
 71
     0
 42
3.5
  3
txt
  4

  0
ENDTAB
  0
TABLE
  2
VIEW
  5
6
330
0
100
AcDbSymbolTable
 70
     0
  0
ENDTAB
  0
TABLE
  2
UCS
  5
7
330
0
100
AcDbSymbolTable
 70
     0
  0
ENDTAB
  0
TABLE
  2
APPID
  5
9
330
0
100
AcDbSymbolTable
 70
     1
  0
APPID
  5
12
330
9
100
AcDbSymbolTableRecord
100
AcDbRegAppTableRecord
  2
ACAD
 70
     0
  0
ENDTAB
  0
TABLE
  2
DIMSTYLE
  5
A
330
0
100
AcDbSymbolTable
 70
     1
100
AcDbDimStyleTable
  0
DIMSTYLE
105
27
330
A
100
AcDbSymbolTableRecord
100
AcDbDimStyleTableRecord
  2
ISO-25
 70
     0
 41
2.5
 42
0.625
 43
3.75
 44
1.25
 73
     0
 74
     0
 77
     1
 78
     8
140
2.5
141
2.5
143
0.0393700787
147
0.625
171
     3
172
     1
178
     0
271
     2
272
     2
274
     3
278
    44
283
     0
284
     8
340
11
  0
ENDTAB
  0
TABLE
  2
BLOCK_RECORD
  5
1
330
0
100
AcDbSymbolTable
 70
     3
  0
BLOCK_RECORD
  5
1F
330
1
100
AcDbSymbolTableRecord
100
AcDbBlockTableRecord
  2
*Model_Space
340
22
  0
BLOCK_RECORD
  5
1B
330
1
100
AcDbSymbolTableRecord
100
AcDbBlockTableRecord
  2
*Paper_Space
340
1E
  0
BLOCK_RECORD
  5
23
330
1
100
AcDbSymbolTableRecord
100
AcDbBlockTableRecord
  2
*Paper_Space0
340
26
  0
BLOCK_RECORD
  5
300
330
1
100
AcDbSymbolTableRecord
100
AcDbBlockTableRecord
  2
*Paper_Space1
340
301
  0
BLOCK_RECORD
  5
3A7
330
1
100
AcDbSymbolTableRecord
100
AcDbBlockTableRecord
  2
*Paper_Space2
340
3A8
  0
ENDTAB
  0
ENDSEC
  0
SECTION
  2
BLOCKS
  0
BLOCK
  5
20
330
1F
100
AcDbEntity
  8
0
100
AcDbBlockBegin
  2
*Model_Space
 70
     0
 10
0.0
 20
0.0
 30
0.0
  3
*Model_Space
  1

  0
ENDBLK
  5
21
330
1F
100
AcDbEntity
  8
0
100
AcDbBlockEnd
  0
BLOCK
  5
1C
330
1B
100
AcDbEntity
 67
     1
  8
0
100
AcDbBlockBegin
  2
*Paper_Space
 70
     0
 10
0.0
 20
0.0
 30
0.0
  3
*Paper_Space
  1

  0
ENDBLK
  5
1D
330
1B
100
AcDbEntity
 67
     1
  8
0
100
AcDbBlockEnd
  0
BLOCK
  5
24
330
23
100
AcDbEntity
  8
0
100
AcDbBlockBegin
  2
*Paper_Space0
 70
     0
 10
0.0
 20
0.0
 30
0.0
  3
*Paper_Space0
  1

  0
SPLINE
  5
1B0
330
23
100
AcDbEntity
  8
0
  6
Continuous
 62
     7
370
    25
100
AcDbSpline
210
0.0
220
0.0
230
1.0
 70
     8
 71
     3
 72
    11
 73
     7
 74
     0
 42
0.000000001
 43
0.00000001
 40
0.0
 40
0.0
 40
0.0
 40
0.0
 40
0.2439754005051974
 40
0.6281519585669239
 40
0.9638495960730344
 40
1.0
 40
1.0
 40
1.0
 40
1.0
 10
1.244580406954081
 20
-5.0012532735677
 30
0.0
 10
1.243990545445444
 20
-4.584630905168751
 30
0.0
 10
1.242471856835174
 20
-3.511972939854679
 30
0.0
 10
1.602775408307017
 20
-1.915241681788315
 30
0.0
 10
2.015842222677986
 20
-0.6510198759657853
 30
0.0
 10
2.42795376957021
 20
-0.1696857716776308
 30
0.0
 10
2.46801851974532
 20
-0.1228913278322891
 30
0.0
  0
SPLINE
  5
1B1
330
23
100
AcDbEntity
  8
0
  6
Continuous
 62
     7
370
    25
100
AcDbSpline
210
0.0
220
0.0
230
1.0
 70
     8
 71
     3
 72
    11
 73
     7
 74
     0
 42
0.000000001
 43
0.00000001
 40
0.0
 40
0.0
 40
0.0
 40
0.0
 40
0.0334756540160477
 40
0.3700833976269906
 40
0.7553014924483833
 40
1.0
 40
1.0
 40
1.0
 40
1.0
 10
-2.549759242244284
 20
-0.1337312521203851
 30
0.0
 10
-2.512800922800318
 20
-0.1769743049035849
 30
0.0
 10
-2.104215614090604
 20
-0.655039226057863
 30
0.0
 10
-1.694010052293626
 20
-1.915546083207011
 30
0.0
 10
-1.333170090306955
 20
-3.512028516266041
 30
0.0
 10
-1.334744119688314
 20
-4.584826237904096
 30
0.0
 10
-1.335355569900945
 20
-5.001567121380855
 30
0.0
  0
SPLINE
  5
1B4
330
23
100
AcDbEntity
  8
0
  6
Continuous
 62
     7
370
    25
100
AcDbSpline
210
0.0
220
0.0
230
1.0
 70
     8
 71
     3
 72
    11
 73
     7
 74
     0
 42
0.000000001
 43
0.00000001
 40
0.0
 40
0.0
 40
0.0
 40
0.0
 40
0.2447923959492696
 40
0.6301456327306043
 40
0.9668714648466777
 40
1.0
 40
1.0
 40
1.0
 40
1.0
 10
-17.79037733860953
 20
-5.001608042507388
 30
0.0
 10
-17.79099160943908
 20
-4.584851702545936
 30
0.0
 10
-17.79257286803595
 20
-3.512035749578486
 30
0.0
 10
-17.43166284196099
 20
-1.915585843216904
 30
0.0
 10
-17.02182841349422
 20
-0.6555589852003836
 30
0.0
 10
-16.61369939210929
 20
-0.1779169838378829
 30
0.0
 10
-16.57714252587066
 20
-0.1351337122770628
 30
0.0
  0
SPLINE
  5
1B5
330
23
100
AcDbEntity
  8
0
  6
Continuous
 62
     7
370
    25
100
AcDbSpline
210
0.0
220
0.0
230
1.0
 70
     8
 71
     3
 72
    11
 73
     7
 74
     0
 42
0.000000001
 43
0.00000001
 40
0.0
 40
0.0
 40
0.0
 40
0.0
 40
0.0355859427904647
 40
0.3714756674554316
 40
0.7558720524545414
 40
1.0
 40
1.0
 40
1.0
 40
1.0
 10
-21.59183785693101
 20
-0.1251838125912834
 30
0.0
 10
-21.55243058553244
 20
-0.1712275351039225
 30
0.0
 10
-21.14106471189026
 20
-0.6518702049701335
 30
0.0
 10
-20.72860193815285
 20
-1.91530563151171
 30
0.0
 10
-20.36818569537771
 20
-3.51198464428246
 30
0.0
 10
-20.36971600929375
 20
-4.584671995808039
 30
0.0
 10
-20.37031040536735
 20
-5.001319288404853
 30
0.0
  0
SPLINE
  5
1B6
330
23
100
AcDbEntity
  8
0
  6
Continuous
 62
     7
370
    25
100
AcDbSpline
210
0.0
220
0.0
230
1.0
 70
     8
 71
     3
 72
    11
 73
     7
 74
     0
 42
0.000000001
 43
0.00000001
 40
0.0
 40
0.0
 40
0.0
 40
0.0
 40
0.2451212434306792
 40
0.6309476542083094
 40
0.9680869508873686
 40
1.0
 40
1.0
 40
1.0
 40
1.0
 10
20.27951493410731
 20
-5.001751678655242
 30
0.0
 10
20.27889075194098
 20
-4.584941078080901
 30
0.0
 10
20.27728409285208
 20
-3.51206111467656
 30
0.0
 10
20.63844028157929
 20
-1.915725536203509
 30
0.0
 10
21.0469754590644
 20
-0.6573756444245259
 30
0.0
 10
21.45350912974708
 20
-0.1812121364829083
 30
0.0
 10
21.48866330000605
 20
-0.1400368680206932
 30
0.0
  0
SPLINE
  5
1B7
330
23
100
AcDbEntity
  8
0
  6
Continuous
 62
     7
370
    25
100
AcDbSpline
210
0.0
220
0.0
230
1.0
 70
     8
 71
     3
 72
    11
 73
     7
 74
     0
 42
0.000000001
 43
0.00000001
 40
0.0
 40
0.0
 40
0.0
 40
0.0
 40
0.031958648600189
 40
0.3690824350757168
 40
0.7548910957832173
 40
1.0
 40
1.0
 40
1.0
 40
1.0
 10
16.49029590769629
 20
-0.1398531415411595
 30
0.0
 10
16.52550261511528
 20
-0.1810886792954977
 30
0.0
 10
16.9320960686671
 20
-0.6573075856837127
 30
0.0
 10
17.34067997916839
 20
-1.915720282380507
 30
0.0
 10
17.70182690979232
 20
-3.512060162075867
 30
0.0
 10
17.70022120604784
 20
-4.584937719299818
 30
0.0
 10
17.69959739668321
 20
-5.001746280401616
 30
0.0
  0
SPLINE
  5
1BC
330
23
100
AcDbEntity
  8
0
  6
Continuous
 62
     7
370
    25
100
AcDbSpline
210
0.0
220
0.0
230
1.0
 70
     8
 71
     3
 72
    11
 73
     7
 74
     0
 42
0.000000001
 43
0.00000001
 40
0.0
 40
0.0
 40
0.0
 40
0.0
 40
0.2446574003760756
 40
0.6298163193569705
 40
0.9663723544743323
 40
0.9999999999999999
 40
0.9999999999999999
 40
0.9999999999999999
 40
0.9999999999999999
 10
38.01726827907209
 20
-5.001549217213238
 30
0.0
 10
38.01665806253324
 20
-4.584815096107139
 30
0.0
 10
38.01508719513286
 20
-3.512025350519813
 30
0.0
 10
38.37589651129706
 20
-1.915528692284407
 30
0.0
 10
38.78626459291632
 20
-0.6548115072261794
 30
0.0
 10
39.1950497904997
 20
-0.176561307090279
 30
0.0
 10
39.232184014506
 20
-0.1331168522325892
 30
0.0
  0
SPLINE
  5
1BD
330
23
100
AcDbEntity
  8
0
  6
Continuous
 62
     7
370
    25
100
AcDbSpline
210
0.0
220
0.0
230
1.0
 70
     8
 71
     3
 72
    11
 73
     7
 74
     0
 42
0.000000001
 43
0.00000001
 40
0.0
 40
0.0
 40
0.0
 40
0.0
 40
0.0363901836860259
 40
0.3720062197324233
 40
0.7560893920671704
 40
1.0
 40
1.0
 40
1.0
 40
1.0
 10
34.21308063750851
 20
-0.1219166980189444
 30
0.0
 10
34.25342499183856
 20
-0.1690302487974589
 30
0.0
 10
34.66585354321276
 20
-0.6506583184578384
 30
0.0
 10
35.07917698751557
 20
-1.915214562831034
 30
0.0
 10
35.43943275030683
 20
-3.51196797185176
 30
0.0
 10
35.4379189914583
 20
-4.58461347139429
 30
0.0
 10
35.43733105276748
 20
-5.001225266145437
 30
0.0
  0
SPLINE
  5
1BE
330
23
100
AcDbEntity
  8
0
  6
Continuous
 62
     7
370
    25
100
AcDbSpline
210
0.0
220
0.0
230
1.0
 70
     8
 71
     3
 72
    11
 73
     7
 74
     0
 42
0.000000001
 43
0.00000001
 40
0.0
 40
0.0
 40
0.0
 40
0.0
 40
0.2450708988664641
 40
0.6308248862560845
 40
0.9679008985942696
 40
1.0
 40
1.0
 40
1.0
 40
1.0
 10
-35.52812848343426
 20
-5.001729657769713
 30
0.0
 10
-35.52875114499545
 20
-4.584927376635402
 30
0.0
 10
-35.53035390734025
 20
-3.512057228429462
 30
0.0
 10
-35.16923548157836
 20
-1.915704106340756
 30
0.0
 10
-34.76050146223993
 20
-0.6570979092139079
 30
0.0
 10
-34.35372383610271
 20
-0.1807083346389016
 30
0.0
 10
-34.31835526496977
 20
-0.1392871318177287
 30
0.0
  0
SPLINE
  5
1BF
330
23
100
AcDbEntity
  8
0
  6
Continuous
 62
     7
370
    25
100
AcDbSpline
210
0.0
220
0.0
230
1.0
 70
     8
 71
     3
 72
    11
 73
     7
 74
     0
 42
0.000000001
 43
0.00000001
 40
0.0
 40
0.0
 40
0.0
 40
0.0
 40
0.0318287224096828
 40
0.3689967017364972
 40
0.7548559372935234
 40
1.0
 40
1.0
 40
1.0
 40
1.0
 10
-39.31691143570021
 20
-0.1403765870528068
 30
0.0
 10
-39.28185440434878
 20
-0.1814404114835431
 30
0.0
 10
-38.8754312757404
 20
-0.6575014855220961
 30
0.0
 10
-38.46698621795662
 20
-1.915735254763493
 30
0.0
 10
-38.10581290352717
 20
-3.512062876517955
 30
0.0
 10
-38.10742132982678
 20
-4.584947290634092
 30
0.0
 10
-38.1080462016123
 20
-5.00176166357744
 30
0.0
  0
SPLINE
  5
1C5
330
23
100
AcDbEntity
  8
0
  6
Continuous
 62
     7
370
    25
100
AcDbSpline
210
0.0
220
0.0
230
1.0
 70
     8
 71
     3
 72
    11
 73
     7
 74
     0
 42
0.000000001
 43
0.00000001
 40
0.0
 40
0.0
 40
0.0
 40
0.0
 40
0.243743769378538
 40
0.6275864306784522
 40
0.9629923055776025
 40
1.0
 40
1.0
 40
1.0
 40
1.0
 10
-50.75986217419231
 20
-5.001153234929025
 30
0.0
 10
-50.7604451704149
 20
-4.584568632291976
 30
0.0
 10
-50.76194625706572
 20
-3.511955188628683
 30
0.0
 10
-50.40181334143275
 20
-1.915144849992122
 30
0.0
 10
-49.98782888842432
 20
-0.6497262484844342
 30
0.0
 10
-49.57458326868662
 20
-0.1673404404536373
 30
0.0
 10
-49.53351798837338
 20
-0.1194045217656377
 30
0.0
  0
SPLINE
  5
1C6
330
23
100
AcDbEntity
  8
0
  6
Continuous
 62
     7
370
    25
100
AcDbSpline
210
0.0
220
0.0
230
1.0
 70
     8
 71
     3
 72
    11
 73
     7
 74
     0
 42
0.000000001
 43
0.00000001
 40
0.0
 40
0.0
 40
0.0
 40
0.0
 40
0.0340297571109415
 40
0.3704489866850215
 40
0.7554513436980297
 40
1.0
 40
1.0
 40
1.0
 40
1.0
 10
-54.55607387033054
 20
-0.1314904717470144
 30
0.0
 10
-54.51847391173845
 20
-0.1754679937402866
 30
0.0
 10
-54.10915960148849
 20
-0.6542086561027588
 30
0.0
 10
-53.6983615148589
 20
-1.915482737055382
 30
0.0
 10
-53.33763317993979
 20
-3.512016979546326
 30
0.0
 10
-53.33919569200922
 20
-4.584785643568613
 30
0.0
 10
-53.3398026487434
 20
-5.001501890164906
 30
0.0
  0
SPLINE
  5
1C7
330
23
100
AcDbEntity
  8
0
  6
Continuous
 62
     7
370
    25
100
AcDbSpline
210
0.0
220
0.0
230
1.0
 70
     8
 71
     3
 72
    11
 73
     7
 74
     0
 42
0.000000001
 43
0.00000001
 40
0.0
 40
0.0
 40
0.0
 40
0.0
 40
0.2441869079112075
 40
0.6286682424904251
 40
0.9646321970185947
 40
1.0
 40
1.0
 40
1.0
 40
1.0
 10
53.24902321892505
 20
-5.001344831499232
 30
0.0
 10
53.24842706738769
 20
-4.584687894384949
 30
0.0
 10
53.24689225316504
 20
-3.511989171026988
 30
0.0
 10
53.60735211893201
 20
-1.91533038657616
 30
0.0
 10
54.01958148950557
 20
-0.6521985171401221
 30
0.0
 10
54.43065941099486
 20
-0.1718228373438387
 30
0.0
 10
54.46981287051782
 20
-0.1260690550278845
 30
0.0
  0
SPLINE
  5
1C8
330
23
100
AcDbEntity
  8
0
  6
Continuous
 62
     7
370
    25
100
AcDbSpline
210
0.0
220
0.0
230
1.0
 70
     8
 71
     3
 72
    11
 73
     7
 74
     0
 42
0.000000001
 43
0.00000001
 40
0.0
 40
0.0
 40
0.0
 40
0.0
 40
0.0329989255312602
 40
0.369768849071351
 40
0.7551725446275611
 40
0.9999999999999999
 40
0.9999999999999999
 40
0.9999999999999999
 40
0.9999999999999999
 10
49.45629267644249
 20
-0.13565711979973
 30
0.0
 10
49.49269974458569
 20
-0.1782687798275173
 30
0.0
 10
49.90065847259401
 20
-0.6557529473216472
 30
0.0
 10
50.31035433548884
 20
-1.915600704256715
 30
0.0
 10
50.67129054928
 20
-3.512038451603698
 30
0.0
 10
50.6697065885871
 20
-4.584861217465607
 30
0.0
 10
50.66909126345556
 20
-5.00162333315057
 30
0.0
  0
SPLINE
  5
1CD
330
23
100
AcDbEntity
  8
0
  6
Continuous
 62
     7
370
    25
100
AcDbSpline
210
0.0
220
0.0
230
1.0
 70
     8
 71
     3
 72
    11
 73
     7
 74
     0
 42
0.000000001
 43
0.00000001
 40
0.0
 40
0.0
 40
0.0
 40
0.0
 40
0.0337430663423974
 40
0.3702598340619782
 40
0.7553738149437026
 40
1.0
 40
1.0
 40
1.0
 40
1.0
 10
-23.08881250952413
 20
-0.1326501568383147
 30
0.0
 10
-23.05154465577646
 20
-0.1762475867819364
 30
0.0
 10
-22.64260762544148
 20
-0.6546385253129727
 30
0.0
 10
-22.2321161224678
 20
-1.915515493349458
 30
0.0
 10
-21.87133006524112
 20
-3.512022946400562
 30
0.0
 10
-21.87289853282763
 20
-4.584806637119629
 30
0.0
 10
-21.87350781307181
 20
-5.001535624479549
 30
0.0
  0
SPLINE
  5
1CE
330
23
100
AcDbEntity
  8
0
  6
Continuous
 62
     7
370
    25
100
AcDbSpline
210
0.0
220
0.0
230
1.0
 70
     8
 71
     3
 72
    11
 73
     7
 74
     0
 42
0.000000001
 43
0.00000001
 40
0.0
 40
0.0
 40
0.0
 40
0.0
 40
0.2440836842579341
 40
0.6284162902567856
 40
0.9642502841405306
 40
1.0
 40
1.0
 40
1.0
 40
1.0
 10
21.71443282441826
 20
-5.001300120715268
 30
0.0
 10
21.71383974519626
 20
-4.584660065109554
 30
0.0
 10
21.71231280722967
 20
-3.51198124631787
 30
0.0
 10
22.0726963256819
 20
-1.915287061258965
 30
0.0
 10
22.4853343435642
 20
-0.6516236066433159
 30
0.0
 10
22.89691648329001
 20
-0.1707804080020546
 30
0.0
 10
22.9365144101157
 20
-0.1245189404682281
 30
0.0
  0
SPLINE
  5
1D1
330
23
100
AcDbEntity
  8
0
  6
Continuous
 62
     7
370
    25
100
AcDbSpline
210
0.0
220
0.0
230
1.0
 70
     8
 71
     3
 72
    11
 73
     7
 74
     0
 42
0.000000001
 43
0.00000001
 40
0.0
 40
0.0
 40
0.0
 40
0.0
 40
0.2441869075957299
 40
0.6286682423297903
 40
0.9646321969932559
 40
1.0
 40
1.0
 40
1.0
 40
1.0
 10
39.09688562949141
 20
-5.001344829389156
 30
0.0
 10
39.09628947796664
 20
-4.584687892982588
 30
0.0
 10
39.09475466377483
 20
-3.511989170334885
 30
0.0
 10
39.45521452945486
 20
-1.915330386577093
 30
0.0
 10
39.86744390002388
 20
-0.6521985171239648
 30
0.0
 10
40.27852182152756
 20
-0.1718228373146086
 30
0.0
 10
40.317675281063
 20
-0.1260690549844228
 30
0.0
  0
SPLINE
  5
1D2
330
23
100
AcDbEntity
  8
0
  6
Continuous
 62
     7
370
    25
100
AcDbSpline
210
0.0
220
0.0
230
1.0
 70
     8
 71
     3
 72
    11
 73
     7
 74
     0
 42
0.000000001
 43
0.00000001
 40
0.0
 40
0.0
 40
0.0
 40
0.0
 40
0.034029757137477
 40
0.3704489868466695
 40
0.7554513440142971
 40
1.0
 40
1.0
 40
1.0
 40
1.0
 10
-40.47223397455446
 20
-0.1314904716966762
 30
0.0
 10
-40.43463401594793
 20
-0.1754679937064421
 30
0.0
 10
-40.0253197056814
 20
-0.6542086560840689
 30
0.0
 10
-39.61452161905423
 20
-1.915482737056072
 30
0.0
 10
-39.25379328422277
 20
-3.512016978854144
 30
0.0
 10
-39.25535579626123
 20
-4.584785642165936
 30
0.0
 10
-39.25596275298274
 20
-5.001501888054309
 30
0.0
  0
SPLINE
  5
1D5
330
23
100
AcDbEntity
  8
0
  6
Continuous
 62
     7
370
    25
100
AcDbSpline
210
0.0
220
0.0
230
1.0
 70
     8
 71
     3
 72
    11
 73
     7
 74
     0
 42
0.000000001
 43
0.00000001
 40
0.0
 40
0.0
 40
0.0
 40
0.0
 40
0.2451502355703168
 40
0.6310183503777151
 40
0.9681940884887454
 40
1.0
 40
1.0
 40
1.0
 40
1.0
 10
64.93674417316177
 20
-5.001764365003443
 30
0.0
 10
64.93611911477738
 20
-4.584948971433803
 30
0.0
 10
64.93451021030428
 20
-3.512063353149707
 30
0.0
 10
65.2956881584609
 20
-1.915737884303898
 30
0.0
 10
65.70410883869522
 20
-0.6575355220202438
 30
0.0
 10
66.11050206806686
 20
-0.1815021538854253
 30
0.0
 10
66.14553282665716
 20
-0.1404684732164811
 30
0.0
  0
SPLINE
  5
1D6
330
23
100
AcDbEntity
  8
0
  6
Continuous
 62
     7
370
    25
100
AcDbSpline
210
0.0
220
0.0
230
1.0
 70
     8
 71
     3
 72
    11
 73
     7
 74
     0
 42
0.000000001
 43
0.00000001
 40
0.0
 40
0.0
 40
0.0
 40
0.0
 40
0.0321674448121334
 40
0.3692202102769649
 40
0.7549475936551399
 40
1.0
 40
1.0
 40
1.0
 40
1.0
 10
61.14682350095066
 20
-0.1390116570863034
 30
0.0
 10
61.18227085678298
 20
-0.1805232181660912
 30
0.0
 10
61.58913811809665
 20
-0.6569958568950034
 30
0.0
 10
61.99794518177435
 20
-1.91569623871821
 30
0.0
 10
62.35904974346705
 20
-3.512055801207167
 30
0.0
 10
62.35744841175202
 20
-4.584922345517565
 30
0.0
 10
62.35682630844984
 20
-5.001721571893533
 30
0.0
  0
SPLINE
  5
1D7
330
23
100
AcDbEntity
  8
0
  6
Continuous
 62
     7
370
    25
100
AcDbSpline
210
0.0
220
0.0
230
1.0
 70
     8
 71
     3
 72
    11
 73
     7
 74
     0
 42
0.000000001
 43
0.00000001
 40
0.0
 40
0.0
 40
0.0
 40
0.0
 40
0.2449063879367296
 40
0.6304236753439871
 40
0.9672928566738513
 40
0.9999999999999999
 40
0.9999999999999999
 40
0.9999999999999999
 40
0.9999999999999999
 10
-62.44760827653633
 20
-5.001657778378753
 30
0.0
 10
-62.44822597738879
 20
-4.584882651256852
 30
0.0
 10
-62.44981602673359
 20
-3.512044536883023
 30
0.0
 10
-62.08882080486751
 20
-1.915634190262017
 30
0.0
 10
-61.67943686503705
 20
-0.6561893853652343
 30
0.0
 10
-61.27186135238117
 20
-0.1790603828612722
 30
0.0
 10
-61.23579131807615
 20
-0.1368349327205386
 30
0.0
  0
SPLINE
  5
1D8
330
23
100
AcDbEntity
  8
0
  6
Continuous
 62
     7
370
    25
100
AcDbSpline
210
0.0
220
0.0
230
1.0
 70
     8
 71
     3
 72
    11
 73
     7
 74
     0
 42
0.000000001
 43
0.00000001
 40
0.0
 40
0.0
 40
0.0
 40
0.0
 40
0.0348569633140856
 40
0.3709947416240798
 40
0.7556750023045018
 40
1.0
 40
1.0
 40
1.0
 40
1.0
 10
-66.24660081750574
 20
-0.1281405822292567
 30
0.0
 10
-66.20804113448594
 20
-0.1732157770073725
 30
0.0
 10
-65.79763706370869
 20
-0.6529666976392012
 30
0.0
 10
-65.3859542068682
 20
-1.91538844823156
 30
0.0
 10
-65.02539202584339
 20
-3.511999779300321
 30
0.0
 10
-65.02693739555043
 20
-4.584725166660367
 30
0.0
 10
-65.02753766469777
 20
-5.001404716321631
 30
0.0
  0
SPLINE
  5
1DD
330
23
100
AcDbEntity
  8
0
  6
Continuous
 62
     7
370
    25
100
AcDbSpline
210
0.0
220
0.0
230
1.0
 70
     8
 71
     3
 72
    11
 73
     7
 74
     0
 42
0.000000001
 43
0.00000001
 40
0.0
 40
0.0
 40
0.0
 40
0.0
 40
0.2442710028997543
 40
0.6288734864549164
 40
0.9649433022704413
 40
1.0
 40
1.0
 40
1.0
 40
1.0
 10
-9.193988312647178
 20
-5.001381290467854
 30
0.0
 10
-9.194586970729672
 20
-4.584710586648111
 30
0.0
 10
-9.196128210545536
 20
-3.511995630291694
 30
0.0
 10
-8.835606060557197
 20
-1.915365731488494
 30
0.0
 10
-8.423709532564821
 20
-0.6526664551277164
 30
0.0
 10
-8.013042070583206
 20
-0.1726713381460139
 30
0.0
 10
-7.974250325567377
 20
-0.1273308865384071
 30
0.0
  0
SPLINE
  5
1DE
330
23
100
AcDbEntity
  8
0
  6
Continuous
 62
     7
370
    25
100
AcDbSpline
210
0.0
220
0.0
230
1.0
 70
     8
 71
     3
 72
    11
 73
     7
 74
     0
 42
0.000000001
 43
0.00000001
 40
0.0
 40
0.0
 40
0.0
 40
0.0
 40
0.0373961547366165
 40
0.3726698145581703
 40
0.7563611672763204
 40
1.0
 40
1.0
 40
1.0
 40
1.0
 10
-13.00159597541416
 20
-0.1178225582086564
 30
0.0
 10
-12.96007654772468
 20
-0.1662762248056705
 30
0.0
 10
-12.54631642916228
 20
-0.6491392109215128
 30
0.0
 10
-12.13191607506376
 20
-1.915101089120619
 30
0.0
 10
-11.77186027438376
 20
-3.511947155213538
 30
0.0
 10
-11.77335340660922
 20
-4.584540468418514
 30
0.0
 10
-11.77393330058046
 20
-5.00110799359257
 30
0.0
  0
SPLINE
  5
1DF
330
23
100
AcDbEntity
  8
0
  6
Continuous
 62
     7
370
    25
100
AcDbSpline
210
0.0
220
0.0
230
1.0
 70
     8
 71
     3
 72
    11
 73
     7
 74
     0
 42
0.000000001
 43
0.00000001
 40
0.0
 40
0.0
 40
0.0
 40
0.0
 40
0.2448760956621497
 40
0.6303497912145372
 40
0.9671808815085277
 40
1.0
 40
1.0
 40
1.0
 40
1.0
 10
11.5724121069146
 20
-5.001644555920889
 30
0.0
 10
11.57179531813393
 20
-4.58487442356326
 30
0.0
 10
11.57020760628291
 20
-3.512042201186831
 30
0.0
 10
11.93118017436588
 20
-1.915621334623682
 30
0.0
 10
12.34068381521836
 20
-0.656021932191591
 30
0.0
 10
12.74840636619699
 20
-0.1787566562223598
 30
0.0
 10
12.78460570923586
 20
-0.136383014136876
 30
0.0
  0
SPLINE
  5
1E0
330
23
100
AcDbEntity
  8
0
  6
Continuous
 62
     7
370
    25
100
AcDbSpline
210
0.0
220
0.0
230
1.0
 70
     8
 71
     3
 72
    11
 73
     7
 74
     0
 42
0.000000001
 43
0.00000001
 40
0.0
 40
0.0
 40
0.0
 40
0.0
 40
0.0318283582690961
 40
0.3689964614530186
 40
0.754855838753645
 40
1.0
 40
1.0
 40
1.0
 40
1.0
 10
7.783628062568851
 20
-0.1403780539060533
 30
0.0
 10
7.818684674503324
 20
-0.1814413971299202
 30
0.0
 10
8.225107325806453
 20
-0.6575020288763709
 30
0.0
 10
8.633551994441623
 20
-1.915735296737817
 30
0.0
 10
8.994725382827642
 20
-3.512062884126852
 30
0.0
 10
8.993116948911666
 20
-4.584947317464519
 30
0.0
 10
8.992492074153976
 20
-5.001761706699915
 30
0.0
  0
SPLINE
  5
1E5
330
23
100
AcDbEntity
  8
0
  6
Continuous
 62
     7
370
    25
100
AcDbSpline
210
0.0
220
0.0
230
1.0
 70
     8
 71
     3
 72
    11
 73
     7
 74
     0
 42
0.000000001
 43
0.00000001
 40
0.0
 40
0.0
 40
0.0
 40
0.0
 40
0.2436204852449605
 40
0.6272853805666443
 40
0.9625359216286044
 40
0.9999999999999999
 40
0.9999999999999999
 40
0.9999999999999999
 40
0.9999999999999999
 10
-48.29060528397191
 20
-5.001100086572841
 30
0.0
 10
-48.29118463603984
 20
-4.584535545904371
 30
0.0
 10
-48.29267637874793
 20
-3.511945750505813
 30
0.0
 10
-47.93263404890225
 20
-1.915093444800158
 30
0.0
 10
-47.51816096688169
 20
-0.649036510129361
 30
0.0
 10
-47.10431084657084
 20
-0.1660900477534442
 30
0.0
 10
-47.06271195955934
 20
-0.1175458180069783
 30
0.0
  0
SPLINE
  5
1E6
330
23
100
AcDbEntity
  8
0
  6
Continuous
 62
     7
370
    25
100
AcDbSpline
210
0.0
220
0.0
230
1.0
 70
     8
 71
     3
 72
    11
 73
     7
 74
     0
 42
0.000000001
 43
0.00000001
 40
0.0
 40
0.0
 40
0.0
 40
0.0
 40
0.032789727387735
 40
0.3696308159644137
 40
0.7551159536749756
 40
1.0
 40
1.0
 40
1.0
 40
1.0
 10
46.91944406518664
 20
-0.1365016431380539
 30
0.0
 10
46.95560946351559
 20
-0.1788363854286455
 30
0.0
 10
47.36329341696658
 20
-0.6560658893972269
 30
0.0
 10
47.77276563840566
 20
-1.9156247083588
 30
0.0
 10
48.13374415145228
 20
-3.512042813522378
 30
0.0
 10
48.13215582621457
 20
-4.584876581494178
 30
0.0
 10
48.13153879809686
 20
-5.001648023989415
 30
0.0
  0
SPLINE
  5
1E9
330
23
100
AcDbEntity
  8
0
  6
Continuous
 62
     7
370
    25
100
AcDbSpline
210
0.0
220
0.0
230
1.0
 70
     8
 71
     3
 72
    11
 73
     7
 74
     0
 42
0.000000001
 43
0.00000001
 40
0.0
 40
0.0
 40
0.0
 40
0.0
 40
0.2451266723086477
 40
0.630960892461432
 40
0.9681070130570777
 40
1.0
 40
1.0
 40
1.0
 40
1.0
 10
-25.99437510499206
 20
-5.00175405393494
 30
0.0
 10
-25.99499945120214
 20
-4.584942555969376
 30
0.0
 10
-25.9966065306693
 20
-3.512061533812002
 30
0.0
 10
-25.63544626812782
 20
-1.915727848027092
 30
0.0
 10
-25.22693253123742
 20
-0.657405585555694
 30
0.0
 10
-24.8204251612511
 20
-0.1812664493068411
 30
0.0
 10
-24.78529410338125
 20
-0.1401176958408905
 30
0.0
  0
SPLINE
  5
1EA
330
23
100
AcDbEntity
  8
0
  6
Continuous
 62
     7
370
    25
100
AcDbSpline
210
0.0
220
0.0
230
1.0
 70
     8
 71
     3
 72
    11
 73
     7
 74
     0
 42
0.000000001
 43
0.00000001
 40
0.0
 40
0.0
 40
0.0
 40
0.0
 40
0.031983547691322
 40
0.3690988649570048
 40
0.75489783339527
 40
1.0
 40
1.0
 40
1.0
 40
1.0
 10
-29.78367776423924
 20
-0.1397528125985752
 30
0.0
 10
-29.74844236667568
 20
-0.181021261554476
 30
0.0
 10
-29.34181626714056
 20
-0.6572704198769819
 30
0.0
 10
-28.9332057462298
 20
-1.915717414023906
 30
0.0
 10
-28.57206387012407
 20
-3.512059641952902
 30
0.0
 10
-28.57366905229375
 20
-4.584935885467766
 30
0.0
 10
-28.57429265812632
 20
-5.00174333306622
 30
0.0
  0
SPLINE
  5
1EB
330
23
100
AcDbEntity
  8
0
  6
Continuous
 62
     7
370
    25
100
AcDbSpline
210
0.0
220
0.0
230
1.0
 70
     8
 71
     3
 72
    11
 73
     7
 74
     0
 42
0.000000001
 43
0.00000001
 40
0.0
 40
0.0
 40
0.0
 40
0.0
 40
0.2448098995057325
 40
0.6301883283974656
 40
0.9669361736524615
 40
1.0
 40
1.0
 40
1.0
 40
1.0
 10
28.37278954077332
 20
-5.001615675738448
 30
0.0
 10
28.37217474365002
 20
-4.584856452498006
 30
0.0
 10
28.37059213619738
 20
-3.512037098507913
 30
0.0
 10
28.73151523491445
 20
-1.915593261696234
 30
0.0
 10
29.14128048250956
 20
-0.6556558300021414
 30
0.0
 10
29.54932447802667
 20
-0.1780926340174266
 30
0.0
 10
29.58580654943201
 20
-0.135395045502737
 30
0.0
  0
SPLINE
  5
1EC
330
23
100
AcDbEntity
  8
0
  6
Continuous
 62
     7
370
    25
100
AcDbSpline
210
0.0
220
0.0
230
1.0
 70
     8
 71
     3
 72
    11
 73
     7
 74
     0
 42
0.000000001
 43
0.00000001
 40
0.0
 40
0.0
 40
0.0
 40
0.0
 40
0.0354776126312038
 40
0.3714042007479574
 40
0.7558427727404952
 40
1.0
 40
1.0
 40
1.0
 40
1.0
 10
24.57169601446708
 20
-0.1256234808200488
 30
0.0
 10
24.61097722147069
 20
-0.1715232038591898
 30
0.0
 10
25.02220008032678
 20
-0.6520332688151886
 30
0.0
 10
25.43454694174692
 20
-1.915317922216338
 30
0.0
 10
25.79498484301438
 20
-3.511986892061267
 30
0.0
 10
25.79345229473859
 20
-4.58467988987039
 30
0.0
 10
25.79285702709904
 20
-5.001331971156011
 30
0.0
  0
SPLINE
  5
1F1
330
23
100
AcDbEntity
  8
0
  6
Continuous
 62
     7
370
    25
100
AcDbSpline
210
0.0
220
0.0
230
1.0
 70
     8
 71
     3
 72
    11
 73
     7
 74
     0
 42
0.000000001
 43
0.00000001
 40
0.0
 40
0.0
 40
0.0
 40
0.0
 40
0.2449992550839052
 40
0.6306501685999577
 40
0.9676361138710073
 40
1.0
 40
1.0
 40
1.0
 40
1.0
 10
-69.79482509966552
 20
-5.001698339873243
 30
0.0
 10
-69.79544559932292
 20
-4.584907890107987
 30
0.0
 10
-69.79704282137745
 20
-3.512051699891033
 30
0.0
 10
-69.43597808687944
 20
-1.915673637457572
 30
0.0
 10
-69.02696106118943
 20
-0.6567024334838862
 30
0.0
 10
-68.6198360933481
 20
-0.1799909750335831
 30
0.0
 10
-68.58416220106679
 20
-0.1382196405261583
 30
0.0
  0
SPLINE
  5
1F2
330
23
100
AcDbEntity
  8
0
  6
Continuous
 62
     7
370
    25
100
AcDbSpline
210
0.0
220
0.0
230
1.0
 70
     8
 71
     3
 72
    11
 73
     7
 74
     0
 42
0.000000001
 43
0.00000001
 40
0.0
 40
0.0
 40
0.0
 40
0.0
 40
0.0317777934453306
 40
0.3689630954649584
 40
0.7548421553274229
 40
1.0
 40
1.0
 40
1.0
 40
1.0
 10
-73.58343776646325
 20
-0.1405817317205044
 30
0.0
 10
-73.54843939094035
 20
-0.1815782568909581
 30
0.0
 10
-73.14208301533506
 20
-0.6575774749052709
 30
0.0
 10
-72.73369238405355
 20
-1.915741125978084
 30
0.0
 10
-72.37250872358076
 20
-3.512063940709097
 30
0.0
 10
-72.3741182174994
 20
-4.584951043444967
 30
0.0
 10
-72.37474350590527
 20
-5.001767695202494
 30
0.0
  0
SPLINE
  5
1F3
330
23
100
AcDbEntity
  8
0
  6
Continuous
 62
     7
370
    25
100
AcDbSpline
210
0.0
220
0.0
230
1.0
 70
     8
 71
     3
 72
    11
 73
     7
 74
     0
 42
0.000000001
 43
0.00000001
 40
0.0
 40
0.0
 40
0.0
 40
0.0
 40
0.2445015453016322
 40
0.6294360665037677
 40
0.9657960204115672
 40
1.0
 40
1.0
 40
1.0
 40
1.0
 10
72.28396759302164
 20
-5.001481403107116
 30
0.0
 10
72.28336204684575
 20
-4.584772893704073
 30
0.0
 10
72.28180315034648
 20
-3.512013354643812
 30
0.0
 10
72.64249644182958
 20
-1.915462850626874
 30
0.0
 10
73.05348085420765
 20
-0.6539472817885007
 30
0.0
 10
73.46302454016916
 20
-0.1749939889742619
 30
0.0
 10
73.50082644858219
 20
-0.1307853999281891
 30
0.0
  0
SPLINE
  5
1F4
330
23
100
AcDbEntity
  8
0
  6
Continuous
 62
     7
370
    25
100
AcDbSpline
210
0.0
220
0.0
230
1.0
 70
     8
 71
     3
 72
    11
 73
     7
 74
     0
 42
0.000000001
 43
0.00000001
 40
0.0
 40
0.0
 40
0.0
 40
0.0
 40
0.0374359750830194
 40
0.3726948855398423
 40
0.7563693589012659
 40
1.0
 40
1.0
 40
1.0
 40
1.0
 10
68.47622687651904
 20
-0.1176597992448396
 30
0.0
 10
68.51779303584475
 20
-0.1661667290155135
 30
0.0
 10
68.93160608486706
 20
-0.6490788102069094
 30
0.0
 10
69.34604934550607
 20
-1.915096575349998
 30
0.0
 10
69.70609793035571
 20
-3.511952090969012
 30
0.0
 10
69.70460536029265
 20
-4.584549244700209
 30
0.0
 10
69.70402568097396
 20
-5.001120903659329
 30
0.0
  0
SPLINE
  5
1FF
330
23
100
AcDbEntity
  8
0
  6
Continuous
 62
     7
370
    25
100
AcDbSpline
210
0.0
220
0.0
230
1.0
 70
     8
 71
     3
 72
    10
 73
     6
 74
     0
 42
0.000000001
 43
0.00000001
 40
0.0
 40
0.0
 40
0.0
 40
0.0
 40
0.3199108967076886
 40
0.6055147282009644
 40
1.0
 40
1.0
 40
1.0
 40
1.0
 10
1.249999999999952
 20
-5.000000000000008
 30
0.0
 10
1.276933601771704
 20
-4.455470906961703
 30
0.0
 10
1.327912460960727
 20
-3.424807715548491
 30
0.0
 10
1.647681666642902
 20
-1.734239833429293
 30
0.0
 10
2.187106786475226
 20
-0.699943158723064
 30
0.0
 10
2.499999999999954
 20
-0.0999999999999994
 30
0.0
  0
LWPOLYLINE
  5
205
330
23
100
AcDbEntity
  8
0
  6
Continuous
 62
     7
370
    25
100
AcDbPolyline
 90
        3
 70
   128
 43
0.0
 10
-9.1724137931
 20
30.9029061605
 10
-10.0215115111
 20
30.1021502612
 10
-10.3076191837
 20
29.8
  0
LWPOLYLINE
  5
206
330
23
100
AcDbEntity
  8
0
  6
Continuous
 62
     7
370
    25
100
AcDbPolyline
 90
        3
 70
   128
 43
0.0
 10
10.3076191837
 20
29.8
 10
10.0215115111
 20
30.1021502612
 10
9.1724137931
 20
30.9029061605
  0
SPLINE
  5
20D
330
23
100
AcDbEntity
  8
0
  6
Continuous
 62
     7
370
    25
100
AcDbSpline
210
0.0
220
0.0
230
1.0
 70
     8
 71
     3
 72
     9
 73
     5
 74
     0
 42
0.000000001
 43
0.00000001
 40
0.0
 40
0.0
 40
0.0
 40
0.0
 40
0.5999912811435062
 40
1.0
 40
1.0
 40
1.0
 40
1.0
 10
9.406234060929194
 20
33.86513748812817
 30
0.0
 10
10.07269796543536
 20
33.93092621115645
 30
0.0
 10
11.18348728096669
 20
34.04057567623353
 30
0.0
 10
12.2064486287837
 20
34.47844606657242
 30
0.0
 10
12.61564208696369
 20
34.65359804043707
 30
0.0
  0
SPLINE
  5
20E
330
23
100
AcDbEntity
  8
0
  6
Continuous
 62
     7
370
    25
100
AcDbSpline
210
0.0
220
0.0
230
1.0
 70
     8
 71
     3
 72
     9
 73
     5
 74
     0
 42
0.000000001
 43
0.00000001
 40
0.0
 40
0.0
 40
0.0
 40
0.0
 40
0.5668035818135413
 40
1.0
 40
1.0
 40
1.0
 40
1.0
 10
-12.69455182367455
 20
34.69276778062494
 30
0.0
 10
-12.10286466238771
 20
34.44692922925882
 30
0.0
 10
-11.05896307059876
 20
34.01320128671559
 30
0.0
 10
-9.935744990243876
 20
33.90757383163482
 30
0.0
 10
-9.449170940991873
 20
33.86181639643168
 30
0.0
  0
SPLINE
  5
215
330
23
100
AcDbEntity
  8
0
  6
Continuous
 62
     7
370
    25
100
AcDbSpline
210
0.0
220
0.0
230
1.0
 70
     8
 71
     3
 72
    11
 73
     7
 74
     0
 42
0.000000001
 43
0.00000001
 40
0.0
 40
0.0
 40
0.0
 40
0.0
 40
0.2443780616647599
 40
0.6291347524907556
 40
0.965339316289778
 40
1.0
 40
1.0
 40
1.0
 40
1.0
 10
54.78996751075969
 20
-5.001427749058658
 30
0.0
 10
54.7893656570178
 20
-4.584739501629704
 30
0.0
 10
54.78781622536108
 20
-3.512003857414438
 30
0.0
 10
55.14841777820972
 20
-1.915410790937103
 30
0.0
 10
55.55989067406706
 20
-0.653261609084535
 30
0.0
 10
55.9700360086041
 20
-0.1737505612967698
 30
0.0
 10
56.0083677687544
 20
-0.1289359530945965
 30
0.0
  0
SPLINE
  5
216
330
23
100
AcDbEntity
  8
0
  6
Continuous
 62
     7
370
    25
100
AcDbSpline
210
0.0
220
0.0
230
1.0
 70
     8
 71
     3
 72
    11
 73
     7
 74
     0
 42
0.000000001
 43
0.00000001
 40
0.0
 40
0.0
 40
0.0
 40
0.0
 40
0.0346606837100854
 40
0.3708652475091582
 40
0.755621938335207
 40
1.0
 40
1.0
 40
1.0
 40
1.0
 10
-56.16744916653671
 20
-0.1289359530951481
 30
0.0
 10
-56.12911740638654
 20
-0.173750561297141
 30
0.0
 10
-55.71897207184972
 20
-0.6532616090847571
 30
0.0
 10
-55.3074991759924
 20
-1.915410790937096
 30
0.0
 10
-54.94689762314376
 20
-3.512003857414434
 30
0.0
 10
-54.9484470548005
 20
-4.5847395016297
 30
0.0
 10
-54.94904890854242
 20
-5.001427749058658
 30
0.0
  0
SPLINE
  5
217
330
23
100
AcDbEntity
  8
0
  6
Continuous
 62
     7
370
    25
100
AcDbSpline
210
0.0
220
0.0
230
1.0
 70
     8
 71
     3
 72
    11
 73
     7
 74
     0
 42
0.000000001
 43
0.00000001
 40
0.0
 40
0.0
 40
0.0
 40
0.0
 40
0.0346606836994838
 40
0.3708652473582332
 40
0.7556219380236985
 40
1.0
 40
1.0
 40
1.0
 40
1.0
 10
-76.09915147282969
 20
-0.1289359530800178
 30
0.0
 10
-76.06081971267524
 20
-0.1737505612869721
 30
0.0
 10
-75.65067437813374
 20
-0.6532616090791886
 30
0.0
 10
-75.23920148225666
 20
-1.91541079093456
 30
0.0
 10
-74.87859992932371
 20
-3.512003858105735
 30
0.0
 10
-74.88014936101106
 20
-4.584739503030052
 30
0.0
 10
-74.88075121476551
 20
-5.001427751165622
 30
0.0
  0
SPLINE
  5
218
330
23
100
AcDbEntity
  8
0
  6
Continuous
 62
     7
370
    25
100
AcDbSpline
210
0.0
220
0.0
230
1.0
 70
     8
 71
     3
 72
    11
 73
     7
 74
     0
 42
0.000000001
 43
0.00000001
 40
0.0
 40
0.0
 40
0.0
 40
0.0
 40
0.2443780619766613
 40
0.629134752642696
 40
0.9653393163019406
 40
1.0
 40
1.0
 40
1.0
 40
1.0
 10
74.78996751068414
 20
-5.001427751165622
 30
0.0
 10
74.7893656569297
 20
-4.584739503030046
 30
0.0
 10
74.7878162252423
 20
-3.512003858105704
 30
0.0
 10
75.14841777817553
 20
-1.915410790934734
 30
0.0
 10
75.55989067405119
 20
-0.6532616090813258
 30
0.0
 10
75.97003600859072
 20
-0.1737505612908544
 30
0.0
 10
76.00836776874355
 20
-0.1289359530857945
 30
0.0
  0
SPLINE
  5
219
330
23
100
AcDbEntity
  8
0
  6
Continuous
 62
     7
370
    25
100
AcDbSpline
210
0.0
220
0.0
230
1.0
 70
     8
 71
     3
 72
     9
 73
     5
 74
     0
 42
0.000000001
 43
0.00000001
 40
0.0
 40
0.0
 40
0.0
 40
0.0
 40
0.4529693107924532
 40
1.0
 40
1.0
 40
1.0
 40
1.0
 10
34.78996751072049
 20
-5.001427751166663
 30
0.0
 10
34.78570535714438
 20
-4.584632192226483
 30
0.0
 10
34.77629599215086
 20
-3.664491359261418
 30
0.0
 10
34.99436280052142
 20
-2.769596419018437
 30
0.0
 10
35.11365203699766
 20
-2.280061423088974
 30
0.0
  0
SPLINE
  5
21A
330
23
100
AcDbEntity
  8
0
  6
Continuous
 62
     7
370
    25
100
AcDbSpline
210
0.0
220
0.0
230
1.0
 70
     8
 71
     3
 72
    11
 73
     7
 74
     0
 42
0.000000001
 43
0.00000001
 40
0.0
 40
0.0
 40
0.0
 40
0.0
 40
0.037888792079338
 40
0.3729936061845149
 40
0.7564917297615757
 40
1.0
 40
1.0
 40
1.0
 40
1.0
 10
30.98068553823919
 20
-0.115814028406807
 30
0.0
 10
31.02278175609486
 20
-0.1649249258911557
 30
0.0
 10
31.4371950757868
 20
-0.6483937764495996
 30
0.0
 10
31.8521232187739
 20
-1.915045664948819
 30
0.0
 10
32.21208207048698
 20
-3.511942586282891
 30
0.0
 10
32.21059876090807
 20
-4.584516158800515
 30
0.0
 10
32.21002269317838
 20
-5.001067788773326
 30
0.0
  0
SPLINE
  5
21B
330
23
100
AcDbEntity
  8
0
  6
Continuous
 62
     7
370
    25
100
AcDbSpline
210
0.0
220
0.0
230
1.0
 70
     8
 71
     3
 72
    11
 73
     7
 74
     0
 42
0.000000001
 43
0.00000001
 40
0.0
 40
0.0
 40
0.0
 40
0.0
 40
0.2434956562164845
 40
0.6269739141282852
 40
0.962061369399993
 40
0.9999999999999999
 40
0.9999999999999999
 40
0.9999999999999999
 40
0.9999999999999999
 10
-32.41152928451675
 20
-5.001067788773846
 30
0.0
 10
-32.41210498946472
 20
-4.584516402688758
 30
0.0
 10
-32.41358736492151
 20
-3.511943458154855
 30
0.0
 10
-32.05363815210663
 20
-1.915040056861102
 30
0.0
 10
-31.63865654584859
 20
-0.6483182691290681
 30
0.0
 10
-31.22417706935697
 20
-0.1647880528395686
 30
0.0
 10
-31.18202242027083
 20
-0.1156105959416696
 30
0.0
  0
SPLINE
  5
21C
330
23
100
AcDbEntity
  8
0
  6
Continuous
 62
     7
370
    25
100
AcDbSpline
210
0.0
220
0.0
230
1.0
 70
     8
 71
     3
 72
     9
 73
     5
 74
     0
 42
0.000000001
 43
0.00000001
 40
0.0
 40
0.0
 40
0.0
 40
0.0
 40
0.4941704425137783
 40
1.0
 40
1.0
 40
1.0
 40
1.0
 10
-35.25979718472172
 20
-2.562059804786271
 30
0.0
 10
-35.16507010630782
 20
-2.958273259876864
 30
0.0
 10
-34.97338102443548
 20
-3.760048155751063
 30
0.0
 10
-34.98539638004685
 20
-4.584430695756398
 30
0.0
 10
-34.99147410205879
 20
-5.001427751166663
 30
0.0
  0
SPLINE
  5
223
330
23
100
AcDbEntity
  8
0
  6
Continuous
 62
     7
370
    25
100
AcDbSpline
210
0.0
220
0.0
230
1.0
 70
     8
 71
     3
 72
    10
 73
     6
 74
     0
 42
0.000000001
 43
0.00000001
 40
0.0
 40
0.0
 40
0.0
 40
0.0
 40
0.2451398960816938
 40
0.5137143691210911
 40
1.0
 40
1.0
 40
1.0
 40
1.0
 10
-16.0
 20
-0.0999999999999994
 30
0.0
 10
-15.79248684104003
 20
-0.4642110159347075
 30
0.0
 10
-15.35762293988246
 20
-1.227450436642866
 30
0.0
 10
-14.88004709108174
 20
-2.881870411993708
 30
0.0
 10
-14.80095294610264
 20
-4.170108751849995
 30
0.0
 10
-14.75
 20
-5.000000000000008
 30
0.0
  0
SPLINE
  5
224
330
23
100
AcDbEntity
  8
0
  6
Continuous
 62
     7
370
    25
100
AcDbSpline
210
0.0
220
0.0
230
1.0
 70
     8
 71
     3
 72
     9
 73
     5
 74
     0
 42
0.000000001
 43
0.00000001
 40
0.0
 40
0.0
 40
0.0
 40
0.0
 40
0.7257070924658039
 40
1.0
 40
1.0
 40
1.0
 40
1.0
 10
-12.25
 20
-5.000000000000008
 30
0.0
 10
-12.23571725826553
 20
-4.452469388705162
 30
0.0
 10
-12.21603611985203
 20
-3.697990595567771
 30
0.0
 10
-12.04868676419424
 20
-2.964319362769277
 30
0.0
 10
-12.00278402285689
 20
-2.763078547150778
 30
0.0
  0
SPLINE
  5
227
330
23
100
AcDbEntity
  8
0
  6
Continuous
 62
     7
370
    25
100
AcDbSpline
210
0.0
220
0.0
230
1.0
 70
     8
 71
     3
 72
     9
 73
     5
 74
     0
 42
0.000000001
 43
0.00000001
 40
0.0
 40
0.0
 40
0.0
 40
0.0
 40
0.1000615809767057
 40
0.9999999999999999
 40
0.9999999999999999
 40
0.9999999999999999
 40
0.9999999999999999
 10
11.89963301342064
 20
-2.262077975521439
 30
0.0
 10
11.92738690163744
 20
-2.350101754132267
 30
0.0
 10
12.20475497783513
 20
-3.229797814814309
 30
0.0
 10
12.2285689192302
 20
-4.161513373308945
 30
0.0
 10
12.25
 20
-5.000000000000008
 30
0.0
  0
SPLINE
  5
228
330
23
100
AcDbEntity
  8
0
  6
Continuous
 62
     7
370
    25
100
AcDbSpline
210
0.0
220
0.0
230
1.0
 70
     8
 71
     3
 72
    10
 73
     6
 74
     0
 42
0.000000001
 43
0.00000001
 40
0.0
 40
0.0
 40
0.0
 40
0.0
 40
0.3199108967076886
 40
0.6055147282009644
 40
1.0
 40
1.0
 40
1.0
 40
1.0
 10
14.75
 20
-5.000000000000008
 30
0.0
 10
14.77693360177175
 20
-4.455470906961703
 30
0.0
 10
14.82791246096077
 20
-3.424807715548491
 30
0.0
 10
15.14768166664295
 20
-1.734239833429293
 30
0.0
 10
15.68710678647527
 20
-0.699943158723064
 30
0.0
 10
16.0
 20
-0.0999999999999994
 30
0.0
  0
LINE
  5
277
330
23
100
AcDbEntity
  8
0
  6
Continuous
 62
     7
370
    25
100
AcDbLine
 10
100.0
 20
0.0
 30
0.0
 11
100.0
 21
2.0
 31
0.0
  0
LINE
  5
278
330
23
100
AcDbEntity
  8
0
  6
Continuous
 62
     7
370
    25
100
AcDbLine
 10
-100.0
 20
2.0
 30
0.0
 11
-100.0
 21
0.0
 31
0.0
  0
LINE
  5
279
330
23
100
AcDbEntity
  8
0
  6
Continuous
 62
     7
370
    25
100
AcDbLine
 10
86.0
 20
2.0
 30
0.0
 11
76.0
 21
5.0
 31
0.0
  0
LINE
  5
27A
330
23
100
AcDbEntity
  8
0
  6
Continuous
 62
     7
370
    25
100
AcDbLine
 10
-76.0
 20
5.0
 30
0.0
 11
-86.0
 21
2.0
 31
0.0
  0
LINE
  5
27B
330
23
100
AcDbEntity
  8
0
  6
Continuous
 62
     7
370
    25
100
AcDbLine
 10
2.454608148
 20
-0.1
 30
0.0
 11
2.454608148
 21
0.0
 31
0.0
  0
LINE
  5
27C
330
23
100
AcDbEntity
  8
0
  6
Continuous
 62
     7
370
    25
100
AcDbLine
 10
-2.545391852
 20
0.0
 30
0.0
 11
-2.545391852
 21
-0.1
 31
0.0
  0
LINE
  5
27D
330
23
100
AcDbEntity
  8
0
  6
Continuous
 62
     7
370
    25
100
AcDbLine
 10
21.4895562388
 20
-0.1
 30
0.0
 11
21.4895562388
 21
0.0
 31
0.0
  0
LINE
  5
27E
330
23
100
AcDbEntity
  8
0
  6
Continuous
 62
     7
370
    25
100
AcDbLine
 10
16.4895562388
 20
0.0
 30
0.0
 11
16.4895562388
 21
-0.1
 31
0.0
  0
LINE
  5
27F
330
23
100
AcDbEntity
  8
0
  6
Continuous
 62
     7
370
    25
100
AcDbLine
 10
-16.5803399429
 20
-0.1
 30
0.0
 11
-16.5803399429
 21
0.0
 31
0.0
  0
LINE
  5
280
330
23
100
AcDbEntity
  8
0
  6
Continuous
 62
     7
370
    25
100
AcDbLine
 10
-21.5803399429
 20
0.0
 30
0.0
 11
-21.5803399429
 21
-0.1
 31
0.0
  0
LINE
  5
281
330
23
100
AcDbEntity
  8
0
  6
Continuous
 62
     7
370
    25
100
AcDbLine
 10
39.227304074
 20
-0.1
 30
0.0
 11
39.227304074
 21
0.0
 31
0.0
  0
LINE
  5
282
330
23
100
AcDbEntity
  8
0
  6
Continuous
 62
     7
370
    25
100
AcDbLine
 10
34.227304074
 20
0.0
 30
0.0
 11
34.227304074
 21
-0.1
 31
0.0
  0
LINE
  5
283
330
23
100
AcDbEntity
  8
0
  6
Continuous
 62
     7
370
    25
100
AcDbLine
 10
-34.3180877781
 20
-0.1
 30
0.0
 11
-34.3180877781
 21
0.0
 31
0.0
  0
LINE
  5
284
330
23
100
AcDbEntity
  8
0
  6
Continuous
 62
     7
370
    25
100
AcDbLine
 10
-39.3180877781
 20
0.0
 30
0.0
 11
-39.3180877781
 21
-0.1
 31
0.0
  0
LINE
  5
285
330
23
100
AcDbEntity
  8
0
  6
Continuous
 62
     7
370
    25
100
AcDbLine
 10
-2.5795406989
 20
0.0
 30
0.0
 11
-2.5795406989
 21
-0.1
 31
0.0
  0
LINE
  5
286
330
23
100
AcDbEntity
  8
0
  6
Continuous
 62
     7
370
    25
100
AcDbLine
 10
54.4590534516
 20
-0.1
 30
0.0
 11
54.4590534516
 21
0.0
 31
0.0
  0
LINE
  5
287
330
23
100
AcDbEntity
  8
0
  6
Continuous
 62
     7
370
    25
100
AcDbLine
 10
49.4590534516
 20
0.0
 30
0.0
 11
49.4590534516
 21
-0.1
 31
0.0
  0
LINE
  5
288
330
23
100
AcDbEntity
  8
0
  6
Continuous
 62
     7
370
    25
100
AcDbLine
 10
-49.5498371557
 20
-0.1
 30
0.0
 11
-49.5498371557
 21
0.0
 31
0.0
  0
LINE
  5
289
330
23
100
AcDbEntity
  8
0
  6
Continuous
 62
     7
370
    25
100
AcDbLine
 10
-54.5498371557
 20
0.0
 30
0.0
 11
-54.5498371557
 21
-0.1
 31
0.0
  0
LINE
  5
28A
330
23
100
AcDbEntity
  8
0
  6
Continuous
 62
     7
370
    25
100
AcDbLine
 10
22.9244618403
 20
-0.1
 30
0.0
 11
22.9244618403
 21
0.0
 31
0.0
  0
LINE
  5
28B
330
23
100
AcDbEntity
  8
0
  6
Continuous
 62
     7
370
    25
100
AcDbLine
 10
-23.0835432381
 20
0.0
 30
0.0
 11
-23.0835432381
 21
-0.1
 31
0.0
  0
LINE
  5
28C
330
23
100
AcDbEntity
  8
0
  6
Continuous
 62
     7
370
    25
100
AcDbLine
 10
40.3069158622
 20
-0.1
 30
0.0
 11
40.3069158622
 21
0.0
 31
0.0
  0
LINE
  5
28D
330
23
100
AcDbEntity
  8
0
  6
Continuous
 62
     7
370
    25
100
AcDbLine
 10
-40.4659972599
 20
0.0
 30
0.0
 11
-40.4659972599
 21
-0.1
 31
0.0
  0
LINE
  5
28E
330
23
100
AcDbEntity
  8
0
  6
Continuous
 62
     7
370
    25
100
AcDbLine
 10
66.1467858231
 20
-0.1
 30
0.0
 11
66.1467858231
 21
0.0
 31
0.0
  0
LINE
  5
28F
330
23
100
AcDbEntity
  8
0
  6
Continuous
 62
     7
370
    25
100
AcDbLine
 10
61.1467858231
 20
0.0
 30
0.0
 11
61.1467858231
 21
-0.1
 31
0.0
  0
LINE
  5
290
330
23
100
AcDbEntity
  8
0
  6
Continuous
 62
     7
370
    25
100
AcDbLine
 10
-61.2375695272
 20
-0.1
 30
0.0
 11
-61.2375695272
 21
0.0
 31
0.0
  0
LINE
  5
291
330
23
100
AcDbEntity
  8
0
  6
Continuous
 62
     7
370
    25
100
AcDbLine
 10
-66.2375695272
 20
0.0
 30
0.0
 11
-66.2375695272
 21
-0.1
 31
0.0
  0
LINE
  5
292
330
23
100
AcDbEntity
  8
0
  6
Continuous
 62
     7
370
    25
100
AcDbLine
 10
12.7824504965
 20
-0.1
 30
0.0
 11
12.7824504965
 21
0.0
 31
0.0
  0
LINE
  5
293
330
23
100
AcDbEntity
  8
0
  6
Continuous
 62
     7
370
    25
100
AcDbLine
 10
7.7824504965
 20
0.0
 30
0.0
 11
7.7824504965
 21
-0.1
 31
0.0
  0
LINE
  5
294
330
23
100
AcDbEntity
  8
0
  6
Continuous
 62
     7
370
    25
100
AcDbLine
 10
-7.9839570878
 20
-0.1
 30
0.0
 11
-7.9839570878
 21
0.0
 31
0.0
  0
LINE
  5
295
330
23
100
AcDbEntity
  8
0
  6
Continuous
 62
     7
370
    25
100
AcDbLine
 10
-12.9839570878
 20
0.0
 30
0.0
 11
-12.9839570878
 21
-0.1
 31
0.0
  0
LINE
  5
296
330
23
100
AcDbEntity
  8
0
  6
Continuous
 62
     7
370
    25
100
AcDbLine
 10
46.9215003142
 20
0.0
 30
0.0
 11
46.9215003142
 21
-0.1
 31
0.0
  0
LINE
  5
297
330
23
100
AcDbEntity
  8
0
  6
Continuous
 62
     7
370
    25
100
AcDbLine
 10
-47.080581712
 20
-0.1
 30
0.0
 11
-47.080581712
 21
0.0
 31
0.0
  0
LINE
  5
298
330
23
100
AcDbEntity
  8
0
  6
Continuous
 62
     7
370
    25
100
AcDbLine
 10
29.5828271443
 20
-0.1
 30
0.0
 11
29.5828271443
 21
0.0
 31
0.0
  0
LINE
  5
299
330
23
100
AcDbEntity
  8
0
  6
Continuous
 62
     7
370
    25
100
AcDbLine
 10
24.5828271443
 20
0.0
 30
0.0
 11
24.5828271443
 21
-0.1
 31
0.0
  0
LINE
  5
29A
330
23
100
AcDbEntity
  8
0
  6
Continuous
 62
     7
370
    25
100
AcDbLine
 10
-24.7843337357
 20
-0.1
 30
0.0
 11
-24.7843337357
 21
0.0
 31
0.0
  0
LINE
  5
29B
330
23
100
AcDbEntity
  8
0
  6
Continuous
 62
     7
370
    25
100
AcDbLine
 10
-29.7843337357
 20
0.0
 30
0.0
 11
-29.7843337357
 21
-0.1
 31
0.0
  0
LINE
  5
29C
330
23
100
AcDbEntity
  8
0
  6
Continuous
 62
     7
370
    25
100
AcDbLine
 10
73.4940015424
 20
-0.1
 30
0.0
 11
73.4940015424
 21
0.0
 31
0.0
  0
LINE
  5
29D
330
23
100
AcDbEntity
  8
0
  6
Continuous
 62
     7
370
    25
100
AcDbLine
 10
68.4940015424
 20
0.0
 30
0.0
 11
68.4940015424
 21
-0.1
 31
0.0
  0
LINE
  5
29E
330
23
100
AcDbEntity
  8
0
  6
Continuous
 62
     7
370
    25
100
AcDbLine
 10
-68.5847852465
 20
-0.1
 30
0.0
 11
-68.5847852465
 21
0.0
 31
0.0
  0
LINE
  5
29F
330
23
100
AcDbEntity
  8
0
  6
Continuous
 62
     7
370
    25
100
AcDbLine
 10
-73.5847852465
 20
0.0
 30
0.0
 11
-73.5847852465
 21
-0.1
 31
0.0
  0
LINE
  5
2A0
330
23
100
AcDbEntity
  8
0
  6
Continuous
 62
     7
370
    25
100
AcDbLine
 10
19.0
 20
5.0
 30
0.0
 11
17.0
 21
6.8
 31
0.0
  0
LINE
  5
2A1
330
23
100
AcDbEntity
  8
0
  6
Continuous
 62
     7
370
    25
100
AcDbLine
 10
-17.0
 20
6.8
 30
0.0
 11
-19.0
 21
5.0
 31
0.0
  0
LINE
  5
2A2
330
23
100
AcDbEntity
  8
0
  6
Continuous
 62
     7
370
    25
100
AcDbLine
 10
16.75
 20
6.8
 30
0.0
 11
16.75
 21
13.8
 31
0.0
  0
LINE
  5
2A3
330
23
100
AcDbEntity
  8
0
  6
Continuous
 62
     7
370
    25
100
AcDbLine
 10
-16.75
 20
13.8
 30
0.0
 11
-16.75
 21
6.8
 31
0.0
  0
LINE
  5
2A4
330
23
100
AcDbEntity
  8
0
  6
Continuous
 62
     7
370
    25
100
AcDbLine
 10
2.5
 20
-0.1
 30
0.0
 11
2.5
 21
0.0
 31
0.0
  0
LINE
  5
2A5
330
23
100
AcDbEntity
  8
0
  6
Continuous
 62
     7
370
    25
100
AcDbLine
 10
15.25
 20
14.3
 30
0.0
 11
15.25
 21
29.3
 31
0.0
  0
LINE
  5
2A6
330
23
100
AcDbEntity
  8
0
  6
Continuous
 62
     7
370
    25
100
AcDbLine
 10
-15.25
 20
29.3
 30
0.0
 11
-15.25
 21
14.3
 31
0.0
  0
LINE
  5
2A7
330
23
100
AcDbEntity
  8
0
  6
Continuous
 62
     7
370
    25
100
AcDbLine
 10
13.0
 20
35.1156580372
 30
0.0
 11
13.0
 21
48.3
 31
0.0
  0
LINE
  5
2A8
330
23
100
AcDbEntity
  8
0
  6
Continuous
 62
     7
370
    25
100
AcDbLine
 10
-13.0
 20
48.3
 30
0.0
 11
-13.0
 21
35.1156580372
 31
0.0
  0
LINE
  5
2A9
330
23
100
AcDbEntity
  8
0
  6
Continuous
 62
     7
370
    25
100
AcDbLine
 10
9.0
 20
31.2806458553
 30
0.0
 11
9.0
 21
33.3370904275
 31
0.0
  0
LINE
  5
2AA
330
23
100
AcDbEntity
  8
0
  6
Continuous
 62
     7
370
    25
100
AcDbLine
 10
-9.0
 20
33.3370904275
 30
0.0
 11
-9.0
 21
31.2806458553
 31
0.0
  0
LINE
  5
2AB
330
23
100
AcDbEntity
  8
0
  6
Continuous
 62
     7
370
    25
100
AcDbLine
 10
-76.0907837041
 20
0.0
 30
0.0
 11
-76.0907837041
 21
-0.1
 31
0.0
  0
LINE
  5
2AC
330
23
100
AcDbEntity
  8
0
  6
Continuous
 62
     7
370
    25
100
AcDbLine
 10
31.0
 20
0.0
 30
0.0
 11
31.0
 21
-0.1
 31
0.0
  0
LINE
  5
2AD
330
23
100
AcDbEntity
  8
0
  6
Continuous
 62
     7
370
    25
100
AcDbLine
 10
-56.1590813978
 20
0.0
 30
0.0
 11
-56.1590813978
 21
-0.1
 31
0.0
  0
LINE
  5
2AE
330
23
100
AcDbEntity
  8
0
  6
Continuous
 62
     7
370
    25
100
AcDbLine
 10
76.0
 20
-0.1
 30
0.0
 11
76.0
 21
0.0
 31
0.0
  0
LINE
  5
2AF
330
23
100
AcDbEntity
  8
0
  6
Continuous
 62
     7
370
    25
100
AcDbLine
 10
-31.2015065913
 20
-0.1
 30
0.0
 11
-31.2015065913
 21
0.0
 31
0.0
  0
LINE
  5
2B0
330
23
100
AcDbEntity
  8
0
  6
Continuous
 62
     7
370
    25
100
AcDbLine
 10
16.0
 20
-0.1
 30
0.0
 11
16.0
 21
0.0
 31
0.0
  0
LINE
  5
2B1
330
23
100
AcDbEntity
  8
0
  6
Continuous
 62
     7
370
    25
100
AcDbLine
 10
56.0
 20
-0.1
 30
0.0
 11
56.0
 21
0.0
 31
0.0
  0
LINE
  5
2B2
330
23
100
AcDbEntity
  8
0
  6
Continuous
 62
     7
370
    25
100
AcDbLine
 10
-16.0
 20
0.0
 30
0.0
 11
-16.0
 21
-0.1
 31
0.0
  0
LINE
  5
2B3
330
23
100
AcDbEntity
  8
0
  6
Continuous
 62
     7
370
    25
100
AcDbLine
 10
100.0
 20
0.0
 30
0.0
 11
-100.0
 21
0.0
 31
0.0
  0
LINE
  5
2B4
330
23
100
AcDbEntity
  8
0
  6
Continuous
 62
     7
370
    25
100
AcDbLine
 10
100.0
 20
2.0
 30
0.0
 11
-100.0
 21
2.0
 31
0.0
  0
LINE
  5
2B5
330
23
100
AcDbEntity
  8
0
  6
Continuous
 62
     7
370
    25
100
AcDbLine
 10
76.0
 20
5.0
 30
0.0
 11
-76.0
 21
5.0
 31
0.0
  0
LINE
  5
2B6
330
23
100
AcDbEntity
  8
0
  6
Continuous
 62
     7
370
    25
100
AcDbLine
 10
1.2045876381
 20
-5.0000000021
 30
0.0
 11
-1.3295406989
 21
-5.0
 31
0.0
  0
LINE
  5
2B7
330
23
100
AcDbEntity
  8
0
  6
Continuous
 62
     7
370
    25
100
AcDbLine
 10
2.4546062366
 20
-0.1
 30
0.0
 11
-2.5453912484
 21
-0.1
 31
0.0
  0
LINE
  5
2B8
330
23
100
AcDbEntity
  8
0
  6
Continuous
 62
     7
370
    25
100
AcDbLine
 10
-17.8303475594
 20
-5.0000000021
 30
0.0
 11
-20.3303214279
 21
-5.0000000021
 31
0.0
  0
LINE
  5
2B9
330
23
100
AcDbEntity
  8
0
  6
Continuous
 62
     7
370
    25
100
AcDbLine
 10
-16.5803404094
 20
-0.1
 30
0.0
 11
-23.0835425239
 21
-0.1
 31
0.0
  0
LINE
  5
2BA
330
23
100
AcDbEntity
  8
0
  6
Continuous
 62
     7
370
    25
100
AcDbLine
 10
21.6744427276
 20
-5.0
 30
0.0
 11
17.7395573325
 21
-5.0000000021
 31
0.0
  0
LINE
  5
2BB
330
23
100
AcDbEntity
  8
0
  6
Continuous
 62
     7
370
    25
100
AcDbLine
 10
21.4895561966
 20
-0.1
 30
0.0
 11
16.4895562954
 21
-0.1
 31
0.0
  0
LINE
  5
2BC
330
23
100
AcDbEntity
  8
0
  6
Continuous
 62
     7
370
    25
100
AcDbLine
 10
37.9772939428
 20
-5.0000000021
 30
0.0
 11
35.4773253762
 21
-5.0000000021
 31
0.0
  0
LINE
  5
2BD
330
23
100
AcDbEntity
  8
0
  6
Continuous
 62
     7
370
    25
100
AcDbLine
 10
39.227303408
 20
-0.1
 30
0.0
 11
31.0
 21
-0.1
 31
0.0
  0
LINE
  5
2BE
330
23
100
AcDbEntity
  8
0
  6
Continuous
 62
     7
370
    25
100
AcDbLine
 10
-35.5680897023
 20
-5.0000000021
 30
0.0
 11
-39.2159972599
 21
-5.0
 31
0.0
  0
LINE
  5
2BF
330
23
100
AcDbEntity
  8
0
  6
Continuous
 62
     7
370
    25
100
AcDbLine
 10
-31.2015065913
 20
-0.1
 30
0.0
 11
-39.3180877621
 21
-0.1
 31
0.0
  0
LINE
  5
2C0
330
23
100
AcDbEntity
  8
0
  6
Continuous
 62
     7
370
    25
100
AcDbLine
 10
-2.545391852
 20
-0.1
 30
0.0
 11
-2.5795400952
 21
-0.1
 31
0.0
  0
LINE
  5
2C1
330
23
100
AcDbEntity
  8
0
  6
Continuous
 62
     7
370
    25
100
AcDbLine
 10
-50.7998603508
 20
-5.0000000021
 30
0.0
 11
-54.9090813978
 21
-5.0
 31
0.0
  0
LINE
  5
2C2
330
23
100
AcDbEntity
  8
0
  6
Continuous
 62
     7
370
    25
100
AcDbLine
 10
-49.5498395845
 20
-0.1
 30
0.0
 11
-56.1590813978
 21
-0.1
 31
0.0
  0
LINE
  5
2C3
330
23
100
AcDbEntity
  8
0
  6
Continuous
 62
     7
370
    25
100
AcDbLine
 10
53.2090357569
 20
-5.0000000021
 30
0.0
 11
50.7090534515
 21
-5.0000000021
 31
0.0
  0
LINE
  5
2C4
330
23
100
AcDbEntity
  8
0
  6
Continuous
 62
     7
370
    25
100
AcDbLine
 10
54.4590519701
 20
-0.1
 30
0.0
 11
46.9215006538
 21
-0.1
 31
0.0
  0
LINE
  5
2C5
330
23
100
AcDbEntity
  8
0
  6
Continuous
 62
     7
370
    25
100
AcDbLine
 10
-20.3303391216
 20
-5.0
 30
0.0
 11
-21.8335432381
 21
-5.0
 31
0.0
  0
LINE
  5
2C6
330
23
100
AcDbEntity
  8
0
  6
Continuous
 62
     7
370
    25
100
AcDbLine
 10
22.924460154
 20
-0.1
 30
0.0
 11
21.4929478921
 21
-0.1
 31
0.0
  0
LINE
  5
2C7
330
23
100
AcDbEntity
  8
0
  6
Continuous
 62
     7
370
    25
100
AcDbLine
 10
39.0568981674
 20
-5.0
 30
0.0
 11
37.9773037602
 21
-5.0
 31
0.0
  0
LINE
  5
2C8
330
23
100
AcDbEntity
  8
0
  6
Continuous
 62
     7
370
    25
100
AcDbLine
 10
40.3069143807
 20
-0.1
 30
0.0
 11
39.2369681022
 21
-0.1
 31
0.0
  0
LINE
  5
2C9
330
23
100
AcDbEntity
  8
0
  6
Continuous
 62
     7
370
    25
100
AcDbLine
 10
-39.3272226068
 20
-0.1
 30
0.0
 11
-40.4659964223
 21
-0.1
 31
0.0
  0
LINE
  5
2CA
330
23
100
AcDbEntity
  8
0
  6
Continuous
 62
     7
370
    25
100
AcDbLine
 10
64.8967856475
 20
-5.0000000021
 30
0.0
 11
62.3967881467
 21
-5.0000000021
 31
0.0
  0
LINE
  5
2CB
330
23
100
AcDbEntity
  8
0
  6
Continuous
 62
     7
370
    25
100
AcDbLine
 10
66.1467858142
 20
-0.1
 30
0.0
 11
61.1467859471
 21
-0.1
 31
0.0
  0
LINE
  5
2CC
330
23
100
AcDbEntity
  8
0
  6
Continuous
 62
     7
370
    25
100
AcDbLine
 10
-62.4875748969
 20
-5.0000000021
 30
0.0
 11
-64.9875538631
 21
-5.0000000021
 31
0.0
  0
LINE
  5
2CD
330
23
100
AcDbEntity
  8
0
  6
Continuous
 62
     7
370
    25
100
AcDbLine
 10
-61.2375698369
 20
-0.1
 30
0.0
 11
-66.2375683049
 21
-0.1
 31
0.0
  0
LINE
  5
2CE
330
23
100
AcDbEntity
  8
0
  6
Continuous
 62
     7
370
    25
100
AcDbLine
 10
-9.2339735643
 20
-5.0000000021
 30
0.0
 11
-11.733932809
 21
-5.0000000021
 31
0.0
  0
LINE
  5
2CF
330
23
100
AcDbEntity
  8
0
  6
Continuous
 62
     7
370
    25
100
AcDbLine
 10
-7.9839584095
 20
-0.1
 30
0.0
 11
-16.0
 21
-0.1
 31
0.0
  0
LINE
  5
2D0
330
23
100
AcDbEntity
  8
0
  6
Continuous
 62
     7
370
    25
100
AcDbLine
 10
11.5324445186
 20
-5.0000000021
 30
0.0
 11
9.032450808
 21
-5.0000000021
 31
0.0
  0
LINE
  5
2D1
330
23
100
AcDbEntity
  8
0
  6
Continuous
 62
     7
370
    25
100
AcDbLine
 10
16.0
 20
-0.1
 30
0.0
 11
7.7824505123
 21
-0.1
 31
0.0
  0
LINE
  5
2D2
330
23
100
AcDbEntity
  8
0
  6
Continuous
 62
     7
370
    25
100
AcDbLine
 10
-48.3306061719
 20
-5.0
 30
0.0
 11
-50.7998440933
 21
-5.0
 31
0.0
  0
LINE
  5
2D3
330
23
100
AcDbEntity
  8
0
  6
Continuous
 62
     7
370
    25
100
AcDbLine
 10
-47.0805844365
 20
-0.1
 30
0.0
 11
-49.5344079326
 21
-0.1
 31
0.0
  0
LINE
  5
2D4
330
23
100
AcDbEntity
  8
0
  6
Continuous
 62
     7
370
    25
100
AcDbLine
 10
50.6714840466
 20
-5.0
 30
0.0
 11
48.1715003142
 21
-5.0
 31
0.0
  0
LINE
  5
2D5
330
23
100
AcDbEntity
  8
0
  6
Continuous
 62
     7
370
    25
100
AcDbLine
 10
-26.0343344366
 20
-5.0000000021
 30
0.0
 11
-28.5343324938
 21
-5.0000000021
 31
0.0
  0
LINE
  5
2D6
330
23
100
AcDbEntity
  8
0
  6
Continuous
 62
     7
370
    25
100
AcDbLine
 10
-24.7843337716
 20
-0.1
 30
0.0
 11
-29.7843336711
 21
-0.1
 31
0.0
  0
LINE
  5
2D7
330
23
100
AcDbEntity
  8
0
  6
Continuous
 62
     7
370
    25
100
AcDbLine
 10
28.3328198654
 20
-5.0000000021
 30
0.0
 11
25.8328452554
 21
-5.0000000021
 31
0.0
  0
LINE
  5
2D8
330
23
100
AcDbEntity
  8
0
  6
Continuous
 62
     7
370
    25
100
AcDbLine
 10
29.5828267025
 20
-0.1
 30
0.0
 11
24.5828286837
 21
-0.1
 31
0.0
  0
LINE
  5
2D9
330
23
100
AcDbEntity
  8
0
  6
Continuous
 62
     7
370
    25
100
AcDbLine
 10
-69.8347887009
 20
-5.0000000021
 30
0.0
 11
-72.3347852415
 21
-5.0000000021
 31
0.0
  0
LINE
  5
2DA
330
23
100
AcDbEntity
  8
0
  6
Continuous
 62
     7
370
    25
100
AcDbLine
 10
-68.5847854362
 20
-0.1
 30
0.0
 11
-76.0907837041
 21
-0.1
 31
0.0
  0
LINE
  5
2DB
330
23
100
AcDbEntity
  8
0
  6
Continuous
 62
     7
370
    25
100
AcDbLine
 10
72.2439887018
 20
-5.0000000021
 30
0.0
 11
69.7440118901
 21
-5.0000000021
 31
0.0
  0
LINE
  5
2DC
330
23
100
AcDbEntity
  8
0
  6
Continuous
 62
     7
370
    25
100
AcDbLine
 10
75.9999988729
 20
-0.1
 30
0.0
 11
68.4940026773
 21
-0.1
 31
0.0
  0
LINE
  5
2DD
330
23
100
AcDbEntity
  8
0
  6
Continuous
 62
     7
370
    25
100
AcDbLine
 10
17.0
 20
6.8
 30
0.0
 11
-17.0
 21
6.8
 31
0.0
  0
LINE
  5
2DE
330
23
100
AcDbEntity
  8
0
  6
Continuous
 62
     7
370
    25
100
AcDbLine
 10
-16.25
 20
14.3
 30
0.0
 11
16.25
 21
14.3
 31
0.0
  0
LINE
  5
2DF
330
23
100
AcDbEntity
  8
0
  6
Continuous
 62
     7
370
    25
100
AcDbLine
 10
2.454608148
 20
-0.1
 30
0.0
 11
2.4999999657
 21
-0.1
 31
0.0
  0
LINE
  5
2E0
330
23
100
AcDbEntity
  8
0
  6
Continuous
 62
     7
370
    25
100
AcDbLine
 10
1.2045987659
 20
-5.0
 30
0.0
 11
1.25
 21
-5.0
 31
0.0
  0
LINE
  5
2E1
330
23
100
AcDbEntity
  8
0
  6
Continuous
 62
     7
370
    25
100
AcDbLine
 10
-14.75
 20
29.8
 30
0.0
 11
14.75
 21
29.8
 31
0.0
  0
LINE
  5
2E2
330
23
100
AcDbEntity
  8
0
  6
Continuous
 62
     7
370
    25
100
AcDbLine
 10
-12.5
 20
48.8
 30
0.0
 11
12.5
 21
48.8
 31
0.0
  0
LINE
  5
2E3
330
23
100
AcDbEntity
  8
0
  6
Continuous
 62
     7
370
    25
100
AcDbLine
 10
54.7499851574
 20
-5.0
 30
0.0
 11
53.2090414083
 21
-5.0
 31
0.0
  0
LINE
  5
2E4
330
23
100
AcDbEntity
  8
0
  6
Continuous
 62
     7
370
    25
100
AcDbLine
 10
55.9999988729
 20
-0.1
 30
0.0
 11
54.4682436801
 21
-0.1
 31
0.0
  0
LINE
  5
2E5
330
23
100
AcDbEntity
  8
0
  6
Continuous
 62
     7
370
    25
100
AcDbLine
 10
-72.340783704
 20
-5.0000000021
 30
0.0
 11
-74.8407837041
 21
-5.0000000021
 31
0.0
  0
LINE
  5
2E6
330
23
100
AcDbEntity
  8
0
  6
Continuous
 62
     7
370
    25
100
AcDbLine
 10
74.7499851575
 20
-5.0000000021
 30
0.0
 11
72.2499999999
 21
-5.0000000021
 31
0.0
  0
LINE
  5
2E7
330
23
100
AcDbEntity
  8
0
  6
Continuous
 62
     7
370
    25
100
AcDbLine
 10
34.7499851575
 20
-5.0000000021
 30
0.0
 11
32.2499999999
 21
-5.0000000021
 31
0.0
  0
LINE
  5
2E8
330
23
100
AcDbEntity
  8
0
  6
Continuous
 62
     7
370
    25
100
AcDbLine
 10
-32.4515065913
 20
-5.0000000021
 30
0.0
 11
-34.9515065914
 21
-5.0000000021
 31
0.0
  0
LINE
  5
2E9
330
23
100
AcDbEntity
  8
0
  6
Continuous
 62
     7
370
    25
100
AcDbLine
 10
-14.75
 20
-5.0
 30
0.0
 11
-12.25
 21
-5.0
 31
0.0
  0
LINE
  5
2EA
330
23
100
AcDbEntity
  8
0
  6
Continuous
 62
     7
370
    25
100
AcDbLine
 10
12.2500009166
 20
-5.0
 30
0.0
 11
14.75
 21
-5.0
 31
0.0
  0
LINE
  5
2EB
330
23
100
AcDbEntity
  8
0
  6
Continuous
 62
     8
370
    25
100
AcDbLine
 10
16.75
 20
13.8
 30
0.0
 11
-16.75
 21
13.8
 31
0.0
  0
LINE
  5
2EC
330
23
100
AcDbEntity
  8
0
  6
Continuous
 62
     8
370
    25
100
AcDbLine
 10
15.25
 20
29.3
 30
0.0
 11
-15.25
 21
29.3
 31
0.0
  0
LINE
  5
2ED
330
23
100
AcDbEntity
  8
0
  6
Continuous
 62
     8
370
    25
100
AcDbLine
 10
9.1724137931
 20
30.9029061605
 30
0.0
 11
-9.1724137931
 21
30.9029061605
 31
0.0
  0
LINE
  5
2EE
330
23
100
AcDbEntity
  8
0
  6
Continuous
 62
     8
370
    25
100
AcDbLine
 10
12.7061825973
 20
34.6601487216
 30
0.0
 11
-12.7061825973
 21
34.6601487216
 31
0.0
  0
LINE
  5
2EF
330
23
100
AcDbEntity
  8
0
  6
Continuous
 62
     8
370
    25
100
AcDbLine
 10
-13.0
 20
35.1156580372
 30
0.0
 11
13.0
 21
35.1156580372
 31
0.0
  0
LINE
  5
2F0
330
23
100
AcDbEntity
  8
0
  6
Continuous
 62
     8
370
    25
100
AcDbLine
 10
13.0
 20
48.3
 30
0.0
 11
-13.0
 21
48.3
 31
0.0
  0
LINE
  5
2F1
330
23
100
AcDbEntity
  8
0
  6
Continuous
 62
     8
370
    25
100
AcDbLine
 10
-9.4529574305
 20
33.834872505
 30
0.0
 11
9.4529567429
 21
33.834872505
 31
0.0
  0
LINE
  5
2F2
330
23
100
AcDbEntity
  8
0
  6
Continuous
 62
     8
370
    25
100
AcDbLine
 10
9.0
 20
33.3370904275
 30
0.0
 11
-9.0
 21
33.3370904275
 31
0.0
  0
LINE
  5
2F3
330
23
100
AcDbEntity
  8
0
  6
Continuous
 62
     8
370
    25
100
AcDbLine
 10
-9.0
 20
31.2806458553
 30
0.0
 11
9.0
 21
31.2806458553
 31
0.0
  0
ARC
  5
2F4
330
23
100
AcDbEntity
  8
0
  6
Continuous
 62
     7
370
    25
100
AcDbCircle
 10
16.25
 20
13.8
 30
0.0
 40
0.5000000000000018
100
AcDbArc
 50
0.0
 51
90.0
  0
ARC
  5
2F5
330
23
100
AcDbEntity
  8
0
  6
Continuous
 62
     7
370
    25
100
AcDbCircle
 10
-16.25
 20
13.8
 30
0.0
 40
0.5000000000000018
100
AcDbArc
 50
90.0
 51
180.0
  0
ARC
  5
2F6
330
23
100
AcDbEntity
  8
0
  6
Continuous
 62
     7
370
    25
100
AcDbCircle
 10
14.75
 20
29.3
 30
0.0
 40
0.5000000000000071
100
AcDbArc
 50
0.0
 51
90.0
  0
ARC
  5
2F7
330
23
100
AcDbEntity
  8
0
  6
Continuous
 62
     7
370
    25
100
AcDbCircle
 10
-14.75
 20
29.3
 30
0.0
 40
0.5000000000000071
100
AcDbArc
 50
90.0
 51
180.0
  0
ARC
  5
2F8
330
23
100
AcDbEntity
  8
0
  6
Continuous
 62
     7
370
    25
100
AcDbCircle
 10
-12.5
 20
35.1156580372
 30
0.0
 40
0.5000000000000107
100
AcDbArc
 50
180.0
 51
245.6465005217
  0
ARC
  5
2F9
330
23
100
AcDbEntity
  8
0
  6
Continuous
 62
     7
370
    25
100
AcDbCircle
 10
12.5
 20
35.1156580372
 30
0.0
 40
0.5000000000000203
100
AcDbArc
 50
294.3534994783
 51
0.0
  0
ARC
  5
2FA
330
23
100
AcDbEntity
  8
0
  6
Continuous
 62
     7
370
    25
100
AcDbCircle
 10
12.5
 20
48.3
 30
0.0
 40
0.5000000000000089
100
AcDbArc
 50
0.0
 51
90.0
  0
ARC
  5
2FB
330
23
100
AcDbEntity
  8
0
  6
Continuous
 62
     7
370
    25
100
AcDbCircle
 10
-12.5
 20
48.3
 30
0.0
 40
0.5000000000000089
100
AcDbArc
 50
90.0
 51
180.0
  0
ARC
  5
2FC
330
23
100
AcDbEntity
  8
0
  6
Continuous
 62
     7
370
    25
100
AcDbCircle
 10
9.5
 20
33.3370904275
 30
0.0
 40
0.5
100
AcDbArc
 50
95.3986662912
 51
180.0
  0
ARC
  5
2FD
330
23
100
AcDbEntity
  8
0
  6
Continuous
 62
     7
370
    25
100
AcDbCircle
 10
-9.5
 20
33.3370904275
 30
0.0
 40
0.5000000000000053
100
AcDbArc
 50
0.0
 51
84.6013337088
  0
ARC
  5
2FE
330
23
100
AcDbEntity
  8
0
  6
Continuous
 62
     7
370
    25
100
AcDbCircle
 10
9.5
 20
31.2806458553
 30
0.0
 40
0.5000000000000036
100
AcDbArc
 50
180.0
 51
229.0672754258
  0
ARC
  5
2FF
330
23
100
AcDbEntity
  8
0
  6
Continuous
 62
     7
370
    25
100
AcDbCircle
 10
-9.5
 20
31.2806458553
 30
0.0
 40
0.4999999999999973
100
AcDbArc
 50
310.9327245742
 51
0.0
  0
VIEWPORT
  5
416
330
23
100
AcDbEntity
  8
0
100
AcDbViewport
 10
0.0
 20
0.0
 30
0.0
 40
205.6
 41
156.0
 68
     1
 69
     1
 12
0.0
 22
21.8991161524
 13
0.0
 23
0.0
 14
10.0
 24
10.0
 15
10.0
 25
10.0
 16
0.0
 26
0.0
 36
1.0
 17
0.0
 27
0.0
 37
0.0
 42
50.0
 43
0.0
 44
0.0
 45
154.7859922179
 50
0.0
 51
0.0
 72
   100
 90
   557152
  1

281
     0
 71
     1
 74
     0
110
0.0
120
0.0
130
0.0
111
1.0
121
0.0
131
0.0
112
0.0
122
1.0
132
0.0
 79
     0
146
0.0
  0
ENDBLK
  5
25
330
23
100
AcDbEntity
  8
0
100
AcDbBlockEnd
  0
BLOCK
  5
302
330
300
100
AcDbEntity
  8
0
100
AcDbBlockBegin
  2
*Paper_Space1
 70
     0
 10
0.0
 20
0.0
 30
0.0
  3
*Paper_Space1
  1

  0
CIRCLE
  5
304
330
300
100
AcDbEntity
  8
0
  6
Continuous
 62
     7
370
    25
100
AcDbCircle
 10
36.772695926
 20
63.6467858231
 30
0.0
 40
1.250000000056132
  0
CIRCLE
  5
305
330
300
100
AcDbEntity
  8
0
  6
Continuous
 62
     7
370
    25
100
AcDbCircle
 10
36.772695926
 20
63.6467858231
 30
0.0
 40
2.499999999999993
  0
CIRCLE
  5
306
330
300
100
AcDbEntity
  8
0
  6
Continuous
 62
     7
370
    25
100
AcDbCircle
 10
-71.0393933944
 20
-19.0803399429
 30
0.0
 40
1.250000000056118
  0
CIRCLE
  5
307
330
300
100
AcDbEntity
  8
0
  6
Continuous
 62
     7
370
    25
100
AcDbCircle
 10
-71.0393933944
 20
-19.0803399429
 30
0.0
 40
2.500000000000015
  0
CIRCLE
  5
308
330
300
100
AcDbEntity
  8
0
  6
Continuous
 62
     7
370
    25
100
AcDbCircle
 10
63.6921776752
 20
36.727304074
 30
0.0
 40
1.250000000056158
  0
CIRCLE
  5
309
330
300
100
AcDbEntity
  8
0
  6
Continuous
 62
     7
370
    25
100
AcDbCircle
 10
63.6921776752
 20
36.727304074
 30
0.0
 40
2.499999999999994
  0
CIRCLE
  5
30A
330
300
100
AcDbEntity
  8
0
  6
Continuous
 62
     7
370
    25
100
AcDbCircle
 10
-52.0044453036
 20
51.9590534516
 30
0.0
 40
1.250000000056147
  0
CIRCLE
  5
30B
330
300
100
AcDbEntity
  8
0
  6
Continuous
 62
     7
370
    25
100
AcDbCircle
 10
-52.0044453036
 20
51.9590534516
 30
0.0
 40
2.5
  0
CIRCLE
  5
30C
330
300
100
AcDbEntity
  8
0
  6
Continuous
 62
     7
370
    25
100
AcDbCircle
 10
-19.7500272531
 20
-27.2843337357
 30
0.0
 40
1.250000000056142
  0
CIRCLE
  5
30D
330
300
100
AcDbEntity
  8
0
  6
Continuous
 62
     7
370
    25
100
AcDbCircle
 10
-19.7500272531
 20
-27.2843337357
 30
0.0
 40
2.499999999999999
  0
CIRCLE
  5
30E
330
300
100
AcDbEntity
  8
0
  6
Continuous
 62
     7
370
    25
100
AcDbCircle
 10
71.0393933944
 20
-19.0803399429
 30
0.0
 40
1.250000000056156
  0
CIRCLE
  5
30F
330
300
100
AcDbEntity
  8
0
  6
Continuous
 62
     7
370
    25
100
AcDbCircle
 10
71.0393933944
 20
-19.0803399429
 30
0.0
 40
2.499999999999993
  0
CIRCLE
  5
310
330
300
100
AcDbEntity
  8
0
  6
Continuous
 62
     7
370
    25
100
AcDbCircle
 10
-63.6921776752
 20
36.727304074
 30
0.0
 40
1.250000000056123
  0
CIRCLE
  5
311
330
300
100
AcDbEntity
  8
0
  6
Continuous
 62
     7
370
    25
100
AcDbCircle
 10
-63.6921776752
 20
36.727304074
 30
0.0
 40
2.499999999999985
  0
CIRCLE
  5
312
330
300
100
AcDbEntity
  8
0
  6
Continuous
 62
     7
370
    25
100
AcDbCircle
 10
0.0
 20
33.5
 30
0.0
 40
1.250000000056147
  0
CIRCLE
  5
313
330
300
100
AcDbEntity
  8
0
  6
Continuous
 62
     7
370
    25
100
AcDbCircle
 10
0.0
 20
33.5
 30
0.0
 40
2.499999999999993
  0
CIRCLE
  5
314
330
300
100
AcDbEntity
  8
0
  6
Continuous
 62
     7
370
    25
100
AcDbCircle
 10
19.7500272531
 20
27.0828271443
 30
0.0
 40
1.250000000056136
  0
CIRCLE
  5
315
330
300
100
AcDbEntity
  8
0
  6
Continuous
 62
     7
370
    25
100
AcDbCircle
 10
19.7500272531
 20
27.0828271443
 30
0.0
 40
2.500000000000003
  0
CIRCLE
  5
316
330
300
100
AcDbEntity
  8
0
  6
Continuous
 62
     7
370
    25
100
AcDbCircle
 10
73.545391852
 20
-0.045391852
 30
0.0
 40
1.250000000056147
  0
CIRCLE
  5
317
330
300
100
AcDbEntity
  8
0
  6
Continuous
 62
     7
370
    25
100
AcDbCircle
 10
73.5
 20
0.0
 30
0.0
 40
0.5000000000036757
  0
CIRCLE
  5
318
330
300
100
AcDbEntity
  8
0
  6
Continuous
 62
     7
370
    25
100
AcDbCircle
 10
19.0349480908
 20
70.9940015424
 30
0.0
 40
1.250000000056154
  0
CIRCLE
  5
319
330
300
100
AcDbEntity
  8
0
  6
Continuous
 62
     7
370
    25
100
AcDbCircle
 10
19.023199815
 20
70.9955482322
 30
0.0
 40
0.5
  0
CIRCLE
  5
31A
330
300
100
AcDbEntity
  8
0
  6
Continuous
 62
     7
370
    25
100
AcDbCircle
 10
19.0349480908
 20
-71.0847852465
 30
0.0
 40
1.250000000056129
  0
CIRCLE
  5
31B
330
300
100
AcDbEntity
  8
0
  6
Continuous
 62
     7
370
    25
100
AcDbCircle
 10
19.0349480908
 20
-71.0847852465
 30
0.0
 40
2.500000000000019
  0
CIRCLE
  5
31C
330
300
100
AcDbEntity
  8
0
  6
Continuous
 62
     7
370
    25
100
AcDbCircle
 10
0.0
 20
-73.5907837041
 30
0.0
 40
1.250000000056161
  0
CIRCLE
  5
31D
330
300
100
AcDbEntity
  8
0
  6
Continuous
 62
     7
370
    25
100
AcDbCircle
 10
0.0
 20
-73.5907837041
 30
0.0
 40
2.500000000000014
  0
CIRCLE
  5
31E
330
300
100
AcDbEntity
  8
0
  6
Continuous
 62
     7
370
    25
100
AcDbCircle
 10
19.023199815
 20
-70.9955482322
 30
0.0
 40
0.5000000000097344
  0
CIRCLE
  5
31F
330
300
100
AcDbEntity
  8
0
  6
Continuous
 62
     7
370
    25
100
AcDbCircle
 10
0.0
 20
73.5
 30
0.0
 40
1.250000000056161
  0
CIRCLE
  5
320
330
300
100
AcDbEntity
  8
0
  6
Continuous
 62
     7
370
    25
100
AcDbCircle
 10
0.0
 20
73.5
 30
0.0
 40
2.500000000000014
  0
CIRCLE
  5
321
330
300
100
AcDbEntity
  8
0
  6
Continuous
 62
     7
370
    25
100
AcDbCircle
 10
52.0044453036
 20
-52.0498371557
 30
0.0
 40
1.250000000056142
  0
CIRCLE
  5
322
330
300
100
AcDbEntity
  8
0
  6
Continuous
 62
     7
370
    25
100
AcDbCircle
 10
51.9723484172
 20
-51.9723484172
 30
0.0
 40
0.5000000000076881
  0
CIRCLE
  5
323
330
300
100
AcDbEntity
  8
0
  6
Continuous
 62
     7
370
    25
100
AcDbCircle
 10
-19.7500272531
 20
27.0828271443
 30
0.0
 40
1.250000000056138
  0
CIRCLE
  5
324
330
300
100
AcDbEntity
  8
0
  6
Continuous
 62
     7
370
    25
100
AcDbCircle
 10
-19.7500272531
 20
27.0828271443
 30
0.0
 40
2.500000000000006
  0
CIRCLE
  5
325
330
300
100
AcDbEntity
  8
0
  6
Continuous
 62
     7
370
    25
100
AcDbCircle
 10
52.0044453036
 20
-52.0498371557
 30
0.0
 40
2.5
  0
CIRCLE
  5
326
330
300
100
AcDbEntity
  8
0
  6
Continuous
 62
     7
370
    25
100
AcDbCircle
 10
63.6921776752
 20
-36.8180877781
 30
0.0
 40
1.250000000056141
  0
CIRCLE
  5
327
330
300
100
AcDbEntity
  8
0
  6
Continuous
 62
     7
370
    25
100
AcDbCircle
 10
63.6528671782
 20
-36.75
 30
0.0
 40
0.5000000000064091
  0
CIRCLE
  5
328
330
300
100
AcDbEntity
  8
0
  6
Continuous
 62
     7
370
    25
100
AcDbCircle
 10
71.0393933944
 20
18.9895562388
 30
0.0
 40
1.250000000056128
  0
CIRCLE
  5
329
330
300
100
AcDbEntity
  8
0
  6
Continuous
 62
     7
370
    25
100
AcDbCircle
 10
71.0393933944
 20
18.9895562388
 30
0.0
 40
2.50000000000002
  0
CIRCLE
  5
32A
330
300
100
AcDbEntity
  8
0
  6
Continuous
 62
     7
370
    25
100
AcDbCircle
 10
-31.9562153743
 20
10.2824504965
 30
0.0
 40
1.250000000056142
  0
CIRCLE
  5
32B
330
300
100
AcDbEntity
  8
0
  6
Continuous
 62
     7
370
    25
100
AcDbCircle
 10
-31.8603932959
 20
10.3520693116
 30
0.0
 40
0.5000000000016929
  0
CIRCLE
  5
32C
330
300
100
AcDbEntity
  8
0
  6
Continuous
 62
     7
370
    25
100
AcDbCircle
 10
70.9955482323
 20
-19.023199815
 30
0.0
 40
0.5000000000050271
  0
CIRCLE
  5
32D
330
300
100
AcDbEntity
  8
0
  6
Continuous
 62
     7
370
    25
100
AcDbCircle
 10
-19.0349480908
 20
-71.0847852465
 30
0.0
 40
1.250000000056151
  0
CIRCLE
  5
32E
330
300
100
AcDbEntity
  8
0
  6
Continuous
 62
     7
370
    25
100
AcDbCircle
 10
-19.023199815
 20
-70.9955482322
 30
0.0
 40
0.5000000000106013
  0
CIRCLE
  5
32F
330
300
100
AcDbEntity
  8
0
  6
Continuous
 62
     7
370
    25
100
AcDbCircle
 10
-31.9562153743
 20
-10.4839570878
 30
0.0
 40
1.25000000005614
  0
CIRCLE
  5
330
330
300
100
AcDbEntity
  8
0
  6
Continuous
 62
     7
370
    25
100
AcDbCircle
 10
-31.8603932959
 20
-10.3520693116
 30
0.0
 40
0.5000000000024674
  0
CIRCLE
  5
331
330
300
100
AcDbEntity
  8
0
  6
Continuous
 62
     7
370
    25
100
AcDbCircle
 10
52.0044453036
 20
51.9590534516
 30
0.0
 40
1.250000000056136
  0
CIRCLE
  5
332
330
300
100
AcDbEntity
  8
0
  6
Continuous
 62
     7
370
    25
100
AcDbCircle
 10
51.9723484172
 20
51.9723484172
 30
0.0
 40
0.5000000000004974
  0
CIRCLE
  5
333
330
300
100
AcDbEntity
  8
0
  6
Continuous
 62
     7
370
    25
100
AcDbCircle
 10
0.0
 20
-73.5
 30
0.0
 40
0.5000000000103171
  0
CIRCLE
  5
334
330
300
100
AcDbEntity
  8
0
  6
Continuous
 62
     7
370
    25
100
AcDbCircle
 10
73.545391852
 20
-0.045391852
 30
0.0
 40
2.5
  0
CIRCLE
  5
335
330
300
100
AcDbEntity
  8
0
  6
Continuous
 62
     7
370
    25
100
AcDbCircle
 10
70.9955482323
 20
19.023199815
 30
0.0
 40
0.5000000000024336
  0
CIRCLE
  5
336
330
300
100
AcDbEntity
  8
0
  6
Continuous
 62
     7
370
    25
100
AcDbCircle
 10
0.0
 20
-33.7015065913
 30
0.0
 40
1.250000000056147
  0
CIRCLE
  5
337
330
300
100
AcDbEntity
  8
0
  6
Continuous
 62
     7
370
    25
100
AcDbCircle
 10
0.0
 20
-33.7015065913
 30
0.0
 40
2.500000000000007
  0
CIRCLE
  5
338
330
300
100
AcDbEntity
  8
0
  6
Continuous
 62
     7
370
    25
100
AcDbCircle
 10
0.0
 20
-33.5
 30
0.0
 40
0.5000000000029274
  0
CIRCLE
  5
339
330
300
100
AcDbEntity
  8
0
  6
Continuous
 62
     7
370
    25
100
AcDbCircle
 10
63.6528671782
 20
36.75
 30
0.0
 40
0.5000000000013145
  0
CIRCLE
  5
33A
330
300
100
AcDbEntity
  8
0
  6
Continuous
 62
     7
370
    25
100
AcDbCircle
 10
36.772695926
 20
-63.7375695272
 30
0.0
 40
1.250000000056132
  0
CIRCLE
  5
33B
330
300
100
AcDbEntity
  8
0
  6
Continuous
 62
     7
370
    25
100
AcDbCircle
 10
36.75
 20
-63.6528671782
 30
0.0
 40
0.500000000008832
  0
CIRCLE
  5
33C
330
300
100
AcDbEntity
  8
0
  6
Continuous
 62
     7
370
    25
100
AcDbCircle
 10
-19.0349480908
 20
70.9940015424
 30
0.0
 40
1.250000000056146
  0
CIRCLE
  5
33D
330
300
100
AcDbEntity
  8
0
  6
Continuous
 62
     7
370
    25
100
AcDbCircle
 10
-19.0349480908
 20
70.9940015424
 30
0.0
 40
2.499999999999985
  0
CIRCLE
  5
33E
330
300
100
AcDbEntity
  8
0
  6
Continuous
 62
     7
370
    25
100
AcDbCircle
 10
-71.0393933944
 20
18.9895562388
 30
0.0
 40
1.250000000056151
  0
CIRCLE
  5
33F
330
300
100
AcDbEntity
  8
0
  6
Continuous
 62
     7
370
    25
100
AcDbCircle
 10
-70.9955482322
 20
19.023199815
 30
0.0
 40
0.500000000005894
  0
CIRCLE
  5
340
330
300
100
AcDbEntity
  8
0
  6
Continuous
 62
     7
370
    25
100
AcDbCircle
 10
31.9562153743
 20
-10.4839570878
 30
0.0
 40
1.250000000056141
  0
CIRCLE
  5
341
330
300
100
AcDbEntity
  8
0
  6
Continuous
 62
     7
370
    25
100
AcDbCircle
 10
31.9562153743
 20
-10.4839570878
 30
0.0
 40
2.499999999999994
  0
CIRCLE
  5
342
330
300
100
AcDbEntity
  8
0
  6
Continuous
 62
     7
370
    25
100
AcDbCircle
 10
31.8603932959
 20
-10.3520693116
 30
0.0
 40
0.5000000000015206
  0
CIRCLE
  5
343
330
300
100
AcDbEntity
  8
0
  6
Continuous
 62
     7
370
    25
100
AcDbCircle
 10
36.75
 20
63.6528671782
 30
0.0
 40
0.4999999999999858
  0
CIRCLE
  5
344
330
300
100
AcDbEntity
  8
0
  6
Continuous
 62
     7
370
    25
100
AcDbCircle
 10
0.0
 20
33.5
 30
0.0
 40
0.4999999999999929
  0
CIRCLE
  5
345
330
300
100
AcDbEntity
  8
0
  6
Continuous
 62
     7
370
    25
100
AcDbCircle
 10
-36.772695926
 20
-63.7375695272
 30
0.0
 40
1.250000000056132
  0
CIRCLE
  5
346
330
300
100
AcDbEntity
  8
0
  6
Continuous
 62
     7
370
    25
100
AcDbCircle
 10
-36.75
 20
-63.6528671782
 30
0.0
 40
0.500000000010516
  0
CIRCLE
  5
347
330
300
100
AcDbEntity
  8
0
  6
Continuous
 62
     7
370
    25
100
AcDbCircle
 10
-63.6528671782
 20
36.75
 30
0.0
 40
0.5000000000046256
  0
CIRCLE
  5
348
330
300
100
AcDbEntity
  8
0
  6
Continuous
 62
     7
370
    25
100
AcDbCircle
 10
-19.023199815
 20
70.9955482322
 30
0.0
 40
0.5000000000015348
  0
CIRCLE
  5
349
330
300
100
AcDbEntity
  8
0
  6
Continuous
 62
     7
370
    25
100
AcDbCircle
 10
19.6908059518
 20
27.1020693116
 30
0.0
 40
0.5
  0
CIRCLE
  5
34A
330
300
100
AcDbEntity
  8
0
  6
Continuous
 62
     7
370
    25
100
AcDbCircle
 10
19.7500272531
 20
-27.2843337357
 30
0.0
 40
1.250000000056146
  0
CIRCLE
  5
34B
330
300
100
AcDbEntity
  8
0
  6
Continuous
 62
     7
370
    25
100
AcDbCircle
 10
19.6908059518
 20
-27.1020693116
 30
0.0
 40
0.5000000000023803
  0
CIRCLE
  5
34C
330
300
100
AcDbEntity
  8
0
  6
Continuous
 62
     7
370
    25
100
AcDbCircle
 10
-36.772695926
 20
63.6467858231
 30
0.0
 40
1.250000000056143
  0
CIRCLE
  5
34D
330
300
100
AcDbEntity
  8
0
  6
Continuous
 62
     7
370
    25
100
AcDbCircle
 10
-36.75
 20
63.6528671782
 30
0.0
 40
0.500000000002359
  0
CIRCLE
  5
34E
330
300
100
AcDbEntity
  8
0
  6
Continuous
 62
     7
370
    25
100
AcDbCircle
 10
-63.6921776752
 20
-36.8180877781
 30
0.0
 40
1.250000000056157
  0
CIRCLE
  5
34F
330
300
100
AcDbEntity
  8
0
  6
Continuous
 62
     7
370
    25
100
AcDbCircle
 10
-63.6921776752
 20
-36.8180877781
 30
0.0
 40
2.499999999999993
  0
CIRCLE
  5
350
330
300
100
AcDbEntity
  8
0
  6
Continuous
 62
     7
370
    25
100
AcDbCircle
 10
-19.6908059518
 20
-27.1020693116
 30
0.0
 40
0.5000000000029701
  0
CIRCLE
  5
351
330
300
100
AcDbEntity
  8
0
  6
Continuous
 62
     7
370
    25
100
AcDbCircle
 10
-19.6908059518
 20
27.1020693116
 30
0.0
 40
0.5000000000000071
  0
CIRCLE
  5
352
330
300
100
AcDbEntity
  8
0
  6
Continuous
 62
     7
370
    25
100
AcDbCircle
 10
-51.9723484172
 20
51.9723484172
 30
0.0
 40
0.5000000000033751
  0
CIRCLE
  5
353
330
300
100
AcDbEntity
  8
0
  6
Continuous
 62
     7
370
    25
100
AcDbCircle
 10
-70.9955482322
 20
-19.023199815
 30
0.0
 40
0.5000000000083844
  0
CIRCLE
  5
354
330
300
100
AcDbEntity
  8
0
  6
Continuous
 62
     7
370
    25
100
AcDbCircle
 10
31.9562153743
 20
10.2824504965
 30
0.0
 40
1.250000000056141
  0
CIRCLE
  5
355
330
300
100
AcDbEntity
  8
0
  6
Continuous
 62
     7
370
    25
100
AcDbCircle
 10
31.8603932959
 20
10.3520693116
 30
0.0
 40
0.5000000000006413
  0
CIRCLE
  5
356
330
300
100
AcDbEntity
  8
0
  6
Continuous
 62
     7
370
    25
100
AcDbCircle
 10
0.0
 20
73.5
 30
0.0
 40
0.4999999999999858
  0
CIRCLE
  5
357
330
300
100
AcDbEntity
  8
0
  6
Continuous
 62
     7
370
    25
100
AcDbCircle
 10
-73.545391852
 20
-0.045391852
 30
0.0
 40
1.250000000056147
  0
CIRCLE
  5
358
330
300
100
AcDbEntity
  8
0
  6
Continuous
 62
     7
370
    25
100
AcDbCircle
 10
-73.5
 20
0.0
 30
0.0
 40
0.5000000000071522
  0
CIRCLE
  5
359
330
300
100
AcDbEntity
  8
0
  6
Continuous
 62
     7
370
    25
100
AcDbCircle
 10
-63.6528671781
 20
-36.75
 30
0.0
 40
0.5000000000093294
  0
CIRCLE
  5
35A
330
300
100
AcDbEntity
  8
0
  6
Continuous
 62
     7
370
    25
100
AcDbCircle
 10
-36.772695926
 20
63.6467858231
 30
0.0
 40
2.499999999999976
  0
CIRCLE
  5
35B
330
300
100
AcDbEntity
  8
0
  6
Continuous
 62
     7
370
    25
100
AcDbCircle
 10
-52.0044453036
 20
-52.0498371557
 30
0.0
 40
1.250000000056142
  0
CIRCLE
  5
35C
330
300
100
AcDbEntity
  8
0
  6
Continuous
 62
     7
370
    25
100
AcDbCircle
 10
-51.9723484172
 20
-51.9723484172
 30
0.0
 40
0.5000000000100968
  0
CIRCLE
  5
35D
330
300
100
AcDbEntity
  8
0
  6
Continuous
 62
     7
370
    25
100
AcDbCircle
 10
19.7500272531
 20
-27.2843337357
 30
0.0
 40
2.499999999999996
  0
CIRCLE
  5
35E
330
300
100
AcDbEntity
  8
0
  6
Continuous
 62
     7
370
    25
100
AcDbCircle
 10
52.0044453036
 20
51.9590534516
 30
0.0
 40
2.500000000000005
  0
CIRCLE
  5
35F
330
300
100
AcDbEntity
  8
0
  6
Continuous
 62
     7
370
    25
100
AcDbCircle
 10
19.0349480908
 20
70.9940015424
 30
0.0
 40
2.499999999999993
  0
CIRCLE
  5
360
330
300
100
AcDbEntity
  8
0
  6
Continuous
 62
     7
370
    25
100
AcDbCircle
 10
-31.9562153743
 20
10.2824504965
 30
0.0
 40
2.50000000000001
  0
CIRCLE
  5
361
330
300
100
AcDbEntity
  8
0
  6
Continuous
 62
     7
370
    25
100
AcDbCircle
 10
-71.0393933944
 20
18.9895562388
 30
0.0
 40
2.499999999999991
  0
CIRCLE
  5
362
330
300
100
AcDbEntity
  8
0
  6
Continuous
 62
     7
370
    25
100
AcDbCircle
 10
-73.545391852
 20
-0.045391852
 30
0.0
 40
2.5
  0
CIRCLE
  5
363
330
300
100
AcDbEntity
  8
0
  6
Continuous
 62
     7
370
    25
100
AcDbCircle
 10
-19.0349480908
 20
-71.0847852465
 30
0.0
 40
2.499999999999968
  0
CIRCLE
  5
364
330
300
100
AcDbEntity
  8
0
  6
Continuous
 62
     7
370
    25
100
AcDbCircle
 10
36.772695926
 20
-63.7375695272
 30
0.0
 40
2.500000000000012
  0
CIRCLE
  5
365
330
300
100
AcDbEntity
  8
0
  6
Continuous
 62
     7
370
    25
100
AcDbCircle
 10
-52.0044453036
 20
-52.0498371557
 30
0.0
 40
2.499999999999985
  0
CIRCLE
  5
366
330
300
100
AcDbEntity
  8
0
  6
Continuous
 62
     7
370
    25
100
AcDbCircle
 10
63.6921776752
 20
-36.8180877781
 30
0.0
 40
2.499999999999993
  0
CIRCLE
  5
367
330
300
100
AcDbEntity
  8
0
  6
Continuous
 62
     7
370
    25
100
AcDbCircle
 10
-36.772695926
 20
-63.7375695272
 30
0.0
 40
2.500000000000005
  0
CIRCLE
  5
368
330
300
100
AcDbEntity
  8
0
  6
Continuous
 62
     7
370
    25
100
AcDbCircle
 10
31.9562153743
 20
10.2824504965
 30
0.0
 40
2.500000000000004
  0
CIRCLE
  5
369
330
300
100
AcDbEntity
  8
0
  6
Continuous
 62
     7
370
    25
100
AcDbCircle
 10
-31.9562153743
 20
-10.4839570878
 30
0.0
 40
2.500000000000005
  0
CIRCLE
  5
36A
330
300
100
AcDbEntity
  8
0
  6
Continuous
 62
     7
370
    25
100
AcDbCircle
 10
-49.5010410131
 20
-20.5835432381
 30
0.0
 40
1.24999999999999
  0
CIRCLE
  5
36B
330
300
100
AcDbEntity
  8
0
  6
Continuous
 62
     7
370
    25
100
AcDbCircle
 10
-49.5010410131
 20
-20.5835432381
 30
0.0
 40
2.49999999999999
  0
CIRCLE
  5
36C
330
300
100
AcDbEntity
  8
0
  6
Continuous
 62
     7
370
    25
100
AcDbCircle
 10
37.886456561
 20
37.8069158622
 30
0.0
 40
1.24999999999999
  0
CIRCLE
  5
36D
330
300
100
AcDbEntity
  8
0
  6
Continuous
 62
     7
370
    25
100
AcDbCircle
 10
37.886456561
 20
37.8069158622
 30
0.0
 40
2.499999999999995
  0
CIRCLE
  5
36E
330
300
100
AcDbEntity
  8
0
  6
Continuous
 62
     7
370
    25
100
AcDbCircle
 10
-37.886456561
 20
-37.9659972599
 30
0.0
 40
1.249999999999995
  0
CIRCLE
  5
36F
330
300
100
AcDbEntity
  8
0
  6
Continuous
 62
     7
370
    25
100
AcDbCircle
 10
-37.886456561
 20
-37.9659972599
 30
0.0
 40
2.50000000000001
  0
CIRCLE
  5
370
330
300
100
AcDbEntity
  8
0
  6
Continuous
 62
     7
370
    25
100
AcDbCircle
 10
-37.886456561
 20
37.8069158622
 30
0.0
 40
1.250000000000015
  0
CIRCLE
  5
371
330
300
100
AcDbEntity
  8
0
  6
Continuous
 62
     7
370
    25
100
AcDbCircle
 10
-37.886456561
 20
37.8069158622
 30
0.0
 40
2.500000000000005
  0
CIRCLE
  5
372
330
300
100
AcDbEntity
  8
0
  6
Continuous
 62
     7
370
    25
100
AcDbCircle
 10
53.5795406989
 20
-0.0795406989
 30
0.0
 40
1.25
  0
CIRCLE
  5
373
330
300
100
AcDbEntity
  8
0
  6
Continuous
 62
     7
370
    25
100
AcDbCircle
 10
53.5795406989
 20
-0.0795406989
 30
0.0
 40
2.500000000000014
  0
CIRCLE
  5
374
330
300
100
AcDbEntity
  8
0
  6
Continuous
 62
     7
370
    25
100
AcDbCircle
 10
20.5040025392
 20
49.4215003142
 30
0.0
 40
1.250000000000004
  0
CIRCLE
  5
375
330
300
100
AcDbEntity
  8
0
  6
Continuous
 62
     7
370
    25
100
AcDbCircle
 10
20.5040025392
 20
49.4215003142
 30
0.0
 40
2.499999999999994
  0
CIRCLE
  5
376
330
300
100
AcDbEntity
  8
0
  6
Continuous
 62
     7
370
    25
100
AcDbCircle
 10
-20.5040025392
 20
-49.580581712
 30
0.0
 40
1.250000000000001
  0
CIRCLE
  5
377
330
300
100
AcDbEntity
  8
0
  6
Continuous
 62
     7
370
    25
100
AcDbCircle
 10
-20.5040025392
 20
-49.580581712
 30
0.0
 40
2.500000000000011
  0
CIRCLE
  5
378
330
300
100
AcDbEntity
  8
0
  6
Continuous
 62
     7
370
    25
100
AcDbCircle
 10
37.886456561
 20
-37.9659972599
 30
0.0
 40
1.250000000000005
  0
CIRCLE
  5
379
330
300
100
AcDbEntity
  8
0
  6
Continuous
 62
     7
370
    25
100
AcDbCircle
 10
37.886456561
 20
-37.9659972599
 30
0.0
 40
2.500000000000005
  0
CIRCLE
  5
37A
330
300
100
AcDbEntity
  8
0
  6
Continuous
 62
     7
370
    25
100
AcDbCircle
 10
-20.5040025392
 20
49.4215003142
 30
0.0
 40
1.250000000000005
  0
CIRCLE
  5
37B
330
300
100
AcDbEntity
  8
0
  6
Continuous
 62
     7
370
    25
100
AcDbCircle
 10
-20.5040025392
 20
49.4215003142
 30
0.0
 40
2.500000000000002
  0
CIRCLE
  5
37C
330
300
100
AcDbEntity
  8
0
  6
Continuous
 62
     7
370
    25
100
AcDbCircle
 10
0.0
 20
53.5
 30
0.0
 40
1.25
  0
CIRCLE
  5
37D
330
300
100
AcDbEntity
  8
0
  6
Continuous
 62
     7
370
    25
100
AcDbCircle
 10
0.0
 20
53.5
 30
0.0
 40
2.5
  0
CIRCLE
  5
37E
330
300
100
AcDbEntity
  8
0
  6
Continuous
 62
     7
370
    25
100
AcDbCircle
 10
0.0
 20
-53.6590813978
 30
0.0
 40
1.250000000000021
  0
CIRCLE
  5
37F
330
300
100
AcDbEntity
  8
0
  6
Continuous
 62
     7
370
    25
100
AcDbCircle
 10
0.0
 20
-53.6590813978
 30
0.0
 40
2.5
  0
CIRCLE
  5
380
330
300
100
AcDbEntity
  8
0
  6
Continuous
 62
     7
370
    25
100
AcDbCircle
 10
-37.8302127935
 20
-37.8302127935
 30
0.0
 40
0.5000000000046114
  0
CIRCLE
  5
381
330
300
100
AcDbEntity
  8
0
  6
Continuous
 62
     7
370
    25
100
AcDbCircle
 10
0.0
 20
-13.5
 30
0.0
 40
1.25
  0
CIRCLE
  5
382
330
300
100
AcDbEntity
  8
0
  6
Continuous
 62
     7
370
    25
100
AcDbCircle
 10
0.0
 20
-13.5
 30
0.0
 40
0.5
  0
CIRCLE
  5
383
330
300
100
AcDbEntity
  8
0
  6
Continuous
 62
     7
370
    25
100
AcDbCircle
 10
-49.5010410131
 20
20.4244618403
 30
0.0
 40
1.249999999999995
  0
CIRCLE
  5
384
330
300
100
AcDbEntity
  8
0
  6
Continuous
 62
     7
370
    25
100
AcDbCircle
 10
-49.4275549894
 20
20.4735636315
 30
0.0
 40
0.5000000000025082
  0
CIRCLE
  5
385
330
300
100
AcDbEntity
  8
0
  6
Continuous
 62
     7
370
    25
100
AcDbCircle
 10
37.8302127935
 20
37.8302127935
 30
0.0
 40
0.5000000000002558
  0
CIRCLE
  5
386
330
300
100
AcDbEntity
  8
0
  6
Continuous
 62
     7
370
    25
100
AcDbCircle
 10
13.5
 20
0.0
 30
0.0
 40
1.250000000000002
  0
CIRCLE
  5
387
330
300
100
AcDbEntity
  8
0
  6
Continuous
 62
     7
370
    25
100
AcDbCircle
 10
13.5
 20
0.0
 30
0.0
 40
0.5000000000000002
  0
CIRCLE
  5
388
330
300
100
AcDbEntity
  8
0
  6
Continuous
 62
     7
370
    25
100
AcDbCircle
 10
0.0
 20
13.5
 30
0.0
 40
1.25
  0
CIRCLE
  5
389
330
300
100
AcDbEntity
  8
0
  6
Continuous
 62
     7
370
    25
100
AcDbCircle
 10
0.0
 20
13.5
 30
0.0
 40
0.5
  0
CIRCLE
  5
38A
330
300
100
AcDbEntity
  8
0
  6
Continuous
 62
     7
370
    25
100
AcDbCircle
 10
20.4735636315
 20
49.4275549894
 30
0.0
 40
0.5
  0
CIRCLE
  5
38B
330
300
100
AcDbEntity
  8
0
  6
Continuous
 62
     7
370
    25
100
AcDbCircle
 10
0.0
 20
-13.5
 30
0.0
 40
2.5
  0
CIRCLE
  5
38C
330
300
100
AcDbEntity
  8
0
  6
Continuous
 62
     7
370
    25
100
AcDbCircle
 10
53.5
 20
0.0
 30
0.0
 40
0.500000000001693
  0
CIRCLE
  5
38D
330
300
100
AcDbEntity
  8
0
  6
Continuous
 62
     7
370
    25
100
AcDbCircle
 10
0.0
 20
53.5
 30
0.0
 40
0.5
  0
CIRCLE
  5
38E
330
300
100
AcDbEntity
  8
0
  6
Continuous
 62
     7
370
    25
100
AcDbCircle
 10
13.5
 20
0.0
 30
0.0
 40
2.5
  0
CIRCLE
  5
38F
330
300
100
AcDbEntity
  8
0
  6
Continuous
 62
     7
370
    25
100
AcDbCircle
 10
0.0
 20
13.5
 30
0.0
 40
2.5
  0
CIRCLE
  5
390
330
300
100
AcDbEntity
  8
0
  6
Continuous
 62
     7
370
    25
100
AcDbCircle
 10
-53.5795406989
 20
-0.0795406989
 30
0.0
 40
1.25
  0
CIRCLE
  5
391
330
300
100
AcDbEntity
  8
0
  6
Continuous
 62
     7
370
    25
100
AcDbCircle
 10
-53.5
 20
0.0
 30
0.0
 40
0.5000000000033795
  0
CIRCLE
  5
392
330
300
100
AcDbEntity
  8
0
  6
Continuous
 62
     7
370
    25
100
AcDbCircle
 10
-20.4735636315
 20
49.4275549894
 30
0.0
 40
0.5000000000000142
  0
CIRCLE
  5
393
330
300
100
AcDbEntity
  8
0
  6
Continuous
 62
     7
370
    25
100
AcDbCircle
 10
-37.8302127935
 20
37.8302127935
 30
0.0
 40
0.5000000000017337
  0
CIRCLE
  5
394
330
300
100
AcDbEntity
  8
0
  6
Continuous
 62
     7
370
    25
100
AcDbCircle
 10
-13.5
 20
0.0
 30
0.0
 40
1.25
  0
CIRCLE
  5
395
330
300
100
AcDbEntity
  8
0
  6
Continuous
 62
     7
370
    25
100
AcDbCircle
 10
-13.5
 20
0.0
 30
0.0
 40
0.5000000000000001
  0
CIRCLE
  5
396
330
300
100
AcDbEntity
  8
0
  6
Continuous
 62
     7
370
    25
100
AcDbCircle
 10
20.5040025392
 20
-49.580581712
 30
0.0
 40
1.250000000000002
  0
CIRCLE
  5
397
330
300
100
AcDbEntity
  8
0
  6
Continuous
 62
     7
370
    25
100
AcDbCircle
 10
20.4735636315
 20
-49.4275549894
 30
0.0
 40
0.5000000000042419
  0
CIRCLE
  5
398
330
300
100
AcDbEntity
  8
0
  6
Continuous
 62
     7
370
    25
100
AcDbCircle
 10
49.5010410131
 20
20.4244618403
 30
0.0
 40
1.250000000000002
  0
CIRCLE
  5
399
330
300
100
AcDbEntity
  8
0
  6
Continuous
 62
     7
370
    25
100
AcDbCircle
 10
49.4275549894
 20
20.4735636315
 30
0.0
 40
0.5000000000008598
  0
CIRCLE
  5
39A
330
300
100
AcDbEntity
  8
0
  6
Continuous
 62
     7
370
    25
100
AcDbCircle
 10
-20.4735636315
 20
-49.4275549894
 30
0.0
 40
0.5000000000048388
  0
CIRCLE
  5
39B
330
300
100
AcDbEntity
  8
0
  6
Continuous
 62
     7
370
    25
100
AcDbCircle
 10
37.8302127935
 20
-37.8302127935
 30
0.0
 40
0.5000000000035172
  0
CIRCLE
  5
39C
330
300
100
AcDbEntity
  8
0
  6
Continuous
 62
     7
370
    25
100
AcDbCircle
 10
-49.4275549894
 20
-20.4735636315
 30
0.0
 40
0.5000000000041567
  0
CIRCLE
  5
39D
330
300
100
AcDbEntity
  8
0
  6
Continuous
 62
     7
370
    25
100
AcDbCircle
 10
49.5010410131
 20
-20.5835432381
 30
0.0
 40
1.25
  0
CIRCLE
  5
39E
330
300
100
AcDbEntity
  8
0
  6
Continuous
 62
     7
370
    25
100
AcDbCircle
 10
49.4275549894
 20
-20.4735636315
 30
0.0
 40
0.5000000000026112
  0
CIRCLE
  5
39F
330
300
100
AcDbEntity
  8
0
  6
Continuous
 62
     7
370
    25
100
AcDbCircle
 10
0.0
 20
-53.5
 30
0.0
 40
0.5000000000047109
  0
CIRCLE
  5
3A0
330
300
100
AcDbEntity
  8
0
  6
Continuous
 62
     7
370
    25
100
AcDbCircle
 10
-13.5
 20
0.0
 30
0.0
 40
2.500000000000002
  0
CIRCLE
  5
3A1
330
300
100
AcDbEntity
  8
0
  6
Continuous
 62
     7
370
    25
100
AcDbCircle
 10
20.5040025392
 20
-49.580581712
 30
0.0
 40
2.50000000000001
  0
CIRCLE
  5
3A2
330
300
100
AcDbEntity
  8
0
  6
Continuous
 62
     7
370
    25
100
AcDbCircle
 10
49.5010410131
 20
20.4244618403
 30
0.0
 40
2.50000000000001
  0
CIRCLE
  5
3A3
330
300
100
AcDbEntity
  8
0
  6
Continuous
 62
     7
370
    25
100
AcDbCircle
 10
49.5010410131
 20
-20.5835432381
 30
0.0
 40
2.500000000000009
  0
CIRCLE
  5
3A4
330
300
100
AcDbEntity
  8
0
  6
Continuous
 62
     7
370
    25
100
AcDbCircle
 10
-53.5795406989
 20
-0.0795406989
 30
0.0
 40
2.5
  0
CIRCLE
  5
3A5
330
300
100
AcDbEntity
  8
0
  6
Continuous
 62
     7
370
    25
100
AcDbCircle
 10
-49.5010410131
 20
20.4244618403
 30
0.0
 40
2.500000000000011
  0
CIRCLE
  5
3A6
330
300
100
AcDbEntity
  8
0
  6
Continuous
 62
     7
370
    25
100
AcDbCircle
 10
0.0
 20
0.0
 30
0.0
 40
100.0000000000001
  0
VIEWPORT
  5
418
330
300
100
AcDbEntity
  8
0
100
AcDbViewport
 10
0.0
 20
0.0
 30
0.0
 40
205.6
 41
156.0
 68
     1
 69
     1
 12
0.0
 22
21.8991161524
 13
0.0
 23
0.0
 14
10.0
 24
10.0
 15
10.0
 25
10.0
 16
0.0
 26
0.0
 36
1.0
 17
0.0
 27
0.0
 37
0.0
 42
50.0
 43
0.0
 44
0.0
 45
154.7859922179
 50
0.0
 51
0.0
 72
   100
 90
   557152
  1

281
     0
 71
     1
 74
     0
110
0.0
120
0.0
130
0.0
111
1.0
121
0.0
131
0.0
112
0.0
122
1.0
132
0.0
 79
     0
146
0.0
  0
ENDBLK
  5
303
330
300
100
AcDbEntity
  8
0
100
AcDbBlockEnd
  0
BLOCK
  5
3A9
330
3A7
100
AcDbEntity
  8
0
100
AcDbBlockBegin
  2
*Paper_Space2
 70
     0
 10
0.0
 20
0.0
 30
0.0
  3
*Paper_Space2
  1

  0
SPLINE
  5
3AD
330
3A7
100
AcDbEntity
  8
0
  6
Continuous
 62
     7
370
    25
100
AcDbSpline
210
0.0
220
0.0
230
1.0
 70
     8
 71
     3
 72
    12
 73
     8
 74
     0
 42
0.000000001
 43
0.00000001
 40
0.0
 40
0.0
 40
0.0
 40
0.0
 40
0.0341589789828782
 40
0.2727987757547705
 40
0.5139769037458931
 40
0.7571117403430748
 40
0.9999999999999999
 40
0.9999999999999999
 40
0.9999999999999999
 40
0.9999999999999999
 10
12.36035949458322
 20
41.82728574772556
 30
0.0
 10
12.3413305399904
 20
41.86922017718349
 30
0.0
 10
12.1893624287826
 20
42.20411487716362
 30
0.0
 10
11.7444456859641
 20
42.79660163992336
 30
0.0
 10
11.02047964030356
 20
43.58908725432337
 30
0.0
 10
10.13771383877475
 20
44.32584826743423
 30
0.0
 10
9.43832930396988
 20
44.75835346038384
 30
0.0
 10
9.088814447990876
 20
44.97449634416399
 30
0.0
  0
SPLINE
  5
3AE
330
3A7
100
AcDbEntity
  8
0
  6
Continuous
 62
     7
370
    25
100
AcDbSpline
210
0.0
220
0.0
230
1.0
 70
     8
 71
     3
 72
    25
 73
    21
 74
     0
 42
0.000000001
 43
0.00000001
 40
0.0
 40
0.0
 40
0.0
 40
0.0
 40
0.0306393229749701
 40
0.0886690608461234
 40
0.1466685310318065
 40
0.204616226118135
 40
0.2625149075311283
 40
0.3203763640248756
 40
0.3782163627209319
 40
0.4360523420939273
 40
0.4938999612718325
 40
0.5517742679932716
 40
0.6096939768280227
 40
0.6676771141868649
 40
0.7257389067316257
 40
0.783886994741796
 40
0.8421117585047518
 40
0.9003557217500165
 40
0.9584804232378786
 40
1.0
 40
1.0
 40
1.0
 40
1.0
 10
9.088814447990876
 20
44.97449634416399
 30
0.0
 10
8.893198201410451
 20
45.08323591011231
 30
0.0
 10
8.327092061118137
 20
45.39792416863972
 30
0.0
 10
7.300577108683594
 20
45.85654134775373
 30
0.0
 10
5.990010791033383
 20
46.31607757303909
 30
0.0
 10
4.596975196233659
 20
46.68047594483347
 30
0.0
 10
3.142724965722178
 20
46.94665886374464
 30
0.0
 10
1.646295919227388
 20
47.11112626729648
 30
0.0
 10
0.1279284295191618
 20
47.17203094166911
 30
0.0
 10
-1.392076116036084
 20
47.12863882616673
 30
0.0
 10
-2.893340506780296
 20
46.98149228945378
 30
0.0
 10
-4.355771663482662
 20
46.73235522544886
 30
0.0
 10
-5.759839436789926
 20
46.38417070001724
 30
0.0
 10
-7.086750131350683
 20
45.94095255813492
 30
0.0
 10
-8.318831169292999
 20
45.4077580183943
 30
0.0
 10
-9.438738174665616
 20
44.79037336774961
 30
0.0
 10
-10.4327299743517
 20
44.09623019453921
 30
0.0
 10
-11.27805267520268
 20
43.33145596915971
 30
0.0
 10
-11.92325087170482
 20
42.58994799937084
 30
0.0
 10
-12.20731521880599
 20
42.08558808244961
 30
0.0
 10
-12.325678577666
 20
41.87543241015088
 30
0.0
  0
SPLINE
  5
3B2
330
3A7
100
AcDbEntity
  8
0
  6
Continuous
 62
     7
370
    25
100
AcDbSpline
210
0.0
220
0.0
230
1.0
 70
     8
 71
     3
 72
    14
 73
    10
 74
     0
 42
0.000000001
 43
0.00000001
 40
0.0
 40
0.0
 40
0.0
 40
0.0
 40
0.1392359603422356
 40
0.3025244882915624
 40
0.4665025611861655
 40
0.6320752547089338
 40
0.7994090892597575
 40
0.9681005243396084
 40
1.0
 40
1.0
 40
1.0
 40
1.0
 10
-12.98865430009842
 20
28.69652604141135
 30
0.0
 10
-12.98202443402981
 20
28.43770153961227
 30
0.0
 10
-12.96761941369659
 20
27.87534142968359
 30
0.0
 10
-12.73105620559848
 20
27.02138016989908
 30
0.0
 10
-12.32782194487247
 20
26.14992827691354
 30
0.0
 10
-11.7557934333381
 20
25.31256645773664
 30
0.0
 10
-11.01209959337988
 20
24.52691541854414
 30
0.0
 10
-10.39066364130625
 20
23.97835295474827
 30
0.0
 10
-9.981757356075729
 20
23.71714771161102
 30
0.0
 10
-9.916730002418698
 20
23.67560888881454
 30
0.0
  0
SPLINE
  5
3B3
330
3A7
100
AcDbEntity
  8
0
  6
Continuous
 62
     7
370
    25
100
AcDbSpline
210
0.0
220
0.0
230
1.0
 70
     8
 71
     3
 72
    11
 73
     7
 74
     0
 42
0.000000001
 43
0.00000001
 40
0.0
 40
0.0
 40
0.0
 40
0.0
 40
0.1642759779934433
 40
0.4680261800736581
 40
0.7711544158436726
 40
1.0
 40
1.0
 40
1.0
 40
1.0
 10
9.871853387494124
 20
23.65260632115378
 30
0.0
 10
10.05445191198264
 20
23.7756986239537
 30
0.0
 10
10.57467946410143
 20
24.12639153097276
 30
0.0
 10
11.27414234669337
 20
24.78299548267051
 30
0.0
 10
11.93271331603011
 20
25.53330595084492
 30
0.0
 10
12.22245064942081
 20
26.05005818580596
 30
0.0
 10
12.34709044714783
 20
26.27235571745916
 30
0.0
  0
SPLINE
  5
3B4
330
3A7
100
AcDbEntity
  8
0
  6
Continuous
 62
     7
370
    25
100
AcDbSpline
210
0.0
220
0.0
230
1.0
 70
     8
 71
     3
 72
     9
 73
     5
 74
     0
 42
0.000000001
 43
0.00000001
 40
0.0
 40
0.0
 40
0.0
 40
0.0
 40
0.6197447965475013
 40
1.0
 40
1.0
 40
1.0
 40
1.0
 10
-9.088814447990876
 20
23.1377927934777
 30
0.0
 10
-8.89576414715153
 20
23.02710260864841
 30
0.0
 10
-8.584264475165895
 20
22.84849653491301
 30
0.0
 10
-8.235786869544125
 20
22.69676227562359
 30
0.0
 10
-8.103276446719777
 20
22.63906453398679
 30
0.0
  0
SPLINE
  5
3B5
330
3A7
100
AcDbEntity
  8
0
  6
Continuous
 62
     7
370
    25
100
AcDbSpline
210
0.0
220
0.0
230
1.0
 70
     8
 71
     3
 72
    10
 73
     6
 74
     0
 42
0.000000001
 43
0.00000001
 40
0.0
 40
0.0
 40
0.0
 40
0.0
 40
0.1359565039045212
 40
0.5976128107567179
 40
0.9999999999999999
 40
0.9999999999999999
 40
0.9999999999999999
 40
0.9999999999999999
 10
14.47007139498248
 20
26.75508230729036
 30
0.0
 10
14.42434231393035
 20
26.84756095489512
 30
0.0
 10
14.2233347572777
 20
27.25406173229724
 30
0.0
 10
13.73999089274568
 20
27.89897739902098
 30
0.0
 10
13.22648292209236
 20
28.41892660099249
 30
0.0
 10
12.98734099243378
 20
28.66106822797777
 30
0.0
  0
SPLINE
  5
3B6
330
3A7
100
AcDbEntity
  8
0
  6
Continuous
 62
     7
370
    25
100
AcDbSpline
210
0.0
220
0.0
230
1.0
 70
     8
 71
     3
 72
    10
 73
     6
 74
     0
 42
0.000000001
 43
0.00000001
 40
0.0
 40
0.0
 40
0.0
 40
0.0
 40
0.126027306760512
 40
0.5810887233095099
 40
0.9999999999999999
 40
0.9999999999999999
 40
0.9999999999999999
 40
0.9999999999999999
 10
-12.98591889852557
 20
28.6535744604724
 30
0.0
 10
-13.07057035391857
 20
28.5779635324554
 30
0.0
 10
-13.46088263944638
 20
28.22933545526305
 30
0.0
 10
-13.99584054978552
 20
27.57309683703429
 30
0.0
 10
-14.35208657217551
 20
26.97040108287197
 30
0.0
 10
-14.52284187976086
 20
26.68151786056415
 30
0.0
  0
LWPOLYLINE
  5
3B9
330
3A7
100
AcDbEntity
  8
0
  6
Continuous
 62
     7
370
    25
100
AcDbPolyline
 90
        3
 70
   128
 43
0.0
 10
-11.3103496836
 20
24.8479850645
 10
-11.6455010726
 20
24.3677727011
 10
-12.1666456008
 20
23.5234027833
  0
LWPOLYLINE
  5
3BA
330
3A7
100
AcDbEntity
  8
0
  6
Continuous
 62
     7
370
    25
100
AcDbPolyline
 90
        3
 70
   128
 43
0.0
 10
12.1666456008
 20
23.5234027833
 10
11.6455010726
 20
24.3677727011
 10
11.3210676438
 20
24.8332726385
  0
SPLINE
  5
3BB
330
3A7
100
AcDbEntity
  8
0
  6
Continuous
 62
     7
370
    25
100
AcDbSpline
210
0.0
220
0.0
230
1.0
 70
     8
 71
     3
 72
    14
 73
    10
 74
     0
 42
0.000000001
 43
0.00000001
 40
0.0
 40
0.0
 40
0.0
 40
0.0
 40
0.0646496320170989
 40
0.2255511884374823
 40
0.3851447966196305
 40
0.5423029842258966
 40
0.697455212385274
 40
0.8514652688553875
 40
1.0
 40
1.0
 40
1.0
 40
1.0
 10
12.22866876185006
 20
23.87312316926868
 30
0.0
 10
12.23233357726585
 20
23.76383970746468
 30
0.0
 10
12.24511947328174
 20
23.38256894199557
 30
0.0
 10
12.08267788416599
 20
22.73230224642668
 30
0.0
 10
11.74374518336773
 20
21.93309778633553
 30
0.0
 10
11.22472361046314
 20
21.16085453766538
 30
0.0
 10
10.54597929955761
 20
20.42979051268988
 30
0.0
 10
9.73454050114032
 20
19.75100048937857
 30
0.0
 10
9.0846810595532
 20
19.34995988074374
 30
0.0
 10
8.765631776969451
 20
19.15306850657304
 30
0.0
  0
SPLINE
  5
3BC
330
3A7
100
AcDbEntity
  8
0
  6
Continuous
 62
     7
370
    25
100
AcDbSpline
210
0.0
220
0.0
230
1.0
 70
     8
 71
     3
 72
    28
 73
    24
 74
     0
 42
0.000000001
 43
0.00000001
 40
0.0
 40
0.0
 40
0.0
 40
0.0
 40
0.0258250725137258
 40
0.0751633251541048
 40
0.1245663057180549
 40
0.1740209803536863
 40
0.2235255607822223
 40
0.2730697571078717
 40
0.3226395477721186
 40
0.3722193972846677
 40
0.4217910439286255
 40
0.4713347617524182
 40
0.5208341526620955
 40
0.570273660080976
 40
0.6196405984416651
 40
0.6689296244900141
 40
0.7181516156387338
 40
0.767346684993475
 40
0.8165784614029392
 40
0.8660032228046152
 40
0.9158704653110734
 40
0.9664638877334377
 40
1.0
 40
1.0
 40
1.0
 40
1.0
 10
8.765631776969451
 20
19.15306850657304
 30
0.0
 10
8.583531898231218
 20
19.05180336623667
 30
0.0
 10
8.053534068066357
 20
18.75707332565953
 30
0.0
 10
7.082514701508983
 20
18.32224975472543
 30
0.0
 10
5.831273744334693
 20
17.8822348739113
 30
0.0
 10
4.492369662774784
 20
17.53031496841487
 30
0.0
 10
3.087665586876835
 20
17.27124593744271
 30
0.0
 10
1.637087048076186
 20
17.10959598693599
 30
0.0
 10
0.1621363579633866
 20
17.0479792649275
 30
0.0
 10
-1.315441792008018
 20
17.08747416088671
 30
0.0
 10
-2.773735712774799
 20
17.2274666170471
 30
0.0
 10
-4.191115820603827
 20
17.46567320194956
 30
0.0
 10
-5.546578731569789
 20
17.79814904040506
 30
0.0
 10
-6.820107413494684
 20
18.21932598844243
 30
0.0
 10
-7.992999534646595
 20
18.72205426854818
 30
0.0
 10
-9.048290945885459
 20
19.29769398743095
 30
0.0
 10
-9.97111834929158
 20
19.93628935832477
 30
0.0
 10
-10.74928931388965
 20
20.62678327210078
 30
0.0
 10
-11.37293381861893
 20
21.35768563054673
 30
0.0
 10
-11.83831540209321
 20
22.11823171828505
 30
0.0
 10
-12.13353628488204
 20
22.89992992009867
 30
0.0
 10
-12.2697381312007
 20
23.60364664670287
 30
0.0
 10
-12.23298640369029
 20
24.0455851247149
 30
0.0
 10
-12.21833625657685
 20
24.22175272707152
 30
0.0
  0
SPLINE
  5
3BD
330
3A7
100
AcDbEntity
  8
0
  6
Continuous
 62
     7
370
    25
100
AcDbSpline
210
0.0
220
0.0
230
1.0
 70
     8
 71
     3
 72
     9
 73
     5
 74
     0
 42
0.000000001
 43
0.00000001
 40
0.0
 40
0.0
 40
0.0
 40
0.0
 40
0.7870616525616283
 40
0.9999999999999999
 40
0.9999999999999999
 40
0.9999999999999999
 40
0.9999999999999999
 10
15.93831610358405
 20
14.30667733065446
 30
0.0
 10
15.78577530435215
 20
14.58986926167019
 30
0.0
 10
15.59196482110038
 20
14.94967834408963
 30
0.0
 10
15.31003390365302
 20
15.28350581100795
 30
0.0
 10
15.25
 20
15.35459048014309
 30
0.0
  0
SPLINE
  5
3BE
330
3A7
100
AcDbEntity
  8
0
  6
Continuous
 62
     7
370
    25
100
AcDbSpline
210
0.0
220
0.0
230
1.0
 70
     8
 71
     3
 72
     9
 73
     5
 74
     0
 42
0.000000001
 43
0.00000001
 40
0.0
 40
0.0
 40
0.0
 40
0.0
 40
0.542923374688583
 40
0.9999999999999999
 40
0.9999999999999999
 40
0.9999999999999999
 40
0.9999999999999999
 10
-15.25
 20
15.3450252587777
 30
0.0
 10
-15.39060917549544
 20
15.17112979123571
 30
0.0
 10
-15.64959447996146
 20
14.85083511311152
 30
0.0
 10
-15.82214237714468
 20
14.50712278092892
 30
0.0
 10
-15.90100998769377
 20
14.35001990805698
 30
0.0
  0
LWPOLYLINE
  5
3C1
330
3A7
100
AcDbEntity
  8
0
  6
Continuous
 62
     7
370
    25
100
AcDbPolyline
 90
      132
 70
   128
 43
0.0
 10
60.811183182
 20
36.7386304321
 10
63.6568329529
 20
35.0151278993
 10
66.356069968
 20
33.2148455903
 10
68.9026858958
 20
31.3419242121
 10
71.290823438
 20
29.4006715439
 10
73.5149898018
 20
27.3955525291
 10
75.5700693332
 20
25.3311790057
 10
77.4513352835
 20
23.2122990988
 10
79.1544606806
 20
21.0437863002
 10
80.6755282817
 20
18.8306282589
 10
82.0110395824
 20
16.5779153092
 10
83.157922864
 20
14.2908287631
 10
84.1135402582
 20
11.9746289929
 10
84.8756938143
 20
9.6346433324
 10
85.4426305548
 20
7.2762538236
 10
85.8130465069
 20
4.9048848379
 10
85.9860897022
 20
2.5259905999
 10
85.9613621357
 20
0.1450426426
 10
85.7389206816
 20
-2.2324827772
 10
85.3192769624
 20
-4.6011172751
 10
84.7033961721
 20
-6.9554129158
 10
83.8926948562
 20
-9.2899547438
 10
82.8890376538
 20
-11.5993732381
 10
81.6947330086
 20
-13.8783566622
 10
80.3125278595
 20
-16.1216632811
 10
78.7456013227
 20
-18.3241334179
 10
76.9975573794
 20
-20.4807013204
 10
75.0724165867
 20
-22.5864068136
 10
72.9746068301
 20
-24.6364067072
 10
70.7089531393
 20
-26.6259859359
 10
68.2806665904
 20
-28.5505684036
 10
65.6953323203
 20
-30.405727509
 10
62.9588966806
 20
-32.1871963267
 10
60.077653561
 20
-33.8908774213
 10
57.0582299129
 20
-35.5128522717
 10
53.9075705076
 20
-37.0493902838
 10
50.6329219627
 20
-38.4969573709
 10
47.2418160747
 20
-39.8522240824
 10
43.7420524958
 20
-41.1120732613
 10
40.1416807945
 20
-42.2736072142
 10
36.4489819409
 20
-43.3341543757
 10
32.6724492609
 20
-44.2912754535
 10
28.8207689006
 20
-45.1427690383
 10
24.9027998482
 20
-45.8866766677
 10
20.9275535582
 20
-46.5212873301
 10
16.9041732243
 20
-47.0451414009
 10
12.8419127504
 20
-47.4570339988
 10
8.7501154656
 20
-47.7560177576
 10
4.6381926348
 20
-47.9414050052
 10
0.5156018123
 20
-48.0127693449
 10
-3.6081749109
 20
-47.9699466364
 10
-7.7236527162
 20
-47.8130353734
 10
-11.8213658727
 20
-47.5423964568
 10
-15.8918895088
 20
-47.1586523647
 10
-19.9258612899
 20
-46.6626857209
 10
-23.9140029514
 20
-46.0556372645
 10
-27.8471416398
 20
-45.3389032266
 10
-31.7162310101
 20
-44.5141321182
 10
-35.5123720327
 20
-43.5832209394
 10
-39.2268334616
 20
-42.5483108157
 10
-42.8510719165
 20
-41.4117820736
 10
-46.3767515328
 20
-40.1762487656
 10
-49.7957631345
 20
-38.8445526579
 10
-53.1002428851
 20
-37.4197566943
 10
-56.2825903756
 20
-35.905137951
 10
-59.3354861045
 20
-34.3041800998
 10
-62.251908314
 20
-32.620565395
 10
-65.0251491395
 20
-30.8581662044
 10
-67.6488300382
 20
-29.0210361026
 10
-70.11691646
 20
-27.1134005477
 10
-72.423731727
 20
-25.1396471626
 10
-74.5639700902
 20
-23.1043156433
 10
-76.5327089327
 20
-21.0120873176
 10
-78.3254200921
 20
-18.8677743777
 10
-79.9379802754
 20
-16.676308812
 10
-81.3666805424
 20
-14.4427310616
 10
-82.6082348367
 20
-12.1721784269
 10
-83.6597875437
 20
-9.8698732516
 10
-84.5189200584
 20
-7.5411109115
 10
-85.1836563485
 20
-5.1912476346
 10
-85.6524674993
 20
-2.8256881817
 10
-85.9242752301
 20
-0.4498734153
 10
-85.9984543743
 20
1.9307322143
 10
-85.8748343176
 20
4.3106532381
 10
-85.5536993901
 20
6.6844157614
 10
-85.0357882124
 20
9.0465600542
 10
-84.3222919968
 20
11.3916531092
 10
-83.4148518075
 20
13.7143011369
 10
-82.3155547859
 20
16.0091619727
 10
-81.0269293505
 20
18.2709573629
 10
-79.5519393811
 20
20.4944851058
 10
-77.8939774018
 20
22.6746310163
 10
-76.0568567783
 20
24.8063806889
 10
-74.044802947
 20
26.884831031
 10
-71.862443696
 20
28.9052015403
 10
-69.5147985217
 20
30.8628452998
 10
-67.0072670832
 20
32.7532596662
 10
-64.3456167831
 20
34.5720966259
 10
-61.5359695025
 20
36.3151727954
 10
-58.58478752
 20
37.9784790439
 10
-55.4988586488
 20
39.5581897137
 10
-52.2852806243
 20
41.0506714194
 10
-48.9514447789
 20
42.4524914055
 10
-45.5050190417
 20
43.7604254411
 10
-41.9539303026
 20
44.9714652358
 10
-38.3063461793
 20
46.0828253595
 10
-34.5706562323
 20
47.0919496481
 10
-30.7554526681
 20
47.9965170836
 10
-26.8695105772
 20
48.7944471317
 10
-22.9217677509
 20
49.4839045279
 10
-18.9213041242
 20
50.063303498
 10
-14.8773208918
 20
50.5313114058
 10
-10.7991193445
 20
50.8868518182
 10
-6.6960794767
 20
51.1291069807
 10
-2.5776384114
 20
51.2575196988
 10
1.5467313047
 20
51.2717946191
 10
5.6675434893
 20
51.1718989088
 10
9.7753201422
 20
50.9580623313
 10
13.8606132456
 20
50.6307767175
 10
17.9140264943
 20
50.1907948348
 10
21.9262369081
 20
49.6391286557
 10
25.8880162743
 20
48.97704703
 10
29.7902523734
 20
48.2060727668
 10
33.6239699375
 20
47.3279791315
 10
37.3803512932
 20
46.3447857675
 10
41.0507566431
 20
45.2587540513
 10
44.6267439372
 20
44.0723818905
 10
48.1000882902
 20
42.788397979
 10
51.4628008987
 20
41.4097555211
 10
54.707147416
 20
39.9396254386
 10
57.8256657412
 20
38.3813890778
 10
60.811183182
 20
36.7386304321
  0
LWPOLYLINE
  5
3C2
330
3A7
100
AcDbEntity
  8
0
  6
Continuous
 62
     7
370
    25
100
AcDbPolyline
 90
      142
 70
   128
 43
0.0
 10
70.7106781187
 20
42.4534872149
 10
73.7904214403
 20
40.5945441021
 10
76.7236607106
 20
38.6582466121
 10
79.5045722544
 20
36.6484390841
 10
82.1276348293
 20
34.5691118051
 10
84.5876405873
 20
32.4243930869
 10
86.8797054148
 20
30.2185410699
 10
88.9992786291
 20
27.9559352692
 10
90.9421520139
 20
25.6410678792
 10
92.7044681738
 20
23.2785348547
 10
94.2827281933
 20
20.8730267865
 10
95.6737985833
 20
18.429319588
 10
96.8749175021
 20
15.9522650138
 10
97.8837002394
 20
13.4467810265
 10
98.6981439504
 20
10.9178420325
 10
99.3166316325
 20
8.3704690061
 10
99.7379353357
 20
5.8097195207
 10
99.9612186005
 20
3.2406777074
 10
99.9860381186
 20
0.6684441609
 10
99.8123446131
 20
-1.9018741872
 10
99.4404829366
 20
-4.4651742078
 10
98.8711913857
 20
-7.0163667059
 10
98.1056002364
 20
-9.5503865249
 10
97.1452294988
 20
-12.0622026032
 10
95.9919859003
 20
-14.5468279623
 10
94.6481590992
 20
-16.9993296086
 10
93.1164171393
 20
-19.4148383272
 10
91.3998011524
 20
-21.7885583489
 10
89.5017193207
 20
-24.1157768725
 10
87.4259401099
 20
-26.3918734209
 10
85.1765847876
 20
-28.6123290153
 10
82.7581192405
 20
-30.7727351465
 10
80.1753451081
 20
-32.868802528
 10
77.4333902494
 20
-34.8963696123
 10
74.5376985619
 20
-36.8514108525
 10
71.4940191735
 20
-38.7300446951
 10
68.3083950278
 20
-40.5285412866
 10
64.9871508867
 20
-42.2433298785
 10
61.536880773
 20
-43.8710059168
 10
57.9644348787
 20
-45.4083378013
 10
54.2769059643
 20
-46.8522733018
 10
50.4816152773
 20
-48.1999456182
 10
46.5860980159
 20
-49.4486790718
 10
42.5980883691
 20
-50.5959944179
 10
38.525504161
 20
-51.639613768
 10
34.3764311304
 20
-52.5774651126
 10
30.1591068779
 20
-53.4076864346
 10
25.8819045103
 20
-54.1286294065
 10
21.553316017
 20
-54.7388626627
 10
17.1819354098
 20
-55.2371746415
 10
12.7764416604
 20
-55.6225759906
 10
8.3455814686
 20
-55.8943015314
 10
3.8981518974
 20
-56.0518117779
 10
-0.5570170936
 20
-56.0947940082
 10
-5.0110801787
 20
-56.0231628849
 10
-9.455194228
 20
-55.8370606251
 10
-13.8805358643
 20
-55.5368567175
 10
-18.2783189816
 20
-55.1231471893
 10
-22.6398121884
 20
-54.5967534223
 10
-26.9563561437
 20
-53.9587205228
 10
-31.2193807492
 20
-53.2103152459
 10
-35.4204221639
 20
-52.353023481
 10
-39.5511396092
 20
-51.3885473017
 10
-43.6033319277
 20
-50.3188015861
 10
-47.5689538668
 20
-49.1459102152
 10
-51.4401320513
 20
-47.8722018564
 10
-55.209180615
 20
-46.5002053396
 10
-58.8686164611
 20
-45.032644637
 10
-62.4111741183
 20
-43.4724334545
 10
-65.8298201663
 20
-41.822669447
 10
-69.1177671999
 20
-40.0866280682
 10
-72.2684873046
 20
-38.2677560675
 10
-75.2757250172
 20
-36.3696646471
 10
-78.1335097457
 20
-34.3961222915
 10
-80.8361676229
 20
-32.3510472867
 10
-83.3783327719
 20
-30.2384999396
 10
-85.754957959
 20
-28.0626745175
 10
-87.9613246149
 20
-25.8278909203
 10
-89.9930522029
 20
-23.5385861041
 10
-91.846106916
 20
-21.1993052716
 10
-93.5168096854
 20
-18.8146928484
 10
-95.0018434855
 20
-16.3894832616
 10
-96.2982599191
 20
-13.9284915406
 10
-97.4034850715
 20
-11.4366037565
 10
-98.3153246204
 20
-8.9187673219
 10
-99.0319681927
 20
-6.3799811679
 10
-99.551992959
 20
-3.8252858194
 10
-99.8743664583
 20
-1.2597533877
 10
-99.9984486478
 20
1.3115225002
 10
-99.9239931737
 20
3.883436814
 10
-99.6511478607
 20
6.4508832558
 10
-99.1804544177
 20
9.0087643985
 10
-98.512847363
 20
11.5520018057
 10
-97.6496521687
 20
14.0755461151
 10
-96.5925826289
 20
16.5743870629
 10
-95.3437374573
 20
19.0435634318
 10
-93.9055961204
 20
21.4781729007
 10
-92.2810139148
 20
23.8733817778
 10
-90.4732162979
 20
26.2244345976
 10
-88.4857924847
 20
28.5266635624
 10
-86.3226883212
 20
30.7754978096
 10
-83.9881984504
 20
32.966472487
 10
-81.4869577859
 20
35.0952376172
 10
-78.8239323095
 20
37.1575667341
 10
-76.0044092118
 20
39.1493652741
 10
-73.0339863949
 20
41.0666787056
 10
-69.9185613583
 20
42.9057003802
 10
-66.6643194902
 20
44.6627790907
 10
-63.2777217864
 20
46.3344263199
 10
-59.7654920233
 20
47.9173231669
 10
-56.134603408
 20
49.4083269366
 10
-52.3922647336
 20
50.8044773791
 10
-48.5459060673
 20
52.1030025668
 10
-44.6031639981
 20
53.3013243981
 10
-40.5718664755
 20
54.3970637161
 10
-36.4600172675
 20
55.3880450317
 10
-32.27578007
 20
56.2723008433
 10
-28.0274622989
 20
57.0480755427
 10
-23.7234985957
 20
57.7138289012
 10
-19.372434082
 20
58.268239127
 10
-14.9829073936
 20
58.71020549
 10
-10.5636335295
 20
59.0388505069
 10
-6.1233865488
 20
59.2535216834
 10
-1.6709821509
 20
59.3537928097
 10
2.7847398273
 20
59.3394648069
 10
7.2349329624
 20
59.2105661219
 10
11.6707618078
 20
58.9673526709
 10
16.0834194359
 20
58.610307332
 10
20.4641449235
 20
58.1401389854
 10
24.8042407456
 20
57.557781107
 10
29.0950900437
 20
56.8643899144
 10
33.3281737337
 20
56.0613420717
 10
37.4950874197
 20
55.1502319559
 10
41.5875580804
 20
54.132868492
 10
45.597460494
 20
53.0112715608
 10
49.5168333705
 20
51.7876679893
 10
53.3378951578
 20
50.4644871291
 10
57.0530594915
 20
49.0443560334
 10
60.6549502567
 20
47.5300942409
 10
64.1364162326
 20
45.9247081782
 10
67.4905452909
 20
44.2313851909
 10
70.7106781187
 20
42.4534872149
  0
LWPOLYLINE
  5
3C3
330
3A7
100
AcDbEntity
  8
0
  6
Continuous
 62
     7
370
    25
100
AcDbPolyline
 90
       73
 70
   128
 43
0.0
 10
100.0
 20
0.0
 10
99.9860381186
 20
-0.9646374628
 10
99.8123446131
 20
-3.534955811
 10
99.4404829366
 20
-6.0982558315
 10
98.8711913857
 20
-8.6494483296
 10
98.1056002364
 20
-11.1834681487
 10
97.1452294988
 20
-13.695284227
 10
95.9919859003
 20
-16.1799095861
 10
94.6481590992
 20
-18.6324112324
 10
93.1164171393
 20
-21.0479199509
 10
91.3998011524
 20
-23.4216399727
 10
89.5017193207
 20
-25.7488584963
 10
87.4259401099
 20
-28.0249550447
 10
85.1765847876
 20
-30.2454106391
 10
82.7581192405
 20
-32.4058167702
 10
80.1753451081
 20
-34.5018841518
 10
77.4333902494
 20
-36.5294512361
 10
74.5376985619
 20
-38.4844924762
 10
71.4940191735
 20
-40.3631263189
 10
68.3083950278
 20
-42.1616229104
 10
64.9871508867
 20
-43.8764115023
 10
61.536880773
 20
-45.5040875405
 10
57.9644348787
 20
-47.041419425
 10
54.2769059643
 20
-48.4853549256
 10
50.4816152773
 20
-49.833027242
 10
46.5860980159
 20
-51.0817606956
 10
42.5980883691
 20
-52.2290760417
 10
38.525504161
 20
-53.2726953918
 10
34.3764311304
 20
-54.2105467364
 10
30.1591068779
 20
-55.0407680584
 10
25.8819045103
 20
-55.7617110303
 10
21.553316017
 20
-56.3719442864
 10
17.1819354098
 20
-56.8702562652
 10
12.7764416604
 20
-57.2556576144
 10
8.3455814686
 20
-57.5273831552
 10
3.8981518974
 20
-57.6848934017
 10
-0.5570170936
 20
-57.727875632
 10
-5.0110801787
 20
-57.6562445087
 10
-9.455194228
 20
-57.4701422489
 10
-13.8805358643
 20
-57.1699383413
 10
-18.2783189816
 20
-56.756228813
 10
-22.6398121884
 20
-56.2298350461
 10
-26.9563561437
 20
-55.5918021465
 10
-31.2193807492
 20
-54.8433968696
 10
-35.4204221639
 20
-53.9861051048
 10
-39.5511396092
 20
-53.0216289255
 10
-43.6033319277
 20
-51.9518832098
 10
-47.5689538668
 20
-50.778991839
 10
-51.4401320513
 20
-49.5052834801
 10
-55.209180615
 20
-48.1332869634
 10
-58.8686164611
 20
-46.6657262608
 10
-62.4111741183
 20
-45.1055150783
 10
-65.8298201663
 20
-43.4557510708
 10
-69.1177671999
 20
-41.719709692
 10
-72.2684873046
 20
-39.9008376913
 10
-75.2757250172
 20
-38.0027462708
 10
-78.1335097457
 20
-36.0292039153
 10
-80.8361676229
 20
-33.9841289105
 10
-83.3783327719
 20
-31.8715815634
 10
-85.754957959
 20
-29.6957561413
 10
-87.9613246149
 20
-27.4609725441
 10
-89.9930522029
 20
-25.1716677279
 10
-91.846106916
 20
-22.8323868953
 10
-93.5168096854
 20
-20.4477744721
 10
-95.0018434855
 20
-18.0225648854
 10
-96.2982599191
 20
-15.5615731644
 10
-97.4034850715
 20
-13.0696853803
 10
-98.3153246204
 20
-10.5518489456
 10
-99.0319681927
 20
-8.0130627916
 10
-99.551992959
 20
-5.4583674432
 10
-99.8743664583
 20
-2.8928350114
 10
-99.9984486478
 20
-0.3215591236
 10
-100.0
 20
0.0
  0
LWPOLYLINE
  5
3C4
330
3A7
100
AcDbEntity
  8
0
  6
Continuous
 62
     7
370
    25
100
AcDbPolyline
 90
      124
 70
   128
 43
0.0
 10
53.7401153702
 20
35.1062123087
 10
56.4140166651
 20
33.481665157
 10
58.9407402319
 20
31.7804194725
 10
61.3136941371
 20
30.006913611
 10
63.5266876151
 20
28.1657744467
 10
65.5739472184
 20
26.2618053016
 10
67.4501318806
 20
24.2999734137
 10
69.1503468501
 20
22.2853969784
 10
70.6701564601
 20
20.2233317957
 10
72.0055957009
 20
18.1191575581
 10
73.153180564
 20
15.978363816
 10
74.1099171315
 20
13.8065356558
 10
74.873309387
 20
11.6093391292
 10
75.4413657273
 20
9.3925064712
 10
75.8126041581
 20
7.1618211449
 10
75.9860561608
 20
4.9231027536
 10
75.961269219
 20
2.6821918582
 10
75.7383079989
 20
0.4449347392
 10
75.317754181
 20
-1.7828318551
 10
74.7007049421
 20
-3.9952959358
 10
73.8887700931
 20
-6.1866854369
 10
72.8840678795
 20
-8.3512832733
 10
71.6892194546
 20
-10.4834422565
 10
70.3073420415
 20
-12.5775998271
 10
68.7420408007
 20
-14.6282925671
 10
66.9973994242
 20
-16.6301704533
 10
65.0779694823
 20
-18.5780108148
 10
62.9887585485
 20
-20.4667319586
 10
60.7352171356
 20
-22.2914064269
 10
58.3232244758
 20
-24.0472738522
 10
55.7590731827
 20
-25.729753377
 10
53.0494528341
 20
-27.3344556043
 10
50.2014325202
 20
-28.8571940492
 10
47.2224424007
 20
-30.293996061
 10
44.1202543208
 20
-31.6411131872
 10
40.902961535
 20
-32.8950309531
 10
37.5789575927
 20
-34.0524780304
 10
34.1569144408
 20
-35.1104347719
 10
30.6457597992
 20
-36.0661410892
 10
27.0546538692
 20
-36.9171036536
 10
23.3929654364
 20
-37.661102401
 10
19.6702474278
 20
-38.2961963236
 10
15.8962119895
 20
-38.8207285338
 10
12.0807051492
 20
-39.2333305871
 10
8.2336811284
 20
-39.5329260517
 10
4.3651763738
 20
-39.7187333173
 10
0.4852833723
 20
-39.790267634
 10
-3.395875678
 20
-39.7473423769
 10
-7.2681752764
 20
-39.590069533
 10
-11.1215130354
 20
-39.3188594094
 10
-14.9458360368
 20
-38.9344195622
 10
-18.7311670584
 20
-38.4377529511
 10
-22.4676306038
 20
-37.8301553226
 10
-26.1454786664
 20
-37.1132118295
 10
-29.7551161603
 20
-36.2887928955
 10
-33.2871259535
 20
-35.3590493355
 10
-36.7322934359
 20
-34.3264067444
 10
-40.0816305587
 20
-33.1935591686
 10
-43.3263992838
 20
-31.9634620782
 10
-46.4581343801
 20
-30.6393246561
 10
-49.4686655083
 20
-29.2246014255
 10
-52.3501385365
 20
-27.7229832379
 10
-55.0950360305
 20
-26.1383876437
 10
-57.6961968662
 20
-24.4749486718
 10
-60.1468349119
 20
-22.7370060446
 10
-62.4405567328
 20
-20.929093856
 10
-64.5713782706
 20
-19.0559287424
 10
-66.5337404551
 20
-17.1223975778
 10
-68.3225237074
 20
-15.1335447242
 10
-69.9330612964
 20
-13.0945588716
 10
-71.3611515133
 20
-11.0107595013
 10
-72.6030686338
 20
-8.8875830078
 10
-73.655572638
 20
-6.7305685164
 10
-74.515917663
 20
-4.5453434314
 10
-75.181859167
 20
-2.3376087557
 10
-75.6516597845
 20
-0.1131242169
 10
-75.9240938595
 20
2.1223067587
 10
-75.9984506424
 20
4.3628521872
 10
-75.874536145
 20
6.6026667411
 10
-75.5526736461
 20
8.8359070001
 10
-75.0337028481
 20
11.0567466954
 10
-74.3189776866
 20
13.2593919097
 10
-73.410362798
 20
15.4380961932
 10
-72.3102286547
 20
17.5871755551
 10
-71.0214453811
 20
19.7010232929
 10
-69.5473752656
 20
21.774124619
 10
-67.8918639889
 20
23.8010710489
 10
-66.0592305908
 20
25.7765745107
 10
-64.0542562026
 20
27.6954811415
 10
-61.8821715736
 20
29.5527847329
 10
-59.5486434246
 20
31.343639792
 10
-57.0597596641
 20
33.0633741824
 10
-54.4220135056
 20
34.7075013134
 10
-51.6422865277
 20
36.2717318451
 10
-48.7278307207
 20
37.7519848785
 10
-45.686249567
 20
39.1443986026
 10
-42.5254782045
 20
40.445340369
 10
-39.2537627249
 20
41.651416169
 10
-35.8796386604
 20
42.7594794887
 10
-32.4119087152
 20
43.7666395173
 10
-28.8596198009
 20
44.6702686894
 10
-25.2320394337
 20
45.4680095396
 10
-21.5386315566
 20
46.1577808531
 10
-17.789031849
 20
46.7377830953
 10
-13.9930225884
 20
47.2065031066
 10
-10.1605071296
 20
47.56271805
 10
-6.3014840678
 20
47.8054986014
 10
-2.4260211536
 20
47.934211374
 10
1.4557709728
 20
47.9485205709
 10
5.333765159
 20
47.8483888611
 10
9.1978441608
 20
47.6340774767
 10
13.0379270375
 20
47.3061455317
 10
16.8439954512
 20
46.8654485631
 10
20.6061198039
 20
46.313136299
 10
24.3144851429
 20
45.6506496589
 10
27.9594167663
 20
44.879716995
 10
31.5314054637
 20
44.0023495824
 10
35.0211323245
 20
43.0208363727
 10
38.4194930497
 20
41.9377380216
 10
41.7176217042
 20
40.7558802091
 10
44.9069138469
 20
39.4783462674
 10
47.9790489789
 20
38.1084691365
 10
50.9260122502
 20
36.6498226696
 10
53.7401153702
 20
35.1062123087
  0
LWPOLYLINE
  5
3C5
330
3A7
100
AcDbEntity
  8
0
  6
Continuous
 62
     7
370
    25
100
AcDbPolyline
 90
       42
 70
   128
 43
0.0
 10
16.75
 20
9.2602217981
 10
16.8844753613
 20
9.1125497058
 10
17.6908538132
 20
8.0836740594
 10
18.3097048138
 20
7.0123871357
 10
18.7344683884
 20
5.9100448425
 10
18.9606419375
 20
4.7883322825
 10
18.9858279652
 20
3.6591398877
 10
18.8097594934
 20
2.5344373786
 10
18.4343028916
 20
1.4261468814
 10
17.8634380932
 20
0.3460165512
 10
17.1032164072
 20
-0.6945039618
 10
16.1616963724
 20
-1.6843848814
 10
15.0488583356
 20
-2.6131332236
 10
13.7764986566
 20
-3.4709040248
 10
12.3581046647
 20
-4.2486047012
 10
10.8087116891
 20
-4.9379914321
 10
9.1447436806
 20
-5.5317565468
 10
7.3838391142
 20
-6.0236059872
 10
5.5446640163
 20
-6.408326027
 10
3.6467141005
 20
-6.681838538
 10
1.710108108
 20
-6.8412442195
 10
-0.2446254559
 20
-6.8848533318
 10
-2.1967659291
 20
-6.8122036073
 10
-4.1256201369
 20
-6.6240651512
 10
-6.0107417449
 20
-6.3224322779
 10
-7.8321479952
 20
-5.9105023709
 10
-9.5705315283
 20
-5.3926419898
 10
-11.2074650463
 20
-4.7743405834
 10
-12.7255966468
 20
-4.0621523004
 10
-14.108833757
 20
-3.2636265137
 10
-15.3425137196
 20
-2.3872277955
 10
-16.4135592199
 20
-1.44224619
 10
-17.3106169093
 20
-0.4386987374
 10
-18.0241777531
 20
0.6127767095
 10
-18.5466778288
 20
1.7010342497
 10
-18.8725785057
 20
2.8145380823
 10
-18.9984251554
 20
3.9414847897
 10
-18.9228837723
 20
5.0699284565
 10
-18.6467551137
 20
6.1879072991
 10
-18.1729662121
 20
7.2835704637
 10
-17.5065393478
 20
8.3453036481
 10
-16.75
 20
9.2602217981
  0
LWPOLYLINE
  5
3C8
330
3A7
100
AcDbEntity
  8
0
  6
Continuous
 62
     7
370
    25
100
AcDbPolyline
 90
       51
 70
   128
 43
0.0
 10
8.8388347648
 20
44.9497423189
 10
7.6613381707
 20
45.5490263611
 10
6.3630176969
 20
46.0583890633
 10
4.9643486329
 20
46.4697974715
 10
3.4873888255
 20
46.7767634292
 10
1.955430813
 20
46.9744459
 10
0.3926344885
 20
47.0597273131
 10
-1.1763539165
 20
47.0312627298
 10
-2.7267905175
 20
46.8895010536
 10
-4.2342240031
 20
46.6366779507
 10
-5.6748812467
 20
46.2767805925
 10
-7.0260422232
 20
45.8154847754
 10
-8.2663983165
 20
45.26006541
 10
-9.3763883704
 20
44.6192817914
 10
-10.3385071784
 20
43.90323946
 10
-11.1375815524
 20
43.1232308313
 10
-11.7610096119
 20
42.2915571072
 10
-12.1989595242
 20
41.4213342792
 10
-12.4445245575
 20
40.5262862811
 10
-12.4938320046
 20
39.6205285545
 10
-12.3461042574
 20
38.7183454398
 10
-12.003671071
 20
37.8339649038
 10
-11.471932821
 20
36.9813341557
 10
-10.7592753375
 20
36.1738996918
 10
-9.8769376547
 20
35.424395236
 10
-8.8388347648
 20
34.7446409211
 10
-7.6613381707
 20
34.1453568789
 10
-6.3630176969
 20
33.6359941767
 10
-4.9643486329
 20
33.2245857686
 10
-3.4873888255
 20
32.9176198108
 10
-1.955430813
 20
32.7199373401
 10
-0.3926344885
 20
32.6346559269
 10
1.1763539165
 20
32.6631205102
 10
2.7267905175
 20
32.8048821865
 10
4.2342240031
 20
33.0577052893
 10
5.6748812467
 20
33.4176026475
 10
7.0260422232
 20
33.8788984646
 10
8.2663983165
 20
34.4343178301
 10
9.3763883704
 20
35.0751014487
 10
10.3385071784
 20
35.79114378
 10
11.1375815524
 20
36.5711524087
 10
11.7610096119
 20
37.4028261328
 10
12.1989595242
 20
38.2730489609
 10
12.4445245575
 20
39.168096959
 10
12.4938320046
 20
40.0738546856
 10
12.3461042574
 20
40.9760378002
 10
12.003671071
 20
41.8604183362
 10
11.471932821
 20
42.7130490843
 10
10.7592753375
 20
43.5204835482
 10
9.8769376547
 20
44.2699880041
 10
8.8388347648
 20
44.9497423189
  0
SPLINE
  5
3CB
330
3A7
100
AcDbEntity
  8
0
  6
Continuous
 62
     7
370
    25
100
AcDbSpline
210
0.0
220
0.0
230
1.0
 70
     8
 71
     3
 72
    14
 73
    10
 74
     0
 42
0.000000001
 43
0.00000001
 40
0.0
 40
0.0
 40
0.0
 40
0.0
 40
0.0002342675456121
 40
0.0002342675456121
 40
0.0002342675456121
 40
0.0004685350912252
 40
0.0004685350912252
 40
0.0004685350912252
 40
0.0008657681078994
 40
0.0008657681078994
 40
0.0008657681078994
 40
0.0008657681078994
 10
-1.698332428609636
 20
45.85177863001719
 30
0.0
 10
-1.685101057839721
 20
45.80735053186671
 30
0.0
 10
-1.671884057732654
 20
45.76292100662631
 30
0.0
 10
-1.658681430652069
 20
45.7184900588467
 30
0.0
 10
-1.645478803571452
 20
45.67405911106699
 30
0.0
 10
-1.632290549057038
 20
45.62962673919859
 30
0.0
 10
-1.619116669467652
 20
45.58519294779349
 30
0.0
 10
-1.596778535750733
 20
45.50984931289671
 30
0.0
 10
-1.574481730883233
 20
45.43450159055698
 30
0.0
 10
-1.552226266354522
 20
45.35914980297346
 30
0.0
  0
SPLINE
  5
3CC
330
3A7
100
AcDbEntity
  8
0
  6
Continuous
 62
     7
370
    25
100
AcDbSpline
210
0.0
220
0.0
230
1.0
 70
     8
 71
     3
 72
    94
 73
    90
 74
     0
 42
0.000000001
 43
0.00000001
 40
0.0
 40
0.0
 40
0.0
 40
0.0
 40
0.03125
 40
0.03125
 40
0.0468750000000001
 40
0.0468750000000001
 40
0.0625000000000001
 40
0.0625000000000001
 40
0.0937500000000001
 40
0.0937500000000001
 40
0.1093750000000001
 40
0.1093750000000001
 40
0.1250000000000002
 40
0.1250000000000002
 40
0.1562500000000002
 40
0.1562500000000002
 40
0.1875000000000002
 40
0.1875000000000002
 40
0.2031250000000003
 40
0.2031250000000003
 40
0.2187500000000004
 40
0.2187500000000004
 40
0.2500000000000004
 40
0.2500000000000004
 40
0.2656250000000004
 40
0.2656250000000004
 40
0.2812500000000005
 40
0.2812500000000005
 40
0.3125000000000006
 40
0.3125000000000006
 40
0.3437500000000006
 40
0.3437500000000006
 40
0.3593750000000006
 40
0.3593750000000006
 40
0.3750000000000006
 40
0.3750000000000006
 40
0.4062500000000007
 40
0.4062500000000007
 40
0.4218750000000007
 40
0.4218750000000007
 40
0.4375000000000007
 40
0.4375000000000007
 40
0.4687500000000007
 40
0.4687500000000007
 40
0.5000000000000008
 40
0.5000000000000008
 40
0.5156250000000008
 40
0.5156250000000008
 40
0.5312500000000008
 40
0.5312500000000008
 40
0.5625000000000009
 40
0.5625000000000009
 40
0.5937500000000009
 40
0.5937500000000009
 40
0.625000000000001
 40
0.625000000000001
 40
0.640625000000001
 40
0.640625000000001
 40
0.656250000000001
 40
0.656250000000001
 40
0.687500000000001
 40
0.687500000000001
 40
0.7187500000000011
 40
0.7187500000000011
 40
0.7343750000000011
 40
0.7343750000000011
 40
0.7500000000000011
 40
0.7500000000000011
 40
0.781250000000001
 40
0.781250000000001
 40
0.796875000000001
 40
0.796875000000001
 40
0.8125000000000009
 40
0.8125000000000009
 40
0.8437500000000008
 40
0.8437500000000008
 40
0.8593750000000007
 40
0.8593750000000007
 40
0.8750000000000006
 40
0.8750000000000006
 40
0.9062500000000006
 40
0.9062500000000006
 40
0.9375000000000004
 40
0.9375000000000004
 40
0.9531250000000003
 40
0.9531250000000003
 40
0.9687500000000003
 40
0.9687500000000003
 40
1.0
 40
1.0
 40
1.0
 40
1.0
 10
-1.55222626635431
 20
45.35914980297348
 30
0.0
 10
-2.213041688546978
 20
45.30268951956503
 30
0.0
 10
-2.852370545473372
 20
45.20824287920873
 30
0.0
 10
-3.780427598902842
 20
45.01188038241755
 30
0.0
 10
-4.08458259306116
 20
44.93723774694804
 30
0.0
 10
-4.682216538544933
 20
44.76907817158605
 30
0.0
 10
-4.975205547623128
 20
44.67553866299754
 30
0.0
 10
-5.817986278439747
 20
44.37299979481258
 30
0.0
 10
-6.338970789832663
 20
44.14046073788433
 30
0.0
 10
-7.058944693023372
 20
43.74523231359384
 30
0.0
 10
-7.289805084481515
 20
43.60489765524547
 30
0.0
 10
-7.721941339373933
 20
43.31391515447287
 30
0.0
 10
-7.923868489803954
 20
43.16304447752147
 30
0.0
 10
-8.488189561568802
 20
42.69466033511083
 30
0.0
 10
-8.810390430441625
 20
42.36040584687901
 30
0.0
 10
-9.336429721974806
 20
41.6529092069755
 30
0.0
 10
-9.53339190242584
 20
41.2895478294259
 30
0.0
 10
-9.733159429117766
 20
40.73058248534251
 30
0.0
 10
-9.78367916609054
 20
40.54192218799376
 30
0.0
 10
-9.851646253250172
 20
40.1597887117006
 30
0.0
 10
-9.868717271138665
 20
39.96704121789544
 30
0.0
 10
-9.869544310908386
 20
39.39440373958563
 30
0.0
 10
-9.804631330061635
 20
39.01602443498356
 30
0.0
 10
-9.608486431991604
 20
38.45355388086363
 30
0.0
 10
-9.525906280116281
 20
38.26597042498113
 30
0.0
 10
-9.330264444565127
 20
37.89988250243323
 30
0.0
 10
-9.217192628397767
 20
37.72081619891145
 30
0.0
 10
-8.833246076917062
 20
37.19528381538956
 30
0.0
 10
-8.517308641670109
 20
36.85970043328834
 30
0.0
 10
-7.764854476954449
 20
36.22355156089122
 30
0.0
 10
-7.33963577506775
 20
35.93240743152603
 30
0.0
 10
-6.631540519458493
 20
35.53431656461305
 30
0.0
 10
-6.383773650286054
 20
35.40807031039588
 30
0.0
 10
-5.864152263749006
 20
35.16881859218132
 30
0.0
 10
-5.592375655441547
 20
35.05602358102998
 30
0.0
 10
-4.75883764252325
 20
34.7450009781372
 30
0.0
 10
-4.173353036174379
 20
34.57110713604758
 30
0.0
 10
-3.250445326295584
 20
34.36043912126997
 30
0.0
 10
-2.933493536987176
 20
34.29836995784011
 30
0.0
 10
-2.294160367644347
 20
34.19340044614486
 30
0.0
 10
-1.972196189517255
 20
34.15042776756768
 30
0.0
 10
-0.9995913864164806
 20
34.04929864225257
 30
0.0
 10
-0.3422801133937782
 20
34.01875879562565
 30
0.0
 10
0.9906326422387665
 20
34.0334008913805
 30
0.0
 10
1.648700655913505
 20
34.07847246427795
 30
0.0
 10
2.613840843195663
 20
34.20002196435071
 30
0.0
 10
2.932425362993036
 20
34.24960048195697
 30
0.0
 10
3.563212446761901
 20
34.36724127829623
 30
0.0
 10
3.876759787280957
 20
34.43571841490025
 30
0.0
 10
4.788702315714459
 20
34.66509936951542
 30
0.0
 10
5.363700089647962
 20
34.85031490259568
 30
0.0
 10
6.448691345152972
 20
35.28443097449136
 30
0.0
 10
6.961560323937339
 20
35.53608402833592
 30
0.0
 10
7.879094327387448
 20
36.08369076062274
 30
0.0
 10
8.289541540246997
 20
36.38109010451763
 30
0.0
 10
8.831458134007653
 20
36.86320548354169
 30
0.0
 10
8.999930111855365
 20
37.03041663694547
 30
0.0
 10
9.304742962620086
 20
37.36988692020624
 30
0.0
 10
9.442103819734786
 20
37.54295987454189
 30
0.0
 10
9.809868351001642
 20
38.07201055743158
 30
0.0
 10
9.996788279441045
 20
38.43898564321457
 30
0.0
 10
10.24586245611407
 20
39.19497128516343
 30
0.0
 10
10.30509507327996
 20
39.57410668947296
 30
0.0
 10
10.29991194048829
 20
40.14445500431468
 30
0.0
 10
10.28250682977261
 20
40.33484540496345
 30
0.0
 10
10.2155787663984
 20
40.7161881480439
 30
0.0
 10
10.16577075210785
 20
40.9073701006769
 30
0.0
 10
9.971096739366615
 20
41.46952919529468
 30
0.0
 10
9.780947489622397
 20
41.83333850498583
 30
0.0
 10
9.40579425431186
 20
42.36272003119412
 30
0.0
 10
9.265129549880838
 20
42.53700681246329
 30
0.0
 10
8.95479045163244
 20
42.87735833772128
 30
0.0
 10
8.786608481422574
 20
43.04192809763347
 30
0.0
 10
8.244232844621784
 20
43.51933959955493
 30
0.0
 10
7.832549117298122
 20
43.81602989819044
 30
0.0
 10
7.138352111669668
 20
44.22803381757888
 30
0.0
 10
6.893605975052388
 20
44.36003741074649
 30
0.0
 10
6.388772235565798
 20
44.60745067006911
 30
0.0
 10
6.127521411357721
 20
44.72361107706512
 30
0.0
 10
5.317732053975327
 20
45.0498508284286
 30
0.0
 10
4.741924914266042
 20
45.23827163631909
 30
0.0
 10
3.524226101921045
 20
45.5519150752656
 30
0.0
 10
2.899019939178618
 20
45.67303282703575
 30
0.0
 10
1.93758857806674
 20
45.80314646304411
 30
0.0
 10
1.613147272320745
 20
45.83786454470241
 30
0.0
 10
0.9561638668486747
 20
45.88961807727277
 30
0.0
 10
0.6225777142694388
 20
45.90661332582646
 30
0.0
 10
-0.3737529645160449
 20
45.92974245475131
 30
0.0
 10
-1.038202379109086
 20
45.90890374806757
 30
0.0
 10
-1.698332428609642
 20
45.85177863001719
 30
0.0
  0
SPLINE
  5
3CD
330
3A7
100
AcDbEntity
  8
0
  6
Continuous
 62
     7
370
    25
100
AcDbSpline
210
0.0
220
0.0
230
1.0
 70
     8
 71
     3
 72
    40
 73
    36
 74
     0
 42
0.000000001
 43
0.00000001
 40
0.0
 40
0.0
 40
0.0
 40
0.0
 40
0.0198736247022305
 40
0.0519152331918634
 40
0.08451370252791
 40
0.1165553110175429
 40
0.1485969195071759
 40
0.1811953888432224
 40
0.2132369973328552
 40
0.2452786058224883
 40
0.2778770751585349
 40
0.3099186836481678
 40
0.3419602921378007
 40
0.3745587614738471
 40
0.4066003699634804
 40
0.4386419784531131
 40
0.4712404477891595
 40
0.5032820562787927
 40
0.5353236647684256
 40
0.5679221341044721
 40
0.5999637425941051
 40
0.632005351083738
 40
0.6646038204197844
 40
0.6966454289094176
 40
0.7219767323574852
 40
0.7478032996716227
 40
0.7735696301876074
 40
0.7934432548898378
 40
0.8254848633794708
 40
0.8580833327155174
 40
0.8901249412051503
 40
0.9221665496947833
 40
0.9547650190308299
 40
0.9868066275204627
 40
1.0
 40
1.0
 40
1.0
 40
1.0
 10
-1.552226266354308
 20
45.35914980297348
 30
0.0
 10
-1.035468834501809
 20
45.38283015324743
 30
0.0
 10
0.3144400512808607
 20
45.44468957370831
 30
0.0
 10
2.533686285008091
 20
45.21962381384269
 30
0.0
 10
4.892478577783801
 20
44.60617810500786
 30
0.0
 10
6.917862285249268
 20
43.65673666613178
 30
0.0
 10
8.47402983296138
 20
42.43825232734723
 30
0.0
 10
9.451834562785235
 20
41.02202639547561
 30
0.0
 10
9.78319461011395
 20
39.5103463345217
 30
0.0
 10
9.451828006688313
 20
37.99863762191607
 30
0.0
 10
8.474056399171108
 20
36.58249864089092
 30
0.0
 10
6.917764615757836
 20
35.36369960636551
 30
0.0
 10
4.8928460843976
 20
34.41543345970801
 30
0.0
 10
2.532298191375559
 20
33.79755294793457
 30
0.0
 10
-0.0000000057845334
 20
33.55641966448876
 30
0.0
 10
-2.53229816803472
 20
33.69787687735499
 30
0.0
 10
-4.892846167000013
 20
34.20890669462108
 30
0.0
 10
-6.91776431492676
 20
35.05749695424
 30
0.0
 10
-8.474057530347146
 20
36.17661918244082
 30
0.0
 10
-9.451823734383762
 20
37.48591025876978
 30
0.0
 10
-9.78321024281177
 20
38.89793280380758
 30
0.0
 10
-9.451775760927706
 20
40.30997450334129
 30
0.0
 10
-8.474251925408046
 20
41.61920745039889
 30
0.0
 10
-7.025129069043436
 20
42.66085147863948
 30
0.0
 10
-5.327353110261744
 20
43.41489762195867
 30
0.0
 10
-3.527637603074926
 20
43.90756466508817
 30
0.0
 10
-1.712556116893714
 20
44.15379665220954
 30
0.0
 10
0.3173473975706265
 20
44.20911066208473
 30
0.0
 10
2.532616435393819
 20
43.99832514172945
 30
0.0
 10
4.893211777121917
 20
43.38040688731483
 30
0.0
 10
6.916025508607769
 20
42.43229016715403
 30
0.0
 10
8.480707583987591
 20
41.21292955686017
 30
0.0
 10
9.426676569910363
 20
39.79891055343779
 30
0.0
 10
9.787786727626784
 20
38.57562448233782
 30
0.0
 10
9.59534212343854
 20
37.87691306305874
 30
0.0
 10
9.539213143380762
 20
37.67312476000766
 30
0.0
  0
SPLINE
  5
3CE
330
3A7
100
AcDbEntity
  8
0
  6
Continuous
 62
     7
370
    25
100
AcDbSpline
210
0.0
220
0.0
230
1.0
 70
     8
 71
     3
 72
    20
 73
    16
 74
     0
 42
0.000000001
 43
0.00000001
 40
0.0
 40
0.0
 40
0.0
 40
0.0
 40
0.0516716777647295
 40
0.1458028710276976
 40
0.2383260754181226
 40
0.3114726331872095
 40
0.3860493126657738
 40
0.4604520526372394
 40
0.5178390418359243
 40
0.6103622462263485
 40
0.7044934394893169
 40
0.7970166438797409
 40
0.8895398482701654
 40
0.9836710415331338
 40
1.0
 40
1.0
 40
1.0
 40
1.0
 10
-9.529513207604094
 20
38.28553036892194
 30
0.0
 10
-9.487253517750185
 20
38.54602901956705
 30
0.0
 10
-9.36800861655896
 20
39.28108258867772
 30
0.0
 10
-8.454835429183674
 20
40.39297399461719
 30
0.0
 10
-7.029102368721507
 20
41.43633116973361
 30
0.0
 10
-5.326371385355603
 20
42.19001489649514
 30
0.0
 10
-3.527914434970318
 20
42.68277217101824
 30
0.0
 10
-1.712466469006202
 20
42.92898409430789
 30
0.0
 10
0.3171952887082857
 20
42.98429228632042
 30
0.0
 10
2.53347038115457
 20
42.77356982907958
 30
0.0
 10
4.890058839683457
 20
42.1553859408303
 30
0.0
 10
6.92754385933633
 20
41.20824600028099
 30
0.0
 10
8.437386756679915
 20
39.98523320224204
 30
0.0
 10
9.275639739126063
 20
38.96715449246216
 30
0.0
 10
9.388383407070778
 20
38.37331560525669
 30
0.0
 10
9.405049930178354
 20
38.28553036892183
 30
0.0
  0
SPLINE
  5
3CF
330
3A7
100
AcDbEntity
  8
0
  6
Continuous
 62
     7
370
    25
100
AcDbSpline
210
0.0
220
0.0
230
1.0
 70
     8
 71
     3
 72
    18
 73
    14
 74
     0
 42
0.000000001
 43
0.00000001
 40
0.0
 40
0.0
 40
0.0
 40
0.0
 40
0.0983312347312621
 40
0.2007447425229504
 40
0.2817103296248473
 40
0.3642589118445806
 40
0.4466149612269258
 40
0.5101363546347968
 40
0.6125498624264842
 40
0.7167432456776547
 40
0.8191567534693419
 40
0.9215702612610297
 40
1.0
 40
1.0
 40
1.0
 40
1.0
 10
-9.2925498613787
 20
37.90900540815849
 30
0.0
 10
-9.024395750796335
 20
38.33229510535429
 30
0.0
 10
-8.476954970331766
 20
39.19644759472779
 30
0.0
 10
-7.018365543569785
 20
40.21004871615607
 30
0.0
 10
-5.329022270915223
 20
40.96556539901373
 30
0.0
 10
-3.52717460542215
 20
41.45786592901898
 30
0.0
 10
-1.712680863419823
 20
41.70418077330128
 30
0.0
 10
0.3175087627694563
 20
41.7595133477575
 30
0.0
 10
2.531794356118505
 20
41.54850126031695
 30
0.0
 10
4.896229375760155
 20
40.93154097152252
 30
0.0
 10
6.905006205929195
 20
39.97990066941545
 30
0.0
 10
8.38732570350432
 20
38.87427712179677
 30
0.0
 10
8.888492908947844
 20
38.03647177752607
 30
0.0
 10
9.105843646349099
 20
37.67312476000766
 30
0.0
  0
SPLINE
  5
3D0
330
3A7
100
AcDbEntity
  8
0
  6
Continuous
 62
     7
370
    25
100
AcDbSpline
210
0.0
220
0.0
230
1.0
 70
     8
 71
     3
 72
    18
 73
    14
 74
     0
 42
0.000000001
 43
0.00000001
 40
0.0
 40
0.0
 40
0.0
 40
0.0
 40
0.0517115443240224
 40
0.1648330398032059
 40
0.2542640972174895
 40
0.3454436620203702
 40
0.4364105634455009
 40
0.5065735250719661
 40
0.6196950205511486
 40
0.7347824888603307
 40
0.847903984339513
 40
0.9610254798186959
 40
0.9999999999999999
 40
0.9999999999999999
 40
0.9999999999999999
 40
0.9999999999999999
 10
-8.809264198592968
 20
37.33163206068843
 30
0.0
 10
-8.675207098633827
 20
37.53132325419494
 30
0.0
 10
-8.247893631547864
 20
38.16784855773959
 30
0.0
 10
-7.008221472922822
 20
38.98231279462318
 30
0.0
 10
-5.331524971364957
 20
39.74147396227569
 30
0.0
 10
-3.526483279586369
 20
40.23286285344797
 30
0.0
 10
-1.712857521059575
 20
40.4793952528056
 30
0.0
 10
0.3177142182274884
 20
40.53473127859221
 30
0.0
 10
2.530798071047648
 20
40.32340514447436
 30
0.0
 10
4.899874712782848
 20
39.70780722849494
 30
0.0
 10
6.8916976879126
 20
38.75114651502091
 30
0.0
 10
8.19746760958805
 20
37.82851484605143
 30
0.0
 10
8.598355393111635
 20
37.19630320887022
 30
0.0
 10
8.701082666679774
 20
37.03429932530253
 30
0.0
  0
SPLINE
  5
3D1
330
3A7
100
AcDbEntity
  8
0
  6
Continuous
 62
     7
370
    25
100
AcDbSpline
210
0.0
220
0.0
230
1.0
 70
     8
 71
     3
 72
    16
 73
    12
 74
     0
 42
0.000000001
 43
0.00000001
 40
0.0
 40
0.0
 40
0.0
 40
0.0
 40
0.123309064461353
 40
0.2236794330112858
 40
0.3260121884107087
 40
0.4281062672002491
 40
0.5068516440370697
 40
0.633810292636831
 40
0.7629753941536379
 40
0.8899340427533989
 40
1.0
 40
1.0
 40
1.0
 40
1.0
 10
-8.326073616401592
 20
36.72680762233263
 30
0.0
 10
-7.86440319930466
 20
37.09999246906597
 30
0.0
 10
-7.026945080670643
 20
37.77694006647378
 30
0.0
 10
-5.322194966879493
 20
38.51391022681273
 30
0.0
 10
-3.529069362272164
 20
39.00878146123414
 30
0.0
 10
-1.712167103506725
 20
39.25449966785332
 30
0.0
 10
0.3168363884466169
 20
39.3097597397402
 30
0.0
 10
2.535236844183399
 20
39.09999978264126
 30
0.0
 10
4.883589102335829
 20
38.47769862881321
 30
0.0
 10
6.859992062756922
 20
37.58681310009253
 30
0.0
 10
7.752182476372195
 20
36.80934336260957
 30
0.0
 10
8.166484576232905
 20
36.44831354217904
 30
0.0
  0
SPLINE
  5
3D2
330
3A7
100
AcDbEntity
  8
0
  6
Continuous
 62
     7
370
    25
100
AcDbSpline
210
0.0
220
0.0
230
1.0
 70
     8
 71
     3
 72
    13
 73
     9
 74
     0
 42
0.000000001
 43
0.00000001
 40
0.0
 40
0.0
 40
0.0
 40
0.0
 40
0.1248458531547216
 40
0.3252732240750359
 40
0.5291831899458324
 40
0.7296105608661477
 40
0.9300379317864624
 40
1.0
 40
1.0
 40
1.0
 40
1.0
 10
-1.698332428609636
 20
45.85177863001719
 30
0.0
 10
-1.132857691292359
 20
45.87878865829731
 30
0.0
 10
0.3404294567575273
 20
45.94916055098762
 30
0.0
 10
2.758376383731489
 20
45.70698172673374
 30
0.0
 10
5.338064265461787
 20
45.04589362831693
 30
0.0
 10
7.508771602413796
 20
44.00686297558592
 30
0.0
 10
8.93329210441376
 20
43.00325319085885
 30
0.0
 10
9.37123098775002
 20
42.31413082938055
 30
0.0
 10
9.484545731578327
 20
42.13582347456796
 30
0.0
  0
SPLINE
  5
3D3
330
3A7
100
AcDbEntity
  8
0
  6
Continuous
 62
     7
370
    25
100
AcDbSpline
210
0.0
220
0.0
230
1.0
 70
     8
 71
     3
 72
    17
 73
    13
 74
     0
 42
0.000000001
 43
0.00000001
 40
0.0
 40
0.0
 40
0.0
 40
0.0
 40
0.0245857662772471
 40
0.1474449440080974
 40
0.2444655078203299
 40
0.3433828472536217
 40
0.4420745579738093
 40
0.5186033214419178
 40
0.6414624991727681
 40
0.7664564589447198
 40
0.8893156366755707
 40
1.0
 40
1.0
 40
1.0
 40
1.0
 10
-9.328625863128954
 20
41.56331311592183
 30
0.0
 10
-9.262008259146109
 20
41.65809107188687
 30
0.0
 10
-8.862491368826753
 20
42.22649029332576
 30
0.0
 10
-7.626243868500215
 20
43.00325544047298
 30
0.0
 10
-5.813029390498092
 20
43.83720199374479
 30
0.0
 10
-3.846023161085216
 20
44.37520856876574
 30
0.0
 10
-1.870157782878979
 20
44.6483409393574
 30
0.0
 10
0.3430714696861931
 20
44.71230504867412
 30
0.0
 10
2.761863910032652
 20
44.48747030011326
 30
0.0
 10
5.321322734159685
 20
43.81463749352338
 30
0.0
 10
7.497062223242363
 20
42.83541400637765
 30
0.0
 10
8.485510557986306
 20
41.9751426412303
 30
0.0
 10
8.95397041825848
 20
41.5674302810112
 30
0.0
  0
SPLINE
  5
3D4
330
3A7
100
AcDbEntity
  8
0
  6
Continuous
 62
     7
370
    25
100
AcDbSpline
210
0.0
220
0.0
230
1.0
 70
     8
 71
     3
 72
    16
 73
    12
 74
     0
 42
0.000000001
 43
0.00000001
 40
0.0
 40
0.0
 40
0.0
 40
0.0
 40
0.1228341867897873
 40
0.2226554489550292
 40
0.3244282410753519
 40
0.4259688912451663
 40
0.5047068150539402
 40
0.6311125759337899
 40
0.7597147437341646
 40
0.8861205046140149
 40
1.0
 40
1.0
 40
1.0
 40
1.0
 10
-9.072052860514045
 20
40.65401858195058
 30
0.0
 10
-8.568820730887808
 20
41.06227518190953
 30
0.0
 10
-7.656636764202064
 20
41.80230170814262
 30
0.0
 10
-5.800511917944009
 20
42.60870154285412
 30
0.0
 10
-3.849420826434368
 20
43.15139873354736
 30
0.0
 10
-1.869485209565235
 20
43.42333149623251
 30
0.0
 10
0.3427986258349456
 20
43.4875742452065
 30
0.0
 10
2.761952578893543
 20
43.26263294920611
 30
0.0
 10
5.321299288274879
 20
42.58983318582241
 30
0.0
 10
7.497067374422925
 20
41.61060127035869
 30
0.0
 10
8.485512214316705
 20
40.75033093523692
 30
0.0
 10
8.953970418258487
 20
40.34261906318257
 30
0.0
  0
SPLINE
  5
3D5
330
3A7
100
AcDbEntity
  8
0
  6
Continuous
 62
     7
370
    25
100
AcDbSpline
210
0.0
220
0.0
230
1.0
 70
     8
 71
     3
 72
    16
 73
    12
 74
     0
 42
0.000000001
 43
0.00000001
 40
0.0
 40
0.0
 40
0.0
 40
0.0
 40
0.1228341867897874
 40
0.2226554489550295
 40
0.3244282410753523
 40
0.4259688912451669
 40
0.5047068150539409
 40
0.6311125759337908
 40
0.7597147437341656
 40
0.8861205046140161
 40
1.0
 40
1.0
 40
1.0
 40
1.0
 10
-9.072052860514045
 20
39.42920736412196
 30
0.0
 10
-8.568820730887808
 20
39.83746396408092
 30
0.0
 10
-7.656636764202066
 20
40.57749049031401
 30
0.0
 10
-5.800511917944011
 20
41.3838903250255
 30
0.0
 10
-3.849420826434367
 20
41.92658751571872
 30
0.0
 10
-1.869485209565235
 20
42.1985202784039
 30
0.0
 10
0.3427986258349438
 20
42.26276302737784
 30
0.0
 10
2.761952578893539
 20
42.03782173137749
 30
0.0
 10
5.32129928827488
 20
41.3650219679938
 30
0.0
 10
7.497067374422918
 20
40.38579005253008
 30
0.0
 10
8.485512214316692
 20
39.5255197174083
 30
0.0
 10
8.95397041825847
 20
39.11780784535396
 30
0.0
  0
SPLINE
  5
3D6
330
3A7
100
AcDbEntity
  8
0
  6
Continuous
 62
     7
370
    25
100
AcDbSpline
210
0.0
220
0.0
230
1.0
 70
     8
 71
     3
 72
    18
 73
    14
 74
     0
 42
0.000000001
 43
0.00000001
 40
0.0
 40
0.0
 40
0.0
 40
0.0
 40
0.0212178161316941
 40
0.1426242400153872
 40
0.2384975798274694
 40
0.336245266752366
 40
0.4337699929209773
 40
0.509393838599468
 40
0.6308002624831612
 40
0.7543162255821422
 40
0.8757226494658361
 40
0.9971290733495296
 40
1.0
 40
1.0
 40
1.0
 40
1.0
 10
-9.30209344527044
 20
37.92454162302582
 30
0.0
 10
-9.243619317744344
 20
38.00722991476324
 30
0.0
 10
-8.850561523897458
 20
38.56305312927407
 30
0.0
 10
-7.62501471713241
 20
39.3284714708965
 30
0.0
 10
-5.813351103484151
 20
40.16284866804428
 30
0.0
 10
-3.845861720567497
 20
40.70077631073115
 30
0.0
 10
-1.870442647591391
 20
40.97382784763777
 30
0.0
 10
0.3440223528912963
 20
41.03816508336992
 30
0.0
 10
2.75577966125718
 20
40.81113351057634
 30
0.0
 10
5.343952643943698
 20
40.1472868431388
 30
0.0
 10
7.48822799201415
 20
39.10183844078234
 30
0.0
 10
8.780827918091065
 20
38.25634711983959
 30
0.0
 10
9.135705563120931
 20
37.74015002693918
 30
0.0
 10
9.143903578965277
 20
37.72822537627248
 30
0.0
  0
SPLINE
  5
3D7
330
3A7
100
AcDbEntity
  8
0
  6
Continuous
 62
     7
370
    25
100
AcDbSpline
210
0.0
220
0.0
230
1.0
 70
     8
 71
     3
 72
    16
 73
    12
 74
     0
 42
0.000000001
 43
0.00000001
 40
0.0
 40
0.0
 40
0.0
 40
0.0
 40
0.1055577347504348
 40
0.2105418102001032
 40
0.3175783498603255
 40
0.424370741054394
 40
0.5071810357209433
 40
0.6401245755002244
 40
0.775378121633471
 40
0.9083216614127527
 40
0.9999999999999999
 40
0.9999999999999999
 40
0.9999999999999999
 40
0.9999999999999999
 10
-8.775781962405272
 20
37.19321901245999
 30
0.0
 10
-8.362056501067608
 20
37.52549155624542
 30
0.0
 10
-7.536853992110337
 20
38.18823089044744
 30
0.0
 10
-5.798114248421645
 20
38.93303509959928
 30
0.0
 10
-3.850086070434349
 20
39.47729221340363
 30
0.0
 10
-1.869304265734416
 20
39.74885863561362
 30
0.0
 10
0.342562529910012
 20
39.8130721102904
 30
0.0
 10
2.763154123237416
 20
39.58880498155952
 30
0.0
 10
5.316887380468214
 20
38.91311576242588
 30
0.0
 10
7.353528982528549
 20
38.0143308880097
 30
0.0
 10
8.239965048422045
 20
37.25376649385763
 30
0.0
 10
8.601759662445895
 20
36.94334579685543
 30
0.0
  0
SPLINE
  5
3D8
330
3A7
100
AcDbEntity
  8
0
  6
Continuous
 62
     7
370
    25
100
AcDbSpline
210
0.0
220
0.0
230
1.0
 70
     8
 71
     3
 72
    16
 73
    12
 74
     0
 42
0.000000001
 43
0.00000001
 40
0.0
 40
0.0
 40
0.0
 40
0.0
 40
0.0543418768289631
 40
0.1725499316274363
 40
0.2930689826492309
 40
0.4133131318333661
 40
0.5065543573039295
 40
0.6562436998829987
 40
0.8085340212915217
 40
0.9582233638705916
 40
1.0
 40
1.0
 40
1.0
 40
1.0
 10
-8.057405913317629
 20
36.48641212847126
 30
0.0
 10
-7.86379384403882
 20
36.63603601929396
 30
0.0
 10
-7.249023960005315
 20
37.1111317215007
 30
0.0
 10
-5.788926089620417
 20
37.70349664428143
 30
0.0
 10
-3.852623312329684
 20
38.25374168892274
 30
0.0
 10
-1.868654382576992
 20
38.5238744289401
 30
0.0
 10
0.3418112803201039
 20
38.58807817631869
 30
0.0
 10
2.76676949619847
 20
38.36580158802867
 30
0.0
 10
5.303660544174965
 20
37.681462399243
 30
0.0
 10
7.078262825633013
 20
36.94324328705728
 30
0.0
 10
7.767170231196898
 20
36.37672599089675
 30
0.0
 10
7.917485363959555
 20
36.25311558709361
 30
0.0
  0
SPLINE
  5
3DC
330
3A7
100
AcDbEntity
  8
0
  6
Continuous
 62
     7
370
    25
100
AcDbSpline
210
0.0
220
0.0
230
1.0
 70
     8
 71
     3
 72
    15
 73
    11
 74
     0
 42
0.000000001
 43
0.00000001
 40
0.0
 40
0.0
 40
0.0
 40
0.0
 40
0.065816251216411
 40
0.2115951574856016
 40
0.3599077175133287
 40
0.5056866237825106
 40
0.651465530051702
 40
0.799778090079429
 40
0.9455569963486103
 40
1.0
 40
1.0
 40
1.0
 40
1.0
 10
-7.395873174625734
 20
36.01182712317788
 30
0.0
 10
-7.179493274616151
 20
36.17915987283962
 30
0.0
 10
-6.483845343093883
 20
36.71712426404677
 30
0.0
 10
-4.78691481752117
 20
37.36702347945801
 30
0.0
 10
-2.491368835746805
 20
37.87852151585844
 30
0.0
 10
-0.0001734520873519
 20
38.01294800545171
 30
0.0
 10
2.492068673334182
 20
37.77918944741128
 30
0.0
 10
4.784438044843311
 20
37.15910260300871
 30
0.0
 10
6.436854445261931
 20
36.45592751675721
 30
0.0
 10
7.098689077267911
 20
35.90273449355509
 30
0.0
 10
7.278650727325146
 20
35.75231394370586
 30
0.0
  0
LWPOLYLINE
  5
3DD
330
3A7
100
AcDbEntity
  8
0
  6
Continuous
 62
     7
370
    25
100
AcDbPolyline
 90
       22
 70
   128
 43
0.0
 10
10.7833784131
 20
5.4514217573
 10
9.4838769901
 20
4.782389407
 10
8.0607387268
 20
4.2032327697
 10
6.5325164068
 20
3.7215020377
 10
4.9191327453
 20
3.343477308
 10
3.2416206657
 20
3.0740867109
 10
1.5218491032
 20
2.9168421649
 10
-0.2177620897
 20
2.8737935931
 10
-1.9545344207
 20
2.9455021994
 10
-3.6658264065
 20
3.1310331526
 10
-5.3293287389
 20
3.4279677729
 10
-6.923355121
 20
3.8324350635
 10
-8.4271249813
 20
4.3391621746
 10
-9.8210343797
 20
4.9415431434
 10
-11.0869115757
 20
5.6317250128
 10
-12.2082539241
 20
6.4007102067
 10
-13.1704430124
 20
7.2384738269
 10
-13.9609352345
 20
8.1340943435
 10
-14.5694253153
 20
9.0758959734
 10
-14.9879806561
 20
10.0516008921
 10
-15.2111447478
 20
11.0484892937
 10
-15.25
 20
11.67653361
  0
LWPOLYLINE
  5
3E5
330
3A7
100
AcDbEntity
  8
0
  6
Continuous
 62
     7
370
    25
100
AcDbPolyline
 90
       23
 70
   128
 43
0.0
 10
11.8440385849
 20
-1.2849404157
 10
10.4692116787
 20
-1.9956141033
 10
8.9673027248
 20
-2.6146641835
 10
7.3565428632
 20
-3.134576227
 10
5.6564845367
 20
-3.5490392057
 10
3.8877641504
 20
-3.8530221006
 10
2.0718515738
 20
-4.0428349711
 10
0.2307895257
 20
-4.1161737462
 10
-1.6130739946
 20
-4.0721481923
 10
-3.4373569818
 20
-3.9112927202
 10
-5.2199151115
 20
-3.6355598973
 10
-6.9391105429
 20
-3.2482967466
 10
-8.5740745723
 20
-2.7542041181
 10
-10.104960951
 20
-2.1592796271
 10
-11.5131867924
 20
-1.4707448509
 10
-12.7816581423
 20
-0.696957669
 10
-13.8949774769
 20
0.1526891904
 10
-14.8396306075
 20
1.0678821653
 10
-15.6041507249
 20
2.0375120529
 10
-16.1792575903
 20
3.0498088598
 10
-16.5579701857
 20
4.092484674
 10
-16.735691453
 20
5.1528828236
 10
-16.75
 20
5.5524775208
  0
LWPOLYLINE
  5
3E6
330
3A7
100
AcDbEntity
  8
0
  6
Continuous
 62
     7
370
    25
100
AcDbPolyline
 90
        9
 70
   128
 43
0.0
 10
16.75
 20
5.5524775208
 10
16.7484099602
 20
5.4192455636
 10
16.6213697106
 20
4.356423066
 10
16.2925685486
 20
3.3081190493
 10
15.7659976749
 20
2.2870585042
 10
15.0480489467
 20
1.3056357225
 10
14.1474372889
 20
0.3757638473
 10
13.075094907
 20
-0.4912697365
 10
11.8440385849
 20
-1.2849404157
  0
LWPOLYLINE
  5
3E7
330
3A7
100
AcDbEntity
  8
0
  6
Continuous
 62
     7
370
    25
100
AcDbPolyline
 90
       34
 70
   128
 43
0.0
 10
16.75
 20
7.229346792
 10
16.8443751418
 20
6.877352956
 10
16.9937658658
 20
5.8182316532
 10
16.9439202225
 20
4.7559946262
 10
16.6954226066
 20
3.7030956329
 10
16.2511864254
 20
2.6718789514
 10
15.616419942
 20
1.6744346543
 10
14.798565213
 20
0.7224568641
 10
13.8072108373
 20
-0.1728933501
 10
12.6539795386
 20
-1.0011188255
 10
11.3523918994
 20
-1.7525093758
 10
9.9177078448
 20
-2.4182556337
 10
8.3667477336
 20
-2.9905523331
 10
6.717695155
 20
-3.4626898185
 10
4.9898837428
 20
-3.8291327094
 10
3.2035705059
 20
-4.0855847981
 10
1.379698334
 20
-4.2290394182
 10
-0.4603495395
 20
-4.2578146956
 10
-2.2950002355
 20
-4.1715732663
 10
-4.1027441521
 20
-3.9713262324
 10
-5.8623871447
 20
-3.6594213071
 10
-7.553299008
 20
-3.2395152907
 10
-9.1556553465
 20
-2.7165311971
 10
-10.6506699972
 20
-2.0966005367
 10
-12.0208152802
 20
-1.3869914297
 10
-13.2500274947
 20
-0.596023394
 10
-14.3238952515
 20
0.2670301932
 10
-15.2298284329
 20
1.1920508178
 10
-15.9572058007
 20
2.1681934587
 10
-16.4974995203
 20
3.184013736
 10
-16.8443751418
 20
4.2276020856
 10
-16.9937658658
 20
5.2867233884
 10
-16.9439202225
 20
6.3489604154
 10
-16.75
 20
7.229346792
  0
LWPOLYLINE
  5
3E8
330
3A7
100
AcDbEntity
  8
0
  6
Continuous
 62
     8
370
    25
100
AcDbPolyline
 90
       23
 70
   128
 43
0.0
 10
12.4011386068
 20
37.1873687881
 10
12.3260884187
 20
37.0539791542
 10
11.7249759743
 20
36.1976196655
 10
10.9461248459
 20
35.3903950043
 10
10.0013416228
 20
34.6445418736
 10
8.9049482554
 20
33.9713666465
 10
7.6735649497
 20
33.3810739734
 10
6.3258582214
 20
32.8826120895
 10
4.8822579306
 20
32.4835371687
 10
3.3646475863
 20
32.1898987801
 10
1.7960326144
 20
32.0061481824
 10
0.2001916188
 20
31.9350708473
 10
-1.3986840777
 20
31.9777442348
 10
-2.9763571494
 20
32.1335214597
 10
-4.5089116805
 20
32.4000410982
 10
-5.9731157067
 20
32.7732629843
 10
-7.3467733875
 20
33.2475294544
 10
-8.6090614726
 20
33.8156511126
 10
-9.7408449614
 20
34.4690158134
 10
-10.7249671698
 20
35.197719214
 10
-11.5465098083
 20
35.9907149137
 10
-12.1930191281
 20
36.835981906
 10
-12.4064205451
 20
37.1970870411
  0
LWPOLYLINE
  5
3E9
330
3A7
100
AcDbEntity
  8
0
  6
Continuous
 62
     8
370
    25
100
AcDbPolyline
 90
       18
 70
   128
 43
0.0
 10
-9.1923881554
 20
23.3667151967
 10
-7.9930776708
 20
22.754811437
 10
-6.6726002763
 20
22.2326269605
 10
-5.2509730633
 20
21.8080775518
 10
-3.7497464513
 20
21.4875989469
 10
-2.1916775053
 20
21.276049275
 10
-0.6003849624
 20
21.1766354134
 10
1.0000088045
 20
21.1908643749
 10
2.5852434573
 20
21.3185204629
 10
4.1312884546
 20
21.5576685414
 10
5.61470733
 20
21.9046833691
 10
7.0130129657
 20
22.354304555
 10
8.3050084735
 20
22.8997163004
 10
9.4711085185
 20
23.5326507189
 10
10.4936362126
 20
24.2435131702
 10
11.3570910784
 20
25.021527704
 10
12.0483840202
 20
25.854900413
 10
12.4011386885
 20
26.4218156475
  0
SPLINE
  5
3EA
330
3A7
100
AcDbEntity
  8
0
  6
Continuous
 62
     8
370
    25
100
AcDbSpline
210
0.0
220
0.0
230
1.0
 70
     8
 71
     3
 72
    15
 73
    11
 74
     0
 42
0.000000001
 43
0.00000001
 40
0.0
 40
0.0
 40
0.0
 40
0.0
 40
0.063776965861647
 40
0.21026563144282
 40
0.3593001680382998
 40
0.5057888336194696
 40
0.6522774992006425
 40
0.8013120357961222
 40
0.9478007013772919
 40
1.0
 40
1.0
 40
1.0
 40
1.0
 10
-7.506203663280744
 20
36.09097845232584
 30
0.0
 10
-7.293508793142204
 20
36.25530158067088
 30
0.0
 10
-6.592277234536129
 20
36.79705683470861
 30
0.0
 10
-4.873787668878225
 20
37.45426751319536
 30
0.0
 10
-2.536954573014785
 20
37.97640708631145
 30
0.0
 10
-0.0001836693949205
 20
38.11408283816364
 30
0.0
 10
2.537695634684873
 20
37.87709392766533
 30
0.0
 10
4.871165002712131
 20
37.24627017890554
 30
0.0
 10
6.543857136467325
 20
36.5372335718424
 30
0.0
 10
7.210218727502173
 20
35.98182489225029
 30
0.0
 10
7.385285233520819
 20
35.83590793326468
 30
0.0
  0
LWPOLYLINE
  5
3EB
330
3A7
100
AcDbEntity
  8
0
  6
Continuous
 62
     8
370
    25
100
AcDbPolyline
 90
       19
 70
   128
 43
0.0
 10
10.7833784131
 20
17.6995339356
 10
9.4838769901
 20
17.0305015853
 10
8.0607387268
 20
16.451344948
 10
6.5325164068
 20
15.969614216
 10
4.9191327453
 20
15.5915894863
 10
3.2416206657
 20
15.3221988892
 10
1.5218491032
 20
15.1649543432
 10
-0.2177620897
 20
15.1219057713
 10
-1.9545344207
 20
15.1936143777
 10
-3.6658264065
 20
15.3791453309
 10
-5.3293287389
 20
15.6760799512
 10
-6.923355121
 20
16.0805472418
 10
-8.4271249813
 20
16.5872743529
 10
-9.8210343797
 20
17.1896553217
 10
-11.0869115757
 20
17.8798371911
 10
-12.2082539241
 20
18.6488223849
 10
-13.1704430124
 20
19.4865860051
 10
-13.9609352345
 20
20.3822065218
 10
-14.5667016119
 20
21.3189284
  0
LWPOLYLINE
  5
3ED
330
3A7
100
AcDbEntity
  8
0
  6
Continuous
 62
     8
370
    25
100
AcDbPolyline
 90
       12
 70
   128
 43
0.0
 10
10.4298250225
 20
18.3119063695
 10
11.5701310576
 20
19.0516148605
 10
12.5539709184
 20
19.862743892
 10
13.3680398588
 20
20.7343243355
 10
14.0013289927
 20
21.6545695604
 10
14.445274171
 20
22.611034829
 10
14.6938717969
 20
23.5907855891
 10
14.7437600137
 20
24.5805723926
 10
14.5942641691
 20
25.5670100708
 10
14.2474059378
 20
26.5367587465
 10
13.7078759823
 20
27.4767042322
 10
12.9891957468
 20
28.3674632517
  0
LWPOLYLINE
  5
3EE
330
3A7
100
AcDbEntity
  8
0
  6
Continuous
 62
     8
370
    25
100
AcDbPolyline
 90
       26
 70
   128
 43
0.0
 10
-13.0045383095
 20
28.3509582465
 10
-13.3680398588
 20
27.9315080529
 10
-14.0013289927
 20
27.0112628279
 10
-14.445274171
 20
26.0547975594
 10
-14.6938717969
 20
25.0750467993
 10
-14.7437600137
 20
24.0852599958
 10
-14.5942641691
 20
23.0988223175
 10
-14.2474059378
 20
22.1290736419
 10
-13.7078759823
 20
21.1891281562
 10
-12.9829705199
 20
20.2916970105
 10
-12.0824926533
 20
19.4489164216
 10
-11.0186198008
 20
18.6721835513
 10
-9.8057390178
 20
17.972002379
 10
-8.4602524362
 20
17.3578416541
 10
-7.0003554538
 20
16.8380068467
 10
-5.4457906729
 20
16.4195278308
 10
-3.8175809153
 20
16.1080638172
 10
-2.1377449248
 20
15.9078268225
 10
-0.4289996015
 20
15.8215247083
 10
1.2855472055
 20
15.8503245629
 10
2.9827091919
 20
15.9938369175
 10
4.6395351532
 20
16.2501210138
 10
6.2336193607
 20
16.615711049
 10
7.7434045599
 20
17.0856630451
 10
9.1484734962
 20
17.6536217074
 10
10.4298250225
 20
18.3119063695
  0
LWPOLYLINE
  5
3EF
330
3A7
100
AcDbEntity
  8
0
  6
Continuous
 62
     8
370
    25
100
AcDbPolyline
 90
       22
 70
   128
 43
0.0
 10
9.0156114601
 20
19.1283144813
 10
7.8145649341
 20
18.5170447583
 10
6.4902780508
 20
17.997494802
 10
5.0636356056
 20
17.5778582257
 10
3.557136602
 20
17.2647529488
 10
1.9945394293
 20
17.0631168286
 10
0.4004871782
 20
16.9761297872
 10
-1.1998809948
 20
17.0051636622
 10
-2.7813263278
 20
17.149760572
 10
-4.3189084831
 20
17.4076401369
 10
-5.7883788717
 20
17.7747354422
 10
-7.1665630676
 20
18.2452571757
 10
-8.4317262829
 20
18.8117849284
 10
-9.5639161378
 20
19.4653842194
 10
-10.545277322
 20
20.1957473974
 10
-11.3603331834
 20
20.9913561987
 10
-11.9962298042
 20
21.8396633973
 10
-12.4429387147
 20
22.7272906819
 10
-12.6934150487
 20
23.6402396399
 10
-12.7437086447
 20
24.564112521
 10
-12.5930263426
 20
25.484339298
 10
-12.365250991
 20
26.1274425026
  0
LWPOLYLINE
  5
3F0
330
3A7
100
AcDbEntity
  8
0
  6
Continuous
 62
     8
370
    25
100
AcDbPolyline
 90
       10
 70
   128
 43
0.0
 10
12.332277291
 20
26.2015312282
 10
12.4429387147
 20
25.9385417065
 10
12.6934150487
 20
25.0255927485
 10
12.7437086447
 20
24.1017198673
 10
12.5930263426
 20
23.1814930904
 10
12.2437444924
 20
22.2794249437
 10
11.7013714775
 20
21.4097415806
 10
10.9744608443
 20
20.5861584274
 10
10.0744764078
 20
19.8216638825
 10
9.0156114601
 20
19.1283144813
  0
LWPOLYLINE
  5
3F1
330
3A7
100
AcDbEntity
  8
0
  6
Continuous
 62
     8
370
    25
100
AcDbPolyline
 90
       16
 70
   128
 43
0.0
 10
7.9258088208
 20
22.5682692361
 10
7.766504724
 20
22.4163094537
 10
6.9524302882
 20
21.7795428123
 10
5.9830500483
 20
21.2199315114
 10
4.880018357
 20
20.7499763429
 10
3.6679751196
 20
20.3801753286
 10
2.3739953792
 20
20.1187892121
 10
1.0269845049
 20
19.9716569273
 10
-0.3429675061
 20
19.9420651663
 10
-1.7052581898
 20
20.0306749602
 10
-3.0294562235
 20
20.2355069125
 10
-4.2859812111
 20
20.551985416
 10
-5.4467644608
 20
20.9730408638
 10
-6.485875993
 20
21.4892675731
 10
-7.380103773
 20
22.0891338921
 10
-7.9258088208
 20
22.5682692361
  0
LWPOLYLINE
  5
3F2
330
3A7
100
AcDbEntity
  8
0
  6
Continuous
 62
     8
370
    25
100
AcDbPolyline
 90
        3
 70
   128
 43
0.0
 10
12.2496243935
 20
23.869267622
 10
12.1729745712
 20
24.7164333122
 10
11.9156856714
 20
25.5654976338
  0
LWPOLYLINE
  5
3F5
330
3A7
100
AcDbEntity
  8
0
  6
Continuous
 62
     8
370
    25
100
AcDbPolyline
 90
       20
 70
   128
 43
0.0
 10
11.8440385849
 20
4.4308452675
 10
10.4692116787
 20
3.7201715799
 10
8.9673027248
 20
3.1011214997
 10
7.3565428632
 20
2.5812094562
 10
5.6564845367
 20
2.1667464775
 10
3.8877641504
 20
1.8627635826
 10
2.0718515738
 20
1.6729507121
 10
0.2307895257
 20
1.599611937
 10
-1.6130739946
 20
1.6436374909
 10
-3.4373569818
 20
1.804492963
 10
-5.2199151115
 20
2.0802257859
 10
-6.9391105429
 20
2.4674889366
 10
-8.5740745723
 20
2.9615815651
 10
-10.104960951
 20
3.5565060561
 10
-11.5131867924
 20
4.2450408323
 10
-12.7816581423
 20
5.0188280142
 10
-13.8949774769
 20
5.8684748736
 10
-14.8396306075
 20
6.7836678485
 10
-15.6041507249
 20
7.7532977361
 10
-15.9875673616
 20
8.3841237497
  0
LWPOLYLINE
  5
3F7
330
3A7
100
AcDbEntity
  8
0
  6
Continuous
 62
     8
370
    25
100
AcDbPolyline
 90
       12
 70
   128
 43
0.0
 10
11.4904851943
 20
5.0432177014
 10
12.6847935664
 20
5.8131967185
 10
13.725125728
 20
6.6543487028
 10
14.5988534557
 20
7.5564632086
 10
15.2953708787
 20
8.5085897879
 10
15.8062232188
 20
9.4991709137
 10
16.1252094207
 20
10.5161822732
 10
16.2484574241
 20
11.5472787261
 10
16.174471165
 20
12.5799441581
 10
15.9041487366
 20
13.6016434099
 10
15.4407714868
 20
14.5999744365
 10
15.25
 20
14.9165528583
  0
LWPOLYLINE
  5
3F8
330
3A7
100
AcDbEntity
  8
0
  6
Continuous
 62
     8
370
    25
100
AcDbPolyline
 90
       26
 70
   128
 43
0.0
 10
-15.25
 20
14.9165528583
 10
-15.5744465899
 20
14.3532514211
 10
-15.9899968672
 20
13.3479286123
 10
-16.2114502432
 20
12.3223173323
 10
-16.2361185738
 20
11.2888671126
 10
-16.0637024189
 20
10.2601226391
 10
-15.6962946772
 20
9.2485714761
 10
-15.1383551808
 20
8.2664924844
 10
-14.3966565595
 20
7.3258067725
 10
-13.4802020298
 20
6.4379329909
 10
-12.4001161082
 20
5.6136487243
 10
-11.1695095748
 20
4.8629596673
 10
-9.8033203256
 20
4.194978168
 10
-8.3181320477
 20
3.617812617
 10
-6.7319729148
 20
3.1384690222
 10
-5.06409675
 20
2.7627659655
 10
-3.3347493107
 20
2.4952639732
 10
-1.5649225321
 20
2.3392101569
 10
0.2239002861
 20
2.2964987987
 10
2.0100052581
 20
2.3676483566
 10
3.7717114892
 20
2.5517951713
 10
5.487634252
 20
2.8467039499
 10
7.1369445688
 20
3.2487948994
 10
8.6996220464
 20
3.7531871804
 10
10.1566978973
 20
4.3537581537
 10
11.4904851943
 20
5.0432177014
  0
LINE
  5
3F9
330
3A7
100
AcDbEntity
  8
0
  6
Continuous
 62
     7
370
    25
100
AcDbLine
 10
100.0
 20
0.0
 30
0.0
 11
100.0
 21
1.6330816238
 31
0.0
  0
LINE
  5
3FA
330
3A7
100
AcDbEntity
  8
0
  6
Continuous
 62
     7
370
    25
100
AcDbLine
 10
-100.0
 20
1.6330816238
 30
0.0
 11
-100.0
 21
0.0
 31
0.0
  0
LINE
  5
3FB
330
3A7
100
AcDbEntity
  8
0
  6
Continuous
 62
     7
370
    25
100
AcDbLine
 10
13.0
 20
28.6733679236
 30
0.0
 11
13.0
 21
39.4389212141
 31
0.0
  0
LINE
  5
3FC
330
3A7
100
AcDbEntity
  8
0
  6
Continuous
 62
     7
370
    25
100
AcDbLine
 10
-13.0
 20
39.4389212141
 30
0.0
 11
-13.0
 21
28.6733679236
 31
0.0
  0
LINE
  5
3FD
330
3A7
100
AcDbEntity
  8
0
  6
Continuous
 62
     7
370
    25
100
AcDbLine
 10
-9.9167300024
 20
23.6756088888
 30
0.0
 11
-9.088814448
 21
23.1377927935
 31
0.0
  0
LINE
  5
3FE
330
3A7
100
AcDbEntity
  8
0
  6
Continuous
 62
     7
370
    25
100
AcDbLine
 10
15.25
 20
11.67653361
 30
0.0
 11
15.25
 21
23.9246457883
 31
0.0
  0
LINE
  5
3FF
330
3A7
100
AcDbEntity
  8
0
  6
Continuous
 62
     7
370
    25
100
AcDbLine
 10
-15.25
 20
23.9246457883
 30
0.0
 11
-15.25
 21
11.67653361
 31
0.0
  0
LINE
  5
400
330
3A7
100
AcDbEntity
  8
0
  6
Continuous
 62
     7
370
    25
100
AcDbLine
 10
16.75
 20
5.5524775208
 30
0.0
 11
16.75
 21
11.268263204
 31
0.0
  0
LINE
  5
401
330
3A7
100
AcDbEntity
  8
0
  6
Continuous
 62
     7
370
    25
100
AcDbLine
 10
-16.75
 20
11.268263204
 30
0.0
 11
-16.75
 21
5.5524775208
 31
0.0
  0
LINE
  5
402
330
3A7
100
AcDbEntity
  8
0
  6
Continuous
 62
     7
370
    25
100
AcDbLine
 10
-12.2371368315
 20
24.2486385411
 30
0.0
 11
-12.25
 21
23.9246457883
 31
0.0
  0
ARC
  5
403
330
3A7
100
AcDbEntity
  8
0
  6
Continuous
 62
     7
370
    25
100
AcDbCircle
 10
8.3772017341
 20
39.4387927744
 30
0.0
 40
4.610962797690951
100
AcDbArc
 50
330.7726475143
 51
29.089907568
  0
ARC
  5
404
330
3A7
100
AcDbEntity
  8
0
  6
Continuous
 62
     7
370
    25
100
AcDbCircle
 10
-8.3774991701
 20
39.4395564575
 30
0.0
 40
4.610951803051462
100
AcDbArc
 50
150.2618284883
 51
209.1000059326
  0
ARC
  5
405
330
3A7
100
AcDbEntity
  8
0
  6
Continuous
 62
     7
370
    25
100
AcDbCircle
 10
8.3168097083
 20
28.7135713956
 30
0.0
 40
4.683362854589054
100
AcDbArc
 50
330.7028035469
 51
359.5081488168
  0
ARC
  5
406
330
3A7
100
AcDbEntity
  8
0
  6
Continuous
 62
     7
370
    25
100
AcDbCircle
 10
-6.4085001262
 20
29.3835401594
 30
0.0
 40
6.629646686778108
100
AcDbArc
 50
186.1493615955
 51
245.1707793621
  0
ARC
  5
407
330
3A7
100
AcDbEntity
  8
0
  6
Continuous
 62
     7
370
    25
100
AcDbCircle
 10
-0.0745761406
 20
40.0946764197
 30
0.0
 40
19.20332498874777
100
AcDbArc
 50
245.5415728547
 51
300.6579963278
  0
ARC
  5
408
330
3A7
100
AcDbEntity
  8
0
  6
Continuous
 62
     7
370
    25
100
AcDbCircle
 10
-9.8472090295
 20
23.9246600224
 30
0.0
 40
5.39105254319113
100
AcDbArc
 50
151.0839188908
 51
208.9040171408
  0
ARC
  5
409
330
3A7
100
AcDbEntity
  8
0
  6
Continuous
 62
     7
370
    25
100
AcDbCircle
 10
9.8509595901
 20
23.926954246
 30
0.0
 40
5.387789916751061
100
AcDbArc
 50
332.1027043853
 51
29.8237182216
  0
ARC
  5
40A
330
3A7
100
AcDbEntity
  8
0
  6
Continuous
 62
     7
370
    25
100
AcDbCircle
 10
7.4359074328
 20
12.5682816917
 30
0.0
 40
7.864811332128317
100
AcDbArc
 50
295.1903160835
 51
353.4895429589
  0
ARC
  5
40B
330
3A7
100
AcDbEntity
  8
0
  6
Continuous
 62
     7
370
    25
100
AcDbCircle
 10
-0.0126891042
 20
22.9494621932
 30
0.0
 40
14.42128721403375
100
AcDbArc
 50
60.7864863
 51
118.1625086098
  0
ARC
  5
40C
330
3A7
100
AcDbEntity
  8
0
  6
Continuous
 62
     7
370
    25
100
AcDbCircle
 10
-7.6284175558
 20
22.5967514926
 30
0.0
 40
4.628949522835284
100
AcDbArc
 50
147.928814429
 51
174.2295797382
  0
ARC
  5
40D
330
3A7
100
AcDbEntity
  8
0
  6
Continuous
 62
     7
370
    25
100
AcDbCircle
 10
7.6846132062
 20
22.6154864447
 30
0.0
 40
4.571416290999745
100
AcDbArc
 50
5.9493956534
 51
32.2577527031
  0
ARC
  5
40E
330
3A7
100
AcDbEntity
  8
0
  6
Continuous
 62
     7
370
    25
100
AcDbCircle
 10
-10.8049989442
 20
11.2689826166
 30
0.0
 40
5.931393266501976
100
AcDbArc
 50
150.3640618502
 51
209.1023488879
  0
ARC
  5
40F
330
3A7
100
AcDbEntity
  8
0
  6
Continuous
 62
     7
370
    25
100
AcDbCircle
 10
10.820361105
 20
11.2680139563
 30
0.0
 40
5.91784505295614
100
AcDbArc
 50
330.5841328995
 51
29.2439445819
  0
ARC
  5
410
330
3A7
100
AcDbEntity
  8
0
  6
Continuous
 62
     8
370
    25
100
AcDbCircle
 10
6.358168645
 20
26.1025166241
 30
0.0
 40
9.496978443367347
100
AcDbArc
 50
297.7723535749
 51
330.3619007033
  0
ARC
  5
411
330
3A7
100
AcDbEntity
  8
0
  6
Continuous
 62
     8
370
    25
100
AcDbCircle
 10
-7.9102686719
 20
23.8892997638
 30
0.0
 40
4.341763746169385
100
AcDbArc
 50
158.1074100624
 51
175.2525807903
  0
ARC
  5
412
330
3A7
100
AcDbEntity
  8
0
  6
Continuous
 62
     8
370
    25
100
AcDbCircle
 10
0.0
 20
33.8717985235
 30
0.0
 40
13.56939760797204
100
AcDbArc
 50
240.4799419868
 51
299.5200580132
  0
ARC
  5
413
330
3A7
100
AcDbEntity
  8
0
  6
Continuous
 62
     8
370
    25
100
AcDbCircle
 10
6.8920558454
 20
13.7718670484
 30
0.0
 40
10.57245576782693
100
AcDbArc
 50
297.9295330385
 51
329.220044888
  0
VIEWPORT
  5
41A
330
3A7
100
AcDbEntity
  8
0
100
AcDbViewport
 10
0.0
 20
0.0
 30
0.0
 40
205.6
 41
156.0
 68
     1
 69
     1
 12
0.0
 22
21.8991161524
 13
0.0
 23
0.0
 14
10.0
 24
10.0
 15
10.0
 25
10.0
 16
0.0
 26
0.0
 36
1.0
 17
0.0
 27
0.0
 37
0.0
 42
50.0
 43
0.0
 44
0.0
 45
154.7859922179
 50
0.0
 51
0.0
 72
   100
 90
   557152
  1

281
     0
 71
     1
 74
     0
110
0.0
120
0.0
130
0.0
111
1.0
121
0.0
131
0.0
112
0.0
122
1.0
132
0.0
 79
     0
146
0.0
  0
ENDBLK
  5
3AA
330
3A7
100
AcDbEntity
  8
0
100
AcDbBlockEnd
  0
ENDSEC
  0
SECTION
  2
ENTITIES
  0
SPLINE
  5
77
330
1F
100
AcDbEntity
  8
0
  6
Continuous
 62
     7
370
    25
100
AcDbSpline
210
0.0
220
0.0
230
1.0
 70
     8
 71
     3
 72
    11
 73
     7
 74
     0
 42
0.000000001
 43
0.00000001
 40
0.0
 40
0.0
 40
0.0
 40
0.0
 40
0.2439754005050109
 40
0.6281519585664401
 40
0.9638495960722895
 40
1.0
 40
1.0
 40
1.0
 40
1.0
 10
1.289972258994784
 20
-5.0012532735677
 30
0.0
 10
1.289382397486175
 20
-4.584630905168755
 30
0.0
 10
1.287863708875975
 20
-3.511972939854699
 30
0.0
 10
1.648167260347552
 20
-1.915241681788242
 30
0.0
 10
2.061234074719263
 20
-0.6510198759646473
 30
0.0
 10
2.47334562161248
 20
-0.1696857716755977
 30
0.0
 10
2.513410371788461
 20
-0.1228913278292637
 30
0.0
  0
SPLINE
  5
78
330
1F
100
AcDbEntity
  8
0
  6
Continuous
 62
     7
370
    25
100
AcDbSpline
210
0.0
220
0.0
230
1.0
 70
     8
 71
     3
 72
    11
 73
     7
 74
     0
 42
0.000000001
 43
0.00000001
 40
0.0
 40
0.0
 40
0.0
 40
0.0
 40
0.033475654015336
 40
0.3700833976246417
 40
0.7553014924478255
 40
1.0
 40
1.0
 40
1.0
 40
1.0
 10
-2.504367390201093
 20
-0.1337312521234105
 30
0.0
 10
-2.467409070757926
 20
-0.1769743049055937
 30
0.0
 10
-2.058823762050947
 20
-0.6550392260557327
 30
0.0
 10
-1.648618200301948
 20
-1.915546083219938
 30
0.0
 10
-1.287778238258785
 20
-3.512028516262412
 30
0.0
 10
-1.289352267645566
 20
-4.584826237903887
 30
0.0
 10
-1.289963717860303
 20
-5.001567121381376
 30
0.0
  0
SPLINE
  5
7B
330
1F
100
AcDbEntity
  8
0
  6
Continuous
 62
     7
370
    25
100
AcDbSpline
210
0.0
220
0.0
230
1.0
 70
     8
 71
     3
 72
    11
 73
     7
 74
     0
 42
0.000000001
 43
0.00000001
 40
0.0
 40
0.0
 40
0.0
 40
0.0
 40
0.2451212434285132
 40
0.6309476542032212
 40
0.9680869508797186
 40
1.0
 40
1.0
 40
1.0
 40
1.0
 10
20.32490678609124
 20
-5.001751678653684
 30
0.0
 10
20.32428260392495
 20
-4.584941078079906
 30
0.0
 10
20.32267594483613
 20
-3.512061114676172
 30
0.0
 10
20.68383213356198
 20
-1.915725536202655
 30
0.0
 10
21.09236731105517
 20
-0.6573756444131184
 30
0.0
 10
21.49890098174784
 20
-0.1812121364622062
 30
0.0
 10
21.53405515201563
 20
-0.1400368679898845
 30
0.0
  0
SPLINE
  5
7C
330
1F
100
AcDbEntity
  8
0
  6
Continuous
 62
     7
370
    25
100
AcDbSpline
210
0.0
220
0.0
230
1.0
 70
     8
 71
     3
 72
    11
 73
     7
 74
     0
 42
0.000000001
 43
0.00000001
 40
0.0
 40
0.0
 40
0.0
 40
0.0
 40
0.03195864857867
 40
0.3690824350613701
 40
0.754891095777084
 40
1.0
 40
1.0
 40
1.0
 40
1.0
 10
16.53568775963866
 20
-0.139853141627809
 30
0.0
 10
16.57089446703287
 20
-0.181088679353722
 30
0.0
 10
16.97748792055649
 20
-0.6573075857158259
 30
0.0
 10
17.38607183103476
 20
-1.915720282382995
 30
0.0
 10
17.74721876166338
 20
-3.512060162076998
 30
0.0
 10
17.74561305791835
 20
-4.584937719302813
 30
0.0
 10
17.74498924855351
 20
-5.001746280406286
 30
0.0
  0
SPLINE
  5
7D
330
1F
100
AcDbEntity
  8
0
  6
Continuous
 62
     7
370
    25
100
AcDbSpline
210
0.0
220
0.0
230
1.0
 70
     8
 71
     3
 72
    11
 73
     7
 74
     0
 42
0.000000001
 43
0.00000001
 40
0.0
 40
0.0
 40
0.0
 40
0.0
 40
0.244792395945102
 40
0.6301456327208429
 40
0.9668714648320257
 40
1.0
 40
1.0
 40
1.0
 40
1.0
 10
-17.74498548668251
 20
-5.001608042504276
 30
0.0
 10
-17.74559975751194
 20
-4.584851702543937
 30
0.0
 10
-17.74718101610856
 20
-3.512035749577716
 30
0.0
 10
-17.38627099003646
 20
-1.915585843215238
 30
0.0
 10
-16.97643656155406
 20
-0.6555589851784637
 30
0.0
 10
-16.5683075401499
 20
-0.17791698379813
 30
0.0
 10
-16.53175067389434
 20
-0.1351337122179226
 30
0.0
  0
SPLINE
  5
7E
330
1F
100
AcDbEntity
  8
0
  6
Continuous
 62
     7
370
    25
100
AcDbSpline
210
0.0
220
0.0
230
1.0
 70
     8
 71
     3
 72
    11
 73
     7
 74
     0
 42
0.000000001
 43
0.00000001
 40
0.0
 40
0.0
 40
0.0
 40
0.0
 40
0.0355859427893811
 40
0.3714756674547269
 40
0.7558720524542694
 40
1.0
 40
1.0
 40
1.0
 40
1.0
 10
-21.54644600488667
 20
-0.1251838125956861
 30
0.0
 10
-21.50703873348937
 20
-0.1712275351068819
 30
0.0
 10
-21.09567285984862
 20
-0.6518702049717711
 30
0.0
 10
-20.68321008611233
 20
-1.915305631511832
 30
0.0
 10
-20.32279384333683
 20
-3.511984644282432
 30
0.0
 10
-20.32432415725292
 20
-4.584671995808035
 30
0.0
 10
-20.32491855332654
 20
-5.001319288404853
 30
0.0
  0
SPLINE
  5
83
330
1F
100
AcDbEntity
  8
0
  6
Continuous
 62
     7
370
    25
100
AcDbSpline
210
0.0
220
0.0
230
1.0
 70
     8
 71
     3
 72
    11
 73
     7
 74
     0
 42
0.000000001
 43
0.00000001
 40
0.0
 40
0.0
 40
0.0
 40
0.0
 40
0.245070898863725
 40
0.6308248862512059
 40
0.9679008985865752
 40
1.0
 40
1.0
 40
1.0
 40
1.0
 10
-35.48273663146332
 20
-5.001729657766601
 30
0.0
 10
-35.48335929303226
 20
-4.584927376633033
 30
0.0
 10
-35.48496205539702
 20
-3.512057228425302
 30
0.0
 10
-35.12384362958468
 20
-1.915704106343626
 30
0.0
 10
-34.71510961024931
 20
-0.6570979092023511
 30
0.0
 10
-34.30833198410186
 20
-0.180708334618012
 30
0.0
 10
-34.27296341296002
 20
-0.1392871317866459
 30
0.0
  0
SPLINE
  5
84
330
1F
100
AcDbEntity
  8
0
  6
Continuous
 62
     7
370
    25
100
AcDbSpline
210
0.0
220
0.0
230
1.0
 70
     8
 71
     3
 72
    11
 73
     7
 74
     0
 42
0.000000001
 43
0.00000001
 40
0.0
 40
0.0
 40
0.0
 40
0.0
 40
0.0318287224054424
 40
0.3689967017336417
 40
0.7548559372922353
 40
1.0
 40
1.0
 40
1.0
 40
1.0
 10
-39.27151958367379
 20
-0.1403765870698626
 30
0.0
 10
-39.23646255232723
 20
-0.1814404114950027
 30
0.0
 10
-38.83003942372446
 20
-0.6575014855284347
 30
0.0
 10
-38.42159436594289
 20
-1.915735254763861
 30
0.0
 10
-38.06042105152187
 20
-3.51206287651857
 30
0.0
 10
-38.06202947780533
 20
-4.58494729063479
 30
0.0
 10
-38.06265434958458
 20
-5.001761663578478
 30
0.0
  0
SPLINE
  5
85
330
1F
100
AcDbEntity
  8
0
  6
Continuous
 62
     7
370
    25
100
AcDbSpline
210
0.0
220
0.0
230
1.0
 70
     8
 71
     3
 72
    11
 73
     7
 74
     0
 42
0.000000001
 43
0.00000001
 40
0.0
 40
0.0
 40
0.0
 40
0.0
 40
0.2446574003778147
 40
0.6298163193608292
 40
0.9663723544800573
 40
1.0
 40
1.0
 40
1.0
 40
1.0
 10
38.06266013115413
 20
-5.001549217214796
 30
0.0
 10
38.06204991462151
 20
-4.584815096108176
 30
0.0
 10
38.06047904723719
 20
-3.512025350520569
 30
0.0
 10
38.42128836339341
 20
-1.915528692284941
 30
0.0
 10
38.8316564450087
 20
-0.6548115072347732
 30
0.0
 10
39.24044164258461
 20
-0.1765613071058117
 30
0.0
 10
39.27757586658429
 20
-0.1331168522556922
 30
0.0
  0
SPLINE
  5
86
330
1F
100
AcDbEntity
  8
0
  6
Continuous
 62
     7
370
    25
100
AcDbSpline
210
0.0
220
0.0
230
1.0
 70
     8
 71
     3
 72
    11
 73
     7
 74
     0
 42
0.000000001
 43
0.00000001
 40
0.0
 40
0.0
 40
0.0
 40
0.0
 40
0.0363901836929035
 40
0.3720062197367385
 40
0.7560893920696232
 40
1.0
 40
1.0
 40
1.0
 40
1.0
 10
34.25847248958262
 20
-0.121916697990887
 30
0.0
 10
34.29881684392073
 20
-0.1690302487785851
 30
0.0
 10
34.71124539530422
 20
-0.6506583184473953
 30
0.0
 10
35.12456883960321
 20
-1.915214562833979
 30
0.0
 10
35.48482460244492
 20
-3.511967971847756
 30
0.0
 10
35.48331084357639
 20
-4.584613471392256
 30
0.0
 10
35.4827229048778
 20
-5.001225266142842
 30
0.0
  0
SPLINE
  5
8B
330
1F
100
AcDbEntity
  8
0
  6
Continuous
 62
     7
370
    25
100
AcDbSpline
210
0.0
220
0.0
230
1.0
 70
     8
 71
     3
 72
    11
 73
     7
 74
     0
 42
0.000000001
 43
0.00000001
 40
0.0
 40
0.0
 40
0.0
 40
0.0
 40
0.2441869079119869
 40
0.6286682424922749
 40
0.9646321970213753
 40
1.0
 40
1.0
 40
1.0
 40
1.0
 10
53.29441507099413
 20
-5.001344831499752
 30
0.0
 10
53.29381891945671
 20
-4.584687894385282
 30
0.0
 10
53.29228410523393
 20
-3.511989171027099
 30
0.0
 10
53.65274397100168
 20
-1.915330386576496
 30
0.0
 10
54.06497334157209
 20
-0.6521985171442958
 30
0.0
 10
54.47605126305779
 20
-0.1718228373514229
 30
0.0
 10
54.5152047225775
 20
-0.1260690550391637
 30
0.0
  0
SPLINE
  5
8C
330
1F
100
AcDbEntity
  8
0
  6
Continuous
 62
     7
370
    25
100
AcDbSpline
210
0.0
220
0.0
230
1.0
 70
     8
 71
     3
 72
    11
 73
     7
 74
     0
 42
0.000000001
 43
0.00000001
 40
0.0
 40
0.0
 40
0.0
 40
0.0
 40
0.0329989255273097
 40
0.3697688490687366
 40
0.7551725446264848
 40
0.9999999999999999
 40
0.9999999999999999
 40
0.9999999999999999
 40
0.9999999999999999
 10
49.50168452846803
 20
-0.135657119815686
 30
0.0
 10
49.53809159660667
 20
-0.1782687798382414
 30
0.0
 10
49.94605032460984
 20
-0.6557529473275419
 30
0.0
 10
50.35574618750027
 20
-1.915600704257205
 30
0.0
 10
50.71668240129248
 20
-3.512038451603781
 30
0.0
 10
50.71509844059942
 20
-4.584861217465933
 30
0.0
 10
50.71448311546781
 20
-5.00162333315109
 30
0.0
  0
SPLINE
  5
8D
330
1F
100
AcDbEntity
  8
0
  6
Continuous
 62
     7
370
    25
100
AcDbSpline
210
0.0
220
0.0
230
1.0
 70
     8
 71
     3
 72
    11
 73
     7
 74
     0
 42
0.000000001
 43
0.00000001
 40
0.0
 40
0.0
 40
0.0
 40
0.0
 40
0.2437437693773409
 40
0.6275864306756931
 40
0.962992305573476
 40
1.0
 40
1.0
 40
1.0
 40
1.0
 10
-50.71447032218013
 20
-5.001153234927984
 30
0.0
 10
-50.71505331840272
 20
-4.584568632291306
 30
0.0
 10
-50.7165544050535
 20
-3.511955188628405
 30
0.0
 10
-50.35642148942118
 20
-1.915144849991671
 30
0.0
 10
-49.94243703640844
 20
-0.649726248478203
 30
0.0
 10
-49.52919141666525
 20
-0.1673404404423512
 30
0.0
 10
-49.48812613634718
 20
-0.1194045217488594
 30
0.0
  0
SPLINE
  5
8E
330
1F
100
AcDbEntity
  8
0
  6
Continuous
 62
     7
370
    25
100
AcDbSpline
210
0.0
220
0.0
230
1.0
 70
     8
 71
     3
 72
    11
 73
     7
 74
     0
 42
0.000000001
 43
0.00000001
 40
0.0
 40
0.0
 40
0.0
 40
0.0
 40
0.0340297571065909
 40
0.3704489866821498
 40
0.7554513436968531
 40
1.0
 40
1.0
 40
1.0
 40
1.0
 10
-54.51068201830355
 20
-0.1314904717646184
 30
0.0
 10
-54.47308205971651
 20
-0.1754679937521209
 30
0.0
 10
-54.06376774947229
 20
-0.6542086561092779
 30
0.0
 10
-53.65296966284733
 20
-1.915482737055888
 30
0.0
 10
-53.29224132792728
 20
-3.512016979546409
 30
0.0
 10
-53.29380383999683
 20
-4.584785643568935
 30
0.0
 10
-53.29441079673106
 20
-5.001501890165422
 30
0.0
  0
SPLINE
  5
93
330
1F
100
AcDbEntity
  8
0
  6
Continuous
 62
     7
370
    25
100
AcDbSpline
210
0.0
220
0.0
230
1.0
 70
     8
 71
     3
 72
    11
 73
     7
 74
     0
 42
0.000000001
 43
0.00000001
 40
0.0
 40
0.0
 40
0.0
 40
0.0
 40
0.2440836842549178
 40
0.6284162902499516
 40
0.964250284130356
 40
1.0
 40
1.0
 40
1.0
 40
1.0
 10
21.79397352324004
 20
-5.001300120712672
 30
0.0
 10
21.79338044401183
 20
-4.58466006510785
 30
0.0
 10
21.79185350602929
 20
-3.51198124631687
 30
0.0
 10
22.15223702448842
 20
-1.915287061257886
 30
0.0
 10
22.56487504237942
 20
-0.6516236066280088
 30
0.0
 10
22.97645718211871
 20
-0.170780407974306
 30
0.0
 10
23.01605510895623
 20
-0.1245189404269695
 30
0.0
  0
SPLINE
  5
94
330
1F
100
AcDbEntity
  8
0
  6
Continuous
 62
     7
370
    25
100
AcDbSpline
210
0.0
220
0.0
230
1.0
 70
     8
 71
     3
 72
    11
 73
     7
 74
     0
 42
0.000000001
 43
0.00000001
 40
0.0
 40
0.0
 40
0.0
 40
0.0
 40
0.0337430663426002
 40
0.3702598340621097
 40
0.7553738149437546
 40
1.0
 40
1.0
 40
1.0
 40
1.0
 10
-23.00927181063348
 20
-0.132650156837489
 30
0.0
 10
-22.97200395688558
 20
-0.1762475867813813
 30
0.0
 10
-22.56306692655034
 20
-0.6546385253126813
 30
0.0
 10
-22.15257542357645
 20
-1.915515493349434
 30
0.0
 10
-21.79178936634975
 20
-3.512022946400562
 30
0.0
 10
-21.79335783393626
 20
-4.584806637119629
 30
0.0
 10
-21.79396711418043
 20
-5.001535624479549
 30
0.0
  0
SPLINE
  5
97
330
1F
100
AcDbEntity
  8
0
  6
Continuous
 62
     7
370
    25
100
AcDbSpline
210
0.0
220
0.0
230
1.0
 70
     8
 71
     3
 72
    11
 73
     7
 74
     0
 42
0.000000001
 43
0.00000001
 40
0.0
 40
0.0
 40
0.0
 40
0.0
 40
0.2441869075960242
 40
0.6286682423302546
 40
0.9646321969938713
 40
1.0
 40
1.0
 40
1.0
 40
1.0
 10
39.17642632836723
 20
-5.001344829389677
 30
0.0
 10
39.17583017684876
 20
-4.584687892982959
 30
0.0
 10
39.17429536267309
 20
-3.511989170335378
 30
0.0
 10
39.53475522834425
 20
-1.915330386577103
 30
0.0
 10
39.94698459891472
 20
-0.6521985171248739
 30
0.0
 10
40.35806252041753
 20
-0.1718228373162739
 30
0.0
 10
40.39721597995226
 20
-0.1260690549868999
 30
0.0
  0
SPLINE
  5
98
330
1F
100
AcDbEntity
  8
0
  6
Continuous
 62
     7
370
    25
100
AcDbSpline
210
0.0
220
0.0
230
1.0
 70
     8
 71
     3
 72
    11
 73
     7
 74
     0
 42
0.000000001
 43
0.00000001
 40
0.0
 40
0.0
 40
0.0
 40
0.0
 40
0.0340297571238634
 40
0.3704489868375197
 40
0.7554513440102563
 40
1.0
 40
1.0
 40
1.0
 40
1.0
 10
-40.39269327573086
 20
-0.1314904717516913
 30
0.0
 10
-40.3550933171401
 20
-0.1754679937434264
 30
0.0
 10
-39.94577900689148
 20
-0.6542086561044727
 30
0.0
 10
-39.53498092027684
 20
-1.915482737057564
 30
0.0
 10
-39.17425258545143
 20
-3.51201697885542
 30
0.0
 10
-39.17581509747406
 20
-4.584785642168312
 30
0.0
 10
-39.17642205418941
 20
-5.001501888057942
 30
0.0
  0
SPLINE
  5
9B
330
1F
100
AcDbEntity
  8
0
  6
Continuous
 62
     7
370
    25
100
AcDbSpline
210
0.0
220
0.0
230
1.0
 70
     8
 71
     3
 72
    11
 73
     7
 74
     0
 42
0.000000001
 43
0.00000001
 40
0.0
 40
0.0
 40
0.0
 40
0.0
 40
0.2449063879394859
 40
0.6304236753504422
 40
0.9672928566835359
 40
1.0
 40
1.0
 40
1.0
 40
1.0
 10
-62.40221642441061
 20
-5.001657778380832
 30
0.0
 10
-62.40283412526315
 20
-4.584882651258185
 30
0.0
 10
-62.40442417460817
 20
-3.512044536883526
 30
0.0
 10
-62.04342895273994
 20
-1.915634190263142
 30
0.0
 10
-61.63404501291986
 20
-0.6561893853796914
 30
0.0
 10
-61.22646950027669
 20
-0.1790603828875255
 30
0.0
 10
-61.19039946598285
 20
-0.1368349327595976
 30
0.0
  0
SPLINE
  5
9C
330
1F
100
AcDbEntity
  8
0
  6
Continuous
 62
     7
370
    25
100
AcDbSpline
210
0.0
220
0.0
230
1.0
 70
     8
 71
     3
 72
    11
 73
     7
 74
     0
 42
0.000000001
 43
0.00000001
 40
0.0
 40
0.0
 40
0.0
 40
0.0
 40
0.0348569632991493
 40
0.3709947416141607
 40
0.7556750023003269
 40
1.0
 40
1.0
 40
1.0
 40
1.0
 10
-66.20120896552828
 20
-0.1281405822897742
 30
0.0
 10
-66.16264928252583
 20
-0.1732157770480657
 30
0.0
 10
-65.75224521176825
 20
-0.6529666976616209
 30
0.0
 10
-65.34056235494579
 20
-1.915388448233329
 30
0.0
 10
-64.98000017390888
 20
-3.51199977930074
 30
0.0
 10
-64.98154554363241
 20
-4.584725166662331
 30
0.0
 10
-64.98214581278616
 20
-5.001404716324747
 30
0.0
  0
SPLINE
  5
A1
330
1F
100
AcDbEntity
  8
0
  6
Continuous
 62
     7
370
    25
100
AcDbSpline
210
0.0
220
0.0
230
1.0
 70
     8
 71
     3
 72
    11
 73
     7
 74
     0
 42
0.000000001
 43
0.00000001
 40
0.0
 40
0.0
 40
0.0
 40
0.0
 40
0.245150235566603
 40
0.6310183503675927
 40
0.9681940884739625
 40
1.0
 40
1.0
 40
1.0
 40
1.0
 10
64.98213602510164
 20
-5.001764365001368
 30
0.0
 10
64.98151096672525
 20
-4.584948971432839
 30
0.0
 10
64.9799020622727
 20
-3.512063353152565
 30
0.0
 10
65.34108001037426
 20
-1.915737884298462
 30
0.0
 10
65.74950069063561
 20
-0.6575355219982821
 30
0.0
 10
66.15589392002644
 20
-0.1815021538455024
 30
0.0
 10
66.1909246786337
 20
-0.1404684731570668
 30
0.0
  0
SPLINE
  5
A2
330
1F
100
AcDbEntity
  8
0
  6
Continuous
 62
     7
370
    25
100
AcDbSpline
210
0.0
220
0.0
230
1.0
 70
     8
 71
     3
 72
    11
 73
     7
 74
     0
 42
0.000000001
 43
0.00000001
 40
0.0
 40
0.0
 40
0.0
 40
0.0
 40
0.0321674448252482
 40
0.3692202102857533
 40
0.7549475936589808
 40
1.0
 40
1.0
 40
1.0
 40
1.0
 10
61.19221535306095
 20
-0.1390116570334915
 30
0.0
 10
61.22766270890837
 20
-0.1805232181305988
 30
0.0
 10
61.63452997023929
 20
-0.6569958568754322
 30
0.0
 10
62.04333703392891
 20
-1.915696238716774
 30
0.0
 10
62.4044415956279
 20
-3.512055801206043
 30
0.0
 10
62.40284026389699
 20
-4.584922345515531
 30
0.0
 10
62.40221816058867
 20
-5.001721571890421
 30
0.0
  0
SPLINE
  5
A3
330
1F
100
AcDbEntity
  8
0
  6
Continuous
 62
     7
370
    25
100
AcDbSpline
210
0.0
220
0.0
230
1.0
 70
     8
 71
     3
 72
    11
 73
     7
 74
     0
 42
0.000000001
 43
0.00000001
 40
0.0
 40
0.0
 40
0.0
 40
0.0
 40
0.0327897273775021
 40
0.3696308159575648
 40
0.7551159536720019
 40
1.0
 40
1.0
 40
1.0
 40
1.0
 10
46.99898476402718
 20
-0.136501643179316
 30
0.0
 10
47.03515016234434
 20
-0.1788363854563768
 30
0.0
 10
47.44283411578188
 20
-0.6560658894125271
 30
0.0
 10
47.85230633720996
 20
-1.915624708359973
 30
0.0
 10
48.21328485025866
 20
-3.512042813523054
 30
0.0
 10
48.21169652502075
 20
-4.584876581495849
 30
0.0
 10
48.21107949690295
 20
-5.00164802399201
 30
0.0
  0
SPLINE
  5
A4
330
1F
100
AcDbEntity
  8
0
  6
Continuous
 62
     7
370
    25
100
AcDbSpline
210
0.0
220
0.0
230
1.0
 70
     8
 71
     3
 72
    11
 73
     7
 74
     0
 42
0.000000001
 43
0.00000001
 40
0.0
 40
0.0
 40
0.0
 40
0.0
 40
0.2436204852412469
 40
0.6272853805578793
 40
0.9625359216154321
 40
1.0
 40
1.0
 40
1.0
 40
1.0
 10
-48.21106458519414
 20
-5.001100086570245
 30
0.0
 10
-48.21164393726195
 20
-4.584535545902716
 30
0.0
 10
-48.21313567996976
 20
-3.511945750505202
 30
0.0
 10
-47.85309335012683
 20
-1.915093444798653
 30
0.0
 10
-47.43862026809212
 20
-0.6490365101094603
 30
0.0
 10
-47.02477014776379
 20
-0.1660900477173585
 30
0.0
 10
-46.9831712607369
 20
-0.1175458179533406
 30
0.0
  0
SPLINE
  5
A7
330
1F
100
AcDbEntity
  8
0
  6
Continuous
 62
     7
370
    25
100
AcDbSpline
210
0.0
220
0.0
230
1.0
 70
     8
 71
     3
 72
    11
 73
     7
 74
     0
 42
0.000000001
 43
0.00000001
 40
0.0
 40
0.0
 40
0.0
 40
0.0
 40
0.2445015452995294
 40
0.6294360664988315
 40
0.9657960204041538
 40
1.0
 40
1.0
 40
1.0
 40
1.0
 10
72.32935944500564
 20
-5.001481403105561
 30
0.0
 10
72.32875389882985
 20
-4.584772893703078
 30
0.0
 10
72.32719500233077
 20
-3.512013354643441
 30
0.0
 10
72.68788829381218
 20
-1.915462850626042
 30
0.0
 10
73.09887270619818
 20
-0.6539472817773638
 30
0.0
 10
73.5084163921694
 20
-0.1749939889541044
 30
0.0
 10
73.54621830059104
 20
-0.1307853998982061
 30
0.0
  0
SPLINE
  5
A8
330
1F
100
AcDbEntity
  8
0
  6
Continuous
 62
     7
370
    25
100
AcDbSpline
210
0.0
220
0.0
230
1.0
 70
     8
 71
     3
 72
    11
 73
     7
 74
     0
 42
0.000000001
 43
0.00000001
 40
0.0
 40
0.0
 40
0.0
 40
0.0
 40
0.0374359750857177
 40
0.3726948855416097
 40
0.7563693589019626
 40
1.0
 40
1.0
 40
1.0
 40
1.0
 10
68.5216187285789
 20
-0.117659799233838
 30
0.0
 10
68.56318488790777
 20
-0.1661667290081131
 30
0.0
 10
68.97699793693364
 20
-0.6490788102028398
 30
0.0
 10
69.39144119757762
 20
-1.915096575349617
 30
0.0
 10
69.75148978241766
 20
-3.511952090969227
 30
0.0
 10
69.74999721237086
 20
-4.584549244699907
 30
0.0
 10
69.74941753305848
 20
-5.001120903658808
 30
0.0
  0
SPLINE
  5
A9
330
1F
100
AcDbEntity
  8
0
  6
Continuous
 62
     7
370
    25
100
AcDbSpline
210
0.0
220
0.0
230
1.0
 70
     8
 71
     3
 72
    11
 73
     7
 74
     0
 42
0.000000001
 43
0.00000001
 40
0.0
 40
0.0
 40
0.0
 40
0.0
 40
0.244999255083779
 40
0.6306501685994984
 40
0.9676361138702599
 40
1.0
 40
1.0
 40
1.0
 40
1.0
 10
-69.74943324764028
 20
-5.00169833987324
 30
0.0
 10
-69.7500537472914
 20
-4.584907890108021
 30
0.0
 10
-69.75165096932973
 20
-3.512051699891383
 30
0.0
 10
-69.39058623484094
 20
-1.91567363745742
 30
0.0
 10
-68.98156920914803
 20
-0.6567024334827621
 30
0.0
 10
-68.57444424130578
 20
-0.17999097503155
 30
0.0
 10
-68.5387703490236
 20
-0.138219640523133
 30
0.0
  0
SPLINE
  5
AA
330
1F
100
AcDbEntity
  8
0
  6
Continuous
 62
     7
370
    25
100
AcDbSpline
210
0.0
220
0.0
230
1.0
 70
     8
 71
     3
 72
    11
 73
     7
 74
     0
 42
0.000000001
 43
0.00000001
 40
0.0
 40
0.0
 40
0.0
 40
0.0
 40
0.031777793455034
 40
0.368963095471429
 40
0.7548421553301852
 40
1.0
 40
1.0
 40
1.0
 40
1.0
 10
-73.5380459143699
 20
-0.1405817316814419
 30
0.0
 10
-73.50304753883584
 20
-0.1815782568647117
 30
0.0
 10
-73.09669116321783
 20
-0.6575774748908068
 30
0.0
 10
-72.68830053192583
 20
-1.915741125976936
 30
0.0
 10
-72.32711687145532
 20
-3.512063940708604
 30
0.0
 10
-72.32872636537364
 20
-4.584951043443638
 30
0.0
 10
-72.32935165377944
 20
-5.001767695200419
 30
0.0
  0
LWPOLYLINE
  5
B9
330
1F
100
AcDbEntity
  8
0
  6
Continuous
 62
     7
370
    25
100
AcDbPolyline
 90
        3
 70
   128
 43
0.0
 10
-9.1724137931
 20
30.9029061605
 10
-10.0215115111
 20
30.1021502612
 10
-10.3076191837
 20
29.8
  0
LWPOLYLINE
  5
BA
330
1F
100
AcDbEntity
  8
0
  6
Continuous
 62
     7
370
    25
100
AcDbPolyline
 90
        3
 70
   128
 43
0.0
 10
10.3076191837
 20
29.8
 10
10.0215115111
 20
30.1021502612
 10
9.1724137931
 20
30.9029061605
  0
SPLINE
  5
C1
330
1F
100
AcDbEntity
  8
0
  6
Continuous
 62
     7
370
    25
100
AcDbSpline
210
0.0
220
0.0
230
1.0
 70
     8
 71
     3
 72
    11
 73
     7
 74
     0
 42
0.000000001
 43
0.00000001
 40
0.0
 40
0.0
 40
0.0
 40
0.0
 40
0.2438450853972501
 40
0.627833809716286
 40
0.9633673160626347
 40
1.0
 40
1.0
 40
1.0
 40
1.0
 10
33.24618916582788
 20
-5.001196962377375
 30
0.0
 10
33.24560316968197
 20
-4.584595852744052
 30
0.0
 10
33.24409439130259
 20
-3.511962949903229
 30
0.0
 10
33.60430187283713
 20
-1.915187164333386
 30
0.0
 10
34.01788488145845
 20
-0.6502924507454343
 30
0.0
 10
34.43063418389855
 20
-0.1683669298105303
 30
0.0
 10
34.47126150345741
 20
-0.1209305270671764
 30
0.0
  0
SPLINE
  5
C2
330
1F
100
AcDbEntity
  8
0
  6
Continuous
 62
     7
370
    25
100
AcDbSpline
210
0.0
220
0.0
230
1.0
 70
     8
 71
     3
 72
    11
 73
     7
 74
     0
 42
0.000000001
 43
0.00000001
 40
0.0
 40
0.0
 40
0.0
 40
0.0
 40
0.0356926616047364
 40
0.3715460706670177
 40
0.7559008956380336
 40
0.9999999999999999
 40
0.9999999999999999
 40
0.9999999999999999
 40
0.9999999999999999
 10
29.44435605293541
 20
-0.1247505895886972
 30
0.0
 10
29.48388755059107
 20
-0.1709361940047567
 30
0.0
 10
29.89539434109595
 20
-0.6517095258509811
 30
0.0
 10
30.30797130736508
 20
-1.915293529175056
 30
0.0
 10
30.66836622358231
 20
-3.511982430405541
 30
0.0
 10
30.66683810976503
 20
-4.584664221693475
 30
0.0
 10
30.66624457188303
 20
-5.001306798495698
 30
0.0
  0
SPLINE
  5
C3
330
1F
100
AcDbEntity
  8
0
  6
Continuous
 62
     7
370
    25
100
AcDbSpline
210
0.0
220
0.0
230
1.0
 70
     8
 71
     3
 72
    11
 73
     7
 74
     0
 42
0.000000001
 43
0.00000001
 40
0.0
 40
0.0
 40
0.0
 40
0.0
 40
0.2446151664641111
 40
0.6297132834161232
 40
0.9662161890620945
 40
1.0
 40
1.0
 40
1.0
 40
1.0
 10
-30.66625066885072
 20
-5.001530830127867
 30
0.0
 10
-30.66685961870635
 20
-4.584803653610574
 30
0.0
 10
-30.66842723946581
 20
-3.51202209878439
 30
0.0
 10
-30.30764939000048
 20
-1.915510835558527
 30
0.0
 10
-29.89711431700171
 20
-0.6545774498502785
 30
0.0
 10
-29.48812368022396
 20
-0.1761368212360725
 30
0.0
 10
-29.45080864371455
 20
-0.1324853829905021
 30
0.0
  0
SPLINE
  5
C4
330
1F
100
AcDbEntity
  8
0
  6
Continuous
 62
     7
370
    25
100
AcDbSpline
210
0.0
220
0.0
230
1.0
 70
     8
 71
     3
 72
    11
 73
     7
 74
     0
 42
0.000000001
 43
0.00000001
 40
0.0
 40
0.0
 40
0.0
 40
0.0
 40
0.0321664445117748
 40
0.3692195502280384
 40
0.7549473229952727
 40
1.0
 40
1.0
 40
1.0
 40
1.0
 10
-34.45617433252221
 20
-0.1390156893148198
 30
0.0
 10
-34.42072812992105
 20
-0.1805259278062285
 30
0.0
 10
-34.01386218062708
 20
-0.6569973506905767
 30
0.0
 10
-33.60505618607898
 20
-1.915696353858902
 30
0.0
 10
-33.24395142143494
 20
-3.512055822090733
 30
0.0
 10
-33.24555277412229
 20
-4.584922419145359
 30
0.0
 10
-33.24617488560816
 20
-5.001721690226502
 30
0.0
  0
SPLINE
  5
C7
330
1F
100
AcDbEntity
  8
0
  6
Continuous
 62
     7
370
    25
100
AcDbSpline
210
0.0
220
0.0
230
1.0
 70
     8
 71
     3
 72
     9
 73
     5
 74
     0
 42
0.000000001
 43
0.00000001
 40
0.0
 40
0.0
 40
0.0
 40
0.0
 40
0.6036125954882783
 40
1.0
 40
1.0
 40
1.0
 40
1.0
 10
9.36353213574735
 20
33.85829045974698
 30
0.0
 10
10.04452370919354
 20
33.92526396542554
 30
0.0
 10
11.17271682268435
 20
34.03621841895937
 30
0.0
 10
12.21171439686952
 20
34.4805045344002
 30
0.0
 10
12.62355994859475
 20
34.65661395456038
 30
0.0
  0
SPLINE
  5
C8
330
1F
100
AcDbEntity
  8
0
  6
Continuous
 62
     7
370
    25
100
AcDbSpline
210
0.0
220
0.0
230
1.0
 70
     8
 71
     3
 72
     9
 73
     5
 74
     0
 42
0.000000001
 43
0.00000001
 40
0.0
 40
0.0
 40
0.0
 40
0.0
 40
0.5477213546156185
 40
0.9999999999999999
 40
0.9999999999999999
 40
0.9999999999999999
 40
0.9999999999999999
 10
-12.67017420054824
 20
34.6842096459444
 30
0.0
 10
-12.08621582687617
 20
34.44286639473633
 30
0.0
 10
-11.02005623906554
 20
34.00223495107562
 30
0.0
 10
-9.872928113758467
 20
33.89653785841835
 30
0.0
 10
-9.354106559162263
 20
33.84873332053025
 30
0.0
  0
SPLINE
  5
CF
330
1F
100
AcDbEntity
  8
0
  6
Continuous
 62
     7
370
    25
100
AcDbSpline
210
0.0
220
0.0
230
1.0
 70
     8
 71
     3
 72
    10
 73
     6
 74
     0
 42
0.000000001
 43
0.00000001
 40
0.0
 40
0.0
 40
0.0
 40
0.0
 40
0.2451398960816938
 40
0.5137143691210911
 40
1.0
 40
1.0
 40
1.0
 40
1.0
 10
11.0
 20
-0.0999999999999994
 30
0.0
 10
11.20751315895997
 20
-0.4642110159347075
 30
0.0
 10
11.64237706011754
 20
-1.227450436642866
 30
0.0
 10
12.11995290891827
 20
-2.881870411993708
 30
0.0
 10
12.19904705389736
 20
-4.170108751849995
 30
0.0
 10
12.25
 20
-5.000000000000008
 30
0.0
  0
SPLINE
  5
D0
330
1F
100
AcDbEntity
  8
0
  6
Continuous
 62
     7
370
    25
100
AcDbSpline
210
0.0
220
0.0
230
1.0
 70
     8
 71
     3
 72
    10
 73
     6
 74
     0
 42
0.000000001
 43
0.00000001
 40
0.0
 40
0.0
 40
0.0
 40
0.0
 40
0.3199108967076886
 40
0.6055147282009645
 40
1.0
 40
1.0
 40
1.0
 40
1.0
 10
14.75
 20
-5.000000000000008
 30
0.0
 10
14.77693360177175
 20
-4.455470906961703
 30
0.0
 10
14.82791246096077
 20
-3.424807715548491
 30
0.0
 10
15.14768166664295
 20
-1.734239833429293
 30
0.0
 10
15.68710678647527
 20
-0.699943158723064
 30
0.0
 10
16.0
 20
-0.0999999999999994
 30
0.0
  0
SPLINE
  5
D5
330
1F
100
AcDbEntity
  8
0
  6
Continuous
 62
     7
370
    25
100
AcDbSpline
210
0.0
220
0.0
230
1.0
 70
     8
 71
     3
 72
    10
 73
     6
 74
     0
 42
0.000000001
 43
0.00000001
 40
0.0
 40
0.0
 40
0.0
 40
0.0
 40
0.2451398960816938
 40
0.513714369121091
 40
1.0
 40
1.0
 40
1.0
 40
1.0
 10
-16.0
 20
-0.0999999999999994
 30
0.0
 10
-15.79248684104003
 20
-0.4642110159347075
 30
0.0
 10
-15.35762293988246
 20
-1.227450436642866
 30
0.0
 10
-14.88004709108174
 20
-2.881870411993708
 30
0.0
 10
-14.80095294610264
 20
-4.170108751849995
 30
0.0
 10
-14.75
 20
-5.000000000000008
 30
0.0
  0
SPLINE
  5
D6
330
1F
100
AcDbEntity
  8
0
  6
Continuous
 62
     7
370
    25
100
AcDbSpline
210
0.0
220
0.0
230
1.0
 70
     8
 71
     3
 72
    10
 73
     6
 74
     0
 42
0.000000001
 43
0.00000001
 40
0.0
 40
0.0
 40
0.0
 40
0.0
 40
0.3199108967076886
 40
0.6055147282009642
 40
1.0
 40
1.0
 40
1.0
 40
1.0
 10
-12.25
 20
-5.000000000000008
 30
0.0
 10
-12.22306639822825
 20
-4.455470906961703
 30
0.0
 10
-12.17208753903922
 20
-3.424807715548494
 30
0.0
 10
-11.85231833335706
 20
-1.734239833429289
 30
0.0
 10
-11.31289321352473
 20
-0.699943158723064
 30
0.0
 10
-11.0
 20
-0.0999999999999994
 30
0.0
  0
SPLINE
  5
D7
330
1F
100
AcDbEntity
  8
0
  6
Continuous
 62
     7
370
    25
100
AcDbSpline
210
0.0
220
0.0
230
1.0
 70
     8
 71
     3
 72
    11
 73
     7
 74
     0
 42
0.000000001
 43
0.00000001
 40
0.0
 40
0.0
 40
0.0
 40
0.0
 40
0.2443780619764891
 40
0.6291347526422506
 40
0.9653393163012627
 40
1.0
 40
1.0
 40
1.0
 40
1.0
 10
74.83535936272482
 20
-5.001427751165625
 30
0.0
 10
74.83475750897037
 20
-4.584739503030049
 30
0.0
 10
74.833208077283
 20
-3.512003858105722
 30
0.0
 10
75.1938096302161
 20
-1.91541079093463
 30
0.0
 10
75.60528252609232
 20
-0.6532616090803162
 30
0.0
 10
76.01542786063293
 20
-0.1737505612890052
 30
0.0
 10
76.05375962078651
 20
-0.1289359530830432
 30
0.0
  0
SPLINE
  5
D8
330
1F
100
AcDbEntity
  8
0
  6
Continuous
 62
     7
370
    25
100
AcDbSpline
210
0.0
220
0.0
230
1.0
 70
     8
 71
     3
 72
    11
 73
     7
 74
     0
 42
0.000000001
 43
0.00000001
 40
0.0
 40
0.0
 40
0.0
 40
0.0
 40
0.0346606836987372
 40
0.3708652473577494
 40
0.755621938023511
 40
1.0
 40
1.0
 40
1.0
 40
1.0
 10
-76.05375962078651
 20
-0.1289359530830432
 30
0.0
 10
-76.01542786063291
 20
-0.1737505612890052
 30
0.0
 10
-75.60528252609238
 20
-0.6532616090803196
 30
0.0
 10
-75.19380963021607
 20
-1.91541079093463
 30
0.0
 10
-74.83320807728296
 20
-3.512003858105722
 30
0.0
 10
-74.83475750897038
 20
-4.584739503030049
 30
0.0
 10
-74.83535936272482
 20
-5.001427751165625
 30
0.0
  0
SPLINE
  5
DB
330
1F
100
AcDbEntity
  8
0
  6
Continuous
 62
     7
370
    25
100
AcDbSpline
210
0.0
220
0.0
230
1.0
 70
     8
 71
     3
 72
    11
 73
     7
 74
     0
 42
0.000000001
 43
0.00000001
 40
0.0
 40
0.0
 40
0.0
 40
0.0
 40
0.2443780616667433
 40
0.6291347524953774
 40
0.9653393162967081
 40
1.0
 40
1.0
 40
1.0
 40
1.0
 10
54.86950820970789
 20
-5.001427749060216
 30
0.0
 10
54.86890635596593
 20
-4.584739501630703
 30
0.0
 10
54.8673569243091
 20
-3.512003857414833
 30
0.0
 10
55.22795847715905
 20
-1.915410790937884
 30
0.0
 10
55.639431373009
 20
-0.6532616090949364
 30
0.0
 10
56.04957670753689
 20
-0.1737505613156366
 30
0.0
 10
56.08790846767916
 20
-0.1289359531226539
 30
0.0
  0
SPLINE
  5
DC
330
1F
100
AcDbEntity
  8
0
  6
Continuous
 62
     7
370
    25
100
AcDbSpline
210
0.0
220
0.0
230
1.0
 70
     8
 71
     3
 72
    11
 73
     7
 74
     0
 42
0.000000001
 43
0.00000001
 40
0.0
 40
0.0
 40
0.0
 40
0.0
 40
0.034660683716948
 40
0.3708652475137344
 40
0.7556219383371711
 40
1.0
 40
1.0
 40
1.0
 40
1.0
 10
-56.08790846761165
 20
-0.1289359530673648
 30
0.0
 10
-56.04957670745354
 20
-0.1737505612784615
 30
0.0
 10
-55.63943137290772
 20
-0.6532616090744493
 30
0.0
 10
-55.22795847704311
 20
-1.915410790936333
 30
0.0
 10
-54.86735692419587
 20
-3.512003857414046
 30
0.0
 10
-54.86890635585242
 20
-4.584739501628701
 30
0.0
 10
-54.86950820959427
 20
-5.0014277490571
 30
0.0
  0
LINE
  5
122
330
1F
100
AcDbEntity
  8
0
  6
Continuous
 62
     7
370
    25
100
AcDbLine
 10
100.0
 20
0.0
 30
0.0
 11
100.0
 21
2.0
 31
0.0
  0
LINE
  5
123
330
1F
100
AcDbEntity
  8
0
  6
Continuous
 62
     7
370
    25
100
AcDbLine
 10
-100.0
 20
2.0
 30
0.0
 11
-100.0
 21
0.0
 31
0.0
  0
LINE
  5
124
330
1F
100
AcDbEntity
  8
0
  6
Continuous
 62
     7
370
    25
100
AcDbLine
 10
86.0
 20
2.0
 30
0.0
 11
76.0
 21
5.0
 31
0.0
  0
LINE
  5
125
330
1F
100
AcDbEntity
  8
0
  6
Continuous
 62
     7
370
    25
100
AcDbLine
 10
-76.0
 20
5.0
 30
0.0
 11
-86.0
 21
2.0
 31
0.0
  0
LINE
  5
126
330
1F
100
AcDbEntity
  8
0
  6
Continuous
 62
     7
370
    25
100
AcDbLine
 10
2.5
 20
-0.1
 30
0.0
 11
2.5
 21
0.0
 31
0.0
  0
LINE
  5
127
330
1F
100
AcDbEntity
  8
0
  6
Continuous
 62
     7
370
    25
100
AcDbLine
 10
-2.5
 20
0.0
 30
0.0
 11
-2.5
 21
-0.1
 31
0.0
  0
LINE
  5
128
330
1F
100
AcDbEntity
  8
0
  6
Continuous
 62
     7
370
    25
100
AcDbLine
 10
21.5349480908
 20
-0.1
 30
0.0
 11
21.5349480908
 21
0.0
 31
0.0
  0
LINE
  5
129
330
1F
100
AcDbEntity
  8
0
  6
Continuous
 62
     7
370
    25
100
AcDbLine
 10
16.5349480908
 20
0.0
 30
0.0
 11
16.5349480908
 21
-0.1
 31
0.0
  0
LINE
  5
12A
330
1F
100
AcDbEntity
  8
0
  6
Continuous
 62
     7
370
    25
100
AcDbLine
 10
-16.5349480908
 20
-0.1
 30
0.0
 11
-16.5349480908
 21
0.0
 31
0.0
  0
LINE
  5
12B
330
1F
100
AcDbEntity
  8
0
  6
Continuous
 62
     7
370
    25
100
AcDbLine
 10
-21.5349480908
 20
0.0
 30
0.0
 11
-21.5349480908
 21
-0.1
 31
0.0
  0
LINE
  5
12C
330
1F
100
AcDbEntity
  8
0
  6
Continuous
 62
     7
370
    25
100
AcDbLine
 10
39.272695926
 20
-0.1
 30
0.0
 11
39.272695926
 21
0.0
 31
0.0
  0
LINE
  5
12D
330
1F
100
AcDbEntity
  8
0
  6
Continuous
 62
     7
370
    25
100
AcDbLine
 10
34.272695926
 20
0.0
 30
0.0
 11
34.272695926
 21
-0.1
 31
0.0
  0
LINE
  5
12E
330
1F
100
AcDbEntity
  8
0
  6
Continuous
 62
     7
370
    25
100
AcDbLine
 10
-34.272695926
 20
-0.1
 30
0.0
 11
-34.272695926
 21
0.0
 31
0.0
  0
LINE
  5
12F
330
1F
100
AcDbEntity
  8
0
  6
Continuous
 62
     7
370
    25
100
AcDbLine
 10
-39.272695926
 20
0.0
 30
0.0
 11
-39.272695926
 21
-0.1
 31
0.0
  0
LINE
  5
130
330
1F
100
AcDbEntity
  8
0
  6
Continuous
 62
     7
370
    25
100
AcDbLine
 10
54.5044453036
 20
-0.1
 30
0.0
 11
54.5044453036
 21
0.0
 31
0.0
  0
LINE
  5
131
330
1F
100
AcDbEntity
  8
0
  6
Continuous
 62
     7
370
    25
100
AcDbLine
 10
49.5044453036
 20
0.0
 30
0.0
 11
49.5044453036
 21
-0.1
 31
0.0
  0
LINE
  5
132
330
1F
100
AcDbEntity
  8
0
  6
Continuous
 62
     7
370
    25
100
AcDbLine
 10
-49.5044453036
 20
-0.1
 30
0.0
 11
-49.5044453036
 21
0.0
 31
0.0
  0
LINE
  5
133
330
1F
100
AcDbEntity
  8
0
  6
Continuous
 62
     7
370
    25
100
AcDbLine
 10
-54.5044453036
 20
0.0
 30
0.0
 11
-54.5044453036
 21
-0.1
 31
0.0
  0
LINE
  5
134
330
1F
100
AcDbEntity
  8
0
  6
Continuous
 62
     7
370
    25
100
AcDbLine
 10
23.0040025392
 20
-0.1
 30
0.0
 11
23.0040025392
 21
0.0
 31
0.0
  0
LINE
  5
135
330
1F
100
AcDbEntity
  8
0
  6
Continuous
 62
     7
370
    25
100
AcDbLine
 10
-23.0040025392
 20
0.0
 30
0.0
 11
-23.0040025392
 21
-0.1
 31
0.0
  0
LINE
  5
136
330
1F
100
AcDbEntity
  8
0
  6
Continuous
 62
     7
370
    25
100
AcDbLine
 10
40.386456561
 20
-0.1
 30
0.0
 11
40.386456561
 21
0.0
 31
0.0
  0
LINE
  5
137
330
1F
100
AcDbEntity
  8
0
  6
Continuous
 62
     7
370
    25
100
AcDbLine
 10
-40.386456561
 20
0.0
 30
0.0
 11
-40.386456561
 21
-0.1
 31
0.0
  0
LINE
  5
138
330
1F
100
AcDbEntity
  8
0
  6
Continuous
 62
     7
370
    25
100
AcDbLine
 10
66.1921776752
 20
-0.1
 30
0.0
 11
66.1921776752
 21
0.0
 31
0.0
  0
LINE
  5
139
330
1F
100
AcDbEntity
  8
0
  6
Continuous
 62
     7
370
    25
100
AcDbLine
 10
61.1921776752
 20
0.0
 30
0.0
 11
61.1921776752
 21
-0.1
 31
0.0
  0
LINE
  5
13A
330
1F
100
AcDbEntity
  8
0
  6
Continuous
 62
     7
370
    25
100
AcDbLine
 10
-61.1921776752
 20
-0.1
 30
0.0
 11
-61.1921776752
 21
0.0
 31
0.0
  0
LINE
  5
13B
330
1F
100
AcDbEntity
  8
0
  6
Continuous
 62
     7
370
    25
100
AcDbLine
 10
-66.1921776752
 20
0.0
 30
0.0
 11
-66.1921776752
 21
-0.1
 31
0.0
  0
LINE
  5
13C
330
1F
100
AcDbEntity
  8
0
  6
Continuous
 62
     7
370
    25
100
AcDbLine
 10
47.0010410131
 20
0.0
 30
0.0
 11
47.0010410131
 21
-0.1
 31
0.0
  0
LINE
  5
13D
330
1F
100
AcDbEntity
  8
0
  6
Continuous
 62
     7
370
    25
100
AcDbLine
 10
-47.0010410131
 20
-0.1
 30
0.0
 11
-47.0010410131
 21
0.0
 31
0.0
  0
LINE
  5
13E
330
1F
100
AcDbEntity
  8
0
  6
Continuous
 62
     7
370
    25
100
AcDbLine
 10
73.5393933944
 20
-0.1
 30
0.0
 11
73.5393933944
 21
0.0
 31
0.0
  0
LINE
  5
13F
330
1F
100
AcDbEntity
  8
0
  6
Continuous
 62
     7
370
    25
100
AcDbLine
 10
68.5393933944
 20
0.0
 30
0.0
 11
68.5393933944
 21
-0.1
 31
0.0
  0
LINE
  5
140
330
1F
100
AcDbEntity
  8
0
  6
Continuous
 62
     7
370
    25
100
AcDbLine
 10
-68.5393933944
 20
-0.1
 30
0.0
 11
-68.5393933944
 21
0.0
 31
0.0
  0
LINE
  5
141
330
1F
100
AcDbEntity
  8
0
  6
Continuous
 62
     7
370
    25
100
AcDbLine
 10
-73.5393933944
 20
0.0
 30
0.0
 11
-73.5393933944
 21
-0.1
 31
0.0
  0
LINE
  5
142
330
1F
100
AcDbEntity
  8
0
  6
Continuous
 62
     7
370
    25
100
AcDbLine
 10
19.0
 20
5.0
 30
0.0
 11
17.0
 21
6.8
 31
0.0
  0
LINE
  5
143
330
1F
100
AcDbEntity
  8
0
  6
Continuous
 62
     7
370
    25
100
AcDbLine
 10
-17.0
 20
6.8
 30
0.0
 11
-19.0
 21
5.0
 31
0.0
  0
LINE
  5
144
330
1F
100
AcDbEntity
  8
0
  6
Continuous
 62
     7
370
    25
100
AcDbLine
 10
16.75
 20
6.8
 30
0.0
 11
16.75
 21
13.8
 31
0.0
  0
LINE
  5
145
330
1F
100
AcDbEntity
  8
0
  6
Continuous
 62
     7
370
    25
100
AcDbLine
 10
-16.75
 20
13.8
 30
0.0
 11
-16.75
 21
6.8
 31
0.0
  0
LINE
  5
146
330
1F
100
AcDbEntity
  8
0
  6
Continuous
 62
     7
370
    25
100
AcDbLine
 10
15.25
 20
14.3
 30
0.0
 11
15.25
 21
29.3
 31
0.0
  0
LINE
  5
147
330
1F
100
AcDbEntity
  8
0
  6
Continuous
 62
     7
370
    25
100
AcDbLine
 10
-15.25
 20
29.3
 30
0.0
 11
-15.25
 21
14.3
 31
0.0
  0
LINE
  5
148
330
1F
100
AcDbEntity
  8
0
  6
Continuous
 62
     7
370
    25
100
AcDbLine
 10
13.0
 20
35.1156580372
 30
0.0
 11
13.0
 21
48.3
 31
0.0
  0
LINE
  5
149
330
1F
100
AcDbEntity
  8
0
  6
Continuous
 62
     7
370
    25
100
AcDbLine
 10
-13.0
 20
48.3
 30
0.0
 11
-13.0
 21
35.1156580372
 31
0.0
  0
LINE
  5
14A
330
1F
100
AcDbEntity
  8
0
  6
Continuous
 62
     7
370
    25
100
AcDbLine
 10
29.4562153743
 20
0.0
 30
0.0
 11
29.4562153743
 21
-0.1
 31
0.0
  0
LINE
  5
14B
330
1F
100
AcDbEntity
  8
0
  6
Continuous
 62
     7
370
    25
100
AcDbLine
 10
-29.4562153743
 20
-0.1
 30
0.0
 11
-29.4562153743
 21
0.0
 31
0.0
  0
LINE
  5
14C
330
1F
100
AcDbEntity
  8
0
  6
Continuous
 62
     7
370
    25
100
AcDbLine
 10
9.0
 20
31.2806458553
 30
0.0
 11
9.0
 21
33.3370904275
 31
0.0
  0
LINE
  5
14D
330
1F
100
AcDbEntity
  8
0
  6
Continuous
 62
     7
370
    25
100
AcDbLine
 10
-9.0
 20
33.3370904275
 30
0.0
 11
-9.0
 21
31.2806458553
 31
0.0
  0
LINE
  5
14E
330
1F
100
AcDbEntity
  8
0
  6
Continuous
 62
     7
370
    25
100
AcDbLine
 10
11.0
 20
0.0
 30
0.0
 11
11.0
 21
-0.1
 31
0.0
  0
LINE
  5
14F
330
1F
100
AcDbEntity
  8
0
  6
Continuous
 62
     7
370
    25
100
AcDbLine
 10
16.0
 20
-0.1
 30
0.0
 11
16.0
 21
0.0
 31
0.0
  0
LINE
  5
150
330
1F
100
AcDbEntity
  8
0
  6
Continuous
 62
     7
370
    25
100
AcDbLine
 10
-16.0
 20
0.0
 30
0.0
 11
-16.0
 21
-0.1
 31
0.0
  0
LINE
  5
151
330
1F
100
AcDbEntity
  8
0
  6
Continuous
 62
     7
370
    25
100
AcDbLine
 10
-11.0
 20
-0.1
 30
0.0
 11
-11.0
 21
0.0
 31
0.0
  0
LINE
  5
152
330
1F
100
AcDbEntity
  8
0
  6
Continuous
 62
     7
370
    25
100
AcDbLine
 10
76.045391852
 20
-0.1
 30
0.0
 11
76.045391852
 21
0.0
 31
0.0
  0
LINE
  5
153
330
1F
100
AcDbEntity
  8
0
  6
Continuous
 62
     7
370
    25
100
AcDbLine
 10
-76.045391852
 20
0.0
 30
0.0
 11
-76.045391852
 21
-0.1
 31
0.0
  0
LINE
  5
154
330
1F
100
AcDbEntity
  8
0
  6
Continuous
 62
     7
370
    25
100
AcDbLine
 10
56.0795406989
 20
-0.1
 30
0.0
 11
56.0795406989
 21
0.0
 31
0.0
  0
LINE
  5
155
330
1F
100
AcDbEntity
  8
0
  6
Continuous
 62
     7
370
    25
100
AcDbLine
 10
-56.0795406989
 20
0.0
 30
0.0
 11
-56.0795406989
 21
-0.1
 31
0.0
  0
LINE
  5
156
330
1F
100
AcDbEntity
  8
0
  6
Continuous
 62
     7
370
    25
100
AcDbLine
 10
100.0
 20
0.0
 30
0.0
 11
-100.0
 21
0.0
 31
0.0
  0
LINE
  5
157
330
1F
100
AcDbEntity
  8
0
  6
Continuous
 62
     7
370
    25
100
AcDbLine
 10
100.0
 20
2.0
 30
0.0
 11
-100.0
 21
2.0
 31
0.0
  0
LINE
  5
158
330
1F
100
AcDbEntity
  8
0
  6
Continuous
 62
     7
370
    25
100
AcDbLine
 10
76.0
 20
5.0
 30
0.0
 11
-76.0
 21
5.0
 31
0.0
  0
LINE
  5
159
330
1F
100
AcDbEntity
  8
0
  6
Continuous
 62
     7
370
    25
100
AcDbLine
 10
1.2499794902
 20
-5.0000000021
 30
0.0
 11
-1.2500000001
 21
-5.0000000021
 31
0.0
  0
LINE
  5
15A
330
1F
100
AcDbEntity
  8
0
  6
Continuous
 62
     7
370
    25
100
AcDbLine
 10
2.4999980886
 20
-0.1
 30
0.0
 11
-2.4999993963
 21
-0.1
 31
0.0
  0
LINE
  5
15B
330
1F
100
AcDbEntity
  8
0
  6
Continuous
 62
     7
370
    25
100
AcDbLine
 10
21.7539834265
 20
-5.0
 30
0.0
 11
17.7849491845
 21
-5.0000000021
 31
0.0
  0
LINE
  5
15C
330
1F
100
AcDbEntity
  8
0
  6
Continuous
 62
     7
370
    25
100
AcDbLine
 10
21.5349480486
 20
-0.1
 30
0.0
 11
16.5349481475
 21
-0.1
 31
0.0
  0
LINE
  5
15D
330
1F
100
AcDbEntity
  8
0
  6
Continuous
 62
     7
370
    25
100
AcDbLine
 10
-17.7849557074
 20
-5.0000000021
 30
0.0
 11
-20.2849295758
 21
-5.0000000021
 31
0.0
  0
LINE
  5
15E
330
1F
100
AcDbEntity
  8
0
  6
Continuous
 62
     7
370
    25
100
AcDbLine
 10
-16.5349485574
 20
-0.1
 30
0.0
 11
-23.004001825
 21
-0.1
 31
0.0
  0
LINE
  5
15F
330
1F
100
AcDbEntity
  8
0
  6
Continuous
 62
     7
370
    25
100
AcDbLine
 10
-35.5226978502
 20
-5.0000000021
 30
0.0
 11
-39.136456561
 21
-5.0
 31
0.0
  0
LINE
  5
160
330
1F
100
AcDbEntity
  8
0
  6
Continuous
 62
     7
370
    25
100
AcDbLine
 10
-34.2726960277
 20
-0.1
 30
0.0
 11
-39.2726959101
 21
-0.1
 31
0.0
  0
LINE
  5
161
330
1F
100
AcDbEntity
  8
0
  6
Continuous
 62
     7
370
    25
100
AcDbLine
 10
38.0226857949
 20
-5.0000000021
 30
0.0
 11
35.5227172283
 21
-5.0000000021
 31
0.0
  0
LINE
  5
162
330
1F
100
AcDbEntity
  8
0
  6
Continuous
 62
     7
370
    25
100
AcDbLine
 10
39.2726952601
 20
-0.1
 30
0.0
 11
34.2726979772
 21
-0.1
 31
0.0
  0
LINE
  5
163
330
1F
100
AcDbEntity
  8
0
  6
Continuous
 62
     7
370
    25
100
AcDbLine
 10
53.2544276089
 20
-5.0000000021
 30
0.0
 11
50.7544453035
 21
-5.0000000021
 31
0.0
  0
LINE
  5
164
330
1F
100
AcDbEntity
  8
0
  6
Continuous
 62
     7
370
    25
100
AcDbLine
 10
54.5044438221
 20
-0.1
 30
0.0
 11
47.0010413527
 21
-0.1
 31
0.0
  0
LINE
  5
165
330
1F
100
AcDbEntity
  8
0
  6
Continuous
 62
     7
370
    25
100
AcDbLine
 10
-50.7544684987
 20
-5.0000000021
 30
0.0
 11
-54.8295406989
 21
-5.0
 31
0.0
  0
LINE
  5
166
330
1F
100
AcDbEntity
  8
0
  6
Continuous
 62
     7
370
    25
100
AcDbLine
 10
-49.5044477324
 20
-0.1
 30
0.0
 11
-56.0795406989
 21
-0.1
 31
0.0
  0
LINE
  5
167
330
1F
100
AcDbEntity
  8
0
  6
Continuous
 62
     7
370
    25
100
AcDbLine
 10
23.0040008529
 20
-0.1
 30
0.0
 11
21.5363476705
 21
-0.1
 31
0.0
  0
LINE
  5
168
330
1F
100
AcDbEntity
  8
0
  6
Continuous
 62
     7
370
    25
100
AcDbLine
 10
-20.2849472696
 20
-5.0
 30
0.0
 11
-21.7540025392
 21
-5.0
 31
0.0
  0
LINE
  5
169
330
1F
100
AcDbEntity
  8
0
  6
Continuous
 62
     7
370
    25
100
AcDbLine
 10
39.1364388663
 20
-5.0
 30
0.0
 11
38.0226956123
 21
-5.0
 31
0.0
  0
LINE
  5
16A
330
1F
100
AcDbEntity
  8
0
  6
Continuous
 62
     7
370
    25
100
AcDbLine
 10
40.3864550796
 20
-0.1
 30
0.0
 11
39.2838126871
 21
-0.1
 31
0.0
  0
LINE
  5
16B
330
1F
100
AcDbEntity
  8
0
  6
Continuous
 62
     7
370
    25
100
AcDbLine
 10
-39.2836667793
 20
-0.1
 30
0.0
 11
-40.3864557234
 21
-0.1
 31
0.0
  0
LINE
  5
16C
330
1F
100
AcDbEntity
  8
0
  6
Continuous
 62
     7
370
    25
100
AcDbLine
 10
-62.4421830448
 20
-5.0000000021
 30
0.0
 11
-64.9421620111
 21
-5.0000000021
 31
0.0
  0
LINE
  5
16D
330
1F
100
AcDbEntity
  8
0
  6
Continuous
 62
     7
370
    25
100
AcDbLine
 10
-61.1921779849
 20
-0.1
 30
0.0
 11
-66.1921764529
 21
-0.1
 31
0.0
  0
LINE
  5
16E
330
1F
100
AcDbEntity
  8
0
  6
Continuous
 62
     7
370
    25
100
AcDbLine
 10
66.1921776752
 20
-0.1
 30
0.0
 11
61.1921776752
 21
-0.1
 31
0.0
  0
LINE
  5
16F
330
1F
100
AcDbEntity
  8
0
  6
Continuous
 62
     7
370
    25
100
AcDbLine
 10
64.9421774995
 20
-5.0000000021
 30
0.0
 11
62.4421799987
 21
-5.0000000021
 31
0.0
  0
LINE
  5
170
330
1F
100
AcDbEntity
  8
0
  6
Continuous
 62
     7
370
    25
100
AcDbLine
 10
50.7510247455
 20
-5.0
 30
0.0
 11
48.2510410131
 21
-5.0
 31
0.0
  0
LINE
  5
171
330
1F
100
AcDbEntity
  8
0
  6
Continuous
 62
     7
370
    25
100
AcDbLine
 10
-48.251065473
 20
-5.0
 30
0.0
 11
-50.7510410131
 21
-5.0
 31
0.0
  0
LINE
  5
172
330
1F
100
AcDbEntity
  8
0
  6
Continuous
 62
     7
370
    25
100
AcDbLine
 10
-47.0010437376
 20
-0.1
 30
0.0
 11
-49.4722781631
 21
-0.1
 31
0.0
  0
LINE
  5
173
330
1F
100
AcDbEntity
  8
0
  6
Continuous
 62
     7
370
    25
100
AcDbLine
 10
72.2893805539
 20
-5.0000000021
 30
0.0
 11
69.7894037421
 21
-5.0000000021
 31
0.0
  0
LINE
  5
174
330
1F
100
AcDbEntity
  8
0
  6
Continuous
 62
     7
370
    25
100
AcDbLine
 10
76.0453907249
 20
-0.1
 30
0.0
 11
68.5393945294
 21
-0.1
 31
0.0
  0
LINE
  5
175
330
1F
100
AcDbEntity
  8
0
  6
Continuous
 62
     7
370
    25
100
AcDbLine
 10
-69.7893968488
 20
-5.0000000021
 30
0.0
 11
-72.2893933895
 21
-5.0000000021
 31
0.0
  0
LINE
  5
176
330
1F
100
AcDbEntity
  8
0
  6
Continuous
 62
     7
370
    25
100
AcDbLine
 10
-68.5393935841
 20
-0.1
 30
0.0
 11
-76.045391852
 21
-0.1
 31
0.0
  0
LINE
  5
177
330
1F
100
AcDbEntity
  8
0
  6
Continuous
 62
     7
370
    25
100
AcDbLine
 10
17.0
 20
6.8
 30
0.0
 11
-17.0
 21
6.8
 31
0.0
  0
LINE
  5
178
330
1F
100
AcDbEntity
  8
0
  6
Continuous
 62
     7
370
    25
100
AcDbLine
 10
-16.249999947
 20
14.3
 30
0.0
 11
16.25
 21
14.3
 31
0.0
  0
LINE
  5
179
330
1F
100
AcDbEntity
  8
0
  6
Continuous
 62
     7
370
    25
100
AcDbLine
 10
-14.7499999837
 20
29.8
 30
0.0
 11
14.75
 21
29.8
 31
0.0
  0
LINE
  5
17A
330
1F
100
AcDbEntity
  8
0
  6
Continuous
 62
     7
370
    25
100
AcDbLine
 10
-12.5
 20
48.8
 30
0.0
 11
12.5
 21
48.8
 31
0.0
  0
LINE
  5
17B
330
1F
100
AcDbEntity
  8
0
  6
Continuous
 62
     7
370
    25
100
AcDbLine
 10
33.2061933035
 20
-5.0000000021
 30
0.0
 11
30.7062342805
 21
-5.0000000021
 31
0.0
  0
LINE
  5
17C
330
1F
100
AcDbEntity
  8
0
  6
Continuous
 62
     7
370
    25
100
AcDbLine
 10
34.272695926
 20
-0.1
 30
0.0
 11
29.4562170293
 21
-0.1
 31
0.0
  0
LINE
  5
17D
330
1F
100
AcDbEntity
  8
0
  6
Continuous
 62
     7
370
    25
100
AcDbLine
 10
-30.70622626
 20
-5.0000000021
 30
0.0
 11
-33.2062130565
 21
-5.0000000021
 31
0.0
  0
LINE
  5
17E
330
1F
100
AcDbEntity
  8
0
  6
Continuous
 62
     7
370
    25
100
AcDbLine
 10
-29.4562161057
 20
-0.1
 30
0.0
 11
-34.272695926
 21
-0.1
 31
0.0
  0
LINE
  5
17F
330
1F
100
AcDbEntity
  8
0
  6
Continuous
 62
     7
370
    25
100
AcDbLine
 10
11.0000000404
 20
-0.1
 30
0.0
 11
16.0
 21
-0.1
 31
0.0
  0
LINE
  5
180
330
1F
100
AcDbEntity
  8
0
  6
Continuous
 62
     7
370
    25
100
AcDbLine
 10
12.2500009166
 20
-5.0
 30
0.0
 11
14.75
 21
-5.0
 31
0.0
  0
LINE
  5
181
330
1F
100
AcDbEntity
  8
0
  6
Continuous
 62
     7
370
    25
100
AcDbLine
 10
-16.0
 20
-0.1
 30
0.0
 11
-11.0
 21
-0.1
 31
0.0
  0
LINE
  5
182
330
1F
100
AcDbEntity
  8
0
  6
Continuous
 62
     7
370
    25
100
AcDbLine
 10
-14.75
 20
-5.0
 30
0.0
 11
-12.25
 21
-5.0
 31
0.0
  0
LINE
  5
183
330
1F
100
AcDbEntity
  8
0
  6
Continuous
 62
     7
370
    25
100
AcDbLine
 10
74.7953770095
 20
-5.0000000021
 30
0.0
 11
72.295391852
 21
-5.0000000021
 31
0.0
  0
LINE
  5
184
330
1F
100
AcDbEntity
  8
0
  6
Continuous
 62
     7
370
    25
100
AcDbLine
 10
-72.295391852
 20
-5.0000000021
 30
0.0
 11
-74.7953918521
 21
-5.0000000021
 31
0.0
  0
LINE
  5
185
330
1F
100
AcDbEntity
  8
0
  6
Continuous
 62
     7
370
    25
100
AcDbLine
 10
54.8295258563
 20
-5.0
 30
0.0
 11
53.2544332604
 21
-5.0
 31
0.0
  0
LINE
  5
186
330
1F
100
AcDbEntity
  8
0
  6
Continuous
 62
     7
370
    25
100
AcDbLine
 10
56.0795395718
 20
-0.1
 30
0.0
 11
54.5114431904
 21
-0.1
 31
0.0
  0
LINE
  5
187
330
1F
100
AcDbEntity
  8
0
  6
Continuous
 62
     8
370
    25
100
AcDbLine
 10
16.75
 20
13.8
 30
0.0
 11
-16.75
 21
13.8
 31
0.0
  0
LINE
  5
188
330
1F
100
AcDbEntity
  8
0
  6
Continuous
 62
     8
370
    25
100
AcDbLine
 10
15.25
 20
29.3
 30
0.0
 11
-15.25
 21
29.3
 31
0.0
  0
LINE
  5
189
330
1F
100
AcDbEntity
  8
0
  6
Continuous
 62
     8
370
    25
100
AcDbLine
 10
9.1724137931
 20
30.9029061605
 30
0.0
 11
-9.1724137931
 21
30.9029061605
 31
0.0
  0
LINE
  5
18A
330
1F
100
AcDbEntity
  8
0
  6
Continuous
 62
     8
370
    25
100
AcDbLine
 10
-13.0
 20
35.1156580372
 30
0.0
 11
13.0
 21
35.1156580372
 31
0.0
  0
LINE
  5
18B
330
1F
100
AcDbEntity
  8
0
  6
Continuous
 62
     8
370
    25
100
AcDbLine
 10
13.0
 20
48.3
 30
0.0
 11
-13.0
 21
48.3
 31
0.0
  0
LINE
  5
18C
330
1F
100
AcDbEntity
  8
0
  6
Continuous
 62
     8
370
    25
100
AcDbLine
 10
12.7061825973
 20
34.6601487216
 30
0.0
 11
-12.7061825973
 21
34.6601487216
 31
0.0
  0
LINE
  5
18D
330
1F
100
AcDbEntity
  8
0
  6
Continuous
 62
     8
370
    25
100
AcDbLine
 10
-9.4529573595
 20
33.834872505
 30
0.0
 11
9.452956896
 21
33.834872505
 31
0.0
  0
LINE
  5
18E
330
1F
100
AcDbEntity
  8
0
  6
Continuous
 62
     8
370
    25
100
AcDbLine
 10
9.0
 20
33.3370904275
 30
0.0
 11
-9.0
 21
33.3370904275
 31
0.0
  0
LINE
  5
18F
330
1F
100
AcDbEntity
  8
0
  6
Continuous
 62
     8
370
    25
100
AcDbLine
 10
-9.0
 20
31.2806458553
 30
0.0
 11
9.0
 21
31.2806458553
 31
0.0
  0
ARC
  5
190
330
1F
100
AcDbEntity
  8
0
  6
Continuous
 62
     7
370
    25
100
AcDbCircle
 10
16.25
 20
13.8
 30
0.0
 40
0.5000000000000018
100
AcDbArc
 50
0.0
 51
90.0
  0
ARC
  5
191
330
1F
100
AcDbEntity
  8
0
  6
Continuous
 62
     7
370
    25
100
AcDbCircle
 10
-16.25
 20
13.8
 30
0.0
 40
0.5000000000000018
100
AcDbArc
 50
90.0
 51
180.0
  0
ARC
  5
192
330
1F
100
AcDbEntity
  8
0
  6
Continuous
 62
     7
370
    25
100
AcDbCircle
 10
14.75
 20
29.3
 30
0.0
 40
0.5000000000000071
100
AcDbArc
 50
0.0
 51
90.0
  0
ARC
  5
193
330
1F
100
AcDbEntity
  8
0
  6
Continuous
 62
     7
370
    25
100
AcDbCircle
 10
-14.75
 20
29.3
 30
0.0
 40
0.5000000000000071
100
AcDbArc
 50
90.0
 51
180.0
  0
ARC
  5
194
330
1F
100
AcDbEntity
  8
0
  6
Continuous
 62
     7
370
    25
100
AcDbCircle
 10
-12.5
 20
35.1156580372
 30
0.0
 40
0.5000000000000107
100
AcDbArc
 50
180.0
 51
245.6465005217
  0
ARC
  5
195
330
1F
100
AcDbEntity
  8
0
  6
Continuous
 62
     7
370
    25
100
AcDbCircle
 10
12.5
 20
35.1156580372
 30
0.0
 40
0.5000000000000203
100
AcDbArc
 50
294.3534994783
 51
0.0
  0
ARC
  5
196
330
1F
100
AcDbEntity
  8
0
  6
Continuous
 62
     7
370
    25
100
AcDbCircle
 10
12.5
 20
48.3
 30
0.0
 40
0.5000000000000089
100
AcDbArc
 50
0.0
 51
90.0
  0
ARC
  5
197
330
1F
100
AcDbEntity
  8
0
  6
Continuous
 62
     7
370
    25
100
AcDbCircle
 10
-12.5
 20
48.3
 30
0.0
 40
0.5000000000000089
100
AcDbArc
 50
90.0
 51
180.0
  0
ARC
  5
198
330
1F
100
AcDbEntity
  8
0
  6
Continuous
 62
     7
370
    25
100
AcDbCircle
 10
9.5
 20
33.3370904275
 30
0.0
 40
0.5
100
AcDbArc
 50
95.3986662912
 51
180.0
  0
ARC
  5
199
330
1F
100
AcDbEntity
  8
0
  6
Continuous
 62
     7
370
    25
100
AcDbCircle
 10
-9.5
 20
33.3370904275
 30
0.0
 40
0.5000000000000053
100
AcDbArc
 50
0.0
 51
84.6013337088
  0
ARC
  5
19A
330
1F
100
AcDbEntity
  8
0
  6
Continuous
 62
     7
370
    25
100
AcDbCircle
 10
9.5
 20
31.2806458553
 30
0.0
 40
0.5000000000000036
100
AcDbArc
 50
180.0
 51
229.0672754258
  0
ARC
  5
19B
330
1F
100
AcDbEntity
  8
0
  6
Continuous
 62
     7
370
    25
100
AcDbCircle
 10
-9.5
 20
31.2806458553
 30
0.0
 40
0.4999999999999973
100
AcDbArc
 50
310.9327245742
 51
0.0
  0
SPLINE
  5
19C
330
1B
100
AcDbEntity
 67
     1
  8
0
  6
Continuous
 62
     7
370
    25
100
AcDbSpline
210
0.0
220
0.0
230
1.0
 70
     8
 71
     3
 72
    14
 73
    10
 74
     0
 42
0.000000001
 43
0.00000001
 40
0.0
 40
0.0
 40
0.0
 40
0.0
 40
0.0002342675456121
 40
0.0002342675456121
 40
0.0002342675456121
 40
0.0004685350912252
 40
0.0004685350912252
 40
0.0004685350912252
 40
0.0008657681078994
 40
0.0008657681078994
 40
0.0008657681078994
 40
0.0008657681078994
 10
-8.55578643929766
 20
6.153981685339851
 30
0.0
 10
-8.492011465536365
 20
6.108918695570157
 30
0.0
 10
-8.428244905357781
 20
6.063843796196874
 30
0.0
 10
-8.364486766007271
 20
6.018756991122681
 30
0.0
 10
-8.300728626656609
 20
5.973670186048382
 30
0.0
 10
-8.236978905910634
 20
5.92857147370072
 30
0.0
 10
-8.173237611012953
 20
5.88346085798742
 30
0.0
 10
-8.065155435291459
 20
5.806969573926496
 30
0.0
 10
-7.957097476862381
 20
5.730444059338623
 30
0.0
 10
-7.849063771041162
 20
5.65388433329082
 30
0.0
  0
SPLINE
  5
19D
330
1B
100
AcDbEntity
 67
     1
  8
0
  6
Continuous
 62
     7
370
    25
100
AcDbSpline
210
0.0
220
0.0
230
1.0
 70
    11
 71
     3
 72
    86
 73
    82
 74
     0
 42
0.000000001
 43
0.00000001
 40
0.0
 40
0.0
 40
0.0
 40
0.0
 40
0.015625
 40
0.015625
 40
0.03125
 40
0.03125
 40
0.0625
 40
0.0625
 40
0.09375
 40
0.09375
 40
0.1249999999999999
 40
0.1249999999999999
 40
0.1406249999999999
 40
0.1406249999999999
 40
0.1562499999999999
 40
0.1562499999999999
 40
0.1874999999999998
 40
0.1874999999999998
 40
0.2187499999999998
 40
0.2187499999999998
 40
0.2499999999999997
 40
0.2499999999999997
 40
0.2656249999999997
 40
0.2656249999999997
 40
0.2812499999999997
 40
0.2812499999999997
 40
0.3124999999999997
 40
0.3124999999999997
 40
0.3437499999999997
 40
0.3437499999999997
 40
0.3749999999999996
 40
0.3749999999999996
 40
0.3906249999999996
 40
0.3906249999999996
 40
0.4062499999999995
 40
0.4062499999999995
 40
0.4374999999999995
 40
0.4374999999999995
 40
0.4687499999999994
 40
0.4687499999999994
 40
0.4999999999999995
 40
0.4999999999999995
 40
0.5156249999999996
 40
0.5156249999999996
 40
0.5312499999999996
 40
0.5312499999999996
 40
0.5624999999999996
 40
0.5624999999999996
 40
0.5937499999999997
 40
0.5937499999999997
 40
0.6249999999999997
 40
0.6249999999999997
 40
0.6406249999999997
 40
0.6406249999999997
 40
0.6562499999999997
 40
0.6562499999999997
 40
0.6874999999999997
 40
0.6874999999999997
 40
0.7187499999999998
 40
0.7187499999999998
 40
0.7499999999999998
 40
0.7499999999999998
 40
0.7656249999999998
 40
0.7656249999999998
 40
0.7812499999999998
 40
0.7812499999999998
 40
0.8124999999999998
 40
0.8124999999999998
 40
0.8437499999999999
 40
0.8437499999999999
 40
0.8749999999999999
 40
0.8749999999999999
 40
0.8906249999999999
 40
0.8906249999999999
 40
0.9062499999999999
 40
0.9062499999999999
 40
0.9374999999999999
 40
0.9374999999999999
 40
0.96875
 40
0.96875
 40
1.0
 40
1.0
 40
1.0
 40
1.0
 10
-7.849063771041033
 20
5.653884333290996
 30
0.0
 10
-7.664126791078485
 20
5.910625020538992
 30
0.0
 10
-7.467630038466936
 20
6.156793993998031
 30
0.0
 10
-7.055241992222838
 20
6.625343093540091
 30
0.0
 10
-6.840828090880367
 20
6.846431943703156
 30
0.0
 10
-6.16132671435127
 20
7.483158425802721
 30
0.0
 10
-5.658991532313584
 20
7.871203198079479
 30
0.0
 10
-4.577886730098509
 20
8.54534832728552
 30
0.0
 10
-3.999270053878353
 20
8.831262113374892
 30
0.0
 10
-2.798635353412696
 20
9.2818635864576
 30
0.0
 10
-2.176852813520798
 20
9.446480393911475
 30
0.0
 10
-1.239912992771101
 20
9.598799058919084
 30
0.0
 10
-0.926901056067723
 20
9.633922623116948
 30
0.0
 10
-0.3039844264832076
 20
9.673634484742516
 30
0.0
 10
0.003962522331754
 20
9.678354386317634
 30
0.0
 10
0.9346761667547365
 20
9.648107968401971
 30
0.0
 10
1.564269870283048
 20
9.567292444635429
 30
0.0
 10
2.805418999468144
 20
9.27952850018128
 30
0.0
 10
3.416734351909554
 20
9.072556301696897
 30
0.0
 10
4.584334647566133
 20
8.542202720499183
 30
0.0
 10
5.140402958795
 20
8.218937730966147
 30
0.0
 10
5.910625020538983
 20
7.664126791078494
 30
0.0
 10
6.156793993998023
 20
7.467630038466948
 30
0.0
 10
6.625343093540081
 20
7.055241992222852
 30
0.0
 10
6.846431943703143
 20
6.840828090880383
 30
0.0
 10
7.483158425802713
 20
6.161326714351282
 30
0.0
 10
7.871203198079473
 20
5.658991532313593
 30
0.0
 10
8.545348327285515
 20
4.577886730098516
 30
0.0
 10
8.83126211337489
 20
3.999270053878357
 30
0.0
 10
9.2818635864576
 20
2.798635353412697
 30
0.0
 10
9.44648039391147
 20
2.176852813520797
 30
0.0
 10
9.598799058919086
 20
1.239912992771101
 30
0.0
 10
9.63392262311695
 20
0.9269010560677245
 30
0.0
 10
9.67363448474252
 20
0.3039844264832098
 30
0.0
 10
9.678354386317636
 20
-0.0039625223317547
 30
0.0
 10
9.648107968401971
 20
-0.9346761667547357
 30
0.0
 10
9.567292444635427
 20
-1.564269870283045
 30
0.0
 10
9.279528500181277
 20
-2.805418999468145
 30
0.0
 10
9.0725563016969
 20
-3.416734351909554
 30
0.0
 10
8.542202720499182
 20
-4.584334647566136
 30
0.0
 10
8.21893773096614
 20
-5.140402958795005
 30
0.0
 10
7.664126791078483
 20
-5.910625020538992
 30
0.0
 10
7.467630038466936
 20
-6.156793993998027
 30
0.0
 10
7.05524199222284
 20
-6.625343093540092
 30
0.0
 10
6.840828090880372
 20
-6.846431943703156
 30
0.0
 10
6.161326714351271
 20
-7.483158425802721
 30
0.0
 10
5.658991532313586
 20
-7.871203198079482
 30
0.0
 10
4.577886730098509
 20
-8.545348327285518
 30
0.0
 10
3.999270053878355
 20
-8.831262113374889
 30
0.0
 10
2.798635353412697
 20
-9.2818635864576
 30
0.0
 10
2.176852813520799
 20
-9.446480393911473
 30
0.0
 10
1.239912992771101
 20
-9.598799058919084
 30
0.0
 10
0.9269010560677243
 20
-9.633922623116947
 30
0.0
 10
0.3039844264832092
 20
-9.673634484742516
 30
0.0
 10
-0.0039625223317531
 20
-9.678354386317634
 30
0.0
 10
-0.9346761667547346
 20
-9.648107968401971
 30
0.0
 10
-1.564269870283047
 20
-9.567292444635427
 30
0.0
 10
-2.805418999468145
 20
-9.279528500181277
 30
0.0
 10
-3.416734351909549
 20
-9.072556301696894
 30
0.0
 10
-4.584334647566129
 20
-8.542202720499185
 30
0.0
 10
-5.140402958794998
 20
-8.218937730966147
 30
0.0
 10
-5.910625020538981
 20
-7.664126791078494
 30
0.0
 10
-6.156793993998021
 20
-7.467630038466948
 30
0.0
 10
-6.62534309354008
 20
-7.055241992222853
 30
0.0
 10
-6.846431943703144
 20
-6.840828090880385
 30
0.0
 10
-7.483158425802708
 20
-6.161326714351288
 30
0.0
 10
-7.871203198079471
 20
-5.658991532313595
 30
0.0
 10
-8.545348327285511
 20
-4.577886730098522
 30
0.0
 10
-8.831262113374875
 20
-3.999270053878385
 30
0.0
 10
-9.281863586457591
 20
-2.798635353412732
 30
0.0
 10
-9.446480393911472
 20
-2.1768528135208
 30
0.0
 10
-9.598799058919086
 20
-1.239912992771102
 30
0.0
 10
-9.633922623116947
 20
-0.926901056067725
 30
0.0
 10
-9.673634484742516
 20
-0.3039844264832099
 30
0.0
 10
-9.678354386317633
 20
0.0039625223317524
 30
0.0
 10
-9.648107968401975
 20
0.9346761667547242
 30
0.0
 10
-9.567292444635429
 20
1.564269870283041
 30
0.0
 10
-9.279528500181282
 20
2.805418999468132
 30
0.0
 10
-9.072556301696897
 20
3.416734351909544
 30
0.0
 10
-8.542202720499185
 20
4.58433464756612
 30
0.0
 10
-8.218937730966141
 20
5.140402958794998
 30
0.0
 10
-7.849063771041035
 20
5.653884333290995
 30
0.0
  0
CIRCLE
  5
19E
330
1B
100
AcDbEntity
 67
     1
  8
0
  6
Continuous
 62
     7
370
    25
100
AcDbCircle
 10
0.0
 20
0.0
 30
0.0
 40
12.99999999999999
  0
CIRCLE
  5
19F
330
1B
100
AcDbEntity
 67
     1
  8
0
  6
Continuous
 62
     7
370
    25
100
AcDbCircle
 10
0.0
 20
0.0
 30
0.0
 40
12.5
  0
SPLINE
  5
1A0
330
1B
100
AcDbEntity
 67
     1
  8
0
  6
Continuous
 62
     7
370
    25
100
AcDbSpline
210
0.0
220
0.0
230
1.0
 70
     8
 71
     3
 72
    94
 73
    90
 74
     0
 42
0.000000001
 43
0.00000001
 40
0.0
 40
0.0
 40
0.0
 40
0.0
 40
0.03125
 40
0.03125
 40
0.0468750000000001
 40
0.0468750000000001
 40
0.0625000000000001
 40
0.0625000000000001
 40
0.0937500000000001
 40
0.0937500000000001
 40
0.1093750000000001
 40
0.1093750000000001
 40
0.1250000000000002
 40
0.1250000000000002
 40
0.1562500000000002
 40
0.1562500000000002
 40
0.1875000000000002
 40
0.1875000000000002
 40
0.2031250000000003
 40
0.2031250000000003
 40
0.2187500000000004
 40
0.2187500000000004
 40
0.2500000000000004
 40
0.2500000000000004
 40
0.2656250000000004
 40
0.2656250000000004
 40
0.2812500000000005
 40
0.2812500000000005
 40
0.3125000000000006
 40
0.3125000000000006
 40
0.3437500000000006
 40
0.3437500000000006
 40
0.3593750000000006
 40
0.3593750000000006
 40
0.3750000000000006
 40
0.3750000000000006
 40
0.4062500000000007
 40
0.4062500000000007
 40
0.4218750000000007
 40
0.4218750000000007
 40
0.4375000000000007
 40
0.4375000000000007
 40
0.4687500000000007
 40
0.4687500000000007
 40
0.5000000000000008
 40
0.5000000000000008
 40
0.5156250000000008
 40
0.5156250000000008
 40
0.5312500000000008
 40
0.5312500000000008
 40
0.5625000000000009
 40
0.5625000000000009
 40
0.5937500000000009
 40
0.5937500000000009
 40
0.625000000000001
 40
0.625000000000001
 40
0.640625000000001
 40
0.640625000000001
 40
0.656250000000001
 40
0.656250000000001
 40
0.687500000000001
 40
0.687500000000001
 40
0.7187500000000011
 40
0.7187500000000011
 40
0.7343750000000011
 40
0.7343750000000011
 40
0.7500000000000011
 40
0.7500000000000011
 40
0.781250000000001
 40
0.781250000000001
 40
0.796875000000001
 40
0.796875000000001
 40
0.8125000000000009
 40
0.8125000000000009
 40
0.8437500000000008
 40
0.8437500000000008
 40
0.8593750000000007
 40
0.8593750000000007
 40
0.8750000000000006
 40
0.8750000000000006
 40
0.9062500000000006
 40
0.9062500000000006
 40
0.9375000000000004
 40
0.9375000000000004
 40
0.9531250000000003
 40
0.9531250000000003
 40
0.9687500000000003
 40
0.9687500000000003
 40
1.0
 40
1.0
 40
1.0
 40
1.0
 10
-7.849063771041035
 20
5.653884333290995
 30
0.0
 10
-8.2471739013463
 20
5.117460331306089
 30
0.0
 10
-8.583562098317888
 20
4.549700987995879
 30
0.0
 10
-8.999277512401953
 20
3.652945530463977
 30
0.0
 10
-9.1229194799005
 20
3.346447380160321
 30
0.0
 10
-9.339535600110487
 20
2.717881469332614
 30
0.0
 10
-9.432135667446447
 20
2.396132506403938
 30
0.0
 10
-9.657498557689157
 20
1.42962345701908
 30
0.0
 10
-9.741058359089818
 20
0.7763998966215573
 30
0.0
 10
-9.766050348694403
 20
-0.2168049722208495
 30
0.0
 10
-9.75740051897066
 20
-0.5519406985594579
 30
0.0
 10
-9.706549051089162
 20
-1.21392511890293
 30
0.0
 10
-9.664534997364106
 20
-1.541507287377474
 30
0.0
 10
-9.489857014692586
 20
-2.514255783271762
 30
0.0
 10
-9.30826660217542
 20
-3.151507034357267
 30
0.0
 10
-8.813635773574706
 20
-4.390069763385338
 30
0.0
 10
-8.507835858784219
 20
-4.974416265044252
 30
0.0
 10
-7.964428708333504
 20
-5.800337361064415
 30
0.0
 10
-7.769065786693128
 20
-6.067145979899208
 30
0.0
 10
-7.349059043638968
 20
-6.583272699409512
 30
0.0
 10
-7.125037990569075
 20
-6.831435817500825
 30
0.0
 10
-6.424211981949512
 20
-7.533431436979347
 30
0.0
 10
-5.914843242494761
 20
-7.950999358546557
 30
0.0
 10
-5.087190278518877
 20
-8.501261547481514
 30
0.0
 10
-4.799030521878226
 20
-8.67263533335725
 30
0.0
 10
-4.212277961186528
 20
-8.982708556844937
 30
0.0
 10
-3.91298981100771
 20
-9.122089011077717
 30
0.0
 10
-2.997785761747158
 20
-9.494310640007875
 30
0.0
 10
-2.363335694732661
 20
-9.681957701234758
 30
0.0
 10
-1.05206575499015
 20
-9.92909675617226
 30
0.0
 10
-0.3947748080453588
 20
-9.985037647934199
 30
0.0
 10
0.5935367303601976
 20
-9.9719512724051
 30
0.0
 10
0.9233705712453958
 20
-9.951389846599913
 30
0.0
 10
1.583852445188785
 20
-9.877016108403497
 30
0.0
 10
1.914187609249614
 20
-9.823001107060156
 30
0.0
 10
2.884552606650255
 20
-9.614565341838219
 30
0.0
 10
3.511551412195239
 20
-9.413563876523956
 30
0.0
 10
4.422188242370549
 20
-9.01901210656998
 30
0.0
 10
4.722334129179601
 20
-8.87092047432066
 30
0.0
 10
5.302985751108242
 20
-8.5474184572897
 30
0.0
 10
5.583285075707989
 20
-8.372391674583806
 30
0.0
 10
6.394891326632214
 20
-7.808527022133701
 30
0.0
 10
6.897088158854887
 20
-7.381145337346943
 30
0.0
 10
7.821665032140318
 20
-6.420698914156736
 30
0.0
 10
8.231782227529292
 20
-5.900167399642971
 30
0.0
 10
8.765356140106679
 20
-5.068826969774622
 30
0.0
 10
8.929901799303385
 20
-4.782826080311763
 30
0.0
 10
9.231840048682658
 20
-4.192696680855335
 30
0.0
 10
9.369675389372153
 20
-3.887109120136768
 30
0.0
 10
9.733552544529838
 20
-2.961304783478983
 30
0.0
 10
9.913271013961122
 20
-2.327853602679168
 30
0.0
 10
10.14873664058068
 20
-1.028909880707335
 30
0.0
 10
10.20314558737366
 20
-0.3580125619830208
 30
0.0
 10
10.18118888898367
 20
0.9615331680245981
 30
0.0
 10
10.10714110506797
 20
1.6160409670045
 30
0.0
 10
9.899801680067815
 20
2.589766188576004
 30
0.0
 10
9.81411616353688
 20
2.913707061058996
 30
0.0
 10
9.61384185506204
 20
3.545051837070906
 30
0.0
 10
9.498977465495393
 20
3.854173813708356
 30
0.0
 10
9.111003934290189
 20
4.76224493279093
 30
0.0
 10
8.793676724774084
 20
5.343916840183843
 30
0.0
 10
8.043808893364465
 20
6.446028750281361
 30
0.0
 10
7.621298218531914
 20
6.952306995644775
 30
0.0
 10
6.91902632116869
 20
7.647248836318425
 30
0.0
 10
6.673514114357175
 20
7.868146499501219
 30
0.0
 10
6.159090647002823
 20
8.287919391928403
 30
0.0
 10
5.889696573056978
 20
8.486874296549678
 30
0.0
 10
5.06346518183564
 20
9.037795058710765
 30
0.0
 10
4.483387487637525
 20
9.348961105045538
 30
0.0
 10
3.569686523254889
 20
9.732115276083865
 30
0.0
 10
3.25674158436773
 20
9.846130282217468
 30
0.0
 10
2.620409747712342
 20
10.04357635719534
 30
0.0
 10
2.299909325289405
 20
10.12623155640085
 30
0.0
 10
1.331621184917764
 20
10.32748471530807
 30
0.0
 10
0.677107531823335
 20
10.39978965781307
 30
0.0
 10
-0.3184182459519131
 20
10.41357261526976
 30
0.0
 10
-0.6531681418183868
 20
10.40219920539366
 30
0.0
 10
-1.313190459053066
 20
10.34827880150288
 30
0.0
 10
-1.640204967749611
 20
10.30582885142321
 30
0.0
 10
-2.612416273913538
 20
10.13282506571156
 30
0.0
 10
-3.250365832024844
 20
9.956460357534732
 30
0.0
 10
-4.495583739113943
 20
9.479592089319926
 30
0.0
 10
-5.086025676254021
 20
9.185858991830424
 30
0.0
 10
-5.925233588167446
 20
8.665397633568604
 30
0.0
 10
-6.197173635728733
 20
8.478508386349867
 30
0.0
 10
-6.725122799084303
 20
8.077342707432775
 30
0.0
 10
-6.981820928763169
 20
7.862278775914225
 30
0.0
 10
-7.714663459719659
 20
7.186096948323892
 30
0.0
 10
-8.158975281724208
 20
6.6907353967001
 30
0.0
 10
-8.555786439297663
 20
6.153981685339846
 30
0.0
  0
CIRCLE
  5
1A2
330
1B
100
AcDbEntity
 67
     1
  8
0
  6
Continuous
 62
     7
370
    25
100
AcDbCircle
 10
0.0
 20
0.0
 30
0.0
 40
15.24999999999999
  0
CIRCLE
  5
1A3
330
1B
100
AcDbEntity
 67
     1
  8
0
  6
Continuous
 62
     7
370
    25
100
AcDbCircle
 10
0.0
 20
0.0
 30
0.0
 40
14.74999999999999
  0
CIRCLE
  5
1A4
330
1B
100
AcDbEntity
 67
     1
  8
0
  6
Continuous
 62
     7
370
    25
100
AcDbCircle
 10
0.0
 20
0.0
 30
0.0
 40
16.75
  0
CIRCLE
  5
1A5
330
1B
100
AcDbEntity
 67
     1
  8
0
  6
Continuous
 62
     7
370
    25
100
AcDbCircle
 10
0.0
 20
0.0
 30
0.0
 40
16.25
  0
CIRCLE
  5
1A6
330
1B
100
AcDbEntity
 67
     1
  8
0
  6
Continuous
 62
     7
370
    25
100
AcDbCircle
 10
0.0
 20
0.0
 30
0.0
 40
17.0
  0
CIRCLE
  5
1A7
330
1B
100
AcDbEntity
 67
     1
  8
0
  6
Continuous
 62
     7
370
    25
100
AcDbCircle
 10
0.0
 20
0.0
 30
0.0
 40
19.0
  0
CIRCLE
  5
1A8
330
1B
100
AcDbEntity
 67
     1
  8
0
  6
Continuous
 62
     7
370
    25
100
AcDbCircle
 10
0.0
 20
0.0
 30
0.0
 40
75.99999999999986
  0
CIRCLE
  5
1A9
330
1B
100
AcDbEntity
 67
     1
  8
0
  6
Continuous
 62
     7
370
    25
100
AcDbCircle
 10
0.0
 20
0.0
 30
0.0
 40
85.99999999999999
  0
CIRCLE
  5
1AA
330
1B
100
AcDbEntity
 67
     1
  8
0
  6
Continuous
 62
     7
370
    25
100
AcDbCircle
 10
0.0
 20
0.0
 30
0.0
 40
100.0000000000001
  0
LINE
  5
1AB
330
1B
100
AcDbEntity
 67
     1
  8
0
  6
Continuous
 62
     7
370
    25
100
AcDbLine
 10
9.5
 20
0.0
 30
0.0
 11
9.6733763566
 21
0.0
 31
0.0
  0
VIEWPORT
  5
414
330
1B
100
AcDbEntity
 67
     1
  8
0
100
AcDbViewport
 10
0.0
 20
0.0
 30
0.0
 40
205.6
 41
156.0
 68
     1
 69
     1
 12
0.0
 22
21.8991161524
 13
0.0
 23
0.0
 14
10.0
 24
10.0
 15
10.0
 25
10.0
 16
0.0
 26
0.0
 36
1.0
 17
0.0
 27
0.0
 37
0.0
 42
50.0
 43
0.0
 44
0.0
 45
154.7859922179
 50
0.0
 51
0.0
 72
   100
 90
   557152
  1

281
     0
 71
     1
 74
     0
110
0.0
120
0.0
130
0.0
111
1.0
121
0.0
131
0.0
112
0.0
122
1.0
132
0.0
 79
     0
146
0.0
  0
ENDSEC
  0
SECTION
  2
OBJECTS
  0
DICTIONARY
  5
C
330
0
100
AcDbDictionary
281
     1
  3
ACAD_GROUP
350
D
  3
ACAD_LAYOUT
350
1A
  3
ACAD_MLINESTYLE
350
17
  3
ACAD_PLOTSETTINGS
350
19
  3
ACAD_PLOTSTYLENAME
350
E
  3
ACAD_SCALELIST
350
47
  0
DICTIONARY
  5
D
102
{ACAD_REACTORS
330
C
102
}
330
C
100
AcDbDictionary
281
     1
  0
DICTIONARY
  5
1A
102
{ACAD_REACTORS
330
C
102
}
330
C
100
AcDbDictionary
281
     1
  3
_Bottom
350
301
  3
_Isometric
350
3A8
  3
_Left
350
26
  3
_Top
350
1E
  3
Model
350
22
  0
DICTIONARY
  5
17
102
{ACAD_REACTORS
330
C
102
}
330
C
100
AcDbDictionary
281
     1
  3
Standard
350
18
  0
DICTIONARY
  5
19
102
{ACAD_REACTORS
330
C
102
}
330
C
100
AcDbDictionary
281
     1
  0
ACDBDICTIONARYWDFLT
  5
E
102
{ACAD_REACTORS
330
C
102
}
330
C
100
AcDbDictionary
281
     1
  3
Normal
350
F
100
AcDbDictionaryWithDefault
340
F
  0
DICTIONARY
  5
47
102
{ACAD_REACTORS
330
C
102
}
330
C
100
AcDbDictionary
281
     1
  3
A0
350
48
  3
A1
350
49
  3
A2
350
4A
  3
A3
350
4B
  3
A4
350
4C
  3
A5
350
4D
  3
A6
350
4E
  3
A7
350
4F
  3
A8
350
50
  3
A9
350
51
  3
B0
350
52
  3
B1
350
53
  3
B2
350
54
  3
B3
350
55
  3
B4
350
56
  3
B5
350
57
  3
B6
350
58
  3
B7
350
59
  3
B8
350
5A
  3
B9
350
5B
  3
C0
350
5C
  3
C1
350
5D
  3
C2
350
5E
  3
C3
350
5F
  3
C4
350
60
  3
C5
350
61
  3
C6
350
62
  3
C7
350
63
  3
C8
350
64
  3
C9
350
65
  3
D0
350
66
  3
D1
350
67
  3
D2
350
68
  0
LAYOUT
  5
301
102
{ACAD_REACTORS
330
1A
102
}
330
1A
100
AcDbPlotSettings
  1

  2
none_device
  4
ISO_A4_(210.00_x_297.00_MM)
  6

 40
7.5
 41
20.0
 42
7.5
 43
20.0
 44
210.0
 45
297.0
 46
0.0
 47
0.0
 48
0.0
 49
0.0
140
0.0
141
0.0
142
1.0
143
1.0256410256
 70
   688
 72
     1
 73
     1
 74
     1
  7

 75
     0
147
0.975
148
100.0
149
100.0
100
AcDbLayout
  1
_Bottom
 70
     1
 71
     3
 10
0.0
 20
0.0
 11
0.0
 21
0.0
 12
0.0
 22
0.0
 32
0.0
 14
0.0
 24
0.0
 34
0.0
 15
0.0
 25
0.0
 35
0.0
146
0.0
 13
0.0
 23
0.0
 33
0.0
 16
1.0
 26
0.0
 36
0.0
 17
0.0
 27
1.0
 37
0.0
 76
     0
330
300
331
418
  0
LAYOUT
  5
3A8
102
{ACAD_REACTORS
330
1A
102
}
330
1A
100
AcDbPlotSettings
  1

  2
none_device
  4
ISO_A4_(210.00_x_297.00_MM)
  6

 40
7.5
 41
20.0
 42
7.5
 43
20.0
 44
210.0
 45
297.0
 46
0.0
 47
0.0
 48
0.0
 49
0.0
140
0.0
141
0.0
142
1.0
143
1.0256410256
 70
   688
 72
     1
 73
     1
 74
     1
  7

 75
     0
147
0.975
148
100.0
149
100.0
100
AcDbLayout
  1
_Isometric
 70
     1
 71
     4
 10
0.0
 20
0.0
 11
0.0
 21
0.0
 12
0.0
 22
0.0
 32
0.0
 14
0.0
 24
0.0
 34
0.0
 15
0.0
 25
0.0
 35
0.0
146
0.0
 13
0.0
 23
0.0
 33
0.0
 16
1.0
 26
0.0
 36
0.0
 17
0.0
 27
1.0
 37
0.0
 76
     0
330
3A7
331
41A
  0
LAYOUT
  5
26
102
{ACAD_REACTORS
330
1A
102
}
330
1A
100
AcDbPlotSettings
  1

  2
none_device
  4
ISO_A4_(210.00_x_297.00_MM)
  6

 40
7.5
 41
20.0
 42
7.5
 43
20.0
 44
210.0
 45
297.0
 46
0.0
 47
0.0
 48
0.0
 49
0.0
140
0.0
141
0.0
142
1.0
143
1.0256410256
 70
   688
 72
     1
 73
     1
 74
     1
  7

 75
     0
147
0.975
148
100.0
149
100.0
100
AcDbLayout
  1
_Left
 70
     1
 71
     2
 10
0.0
 20
0.0
 11
0.0
 21
0.0
 12
0.0
 22
0.0
 32
0.0
 14
0.0
 24
0.0
 34
0.0
 15
0.0
 25
0.0
 35
0.0
146
0.0
 13
0.0
 23
0.0
 33
0.0
 16
1.0
 26
0.0
 36
0.0
 17
0.0
 27
1.0
 37
0.0
 76
     0
330
23
331
416
  0
LAYOUT
  5
1E
102
{ACAD_REACTORS
330
1A
102
}
330
1A
100
AcDbPlotSettings
  1

  2
none_device
  4
ISO_A4_(210.00_x_297.00_MM)
  6

 40
7.5
 41
20.0
 42
7.5
 43
20.0
 44
210.0
 45
297.0
 46
0.0
 47
0.0
 48
0.0
 49
0.0
140
0.0
141
0.0
142
1.0
143
1.0256410256
 70
   688
 72
     1
 73
     1
 74
     1
  7

 75
     0
147
0.975
148
100.0
149
100.0
100
AcDbLayout
  1
_Top
 70
     1
 71
     1
 10
-120.5128205128
 20
-107.6923076923
 11
184.1025641026
 21
107.6923076923
 12
0.0
 22
0.0
 32
0.0
 14
-100.0
 24
-100.0
 34
0.0
 15
100.0
 25
100.0
 35
0.0
146
0.0
 13
0.0
 23
0.0
 33
0.0
 16
1.0
 26
0.0
 36
0.0
 17
0.0
 27
1.0
 37
0.0
 76
     0
330
1B
331
414
  0
LAYOUT
  5
22
102
{ACAD_REACTORS
330
1A
102
}
330
1A
100
AcDbPlotSettings
  1

  2
none_device
  4
ANSI_A_(11.00_x_8.50_Inches)
  6

 40
6.35
 41
19.05
 42
6.35000508
 43
19.05000254
 44
279.4
 45
215.9
 46
133.34999746
 47
58.6128641177
 48
0.0
 49
0.0
140
0.0
141
0.0
142
0.05445
143
1.0
 70
  1696
 72
     0
 73
     0
 74
     0
  7

 75
     0
147
0.0179189148
148
-1300.4909072572
149
0.0
100
AcDbLayout
  1
Model
 70
     1
 71
     0
 10
0.0
 20
0.0
 11
420.0
 21
297.0
 12
0.0
 22
0.0
 32
0.0
 14
-100.0
 24
-5.0017676952
 34
0.0
 15
100.0
 25
48.8
 35
0.0
146
0.0
 13
0.0
 23
0.0
 33
0.0
 16
1.0
 26
0.0
 36
0.0
 17
0.0
 27
1.0
 37
0.0
 76
     0
330
1F
331
29
  0
MLINESTYLE
  5
18
102
{ACAD_REACTORS
330
17
102
}
330
17
100
AcDbMlineStyle
  2
Standard
 70
     0
  3

 62
   256
 51
90.0
 52
90.0
 71
     2
 49
0.5
 62
   256
  6
BYLAYER
 49
-0.5
 62
   256
  6
BYLAYER
  0
ACDBPLACEHOLDER
  5
F
102
{ACAD_REACTORS
330
E
102
}
330
E
  0
SCALE
  5
48
102
{ACAD_REACTORS
330
47
102
}
330
47
100
AcDbScale
 70
     0
300
1:1
140
1.0
141
1.0
290
     1
  0
SCALE
  5
49
102
{ACAD_REACTORS
330
47
102
}
330
47
100
AcDbScale
 70
     0
300
1:2
140
1.0
141
2.0
290
     0
  0
SCALE
  5
4A
102
{ACAD_REACTORS
330
47
102
}
330
47
100
AcDbScale
 70
     0
300
1:4
140
1.0
141
4.0
290
     0
  0
SCALE
  5
4B
102
{ACAD_REACTORS
330
47
102
}
330
47
100
AcDbScale
 70
     0
300
1:5
140
1.0
141
5.0
290
     0
  0
SCALE
  5
4C
102
{ACAD_REACTORS
330
47
102
}
330
47
100
AcDbScale
 70
     0
300
1:8
140
1.0
141
8.0
290
     0
  0
SCALE
  5
4D
102
{ACAD_REACTORS
330
47
102
}
330
47
100
AcDbScale
 70
     0
300
1:10
140
1.0
141
10.0
290
     0
  0
SCALE
  5
4E
102
{ACAD_REACTORS
330
47
102
}
330
47
100
AcDbScale
 70
     0
300
1:16
140
1.0
141
16.0
290
     0
  0
SCALE
  5
4F
102
{ACAD_REACTORS
330
47
102
}
330
47
100
AcDbScale
 70
     0
300
1:20
140
1.0
141
20.0
290
     0
  0
SCALE
  5
50
102
{ACAD_REACTORS
330
47
102
}
330
47
100
AcDbScale
 70
     0
300
1:30
140
1.0
141
30.0
290
     0
  0
SCALE
  5
51
102
{ACAD_REACTORS
330
47
102
}
330
47
100
AcDbScale
 70
     0
300
1:40
140
1.0
141
40.0
290
     0
  0
SCALE
  5
52
102
{ACAD_REACTORS
330
47
102
}
330
47
100
AcDbScale
 70
     0
300
1:50
140
1.0
141
50.0
290
     0
  0
SCALE
  5
53
102
{ACAD_REACTORS
330
47
102
}
330
47
100
AcDbScale
 70
     0
300
1:100
140
1.0
141
100.0
290
     0
  0
SCALE
  5
54
102
{ACAD_REACTORS
330
47
102
}
330
47
100
AcDbScale
 70
     0
300
2:1
140
2.0
141
1.0
290
     0
  0
SCALE
  5
55
102
{ACAD_REACTORS
330
47
102
}
330
47
100
AcDbScale
 70
     0
300
4:1
140
4.0
141
1.0
290
     0
  0
SCALE
  5
56
102
{ACAD_REACTORS
330
47
102
}
330
47
100
AcDbScale
 70
     0
300
8:1
140
8.0
141
1.0
290
     0
  0
SCALE
  5
57
102
{ACAD_REACTORS
330
47
102
}
330
47
100
AcDbScale
 70
     0
300
10:1
140
10.0
141
1.0
290
     0
  0
SCALE
  5
58
102
{ACAD_REACTORS
330
47
102
}
330
47
100
AcDbScale
 70
     0
300
100:1
140
100.0
141
1.0
290
     0
  0
SCALE
  5
59
102
{ACAD_REACTORS
330
47
102
}
330
47
100
AcDbScale
 70
     0
300
1/128" = 1'-0"
140
0.0078125
141
12.0
290
     0
  0
SCALE
  5
5A
102
{ACAD_REACTORS
330
47
102
}
330
47
100
AcDbScale
 70
     0
300
1/64" = 1'-0"
140
0.015625
141
12.0
290
     0
  0
SCALE
  5
5B
102
{ACAD_REACTORS
330
47
102
}
330
47
100
AcDbScale
 70
     0
300
1/32" = 1'-0"
140
0.03125
141
12.0
290
     0
  0
SCALE
  5
5C
102
{ACAD_REACTORS
330
47
102
}
330
47
100
AcDbScale
 70
     0
300
1/16" = 1'-0"
140
0.0625
141
12.0
290
     0
  0
SCALE
  5
5D
102
{ACAD_REACTORS
330
47
102
}
330
47
100
AcDbScale
 70
     0
300
3/32" = 1'-0"
140
0.09375
141
12.0
290
     0
  0
SCALE
  5
5E
102
{ACAD_REACTORS
330
47
102
}
330
47
100
AcDbScale
 70
     0
300
1/8" = 1'-0"
140
0.125
141
12.0
290
     0
  0
SCALE
  5
5F
102
{ACAD_REACTORS
330
47
102
}
330
47
100
AcDbScale
 70
     0
300
3/16" = 1'-0"
140
0.1875
141
12.0
290
     0
  0
SCALE
  5
60
102
{ACAD_REACTORS
330
47
102
}
330
47
100
AcDbScale
 70
     0
300
1/4" = 1'-0"
140
0.25
141
12.0
290
     0
  0
SCALE
  5
61
102
{ACAD_REACTORS
330
47
102
}
330
47
100
AcDbScale
 70
     0
300
3/8" = 1'-0"
140
0.375
141
12.0
290
     0
  0
SCALE
  5
62
102
{ACAD_REACTORS
330
47
102
}
330
47
100
AcDbScale
 70
     0
300
1/2" = 1'-0"
140
0.5
141
12.0
290
     0
  0
SCALE
  5
63
102
{ACAD_REACTORS
330
47
102
}
330
47
100
AcDbScale
 70
     0
300
3/4" = 1'-0"
140
0.75
141
12.0
290
     0
  0
SCALE
  5
64
102
{ACAD_REACTORS
330
47
102
}
330
47
100
AcDbScale
 70
     0
300
1" = 1'-0"
140
1.0
141
12.0
290
     0
  0
SCALE
  5
65
102
{ACAD_REACTORS
330
47
102
}
330
47
100
AcDbScale
 70
     0
300
1-1/2" = 1'-0"
140
1.5
141
12.0
290
     0
  0
SCALE
  5
66
102
{ACAD_REACTORS
330
47
102
}
330
47
100
AcDbScale
 70
     0
300
3" = 1'-0"
140
3.0
141
12.0
290
     0
  0
SCALE
  5
67
102
{ACAD_REACTORS
330
47
102
}
330
47
100
AcDbScale
 70
     0
300
6" = 1'-0"
140
6.0
141
12.0
290
     0
  0
SCALE
  5
68
102
{ACAD_REACTORS
330
47
102
}
330
47
100
AcDbScale
 70
     0
300
1'-0" = 1'-0"
140
12.0
141
12.0
290
     0
  0
ENDSEC
  0
EOF
