  0
SECTION
  2
HEADER
  9
$ACADVER
  1
AC1015
  9
$ACADMAINTVER
 70
     6
  9
$DWGCODEPAGE
  3
ANSI_1252
  9
$INSBASE
 10
0.0
 20
0.0
 30
0.0
  9
$EXTMIN
 10
-5.8700787402
 20
-0.0196850394
 30
0.0
  9
$EXTMAX
 10
5.8700787402
 20
8.6255216758
 30
0.0
  9
$LIMMIN
 10
0.0
 20
0.0
  9
$LIMMAX
 10
12.0
 20
9.0
  9
$ORTHOMODE
 70
     0
  9
$REGENMODE
 70
     1
  9
$FILLMODE
 70
     1
  9
$QTEXTMODE
 70
     0
  9
$MIRRTEXT
 70
     1
  9
$LTSCALE
 40
1.0
  9
$ATTMODE
 70
     1
  9
$TEXTSIZE
 40
0.1377952756
  9
$TRACEWID
 40
0.05
  9
$TEXTSTYLE
  7
Standard
  9
$CLAYER
  8
0
  9
$CELTYPE
  6
ByLayer
  9
$CECOLOR
 62
   256
  9
$CELTSCALE
 40
1.0
  9
$DISPSILH
 70
     0
  9
$DIMSCALE
 40
1.0
  9
$DIMASZ
 40
0.13
  9
$DIMEXO
 40
0.0393700787
  9
$DIMDLI
 40
0.38
  9
$DIMRND
 40
0.0
  9
$DIMDLE
 40
0.0
  9
$DIMEXE
 40
0.0393700787
  9
$DIMTP
 40
0.0
  9
$DIMTM
 40
0.0
  9
$DIMTXT
 40
0.1377952756
  9
$DIMCEN
 40
0.09
  9
$DIMTSZ
 40
0.0
  9
$DIMTOL
 70
     0
  9
$DIMLIM
 70
     0
  9
$DIMTIH
 70
     1
  9
$DIMTOH
 70
     1
  9
$DIMSE1
 70
     0
  9
$DIMSE2
 70
     0
  9
$DIMTAD
 70
     1
  9
$DIMZIN
 70
     1
  9
$DIMBLK
  1

  9
$DIMASO
 70
     1
  9
$DIMSHO
 70
     1
  9
$DIMPOST
  1

  9
$DIMAPOST
  1

  9
$DIMALT
 70
     0
  9
$DIMALTD
 70
     2
  9
$DIMALTF
 40
25.4
  9
$DIMLFAC
 40
1.0
  9
$DIMTOFL
 70
     0
  9
$DIMTVP
 40
0.0
  9
$DIMTIX
 70
     0
  9
$DIMSOXD
 70
     0
  9
$DIMSAH
 70
     0
  9
$DIMBLK1
  1

  9
$DIMBLK2
  1

  9
$DIMSTYLE
  2
Standard
  9
$DIMCLRD
 70
     0
  9
$DIMCLRE
 70
     0
  9
$DIMCLRT
 70
     0
  9
$DIMTFAC
 40
1.0
  9
$DIMGAP
 40
0.06
  9
$DIMJUST
 70
     0
  9
$DIMSD1
 70
     0
  9
$DIMSD2
 70
     0
  9
$DIMTOLJ
 70
     1
  9
$DIMTZIN
 70
     1
  9
$DIMALTZ
 70
     0
  9
$DIMALTTZ
 70
     0
  9
$DIMUPT
 70
     0
  9
$DIMDEC
 70
     2
  9
$DIMTDEC
 70
     2
  9
$DIMALTU
 70
     2
  9
$DIMALTTD
 70
     2
  9
$DIMTXSTY
  7
Standard
  9
$DIMAUNIT
 70
     0
  9
$DIMADEC
 70
     2
  9
$DIMALTRND
 40
0.0
  9
$DIMAZIN
 70
     0
  9
$DIMDSEP
 70
    46
  9
$DIMATFIT
 70
     3
  9
$DIMFRAC
 70
     0
  9
$DIMLDRBLK
  1

  9
$DIMLUNIT
 70
     2
  9
$DIMLWD
 70
    -2
  9
$DIMLWE
 70
    -2
  9
$DIMTMOVE
 70
     0
  9
$LUNITS
 70
     2
  9
$LUPREC
 70
     2
  9
$SKETCHINC
 40
0.1
  9
$FILLETRAD
 40
0.5
  9
$AUNITS
 70
     0
  9
$AUPREC
 70
     2
  9
$MENU
  1
.
  9
$ELEVATION
 40
0.0
  9
$PELEVATION
 40
0.0
  9
$THICKNESS
 40
0.0
  9
$LIMCHECK
 70
     0
  9
$CHAMFERA
 40
0.0
  9
$CHAMFERB
 40
0.0
  9
$CHAMFERC
 40
0.0
  9
$CHAMFERD
 40
0.0
  9
$SKPOLY
 70
     0
  9
$TDCREATE
 40
2459899.538806852
  9
$TDUCREATE
 40
2459899.538806852
  9
$TDUPDATE
 40
2459899.538881852
  9
$TDUUPDATE
 40
2459899.538881852
  9
$TDINDWG
 40
0.0000000116
  9
$TDUSRTIMER
 40
0.0000000116
  9
$USRTIMER
 70
     1
  9
$ANGBASE
 50
0.0
  9
$ANGDIR
 70
     0
  9
$PDMODE
 70
     0
  9
$PDSIZE
 40
-1.0
  9
$PLINEWID
 40
0.0
  9
$SPLFRAME
 70
     0
  9
$SPLINETYPE
 70
     6
  9
$SPLINESEGS
 70
     8
  9
$HANDSEED
  5
8AD
  9
$SURFTAB1
 70
     6
  9
$SURFTAB2
 70
     6
  9
$SURFTYPE
 70
     6
  9
$SURFU
 70
     6
  9
$SURFV
 70
     6
  9
$UCSBASE
  2

  9
$UCSNAME
  2

  9
$UCSORG
 10
0.0
 20
0.0
 30
0.0
  9
$UCSXDIR
 10
1.0
 20
0.0
 30
0.0
  9
$UCSYDIR
 10
0.0
 20
1.0
 30
0.0
  9
$UCSORTHOREF
  2

  9
$UCSORTHOVIEW
 70
     0
  9
$UCSORGTOP
 10
0.0
 20
0.0
 30
0.0
  9
$UCSORGBOTTOM
 10
0.0
 20
0.0
 30
0.0
  9
$UCSORGLEFT
 10
0.0
 20
0.0
 30
0.0
  9
$UCSORGRIGHT
 10
0.0
 20
0.0
 30
0.0
  9
$UCSORGFRONT
 10
0.0
 20
0.0
 30
0.0
  9
$UCSORGBACK
 10
0.0
 20
0.0
 30
0.0
  9
$PUCSBASE
  2

  9
$PUCSNAME
  2

  9
$PUCSORG
 10
0.0
 20
0.0
 30
0.0
  9
$PUCSXDIR
 10
1.0
 20
0.0
 30
0.0
  9
$PUCSYDIR
 10
0.0
 20
1.0
 30
0.0
  9
$PUCSORTHOREF
  2

  9
$PUCSORTHOVIEW
 70
     0
  9
$PUCSORGTOP
 10
0.0
 20
0.0
 30
0.0
  9
$PUCSORGBOTTOM
 10
0.0
 20
0.0
 30
0.0
  9
$PUCSORGLEFT
 10
0.0
 20
0.0
 30
0.0
  9
$PUCSORGRIGHT
 10
0.0
 20
0.0
 30
0.0
  9
$PUCSORGFRONT
 10
0.0
 20
0.0
 30
0.0
  9
$PUCSORGBACK
 10
0.0
 20
0.0
 30
0.0
  9
$USERI1
 70
     0
  9
$USERI2
 70
     0
  9
$USERI3
 70
     0
  9
$USERI4
 70
     0
  9
$USERI5
 70
     0
  9
$USERR1
 40
0.0
  9
$USERR2
 40
0.0
  9
$USERR3
 40
0.0
  9
$USERR4
 40
0.0
  9
$USERR5
 40
0.0
  9
$WORLDVIEW
 70
     1
  9
$SHADEDGE
 70
     3
  9
$SHADEDIF
 70
    70
  9
$TILEMODE
 70
     1
  9
$MAXACTVP
 70
    64
  9
$PINSBASE
 10
0.0
 20
0.0
 30
0.0
  9
$PLIMCHECK
 70
     0
  9
$PEXTMIN
 10
-1.1023622047
 20
-0.0196850394
 30
0.0
  9
$PEXTMAX
 10
5.4601290196
 20
8.6255216758
 30
0.0
  9
$PLIMMIN
 10
-1.3725253533
 20
-0.2898477625
  9
$PLIMMAX
 10
10.514634465
 20
8.8956848244
  9
$UNITMODE
 70
     0
  9
$VISRETAIN
 70
     1
  9
$PLINEGEN
 70
     0
  9
$PSLTSCALE
 70
     1
  9
$TREEDEPTH
 70
  3020
  9
$CMLSTYLE
  2
Standard
  9
$CMLJUST
 70
     0
  9
$CMLSCALE
 40
1.0
  9
$PROXYGRAPHICS
 70
     1
  9
$MEASUREMENT
 70
     0
  9
$CELWEIGHT
370
    -1
  9
$ENDCAPS
280
     0
  9
$JOINSTYLE
280
     0
  9
$LWDISPLAY
290
     1
  9
$INSUNITS
 70
     1
  9
$HYPERLINKBASE
  1

  9
$STYLESHEET
  1

  9
$XEDIT
290
     1
  9
$CEPSNTYPE
380
     0
  9
$PSTYLEMODE
290
     1
  9
$FINGERPRINTGUID
  2
{5d9b6509-9da5-46e2-9d44-a0d7a536bcf4}
  9
$VERSIONGUID
  2
{FAEB1C32-E019-11D5-929B-00C0DF256EC4}
  9
$EXTNAMES
290
     1
  9
$PSVPSCALE
 40
0.0
  9
$OLESTARTUP
290
     0
  0
ENDSEC
  0
SECTION
  2
CLASSES
  0
CLASS
  1
ACDBDICTIONARYWDFLT
  2
AcDbDictionaryWithDefault
  3
ObjectDBX Classes
 90
        0
280
     0
281
     0
  0
CLASS
  1
VISUALSTYLE
  2
AcDbVisualStyle
  3
ObjectDBX Classes
 90
     4095
280
     0
281
     0
  0
CLASS
  1
MATERIAL
  2
AcDbMaterial
  3
ObjectDBX Classes
 90
     1153
280
     0
281
     0
  0
CLASS
  1
SCALE
  2
AcDbScale
  3
ObjectDBX Classes
 90
     1153
280
     0
281
     0
  0
CLASS
  1
TABLESTYLE
  2
AcDbTableStyle
  3
ObjectDBX Classes
 90
     4095
280
     0
281
     0
  0
CLASS
  1
MLEADERSTYLE
  2
AcDbMLeaderStyle
  3
ACDB_MLEADERSTYLE_CLASS
 90
     4095
280
     0
281
     0
  0
CLASS
  1
SUN
  2
AcDbSun
  3
SCENEOE
 90
     1153
280
     0
281
     0
  0
CLASS
  1
ACDBPLACEHOLDER
  2
AcDbPlaceHolder
  3
ObjectDBX Classes
 90
        0
280
     0
281
     0
  0
CLASS
  1
LAYOUT
  2
AcDbLayout
  3
ObjectDBX Classes
 90
        0
280
     0
281
     0
  0
ENDSEC
  0
SECTION
  2
TABLES
  0
TABLE
  2
VPORT
  5
8
330
0
100
AcDbSymbolTable
 70
     1
  0
VPORT
  5
29
330
8
100
AcDbSymbolTableRecord
100
AcDbViewportTableRecord
  2
*Active
 70
     0
 10
0.0
 20
0.0
 11
1.0
 21
1.0
 12
0.0
 22
4.3029183182
 13
0.0
 23
0.0
 14
0.5
 24
0.5
 15
0.5
 25
0.5
 16
0.0
 26
0.0
 36
1.0
 17
0.0
 27
0.0
 37
0.0
 40
8.8181108495
 41
1.3579961552
 42
50.0
 43
0.0
 44
0.0
 50
0.0
 51
0.0
 71
     0
 72
   100
 73
     1
 74
     3
 75
     0
 76
     0
 77
     0
 78
     0
281
     0
 65
     1
110
0.0
120
0.0
130
0.0
111
1.0
121
0.0
131
0.0
112
0.0
122
1.0
132
0.0
 79
     0
146
0.0
  0
ENDTAB
  0
TABLE
  2
LTYPE
  5
5
330
0
100
AcDbSymbolTable
 70
     6
  0
LTYPE
  5
14
330
5
100
AcDbSymbolTableRecord
100
AcDbLinetypeTableRecord
  2
ByBlock
 70
     0
  3

 72
    65
 73
     0
 40
0.0
  0
LTYPE
  5
15
330
5
100
AcDbSymbolTableRecord
100
AcDbLinetypeTableRecord
  2
ByLayer
 70
     0
  3

 72
    65
 73
     0
 40
0.0
  0
LTYPE
  5
16
330
5
100
AcDbSymbolTableRecord
100
AcDbLinetypeTableRecord
  2
Continuous
 70
     0
  3
Solid line
 72
    65
 73
     0
 40
0.0
  0
LTYPE
  5
6E
330
5
100
AcDbSymbolTableRecord
100
AcDbLinetypeTableRecord
  2
HIDDEN
 70
     0
  3
Hidden __ __ __ __ __ __ __ __ __ __ __ __ __ __
 72
    65
 73
     2
 40
0.075
 49
0.05
 74
     0
 49
-0.025
 74
     0
  0
LTYPE
  5
6F
330
5
100
AcDbSymbolTableRecord
100
AcDbLinetypeTableRecord
  2
PHANTOM
 70
     0
  3
Phantom ______  __  __  ______  __  __  ______
 72
    65
 73
     6
 40
0.5
 49
0.25
 74
     0
 49
-0.05
 74
     0
 49
0.05
 74
     0
 49
-0.05
 74
     0
 49
0.05
 74
     0
 49
-0.05
 74
     0
  0
LTYPE
  5
70
330
5
100
AcDbSymbolTableRecord
100
AcDbLinetypeTableRecord
  2
CENTER
 70
     0
  3
Center ____ _ ____ _ ____ _ ____ _ ____ _ ____
 72
    65
 73
     4
 40
0.4
 49
0.25
 74
     0
 49
-0.05
 74
     0
 49
0.05
 74
     0
 49
-0.05
 74
     0
  0
LTYPE
  5
71
330
5
100
AcDbSymbolTableRecord
100
AcDbLinetypeTableRecord
  2
CENTERX2
 70
     0
  3
Center (2x) ________  __  ________  __  _____
 72
    65
 73
     4
 40
0.8
 49
0.5
 74
     0
 49
-0.1
 74
     0
 49
0.1
 74
     0
 49
-0.1
 74
     0
  0
LTYPE
  5
72
330
5
100
AcDbSymbolTableRecord
100
AcDbLinetypeTableRecord
  2
DOT2
 70
     0
  3
Dot (.5x) ........................................
 72
    65
 73
     2
 40
0.025
 49
0.0
 74
     0
 49
-0.025
 74
     0
  0
ENDTAB
  0
TABLE
  2
LAYER
  5
2
330
0
100
AcDbSymbolTable
 70
     1
  0
LAYER
  5
10
330
2
100
AcDbSymbolTableRecord
100
AcDbLayerTableRecord
  2
0
 70
     0
 62
     7
  6
Continuous
370
    -3
390
F
  0
ENDTAB
  0
TABLE
  2
STYLE
  5
3
330
0
100
AcDbSymbolTable
 70
     1
  0
STYLE
  5
11
330
3
100
AcDbSymbolTableRecord
100
AcDbTextStyleTableRecord
  2
Standard
 70
     0
 40
0.0
 41
1.0
 50
0.0
 71
     0
 42
0.1377952756
  3
txt
  4

  0
ENDTAB
  0
TABLE
  2
VIEW
  5
6
330
0
100
AcDbSymbolTable
 70
     0
  0
ENDTAB
  0
TABLE
  2
UCS
  5
7
330
0
100
AcDbSymbolTable
 70
     0
  0
ENDTAB
  0
TABLE
  2
APPID
  5
9
330
0
100
AcDbSymbolTable
 70
     1
  0
APPID
  5
12
330
9
100
AcDbSymbolTableRecord
100
AcDbRegAppTableRecord
  2
ACAD
 70
     0
  0
ENDTAB
  0
TABLE
  2
DIMSTYLE
  5
A
330
0
100
AcDbSymbolTable
 70
     1
100
AcDbDimStyleTable
  0
DIMSTYLE
105
27
330
A
100
AcDbSymbolTableRecord
100
AcDbDimStyleTableRecord
  2
Standard
 70
     0
178
     0
340
11
  0
ENDTAB
  0
TABLE
  2
BLOCK_RECORD
  5
1
330
0
100
AcDbSymbolTable
 70
     2
  0
BLOCK_RECORD
  5
1F
330
1
100
AcDbSymbolTableRecord
100
AcDbBlockTableRecord
  2
*Model_Space
340
22
  0
BLOCK_RECORD
  5
1B
330
1
100
AcDbSymbolTableRecord
100
AcDbBlockTableRecord
  2
*Paper_Space
340
1E
  0
BLOCK_RECORD
  5
23
330
1
100
AcDbSymbolTableRecord
100
AcDbBlockTableRecord
  2
*Paper_Space0
340
26
  0
BLOCK_RECORD
  5
7B8
330
1
100
AcDbSymbolTableRecord
100
AcDbBlockTableRecord
  2
*Paper_Space1
340
7B9
  0
ENDTAB
  0
ENDSEC
  0
SECTION
  2
BLOCKS
  0
BLOCK
  5
20
330
1F
100
AcDbEntity
  8
0
100
AcDbBlockBegin
  2
*Model_Space
 70
     0
 10
0.0
 20
0.0
 30
0.0
  3
*Model_Space
  1

  0
ENDBLK
  5
21
330
1F
100
AcDbEntity
  8
0
100
AcDbBlockEnd
  0
BLOCK
  5
1C
330
1B
100
AcDbEntity
 67
     1
  8
0
100
AcDbBlockBegin
  2
*Paper_Space
 70
     0
 10
0.0
 20
0.0
 30
0.0
  3
*Paper_Space
  1

  0
ENDBLK
  5
1D
330
1B
100
AcDbEntity
 67
     1
  8
0
100
AcDbBlockEnd
  0
BLOCK
  5
24
330
23
100
AcDbEntity
  8
0
100
AcDbBlockBegin
  2
*Paper_Space0
 70
     0
 10
0.0
 20
0.0
 30
0.0
  3
*Paper_Space0
  1

  0
LINE
  5
78D
330
23
100
AcDbEntity
  8
0
  6
Continuous
 62
     7
370
    25
100
AcDbLine
 10
-0.4724409449
 20
0.0
 30
0.0
 11
-0.4724409449
 21
-4.9977539437
 31
0.0
  0
LINE
  5
78E
330
23
100
AcDbEntity
  8
0
  6
Continuous
 62
     7
370
    25
100
AcDbLine
 10
0.4724409449
 20
-4.9977539437
 30
0.0
 11
0.4724409449
 21
0.0
 31
0.0
  0
LINE
  5
78F
330
23
100
AcDbEntity
  8
0
  6
Continuous
 62
     7
370
    25
100
AcDbLine
 10
5.8503937008
 20
0.157480315
 30
0.0
 11
4.6707372062
 21
0.157480315
 31
0.0
  0
LINE
  5
790
330
23
100
AcDbEntity
  8
0
  6
Continuous
 62
     7
370
    25
100
AcDbLine
 10
4.6707372062
 20
-0.157480315
 30
0.0
 11
5.8503937008
 21
-0.157480315
 31
0.0
  0
LINE
  5
791
330
23
100
AcDbEntity
  8
0
  6
Continuous
 62
     7
370
    25
100
AcDbLine
 10
-5.8503937008
 20
-0.157480315
 30
0.0
 11
-4.6707372062
 21
-0.157480315
 31
0.0
  0
LINE
  5
792
330
23
100
AcDbEntity
  8
0
  6
Continuous
 62
     7
370
    25
100
AcDbLine
 10
-4.6707372062
 20
0.157480315
 30
0.0
 11
-5.8503937008
 21
0.157480315
 31
0.0
  0
LINE
  5
793
330
23
100
AcDbEntity
  8
0
  6
Continuous
 62
     7
370
    25
100
AcDbLine
 10
-0.4763779528
 20
0.0
 30
0.0
 11
-0.4724409449
 21
-0.061118798
 31
0.0
  0
LINE
  5
794
330
23
100
AcDbEntity
  8
0
  6
Continuous
 62
     7
370
    25
100
AcDbLine
 10
0.4724409449
 20
-0.061118798
 30
0.0
 11
0.4763779528
 21
0.0
 31
0.0
  0
LINE
  5
795
330
23
100
AcDbEntity
  8
0
  6
Continuous
 62
     7
370
    25
100
AcDbLine
 10
1.1023622047
 20
0.0
 30
0.0
 11
1.062992126
 21
0.0
 31
0.0
  0
LINE
  5
796
330
23
100
AcDbEntity
  8
0
  6
Continuous
 62
     7
370
    25
100
AcDbLine
 10
-1.1023622047
 20
0.0
 30
0.0
 11
-1.062992126
 21
0.0
 31
0.0
  0
LINE
  5
797
330
23
100
AcDbEntity
  8
0
  6
Continuous
 62
     7
370
    25
100
AcDbLine
 10
0.0
 20
0.4724409449
 30
0.0
 11
0.0
 21
-5.4598709204
 31
0.0
  0
LINE
  5
798
330
23
100
AcDbEntity
  8
0
  6
Continuous
 62
     7
370
    25
100
AcDbLine
 10
4.0
 20
-0.688976378
 30
0.0
 11
4.0
 21
-0.6692913386
 31
0.0
  0
LINE
  5
799
330
23
100
AcDbEntity
  8
0
  6
Continuous
 62
     7
370
    25
100
AcDbLine
 10
4.0
 20
0.688976378
 30
0.0
 11
4.0
 21
0.6692913386
 31
0.0
  0
LINE
  5
79A
330
23
100
AcDbEntity
  8
0
  6
Continuous
 62
     7
370
    25
100
AcDbLine
 10
2.9566929134
 20
0.0
 30
0.0
 11
2.937007874
 21
0.0
 31
0.0
  0
LINE
  5
79B
330
23
100
AcDbEntity
  8
0
  6
Continuous
 62
     7
370
    25
100
AcDbLine
 10
5.8700787402
 20
-0.1377952756
 30
0.0
 11
5.8700787402
 21
0.1377952756
 31
0.0
  0
LINE
  5
79C
330
23
100
AcDbEntity
  8
0
  6
Continuous
 62
     7
370
    25
100
AcDbLine
 10
5.8700787402
 20
0.0
 30
0.0
 11
4.688976378
 21
0.0
 31
0.0
  0
LINE
  5
79D
330
23
100
AcDbEntity
  8
0
  6
Continuous
 62
     7
370
    25
100
AcDbLine
 10
-4.0
 20
0.688976378
 30
0.0
 11
-4.0
 21
0.6692913386
 31
0.0
  0
LINE
  5
79E
330
23
100
AcDbEntity
  8
0
  6
Continuous
 62
     7
370
    25
100
AcDbLine
 10
-4.0
 20
-0.688976378
 30
0.0
 11
-4.0
 21
-0.6692913386
 31
0.0
  0
LINE
  5
79F
330
23
100
AcDbEntity
  8
0
  6
Continuous
 62
     7
370
    25
100
AcDbLine
 10
-5.8700787402
 20
0.1377952756
 30
0.0
 11
-5.8700787402
 21
-0.1377952756
 31
0.0
  0
LINE
  5
7A0
330
23
100
AcDbEntity
  8
0
  6
Continuous
 62
     7
370
    25
100
AcDbLine
 10
-5.8700787402
 20
0.0
 30
0.0
 11
-4.688976378
 21
0.0
 31
0.0
  0
LINE
  5
7A1
330
23
100
AcDbEntity
  8
0
  6
Continuous
 62
     7
370
    25
100
AcDbLine
 10
-2.9566929134
 20
0.0
 30
0.0
 11
-2.937007874
 21
0.0
 31
0.0
  0
LINE
  5
7A2
330
23
100
AcDbEntity
  8
0
  6
Continuous
 62
     8
370
    25
100
AcDbLine
 10
5.8503937008
 20
-0.157480315
 30
0.0
 11
5.8503937008
 21
0.157480315
 31
0.0
  0
LINE
  5
7A3
330
23
100
AcDbEntity
  8
0
  6
Continuous
 62
     8
370
    25
100
AcDbLine
 10
-5.8503937008
 20
0.157480315
 30
0.0
 11
-5.8503937008
 21
-0.157480315
 31
0.0
  0
ARC
  5
7A4
330
23
100
AcDbEntity
  8
0
  6
Continuous
 62
     7
370
    25
100
AcDbCircle
 10
5.8503937008
 20
0.1377952756
 30
0.0
 40
0.0196850393700787
100
AcDbArc
 50
360.0
 51
90.0
  0
ARC
  5
7A5
330
23
100
AcDbEntity
  8
0
  6
Continuous
 62
     7
370
    25
100
AcDbCircle
 10
5.8503937008
 20
-0.1377952756
 30
0.0
 40
0.0196850393700787
100
AcDbArc
 50
270.0
 51
0.0
  0
ARC
  5
7A6
330
23
100
AcDbEntity
  8
0
  6
Continuous
 62
     7
370
    25
100
AcDbCircle
 10
-5.8503937008
 20
-0.1377952756
 30
0.0
 40
0.0196850393700787
100
AcDbArc
 50
180.0
 51
270.0
  0
ARC
  5
7A7
330
23
100
AcDbEntity
  8
0
  6
Continuous
 62
     7
370
    25
100
AcDbCircle
 10
-5.8503937008
 20
0.1377952756
 30
0.0
 40
0.0196850393700787
100
AcDbArc
 50
90.0
 51
180.0
  0
ARC
  5
7A8
330
23
100
AcDbEntity
  8
0
  6
Continuous
 62
     7
370
    25
100
AcDbCircle
 10
0.0
 20
0.0
 30
0.0
 40
0.4763779527559055
100
AcDbArc
 50
0.0
 51
180.0
  0
ARC
  5
7A9
330
23
100
AcDbEntity
  8
0
  6
Continuous
 62
     7
370
    25
100
AcDbCircle
 10
0.0
 20
0.0
 30
0.0
 40
1.062992125984255
100
AcDbArc
 50
296.3877999612
 51
243.6122000388
  0
ARC
  5
7AA
330
23
100
AcDbEntity
  8
0
  6
Continuous
 62
     7
370
    25
100
AcDbCircle
 10
0.0
 20
0.0
 30
0.0
 40
1.102362204724407
100
AcDbArc
 50
295.3769335252
 51
244.6230664748
  0
ARC
  5
7AB
330
23
100
AcDbEntity
  8
0
  6
Continuous
 62
     7
370
    25
100
AcDbCircle
 10
0.0
 20
0.0
 30
0.0
 40
0.47244094488189
100
AcDbArc
 50
0.0
 51
180.0
  0
ARC
  5
7AC
330
23
100
AcDbEntity
  8
0
  6
Continuous
 62
     7
370
    25
100
AcDbCircle
 10
0.0051055832
 20
-4.9925342987
 30
0.0
 40
0.4673645097380982
100
AcDbArc
 50
269.3740770161
 51
359.3600929492
  0
ARC
  5
7AD
330
23
100
AcDbEntity
  8
0
  6
Continuous
 62
     7
370
    25
100
AcDbCircle
 10
-0.0051055832
 20
-4.9925342987
 30
0.0
 40
0.4673645097376758
100
AcDbArc
 50
180.6399070508
 51
270.6259229839
  0
ARC
  5
7AE
330
23
100
AcDbEntity
  8
0
  6
Continuous
 62
     7
370
    25
100
AcDbCircle
 10
4.0
 20
0.0
 30
0.0
 40
0.688976377952756
100
AcDbArc
 50
270.0
 51
90.0
  0
ARC
  5
7AF
330
23
100
AcDbEntity
  8
0
  6
Continuous
 62
     7
370
    25
100
AcDbCircle
 10
4.0
 20
0.0
 30
0.0
 40
0.6692913385826772
100
AcDbArc
 50
270.0
 51
90.0
  0
ARC
  5
7B0
330
23
100
AcDbEntity
  8
0
  6
Continuous
 62
     7
370
    25
100
AcDbCircle
 10
4.0
 20
0.0
 30
0.0
 40
1.062992125984252
100
AcDbArc
 50
8.5196242541
 51
351.4803757459
  0
ARC
  5
7B1
330
23
100
AcDbEntity
  8
0
  6
Continuous
 62
     7
370
    25
100
AcDbCircle
 10
-4.0
 20
0.0
 30
0.0
 40
0.688976377952756
100
AcDbArc
 50
90.0
 51
270.0
  0
ARC
  5
7B2
330
23
100
AcDbEntity
  8
0
  6
Continuous
 62
     7
370
    25
100
AcDbCircle
 10
-4.0
 20
0.0
 30
0.0
 40
0.6692913385826772
100
AcDbArc
 50
90.0
 51
270.0
  0
ARC
  5
7B3
330
23
100
AcDbEntity
  8
0
  6
Continuous
 62
     7
370
    25
100
AcDbCircle
 10
-4.0
 20
0.0
 30
0.0
 40
1.062992125984252
100
AcDbArc
 50
188.5196242541
 51
171.4803757459
  0
ARC
  5
7B4
330
23
100
AcDbEntity
  8
0
  6
Continuous
 62
     8
370
    25
100
AcDbCircle
 10
-0.0051055832
 20
-4.6675699631
 30
0.0
 40
0.4673645097376751
100
AcDbArc
 50
180.6399070508
 51
270.6259229839
  0
ARC
  5
7B5
330
23
100
AcDbEntity
  8
0
  6
Continuous
 62
     8
370
    25
100
AcDbCircle
 10
0.0051055832
 20
-4.6675699631
 30
0.0
 40
0.4673645097376756
100
AcDbArc
 50
269.3740770161
 51
359.3600929492
  0
ARC
  5
7B6
330
23
100
AcDbEntity
  8
0
  6
Continuous
 62
     8
370
    25
100
AcDbCircle
 10
4.0
 20
0.0
 30
0.0
 40
1.043307086614174
100
AcDbArc
 50
8.6816016968
 51
351.3183983032
  0
ARC
  5
7B7
330
23
100
AcDbEntity
  8
0
  6
Continuous
 62
     8
370
    25
100
AcDbCircle
 10
-4.0
 20
0.0
 30
0.0
 40
1.043307086614174
100
AcDbArc
 50
188.6816016968
 51
171.3183983032
  0
VIEWPORT
  5
8A9
330
23
100
AcDbEntity
  8
0
100
AcDbViewport
 10
0.0
 20
0.0
 30
0.0
 40
8.4
 41
6.4
 68
     1
 69
     1
 12
0.0
 22
4.3029183182
 13
0.0
 23
0.0
 14
0.5
 24
0.5
 15
0.5
 25
0.5
 16
0.0
 26
0.0
 36
1.0
 17
0.0
 27
0.0
 37
0.0
 42
50.0
 43
0.0
 44
0.0
 45
9.1237795276
 50
0.0
 51
0.0
 72
   100
 90
   557152
  1

281
     0
 71
     1
 74
     0
110
0.0
120
0.0
130
0.0
111
1.0
121
0.0
131
0.0
112
0.0
122
1.0
132
0.0
 79
     0
146
0.0
  0
ENDBLK
  5
25
330
23
100
AcDbEntity
  8
0
100
AcDbBlockEnd
  0
BLOCK
  5
7BA
330
7B8
100
AcDbEntity
  8
0
100
AcDbBlockBegin
  2
*Paper_Space1
 70
     0
 10
0.0
 20
0.0
 30
0.0
  3
*Paper_Space1
  1

  0
SPLINE
  5
7BF
330
7B8
100
AcDbEntity
  8
0
  6
Continuous
 62
     7
370
    25
100
AcDbSpline
210
0.0
220
0.0
230
1.0
 70
     8
 71
     3
 72
    14
 73
    10
 74
     0
 42
0.000000001
 43
0.00000001
 40
0.0
 40
0.0
 40
0.0
 40
0.0
 40
0.0870535262476202
 40
0.2521673126822122
 40
0.4173701072739311
 40
0.5823565725520088
 40
0.746803384203913
 40
0.9103078355589279
 40
1.0
 40
1.0
 40
1.0
 40
1.0
 10
-0.7713323802502957
 20
0.6287504894257656
 30
0.0
 10
-0.7843180288311506
 20
0.6210215530856985
 30
0.0
 10
-0.8219334620848882
 20
0.5986331997268375
 30
0.0
 10
-0.878733471879083
 20
0.5583539751958864
 30
0.0
 10
-0.9385990678989756
 20
0.5069470529719042
 30
0.0
 10
-0.9900319989022431
 20
0.4521085671803573
 30
0.0
 10
-1.031966486616367
 20
0.3943313426560487
 30
0.0
 10
-1.061090319659764
 20
0.3434242284998789
 30
0.0
 10
-1.07222485128119
 20
0.3112736780772836
 30
0.0
 10
-1.076169138759217
 20
0.2998846930929947
 30
0.0
  0
SPLINE
  5
7C1
330
7B8
100
AcDbEntity
  8
0
  6
Continuous
 62
     7
370
    25
100
AcDbSpline
210
0.0
220
0.0
230
1.0
 70
     8
 71
     3
 72
    17
 73
    13
 74
     0
 42
0.000000001
 43
0.00000001
 40
0.0
 40
0.0
 40
0.0
 40
0.0
 40
0.1002152109603897
 40
0.2018318269374845
 40
0.3042882575840072
 40
0.4074668830921449
 40
0.5111524661471193
 40
0.6151272532338801
 40
0.7192227362241641
 40
0.8233129314204605
 40
0.9273456140172739
 40
1.0
 40
1.0
 40
1.0
 40
1.0
 10
1.078303946287522
 20
0.2974307046129728
 30
0.0
 10
1.070256619333421
 20
0.3173851810379686
 30
0.0
 10
1.054049431965913
 20
0.3575731763915858
 30
0.0
 10
1.017859724097929
 20
0.4155272494970649
 30
0.0
 10
0.9731330198304592
 20
0.4714689264572919
 30
0.0
 10
0.9193866597297063
 20
0.5246174755816928
 30
0.0
 10
0.8573373593786316
 20
0.574504453759437
 30
0.0
 10
0.7874974339413447
 20
0.6206165790425575
 30
0.0
 10
0.7106226570842892
 20
0.6625900312568959
 30
0.0
 10
0.6272512182873949
 20
0.6998089004216923
 30
0.0
 10
0.5477745986427544
 20
0.7295588926234272
 30
0.0
 10
0.4943920495124442
 20
0.7445269363987559
 30
0.0
 10
0.4724409448818899
 20
0.7506818521976419
 30
0.0
  0
SPLINE
  5
7C2
330
7B8
100
AcDbEntity
  8
0
  6
Continuous
 62
     7
370
    25
100
AcDbSpline
210
0.0
220
0.0
230
1.0
 70
     8
 71
     3
 72
    11
 73
     7
 74
     0
 42
0.000000001
 43
0.00000001
 40
0.0
 40
0.0
 40
0.0
 40
0.0
 40
0.2644790586085659
 40
0.5502508597377633
 40
0.8363248849318743
 40
1.0
 40
1.0
 40
1.0
 40
1.0
 10
-0.4724409448818898
 20
0.7511402972684703
 30
0.0
 10
-0.5012814016745106
 20
0.7426659783558642
 30
0.0
 10
-0.5612842095673528
 20
0.7250350880619945
 30
0.0
 10
-0.6464153025380492
 20
0.6918447415292891
 30
0.0
 10
-0.7169816943631929
 20
0.6591241454458441
 30
0.0
 10
-0.7568304190231312
 20
0.636854850479191
 30
0.0
 10
-0.7713323802502954
 20
0.6287504894257656
 30
0.0
  0
SPLINE
  5
7C4
330
7B8
100
AcDbEntity
  8
0
  6
Continuous
 62
     7
370
    25
100
AcDbSpline
210
0.0
220
0.0
230
1.0
 70
     8
 71
     3
 72
    22
 73
    18
 74
     0
 42
0.000000001
 43
0.00000001
 40
0.0
 40
0.0
 40
0.0
 40
0.0
 40
0.0415930189671512
 40
0.1187204923819658
 40
0.195873350174549
 40
0.272776741147753
 40
0.3492159681542463
 40
0.4249556346641027
 40
0.49976899860878
 40
0.5734727433896178
 40
0.6459564395037042
 40
0.717197985118867
 40
0.7872627343823618
 40
0.8562904541809204
 40
0.9244768668677773
 40
0.9920553216956711
 40
0.9999999999999999
 40
0.9999999999999999
 40
0.9999999999999999
 40
0.9999999999999999
 10
0.4724409448818896
 20
4.728486595893293
 30
0.0
 10
0.4722057460598238
 20
4.754904718986526
 30
0.0
 10
0.4715344093630237
 20
4.830310944822477
 30
0.0
 10
0.4641198114222109
 20
4.95233419062298
 30
0.0
 10
0.4474930810548274
 20
5.092974694157636
 30
0.0
 10
0.4223800361852001
 20
5.229259309332572
 30
0.0
 10
0.3889331345426734
 20
5.360450014121942
 30
0.0
 10
0.3472250150989518
 20
5.485798808875658
 30
0.0
 10
0.2974890454753993
 20
5.604605391539319
 30
0.0
 10
0.240053499271133
 20
5.716242801788782
 30
0.0
 10
0.1753287096016647
 20
5.820184686554757
 30
0.0
 10
0.103792451478787
 20
5.916054052365668
 30
0.0
 10
0.0258841612087485
 20
6.003477968177778
 30
0.0
 10
-0.0577422560520939
 20
6.082568802061828
 30
0.0
 10
-0.1472473155754327
 20
6.152062850839767
 30
0.0
 10
-0.2128400765368971
 20
6.197353151483483
 30
0.0
 10
-0.2497651014816438
 20
6.216828552601219
 30
0.0
 10
-0.2536494403907794
 20
6.218877273176107
 30
0.0
  0
SPLINE
  5
7C5
330
7B8
100
AcDbEntity
  8
0
  6
Continuous
 62
     7
370
    25
100
AcDbSpline
210
0.0
220
0.0
230
1.0
 70
     8
 71
     3
 72
    40
 73
    36
 74
     0
 42
0.000000001
 43
0.00000001
 40
0.0
 40
0.0
 40
0.0
 40
0.0
 40
0.0159127957048929
 40
0.0465197654175042
 40
0.0772358752954739
 40
0.1080688023603615
 40
0.1390041257244725
 40
0.1700257606877173
 40
0.2011166367661104
 40
0.232259142878661
 40
0.2634353939433728
 40
0.2946273768468197
 40
0.3258156354909914
 40
0.3569774388655264
 40
0.3880947068895189
 40
0.4191494414294587
 40
0.4501238579291877
 40
0.4810006339509355
 40
0.5117633279224523
 40
0.5423970405394533
 40
0.572889414478377
 40
0.6032320992184717
 40
0.6334228498396475
 40
0.6634684872507915
 40
0.6933890336091022
 40
0.7232234738287973
 40
0.7530374204276458
 40
0.7828976940500425
 40
0.8129435577694726
 40
0.8433845737476825
 40
0.8745346772532554
 40
0.906868888148717
 40
0.9411208404173257
 40
0.9784321220373122
 40
1.0
 40
1.0
 40
1.0
 40
1.0
 10
-2.838127357182926
 20
3.144519794743605
 30
0.0
 10
-2.834659758099145
 20
3.164454553268962
 30
0.0
 10
-2.824522513900766
 20
3.222732200230085
 30
0.0
 10
-2.803078475534281
 20
3.321742688916975
 30
0.0
 10
-2.771762931048443
 20
3.4418827221093
 30
0.0
 10
-2.734287224036513
 20
3.563990642316245
 30
0.0
 10
-2.69086224940282
 20
3.687302369864602
 30
0.0
 10
-2.641626648445795
 20
3.811100190236666
 30
0.0
 10
-2.586806456490679
 20
3.934647787944872
 30
0.0
 10
-2.526666559909865
 20
4.05722130509365
 30
0.0
 10
-2.461520192313695
 20
4.178107067795139
 30
0.0
 10
-2.391724115710284
 20
4.296606048920478
 30
0.0
 10
-2.317680098462294
 20
4.412033756553123
 30
0.0
 10
-2.239829664057023
 20
4.523731134034426
 30
0.0
 10
-2.158650506967866
 20
4.63107074001476
 30
0.0
 10
-2.074650924699302
 20
4.733464441407254
 30
0.0
 10
-1.988371494466386
 20
4.830362462479707
 30
0.0
 10
-1.900382923074859
 20
4.921258627824504
 30
0.0
 10
-1.81128356185221
 20
5.005696196576376
 30
0.0
 10
-1.721696357890901
 20
5.083274370008567
 30
0.0
 10
-1.632264941614624
 20
5.153655519099185
 30
0.0
 10
-1.54364846262766
 20
5.21657310925001
 30
0.0
 10
-1.456514679622513
 20
5.271840183170853
 30
0.0
 10
-1.371530677072003
 20
5.319358090094023
 30
0.0
 10
-1.289350430697373
 20
5.359124852368007
 30
0.0
 10
-1.210598551324407
 20
5.391242094503009
 30
0.0
 10
-1.135879363048719
 20
5.415908833333298
 30
0.0
 10
-1.065722975478507
 20
5.433440516790374
 30
0.0
 10
-1.000543924785567
 20
5.444260181328732
 30
0.0
 10
-0.9405589057423257
 20
5.448881592506756
 30
0.0
 10
-0.8857515869838668
 20
5.447812209968423
 30
0.0
 10
-0.8356915260528778
 20
5.441569545344549
 30
0.0
 10
-0.7896844550316977
 20
5.429932577349891
 30
0.0
 10
-0.7533207680700758
 20
5.416585361627829
 30
0.0
 10
-0.7332019991005971
 20
5.404349877736474
 30
0.0
 10
-0.7258323430632355
 20
5.399867928176501
 30
0.0
  0
SPLINE
  5
7C6
330
7B8
100
AcDbEntity
  8
0
  6
Continuous
 62
     7
370
    25
100
AcDbSpline
210
0.0
220
0.0
230
1.0
 70
     8
 71
     3
 72
    43
 73
    39
 74
     0
 42
0.000000001
 43
0.00000001
 40
0.0
 40
0.0
 40
0.0
 40
0.0
 40
0.0225303509587709
 40
0.048034306392576
 40
0.0735736351826832
 40
0.0992474243398374
 40
0.1251478719644223
 40
0.1513558778568109
 40
0.1779359456651516
 40
0.2049307789329427
 40
0.2323565803552654
 40
0.2602005947966139
 40
0.2884224510052775
 40
0.31695998264603
 40
0.3457385967916647
 40
0.3746817819590165
 40
0.4037200123433683
 40
0.4327940484967019
 40
0.4618528523182872
 40
0.4908719617320177
 40
0.5198376393147071
 40
0.5487442997776706
 40
0.5775922164391363
 40
0.6063857015965883
 40
0.6351317595812719
 40
0.6638391388178781
 40
0.6925176914780581
 40
0.7211779563158054
 40
0.7498308950691568
 40
0.778487727337278
 40
0.8071564121033351
 40
0.8358480250920252
 40
0.8645739878575956
 40
0.8933455544721087
 40
0.9221735777323552
 40
0.9510681329348337
 40
0.9800379278811568
 40
1.0
 40
1.0
 40
1.0
 40
1.0
 10
-0.2536494403907794
 20
6.218877273176107
 30
0.0
 10
-0.2823047826975458
 20
6.234796852194091
 30
0.0
 10
-0.3433974613986531
 20
6.268737110718694
 30
0.0
 10
-0.4424267085655342
 20
6.309999316994826
 30
0.0
 10
-0.5488087781094036
 20
6.344782931762346
 30
0.0
 10
-0.6587499590675943
 20
6.370325613968991
 30
0.0
 10
-0.7718420294560449
 20
6.38685654612436
 30
0.0
 10
-0.8878984982137433
 20
6.394228266587625
 30
0.0
 10
-1.006677263604062
 20
6.392366065155076
 30
0.0
 10
-1.127922242588521
 20
6.381158210877098
 30
0.0
 10
-1.251317562549746
 20
6.360510087106502
 30
0.0
 10
-1.376473140255812
 20
6.330363390389125
 30
0.0
 10
-1.502918015982726
 20
6.290727783939956
 30
0.0
 10
-1.63011305035423
 20
6.241702281398481
 30
0.0
 10
-1.757477948235191
 20
6.183483744325943
 30
0.0
 10
-1.884425032454303
 20
6.116359562023013
 30
0.0
 10
-2.010386445304296
 20
6.040690577162851
 30
0.0
 10
-2.134825506495058
 20
5.956894573360215
 30
0.0
 10
-2.257263669357364
 20
5.865415274023768
 30
0.0
 10
-2.377280226460186
 20
5.766702236453553
 30
0.0
 10
-2.494511017693244
 20
5.661191681112232
 30
0.0
 10
-2.608619830515988
 20
5.549317071810894
 30
0.0
 10
-2.719290370370281
 20
5.431509481404032
 30
0.0
 10
-2.826220291044475
 20
5.308199166194234
 30
0.0
 10
-2.92911725315265
 20
5.179817353006809
 30
0.0
 10
-3.027696628556741
 20
5.046797714968319
 30
0.0
 10
-3.121680397069836
 20
4.909577314569805
 30
0.0
 10
-3.21079681049307
 20
4.768596973135378
 30
0.0
 10
-3.294780523815063
 20
4.624301113429016
 30
0.0
 10
-3.373369682074878
 20
4.477143033211902
 30
0.0
 10
-3.446310349898415
 20
4.327579165755804
 30
0.0
 10
-3.513356006529399
 20
4.176067356267194
 30
0.0
 10
-3.574274121822248
 20
4.023058429069354
 30
0.0
 10
-3.628825712765534
 20
3.869004054842234
 30
0.0
 10
-3.676827963957571
 20
3.714343348359108
 30
0.0
 10
-3.717914292796892
 20
3.559553811980338
 30
0.0
 10
-3.748817866344227
 20
3.421129348293767
 30
0.0
 10
-3.764001016258187
 20
3.334817056983992
 30
0.0
 10
-3.770195080612407
 20
3.299605398667874
 30
0.0
  0
SPLINE
  5
7C7
330
7B8
100
AcDbEntity
  8
0
  6
Continuous
 62
     7
370
    25
100
AcDbSpline
210
0.0
220
0.0
230
1.0
 70
     8
 71
     3
 72
    19
 73
    15
 74
     0
 42
0.000000001
 43
0.00000001
 40
0.0
 40
0.0
 40
0.0
 40
0.0
 40
0.0567232219417116
 40
0.165529447171323
 40
0.2624416966351915
 40
0.3521086037897821
 40
0.4372319909951208
 40
0.5274813204431791
 40
0.6145327629547189
 40
0.6997209012076991
 40
0.7839522952564083
 40
0.8677868734971271
 40
0.9515622337846339
 40
0.9999999999999999
 40
0.9999999999999999
 40
0.9999999999999999
 40
0.9999999999999999
 10
-0.7258323430632355
 20
5.399867928176501
 30
0.0
 10
-0.7186901249942886
 20
5.395979238301541
 30
0.0
 10
-0.6978477368495413
 20
5.384631281271098
 30
0.0
 10
-0.6678582202143016
 20
5.359535081688495
 30
0.0
 10
-0.6341574756561582
 20
5.32464032694261
 30
0.0
 10
-0.6038601939804109
 20
5.284249150350174
 30
0.0
 10
-0.5752448519931196
 20
5.236579064650843
 30
0.0
 10
-0.548649903841748
 20
5.180495513510162
 30
0.0
 10
-0.5247473247636186
 20
5.115252873776838
 30
0.0
 10
-0.5048305263975691
 20
5.042988134452015
 30
0.0
 10
-0.4892076505264529
 20
4.963790827127746
 30
0.0
 10
-0.4783563293733421
 20
4.877759373171838
 30
0.0
 10
-0.4731297375177649
 20
4.79858971735982
 30
0.0
 10
-0.4726256302502562
 20
4.747283284675004
 30
0.0
 10
-0.4724409448818898
 20
4.728486595893293
 30
0.0
  0
SPLINE
  5
7CA
330
7B8
100
AcDbEntity
  8
0
  6
Continuous
 62
     7
370
    25
100
AcDbSpline
210
0.0
220
0.0
230
1.0
 70
     8
 71
     3
 72
     9
 73
     5
 74
     0
 42
0.000000001
 43
0.00000001
 40
0.0
 40
0.0
 40
0.0
 40
0.0
 40
0.7286865178536971
 40
1.0
 40
1.0
 40
1.0
 40
1.0
 10
-3.89190241197719
 20
1.746872301234631
 30
0.0
 10
-3.884248261985074
 20
1.741437070192863
 30
0.0
 10
-3.873744225194796
 20
1.733978127412121
 30
0.0
 10
-3.861712108411315
 20
1.726996611414449
 30
0.0
 10
-3.858447632909199
 20
1.72510243199846
 30
0.0
  0
SPLINE
  5
7CD
330
7B8
100
AcDbEntity
  8
0
  6
Continuous
 62
     7
370
    25
100
AcDbSpline
210
0.0
220
0.0
230
1.0
 70
     8
 71
     3
 72
    10
 73
     6
 74
     0
 42
0.000000001
 43
0.00000001
 40
0.0
 40
0.0
 40
0.0
 40
0.0
 40
0.3256059387153697
 40
0.7326209989796724
 40
1.0
 40
1.0
 40
1.0
 40
1.0
 10
3.432772022256181
 20
0.0794721933373441
 30
0.0
 10
3.421900056264909
 20
0.0908375718525463
 30
0.0
 10
3.39743787778984
 20
0.1164099400791211
 30
0.0
 10
3.355736063082468
 20
0.1479537466877536
 30
0.0
 10
3.324080043883664
 20
0.1671715228936228
 30
0.0
 10
3.311529288656767
 20
0.1747908512637004
 30
0.0
  0
SPLINE
  5
7CF
330
7B8
100
AcDbEntity
  8
0
  6
Continuous
 62
     7
370
    25
100
AcDbSpline
210
0.0
220
0.0
230
1.0
 70
     8
 71
     3
 72
    16
 73
    12
 74
     0
 42
0.000000001
 43
0.00000001
 40
0.0
 40
0.0
 40
0.0
 40
0.0
 40
0.0679168435576918
 40
0.1990796290768889
 40
0.3303253985933988
 40
0.4616851747768629
 40
0.5931840438335392
 40
0.724831334633581
 40
0.8566009250135238
 40
0.9883581179748312
 40
1.0
 40
1.0
 40
1.0
 40
1.0
 10
2.704103441459074
 20
0.2832532951902316
 30
0.0
 10
2.69007027125993
 20
0.2818767269606229
 30
0.0
 10
2.648935875553724
 20
0.277841694144107
 30
0.0
 10
2.583011950994073
 20
0.2650153679365237
 30
0.0
 10
2.50760029881162
 20
0.2453884188253259
 30
0.0
 10
2.436782299307591
 20
0.2203070047124491
 30
0.0
 10
2.371529874336064
 20
0.1904213785865227
 30
0.0
 10
2.312485762985268
 20
0.1561049545188867
 30
0.0
 10
2.26172155548593
 20
0.1174214840432695
 30
0.0
 10
2.229544769837223
 20
0.0887842562949944
 30
0.0
 10
2.217134130240543
 20
0.07240554034152
 30
0.0
 10
2.216126570031
 20
0.0710758310747615
 30
0.0
  0
SPLINE
  5
7D0
330
7B8
100
AcDbEntity
  8
0
  6
Continuous
 62
     7
370
    25
100
AcDbSpline
210
0.0
220
0.0
230
1.0
 70
     8
 71
     3
 72
    16
 73
    12
 74
     0
 42
0.000000001
 43
0.00000001
 40
0.0
 40
0.0
 40
0.0
 40
0.0
 40
0.0659176793084088
 40
0.1909406300766501
 40
0.3159274119807219
 40
0.4408287148476395
 40
0.565650620034159
 40
0.6904135632599736
 40
0.8151441535186533
 40
0.9398715433837211
 40
1.0
 40
1.0
 40
1.0
 40
1.0
 10
3.311529288656767
 20
0.1747908512637004
 30
0.0
 10
3.300976768546822
 20
0.1806528579443062
 30
0.0
 10
3.270409781665164
 20
0.1976330559860424
 30
0.0
 10
3.2148219592084
 20
0.2223507338667072
 30
0.0
 10
3.143706411519215
 20
0.2470352673803384
 30
0.0
 10
3.068026395900634
 20
0.2664831316574701
 30
0.0
 10
2.988998873642037
 20
0.2804827086145359
 30
0.0
 10
2.907677439127132
 20
0.2889388139517388
 30
0.0
 10
2.825341328868383
 20
0.2913593627951068
 30
0.0
 10
2.75696283961162
 20
0.2895412732045981
 30
0.0
 10
2.71707714625726
 20
0.284796603918425
 30
0.0
 10
2.704103441459074
 20
0.2832532951902316
 30
0.0
  0
SPLINE
  5
7D2
330
7B8
100
AcDbEntity
  8
0
  6
Continuous
 62
     7
370
    25
100
AcDbSpline
210
0.0
220
0.0
230
1.0
 70
     8
 71
     3
 72
    11
 73
     7
 74
     0
 42
0.000000001
 43
0.00000001
 40
0.0
 40
0.0
 40
0.0
 40
0.0
 40
0.1730370930905309
 40
0.5017340318132979
 40
0.8305764723256783
 40
1.0
 40
1.0
 40
1.0
 40
1.0
 10
2.080855889131914
 20
-1.045223091112857
 30
0.0
 10
2.068229168021632
 20
-1.052732437233045
 30
0.0
 10
2.031617042967443
 20
-1.074506349622988
 30
0.0
 10
1.976856634010961
 20
-1.113766589740856
 30
0.0
 10
1.92724390362701
 20
-1.155212515427808
 30
0.0
 10
1.902998756674287
 20
-1.182253895479665
 30
0.0
 10
1.894754769350286
 20
-1.191448675565169
 30
0.0
  0
SPLINE
  5
7D4
330
7B8
100
AcDbEntity
  8
0
  6
Continuous
 62
     7
370
    25
100
AcDbSpline
210
0.0
220
0.0
230
1.0
 70
     8
 71
     3
 72
    12
 73
     8
 74
     0
 42
0.000000001
 43
0.00000001
 40
0.0
 40
0.0
 40
0.0
 40
0.0
 40
0.051907262943459
 40
0.3139657754024372
 40
0.57659870363651
 40
0.8395205489499155
 40
1.0
 40
1.0
 40
1.0
 40
1.0
 10
3.76208890333476
 20
-1.190864186708063
 30
0.0
 10
3.75906953488987
 20
-1.187304466035583
 30
0.0
 10
3.740806611721326
 20
-1.165773173538644
 30
0.0
 10
3.698920651112724
 20
-1.129070100222168
 30
0.0
 10
3.63624848856192
 20
-1.081657330451105
 30
0.0
 10
3.575406674372744
 20
-1.043319507100706
 30
0.0
 10
3.533345657309466
 20
-1.022605311959027
 30
0.0
 10
3.517403502698943
 20
-1.014754125168075
 30
0.0
  0
SPLINE
  5
7D7
330
7B8
100
AcDbEntity
  8
0
  6
Continuous
 62
     7
370
    25
100
AcDbSpline
210
0.0
220
0.0
230
1.0
 70
     8
 71
     3
 72
    11
 73
     7
 74
     0
 42
0.000000001
 43
0.00000001
 40
0.0
 40
0.0
 40
0.0
 40
0.0
 40
0.0958342821791984
 40
0.3918482005570385
 40
0.6890881155599559
 40
1.0
 40
1.0
 40
1.0
 40
1.0
 10
4.059960222678256
 20
-1.312313682808471
 30
0.0
 10
4.062193312111305
 20
-1.313910923690855
 30
0.0
 10
4.071323991197383
 20
-1.320441738670492
 30
0.0
 10
4.092013712012632
 20
-1.322654409372028
 30
0.0
 10
4.119070168804777
 20
-1.319544838912909
 30
0.0
 10
4.137349594089857
 20
-1.310427139906077
 30
0.0
 10
4.146694778247943
 20
-1.305765802091131
 30
0.0
  0
SPLINE
  5
7D9
330
7B8
100
AcDbEntity
  8
0
  6
Continuous
 62
     7
370
    25
100
AcDbSpline
210
0.0
220
0.0
230
1.0
 70
     8
 71
     3
 72
    17
 73
    13
 74
     0
 42
0.000000001
 43
0.00000001
 40
0.0
 40
0.0
 40
0.0
 40
0.0
 40
0.0586514545454062
 40
0.1684855244468452
 40
0.2780363394884568
 40
0.3873890005222783
 40
0.4970056829614374
 40
0.6073115276573047
 40
0.7189149205742791
 40
0.8318065533244932
 40
0.928526587240911
 40
1.0
 40
1.0
 40
1.0
 40
1.0
 10
4.146694778247943
 20
-1.305765802091131
 30
0.0
 10
4.151854053061441
 20
-1.302537165818659
 30
0.0
 10
4.166674881111745
 20
-1.293262400515192
 30
0.0
 10
4.189924329932908
 20
-1.272060861813608
 30
0.0
 10
4.214225879284451
 20
-1.241498112046226
 30
0.0
 10
4.233846390198956
 20
-1.206856798124158
 30
0.0
 10
4.247609982485969
 20
-1.170346263101136
 30
0.0
 10
4.254558293252122
 20
-1.134010356731656
 30
0.0
 10
4.254020024400005
 20
-1.099702342507849
 30
0.0
 10
4.245424260882824
 20
-1.071218932281762
 30
0.0
 10
4.231698812247509
 20
-1.050099933287682
 30
0.0
 10
4.2190998105672
 20
-1.043075565684912
 30
0.0
 10
4.213745894197398
 20
-1.040090577060396
 30
0.0
  0
SPLINE
  5
7DB
330
7B8
100
AcDbEntity
  8
0
  6
Continuous
 62
     7
370
    25
100
AcDbSpline
210
0.0
220
0.0
230
1.0
 70
     8
 71
     3
 72
    10
 73
     6
 74
     0
 42
0.000000001
 43
0.00000001
 40
0.0
 40
0.0
 40
0.0
 40
0.0
 40
0.3256059387154215
 40
0.732620998979701
 40
1.0
 40
1.0
 40
1.0
 40
1.0
 10
-2.224082227236188
 20
3.345104640628184
 30
0.0
 10
-2.234954193227462
 20
3.356470019143388
 30
0.0
 10
-2.259416371702534
 20
3.382042387369965
 30
0.0
 10
-2.301118186409907
 20
3.413586193978597
 30
0.0
 10
-2.332774205608709
 20
3.432803970184465
 30
0.0
 10
-2.345324960835605
 20
3.440423298554542
 30
0.0
  0
SPLINE
  5
7DD
330
7B8
100
AcDbEntity
  8
0
  6
Continuous
 62
     7
370
    25
100
AcDbSpline
210
0.0
220
0.0
230
1.0
 70
     8
 71
     3
 72
    13
 73
     9
 74
     0
 42
0.000000001
 43
0.00000001
 40
0.0
 40
0.0
 40
0.0
 40
0.0
 40
0.0981892329042882
 40
0.2844201160324439
 40
0.4705971229764824
 40
0.6566468026059716
 40
0.8425782135492009
 40
1.0
 40
1.0
 40
1.0
 40
1.0
 10
-2.345324960835605
 20
3.440423298554542
 30
0.0
 10
-2.355877430297168
 20
3.446285529170168
 30
0.0
 10
-2.386444270468048
 20
3.463266375873908
 30
0.0
 10
-2.442033959626685
 20
3.487975800382822
 30
0.0
 10
-2.513141710855648
 20
3.512694804898722
 30
0.0
 10
-2.588850670445945
 20
3.532014697290344
 30
0.0
 10
-2.663749260167183
 20
3.545753688681559
 30
0.0
 10
-2.713941268115573
 20
3.550232332838468
 30
0.0
 10
-2.736953477166653
 20
3.552285717427309
 30
0.0
  0
SPLINE
  5
7E0
330
7B8
100
AcDbEntity
  8
0
  6
Continuous
 62
     7
370
    25
100
AcDbSpline
210
0.0
220
0.0
230
1.0
 70
     8
 71
     3
 72
    17
 73
    13
 74
     0
 42
0.000000001
 43
0.00000001
 40
0.0
 40
0.0
 40
0.0
 40
0.0
 40
0.0589553207591148
 40
0.1693584279199428
 40
0.2794768127111926
 40
0.389396016882284
 40
0.4995806103222066
 40
0.6104579364865365
 40
0.7226395333150291
 40
0.8361160441942729
 40
0.9333371731088314
 40
1.0
 40
1.0
 40
1.0
 40
1.0
 10
-4.146694778246531
 20
3.7296704169024
 30
0.0
 10
-4.151854053247712
 20
3.726441780389843
 30
0.0
 10
-4.166674881837162
 20
3.717167014396698
 30
0.0
 10
-4.189924323881166
 20
3.695965484367927
 30
0.0
 10
-4.21422590143303
 20
3.665402698514435
 30
0.0
 10
-4.233846307703193
 20
3.63076151850113
 30
0.0
 10
-4.247610292004307
 20
3.594250481837095
 30
0.0
 10
-4.254557124332824
 20
3.55791646735298
 30
0.0
 10
-4.254024464659565
 20
3.523601275335206
 30
0.0
 10
-4.245408500381713
 20
3.495143715043659
 30
0.0
 10
-4.231993519744283
 20
3.47433674063344
 30
0.0
 10
-4.219804962808587
 20
3.467496462217305
 30
0.0
 10
-4.21484704208314
 20
3.464714052592761
 30
0.0
  0
SPLINE
  5
7E1
330
7B8
100
AcDbEntity
  8
0
  6
Continuous
 62
     7
370
    25
100
AcDbSpline
210
0.0
220
0.0
230
1.0
 70
     8
 71
     3
 72
    11
 73
     7
 74
     0
 42
0.000000001
 43
0.00000001
 40
0.0
 40
0.0
 40
0.0
 40
0.0
 40
0.1095385903262844
 40
0.4010658688407909
 40
0.6938005617273088
 40
1.0
 40
1.0
 40
1.0
 40
1.0
 10
-4.058859074792514
 20
3.735499436897015
 30
0.0
 10
-4.061443947963983
 20
3.737366850164489
 30
0.0
 10
-4.07090823266283
 20
3.744204218824911
 30
0.0
 10
-4.091996888600191
 20
3.746592694182812
 30
0.0
 10
-4.119074608673534
 20
3.743440567866616
 30
0.0
 10
-4.137351096060977
 20
3.734328748702888
 30
0.0
 10
-4.146694778246531
 20
3.7296704169024
 30
0.0
  0
SPLINE
  5
7E3
330
7B8
100
AcDbEntity
  8
0
  6
Continuous
 62
     7
370
    25
100
AcDbSpline
210
0.0
220
0.0
230
1.0
 70
     8
 71
     3
 72
    12
 73
     8
 74
     0
 42
0.000000001
 43
0.00000001
 40
0.0
 40
0.0
 40
0.0
 40
0.0
 40
0.0519072629433882
 40
0.3139657754023606
 40
0.5765987036364312
 40
0.839520548949835
 40
1.0
 40
1.0
 40
1.0
 40
1.0
 10
-1.894765346157608
 20
2.074768260582776
 30
0.0
 10
-1.897784714602494
 20
2.078327981255251
 30
0.0
 10
-1.916047637771033
 20
2.099859273752186
 30
0.0
 10
-1.957933598379631
 20
2.136562347068659
 30
0.0
 10
-2.020605760930431
 20
2.183975116839723
 30
0.0
 10
-2.081447575119613
 20
2.222312940190127
 30
0.0
 10
-2.123508592182898
 20
2.243027135331811
 30
0.0
 10
-2.139450746793429
 20
2.250878322122767
 30
0.0
  0
LWPOLYLINE
  5
7E8
330
7B8
100
AcDbEntity
  8
0
  6
Continuous
 62
     7
370
    25
100
AcDbPolyline
 90
       16
 70
   128
 43
0.0
 10
-2.3412472558
 20
1.512309652
 10
-2.4090048804
 20
1.4780061529
 10
-2.4839389358
 20
1.449101741
 10
-2.5647672796
 20
1.4260909788
 10
-2.6501069165
 20
1.409367587
 10
-2.7384976616
 20
1.3992177073
 10
-2.8284271247
 20
1.395815007
 10
-2.9183565879
 20
1.3992177073
 10
-3.006747333
 20
1.409367587
 10
-3.0920869699
 20
1.4260909788
 10
-3.1729153137
 20
1.449101741
 10
-3.2478493691
 20
1.4780061529
 10
-3.3156069937
 20
1.512309652
 10
-3.3750288356
 20
1.5514252961
 10
-3.4250981707
 20
1.5946838055
 10
-3.4446382003
 20
1.6156464677
  0
LWPOLYLINE
  5
7EA
330
7B8
100
AcDbEntity
  8
0
  6
Continuous
 62
     7
370
    25
100
AcDbPolyline
 90
        8
 70
   128
 43
0.0
 10
-2.140402219
 20
2.3416636607
 10
-2.1394507468
 20
2.3207679313
 10
-2.1453450352
 20
2.2688527573
 10
-2.1629270476
 20
2.2178258663
 10
-2.1918959508
 20
2.1685603425
 10
-2.2317560788
 20
2.1218991328
 10
-2.2818254139
 20
2.0786406234
 10
-2.3412472558
 20
2.0395249794
  0
LWPOLYLINE
  5
7EC
330
7B8
100
AcDbEntity
  8
0
  6
Continuous
 62
     7
370
    25
100
AcDbPolyline
 90
       20
 70
   128
 43
0.0
 10
3.3156069937
 20
-1.2261074679
 10
3.2478493691
 20
-1.2604109671
 10
3.1729153137
 20
-1.289315379
 10
3.0920869699
 20
-1.3123261411
 10
3.006747333
 20
-1.3290495329
 10
2.9183565879
 20
-1.3391994126
 10
2.8284271247
 20
-1.3426021129
 10
2.7384976616
 20
-1.3391994126
 10
2.6501069165
 20
-1.3290495329
 10
2.5647672796
 20
-1.3123261411
 10
2.4839389358
 20
-1.289315379
 10
2.4090048804
 20
-1.2604109671
 10
2.3412472558
 20
-1.2261074679
 10
2.2818254139
 20
-1.1869918239
 10
2.2317560788
 20
-1.1437333144
 10
2.1918959508
 20
-1.0970721048
 10
2.1629270476
 20
-1.047806581
 10
2.1453450352
 20
-0.99677969
 10
2.1394507468
 20
-0.944864516
 10
2.140402219
 20
-0.9239687866
  0
LWPOLYLINE
  5
7ED
330
7B8
100
AcDbEntity
  8
0
  6
Continuous
 62
     7
370
    25
100
AcDbPolyline
 90
       18
 70
   128
 43
0.0
 10
3.3072553388
 20
-1.2116419773
 10
3.2406592735
 20
-1.2453574165
 10
3.1670098019
 20
-1.2737663242
 10
3.0875670868
 20
-1.2963826161
 10
3.0036904151
 20
-1.3128193213
 10
2.91681494
 20
-1.322795203
 10
2.8284271247
 20
-1.3261395713
 10
2.7400393095
 20
-1.322795203
 10
2.6531638344
 20
-1.3128193213
 10
2.5692871627
 20
-1.2963826161
 10
2.4898444476
 20
-1.2737663242
 10
2.416194976
 20
-1.2453574165
 10
2.3495989107
 20
-1.2116419773
 10
2.291195729
 20
-1.1731968872
 10
2.2419847253
 20
-1.1306799522
 10
2.2028079138
 20
-1.084818649
 10
2.1743356203
 20
-1.0363976771
 10
2.1658346149
 20
-1.0158839397
  0
LWPOLYLINE
  5
7EF
330
7B8
100
AcDbEntity
  8
0
  6
Continuous
 62
     7
370
    25
100
AcDbPolyline
 90
       19
 70
   128
 43
0.0
 10
3.3156069937
 20
-1.7533227953
 10
3.2478493691
 20
-1.7876262944
 10
3.1729153137
 20
-1.8165307063
 10
3.0920869699
 20
-1.8395414684
 10
3.006747333
 20
-1.8562648603
 10
2.9183565879
 20
-1.86641474
 10
2.8284271247
 20
-1.8698174403
 10
2.7384976616
 20
-1.86641474
 10
2.6501069165
 20
-1.8562648603
 10
2.5647672796
 20
-1.8395414684
 10
2.4839389358
 20
-1.8165307063
 10
2.4090048804
 20
-1.7876262944
 10
2.3412472558
 20
-1.7533227953
 10
2.2818254139
 20
-1.7142071512
 10
2.2317560788
 20
-1.6709486418
 10
2.1918959508
 20
-1.6242874321
 10
2.1629270476
 20
-1.5750219084
 10
2.1453450352
 20
-1.5239950174
 10
2.1394507468
 20
-1.4720798434
  0
LWPOLYLINE
  5
7F4
330
7B8
100
AcDbEntity
  8
0
  6
Continuous
 62
     7
370
    25
100
AcDbPolyline
 90
       31
 70
   128
 43
0.0
 10
0.7516489406
 20
-0.2410340409
 10
0.6689626204
 20
-0.2840137444
 10
0.5789470057
 20
-0.3217684602
 10
0.4825883265
 20
-0.3538845397
 10
0.3809423086
 20
-0.3800101125
 10
0.275122607
 20
-0.3998589412
 10
0.1662886046
 20
-0.413213558
 10
0.0556327094
 20
-0.4199276469
 10
-0.0556327094
 20
-0.4199276469
 10
-0.1662886046
 20
-0.413213558
 10
-0.275122607
 20
-0.3998589412
 10
-0.3809423086
 20
-0.3800101125
 10
-0.4825883265
 20
-0.3538845397
 10
-0.5789470057
 20
-0.3217684602
 10
-0.6689626204
 20
-0.2840137444
 10
-0.7516489406
 20
-0.2410340409
 10
-0.8261000378
 20
-0.1933002443
 10
-0.89150021
 20
-0.141335336
 10
-0.9471329194
 20
-0.0857086545
 10
-0.9923886423
 20
-0.0270296574
 10
-1.0267715476
 20
0.034058756
 10
-1.049904929
 20
0.0968872883
 10
-1.0615353322
 20
0.1607675768
 10
-1.0615353322
 20
0.2249997359
 10
-1.049904929
 20
0.2888800244
 10
-1.0267715476
 20
0.3517085567
 10
-0.9923886423
 20
0.4127969701
 10
-0.9471329194
 20
0.4714759672
 10
-0.89150021
 20
0.5271026487
 10
-0.8261000378
 20
0.579067557
 10
-0.7516489406
 20
0.6268013536
  0
LWPOLYLINE
  5
7F7
330
7B8
100
AcDbEntity
  8
0
  6
Continuous
 62
     7
370
    25
100
AcDbPolyline
 90
       25
 70
   128
 43
0.0
 10
-1.1023622047
 20
0.0
 10
-1.1020084295
 20
-0.0161212367
 10
-1.0935291716
 20
-0.0803993746
 10
-1.0738288246
 20
-0.1438525062
 10
-1.0431095407
 20
-0.2058295164
 10
-1.0016865414
 20
-0.2656944372
 10
-0.9499848827
 20
-0.3228329736
 10
-0.8885350936
 20
-0.3766588068
 10
-0.817967732
 20
-0.4266196109
 10
-0.7390069146
 20
-0.4722027206
 10
-0.6524628862
 20
-0.5129403913
 10
-0.5592237057
 20
-0.5484145995
 10
-0.4602461332
 20
-0.5782613317
 10
-0.3565458126
 20
-0.6021743202
 10
-0.2491868495
 20
-0.6199081853
 10
-0.139270892
 20
-0.6312809535
 10
-0.0279258268
 20
-0.6361759249
 10
0.0837057952
 20
-0.6345428705
 10
0.1944784825
 20
-0.6263985475
 10
0.3032555574
 20
-0.6118265277
 10
0.4089208199
 20
-0.5909763399
 10
0.5103900014
 20
-0.564061935
 10
0.6066218908
 20
-0.5313594915
 10
0.6966290188
 20
-0.4932045805
 10
0.7794877903
 20
-0.4499887231
  0
LWPOLYLINE
  5
7F8
330
7B8
100
AcDbEntity
  8
0
  6
Continuous
 62
     7
370
    25
100
AcDbPolyline
 90
        7
 70
   128
 43
0.0
 10
0.4724409449
 20
0.2281667874
 10
0.4763779528
 20
0.1928836564
 10
0.4705129497
 20
0.1498630618
 10
0.4530623562
 20
0.107901777
 10
0.4244558639
 20
0.0680330281
 10
0.3853978595
 20
0.0312385161
 10
0.3368500808
 20
-0.0015757561
  0
LWPOLYLINE
  5
7F9
330
7B8
100
AcDbEntity
  8
0
  6
Continuous
 62
     7
370
    25
100
AcDbPolyline
 90
       17
 70
   128
 43
0.0
 10
-0.4724409449
 20
0.2281667874
 10
-0.4763779528
 20
0.1928836564
 10
-0.4705129497
 20
0.1498630618
 10
-0.4530623562
 20
0.107901777
 10
-0.4244558639
 20
0.0680330281
 10
-0.3853978595
 20
0.0312385161
 10
-0.3368500808
 20
-0.0015757561
 10
-0.2800079351
 20
-0.0296017922
 10
-0.2162710648
 20
-0.0521494982
 10
-0.1472088831
 20
-0.0686636747
 10
-0.0745219302
 20
-0.0787376879
 10
0.0
 20
-0.0821234821
 10
0.0745219302
 20
-0.0787376879
 10
0.1472088831
 20
-0.0686636747
 10
0.2162710648
 20
-0.0521494982
 10
0.2800079351
 20
-0.0296017922
 10
0.3368500808
 20
-0.0015757561
  0
LWPOLYLINE
  5
7FB
330
7B8
100
AcDbEntity
  8
0
  6
Continuous
 62
     7
370
    25
100
AcDbPolyline
 90
        9
 70
   128
 43
0.0
 10
1.1023622047
 20
0.0
 10
1.0991795896
 20
-0.048322327
 10
1.0850716798
 20
-0.1122700382
 10
1.0598294662
 20
-0.1750657069
 10
1.023711968
 20
-0.2360649645
 10
0.9770897998
 20
-0.2946418762
 10
0.920441368
 20
-0.3501953634
 10
0.8543479623
 20
-0.4021553724
 10
0.7794877903
 20
-0.4499887231
  0
LWPOLYLINE
  5
7FE
330
7B8
100
AcDbEntity
  8
0
  6
Continuous
 62
     7
370
    25
100
AcDbPolyline
 90
       16
 70
   128
 43
0.0
 10
-3.8546181183
 20
1.7291513263
 10
-3.8044292533
 20
1.7037867793
 10
-3.7414865517
 20
1.678332966
 10
-3.6734335057
 20
1.6568858608
 10
-3.601945807
 20
1.6399735625
 10
-3.5287837202
 20
1.6280125082
 10
-3.4557487385
 20
1.6212972187
 10
-3.3846392257
 20
1.6199930467
 10
-3.3172061339
 20
1.6241321051
 10
-3.2551098896
 20
1.6336124768
 10
-3.1998795084
 20
1.6482007234
 10
-3.1528749458
 20
1.6675376339
 10
-3.1152536099
 20
1.6911470694
 10
-3.0879418629
 20
1.7184476873
 10
-3.0716122107
 20
1.7487672556
 10
-3.0679118426
 20
1.7635102313
  0
LWPOLYLINE
  5
801
330
7B8
100
AcDbEntity
  8
0
  6
Continuous
 62
     7
370
    25
100
AcDbPolyline
 90
       13
 70
   128
 43
0.0
 10
-3.8542790077
 20
1.724895515
 10
-3.7994035713
 20
1.6967825951
 10
-3.7380344372
 20
1.6719651271
 10
-3.6716827173
 20
1.6510541995
 10
-3.6019822112
 20
1.6345647088
 10
-3.5306491765
 20
1.6229026808
 10
-3.4594400694
 20
1.6163552736
 10
-3.3901082943
 20
1.6150837058
 10
-3.3243610298
 20
1.6191192878
 10
-3.2638171916
 20
1.6283626502
 10
-3.20996757
 20
1.6425861906
 10
-3.1641381214
 20
1.6614396784
 10
-3.1523388845
 20
1.6678103993
  0
SPLINE
  5
808
330
7B8
100
AcDbEntity
  8
0
  6
Continuous
 62
     7
370
    25
100
AcDbSpline
210
0.0
220
0.0
230
1.0
 70
     8
 71
     3
 72
    10
 73
     6
 74
     0
 42
0.000000001
 43
0.00000001
 40
0.0
 40
0.0
 40
0.0
 40
0.0
 40
0.4275544667539583
 40
0.8556701199163097
 40
1.0
 40
1.0
 40
1.0
 40
1.0
 10
3.315606993673924
 20
-0.5703030363077971
 30
0.0
 10
3.329887653399796
 20
-0.5637152570346031
 30
0.0
 10
3.358467716924552
 20
-0.5505310517017179
 30
0.0
 10
3.385500194411631
 20
-0.551431026872069
 30
0.0
 10
3.393807497885793
 20
-0.5635635561116373
 30
0.0
 10
3.395902006523927
 20
-0.566622513494585
 30
0.0
  0
SPLINE
  5
809
330
7B8
100
AcDbEntity
  8
0
  6
Continuous
 62
     7
370
    25
100
AcDbSpline
210
0.0
220
0.0
230
1.0
 70
     8
 71
     3
 72
    17
 73
    13
 74
     0
 42
0.000000001
 43
0.00000001
 40
0.0
 40
0.0
 40
0.0
 40
0.0
 40
0.0496139621519853
 40
0.2063111026960107
 40
0.2861626430336868
 40
0.3665695116135866
 40
0.446909500965684
 40
0.5267901150674452
 40
0.6843690054116307
 40
0.8418445715747833
 40
0.9210974335089911
 40
1.0
 40
1.0
 40
1.0
 40
1.0
 10
3.241889857802873
 20
-0.8413885503522198
 30
0.0
 10
3.237386747802551
 20
-0.840624100015463
 30
0.0
 10
3.218661341698484
 20
-0.8374452651655142
 30
0.0
 10
3.20112464073295
 20
-0.8149482467497741
 30
0.0
 10
3.189900168453622
 20
-0.7863457401975398
 30
0.0
 10
3.186944070263316
 20
-0.7609819205014892
 30
0.0
 10
3.18972312548803
 20
-0.7337116766248895
 30
0.0
 10
3.200499694437385
 20
-0.696526321515195
 30
0.0
 10
3.226164060971503
 20
-0.6502627587481743
 30
0.0
 10
3.262158872970455
 20
-0.6103224446079359
 30
0.0
 10
3.292851238986953
 20
-0.584543798101561
 30
0.0
 10
3.308032950672859
 20
-0.5750429424843942
 30
0.0
 10
3.315606993673925
 20
-0.5703030363077971
 30
0.0
  0
LWPOLYLINE
  5
80A
330
7B8
100
AcDbEntity
  8
0
  6
Continuous
 62
     7
370
    25
100
AcDbPolyline
 90
       18
 70
   128
 43
0.0
 10
3.5004854641
 20
-0.9906726163
 10
3.4939272019
 20
-1.0060151222
 10
3.4649582987
 20
-1.0552806459
 10
3.4250981707
 20
-1.1019418556
 10
3.3750288356
 20
-1.145200365
 10
3.3156069937
 20
-1.184316009
 10
3.2478493691
 20
-1.2186195082
 10
3.1729153137
 20
-1.2475239201
 10
3.0920869699
 20
-1.2705346822
 10
3.006747333
 20
-1.2872580741
 10
2.9183565879
 20
-1.2974079537
 10
2.8284271247
 20
-1.300810654
 10
2.7384976616
 20
-1.2974079537
 10
2.6501069165
 20
-1.2872580741
 10
2.5647672796
 20
-1.2705346822
 10
2.4839389358
 20
-1.2475239201
 10
2.4090048804
 20
-1.2186195082
 10
2.3412472558
 20
-1.184316009
  0
LWPOLYLINE
  5
80C
330
7B8
100
AcDbEntity
  8
0
  6
Continuous
 62
     7
370
    25
100
AcDbPolyline
 90
       25
 70
   128
 43
0.0
 10
2.3551666806
 20
-0.3725985947
 10
2.2974426057
 20
-0.3346005404
 10
2.248803823
 20
-0.2925779884
 10
2.2100825557
 20
-0.2472499562
 10
2.1819413355
 20
-0.1993920188
 10
2.1648616663
 20
-0.149823039
 10
2.1591357862
 20
-0.0993911557
 10
2.1648616663
 20
-0.0489592723
 10
2.1819413355
 20
0.0006097075
 10
2.2100825557
 20
0.0484676449
 10
2.248803823
 20
0.0937956771
 10
2.2974426057
 20
0.1358182291
 10
2.3551666806
 20
0.1738162833
 10
2.420988373
 20
0.2071396825
 10
2.4937814555
 20
0.2352182541
 10
2.572300418
 20
0.2575715659
 10
2.6552017796
 20
0.2738171465
 10
2.7410670748
 20
0.2836770296
 10
2.8284271247
 20
0.2869825099
 10
2.9157871747
 20
0.2836770296
 10
3.0016524699
 20
0.2738171465
 10
3.0845538314
 20
0.2575715659
 10
3.163072794
 20
0.2352182541
 10
3.2358658764
 20
0.2071396825
 10
3.3016875688
 20
0.1738162833
  0
LWPOLYLINE
  5
80F
330
7B8
100
AcDbEntity
  8
0
  6
Continuous
 62
     7
370
    25
100
AcDbPolyline
 90
       16
 70
   128
 43
0.0
 10
2.0596140638
 20
-1.8792277968
 10
2.0906976089
 20
-1.8979620277
 10
2.171852701
 20
-1.9401458108
 10
2.2602013599
 20
-1.9772013652
 10
2.3547756191
 20
-2.0087227025
 10
2.4545393034
 20
-2.0343644683
 10
2.5583993808
 20
-2.0538457261
 10
2.6652179388
 20
-2.0669530352
 10
2.7738246507
 20
-2.0735427891
 10
2.8830295988
 20
-2.0735427891
 10
2.9916363107
 20
-2.0669530352
 10
3.0984548687
 20
-2.0538457261
 10
3.2023149461
 20
-2.0343644683
 10
3.3020786304
 20
-2.0087227025
 10
3.3966528896
 20
-1.9772013652
 10
3.4665345802
 20
-1.9485813012
  0
LWPOLYLINE
  5
813
330
7B8
100
AcDbEntity
  8
0
  6
Continuous
 62
     7
370
    25
100
AcDbPolyline
 90
       24
 70
   128
 43
0.0
 10
3.5800760654
 20
-2.0667339209
 10
3.4973897452
 20
-2.1097136244
 10
3.4073741305
 20
-2.1474683402
 10
3.3110154512
 20
-2.1795844197
 10
3.2093694333
 20
-2.2057099925
 10
3.1035497317
 20
-2.2255588212
 10
2.9947157293
 20
-2.238913438
 10
2.8840598341
 20
-2.2456275269
 10
2.7727944154
 20
-2.2456275269
 10
2.6621385202
 20
-2.238913438
 10
2.5533045177
 20
-2.2255588212
 10
2.4474848162
 20
-2.2057099925
 10
2.3458387983
 20
-2.1795844197
 10
2.249480119
 20
-2.1474683402
 10
2.1594645043
 20
-2.1097136244
 10
2.0767781841
 20
-2.0667339209
 10
2.002327087
 20
-2.0190001243
 10
1.9369269147
 20
-1.967035216
 10
1.8812942053
 20
-1.9114085345
 10
1.8360384824
 20
-1.8527295374
 10
1.8016555771
 20
-1.791641124
 10
1.7785221958
 20
-1.7288125917
 10
1.7668917925
 20
-1.6649323032
 10
1.7654349988
 20
-1.6328162236
  0
LWPOLYLINE
  5
815
330
7B8
100
AcDbEntity
  8
0
  6
Continuous
 62
     7
370
    25
100
AcDbPolyline
 90
        9
 70
   128
 43
0.0
 10
3.5800760654
 20
-2.0667339209
 10
3.6545271625
 20
-2.0190001243
 10
3.7199273348
 20
-1.967035216
 10
3.7755600442
 20
-1.9114085345
 10
3.8208157671
 20
-1.8527295374
 10
3.8551986724
 20
-1.791641124
 10
3.8783320537
 20
-1.7288125917
 10
3.889962457
 20
-1.6649323032
 10
3.8914192507
 20
-1.6328162236
  0
LWPOLYLINE
  5
817
330
7B8
100
AcDbEntity
  8
0
  6
Continuous
 62
     7
370
    25
100
AcDbPolyline
 90
       12
 70
   128
 43
0.0
 10
4.1507724833
 20
-1.2967531091
 10
4.1233215972
 20
-1.3080425013
 10
4.0980946187
 20
-1.3093019602
 10
4.0771352875
 20
-1.3004294519
 10
4.062141604
 20
-1.2821437742
 10
4.0543282672
 20
-1.2559263241
 10
4.0543282672
 20
-1.2239010833
 10
4.062141604
 20
-1.1886625465
 10
4.0771352875
 20
-1.1530655303
 10
4.0980946187
 20
-1.1199938933
 10
4.1233215972
 20
-1.0921269028
 10
4.1507724833
 20
-1.0717221766
  0
LWPOLYLINE
  5
818
330
7B8
100
AcDbEntity
  8
0
  6
Continuous
 62
     7
370
    25
100
AcDbPolyline
 90
       12
 70
   128
 43
0.0
 10
4.1507724833
 20
-1.0717221766
 10
4.1782233693
 20
-1.0604327844
 10
4.2034503478
 20
-1.0591733255
 10
4.224409679
 20
-1.0680458338
 10
4.2394033625
 20
-1.0863315115
 10
4.2472166993
 20
-1.1125489616
 10
4.2472166993
 20
-1.1445742024
 10
4.2394033625
 20
-1.1798127392
 10
4.224409679
 20
-1.2154097554
 10
4.2034503478
 20
-1.2484813924
 10
4.1782233693
 20
-1.2763483829
 10
4.1507724833
 20
-1.2967531091
  0
LWPOLYLINE
  5
81B
330
7B8
100
AcDbEntity
  8
0
  6
Continuous
 62
     7
370
    25
100
AcDbPolyline
 90
       16
 70
   128
 43
0.0
 10
-3.0314765939
 20
1.9824868378
 10
-3.006747333
 20
1.9783743732
 10
-2.9183565879
 20
1.9682244935
 10
-2.8284271247
 20
1.9648217933
 10
-2.7384976616
 20
1.9682244935
 10
-2.6501069165
 20
1.9783743732
 10
-2.5647672796
 20
1.9950977651
 10
-2.4839389358
 20
2.0181085272
 10
-2.4090048804
 20
2.0470129391
 10
-2.3412472558
 20
2.0813164383
 10
-2.2818254139
 20
2.1204320823
 10
-2.2317560788
 20
2.1636905917
 10
-2.1918959508
 20
2.2103518014
 10
-2.1629270476
 20
2.2596173251
 10
-2.1453450352
 20
2.3106442161
 10
-2.1394507468
 20
2.3625593902
  0
LWPOLYLINE
  5
81C
330
7B8
100
AcDbEntity
  8
0
  6
Continuous
 62
     7
370
    25
100
AcDbPolyline
 90
       16
 70
   128
 43
0.0
 10
-3.5972401857
 20
1.3864046505
 10
-3.5661566406
 20
1.3676704196
 10
-3.4850015485
 20
1.3254866365
 10
-3.3966528896
 20
1.2884310821
 10
-3.3020786304
 20
1.2569097448
 10
-3.2023149461
 20
1.231267979
 10
-3.0984548687
 20
1.2117867211
 10
-2.9916363107
 20
1.1986794121
 10
-2.8830295988
 20
1.1920896582
 10
-2.7738246507
 20
1.1920896582
 10
-2.6652179388
 20
1.1986794121
 10
-2.5583993808
 20
1.2117867211
 10
-2.4545393034
 20
1.231267979
 10
-2.3547756191
 20
1.2569097448
 10
-2.2602013599
 20
1.2884310821
 10
-2.1903196693
 20
1.3170511461
  0
LWPOLYLINE
  5
820
330
7B8
100
AcDbEntity
  8
0
  6
Continuous
 62
     7
370
    25
100
AcDbPolyline
 90
       24
 70
   128
 43
0.0
 10
-2.0767781841
 20
1.1988985264
 10
-2.1594645043
 20
1.1559188229
 10
-2.249480119
 20
1.1181641071
 10
-2.3458387983
 20
1.0860480276
 10
-2.4474848162
 20
1.0599224548
 10
-2.5533045177
 20
1.0400736261
 10
-2.6621385202
 20
1.0267190093
 10
-2.7727944154
 20
1.0200049204
 10
-2.8840598341
 20
1.0200049204
 10
-2.9947157293
 20
1.0267190093
 10
-3.1035497317
 20
1.0400736261
 10
-3.2093694333
 20
1.0599224548
 10
-3.3110154512
 20
1.0860480276
 10
-3.4073741305
 20
1.1181641071
 10
-3.4973897452
 20
1.1559188229
 10
-3.5800760654
 20
1.1988985264
 10
-3.6545271625
 20
1.246632323
 10
-3.7199273348
 20
1.2985972313
 10
-3.7755600442
 20
1.3542239128
 10
-3.8208157671
 20
1.4129029099
 10
-3.8551986724
 20
1.4739913233
 10
-3.8783320537
 20
1.5368198556
 10
-3.889962457
 20
1.6007001441
 10
-3.8914192507
 20
1.6328162236
  0
LWPOLYLINE
  5
822
330
7B8
100
AcDbEntity
  8
0
  6
Continuous
 62
     7
370
    25
100
AcDbPolyline
 90
        9
 70
   128
 43
0.0
 10
-2.0767781841
 20
1.1988985264
 10
-2.002327087
 20
1.246632323
 10
-1.9369269147
 20
1.2985972313
 10
-1.8812942053
 20
1.3542239128
 10
-1.8360384824
 20
1.4129029099
 10
-1.8016555771
 20
1.4739913233
 10
-1.7785221958
 20
1.5368198556
 10
-1.7668917925
 20
1.6007001441
 10
-1.7654349988
 20
1.6328162236
  0
LWPOLYLINE
  5
826
330
7B8
100
AcDbEntity
  8
0
  6
Continuous
 62
     8
370
    25
100
AcDbPolyline
 90
       23
 70
   128
 43
0.0
 10
0.7794877903
 20
-0.2892523428
 10
0.6966290188
 20
-0.3324682002
 10
0.6066218908
 20
-0.3706231112
 10
0.5103900014
 20
-0.4033255547
 10
0.4089208199
 20
-0.4302399596
 10
0.3032555574
 20
-0.4510901474
 10
0.1944784825
 20
-0.4656621672
 10
0.0837057952
 20
-0.4738064902
 10
-0.0279258268
 20
-0.4754395446
 10
-0.139270892
 20
-0.4705445733
 10
-0.2491868495
 20
-0.459171805
 10
-0.3565458126
 20
-0.4414379399
 10
-0.4602461332
 20
-0.4175249514
 10
-0.5592237057
 20
-0.3876782192
 10
-0.6524628862
 20
-0.352204011
 10
-0.7390069146
 20
-0.3114663403
 10
-0.817967732
 20
-0.2658832307
 10
-0.8885350936
 20
-0.2159224265
 10
-0.9499848827
 20
-0.1620965933
 10
-1.0016865414
 20
-0.104958057
 10
-1.0431095407
 20
-0.0450931361
 10
-1.0738288246
 20
0.0168838741
 10
-1.0798015996
 20
0.0326475207
  0
LWPOLYLINE
  5
829
330
7B8
100
AcDbEntity
  8
0
  6
Continuous
 62
     8
370
    25
100
AcDbPolyline
 90
       20
 70
   128
 43
0.0
 10
0.4724409449
 20
0.7425973173
 10
0.4825883265
 20
0.7396518524
 10
0.5789470057
 20
0.7075357729
 10
0.6689626204
 20
0.6697810571
 10
0.7516489406
 20
0.6268013536
 10
0.8261000378
 20
0.579067557
 10
0.89150021
 20
0.5271026487
 10
0.9471329194
 20
0.4714759672
 10
0.9923886423
 20
0.4127969701
 10
1.0267715476
 20
0.3517085567
 10
1.049904929
 20
0.2888800244
 10
1.0615353322
 20
0.2249997359
 10
1.0615353322
 20
0.1607675768
 10
1.049904929
 20
0.0968872883
 10
1.0267715476
 20
0.034058756
 10
0.9923886423
 20
-0.0270296574
 10
0.9471329194
 20
-0.0857086545
 10
0.89150021
 20
-0.141335336
 10
0.8261000378
 20
-0.1933002443
 10
0.7516489406
 20
-0.2410340409
  0
LWPOLYLINE
  5
82B
330
7B8
100
AcDbEntity
  8
0
  6
Continuous
 62
     8
370
    25
100
AcDbPolyline
 90
       17
 70
   128
 43
0.0
 10
-0.3340661958
 20
4.535634286
 10
-0.27769382
 20
4.50783987
 10
-0.2144837007
 20
4.4854785087
 10
-0.1459922808
 20
4.469100813
 10
-0.0739060465
 20
4.4591100562
 10
0.0
 20
4.4557522437
 10
0.0739060465
 20
4.4591100562
 10
0.1459922808
 20
4.469100813
 10
0.2144837007
 20
4.4854785087
 10
0.27769382
 20
4.50783987
 10
0.3340661958
 20
4.535634286
 10
0.3822127532
 20
4.5681773659
 10
0.4209479642
 20
4.6046677911
 10
0.4493180392
 20
4.6442070461
 10
0.4666244129
 20
4.6858215434
 10
0.4724409449
 20
4.7284865959
 10
0.4724409322
 20
4.7285497137
  0
LWPOLYLINE
  5
82C
330
7B8
100
AcDbEntity
  8
0
  6
Continuous
 62
     8
370
    25
100
AcDbPolyline
 90
       12
 70
   128
 43
0.0
 10
-0.3340661958
 20
4.535634286
 10
-0.3380422578
 20
4.6522870304
 10
-0.349946782
 20
4.7636549099
 10
-0.3697089246
 20
4.8690751731
 10
-0.3972110808
 20
4.9679204632
 10
-0.4322895852
 20
5.0596025509
 10
-0.4747356851
 20
5.1435758354
 10
-0.5242967835
 20
5.2193405907
 10
-0.5806779418
 20
5.2864459403
 10
-0.6435436353
 20
5.3444925394
 10
-0.7125197495
 20
5.3931349523
 10
-0.7251291722
 20
5.4006236125
  0
LWPOLYLINE
  5
82D
330
7B8
100
AcDbEntity
  8
0
  6
Continuous
 62
     8
370
    25
100
AcDbPolyline
 90
       16
 70
   128
 43
0.0
 10
-2.8381571685
 20
3.1443416917
 10
-2.8418277253
 20
3.1297768191
 10
-2.8581573775
 20
3.0994572507
 10
-2.8854691245
 20
3.0721566329
 10
-2.9230904604
 20
3.0485471973
 10
-2.9700950231
 20
3.0292102868
 10
-3.0253254042
 20
3.0146220402
 10
-3.0874216485
 20
3.0051416686
 10
-3.1548547403
 20
3.0010026101
 10
-3.2259642532
 20
3.0023067821
 10
-3.2989992348
 20
3.0090220717
 10
-3.3721613217
 20
3.020983126
 10
-3.4436490203
 20
3.0378954242
 10
-3.5117020663
 20
3.0593425294
 10
-3.5746447679
 20
3.0847963427
 10
-3.6309272668
 20
3.1136301067
  0
LWPOLYLINE
  5
82E
330
7B8
100
AcDbEntity
  8
0
  6
Continuous
 62
     8
370
    25
100
AcDbPolyline
 90
       36
 70
   128
 43
0.0
 10
-0.2533169499
 20
6.2192784495
 10
-0.2897853536
 20
6.2392636603
 10
-0.3830700393
 20
6.2815388957
 10
-0.4813631746
 20
6.3140198158
 10
-0.5842823225
 20
6.3365800442
 10
-0.6914270473
 20
6.3491318043
 10
-0.8023804723
 20
6.3516262597
 10
-0.9167109021
 20
6.3440537053
 10
-1.0339735022
 20
6.326443604
 10
-1.1537120294
 20
6.2988644729
 10
-1.2754606076
 20
6.2614236164
 10
-1.3987455397
 20
6.2142667087
 10
-1.523087151
 20
6.1575772268
 10
-1.6480016558
 20
6.0915757372
 10
-1.7730030391
 20
6.0165190371
 10
-1.8976049479
 20
5.9326991556
 10
-2.0213225836
 20
5.8404422176
 10
-2.1436745881
 20
5.7401071745
 10
-2.2641849165
 20
5.6320844079
 10
-2.3823846897
 20
5.5167942107
 10
-2.4978140182
 20
5.3946851517
 10
-2.610023792
 20
5.2662323305
 10
-2.7185774273
 20
5.1319355288
 10
-2.8230525659
 20
4.9923172659
 10
-2.923042718
 20
4.8479207659
 10
-3.0181588437
 20
4.6993078438
 10
-3.1080308672
 20
4.5470567199
 10
-3.1923091161
 20
4.3917597698
 10
-3.2706656824
 20
4.2340212199
 10
-3.3427956977
 20
4.0744547963
 10
-3.40841852
 20
3.9136813369
 10
-3.4672788254
 20
3.7523263758
 10
-3.5191476013
 20
3.5910177099
 10
-3.5638230377
 20
3.4303829556
 10
-3.6011313123
 20
3.2710471077
 10
-3.6309272668
 20
3.1136301067
  0
LWPOLYLINE
  5
830
330
7B8
100
AcDbEntity
  8
0
  6
Continuous
 62
     8
370
    25
100
AcDbPolyline
 90
        7
 70
   128
 43
0.0
 10
-3.6309272668
 20
3.1136301067
 10
-3.6791637012
 20
3.1451338386
 10
-3.7181663299
 20
3.1785318117
 10
-3.7469747787
 20
3.2130016573
 10
-3.7648796881
 20
3.2476946132
 10
-3.7714401797
 20
3.2817564238
 10
-3.7701877602
 20
3.2996493301
  0
LWPOLYLINE
  5
835
330
7B8
100
AcDbEntity
  8
0
  6
Continuous
 62
     8
370
    25
100
AcDbPolyline
 90
       16
 70
   128
 43
0.0
 10
3.4440057314
 20
-0.2940991314
 10
3.4250981707
 20
-0.3143335921
 10
3.3750288356
 20
-0.3575921015
 10
3.3156069937
 20
-0.3967077456
 10
3.2478493691
 20
-0.4310112448
 10
3.1729153137
 20
-0.4599156566
 10
3.0920869699
 20
-0.4829264188
 10
3.006747333
 20
-0.4996498106
 10
2.9183565879
 20
-0.5097996903
 10
2.8284271247
 20
-0.5132023906
 10
2.7384976616
 20
-0.5097996903
 10
2.6501069165
 20
-0.4996498106
 10
2.5647672796
 20
-0.4829264188
 10
2.4839389358
 20
-0.4599156566
 10
2.4090048804
 20
-0.4310112448
 10
2.3412472558
 20
-0.3967077456
  0
LWPOLYLINE
  5
836
330
7B8
100
AcDbEntity
  8
0
  6
Continuous
 62
     8
370
    25
100
AcDbPolyline
 90
       14
 70
   128
 43
0.0
 10
3.3016875688
 20
0.1738162833
 10
3.3594116438
 20
0.1358182291
 10
3.4080504265
 20
0.0937956771
 10
3.4467716937
 20
0.0484676449
 10
3.474912914
 20
0.0006097075
 10
3.4919925831
 20
-0.0489592723
 10
3.4977184633
 20
-0.0993911557
 10
3.4919925831
 20
-0.149823039
 10
3.474912914
 20
-0.1993920188
 10
3.4467716937
 20
-0.2472499562
 10
3.4080504265
 20
-0.2925779884
 10
3.3594116438
 20
-0.3346005404
 10
3.3016875688
 20
-0.3725985947
 10
3.2725454727
 20
-0.3884444737
  0
LWPOLYLINE
  5
83A
330
7B8
100
AcDbEntity
  8
0
  6
Continuous
 62
     8
370
    25
100
AcDbPolyline
 90
       16
 70
   128
 43
0.0
 10
2.0906976089
 20
-1.046197659
 10
2.0176252358
 20
-1.0930474965
 10
1.9534361779
 20
-1.1440500916
 10
1.8988337038
 20
-1.1986466493
 10
1.8544160499
 20
-1.2562389984
 10
1.820669865
 20
-1.3161961449
 10
1.7979648796
 20
-1.3778611858
 10
1.7865498542
 20
-1.440558506
 10
1.7865498542
 20
-1.5036011807
 10
1.7979648796
 20
-1.5662985009
 10
1.820669865
 20
-1.6279635418
 10
1.8544160499
 20
-1.6879206883
 10
1.8988337038
 20
-1.7455130374
 10
1.9534361779
 20
-1.8001095951
 10
2.0176252358
 20
-1.8511121902
 10
2.0596140638
 20
-1.8792277968
  0
LWPOLYLINE
  5
83B
330
7B8
100
AcDbEntity
  8
0
  6
Continuous
 62
     8
370
    25
100
AcDbPolyline
 90
        3
 70
   128
 43
0.0
 10
3.4665345802
 20
-1.9485813012
 10
3.4850015485
 20
-1.9401458108
 10
3.5661566406
 20
-1.8979620277
  0
LWPOLYLINE
  5
83C
330
7B8
100
AcDbEntity
  8
0
  6
Continuous
 62
     8
370
    25
100
AcDbPolyline
 90
       19
 70
   128
 43
0.0
 10
1.8912114278
 20
-1.7777074384
 10
1.9369269147
 20
-1.8223724737
 10
2.002327087
 20
-1.874337382
 10
2.0767781841
 20
-1.9220711786
 10
2.1594645043
 20
-1.9650508821
 10
2.249480119
 20
-2.0028055979
 10
2.3458387983
 20
-2.0349216775
 10
2.4474848162
 20
-2.0610472502
 10
2.5533045177
 20
-2.0808960789
 10
2.6621385202
 20
-2.0942506957
 10
2.7727944154
 20
-2.1009647846
 10
2.8840598341
 20
-2.1009647846
 10
2.9947157293
 20
-2.0942506957
 10
3.1035497317
 20
-2.0808960789
 10
3.2093694333
 20
-2.0610472502
 10
3.3110154512
 20
-2.0349216775
 10
3.4073741305
 20
-2.0028055979
 10
3.4973897452
 20
-1.9650508821
 10
3.5800760654
 20
-1.9220711786
  0
LWPOLYLINE
  5
83E
330
7B8
100
AcDbEntity
  8
0
  6
Continuous
 62
     8
370
    25
100
AcDbPolyline
 90
       17
 70
   128
 43
0.0
 10
3.5661566406
 20
-1.8979620277
 10
3.6392290137
 20
-1.8511121902
 10
3.7034180716
 20
-1.8001095951
 10
3.7580205457
 20
-1.7455130374
 10
3.8024381996
 20
-1.6879206883
 10
3.8361843845
 20
-1.6279635418
 10
3.8588893699
 20
-1.5662985009
 10
3.8703043953
 20
-1.5036011807
 10
3.8703043953
 20
-1.440558506
 10
3.8588893699
 20
-1.3778611858
 10
3.8361843845
 20
-1.3161961449
 10
3.8024381996
 20
-1.2562389984
 10
3.7580205457
 20
-1.1986466493
 10
3.7034180716
 20
-1.1440500916
 10
3.6392290137
 20
-1.0930474965
 10
3.5661566406
 20
-1.046197659
 10
3.5174035027
 20
-1.0198010866
  0
LWPOLYLINE
  5
841
330
7B8
100
AcDbEntity
  8
0
  6
Continuous
 62
     8
370
    25
100
AcDbPolyline
 90
       10
 70
   128
 43
0.0
 10
4.0592102054
 20
-1.3132003318
 10
4.0526962633
 20
-1.3089927688
 10
4.035560625
 20
-1.2880948515
 10
4.0266310972
 20
-1.2581320513
 10
4.0266310972
 20
-1.2215317762
 10
4.035560625
 20
-1.1812591627
 10
4.0526962633
 20
-1.1405768585
 10
4.0766497847
 20
-1.1027807019
 10
4.1054806173
 20
-1.0709327127
 10
4.1368530584
 20
-1.0476130257
  0
LWPOLYLINE
  5
845
330
7B8
100
AcDbEntity
  8
0
  6
Continuous
 62
     8
370
    25
100
AcDbPolyline
 90
       11
 70
   128
 43
0.0
 10
-2.2128485181
 20
2.9715333159
 10
-2.2317560788
 20
2.9512988552
 10
-2.2818254139
 20
2.9080403457
 10
-2.3412472558
 20
2.8689247017
 10
-2.4090048804
 20
2.8346212025
 10
-2.4839389358
 20
2.8057167906
 10
-2.5647672796
 20
2.7827060285
 10
-2.6501069165
 20
2.7659826367
 10
-2.7384976616
 20
2.755832757
 10
-2.8284271247
 20
2.7524300567
 10
-2.9029781204
 20
2.7547653516
  0
LWPOLYLINE
  5
846
330
7B8
100
AcDbEntity
  8
0
  6
Continuous
 62
     8
370
    25
100
AcDbPolyline
 90
       14
 70
   128
 43
0.0
 10
-2.3551666806
 20
3.4394487306
 10
-2.2974426057
 20
3.4014506764
 10
-2.248803823
 20
3.3594281244
 10
-2.2100825557
 20
3.3141000922
 10
-2.1819413355
 20
3.2662421548
 10
-2.1648616663
 20
3.216673175
 10
-2.1591357862
 20
3.1662412916
 10
-2.1648616663
 20
3.1158094083
 10
-2.1819413355
 20
3.0662404285
 10
-2.2100825557
 20
3.0183824911
 10
-2.248803823
 20
2.9730544589
 10
-2.2974426057
 20
2.9310319069
 10
-2.3551666806
 20
2.8930338526
 10
-2.3843087768
 20
2.8771879736
  0
LWPOLYLINE
  5
849
330
7B8
100
AcDbEntity
  8
0
  6
Continuous
 62
     8
370
    25
100
AcDbPolyline
 90
       10
 70
   128
 43
0.0
 10
-4.1368530584
 20
3.728695849
 10
-4.1682254996
 20
3.705376162
 10
-4.1970563322
 20
3.6735281728
 10
-4.2210098535
 20
3.6357320162
 10
-4.2381454919
 20
3.595049712
 10
-4.2470750197
 20
3.5547770985
 10
-4.2470750197
 20
3.5181768234
 10
-4.2381454919
 20
3.4882140232
 10
-4.2210098535
 20
3.4673161059
 10
-4.2155868169
 20
3.4637210971
  0
LWPOLYLINE
  5
84E
330
7B8
100
AcDbEntity
  8
0
  6
Continuous
 62
     8
370
    25
100
AcDbPolyline
 90
        3
 70
   128
 43
0.0
 10
-2.1903196693
 20
1.3170511461
 10
-2.171852701
 20
1.3254866365
 10
-2.0906976089
 20
1.3676704196
  0
LWPOLYLINE
  5
84F
330
7B8
100
AcDbEntity
  8
0
  6
Continuous
 62
     8
370
    25
100
AcDbPolyline
 90
       19
 70
   128
 43
0.0
 10
-3.7656428217
 20
1.4879250089
 10
-3.7199273348
 20
1.4432599736
 10
-3.6545271625
 20
1.3912950653
 10
-3.5800760654
 20
1.3435612687
 10
-3.4973897452
 20
1.3005815652
 10
-3.4073741305
 20
1.2628268493
 10
-3.3110154512
 20
1.2307107698
 10
-3.2093694333
 20
1.2045851971
 10
-3.1035497317
 20
1.1847363683
 10
-2.9947157293
 20
1.1713817516
 10
-2.8840598341
 20
1.1646676627
 10
-2.7727944154
 20
1.1646676627
 10
-2.6621385202
 20
1.1713817516
 10
-2.5533045177
 20
1.1847363683
 10
-2.4474848162
 20
1.2045851971
 10
-2.3458387983
 20
1.2307107698
 10
-2.249480119
 20
1.2628268493
 10
-2.1594645043
 20
1.3005815652
 10
-2.0767781841
 20
1.3435612687
  0
LWPOLYLINE
  5
850
330
7B8
100
AcDbEntity
  8
0
  6
Continuous
 62
     8
370
    25
100
AcDbPolyline
 90
       17
 70
   128
 43
0.0
 10
-2.0906976089
 20
1.3676704196
 10
-2.0176252358
 20
1.414520257
 10
-1.9534361779
 20
1.4655228522
 10
-1.8988337038
 20
1.5201194099
 10
-1.8544160499
 20
1.577711759
 10
-1.820669865
 20
1.6376689055
 10
-1.7979648796
 20
1.6993339464
 10
-1.7865498542
 20
1.7620312666
 10
-1.7865498542
 20
1.8250739412
 10
-1.7979648796
 20
1.8877712615
 10
-1.820669865
 20
1.9494363024
 10
-1.8544160499
 20
2.0093934489
 10
-1.8988337038
 20
2.066985798
 10
-1.9534361779
 20
2.1215823557
 10
-2.0176252358
 20
2.1725849508
 10
-2.0906976089
 20
2.2194347883
 10
-2.1394507468
 20
2.2458313607
  0
LINE
  5
852
330
7B8
100
AcDbEntity
  8
0
  6
Continuous
 62
     7
370
    25
100
AcDbLine
 10
-2.1394507468
 20
1.7935526039
 30
0.0
 11
-2.1394507468
 21
2.3207679313
 31
0.0
  0
LINE
  5
853
330
7B8
100
AcDbEntity
  8
0
  6
Continuous
 62
     7
370
    25
100
AcDbLine
 10
2.1394507468
 20
-0.944864516
 30
0.0
 11
2.1394507468
 21
-1.4720798434
 31
0.0
  0
LINE
  5
854
330
7B8
100
AcDbEntity
  8
0
  6
Continuous
 62
     7
370
    25
100
AcDbLine
 10
3.5174035027
 20
-1.4720798434
 30
0.0
 11
3.5174035027
 21
-1.0004391921
 31
0.0
  0
LINE
  5
855
330
7B8
100
AcDbEntity
  8
0
  6
Continuous
 62
     7
370
    25
100
AcDbLine
 10
-1.1023622047
 20
0.1607363803
 30
0.0
 11
-1.1023622047
 21
0.0
 31
0.0
  0
LINE
  5
856
330
7B8
100
AcDbEntity
  8
0
  6
Continuous
 62
     7
370
    25
100
AcDbLine
 10
1.1023622047
 20
0.0
 30
0.0
 11
1.1023622047
 21
0.1607363803
 31
0.0
  0
LINE
  5
857
330
7B8
100
AcDbEntity
  8
0
  6
Continuous
 62
     7
370
    25
100
AcDbLine
 10
-3.0679118426
 20
1.7635102313
 30
0.0
 11
-2.8381273572
 21
3.1445197947
 31
0.0
  0
LINE
  5
858
330
7B8
100
AcDbEntity
  8
0
  6
Continuous
 62
     7
370
    25
100
AcDbLine
 10
-3.7701950806
 20
3.2996053987
 30
0.0
 11
-3.999979566
 21
1.9185958352
 31
0.0
  0
LINE
  5
859
330
7B8
100
AcDbEntity
  8
0
  6
Continuous
 62
     7
370
    25
100
AcDbLine
 10
0.4724409449
 20
0.1607363803
 30
0.0
 11
0.4724409449
 21
4.7284865959
 31
0.0
  0
LINE
  5
85A
330
7B8
100
AcDbEntity
  8
0
  6
Continuous
 62
     7
370
    25
100
AcDbLine
 10
-0.4724409449
 20
4.7284865959
 30
0.0
 11
-0.4724409449
 21
0.1607363803
 31
0.0
  0
LINE
  5
85B
330
7B8
100
AcDbEntity
  8
0
  6
Continuous
 62
     7
370
    25
100
AcDbLine
 10
3.5174035027
 20
-0.6367638342
 30
0.0
 11
3.5174035027
 21
-0.1154647937
 31
0.0
  0
LINE
  5
85C
330
7B8
100
AcDbEntity
  8
0
  6
Continuous
 62
     7
370
    25
100
AcDbLine
 10
2.1394507468
 20
-0.1154647937
 30
0.0
 11
2.1394507468
 21
-0.9030730571
 31
0.0
  0
LINE
  5
85D
330
7B8
100
AcDbEntity
  8
0
  6
Continuous
 62
     7
370
    25
100
AcDbLine
 10
1.7654349988
 20
-1.4881534814
 30
0.0
 11
1.7654349988
 21
-1.6328162236
 31
0.0
  0
LINE
  5
85E
330
7B8
100
AcDbEntity
  8
0
  6
Continuous
 62
     7
370
    25
100
AcDbLine
 10
2.1394507468
 20
-1.014628892
 30
0.0
 11
2.0808558891
 21
-1.0452230911
 31
0.0
  0
LINE
  5
85F
330
7B8
100
AcDbEntity
  8
0
  6
Continuous
 62
     7
370
    25
100
AcDbLine
 10
3.8914192507
 20
-1.6328162236
 30
0.0
 11
3.8914192507
 21
-1.4881534814
 31
0.0
  0
LINE
  5
860
330
7B8
100
AcDbEntity
  8
0
  6
Continuous
 62
     7
370
    25
100
AcDbLine
 10
3.2187748923
 20
-0.8280445648
 30
0.0
 11
4.0581193
 21
-1.3125877776
 31
0.0
  0
LINE
  5
861
330
7B8
100
AcDbEntity
  8
0
  6
Continuous
 62
     7
370
    25
100
AcDbLine
 10
4.2155868169
 20
-1.0398164823
 30
0.0
 11
3.3790015646
 21
-0.5568660961
 31
0.0
  0
LINE
  5
862
330
7B8
100
AcDbEntity
  8
0
  6
Continuous
 62
     7
370
    25
100
AcDbLine
 10
-2.1394507468
 20
2.3625593902
 30
0.0
 11
-2.1394507468
 21
3.1501676536
 31
0.0
  0
LINE
  5
863
330
7B8
100
AcDbEntity
  8
0
  6
Continuous
 62
     7
370
    25
100
AcDbLine
 10
-4.2155868169
 20
3.4637210971
 30
0.0
 11
-3.7843136658
 21
3.2147524064
 31
0.0
  0
LINE
  5
864
330
7B8
100
AcDbEntity
  8
0
  6
Continuous
 62
     7
370
    25
100
AcDbLine
 10
-3.7207594769
 20
3.541738712
 30
0.0
 11
-4.0581193
 21
3.7364923924
 31
0.0
  0
LINE
  5
865
330
7B8
100
AcDbEntity
  8
0
  6
Continuous
 62
     7
370
    25
100
AcDbLine
 10
-3.8914192507
 20
1.7465460689
 30
0.0
 11
-3.8914192507
 21
1.6328162236
 31
0.0
  0
LINE
  5
866
330
7B8
100
AcDbEntity
  8
0
  6
Continuous
 62
     7
370
    25
100
AcDbLine
 10
-1.7654349988
 20
1.6328162236
 30
0.0
 11
-1.7654349988
 21
1.7774789659
 31
0.0
  0
LINE
  5
867
330
7B8
100
AcDbEntity
  8
0
  6
Continuous
 62
     7
370
    25
100
AcDbLine
 10
-2.3412472558
 20
2.0395249794
 30
0.0
 11
-2.3412472558
 21
1.512309652
 31
0.0
  0
LINE
  5
868
330
7B8
100
AcDbEntity
  8
0
  6
Continuous
 62
     7
370
    25
100
AcDbLine
 10
3.3156069937
 20
-1.2261074679
 30
0.0
 11
3.3156069937
 21
-1.7533227953
 31
0.0
  0
LINE
  5
869
330
7B8
100
AcDbEntity
  8
0
  6
Continuous
 62
     7
370
    25
100
AcDbLine
 10
0.7794877903
 20
-0.2892523428
 30
0.0
 11
0.7794877903
 21
-0.4499887231
 31
0.0
  0
LINE
  5
86A
330
7B8
100
AcDbEntity
  8
0
  6
Continuous
 62
     7
370
    25
100
AcDbLine
 10
-0.4724409449
 20
0.1960195114
 30
0.0
 11
-0.4755635608
 21
0.1768100183
 31
0.0
  0
LINE
  5
86B
330
7B8
100
AcDbEntity
  8
0
  6
Continuous
 62
     7
370
    25
100
AcDbLine
 10
0.4724409449
 20
0.1960195114
 30
0.0
 11
0.4755635608
 21
0.1768100183
 31
0.0
  0
LINE
  5
86C
330
7B8
100
AcDbEntity
  8
0
  6
Continuous
 62
     7
370
    25
100
AcDbLine
 10
-3.8607117522
 20
1.7326205433
 30
0.0
 11
-3.6309272668
 21
3.1136301067
 31
0.0
  0
LINE
  5
86D
330
7B8
100
AcDbEntity
  8
0
  6
Continuous
 62
     7
370
    25
100
AcDbLine
 10
0.4724065947
 20
0.1574475794
 30
0.0
 11
0.4724409449
 21
0.1607363803
 31
0.0
  0
LINE
  5
86E
330
7B8
100
AcDbEntity
  8
0
  6
Continuous
 62
     7
370
    25
100
AcDbLine
 10
-0.4724409449
 20
0.1607363803
 30
0.0
 11
-0.4724065947
 21
0.1574475794
 31
0.0
  0
LINE
  5
86F
330
7B8
100
AcDbEntity
  8
0
  6
Continuous
 62
     7
370
    25
100
AcDbLine
 10
2.3412472558
 20
-0.3967077456
 30
0.0
 11
2.3412472558
 21
-1.184316009
 31
0.0
  0
LINE
  5
870
330
7B8
100
AcDbEntity
  8
0
  6
Continuous
 62
     7
370
    25
100
AcDbLine
 10
3.5800760654
 20
-2.0667339209
 30
0.0
 11
3.5800760654
 21
-1.9220711786
 31
0.0
  0
LINE
  5
871
330
7B8
100
AcDbEntity
  8
0
  6
Continuous
 62
     7
370
    25
100
AcDbLine
 10
-2.0767781841
 20
1.1988985264
 30
0.0
 11
-2.0767781841
 21
1.3435612687
 31
0.0
  0
LINE
  5
872
330
7B8
100
AcDbEntity
  8
0
  6
Continuous
 62
     8
370
    25
100
AcDbLine
 10
2.1658346149
 20
-1.0158839397
 30
0.0
 11
2.1614519436
 21
-1.0027827902
 31
0.0
  0
LINE
  5
873
330
7B8
100
AcDbEntity
  8
0
  6
Continuous
 62
     8
370
    25
100
AcDbLine
 10
-3.8607117522
 20
1.7326205433
 30
0.0
 11
-3.8546181183
 21
1.7291513263
 31
0.0
  0
LINE
  5
874
330
7B8
100
AcDbEntity
  8
0
  6
Continuous
 62
     8
370
    25
100
AcDbLine
 10
-3.8955950359
 20
1.7545741359
 30
0.0
 11
-3.8607117522
 21
1.7326205433
 31
0.0
  0
LINE
  5
875
330
7B8
100
AcDbEntity
  8
0
  6
Continuous
 62
     8
370
    25
100
AcDbLine
 10
-0.3340661958
 20
-0.0031696853
 30
0.0
 11
-0.3340661958
 21
4.535634286
 31
0.0
  0
LINE
  5
876
330
7B8
100
AcDbEntity
  8
0
  6
Continuous
 62
     8
370
    25
100
AcDbLine
 10
2.4200110088
 20
-0.4054882261
 30
0.0
 11
2.3551666806
 21
-0.3725985947
 31
0.0
  0
LINE
  5
877
330
7B8
100
AcDbEntity
  8
0
  6
Continuous
 62
     8
370
    25
100
AcDbLine
 10
2.1394507468
 20
-1.0198010866
 30
0.0
 11
2.0906976089
 21
-1.046197659
 31
0.0
  0
LINE
  5
878
330
7B8
100
AcDbEntity
  8
0
  6
Continuous
 62
     8
370
    25
100
AcDbLine
 10
4.1368530584
 20
-1.0476130257
 30
0.0
 11
3.3130125586
 21
-0.5720200284
 31
0.0
  0
LINE
  5
879
330
7B8
100
AcDbEntity
  8
0
  6
Continuous
 62
     8
370
    25
100
AcDbLine
 10
-4.1368530584
 20
3.728695849
 30
0.0
 11
-3.7311980543
 21
3.4945161997
 31
0.0
  0
ARC
  5
87A
330
7B8
100
AcDbEntity
  8
0
  6
Continuous
 62
     7
370
    25
100
AcDbCircle
 10
-2.8300356151
 20
2.9925601435
 30
0.0
 40
1.071069598198223
100
AcDbArc
 50
258.7916844471
 51
297.1521748717
  0
ARC
  5
87B
330
7B8
100
AcDbEntity
  8
0
  6
Continuous
 62
     7
370
    25
100
AcDbCircle
 10
-2.8300365416
 20
2.9907622925
 30
0.0
 40
1.052787616118287
100
AcDbArc
 50
258.7450682318
 51
297.1517071087
  0
ARC
  5
87C
330
7B8
100
AcDbEntity
  8
0
  6
Continuous
 62
     7
370
    25
100
AcDbCircle
 10
-2.3593797295
 20
2.0386998512
 30
0.0
 40
0.0181512378834492
100
AcDbArc
 50
2.6054784836
 51
57.394521662
  0
ARC
  5
87D
330
7B8
100
AcDbEntity
  8
0
  6
Continuous
 62
     7
370
    25
100
AcDbCircle
 10
-2.4857402629
 20
1.8290034512
 30
0.0
 40
0.3480993988839737
100
AcDbArc
 50
294.5250616912
 51
354.1547973512
  0
ARC
  5
87E
330
7B8
100
AcDbEntity
  8
0
  6
Continuous
 62
     7
370
    25
100
AcDbCircle
 10
3.29747452
 20
-1.2269325961
 30
0.0
 40
0.0181512378834492
100
AcDbArc
 50
2.6054784836
 51
57.394521662
  0
ARC
  5
87F
330
7B8
100
AcDbEntity
  8
0
  6
Continuous
 62
     7
370
    25
100
AcDbCircle
 10
3.1435633082
 20
-0.8807700541
 30
0.0
 40
0.3858198531207626
100
AcDbArc
 50
296.4820320625
 51
342.4660151064
  0
ARC
  5
880
330
7B8
100
AcDbEntity
  8
0
  6
Continuous
 62
     7
370
    25
100
AcDbCircle
 10
3.1711139866
 20
-1.4366289961
 30
0.0
 40
0.348099398883967
100
AcDbArc
 50
294.5250616912
 51
354.1547973512
  0
ARC
  5
881
330
7B8
100
AcDbEntity
  8
0
  6
Continuous
 62
     7
370
    25
100
AcDbCircle
 10
-0.7240351478
 20
0.1607509941
 30
0.0
 40
0.378127317372252
100
AcDbArc
 50
159.8146209711
 51
199.8028042151
  0
ARC
  5
882
330
7B8
100
AcDbEntity
  8
0
  6
Continuous
 62
     7
370
    25
100
AcDbCircle
 10
0.7190462115
 20
-0.29200277
 30
0.0
 40
0.0605041262819795
100
AcDbArc
 50
2.6054784855
 51
57.3945216602
  0
ARC
  5
883
330
7B8
100
AcDbEntity
  8
0
  6
Continuous
 62
     7
370
    25
100
AcDbCircle
 10
0.7240351478
 20
0.1607217665
 30
0.0
 40
0.3781273173722473
100
AcDbArc
 50
339.8146209711
 51
19.8028042151
  0
ARC
  5
884
330
7B8
100
AcDbEntity
  8
0
  6
Continuous
 62
     7
370
    25
100
AcDbCircle
 10
-3.8085023301
 20
1.9252268927
 30
0.0
 40
0.1915920217531963
100
AcDbArc
 50
181.9834202604
 51
242.9624874089
  0
ARC
  5
885
330
7B8
100
AcDbEntity
  8
0
  6
Continuous
 62
     7
370
    25
100
AcDbCircle
 10
-3.8561362499
 20
1.7295732711
 30
0.0
 40
0.0050329663497535
100
AcDbArc
 50
242.6579579424
 51
291.6549085015
  0
ARC
  5
886
330
7B8
100
AcDbEntity
  8
0
  6
Continuous
 62
     7
370
    25
100
AcDbCircle
 10
3.2568210066
 20
-0.1150429994
 30
0.0
 40
0.2590351705642828
100
AcDbArc
 50
316.2714518399
 51
46.0888587238
  0
ARC
  5
887
330
7B8
100
AcDbEntity
  8
0
  6
Continuous
 62
     7
370
    25
100
AcDbCircle
 10
2.3714680452
 20
-0.3980829592
 30
0.0
 40
0.0302520631414135
100
AcDbArc
 50
122.6054783403
 51
177.3945215141
  0
ARC
  5
888
330
7B8
100
AcDbEntity
  8
0
  6
Continuous
 62
     7
370
    25
100
AcDbCircle
 10
2.8270522004
 20
0.5647269188
 30
0.0
 40
1.052140655549113
100
AcDbArc
 50
247.2401460769
 51
295.0504475703
  0
ARC
  5
889
330
7B8
100
AcDbEntity
  8
0
  6
Continuous
 62
     7
370
    25
100
AcDbCircle
 10
2.4000332429
 20
-0.1158865879
 30
0.0
 40
0.2590351705642815
100
AcDbArc
 50
136.2714518399
 51
226.0888587238
  0
ARC
  5
88A
330
7B8
100
AcDbEntity
  8
0
  6
Continuous
 62
     7
370
    25
100
AcDbCircle
 10
2.4857402629
 20
-0.8676222099
 30
0.0
 40
0.3480993988839674
100
AcDbArc
 50
185.8452026488
 51
245.4749383088
  0
ARC
  5
88B
330
7B8
100
AcDbEntity
  8
0
  6
Continuous
 62
     7
370
    25
100
AcDbCircle
 10
3.549855276
 20
-1.9234463922
 30
0.0
 40
0.0302520631411886
100
AcDbArc
 50
2.6054784857
 51
57.39452166
  0
ARC
  5
88C
330
7B8
100
AcDbEntity
  8
0
  6
Continuous
 62
     7
370
    25
100
AcDbCircle
 10
2.1735812923
 20
-1.4881778039
 30
0.0
 40
0.4044257034649525
100
AcDbArc
 50
134.3762321179
 51
225.7172644326
  0
ARC
  5
88D
330
7B8
100
AcDbEntity
  8
0
  6
Continuous
 62
     7
370
    25
100
AcDbCircle
 10
3.4832729571
 20
-1.4881291588
 30
0.0
 40
0.4044257034649515
100
AcDbArc
 50
314.3762321179
 51
45.7172644326
  0
ARC
  5
88E
330
7B8
100
AcDbEntity
  8
0
  6
Continuous
 62
     7
370
    25
100
AcDbCircle
 10
4.1205516939
 20
-1.0730973903
 30
0.0
 40
0.0302520631434572
100
AcDbArc
 50
2.6054784879
 51
57.3945216577
  0
ARC
  5
88F
330
7B8
100
AcDbEntity
  8
0
  6
Continuous
 62
     7
370
    25
100
AcDbCircle
 10
-2.4000332429
 20
3.1505894479
 30
0.0
 40
0.2590351705642814
100
AcDbArc
 50
316.2714518399
 51
46.0888587238
  0
ARC
  5
890
330
7B8
100
AcDbEntity
  8
0
  6
Continuous
 62
     7
370
    25
100
AcDbCircle
 10
-2.8220613296
 20
3.8053875616
 30
0.0
 40
1.026246448328712
100
AcDbArc
 50
265.7313188653
 51
295.2492529978
  0
ARC
  5
891
330
7B8
100
AcDbEntity
  8
0
  6
Continuous
 62
     7
370
    25
100
AcDbCircle
 10
-2.1069989735
 20
1.3421860551
 30
0.0
 40
0.0302520631411881
100
AcDbArc
 50
2.6054784857
 51
57.39452166
  0
ARC
  5
892
330
7B8
100
AcDbEntity
  8
0
  6
Continuous
 62
     7
370
    25
100
AcDbCircle
 10
-3.4397687321
 20
1.8041626683
 30
0.0
 40
0.4540926991511384
100
AcDbArc
 50
187.6862859443
 51
224.1402036578
  0
ARC
  5
893
330
7B8
100
AcDbEntity
  8
0
  6
Continuous
 62
     7
370
    25
100
AcDbCircle
 10
-2.1735812923
 20
1.7775032885
 30
0.0
 40
0.4044257034649532
100
AcDbArc
 50
314.3762321179
 51
45.7172644326
  0
ARC
  5
894
330
7B8
100
AcDbEntity
  8
0
  6
Continuous
 62
     8
370
    25
100
AcDbCircle
 10
-2.524065678
 20
2.400329622
 30
0.0
 40
0.3878008007977651
100
AcDbArc
 50
296.7364720013
 51
339.2364725043
  0
ARC
  5
895
330
7B8
100
AcDbEntity
  8
0
  6
Continuous
 62
     8
370
    25
100
AcDbCircle
 10
3.1327885716
 20
-0.8653028254
 30
0.0
 40
0.3878008007295868
100
AcDbArc
 50
296.7364719993
 51
339.2364725291
  0
ARC
  5
896
330
7B8
100
AcDbEntity
  8
0
  6
Continuous
 62
     8
370
    25
100
AcDbCircle
 10
-0.7631818148
 20
0.6107020248
 30
0.0
 40
0.0198039282441247
100
AcDbArc
 50
54.3837993459
 51
114.2913145818
  0
ARC
  5
897
330
7B8
100
AcDbEntity
  8
0
  6
Continuous
 62
     8
370
    25
100
AcDbCircle
 10
-0.1291857219
 20
-0.4795740201
 30
0.0
 40
1.269459304666056
100
AcDbArc
 50
105.6877624182
 51
119.3627522257
  0
ARC
  5
898
330
7B8
100
AcDbEntity
  8
0
  6
Continuous
 62
     8
370
    25
100
AcDbCircle
 10
0.4880590328
 20
0.2839696647
 30
0.0
 40
0.6430506904602347
100
AcDbArc
 50
296.9489972797
 51
336.7612768543
  0
ARC
  5
899
330
7B8
100
AcDbEntity
  8
0
  6
Continuous
 62
     8
370
    25
100
AcDbCircle
 10
-0.2325103785
 20
4.7546328485
 30
0.0
 40
0.2413999884335946
100
AcDbArc
 50
186.3264457554
 51
245.1215136112
  0
ARC
  5
89A
330
7B8
100
AcDbEntity
  8
0
  6
Continuous
 62
     8
370
    25
100
AcDbCircle
 10
-3.8542582355
 20
1.7304640341
 30
0.0
 40
0.0068042934586897
100
AcDbArc
 50
161.5224172399
 51
231.9944231087
  0
ARC
  5
89B
330
7B8
100
AcDbEntity
  8
0
  6
Continuous
 62
     8
370
    25
100
AcDbCircle
 10
3.3074540073
 20
0.1657666151
 30
0.0
 40
0.0099019680317775
100
AcDbArc
 50
65.7087591968
 51
125.6161942273
  0
ARC
  5
89C
330
7B8
100
AcDbEntity
  8
0
  6
Continuous
 62
     8
370
    25
100
AcDbCircle
 10
2.5837092297
 20
0.0390003615
 30
0.0
 40
0.498627479500861
100
AcDbArc
 50
223.2261881036
 51
240.9050248948
  0
ARC
  5
89D
330
7B8
100
AcDbEntity
  8
0
  6
Continuous
 62
     8
370
    25
100
AcDbCircle
 10
2.0849847948
 20
-1.0537094358
 30
0.0
 40
0.0094373214635368
100
AcDbArc
 50
52.7464897955
 51
115.9575837649
  0
ARC
  5
89E
330
7B8
100
AcDbEntity
  8
0
  6
Continuous
 62
     8
370
    25
100
AcDbCircle
 10
3.195262066
 20
-1.2360263523
 30
0.0
 40
0.7865998460950292
100
AcDbArc
 50
299.2887947125
 51
316.5289457594
  0
ARC
  5
89F
330
7B8
100
AcDbEntity
  8
0
  6
Continuous
 62
     8
370
    25
100
AcDbCircle
 10
4.1409165007
 20
-1.2977229023
 30
0.0
 40
0.0099035797599564
100
AcDbArc
 50
305.7068744341
 51
5.6196090444
  0
ARC
  5
8A0
330
7B8
100
AcDbEntity
  8
0
  6
Continuous
 62
     8
370
    25
100
AcDbCircle
 10
4.1829848856
 20
-1.1109068437
 30
0.0
 40
0.0783214712961611
100
AcDbArc
 50
66.2761221598
 51
126.086512232
  0
ARC
  5
8A1
330
7B8
100
AcDbEntity
  8
0
  6
Continuous
 62
     8
370
    25
100
AcDbCircle
 10
-2.3494002422
 20
3.4313990624
 30
0.0
 40
0.0099019680317772
100
AcDbArc
 50
65.7087591968
 51
125.6161942273
  0
ARC
  5
8A2
330
7B8
100
AcDbEntity
  8
0
  6
Continuous
 62
     8
370
    25
100
AcDbCircle
 10
-2.7921502415
 20
2.6367225216
 30
0.0
 40
0.9139606113196814
100
AcDbArc
 50
61.4372610071
 51
86.6207407862
  0
ARC
  5
8A3
330
7B8
100
AcDbEntity
  8
0
  6
Continuous
 62
     8
370
    25
100
AcDbCircle
 10
-4.0908791398
 20
3.6658726239
 30
0.0
 40
0.0778483063714702
100
AcDbArc
 50
65.1138624384
 51
126.1965959907
  0
ARC
  5
8A4
330
7B8
100
AcDbEntity
  8
0
  6
Continuous
 62
     8
370
    25
100
AcDbCircle
 10
-4.1425658485
 20
3.7211841525
 30
0.0
 40
0.009437242926246
100
AcDbArc
 50
52.7463107532
 51
115.9593675446
  0
ARC
  5
8A5
330
7B8
100
AcDbEntity
  8
0
  6
Continuous
 62
     8
370
    25
100
AcDbCircle
 10
-3.3234860495
 20
1.8779051697
 30
0.0
 40
0.5625958473358663
100
AcDbArc
 50
195.7083567327
 51
240.8832298908
  0
ARC
  5
8A6
330
7B8
100
AcDbEntity
  8
0
  6
Continuous
 62
     8
370
    25
100
AcDbCircle
 10
-2.4615921835
 20
2.029606095
 30
0.0
 40
0.7865998460950342
100
AcDbArc
 50
299.2887947125
 51
316.5289457594
  0
VIEWPORT
  5
8AB
330
7B8
100
AcDbEntity
  8
0
100
AcDbViewport
 10
0.0
 20
0.0
 30
0.0
 40
8.4
 41
6.4
 68
     1
 69
     1
 12
0.0
 22
4.3029183182
 13
0.0
 23
0.0
 14
0.5
 24
0.5
 15
0.5
 25
0.5
 16
0.0
 26
0.0
 36
1.0
 17
0.0
 27
0.0
 37
0.0
 42
50.0
 43
0.0
 44
0.0
 45
9.1237795276
 50
0.0
 51
0.0
 72
   100
 90
   557152
  1

281
     0
 71
     1
 74
     0
110
0.0
120
0.0
130
0.0
111
1.0
121
0.0
131
0.0
112
0.0
122
1.0
132
0.0
 79
     0
146
0.0
  0
ENDBLK
  5
7BB
330
7B8
100
AcDbEntity
  8
0
100
AcDbBlockEnd
  0
ENDSEC
  0
SECTION
  2
ENTITIES
  0
SPLINE
  5
7C
330
1F
100
AcDbEntity
  8
0
  6
Continuous
 62
     7
370
    25
100
AcDbSpline
210
0.0
220
0.0
230
1.0
 70
     8
 71
     3
 72
     9
 73
     5
 74
     0
 42
0.000000001
 43
0.00000001
 40
0.0
 40
0.0
 40
0.0
 40
0.0
 40
0.5568194965464037
 40
1.0
 40
1.0
 40
1.0
 40
1.0
 10
-0.2831641913323292
 20
4.784582943591901
 30
0.0
 10
-0.2826543779976592
 20
4.783281201880296
 30
0.0
 10
-0.2817387970278261
 20
4.780943385550805
 30
0.0
 10
-0.2801829954040748
 20
4.779338614735615
 30
0.0
 10
-0.2794934944571869
 20
4.778627411597814
 30
0.0
  0
SPLINE
  5
99
330
1F
100
AcDbEntity
  8
0
  6
Continuous
 62
     7
370
    25
100
AcDbSpline
210
0.0
220
0.0
230
1.0
 70
     8
 71
     3
 72
    11
 73
     7
 74
     0
 42
0.000000001
 43
0.00000001
 40
0.0
 40
0.0
 40
0.0
 40
0.0
 40
0.236912206734451
 40
0.4823338810861563
 40
0.7361968036584823
 40
1.0
 40
1.0
 40
1.0
 40
1.0
 10
-0.2997617981037788
 20
4.739652521863815
 30
0.0
 10
-0.2992288737034947
 20
4.739410811655087
 30
0.0
 10
-0.2981438832006513
 20
4.738918709434265
 30
0.0
 10
-0.2965367252382609
 20
4.736381706828277
 30
0.0
 10
-0.2953271702246664
 20
4.732807148210935
 30
0.0
 10
-0.2951976017342454
 20
4.730031048502535
 30
0.0
 10
-0.2951315734958319
 20
4.72861634518377
 30
0.0
  0
SPLINE
  5
9A
330
1F
100
AcDbEntity
  8
0
  6
Continuous
 62
     7
370
    25
100
AcDbSpline
210
0.0
220
0.0
230
1.0
 70
     8
 71
     3
 72
    11
 73
     7
 74
     0
 42
0.000000001
 43
0.00000001
 40
0.0
 40
0.0
 40
0.0
 40
0.0
 40
0.2638042889330509
 40
0.5176640060766527
 40
0.7630856772044663
 40
1.0
 40
1.0
 40
1.0
 40
1.0
 10
0.295131579089958
 20
4.728616343415829
 30
0.0
 10
0.2951976077930372
 20
4.73003105703701
 30
0.0
 10
0.2953271761298156
 20
4.732807154133666
 30
0.0
 10
0.2965367190126349
 20
4.736381697490961
 30
0.0
 10
0.2981438859782283
 20
4.73891871499095
 30
0.0
 10
0.2992288664813563
 20
4.73941080019905
 30
0.0
 10
0.299761788395506
 20
4.739652503151564
 30
0.0
  0
SPLINE
  5
A1
330
1F
100
AcDbEntity
  8
0
  6
Continuous
 62
     7
370
    25
100
AcDbSpline
210
0.0
220
0.0
230
1.0
 70
     8
 71
     3
 72
     9
 73
     5
 74
     0
 42
0.000000001
 43
0.00000001
 40
0.0
 40
0.0
 40
0.0
 40
0.0
 40
0.4755877077889511
 40
1.0
 40
1.0
 40
1.0
 40
1.0
 10
0.1877824969811162
 20
4.721867581395696
 30
0.0
 10
0.1881767235633656
 20
4.721358660151189
 30
0.0
 10
0.1890056486507743
 20
4.720288571004281
 30
0.0
 10
0.1892379062949518
 20
4.717968587538548
 30
0.0
 10
0.1893597050585185
 20
4.716751959691393
 30
0.0
  0
SPLINE
  5
A2
330
1F
100
AcDbEntity
  8
0
  6
Continuous
 62
     7
370
    25
100
AcDbSpline
210
0.0
220
0.0
230
1.0
 70
     8
 71
     3
 72
     9
 73
     5
 74
     0
 42
0.000000001
 43
0.00000001
 40
0.0
 40
0.0
 40
0.0
 40
0.0
 40
0.5244119681361898
 40
0.9999999999999999
 40
0.9999999999999999
 40
0.9999999999999999
 40
0.9999999999999999
 10
-0.189359707391529
 20
4.716751950699967
 30
0.0
 10
-0.1892379072895063
 20
4.717968572954433
 30
0.0
 10
-0.1890056469494998
 20
4.720288547189178
 30
0.0
 10
-0.1881767250497992
 20
4.721358658780558
 30
0.0
 10
-0.1877824997149519
 20
4.721867591046178
 30
0.0
  0
SPLINE
  5
A9
330
1F
100
AcDbEntity
  8
0
  6
Continuous
 62
     7
370
    25
100
AcDbSpline
210
0.0
220
0.0
230
1.0
 70
     8
 71
     3
 72
    11
 73
     7
 74
     0
 42
0.000000001
 43
0.00000001
 40
0.0
 40
0.0
 40
0.0
 40
0.0
 40
0.1015792539925632
 40
0.3396905482803351
 40
0.5768295777643626
 40
1.0
 40
1.0
 40
1.0
 40
1.0
 10
-0.0677261487971529
 20
4.707061180573826
 30
0.0
 10
-0.0674889602486091
 20
4.706988810402516
 30
0.0
 10
-0.0666957795061459
 20
4.706746797765038
 30
0.0
 10
-0.0654764562180307
 20
4.705999219927812
 30
0.0
 10
-0.0637425055107668
 20
4.704601146605895
 30
0.0
 10
-0.0629667471193744
 20
4.70316598537568
 30
0.0
 10
-0.062469589301652
 20
4.70224623815385
 30
0.0
  0
SPLINE
  5
AA
330
1F
100
AcDbEntity
  8
0
  6
Continuous
 62
     7
370
    25
100
AcDbSpline
210
0.0
220
0.0
230
1.0
 70
     8
 71
     3
 72
    12
 73
     8
 74
     0
 42
0.000000001
 43
0.00000001
 40
0.0
 40
0.0
 40
0.0
 40
0.0
 40
0.2336096585098076
 40
0.5844102844555844
 40
0.7619295968729873
 40
0.9401743056068645
 40
1.0
 40
1.0
 40
1.0
 40
1.0
 10
0.0618667475888718
 20
4.699752369954504
 30
0.0
 10
0.0619568102793608
 20
4.700503942086597
 30
0.0
 10
0.0621821158720459
 20
4.702384114705776
 30
0.0
 10
0.063703284826965
 20
4.704515283836417
 30
0.0
 10
0.0654675862534371
 20
4.706000458600978
 30
0.0
 10
0.0666486336467595
 20
4.706723799186649
 30
0.0
 10
0.0673896168098161
 20
4.706953412134964
 30
0.0
 10
0.0675758215277534
 20
4.707011112520623
 30
0.0
  0
LWPOLYLINE
  5
C0
330
1F
100
AcDbEntity
  8
0
  6
Continuous
 62
     7
370
    25
100
AcDbPolyline
 90
       10
 70
   128
 43
0.0
 10
0.0
 20
4.8204014964
 10
0.0658017209
 20
4.8192045687
 10
0.1296040897
 20
4.8156501534
 10
0.1894685039
 20
4.8098462497
 10
0.2435760135
 20
4.8019692063
 10
0.2902825892
 20
4.7922583632
 10
0.3281690753
 20
4.7810087794
 10
0.35608431
 20
4.7685622678
 10
0.3731801033
 20
4.7552970095
 10
0.3789350351
 20
4.7418702863
  0
LWPOLYLINE
  5
C1
330
1F
100
AcDbEntity
  8
0
  6
Continuous
 62
     7
370
    25
100
AcDbPolyline
 90
       10
 70
   128
 43
0.0
 10
0.3766949055
 20
4.7330582694
 10
0.3731801033
 20
4.7279351154
 10
0.35608431
 20
4.714669857
 10
0.3281690753
 20
4.7022233454
 10
0.2902825892
 20
4.6909737616
 10
0.2435760135
 20
4.6812629185
 10
0.1894685039
 20
4.6733858751
 10
0.1296040897
 20
4.6675819714
 10
0.0658017209
 20
4.6640275562
 10
0.0
 20
4.6628306284
  0
LWPOLYLINE
  5
C2
330
1F
100
AcDbEntity
  8
0
  6
Continuous
 62
     7
370
    25
100
AcDbPolyline
 90
       10
 70
   128
 43
0.0
 10
0.0
 20
4.6628306284
 10
-0.0658017209
 20
4.6640275562
 10
-0.1296040897
 20
4.6675819714
 10
-0.1894685039
 20
4.6733858751
 10
-0.2435760135
 20
4.6812629185
 10
-0.2902825892
 20
4.6909737616
 10
-0.3281690753
 20
4.7022233454
 10
-0.35608431
 20
4.714669857
 10
-0.3731801033
 20
4.7279351154
 10
-0.3740438612
 20
4.7289958985
  0
LWPOLYLINE
  5
C3
330
1F
100
AcDbEntity
  8
0
  6
Continuous
 62
     7
370
    25
100
AcDbPolyline
 90
       10
 70
   128
 43
0.0
 10
-0.3789163641
 20
4.7424384292
 10
-0.3731801033
 20
4.7552970095
 10
-0.35608431
 20
4.7685622678
 10
-0.3281690753
 20
4.7810087794
 10
-0.2902825892
 20
4.7922583632
 10
-0.2435760135
 20
4.8019692063
 10
-0.1894685039
 20
4.8098462497
 10
-0.1296040897
 20
4.8156501534
 10
-0.0658017209
 20
4.8192045687
 10
0.0
 20
4.8204014964
  0
LWPOLYLINE
  5
C4
330
1F
100
AcDbEntity
  8
0
  6
Continuous
 62
     7
370
    25
100
AcDbPolyline
 90
       20
 70
   128
 43
0.0
 10
0.0
 20
4.8316565584
 10
-0.0712811218
 20
4.8304285234
 10
-0.1406178804
 20
4.826777916
 10
-0.2061189497
 20
4.8208043152
 10
-0.2659976315
 20
4.8126706653
 10
-0.3186205912
 20
4.8025988311
 10
-0.3625524118
 20
4.7908635459
 10
-0.3965947478
 20
4.7777849177
 10
-0.4198190128
 20
4.7637196974
 10
-0.4315917096
 20
4.7490515476
 10
-0.4315917096
 20
4.7341805772
 10
-0.4198190128
 20
4.7195124274
 10
-0.3965947478
 20
4.7054472071
 10
-0.3625524118
 20
4.692368579
 10
-0.3186205912
 20
4.6806332938
 10
-0.2659976315
 20
4.6705614595
 10
-0.2061189497
 20
4.6624278096
 10
-0.1406178804
 20
4.6564542088
 10
-0.0712811218
 20
4.6528036014
 10
0.0
 20
4.6515755664
  0
LWPOLYLINE
  5
C5
330
1F
100
AcDbEntity
  8
0
  6
Continuous
 62
     7
370
    25
100
AcDbPolyline
 90
       20
 70
   128
 43
0.0
 10
0.0
 20
4.8316565584
 10
0.0712811218
 20
4.8304285234
 10
0.1406178804
 20
4.826777916
 10
0.2061189497
 20
4.8208043152
 10
0.2659976315
 20
4.8126706653
 10
0.3186205912
 20
4.8025988311
 10
0.3625524118
 20
4.7908635459
 10
0.3965947478
 20
4.7777849177
 10
0.4198190128
 20
4.7637196974
 10
0.4315917096
 20
4.7490515476
 10
0.4315917096
 20
4.7341805772
 10
0.4198190128
 20
4.7195124274
 10
0.3965947478
 20
4.7054472071
 10
0.3625524118
 20
4.692368579
 10
0.3186205912
 20
4.6806332938
 10
0.2659976315
 20
4.6705614595
 10
0.2061189497
 20
4.6624278096
 10
0.1406178804
 20
4.6564542088
 10
0.0712811218
 20
4.6528036014
 10
0.0
 20
4.6515755664
  0
LWPOLYLINE
  5
C6
330
1F
100
AcDbEntity
  8
0
  6
Continuous
 62
     7
370
    25
100
AcDbPolyline
 90
        6
 70
   128
 43
0.0
 10
-0.295142514
 20
4.7051631961
 10
-0.3196452032
 20
4.7128739699
 10
-0.3468353669
 20
4.7249971954
 10
-0.3634871136
 20
4.7379179017
 10
-0.3690944882
 20
4.7512434994
 10
-0.3641732283
 20
4.763733094
  0
LWPOLYLINE
  5
C7
330
1F
100
AcDbEntity
  8
0
  6
Continuous
 62
     7
370
    25
100
AcDbPolyline
 90
        6
 70
   128
 43
0.0
 10
0.3641732283
 20
4.763733094
 10
0.3690944882
 20
4.7512434994
 10
0.3634871136
 20
4.7379179017
 10
0.3468353669
 20
4.7249971954
 10
0.3196452032
 20
4.7128739699
 10
0.295142514
 20
4.7051631961
  0
LWPOLYLINE
  5
C8
330
1F
100
AcDbEntity
  8
0
  6
Continuous
 62
     7
370
    25
100
AcDbPolyline
 90
        3
 70
   128
 43
0.0
 10
0.1949270452
 20
4.6860791235
 10
0.1845472441
 20
4.6847855248
 10
0.1393275526
 20
4.6801819192
  0
LWPOLYLINE
  5
CF
330
1F
100
AcDbEntity
  8
0
  6
Continuous
 62
     7
370
    25
100
AcDbPolyline
 90
        3
 70
   128
 43
0.0
 10
0.0497494654
 20
4.8098297859
 10
0.0497673405
 20
4.8098301582
 10
0.0499982083
 20
4.8099979222
  0
LWPOLYLINE
  5
D0
330
1F
100
AcDbEntity
  8
0
  6
Continuous
 62
     7
370
    25
100
AcDbPolyline
 90
        3
 70
   128
 43
0.0
 10
-0.0497494654
 20
4.8098297859
 10
-0.0497673405
 20
4.8098301582
 10
-0.0499982083
 20
4.8099979222
  0
SPLINE
  5
D3
330
1F
100
AcDbEntity
  8
0
  6
Continuous
 62
     7
370
    25
100
AcDbSpline
210
0.0
220
0.0
230
1.0
 70
     8
 71
     3
 72
    10
 73
     6
 74
     0
 42
0.000000001
 43
0.00000001
 40
0.0
 40
0.0
 40
0.0
 40
0.0
 40
0.5
 40
0.5
 40
1.0
 40
1.0
 40
1.0
 40
1.0
 10
-0.0639565528973229
 20
4.721619484471825
 30
0.0
 10
-0.0599939032250402
 20
4.721455846075466
 30
0.0
 10
-0.056180663813189
 20
4.719714528276017
 30
0.0
 10
-0.050530161742126
 20
4.713877374959917
 30
0.0
 10
-0.0488147630057087
 20
4.709882724628903
 30
0.0
 10
-0.0488148166582284
 20
4.705660509576895
 30
0.0
  0
SPLINE
  5
D4
330
1F
100
AcDbEntity
  8
0
  6
Continuous
 62
     7
370
    25
100
AcDbSpline
210
0.0
220
0.0
230
1.0
 70
     8
 71
     3
 72
    10
 73
     6
 74
     0
 42
0.000000001
 43
0.00000001
 40
0.0
 40
0.0
 40
0.0
 40
0.0
 40
0.5
 40
0.5
 40
1.0
 40
1.0
 40
1.0
 40
1.0
 10
-0.1925445849375985
 20
4.718038495468406
 30
0.0
 10
-0.1925447501643701
 20
4.722251386224755
 30
0.0
 10
-0.1911520513613385
 20
4.725988047143188
 30
0.0
 10
-0.18649332599626
 20
4.730936364047093
 30
0.0
 10
-0.1833150347575584
 20
4.732076222821707
 30
0.0
 10
-0.1799499458611024
 20
4.731608820038479
 30
0.0
  0
SPLINE
  5
D8
330
1F
100
AcDbEntity
  8
0
  6
Continuous
 62
     7
370
    25
100
AcDbSpline
210
0.0
220
0.0
230
1.0
 70
     8
 71
     3
 72
    10
 73
     6
 74
     0
 42
0.000000001
 43
0.00000001
 40
0.0
 40
0.0
 40
0.0
 40
0.0
 40
0.5
 40
0.5
 40
1.0
 40
1.0
 40
1.0
 40
1.0
 10
-0.2703981775944489
 20
4.750414061071246
 30
0.0
 10
-0.2681582982007485
 20
4.749716261850999
 30
0.0
 10
-0.265943579095945
 20
4.747455817215988
 30
0.0
 10
-0.2626134306815355
 20
4.740845251698025
 30
0.0
 10
-0.2615792125462599
 20
4.736613804796141
 30
0.0
 10
-0.2615791632529528
 20
4.732391590119556
 30
0.0
  0
SPLINE
  5
DD
330
1F
100
AcDbEntity
  8
0
  6
Continuous
 62
     7
370
    25
100
AcDbSpline
210
0.0
220
0.0
230
1.0
 70
     8
 71
     3
 72
    10
 73
     6
 74
     0
 42
0.000000001
 43
0.00000001
 40
0.0
 40
0.0
 40
0.0
 40
0.0
 40
0.5
 40
0.5
 40
1.0
 40
1.0
 40
1.0
 40
1.0
 10
0.2615791597853938
 20
4.732391590649891
 30
0.0
 10
0.2615790926413779
 20
4.736604433093638
 30
0.0
 10
0.2626140769979133
 20
4.740845837722687
 30
0.0
 10
0.265942743918386
 20
4.747454826861624
 30
0.0
 10
0.2681577078161422
 20
4.749716006423969
 30
0.0
 10
0.2703981667437009
 20
4.750414062573095
 30
0.0
  0
SPLINE
  5
E1
330
1F
100
AcDbEntity
  8
0
  6
Continuous
 62
     7
370
    25
100
AcDbSpline
210
0.0
220
0.0
230
1.0
 70
     8
 71
     3
 72
    10
 73
     6
 74
     0
 42
0.000000001
 43
0.00000001
 40
0.0
 40
0.0
 40
0.0
 40
0.0
 40
0.5
 40
0.5
 40
1.0
 40
1.0
 40
1.0
 40
1.0
 10
0.1799499530850394
 20
4.7316088177821
 30
0.0
 10
0.1833141066007475
 20
4.73207616251947
 30
0.0
 10
0.1864921223882677
 20
4.730936930513969
 30
0.0
 10
0.1911529906368898
 20
4.725987790781766
 30
0.0
 10
0.1925447126594489
 20
4.722260725199922
 30
0.0
 10
0.1925445874901182
 20
4.718038494747821
 30
0.0
  0
SPLINE
  5
E2
330
1F
100
AcDbEntity
  8
0
  6
Continuous
 62
     7
370
    25
100
AcDbSpline
210
0.0
220
0.0
230
1.0
 70
     8
 71
     3
 72
    10
 73
     6
 74
     0
 42
0.000000001
 43
0.00000001
 40
0.0
 40
0.0
 40
0.0
 40
0.0
 40
0.5
 40
0.5
 40
1.0
 40
1.0
 40
1.0
 40
1.0
 10
0.0488148160111811
 20
4.705660510461582
 30
0.0
 10
0.0488146517002362
 20
4.709873372838182
 30
0.0
 10
0.0505312829247638
 20
4.713877808767687
 30
0.0
 10
0.056179222174252
 20
4.719713734000877
 30
0.0
 10
0.0599928294569693
 20
4.721455733972023
 30
0.0
 10
0.0639565503354725
 20
4.721619487129709
 30
0.0
  0
LWPOLYLINE
  5
EF
330
1F
100
AcDbEntity
  8
0
  6
Continuous
 62
     7
370
    25
100
AcDbPolyline
 90
       18
 70
   128
 43
0.0
 10
0.278837451
 20
4.783953051
 10
0.278971611
 20
4.7798125685
 10
0.2718712917
 20
4.7683814857
 10
0.2540439406
 20
4.7574677015
 10
0.226192959
 20
4.7475018333
 10
0.189417243
 20
4.7388770973
 10
0.1451678259
 20
4.7319337935
 10
0.0951906254
 20
4.7269458789
 10
0.0414575563
 20
4.7241101581
 10
-0.0139112741
 20
4.7235385181
 10
-0.0687312173
 20
4.7252535137
 10
-0.1208392818
 20
4.7291874776
 10
-0.1681794769
 20
4.7351851901
 10
-0.2088839343
 20
4.7430100037
 10
-0.2413466073
 20
4.7523531805
 10
-0.2642866392
 20
4.7628460732
 10
-0.2767989016
 20
4.7740746714
 10
-0.278837451
 20
4.783953051
  0
LWPOLYLINE
  5
F0
330
1F
100
AcDbEntity
  8
0
  6
Continuous
 62
     7
370
    25
100
AcDbPolyline
 90
        3
 70
   128
 43
0.0
 10
0.2675029848
 20
4.7825716303
 10
0.2682673336
 20
4.7809596397
 10
0.2684042144
 20
4.7806074919
  0
LWPOLYLINE
  5
F1
330
1F
100
AcDbEntity
  8
0
  6
Continuous
 62
     7
370
    25
100
AcDbPolyline
 90
       15
 70
   128
 43
0.0
 10
0.2563731534
 20
4.759195818
 10
0.2549122356
 20
4.7582753558
 10
0.2318697464
 20
4.7478345957
 10
0.1990606436
 20
4.7385917704
 10
0.1578668832
 20
4.7309361981
 10
0.1100235928
 20
4.72519034
 10
0.0575459853
 20
4.7215962181
 10
0.0026444764
 20
4.7203052209
 10
-0.0523684209
 20
4.7213717267
 10
-0.1051755015
 20
4.7247508129
 10
-0.1535524721
 20
4.7303001487
 10
-0.1954616404
 20
4.7377859899
 10
-0.2291377454
 20
4.7468930245
 10
-0.2531623115
 20
4.7572376538
 10
-0.2615489362
 20
4.7630152896
  0
LWPOLYLINE
  5
F2
330
1F
100
AcDbEntity
  8
0
  6
Continuous
 62
     7
370
    25
100
AcDbPolyline
 90
        3
 70
   128
 43
0.0
 10
-0.265780166
 20
4.7827432216
 10
-0.2666833591
 20
4.7825774739
 10
-0.267920488
 20
4.7826188142
  0
LWPOLYLINE
  5
F3
330
1F
100
AcDbEntity
  8
0
  6
Continuous
 62
     7
370
    25
100
AcDbPolyline
 90
        3
 70
   128
 43
0.0
 10
0.265780166
 20
4.7827432216
 10
0.2666833591
 20
4.7825774739
 10
0.267920488
 20
4.7826188142
  0
LWPOLYLINE
  5
F4
330
1F
100
AcDbEntity
  8
0
  6
Continuous
 62
     7
370
    25
100
AcDbPolyline
 90
       10
 70
   128
 43
0.0
 10
0.0
 20
4.7222505381
 10
0.0533816811
 20
4.7234028759
 10
0.1044861005
 20
4.7268107306
 10
0.1511331447
 20
4.7323287232
 10
0.1913328514
 20
4.7397214562
 10
0.223370302
 20
4.7486735558
 10
0.2458787792
 20
4.7588031255
 10
0.2578980719
 20
4.7696780381
 10
0.2589154372
 20
4.7808343699
 10
0.25572173
 20
4.7858580352
  0
LWPOLYLINE
  5
F5
330
1F
100
AcDbEntity
  8
0
  6
Continuous
 62
     7
370
    25
100
AcDbPolyline
 90
       10
 70
   128
 43
0.0
 10
-0.2556832877
 20
4.7859022727
 10
-0.2565100081
 20
4.7848994145
 10
-0.2595606417
 20
4.7737591186
 10
-0.2515384226
 20
4.7627261431
 10
-0.2327855787
 20
4.7522711546
 10
-0.2041021059
 20
4.7428401628
 10
-0.1667116408
 20
4.7348354935
 10
-0.1222092598
 20
4.7285986259
 10
-0.0724934339
 20
4.7243956246
 10
-0.0196850394
 20
4.7224057895
  0
SPLINE
  5
2D4
330
1F
100
AcDbEntity
  8
0
  6
Continuous
 62
     7
370
    25
100
AcDbSpline
210
0.0
220
0.0
230
1.0
 70
     8
 71
     3
 72
    10
 73
     6
 74
     0
 42
0.000000001
 43
0.00000001
 40
0.0
 40
0.0
 40
0.0
 40
0.0
 40
0.5
 40
0.5
 40
1.0
 40
1.0
 40
1.0
 40
1.0
 10
-0.2769531877051182
 20
4.741805075062925
 30
0.0
 10
-0.2758681613924412
 20
4.741448468367871
 30
0.0
 10
-0.2747124973547243
 20
4.740300787837
 30
0.0
 10
-0.2729834074279529
 20
4.736979616376903
 30
0.0
 10
-0.2724369473122835
 20
4.734820891688481
 30
0.0
 10
-0.2724368325759843
 20
4.732762141233555
 30
0.0
  0
SPLINE
  5
2D5
330
1F
100
AcDbEntity
  8
0
  6
Continuous
 62
     7
370
    25
100
AcDbSpline
210
0.0
220
0.0
230
1.0
 70
     8
 71
     3
 72
    10
 73
     6
 74
     0
 42
0.000000001
 43
0.00000001
 40
0.0
 40
0.0
 40
0.0
 40
0.0
 40
0.5
 40
0.5
 40
1.0
 40
1.0
 40
1.0
 40
1.0
 10
0.2724368318677166
 20
4.73276214102254
 30
0.0
 10
0.2724369176178741
 20
4.734815714509491
 30
0.0
 10
0.2729838134133727
 20
4.736980194330467
 30
0.0
 10
0.2747122985927823
 20
4.74030061303427
 30
0.0
 10
0.27586827646315
 20
4.741448506208426
 30
0.0
 10
0.2769531877233465
 20
4.741805080679078
 30
0.0
  0
SPLINE
  5
2E9
330
1F
100
AcDbEntity
  8
0
  6
Continuous
 62
     7
370
    25
100
AcDbSpline
210
0.0
220
0.0
230
1.0
 70
     8
 71
     3
 72
    10
 73
     6
 74
     0
 42
0.000000001
 43
0.00000001
 40
0.0
 40
0.0
 40
0.0
 40
0.0
 40
0.5
 40
0.5
 40
1.0
 40
1.0
 40
1.0
 40
1.0
 10
-0.2917919441201182
 20
4.729944398561128
 30
0.0
 10
-0.2917920745484253
 20
4.731935382290573
 30
0.0
 10
-0.2923008467974936
 20
4.734056167901464
 30
0.0
 10
-0.2940047273852494
 20
4.737410838469563
 30
0.0
 10
-0.2951854255457483
 20
4.738620798967434
 30
0.0
 10
-0.2963082986561812
 20
4.738987328523564
 30
0.0
  0
SPLINE
  5
2EA
330
1F
100
AcDbEntity
  8
0
  6
Continuous
 62
     7
370
    25
100
AcDbSpline
210
0.0
220
0.0
230
1.0
 70
     8
 71
     3
 72
    10
 73
     6
 74
     0
 42
0.000000001
 43
0.00000001
 40
0.0
 40
0.0
 40
0.0
 40
0.0
 40
0.5
 40
0.5
 40
1.0
 40
1.0
 40
1.0
 40
1.0
 10
0.296308298587178
 20
4.738987142518673
 30
0.0
 10
0.295205367878744
 20
4.738627671770032
 30
0.0
 10
0.2940414811561869
 20
4.737458261085313
 30
0.0
 10
0.2923221808979776
 20
4.734121827901965
 30
0.0
 10
0.2917921860642099
 20
4.731971369956783
 30
0.0
 10
0.2917919850615138
 20
4.729944388696459
 30
0.0
  0
LWPOLYLINE
  5
2FA
330
1F
100
AcDbEntity
  8
0
  6
Continuous
 62
     7
370
    25
100
AcDbPolyline
 90
        3
 70
   128
 43
0.0
 10
-0.211952292
 20
4.6818060784
 10
-0.2116736277
 20
4.6817785873
 10
-0.2107649382
 20
4.6818881069
  0
LWPOLYLINE
  5
2FB
330
1F
100
AcDbEntity
  8
0
  6
Continuous
 62
     7
370
    25
100
AcDbPolyline
 90
        3
 70
   128
 43
0.0
 10
0.211952292
 20
4.6818060784
 10
0.2116736277
 20
4.6817785873
 10
0.2107649382
 20
4.6818881069
  0
SPLINE
  5
302
330
1F
100
AcDbEntity
  8
0
  6
Continuous
 62
     7
370
    25
100
AcDbSpline
210
0.0
220
0.0
230
1.0
 70
     8
 71
     3
 72
     9
 73
     5
 74
     0
 42
0.000000001
 43
0.00000001
 40
0.0
 40
0.0
 40
0.0
 40
0.0
 40
0.369366663445986
 40
1.0
 40
1.0
 40
1.0
 40
1.0
 10
0.1865767962572438
 20
4.722269559155425
 30
0.0
 10
0.1867501357942632
 20
4.722264453432111
 30
0.0
 10
0.1872194243202019
 20
4.722250630518946
 30
0.0
 10
0.1875485568013715
 20
4.721904201185442
 30
0.0
 10
0.1877561187161398
 20
4.721685731298976
 30
0.0
  0
LWPOLYLINE
  5
30E
330
1F
100
AcDbEntity
  8
0
  6
Continuous
 62
     7
370
    25
100
AcDbPolyline
 90
        4
 70
   128
 43
0.0
 10
0.0702495582
 20
4.7075040462
 10
0.0701986886
 20
4.7074462142
 10
0.0699101096
 20
4.7073090939
 10
0.0696099964
 20
4.7074743175
  0
SPLINE
  5
31A
330
1F
100
AcDbEntity
  8
0
  6
Continuous
 62
     7
370
    25
100
AcDbSpline
210
0.0
220
0.0
230
1.0
 70
     8
 71
     3
 72
    10
 73
     6
 74
     0
 42
0.000000001
 43
0.00000001
 40
0.0
 40
0.0
 40
0.0
 40
0.0
 40
0.5
 40
0.5
 40
1.0
 40
1.0
 40
1.0
 40
1.0
 10
-0.0655069917863386
 20
4.712312458474972
 30
0.0
 10
-0.0635252112374413
 20
4.712219964702649
 30
0.0
 10
-0.061529164023294
 20
4.711343709047423
 30
0.0
 10
-0.0586292539160105
 20
4.708421186339443
 30
0.0
 10
-0.05775261031
 20
4.706385019118837
 30
0.0
 10
-0.0577525910386614
 20
4.704326280204605
 30
0.0
  0
SPLINE
  5
31B
330
1F
100
AcDbEntity
  8
0
  6
Continuous
 62
     7
370
    25
100
AcDbSpline
210
0.0
220
0.0
230
1.0
 70
     8
 71
     3
 72
    10
 73
     6
 74
     0
 42
0.000000001
 43
0.00000001
 40
0.0
 40
0.0
 40
0.0
 40
0.0
 40
0.5
 40
0.5
 40
1.0
 40
1.0
 40
1.0
 40
1.0
 10
0.0577525898225984
 20
4.704326280159314
 30
0.0
 10
0.0577525745047638
 20
4.706379847580639
 30
0.0
 10
0.058629954192979
 20
4.708421669021836
 30
0.0
 10
0.0615288149850263
 20
4.711343581421187
 30
0.0
 10
0.0635254700800398
 20
4.712219970342236
 30
0.0
 10
0.0655069918163386
 20
4.712312464087294
 30
0.0
  0
SPLINE
  5
327
330
1F
100
AcDbEntity
  8
0
  6
Continuous
 62
     7
370
    25
100
AcDbSpline
210
0.0
220
0.0
230
1.0
 70
     8
 71
     3
 72
    10
 73
     6
 74
     0
 42
0.000000001
 43
0.00000001
 40
0.0
 40
0.0
 40
0.0
 40
0.0
 40
0.5
 40
0.5
 40
1.0
 40
1.0
 40
1.0
 40
1.0
 10
0.0696099903522709
 20
4.707474317248916
 30
0.0
 10
0.0676041472087337
 20
4.707382573613568
 30
0.0
 10
0.0655959947310216
 20
4.706486338443939
 30
0.0
 10
0.0627094673334184
 20
4.703546558411101
 30
0.0
 10
0.0618557552324967
 20
4.701515265088668
 30
0.0
 10
0.0618555861584517
 20
4.699488315699317
 30
0.0
  0
SPLINE
  5
328
330
1F
100
AcDbEntity
  8
0
  6
Continuous
 62
     7
370
    25
100
AcDbSpline
210
0.0
220
0.0
230
1.0
 70
     8
 71
     3
 72
    10
 73
     6
 74
     0
 42
0.000000001
 43
0.00000001
 40
0.0
 40
0.0
 40
0.0
 40
0.0
 40
0.5
 40
0.5
 40
1.0
 40
1.0
 40
1.0
 40
1.0
 10
-0.0618555907475984
 20
4.699488328694808
 30
0.0
 10
-0.0618556521834646
 20
4.701479295900944
 30
0.0
 10
-0.0626745721865223
 20
4.703485740864699
 30
0.0
 10
-0.0655334849341601
 20
4.706447464391175
 30
0.0
 10
-0.0675677539363784
 20
4.707380552424588
 30
0.0
 10
-0.0696099904752362
 20
4.707474503237449
 30
0.0
  0
LWPOLYLINE
  5
329
330
1F
100
AcDbEntity
  8
0
  6
Continuous
 62
     7
370
    25
100
AcDbPolyline
 90
        3
 70
   128
 43
0.0
 10
0.0543525756
 20
4.6682281983
 10
0.0543344583
 20
4.6682285629
 10
0.054101207
 20
4.6683962511
  0
LWPOLYLINE
  5
32A
330
1F
100
AcDbEntity
  8
0
  6
Continuous
 62
     7
370
    25
100
AcDbPolyline
 90
        3
 70
   128
 43
0.0
 10
-0.0543525756
 20
4.6682281983
 10
-0.0543344583
 20
4.6682285629
 10
-0.054101207
 20
4.6683962511
  0
LWPOLYLINE
  5
346
330
1F
100
AcDbEntity
  8
0
  6
Continuous
 62
     7
370
    25
100
AcDbPolyline
 90
        8
 70
   128
 43
0.0
 10
0.419969649
 20
4.7981596261
 10
0.4209479642
 20
4.7977626557
 10
0.4493180392
 20
4.7835224888
 10
0.4666244129
 20
4.7685349179
 10
0.4724409449
 20
4.7531689868
 10
0.4666244129
 20
4.7378030557
 10
0.4493180392
 20
4.7228154849
 10
0.421737033
 20
4.7088987721
  0
LWPOLYLINE
  5
347
330
1F
100
AcDbEntity
  8
0
  6
Continuous
 62
     7
370
    25
100
AcDbPolyline
 90
       11
 70
   128
 43
0.0
 10
0.0
 20
4.8373864082
 10
0.0720583953
 20
4.8362073163
 10
0.1423424738
 20
4.8326990738
 10
0.2091216081
 20
4.8269480653
 10
0.2707514745
 20
4.8190958997
 10
0.3257145409
 20
4.8093359233
 10
0.3726574344
 20
4.7979084593
 10
0.4104242651
 20
4.7850948896
 10
0.4380850882
 20
4.7712107268
 10
0.4549588026
 20
4.7565978452
 10
0.4584947499
 20
4.7508265472
  0
LWPOLYLINE
  5
348
330
1F
100
AcDbEntity
  8
0
  6
Continuous
 62
     7
370
    25
100
AcDbPolyline
 90
       10
 70
   128
 43
0.0
 10
0.4491213221
 20
4.720341949
 10
0.4380850882
 20
4.712021398
 10
0.4104242651
 20
4.6981372353
 10
0.3726574344
 20
4.6853236656
 10
0.3257145409
 20
4.6738962015
 10
0.2707514745
 20
4.6641362251
 10
0.2091216081
 20
4.6562840595
 10
0.1423424738
 20
4.650533051
 10
0.0720583953
 20
4.6470248085
 10
0.0
 20
4.6458457166
  0
LWPOLYLINE
  5
34A
330
1F
100
AcDbEntity
  8
0
  6
Continuous
 62
     7
370
    25
100
AcDbPolyline
 90
        8
 70
   128
 43
0.0
 10
-0.419969649
 20
4.7081783476
 10
-0.4209479642
 20
4.708575318
 10
-0.4493180392
 20
4.7228154849
 10
-0.4666244129
 20
4.7378030557
 10
-0.4724409449
 20
4.7531689868
 10
-0.4666244129
 20
4.7685349179
 10
-0.4493180392
 20
4.7835224888
 10
-0.421737033
 20
4.7974392016
  0
LWPOLYLINE
  5
34B
330
1F
100
AcDbEntity
  8
0
  6
Continuous
 62
     7
370
    25
100
AcDbPolyline
 90
       10
 70
   128
 43
0.0
 10
0.0
 20
4.6458457166
 10
-0.0720583953
 20
4.6470248085
 10
-0.1423424738
 20
4.650533051
 10
-0.2091216081
 20
4.6562840595
 10
-0.2707514745
 20
4.6641362251
 10
-0.3257145409
 20
4.6738962015
 10
-0.3726574344
 20
4.6853236656
 10
-0.4104242651
 20
4.6981372353
 10
-0.4380850882
 20
4.712021398
 10
-0.4441506217
 20
4.7162285639
  0
LWPOLYLINE
  5
34C
330
1F
100
AcDbEntity
  8
0
  6
Continuous
 62
     7
370
    25
100
AcDbPolyline
 90
       11
 70
   128
 43
0.0
 10
-0.4595581996
 20
4.7481452361
 10
-0.4549588026
 20
4.7565978452
 10
-0.4380850882
 20
4.7712107268
 10
-0.4104242651
 20
4.7850948895
 10
-0.3726574344
 20
4.7979084593
 10
-0.3257145409
 20
4.8093359233
 10
-0.2707514745
 20
4.8190958997
 10
-0.2091216081
 20
4.8269480653
 10
-0.1423424738
 20
4.8326990738
 10
-0.0720583953
 20
4.8362073163
 10
0.0
 20
4.8373864082
  0
LWPOLYLINE
  5
34E
330
1F
100
AcDbEntity
  8
0
  6
Continuous
 62
     7
370
    25
100
AcDbPolyline
 90
       20
 70
   128
 43
0.0
 10
0.0
 20
4.8316565584
 10
0.0712811218
 20
4.8304285234
 10
0.1406178804
 20
4.826777916
 10
0.2061189497
 20
4.8208043152
 10
0.2659976315
 20
4.8126706653
 10
0.3186205912
 20
4.8025988311
 10
0.3625524118
 20
4.7908635459
 10
0.3965947478
 20
4.7777849177
 10
0.4198190128
 20
4.7637196974
 10
0.4315917096
 20
4.7490515476
 10
0.4315917096
 20
4.7341805772
 10
0.4198190128
 20
4.7195124274
 10
0.3965947478
 20
4.7054472071
 10
0.3625524118
 20
4.692368579
 10
0.3186205912
 20
4.6806332938
 10
0.2659976315
 20
4.6705614595
 10
0.2061189497
 20
4.6624278096
 10
0.1406178804
 20
4.6564542088
 10
0.0712811218
 20
4.6528036014
 10
0.0
 20
4.6515755664
  0
LWPOLYLINE
  5
34F
330
1F
100
AcDbEntity
  8
0
  6
Continuous
 62
     7
370
    25
100
AcDbPolyline
 90
       20
 70
   128
 43
0.0
 10
0.0
 20
4.8316565584
 10
-0.0712811218
 20
4.8304285234
 10
-0.1406178804
 20
4.826777916
 10
-0.2061189497
 20
4.8208043152
 10
-0.2659976315
 20
4.8126706653
 10
-0.3186205912
 20
4.8025988311
 10
-0.3625524118
 20
4.7908635459
 10
-0.3965947478
 20
4.7777849177
 10
-0.4198190128
 20
4.7637196974
 10
-0.4315917096
 20
4.7490515476
 10
-0.4315917096
 20
4.7341805772
 10
-0.4198190128
 20
4.7195124274
 10
-0.3965947478
 20
4.7054472071
 10
-0.3625524118
 20
4.692368579
 10
-0.3186205912
 20
4.6806332938
 10
-0.2659976315
 20
4.6705614595
 10
-0.2061189497
 20
4.6624278096
 10
-0.1406178804
 20
4.6564542088
 10
-0.0712811218
 20
4.6528036014
 10
0.0
 20
4.6515755664
  0
LWPOLYLINE
  5
350
330
1F
100
AcDbEntity
  8
0
  6
Continuous
 62
     7
370
    25
100
AcDbPolyline
 90
        3
 70
   128
 43
0.0
 10
1.0039370079
 20
-0.0078740157
 10
1.0190032847
 20
-0.0048771469
 10
1.0275590551
 20
0.0
  0
LWPOLYLINE
  5
351
330
1F
100
AcDbEntity
  8
0
  6
Continuous
 62
     7
370
    25
100
AcDbPolyline
 90
        3
 70
   128
 43
0.0
 10
-1.0039370079
 20
-0.0078740157
 10
-1.0190032847
 20
-0.0048771469
 10
-1.0275590551
 20
0.0
  0
SPLINE
  5
356
330
1F
100
AcDbEntity
  8
0
  6
Continuous
 62
     7
370
    25
100
AcDbSpline
210
0.0
220
0.0
230
1.0
 70
     8
 71
     3
 72
    35
 73
    31
 74
     0
 42
0.000000001
 43
0.00000001
 40
0.0
 40
0.0
 40
0.0
 40
0.0
 40
0.0155812248728712
 40
0.0310690837977086
 40
0.0465002352311691
 40
0.0619117422968492
 40
0.0773408096870382
 40
0.0928245155123422
 40
0.1083995476706244
 40
0.1241019539354956
 40
0.1550957789097037
 40
0.1862712163183987
 40
0.2173173913054774
 40
0.2482589416399052
 40
0.3100783356265968
 40
0.3724431930379111
 40
0.4354304799939888
 40
0.4988558125932668
 40
0.562228390529389
 40
0.6252386110132806
 40
0.6878821919053983
 40
0.75012876228449
 40
0.7812759620508919
 40
0.8125344408529047
 40
0.8438974274540728
 40
0.8750890711434459
 40
0.906570604384402
 40
0.9376819281938127
 40
0.9687240562176893
 40
1.0
 40
1.0
 40
1.0
 40
1.0
 10
4.688976377952756
 20
1.322834645669291
 30
0.0
 10
4.688967609521772
 20
1.322870890750898
 30
0.0
 10
4.688950125202069
 20
1.322943163726026
 30
0.0
 10
4.688809662273865
 20
1.323533207437307
 30
0.0
 10
4.688588228709653
 20
1.324476792281553
 30
0.0
 10
4.688279875761327
 20
1.325807850935977
 30
0.0
 10
4.687889057914364
 20
1.327517399163681
 30
0.0
 10
4.687417443764926
 20
1.329607449697975
 30
0.0
 10
4.686867449392264
 20
1.332078649990408
 30
0.0
 10
4.686040284084227
 20
1.33583965380517
 30
0.0
 10
4.684842900515814
 20
1.341428315600048
 30
0.0
 10
4.683206973424344
 20
1.349491686496216
 30
0.0
 10
4.681426509551659
 20
1.358794971625955
 30
0.0
 10
4.678956360040881
 20
1.372711047047844
 30
0.0
 10
4.675838904072426
 20
1.392918334526538
 30
0.0
 10
4.672584891878735
 20
1.42076490602717
 30
0.0
 10
4.670360867550165
 20
1.451446343870279
 30
0.0
 10
4.669531469132291
 20
1.483645994997377
 30
0.0
 10
4.670303063723787
 20
1.515875306321358
 30
0.0
 10
4.672482407160972
 20
1.546670811552209
 30
0.0
 10
4.675721203403481
 20
1.574736092756458
 30
0.0
 10
4.678851553240472
 20
1.595162664785798
 30
0.0
 10
4.681341512798569
 20
1.609249907516595
 30
0.0
 10
4.683138428121526
 20
1.61866645369677
 30
0.0
 10
4.684791495914981
 20
1.626831046241787
 30
0.0
 10
4.686244190057522
 20
1.633617026313637
 30
0.0
 10
4.687433113373231
 20
1.638980983216
 30
0.0
 10
4.688307677106109
 20
1.642829945048322
 30
0.0
 10
4.688870337846555
 20
1.645231259892944
 30
0.0
 10
4.688940942947865
 20
1.645522916094583
 30
0.0
 10
4.688976377952756
 20
1.645669291338583
 30
0.0
  0
SPLINE
  5
36B
330
1F
100
AcDbEntity
  8
0
  6
Continuous
 62
     7
370
    25
100
AcDbSpline
210
0.0
220
0.0
230
1.0
 70
     8
 71
     3
 72
    35
 73
    31
 74
     0
 42
0.000000001
 43
0.00000001
 40
0.0
 40
0.0
 40
0.0
 40
0.0
 40
0.0155745395620423
 40
0.0310558752885322
 40
0.0464806200366115
 40
0.0618857901624834
 40
0.0773085429680976
 40
0.0927859091221619
 40
0.1083545295984263
 40
0.1240504063034372
 40
0.1550383954491748
 40
0.1862085232671799
 40
0.2172449035846702
 40
0.2481761994659961
 40
0.3099687572589889
 40
0.3723282910507772
 40
0.4353557424282011
 40
0.4988518735361976
 40
0.562295021258558
 40
0.6253457336854411
 40
0.6879852028333522
 40
0.7502062193032787
 40
0.7813437425415667
 40
0.812593261271189
 40
0.8439514926017787
 40
0.8751376213089292
 40
0.9066070580751884
 40
0.9377065003791399
 40
0.9687365976740338
 40
1.0
 40
1.0
 40
1.0
 40
1.0
 10
-4.688976377952756
 20
1.645669291338583
 30
0.0
 10
-4.688967617059597
 20
1.645633075685701
 30
0.0
 10
-4.688950147701722
 20
1.64556086110787
 30
0.0
 10
-4.688809803888367
 20
1.644971300703858
 30
0.0
 10
-4.688588554878892
 20
1.644028490824451
 30
0.0
 10
-4.688280454343738
 20
1.642698525945589
 30
0.0
 10
-4.687889950437614
 20
1.640990383040706
 30
0.0
 10
-4.687418707773375
 20
1.638902051452396
 30
0.0
 10
-4.686869137916876
 20
1.636432882037818
 30
0.0
 10
-4.686042502458418
 20
1.632674545790321
 30
0.0
 10
-4.684845734828104
 20
1.62708918842172
 30
0.0
 10
-4.683210521521553
 20
1.619030110796761
 30
0.0
 10
-4.681430793525728
 20
1.609732044148148
 30
0.0
 10
-4.678961727986308
 20
1.595825088520294
 30
0.0
 10
-4.675844867686501
 20
1.57562855019035
 30
0.0
 10
-4.672589314085907
 20
1.54778634860142
 30
0.0
 10
-4.670362092392174
 20
1.517090480548592
 30
0.0
 10
-4.669530854733822
 20
1.484859999791897
 30
0.0
 10
-4.670304037514422
 20
1.452599660206609
 30
0.0
 10
-4.672486432802943
 20
1.421789162508382
 30
0.0
 10
-4.675726766165583
 20
1.393727430236897
 30
0.0
 10
-4.678856586616106
 20
1.373310902732128
 30
0.0
 10
-4.681345536988152
 20
1.359232288320586
 30
0.0
 10
-4.683141772767746
 20
1.349820622746498
 30
0.0
 10
-4.684794175697507
 20
1.341660019307986
 30
0.0
 10
-4.686246136169846
 20
1.334877978171675
 30
0.0
 10
-4.687434294072483
 20
1.329517808554471
 30
0.0
 10
-4.688308201925666
 20
1.325671817094158
 30
0.0
 10
-4.688870422789044
 20
1.3232723499816
 30
0.0
 10
-4.688940971490563
 20
1.322980910944549
 30
0.0
 10
-4.688976377952756
 20
1.322834645669291
 30
0.0
  0
LWPOLYLINE
  5
37A
330
1F
100
AcDbEntity
  8
0
  6
Continuous
 62
     8
370
    25
100
AcDbPolyline
 90
        3
 70
   128
 43
0.0
 10
0.3789350351
 20
4.7418702863
 10
0.3789370079
 20
4.7416160624
 10
0.3766949055
 20
4.7330582694
  0
LWPOLYLINE
  5
37B
330
1F
100
AcDbEntity
  8
0
  6
Continuous
 62
     8
370
    25
100
AcDbPolyline
 90
        3
 70
   128
 43
0.0
 10
-0.3740438612
 20
4.7289958985
 10
-0.3789370079
 20
4.7416160624
 10
-0.3789163641
 20
4.7424384292
  0
SPLINE
  5
388
330
1F
100
AcDbEntity
  8
0
  6
Continuous
 62
     8
370
    25
100
AcDbSpline
210
0.0
220
0.0
230
1.0
 70
     8
 71
     3
 72
    11
 73
     7
 74
     0
 42
0.000000001
 43
0.00000001
 40
0.0
 40
0.0
 40
0.0
 40
0.0
 40
0.1975579195943939
 40
0.5140632118164422
 40
0.7585003507646957
 40
1.0
 40
1.0
 40
1.0
 40
1.0
 10
-0.3210245636230316
 20
4.764736797714323
 30
0.0
 10
-0.3209932209477336
 20
4.7660856246446
 30
0.0
 10
-0.320911664529425
 20
4.769595391832806
 30
0.0
 10
-0.3203227636064372
 20
4.77311645929122
 30
0.0
 10
-0.3194561505643578
 20
4.775079588880769
 30
0.0
 10
-0.318780157609762
 20
4.774712754163614
 30
0.0
 10
-0.318444204322441
 20
4.774530445563659
 30
0.0
  0
SPLINE
  5
38B
330
1F
100
AcDbEntity
  8
0
  6
Continuous
 62
     8
370
    25
100
AcDbSpline
210
0.0
220
0.0
230
1.0
 70
     8
 71
     3
 72
    11
 73
     7
 74
     0
 42
0.000000001
 43
0.00000001
 40
0.0
 40
0.0
 40
0.0
 40
0.0
 40
0.3176607961589312
 40
0.6408627390574105
 40
0.9011615495421784
 40
1.0
 40
1.0
 40
1.0
 40
1.0
 10
0.318444105301693
 20
4.774530449692103
 30
0.0
 10
0.3188693272675723
 20
4.774702725354419
 30
0.0
 10
0.3197271885997102
 20
4.775050281786186
 30
0.0
 10
0.3205483011063588
 20
4.771969420879101
 30
0.0
 10
0.3209616498516248
 20
4.768488625392049
 30
0.0
 10
0.3210109858294423
 20
4.76612346507855
 30
0.0
 10
0.3210245636230316
 20
4.765472547432586
 30
0.0
  0
LWPOLYLINE
  5
396
330
1F
100
AcDbEntity
  8
0
  6
Continuous
 62
     8
370
    25
100
AcDbPolyline
 90
        3
 70
   128
 43
0.0
 10
0.2804069303
 20
4.7794054179
 10
0.2821149949
 20
4.7821590291
 10
0.2830946383
 20
4.784572818
  0
LWPOLYLINE
  5
397
330
1F
100
AcDbEntity
  8
0
  6
Continuous
 62
     8
370
    25
100
AcDbPolyline
 90
        3
 70
   128
 43
0.0
 10
-0.2830946383
 20
4.784572818
 10
-0.2819150466
 20
4.7817755677
 10
-0.2805797103
 20
4.7796434951
  0
LWPOLYLINE
  5
399
330
1F
100
AcDbEntity
  8
0
  6
Continuous
 62
     8
370
    25
100
AcDbPolyline
 90
        3
 70
   128
 43
0.0
 10
-0.1960211672
 20
4.7972384196
 10
-0.1963017112
 20
4.7972106413
 10
-0.1972123436
 20
4.7973198641
  0
LWPOLYLINE
  5
39A
330
1F
100
AcDbEntity
  8
0
  6
Continuous
 62
     8
370
    25
100
AcDbPolyline
 90
        3
 70
   128
 43
0.0
 10
0.1960211672
 20
4.7972384196
 10
0.1963017112
 20
4.7972106413
 10
0.1972123436
 20
4.7973198641
  0
LWPOLYLINE
  5
39C
330
1F
100
AcDbEntity
  8
0
  6
Continuous
 62
     8
370
    25
100
AcDbPolyline
 90
        3
 70
   128
 43
0.0
 10
0.2684042144
 20
4.7806074919
 10
0.2672175357
 20
4.7694742741
 10
0.2563731534
 20
4.759195818
  0
LWPOLYLINE
  5
39D
330
1F
100
AcDbEntity
  8
0
  6
Continuous
 62
     8
370
    25
100
AcDbPolyline
 90
        4
 70
   128
 43
0.0
 10
-0.2615489362
 20
4.7630152896
 10
-0.2665233974
 20
4.7683841506
 10
-0.2686582189
 20
4.7798630119
 10
-0.2675029848
 20
4.7825716303
  0
LWPOLYLINE
  5
39F
330
1F
100
AcDbEntity
  8
0
  6
Continuous
 62
     8
370
    25
100
AcDbPolyline
 90
        3
 70
   128
 43
0.0
 10
-0.2884099509
 20
4.7853466283
 10
-0.288156695
 20
4.7853229252
 10
-0.2872755989
 20
4.7854365571
  0
LWPOLYLINE
  5
3A0
330
1F
100
AcDbEntity
  8
0
  6
Continuous
 62
     8
370
    25
100
AcDbPolyline
 90
        3
 70
   128
 43
0.0
 10
0.2872755989
 20
4.7854365571
 10
0.288156695
 20
4.7853229252
 10
0.2884099509
 20
4.7853466283
  0
LWPOLYLINE
  5
3A1
330
1F
100
AcDbEntity
  8
0
  6
Continuous
 62
     8
370
    25
100
AcDbPolyline
 90
        3
 70
   128
 43
0.0
 10
-0.267920488
 20
4.7826188142
 10
-0.2688015841
 20
4.7825051823
 10
-0.26905484
 20
4.7825288854
  0
LWPOLYLINE
  5
3A2
330
1F
100
AcDbEntity
  8
0
  6
Continuous
 62
     8
370
    25
100
AcDbPolyline
 90
        3
 70
   128
 43
0.0
 10
0.26905484
 20
4.7825288854
 10
0.2688015841
 20
4.7825051823
 10
0.267920488
 20
4.7826188142
  0
LWPOLYLINE
  5
3A7
330
1F
100
AcDbEntity
  8
0
  6
Continuous
 62
     8
370
    25
100
AcDbPolyline
 90
        9
 70
   128
 43
0.0
 10
-0.3210245636
 20
4.7597132241
 10
-0.3210316833
 20
4.7597828267
 10
-0.3212426748
 20
4.7600958747
 10
-0.3217391055
 20
4.7603946563
 10
-0.3225024667
 20
4.7606680316
 10
-0.3235042976
 20
4.7609058083
 10
-0.3247072464
 20
4.7610991212
 10
-0.326066463
 20
4.761240763
 10
-0.3275312709
 20
4.7613254527
  0
LWPOLYLINE
  5
3AA
330
1F
100
AcDbEntity
  8
0
  6
Continuous
 62
     8
370
    25
100
AcDbPolyline
 90
        9
 70
   128
 43
0.0
 10
0.3210245636
 20
4.7597132241
 10
0.3210316833
 20
4.7597828267
 10
0.3212426748
 20
4.7600958747
 10
0.3217391055
 20
4.7603946563
 10
0.3225024667
 20
4.7606680316
 10
0.3235042976
 20
4.7609058083
 10
0.3247072464
 20
4.7610991212
 10
0.326066463
 20
4.761240763
 10
0.3275312709
 20
4.7613254528
  0
LWPOLYLINE
  5
3AD
330
1F
100
AcDbEntity
  8
0
  6
Continuous
 62
     8
370
    25
100
AcDbPolyline
 90
        3
 70
   128
 43
0.0
 10
-0.3288985794
 20
4.7312208504
 10
-0.3286318307
 20
4.731054311
 10
-0.3286101083
 20
4.7310540702
  0
LWPOLYLINE
  5
3AF
330
1F
100
AcDbEntity
  8
0
  6
Continuous
 62
     8
370
    25
100
AcDbPolyline
 90
        3
 70
   128
 43
0.0
 10
0.3286101083
 20
4.7310540702
 10
0.3286318307
 20
4.731054311
 10
0.3288985794
 20
4.7312208504
  0
LWPOLYLINE
  5
3B1
330
1F
100
AcDbEntity
  8
0
  6
Continuous
 62
     8
370
    25
100
AcDbPolyline
 90
        3
 70
   128
 43
0.0
 10
-0.35187937
 20
4.7302010088
 10
-0.3519010924
 20
4.7302012496
 10
-0.3521678411
 20
4.730367789
  0
LWPOLYLINE
  5
3B2
330
1F
100
AcDbEntity
  8
0
  6
Continuous
 62
     8
370
    25
100
AcDbPolyline
 90
        3
 70
   128
 43
0.0
 10
0.3521678411
 20
4.730367789
 10
0.3519010924
 20
4.7302012496
 10
0.35187937
 20
4.7302010088
  0
LWPOLYLINE
  5
3B6
330
1F
100
AcDbEntity
  8
0
  6
Continuous
 62
     8
370
    25
100
AcDbPolyline
 90
        3
 70
   128
 43
0.0
 10
-0.2894224493
 20
4.6979218222
 10
-0.2885141556
 20
4.6977546314
 10
-0.2872755989
 20
4.6977955677
  0
LWPOLYLINE
  5
3B9
330
1F
100
AcDbEntity
  8
0
  6
Continuous
 62
     8
370
    25
100
AcDbPolyline
 90
        3
 70
   128
 43
0.0
 10
0.2894224493
 20
4.6979218222
 10
0.2885141556
 20
4.6977546314
 10
0.2872755989
 20
4.6977955677
  0
LWPOLYLINE
  5
3BC
330
1F
100
AcDbEntity
  8
0
  6
Continuous
 62
     8
370
    25
100
AcDbPolyline
 90
        3
 70
   128
 43
0.0
 10
0.19497104
 20
4.6860659204
 10
0.1959540079
 20
4.6858770614
 10
0.1972123436
 20
4.6859122608
  0
LWPOLYLINE
  5
3BD
330
1F
100
AcDbEntity
  8
0
  6
Continuous
 62
     8
370
    25
100
AcDbPolyline
 90
        6
 70
   128
 43
0.0
 10
0.1925445959
 20
4.6949326435
 10
0.19141289
 20
4.6947215517
 10
0.1904974083
 20
4.6944691742
 10
0.1898322831
 20
4.6941849206
 10
0.1894423127
 20
4.6938793889
 10
0.1893383279
 20
4.6936142104
  0
LWPOLYLINE
  5
3BE
330
1F
100
AcDbEntity
  8
0
  6
Continuous
 62
     8
370
    25
100
AcDbPolyline
 90
        3
 70
   128
 43
0.0
 10
-0.1972123436
 20
4.6859122608
 10
-0.1959540079
 20
4.6858770614
 10
-0.19497104
 20
4.6860659204
  0
LWPOLYLINE
  5
3BF
330
1F
100
AcDbEntity
  8
0
  6
Continuous
 62
     8
370
    25
100
AcDbPolyline
 90
        6
 70
   128
 43
0.0
 10
-0.1925445959
 20
4.6949326435
 10
-0.19141289
 20
4.6947215517
 10
-0.1904974083
 20
4.6944691742
 10
-0.1898322831
 20
4.6941849206
 10
-0.1894423127
 20
4.6938793889
 10
-0.1893383279
 20
4.6936142104
  0
LWPOLYLINE
  5
3C0
330
1F
100
AcDbEntity
  8
0
  6
Continuous
 62
     8
370
    25
100
AcDbPolyline
 90
        6
 70
   128
 43
0.0
 10
0.1925445875
 20
4.7180384947
 10
0.1914128796
 20
4.7178274025
 10
0.1904973962
 20
4.7175750245
 10
0.1898322698
 20
4.7172907704
 10
0.1894422988
 20
4.7169852382
 10
0.1893559652
 20
4.7168295719
  0
LWPOLYLINE
  5
3C1
330
1F
100
AcDbEntity
  8
0
  6
Continuous
 62
     8
370
    25
100
AcDbPolyline
 90
        6
 70
   128
 43
0.0
 10
-0.1925445849
 20
4.7180384955
 10
-0.1914128933
 20
4.7178274012
 10
-0.1904974252
 20
4.7175750225
 10
-0.1898323119
 20
4.7172907688
 10
-0.1894423509
 20
4.7169852378
 10
-0.1893559933
 20
4.7168295627
  0
LWPOLYLINE
  5
3C2
330
1F
100
AcDbEntity
  8
0
  6
Continuous
 62
     8
370
    25
100
AcDbPolyline
 90
        3
 70
   128
 43
0.0
 10
-0.2085236345
 20
4.6820417665
 10
-0.2095066025
 20
4.6818529075
 10
-0.2107649382
 20
4.6818881069
  0
LWPOLYLINE
  5
3C3
330
1F
100
AcDbEntity
  8
0
  6
Continuous
 62
     8
370
    25
100
AcDbPolyline
 90
        3
 70
   128
 43
0.0
 10
0.2107649382
 20
4.6818881069
 10
0.2095066025
 20
4.6818529075
 10
0.2085236345
 20
4.6820417665
  0
SPLINE
  5
3C5
330
1F
100
AcDbEntity
  8
0
  6
Continuous
 62
     8
370
    25
100
AcDbSpline
210
0.0
220
0.0
230
1.0
 70
     8
 71
     3
 72
     9
 73
     5
 74
     0
 42
0.000000001
 43
0.00000001
 40
0.0
 40
0.0
 40
0.0
 40
0.0
 40
0.0387451837818104
 40
1.0
 40
1.0
 40
1.0
 40
1.0
 10
-0.1865940200229783
 20
4.722359804734104
 30
0.0
 10
-0.1865684218342313
 20
4.722373527437673
 30
0.0
 10
-0.1859077412992987
 20
4.722727705743956
 30
0.0
 10
-0.1850942672827813
 20
4.722634017619022
 30
0.0
 10
-0.1843123114665355
 20
4.722543959457707
 30
0.0
  0
LWPOLYLINE
  5
3D0
330
1F
100
AcDbEntity
  8
0
  6
Continuous
 62
     8
370
    25
100
AcDbPolyline
 90
       11
 70
   128
 43
0.0
 10
0.4724409449
 20
6.2820059848
 10
0.4666244129
 20
6.2973719159
 10
0.4493180392
 20
6.3123594868
 10
0.4209479642
 20
6.3265996537
 10
0.3822127532
 20
6.3397417765
 10
0.3340661958
 20
6.3514622525
 10
0.27769382
 20
6.3614724846
 10
0.2144837007
 20
6.3695259878
 10
0.1459922808
 20
6.3754244581
 10
0.0739060465
 20
6.3790226555
 10
0.0
 20
6.3802319805
  0
LWPOLYLINE
  5
3D1
330
1F
100
AcDbEntity
  8
0
  6
Continuous
 62
     8
370
    25
100
AcDbPolyline
 90
       11
 70
   128
 43
0.0
 10
0.0
 20
6.3802319805
 10
-0.0739060465
 20
6.3790226555
 10
-0.1459922808
 20
6.3754244581
 10
-0.2144837007
 20
6.3695259878
 10
-0.27769382
 20
6.3614724846
 10
-0.3340661958
 20
6.3514622525
 10
-0.3822127532
 20
6.3397417765
 10
-0.4209479642
 20
6.3265996537
 10
-0.4493180392
 20
6.3123594868
 10
-0.4666244129
 20
6.2973719159
 10
-0.4724409449
 20
6.2820059848
  0
LINE
  5
3D8
330
1F
100
AcDbEntity
  8
0
  6
Continuous
 62
     7
370
    25
100
AcDbLine
 10
0.3641732283
 20
4.749318012
 30
0.0
 11
0.3641732283
 21
4.7633933761
 31
0.0
  0
LINE
  5
3D9
330
1F
100
AcDbEntity
  8
0
  6
Continuous
 62
     7
370
    25
100
AcDbLine
 10
-0.3641732283
 20
4.7633933761
 30
0.0
 11
-0.3641732283
 21
4.749318012
 31
0.0
  0
LINE
  5
3DA
330
1F
100
AcDbEntity
  8
0
  6
Continuous
 62
     7
370
    25
100
AcDbLine
 10
-0.0601063976
 20
4.8174449057
 30
0.0
 11
-0.0560033989
 21
4.8126069541
 31
0.0
  0
LINE
  5
3DB
330
1F
100
AcDbEntity
  8
0
  6
Continuous
 62
     7
370
    25
100
AcDbLine
 10
0.0560033989
 20
4.8126069541
 30
0.0
 11
0.0601063976
 21
4.8174449057
 31
0.0
  0
LINE
  5
3DC
330
1F
100
AcDbEntity
  8
0
  6
Continuous
 62
     7
370
    25
100
AcDbLine
 10
0.2786441235
 20
4.7778533265
 30
0.0
 11
0.2826306842
 21
4.7845052749
 31
0.0
  0
LINE
  5
3DD
330
1F
100
AcDbEntity
  8
0
  6
Continuous
 62
     7
370
    25
100
AcDbLine
 10
-0.280899415
 20
4.7801025969
 30
0.0
 11
-0.2763637245
 21
4.77340359
 31
0.0
  0
LINE
  5
3DE
330
1F
100
AcDbEntity
  8
0
  6
Continuous
 62
     7
370
    25
100
AcDbLine
 10
0.2763637245
 20
4.77340359
 30
0.0
 11
0.280899415
 21
4.7801025969
 31
0.0
  0
LINE
  5
3DF
330
1F
100
AcDbEntity
  8
0
  6
Continuous
 62
     7
370
    25
100
AcDbLine
 10
-0.1893383279
 20
4.8050218137
 30
0.0
 11
-0.1893383279
 21
4.8098618686
 31
0.0
  0
LINE
  5
3E0
330
1F
100
AcDbEntity
  8
0
  6
Continuous
 62
     7
370
    25
100
AcDbLine
 10
0.1893383279
 20
4.8098618686
 30
0.0
 11
0.1893383279
 21
4.8050218137
 31
0.0
  0
LINE
  5
3E1
330
1F
100
AcDbEntity
  8
0
  6
Continuous
 62
     7
370
    25
100
AcDbLine
 10
-0.2884099509
 20
4.7853466283
 30
0.0
 11
-0.26905484
 21
4.7825288854
 31
0.0
  0
LINE
  5
3E2
330
1F
100
AcDbEntity
  8
0
  6
Continuous
 62
     7
370
    25
100
AcDbLine
 10
0.26905484
 20
4.7825288854
 30
0.0
 11
0.2884099509
 21
4.7853466283
 31
0.0
  0
LINE
  5
3E3
330
1F
100
AcDbEntity
  8
0
  6
Continuous
 62
     7
370
    25
100
AcDbLine
 10
-0.3210245636
 20
4.7389228
 30
0.0
 11
-0.3210245636
 21
4.7828190729
 31
0.0
  0
LINE
  5
3E4
330
1F
100
AcDbEntity
  8
0
  6
Continuous
 62
     7
370
    25
100
AcDbLine
 10
0.3210245636
 20
4.7828190661
 30
0.0
 11
0.3210245636
 21
4.7389228
 31
0.0
  0
LINE
  5
3E5
330
1F
100
AcDbEntity
  8
0
  6
Continuous
 62
     7
370
    25
100
AcDbLine
 10
-0.35187937
 20
4.7302010088
 30
0.0
 11
-0.3286101083
 21
4.7310540702
 31
0.0
  0
LINE
  5
3E6
330
1F
100
AcDbEntity
  8
0
  6
Continuous
 62
     7
370
    25
100
AcDbLine
 10
0.3286101083
 20
4.7310540702
 30
0.0
 11
0.35187937
 21
4.7302010088
 31
0.0
  0
LINE
  5
3E7
330
1F
100
AcDbEntity
  8
0
  6
Continuous
 62
     7
370
    25
100
AcDbLine
 10
0.2951496146
 20
4.7054975174
 30
0.0
 11
0.2951496146
 21
4.7286033662
 31
0.0
  0
LINE
  5
3E8
330
1F
100
AcDbEntity
  8
0
  6
Continuous
 62
     7
370
    25
100
AcDbLine
 10
-0.2951496146
 20
4.7286033706
 30
0.0
 11
-0.2951496146
 21
4.7054975174
 31
0.0
  0
LINE
  5
3E9
330
1F
100
AcDbEntity
  8
0
  6
Continuous
 62
     7
370
    25
100
AcDbLine
 10
0.1893383279
 20
4.7167200592
 30
0.0
 11
0.1893383279
 21
4.6936142104
 31
0.0
  0
LINE
  5
3EA
330
1F
100
AcDbEntity
  8
0
  6
Continuous
 62
     7
370
    25
100
AcDbLine
 10
-0.1893383279
 20
4.6936142104
 30
0.0
 11
-0.1893383279
 21
4.7167200541
 31
0.0
  0
LINE
  5
3EB
330
1F
100
AcDbEntity
  8
0
  6
Continuous
 62
     7
370
    25
100
AcDbLine
 10
-0.2085236345
 20
4.6820417665
 30
0.0
 11
-0.19497104
 21
4.6860659204
 31
0.0
  0
LINE
  5
3EC
330
1F
100
AcDbEntity
  8
0
  6
Continuous
 62
     7
370
    25
100
AcDbLine
 10
0.19497104
 20
4.6860659204
 30
0.0
 11
0.2085236345
 21
4.6820417665
 31
0.0
  0
LINE
  5
3ED
330
1F
100
AcDbEntity
  8
0
  6
Continuous
 62
     7
370
    25
100
AcDbLine
 10
0.0619752227
 20
4.6760982007
 30
0.0
 11
0.0619752227
 21
4.6992040496
 31
0.0
  0
LINE
  5
3EE
330
1F
100
AcDbEntity
  8
0
  6
Continuous
 62
     7
370
    25
100
AcDbLine
 10
-0.0619752227
 20
4.6992040459
 30
0.0
 11
-0.0619752227
 21
4.6760982007
 31
0.0
  0
LINE
  5
3EF
330
1F
100
AcDbEntity
  8
0
  6
Continuous
 62
     7
370
    25
100
AcDbLine
 10
-4.9350393701
 20
-0.0196850394
 30
0.0
 11
-3.0649606299
 21
-0.0196850394
 31
0.0
  0
LINE
  5
3F0
330
1F
100
AcDbEntity
  8
0
  6
Continuous
 62
     7
370
    25
100
AcDbLine
 10
3.0649606299
 20
-0.0196850394
 30
0.0
 11
4.9350393701
 21
-0.0196850394
 31
0.0
  0
LINE
  5
3F1
330
1F
100
AcDbEntity
  8
0
  6
Continuous
 62
     7
370
    25
100
AcDbLine
 10
0.4724409449
 20
0.2362204724
 30
0.0
 11
0.4724409449
 21
8.1530807309
 31
0.0
  0
LINE
  5
3F2
330
1F
100
AcDbEntity
  8
0
  6
Continuous
 62
     7
370
    25
100
AcDbLine
 10
-0.4724409449
 20
8.1530807309
 30
0.0
 11
-0.4724409449
 21
0.2362204724
 31
0.0
  0
LINE
  5
3F3
330
1F
100
AcDbEntity
  8
0
  6
Continuous
 62
     7
370
    25
100
AcDbLine
 10
-1.0039370079
 20
-0.0078740157
 30
0.0
 11
1.0039370079
 21
-0.0078740157
 31
0.0
  0
LINE
  5
3F4
330
1F
100
AcDbEntity
  8
0
  6
Continuous
 62
     7
370
    25
100
AcDbLine
 10
3.311023622
 20
1.8582677165
 30
0.0
 11
3.311023622
 21
0.8937007874
 31
0.0
  0
LINE
  5
3F5
330
1F
100
AcDbEntity
  8
0
  6
Continuous
 62
     7
370
    25
100
AcDbLine
 10
4.688976378
 20
1.6456692913
 30
0.0
 11
4.688976378
 21
1.8582677165
 31
0.0
  0
LINE
  5
3F6
330
1F
100
AcDbEntity
  8
0
  6
Continuous
 62
     7
370
    25
100
AcDbLine
 10
4.688976378
 20
0.8937007874
 30
0.0
 11
4.688976378
 21
1.3228346457
 31
0.0
  0
LINE
  5
3F7
330
1F
100
AcDbEntity
  8
0
  6
Continuous
 62
     7
370
    25
100
AcDbLine
 10
-3.311023622
 20
0.8937007874
 30
0.0
 11
-3.311023622
 21
1.8582677165
 31
0.0
  0
LINE
  5
3F8
330
1F
100
AcDbEntity
  8
0
  6
Continuous
 62
     7
370
    25
100
AcDbLine
 10
-4.688976378
 20
1.3228346457
 30
0.0
 11
-4.688976378
 21
0.8937007874
 31
0.0
  0
LINE
  5
3F9
330
1F
100
AcDbEntity
  8
0
  6
Continuous
 62
     7
370
    25
100
AcDbLine
 10
-4.688976378
 20
1.8582677165
 30
0.0
 11
-4.688976378
 21
1.6456692913
 31
0.0
  0
LINE
  5
3FA
330
1F
100
AcDbEntity
  8
0
  6
Continuous
 62
     7
370
    25
100
AcDbLine
 10
-0.054101207
 20
4.8148358737
 30
0.0
 11
-0.0499982083
 21
4.8099979222
 31
0.0
  0
LINE
  5
3FB
330
1F
100
AcDbEntity
  8
0
  6
Continuous
 62
     7
370
    25
100
AcDbLine
 10
0.0499982083
 20
4.8099979222
 30
0.0
 11
0.054101207
 21
4.8148358737
 31
0.0
  0
LINE
  5
3FC
330
1F
100
AcDbEntity
  8
0
  6
Continuous
 62
     7
370
    25
100
AcDbLine
 10
-0.0488148167
 20
4.7056605096
 30
0.0
 11
-0.0488148188
 21
4.6825546578
 31
0.0
  0
LINE
  5
3FD
330
1F
100
AcDbEntity
  8
0
  6
Continuous
 62
     7
370
    25
100
AcDbLine
 10
-0.1925445959
 20
4.6949326435
 30
0.0
 11
-0.1925445849
 21
4.7180384955
 31
0.0
  0
LINE
  5
3FE
330
1F
100
AcDbEntity
  8
0
  6
Continuous
 62
     7
370
    25
100
AcDbLine
 10
-0.2615791633
 20
4.7323915901
 30
0.0
 11
-0.2615791746
 21
4.7092857395
 31
0.0
  0
LINE
  5
3FF
330
1F
100
AcDbEntity
  8
0
  6
Continuous
 62
     7
370
    25
100
AcDbLine
 10
0.2615791746
 20
4.7092857395
 30
0.0
 11
0.2615791598
 21
4.7323915906
 31
0.0
  0
LINE
  5
400
330
1F
100
AcDbEntity
  8
0
  6
Continuous
 62
     7
370
    25
100
AcDbLine
 10
0.1925445875
 20
4.7180384947
 30
0.0
 11
0.1925445959
 21
4.6949326435
 31
0.0
  0
LINE
  5
401
330
1F
100
AcDbEntity
  8
0
  6
Continuous
 62
     7
370
    25
100
AcDbLine
 10
0.0488148188
 20
4.6825546578
 30
0.0
 11
0.048814816
 21
4.7056605105
 31
0.0
  0
LINE
  5
402
330
1F
100
AcDbEntity
  8
0
  6
Continuous
 62
     7
370
    25
100
AcDbLine
 10
0.2107649382
 20
4.8013440179
 30
0.0
 11
0.1972123436
 21
4.7973198641
 31
0.0
  0
LINE
  5
403
330
1F
100
AcDbEntity
  8
0
  6
Continuous
 62
     7
370
    25
100
AcDbLine
 10
-0.1972123436
 20
4.7973198641
 30
0.0
 11
-0.2107649382
 21
4.8013440179
 31
0.0
  0
LINE
  5
404
330
1F
100
AcDbEntity
  8
0
  6
Continuous
 62
     7
370
    25
100
AcDbLine
 10
-0.2872755989
 20
4.7854365571
 30
0.0
 11
-0.267920488
 21
4.7826188142
 31
0.0
  0
LINE
  5
405
330
1F
100
AcDbEntity
  8
0
  6
Continuous
 62
     7
370
    25
100
AcDbLine
 10
0.267920488
 20
4.7826188142
 30
0.0
 11
0.2872755989
 21
4.7854365571
 31
0.0
  0
LINE
  5
406
330
1F
100
AcDbEntity
  8
0
  6
Continuous
 62
     7
370
    25
100
AcDbLine
 10
-0.2388115344
 20
4.7808051161
 30
0.0
 11
-0.2388115344
 21
4.7742381049
 31
0.0
  0
LINE
  5
407
330
1F
100
AcDbEntity
  8
0
  6
Continuous
 62
     7
370
    25
100
AcDbLine
 10
-0.2145410263
 20
4.7719843605
 30
0.0
 11
-0.2145410263
 21
4.7650507613
 31
0.0
  0
LINE
  5
408
330
1F
100
AcDbEntity
  8
0
  6
Continuous
 62
     7
370
    25
100
AcDbLine
 10
-0.1817217423
 20
4.7621125892
 30
0.0
 11
-0.1817217423
 21
4.7569144334
 31
0.0
  0
LINE
  5
409
330
1F
100
AcDbEntity
  8
0
  6
Continuous
 62
     7
370
    25
100
AcDbLine
 10
-0.1142396585
 20
4.7540121835
 30
0.0
 11
-0.1142396585
 21
4.7470067398
 31
0.0
  0
LINE
  5
40A
330
1F
100
AcDbEntity
  8
0
  6
Continuous
 62
     7
370
    25
100
AcDbLine
 10
-0.0297344838
 20
4.7418602976
 30
0.0
 11
-0.0196850394
 21
4.7416606636
 31
0.0
  0
LINE
  5
40B
330
1F
100
AcDbEntity
  8
0
  6
Continuous
 62
     7
370
    25
100
AcDbLine
 10
-0.0196850394
 20
4.7438683623
 30
0.0
 11
-0.0196850394
 21
4.7224057895
 31
0.0
  0
LINE
  5
40C
330
1F
100
AcDbEntity
  8
0
  6
Continuous
 62
     7
370
    25
100
AcDbLine
 10
0.0196850394
 20
4.7416606636
 30
0.0
 11
0.0295275591
 21
4.7418553594
 31
0.0
  0
LINE
  5
40D
330
1F
100
AcDbEntity
  8
0
  6
Continuous
 62
     7
370
    25
100
AcDbLine
 10
0.1141276447
 20
4.7540235764
 30
0.0
 11
0.1141276447
 21
4.7469953469
 31
0.0
  0
LINE
  5
40E
330
1F
100
AcDbEntity
  8
0
  6
Continuous
 62
     7
370
    25
100
AcDbLine
 10
0.1816449322
 20
4.7621282079
 30
0.0
 11
0.1816449322
 21
4.7568988147
 31
0.0
  0
LINE
  5
40F
330
1F
100
AcDbEntity
  8
0
  6
Continuous
 62
     7
370
    25
100
AcDbLine
 10
0.2145410263
 20
4.7719843605
 30
0.0
 11
0.2145410263
 21
4.7650507613
 31
0.0
  0
LINE
  5
410
330
1F
100
AcDbEntity
  8
0
  6
Continuous
 62
     7
370
    25
100
AcDbLine
 10
0.2387704525
 20
4.7808250235
 30
0.0
 11
0.2387704525
 21
4.7742181975
 31
0.0
  0
LINE
  5
411
330
1F
100
AcDbEntity
  8
0
  6
Continuous
 62
     7
370
    25
100
AcDbLine
 10
-0.0196850394
 20
4.7798845607
 30
0.0
 11
-0.0196850394
 21
4.7751586603
 31
0.0
  0
LINE
  5
412
330
1F
100
AcDbEntity
  8
0
  6
Continuous
 62
     7
370
    25
100
AcDbLine
 10
-0.0196850394
 20
4.7751586603
 30
0.0
 11
0.0
 21
4.7727957101
 31
0.0
  0
LINE
  5
413
330
1F
100
AcDbEntity
  8
0
  6
Continuous
 62
     7
370
    25
100
AcDbLine
 10
0.0
 20
4.7727957101
 30
0.0
 11
0.0196850394
 21
4.7751586603
 31
0.0
  0
LINE
  5
414
330
1F
100
AcDbEntity
  8
0
  6
Continuous
 62
     7
370
    25
100
AcDbLine
 10
0.0196850394
 20
4.7751586603
 30
0.0
 11
0.0196850394
 21
4.7798845607
 31
0.0
  0
LINE
  5
415
330
1F
100
AcDbEntity
  8
0
  6
Continuous
 62
     7
370
    25
100
AcDbLine
 10
0.0196850394
 20
4.7798845607
 30
0.0
 11
0.0
 21
4.7822475109
 31
0.0
  0
LINE
  5
416
330
1F
100
AcDbEntity
  8
0
  6
Continuous
 62
     7
370
    25
100
AcDbLine
 10
0.0
 20
4.7822475109
 30
0.0
 11
-0.0196850394
 21
4.7798845607
 31
0.0
  0
LINE
  5
417
330
1F
100
AcDbEntity
  8
0
  6
Continuous
 62
     7
370
    25
100
AcDbLine
 10
-0.2191247112
 20
4.7798845607
 30
0.0
 11
-0.2191247112
 21
4.7751586603
 31
0.0
  0
LINE
  5
418
330
1F
100
AcDbEntity
  8
0
  6
Continuous
 62
     7
370
    25
100
AcDbLine
 10
-0.2191247112
 20
4.7751586603
 30
0.0
 11
-0.1994396718
 21
4.7727957101
 31
0.0
  0
LINE
  5
419
330
1F
100
AcDbEntity
  8
0
  6
Continuous
 62
     7
370
    25
100
AcDbLine
 10
-0.1994396718
 20
4.7727957101
 30
0.0
 11
-0.1797546325
 21
4.7751586603
 31
0.0
  0
LINE
  5
41A
330
1F
100
AcDbEntity
  8
0
  6
Continuous
 62
     7
370
    25
100
AcDbLine
 10
-0.1797546325
 20
4.7751586603
 30
0.0
 11
-0.1797546325
 21
4.7798845607
 31
0.0
  0
LINE
  5
41B
330
1F
100
AcDbEntity
  8
0
  6
Continuous
 62
     7
370
    25
100
AcDbLine
 10
-0.1797546325
 20
4.7798845607
 30
0.0
 11
-0.1994396718
 21
4.7822475109
 31
0.0
  0
LINE
  5
41C
330
1F
100
AcDbEntity
  8
0
  6
Continuous
 62
     7
370
    25
100
AcDbLine
 10
-0.1994396718
 20
4.7822475109
 30
0.0
 11
-0.2191247112
 21
4.7798845607
 31
0.0
  0
LINE
  5
41D
330
1F
100
AcDbEntity
  8
0
  6
Continuous
 62
     7
370
    25
100
AcDbLine
 10
-0.2191247112
 20
4.7936598337
 30
0.0
 11
-0.2191247112
 21
4.7931667595
 31
0.0
  0
LINE
  5
41E
330
1F
100
AcDbEntity
  8
0
  6
Continuous
 62
     7
370
    25
100
AcDbLine
 10
-0.2191247112
 20
4.7931667595
 30
0.0
 11
-0.1994396718
 21
4.7908038093
 31
0.0
  0
LINE
  5
41F
330
1F
100
AcDbEntity
  8
0
  6
Continuous
 62
     7
370
    25
100
AcDbLine
 10
-0.1994396718
 20
4.7908038093
 30
0.0
 11
-0.1797546325
 21
4.7931667595
 31
0.0
  0
LINE
  5
420
330
1F
100
AcDbEntity
  8
0
  6
Continuous
 62
     7
370
    25
100
AcDbLine
 10
-0.1797546325
 20
4.7931667595
 30
0.0
 11
-0.1797546325
 21
4.7978926599
 31
0.0
  0
LINE
  5
421
330
1F
100
AcDbEntity
  8
0
  6
Continuous
 62
     7
370
    25
100
AcDbLine
 10
-0.1797546325
 20
4.7978926599
 30
0.0
 11
-0.1917666781
 21
4.7993345603
 31
0.0
  0
LINE
  5
422
330
1F
100
AcDbEntity
  8
0
  6
Continuous
 62
     7
370
    25
100
AcDbLine
 10
-0.0691045625
 20
4.7618764615
 30
0.0
 11
-0.0691045625
 21
4.7571505611
 31
0.0
  0
LINE
  5
423
330
1F
100
AcDbEntity
  8
0
  6
Continuous
 62
     7
370
    25
100
AcDbLine
 10
-0.0691045625
 20
4.7571505611
 30
0.0
 11
-0.0494195232
 21
4.7547876109
 31
0.0
  0
LINE
  5
424
330
1F
100
AcDbEntity
  8
0
  6
Continuous
 62
     7
370
    25
100
AcDbLine
 10
-0.0494195232
 20
4.7547876109
 30
0.0
 11
-0.0297344838
 21
4.7571505611
 31
0.0
  0
LINE
  5
425
330
1F
100
AcDbEntity
  8
0
  6
Continuous
 62
     7
370
    25
100
AcDbLine
 10
-0.0297344838
 20
4.7571505611
 30
0.0
 11
-0.0297344838
 21
4.7618764615
 31
0.0
  0
LINE
  5
426
330
1F
100
AcDbEntity
  8
0
  6
Continuous
 62
     7
370
    25
100
AcDbLine
 10
-0.0297344838
 20
4.7618764615
 30
0.0
 11
-0.0494195232
 21
4.7642394117
 31
0.0
  0
LINE
  5
427
330
1F
100
AcDbEntity
  8
0
  6
Continuous
 62
     7
370
    25
100
AcDbLine
 10
-0.0494195232
 20
4.7642394117
 30
0.0
 11
-0.0691045625
 21
4.7618764615
 31
0.0
  0
LINE
  5
428
330
1F
100
AcDbEntity
  8
0
  6
Continuous
 62
     7
370
    25
100
AcDbLine
 10
-0.1441146369
 20
4.7708805111
 30
0.0
 11
-0.1441146369
 21
4.7661546107
 31
0.0
  0
LINE
  5
429
330
1F
100
AcDbEntity
  8
0
  6
Continuous
 62
     7
370
    25
100
AcDbLine
 10
-0.1441146369
 20
4.7661546107
 30
0.0
 11
-0.1244295975
 21
4.7637916605
 31
0.0
  0
LINE
  5
42A
330
1F
100
AcDbEntity
  8
0
  6
Continuous
 62
     7
370
    25
100
AcDbLine
 10
-0.1244295975
 20
4.7637916605
 30
0.0
 11
-0.1047445581
 21
4.7661546107
 31
0.0
  0
LINE
  5
42B
330
1F
100
AcDbEntity
  8
0
  6
Continuous
 62
     7
370
    25
100
AcDbLine
 10
-0.1047445581
 20
4.7661546107
 30
0.0
 11
-0.1047445581
 21
4.7708805111
 31
0.0
  0
LINE
  5
42C
330
1F
100
AcDbEntity
  8
0
  6
Continuous
 62
     7
370
    25
100
AcDbLine
 10
-0.1047445581
 20
4.7708805111
 30
0.0
 11
-0.1244295975
 21
4.7732434613
 31
0.0
  0
LINE
  5
42D
330
1F
100
AcDbEntity
  8
0
  6
Continuous
 62
     7
370
    25
100
AcDbLine
 10
-0.1244295975
 20
4.7732434613
 30
0.0
 11
-0.1441146369
 21
4.7708805111
 31
0.0
  0
LINE
  5
42E
330
1F
100
AcDbEntity
  8
0
  6
Continuous
 62
     7
370
    25
100
AcDbLine
 10
-0.1441146369
 20
4.7888886103
 30
0.0
 11
-0.1441146369
 21
4.7841627099
 31
0.0
  0
LINE
  5
42F
330
1F
100
AcDbEntity
  8
0
  6
Continuous
 62
     7
370
    25
100
AcDbLine
 10
-0.1441146369
 20
4.7841627099
 30
0.0
 11
-0.1244295975
 21
4.7817997597
 31
0.0
  0
LINE
  5
430
330
1F
100
AcDbEntity
  8
0
  6
Continuous
 62
     7
370
    25
100
AcDbLine
 10
-0.1244295975
 20
4.7817997597
 30
0.0
 11
-0.1047445581
 21
4.7841627099
 31
0.0
  0
LINE
  5
431
330
1F
100
AcDbEntity
  8
0
  6
Continuous
 62
     7
370
    25
100
AcDbLine
 10
-0.1047445581
 20
4.7841627099
 30
0.0
 11
-0.1047445581
 21
4.7888886103
 31
0.0
  0
LINE
  5
432
330
1F
100
AcDbEntity
  8
0
  6
Continuous
 62
     7
370
    25
100
AcDbLine
 10
-0.1047445581
 20
4.7888886103
 30
0.0
 11
-0.1244295975
 21
4.7912515605
 31
0.0
  0
LINE
  5
433
330
1F
100
AcDbEntity
  8
0
  6
Continuous
 62
     7
370
    25
100
AcDbLine
 10
-0.1244295975
 20
4.7912515605
 30
0.0
 11
-0.1441146369
 21
4.7888886103
 31
0.0
  0
LINE
  5
434
330
1F
100
AcDbEntity
  8
0
  6
Continuous
 62
     7
370
    25
100
AcDbLine
 10
-0.1441146369
 20
4.8068967095
 30
0.0
 11
-0.1441146369
 21
4.8021708091
 31
0.0
  0
LINE
  5
435
330
1F
100
AcDbEntity
  8
0
  6
Continuous
 62
     7
370
    25
100
AcDbLine
 10
-0.1441146369
 20
4.8021708091
 30
0.0
 11
-0.1244295975
 21
4.7998078589
 31
0.0
  0
LINE
  5
436
330
1F
100
AcDbEntity
  8
0
  6
Continuous
 62
     7
370
    25
100
AcDbLine
 10
-0.1244295975
 20
4.7998078589
 30
0.0
 11
-0.1047445581
 21
4.8021708091
 31
0.0
  0
LINE
  5
437
330
1F
100
AcDbEntity
  8
0
  6
Continuous
 62
     7
370
    25
100
AcDbLine
 10
-0.1047445581
 20
4.8021708091
 30
0.0
 11
-0.1047445581
 21
4.8068967095
 31
0.0
  0
LINE
  5
438
330
1F
100
AcDbEntity
  8
0
  6
Continuous
 62
     7
370
    25
100
AcDbLine
 10
-0.1047445581
 20
4.8068967095
 30
0.0
 11
-0.1244295975
 21
4.8092596597
 31
0.0
  0
LINE
  5
439
330
1F
100
AcDbEntity
  8
0
  6
Continuous
 62
     7
370
    25
100
AcDbLine
 10
-0.1244295975
 20
4.8092596597
 30
0.0
 11
-0.1441146369
 21
4.8068967095
 31
0.0
  0
LINE
  5
43A
330
1F
100
AcDbEntity
  8
0
  6
Continuous
 62
     7
370
    25
100
AcDbLine
 10
-0.0691045625
 20
4.8159007591
 30
0.0
 11
-0.0691045625
 21
4.8111748587
 31
0.0
  0
LINE
  5
43B
330
1F
100
AcDbEntity
  8
0
  6
Continuous
 62
     7
370
    25
100
AcDbLine
 10
-0.0691045625
 20
4.8111748587
 30
0.0
 11
-0.0494195232
 21
4.8088119085
 31
0.0
  0
LINE
  5
43C
330
1F
100
AcDbEntity
  8
0
  6
Continuous
 62
     7
370
    25
100
AcDbLine
 10
-0.0494195232
 20
4.8088119085
 30
0.0
 11
-0.0364667516
 21
4.8103667316
 31
0.0
  0
LINE
  5
43D
330
1F
100
AcDbEntity
  8
0
  6
Continuous
 62
     7
370
    25
100
AcDbLine
 10
-0.0597492247
 20
4.8170237539
 30
0.0
 11
-0.0691045625
 21
4.8159007591
 31
0.0
  0
LINE
  5
43E
330
1F
100
AcDbEntity
  8
0
  6
Continuous
 62
     7
370
    25
100
AcDbLine
 10
0.0809155862
 20
4.8159007591
 30
0.0
 11
0.0809155862
 21
4.8111748587
 31
0.0
  0
LINE
  5
43F
330
1F
100
AcDbEntity
  8
0
  6
Continuous
 62
     7
370
    25
100
AcDbLine
 10
0.0809155862
 20
4.8111748587
 30
0.0
 11
0.1006006255
 21
4.8088119085
 31
0.0
  0
LINE
  5
440
330
1F
100
AcDbEntity
  8
0
  6
Continuous
 62
     7
370
    25
100
AcDbLine
 10
0.1006006255
 20
4.8088119085
 30
0.0
 11
0.1202856649
 21
4.8111748587
 31
0.0
  0
LINE
  5
441
330
1F
100
AcDbEntity
  8
0
  6
Continuous
 62
     7
370
    25
100
AcDbLine
 10
0.1202856649
 20
4.8111748587
 30
0.0
 11
0.1202856649
 21
4.8159007591
 31
0.0
  0
LINE
  5
442
330
1F
100
AcDbEntity
  8
0
  6
Continuous
 62
     7
370
    25
100
AcDbLine
 10
0.0966859839
 20
4.8177938041
 30
0.0
 11
0.0809155862
 21
4.8159007591
 31
0.0
  0
LINE
  5
443
330
1F
100
AcDbEntity
  8
0
  6
Continuous
 62
     7
370
    25
100
AcDbLine
 10
0.1559256605
 20
4.8068967095
 30
0.0
 11
0.1559256605
 21
4.8021708091
 31
0.0
  0
LINE
  5
444
330
1F
100
AcDbEntity
  8
0
  6
Continuous
 62
     7
370
    25
100
AcDbLine
 10
0.1559256605
 20
4.8021708091
 30
0.0
 11
0.1756106999
 21
4.7998078589
 31
0.0
  0
LINE
  5
445
330
1F
100
AcDbEntity
  8
0
  6
Continuous
 62
     7
370
    25
100
AcDbLine
 10
0.1756106999
 20
4.7998078589
 30
0.0
 11
0.1901438766
 21
4.8015523905
 31
0.0
  0
LINE
  5
446
330
1F
100
AcDbEntity
  8
0
  6
Continuous
 62
     7
370
    25
100
AcDbLine
 10
0.1893383279
 20
4.8076118245
 30
0.0
 11
0.1756106999
 21
4.8092596597
 31
0.0
  0
LINE
  5
447
330
1F
100
AcDbEntity
  8
0
  6
Continuous
 62
     7
370
    25
100
AcDbLine
 10
0.1756106999
 20
4.8092596597
 30
0.0
 11
0.1559256605
 21
4.8068967095
 31
0.0
  0
LINE
  5
448
330
1F
100
AcDbEntity
  8
0
  6
Continuous
 62
     7
370
    25
100
AcDbLine
 10
0.1559256605
 20
4.7888886103
 30
0.0
 11
0.1559256605
 21
4.7841627099
 31
0.0
  0
LINE
  5
449
330
1F
100
AcDbEntity
  8
0
  6
Continuous
 62
     7
370
    25
100
AcDbLine
 10
0.1559256605
 20
4.7841627099
 30
0.0
 11
0.1756106999
 21
4.7817997597
 31
0.0
  0
LINE
  5
44A
330
1F
100
AcDbEntity
  8
0
  6
Continuous
 62
     7
370
    25
100
AcDbLine
 10
0.1756106999
 20
4.7817997597
 30
0.0
 11
0.1952957392
 21
4.7841627099
 31
0.0
  0
LINE
  5
44B
330
1F
100
AcDbEntity
  8
0
  6
Continuous
 62
     7
370
    25
100
AcDbLine
 10
0.1952957392
 20
4.7841627099
 30
0.0
 11
0.1952957392
 21
4.7888886103
 31
0.0
  0
LINE
  5
44C
330
1F
100
AcDbEntity
  8
0
  6
Continuous
 62
     7
370
    25
100
AcDbLine
 10
0.1952957392
 20
4.7888886103
 30
0.0
 11
0.1756106999
 21
4.7912515605
 31
0.0
  0
LINE
  5
44D
330
1F
100
AcDbEntity
  8
0
  6
Continuous
 62
     7
370
    25
100
AcDbLine
 10
0.1756106999
 20
4.7912515605
 30
0.0
 11
0.1559256605
 21
4.7888886103
 31
0.0
  0
LINE
  5
44E
330
1F
100
AcDbEntity
  8
0
  6
Continuous
 62
     7
370
    25
100
AcDbLine
 10
0.1559256605
 20
4.7708805111
 30
0.0
 11
0.1559256605
 21
4.7661546107
 31
0.0
  0
LINE
  5
44F
330
1F
100
AcDbEntity
  8
0
  6
Continuous
 62
     7
370
    25
100
AcDbLine
 10
0.1559256605
 20
4.7661546107
 30
0.0
 11
0.1756106999
 21
4.7637916605
 31
0.0
  0
LINE
  5
450
330
1F
100
AcDbEntity
  8
0
  6
Continuous
 62
     7
370
    25
100
AcDbLine
 10
0.1756106999
 20
4.7637916605
 30
0.0
 11
0.1952957392
 21
4.7661546107
 31
0.0
  0
LINE
  5
451
330
1F
100
AcDbEntity
  8
0
  6
Continuous
 62
     7
370
    25
100
AcDbLine
 10
0.1952957392
 20
4.7661546107
 30
0.0
 11
0.1952957392
 21
4.7708805111
 31
0.0
  0
LINE
  5
452
330
1F
100
AcDbEntity
  8
0
  6
Continuous
 62
     7
370
    25
100
AcDbLine
 10
0.1952957392
 20
4.7708805111
 30
0.0
 11
0.1756106999
 21
4.7732434613
 31
0.0
  0
LINE
  5
453
330
1F
100
AcDbEntity
  8
0
  6
Continuous
 62
     7
370
    25
100
AcDbLine
 10
0.1756106999
 20
4.7732434613
 30
0.0
 11
0.1559256605
 21
4.7708805111
 31
0.0
  0
LINE
  5
454
330
1F
100
AcDbEntity
  8
0
  6
Continuous
 62
     7
370
    25
100
AcDbLine
 10
0.0809155862
 20
4.7618764615
 30
0.0
 11
0.0809155862
 21
4.7571505611
 31
0.0
  0
LINE
  5
455
330
1F
100
AcDbEntity
  8
0
  6
Continuous
 62
     7
370
    25
100
AcDbLine
 10
0.0809155862
 20
4.7571505611
 30
0.0
 11
0.1006006255
 21
4.7547876109
 31
0.0
  0
LINE
  5
456
330
1F
100
AcDbEntity
  8
0
  6
Continuous
 62
     7
370
    25
100
AcDbLine
 10
0.1006006255
 20
4.7547876109
 30
0.0
 11
0.1202856649
 21
4.7571505611
 31
0.0
  0
LINE
  5
457
330
1F
100
AcDbEntity
  8
0
  6
Continuous
 62
     7
370
    25
100
AcDbLine
 10
0.1202856649
 20
4.7571505611
 30
0.0
 11
0.1202856649
 21
4.7618764615
 31
0.0
  0
LINE
  5
458
330
1F
100
AcDbEntity
  8
0
  6
Continuous
 62
     7
370
    25
100
AcDbLine
 10
0.1202856649
 20
4.7618764615
 30
0.0
 11
0.1006006255
 21
4.7642394117
 31
0.0
  0
LINE
  5
459
330
1F
100
AcDbEntity
  8
0
  6
Continuous
 62
     7
370
    25
100
AcDbLine
 10
0.1006006255
 20
4.7642394117
 30
0.0
 11
0.0809155862
 21
4.7618764615
 31
0.0
  0
LINE
  5
45A
330
1F
100
AcDbEntity
  8
0
  6
Continuous
 62
     7
370
    25
100
AcDbLine
 10
0.0059055118
 20
4.7528724119
 30
0.0
 11
0.0059055118
 21
4.7481465115
 31
0.0
  0
LINE
  5
45B
330
1F
100
AcDbEntity
  8
0
  6
Continuous
 62
     7
370
    25
100
AcDbLine
 10
0.0059055118
 20
4.7481465115
 30
0.0
 11
0.0255905512
 21
4.7457835613
 31
0.0
  0
LINE
  5
45C
330
1F
100
AcDbEntity
  8
0
  6
Continuous
 62
     7
370
    25
100
AcDbLine
 10
0.0255905512
 20
4.7457835613
 30
0.0
 11
0.0452755906
 21
4.7481465115
 31
0.0
  0
LINE
  5
45D
330
1F
100
AcDbEntity
  8
0
  6
Continuous
 62
     7
370
    25
100
AcDbLine
 10
0.0452755906
 20
4.7481465115
 30
0.0
 11
0.0452755906
 21
4.7528724119
 31
0.0
  0
LINE
  5
45E
330
1F
100
AcDbEntity
  8
0
  6
Continuous
 62
     7
370
    25
100
AcDbLine
 10
0.0452755906
 20
4.7528724119
 30
0.0
 11
0.0255905512
 21
4.7552353621
 31
0.0
  0
LINE
  5
45F
330
1F
100
AcDbEntity
  8
0
  6
Continuous
 62
     7
370
    25
100
AcDbLine
 10
0.0255905512
 20
4.7552353621
 30
0.0
 11
0.0059055118
 21
4.7528724119
 31
0.0
  0
LINE
  5
460
330
1F
100
AcDbEntity
  8
0
  6
Continuous
 62
     7
370
    25
100
AcDbLine
 10
-0.0691045625
 20
4.7798845607
 30
0.0
 11
-0.0691045625
 21
4.7751586603
 31
0.0
  0
LINE
  5
461
330
1F
100
AcDbEntity
  8
0
  6
Continuous
 62
     7
370
    25
100
AcDbLine
 10
-0.0691045625
 20
4.7751586603
 30
0.0
 11
-0.0494195232
 21
4.7727957101
 31
0.0
  0
LINE
  5
462
330
1F
100
AcDbEntity
  8
0
  6
Continuous
 62
     7
370
    25
100
AcDbLine
 10
-0.0494195232
 20
4.7727957101
 30
0.0
 11
-0.0297344838
 21
4.7751586603
 31
0.0
  0
LINE
  5
463
330
1F
100
AcDbEntity
  8
0
  6
Continuous
 62
     7
370
    25
100
AcDbLine
 10
-0.0297344838
 20
4.7751586603
 30
0.0
 11
-0.0297344838
 21
4.7798845607
 31
0.0
  0
LINE
  5
464
330
1F
100
AcDbEntity
  8
0
  6
Continuous
 62
     7
370
    25
100
AcDbLine
 10
-0.0297344838
 20
4.7798845607
 30
0.0
 11
-0.0494195232
 21
4.7822475109
 31
0.0
  0
LINE
  5
465
330
1F
100
AcDbEntity
  8
0
  6
Continuous
 62
     7
370
    25
100
AcDbLine
 10
-0.0494195232
 20
4.7822475109
 30
0.0
 11
-0.0691045625
 21
4.7798845607
 31
0.0
  0
LINE
  5
466
330
1F
100
AcDbEntity
  8
0
  6
Continuous
 62
     7
370
    25
100
AcDbLine
 10
-0.0691045625
 20
4.7978926599
 30
0.0
 11
-0.0691045625
 21
4.7931667595
 31
0.0
  0
LINE
  5
467
330
1F
100
AcDbEntity
  8
0
  6
Continuous
 62
     7
370
    25
100
AcDbLine
 10
-0.0691045625
 20
4.7931667595
 30
0.0
 11
-0.0494195232
 21
4.7908038093
 31
0.0
  0
LINE
  5
468
330
1F
100
AcDbEntity
  8
0
  6
Continuous
 62
     7
370
    25
100
AcDbLine
 10
-0.0494195232
 20
4.7908038093
 30
0.0
 11
-0.0297344838
 21
4.7931667595
 31
0.0
  0
LINE
  5
469
330
1F
100
AcDbEntity
  8
0
  6
Continuous
 62
     7
370
    25
100
AcDbLine
 10
-0.0297344838
 20
4.7931667595
 30
0.0
 11
-0.0297344838
 21
4.7978926599
 31
0.0
  0
LINE
  5
46A
330
1F
100
AcDbEntity
  8
0
  6
Continuous
 62
     7
370
    25
100
AcDbLine
 10
-0.0297344838
 20
4.7978926599
 30
0.0
 11
-0.0494195232
 21
4.8002556101
 31
0.0
  0
LINE
  5
46B
330
1F
100
AcDbEntity
  8
0
  6
Continuous
 62
     7
370
    25
100
AcDbLine
 10
-0.0494195232
 20
4.8002556101
 30
0.0
 11
-0.0691045625
 21
4.7978926599
 31
0.0
  0
LINE
  5
46C
330
1F
100
AcDbEntity
  8
0
  6
Continuous
 62
     7
370
    25
100
AcDbLine
 10
0.0059055118
 20
4.8068967095
 30
0.0
 11
0.0059055118
 21
4.8021708091
 31
0.0
  0
LINE
  5
46D
330
1F
100
AcDbEntity
  8
0
  6
Continuous
 62
     7
370
    25
100
AcDbLine
 10
0.0059055118
 20
4.8021708091
 30
0.0
 11
0.0255905512
 21
4.7998078589
 31
0.0
  0
LINE
  5
46E
330
1F
100
AcDbEntity
  8
0
  6
Continuous
 62
     7
370
    25
100
AcDbLine
 10
0.0255905512
 20
4.7998078589
 30
0.0
 11
0.0452755906
 21
4.8021708091
 31
0.0
  0
LINE
  5
46F
330
1F
100
AcDbEntity
  8
0
  6
Continuous
 62
     7
370
    25
100
AcDbLine
 10
0.0452755906
 20
4.8021708091
 30
0.0
 11
0.0452755906
 21
4.8068967095
 31
0.0
  0
LINE
  5
470
330
1F
100
AcDbEntity
  8
0
  6
Continuous
 62
     7
370
    25
100
AcDbLine
 10
0.0452755906
 20
4.8068967095
 30
0.0
 11
0.0255905512
 21
4.8092596597
 31
0.0
  0
LINE
  5
471
330
1F
100
AcDbEntity
  8
0
  6
Continuous
 62
     7
370
    25
100
AcDbLine
 10
0.0255905512
 20
4.8092596597
 30
0.0
 11
0.0059055118
 21
4.8068967095
 31
0.0
  0
LINE
  5
472
330
1F
100
AcDbEntity
  8
0
  6
Continuous
 62
     7
370
    25
100
AcDbLine
 10
0.0809155862
 20
4.7978926599
 30
0.0
 11
0.0809155862
 21
4.7931667595
 31
0.0
  0
LINE
  5
473
330
1F
100
AcDbEntity
  8
0
  6
Continuous
 62
     7
370
    25
100
AcDbLine
 10
0.0809155862
 20
4.7931667595
 30
0.0
 11
0.1006006255
 21
4.7908038093
 31
0.0
  0
LINE
  5
474
330
1F
100
AcDbEntity
  8
0
  6
Continuous
 62
     7
370
    25
100
AcDbLine
 10
0.1006006255
 20
4.7908038093
 30
0.0
 11
0.1202856649
 21
4.7931667595
 31
0.0
  0
LINE
  5
475
330
1F
100
AcDbEntity
  8
0
  6
Continuous
 62
     7
370
    25
100
AcDbLine
 10
0.1202856649
 20
4.7931667595
 30
0.0
 11
0.1202856649
 21
4.7978926599
 31
0.0
  0
LINE
  5
476
330
1F
100
AcDbEntity
  8
0
  6
Continuous
 62
     7
370
    25
100
AcDbLine
 10
0.1202856649
 20
4.7978926599
 30
0.0
 11
0.1006006255
 21
4.8002556101
 31
0.0
  0
LINE
  5
477
330
1F
100
AcDbEntity
  8
0
  6
Continuous
 62
     7
370
    25
100
AcDbLine
 10
0.1006006255
 20
4.8002556101
 30
0.0
 11
0.0809155862
 21
4.7978926599
 31
0.0
  0
LINE
  5
478
330
1F
100
AcDbEntity
  8
0
  6
Continuous
 62
     7
370
    25
100
AcDbLine
 10
0.0809155862
 20
4.7798845607
 30
0.0
 11
0.0809155862
 21
4.7751586603
 31
0.0
  0
LINE
  5
479
330
1F
100
AcDbEntity
  8
0
  6
Continuous
 62
     7
370
    25
100
AcDbLine
 10
0.0809155862
 20
4.7751586603
 30
0.0
 11
0.1006006255
 21
4.7727957101
 31
0.0
  0
LINE
  5
47A
330
1F
100
AcDbEntity
  8
0
  6
Continuous
 62
     7
370
    25
100
AcDbLine
 10
0.1006006255
 20
4.7727957101
 30
0.0
 11
0.1202856649
 21
4.7751586603
 31
0.0
  0
LINE
  5
47B
330
1F
100
AcDbEntity
  8
0
  6
Continuous
 62
     7
370
    25
100
AcDbLine
 10
0.1202856649
 20
4.7751586603
 30
0.0
 11
0.1202856649
 21
4.7798845607
 31
0.0
  0
LINE
  5
47C
330
1F
100
AcDbEntity
  8
0
  6
Continuous
 62
     7
370
    25
100
AcDbLine
 10
0.1202856649
 20
4.7798845607
 30
0.0
 11
0.1006006255
 21
4.7822475109
 31
0.0
  0
LINE
  5
47D
330
1F
100
AcDbEntity
  8
0
  6
Continuous
 62
     7
370
    25
100
AcDbLine
 10
0.1006006255
 20
4.7822475109
 30
0.0
 11
0.0809155862
 21
4.7798845607
 31
0.0
  0
LINE
  5
47E
330
1F
100
AcDbEntity
  8
0
  6
Continuous
 62
     7
370
    25
100
AcDbLine
 10
0.0059055118
 20
4.7708805111
 30
0.0
 11
0.0059055118
 21
4.7661546107
 31
0.0
  0
LINE
  5
47F
330
1F
100
AcDbEntity
  8
0
  6
Continuous
 62
     7
370
    25
100
AcDbLine
 10
0.0059055118
 20
4.7661546107
 30
0.0
 11
0.0255905512
 21
4.7637916605
 31
0.0
  0
LINE
  5
480
330
1F
100
AcDbEntity
  8
0
  6
Continuous
 62
     7
370
    25
100
AcDbLine
 10
0.0255905512
 20
4.7637916605
 30
0.0
 11
0.0452755906
 21
4.7661546107
 31
0.0
  0
LINE
  5
481
330
1F
100
AcDbEntity
  8
0
  6
Continuous
 62
     7
370
    25
100
AcDbLine
 10
0.0452755906
 20
4.7661546107
 30
0.0
 11
0.0452755906
 21
4.7708805111
 31
0.0
  0
LINE
  5
482
330
1F
100
AcDbEntity
  8
0
  6
Continuous
 62
     7
370
    25
100
AcDbLine
 10
0.0452755906
 20
4.7708805111
 30
0.0
 11
0.0255905512
 21
4.7732434613
 31
0.0
  0
LINE
  5
483
330
1F
100
AcDbEntity
  8
0
  6
Continuous
 62
     7
370
    25
100
AcDbLine
 10
0.0255905512
 20
4.7732434613
 30
0.0
 11
0.0059055118
 21
4.7708805111
 31
0.0
  0
LINE
  5
484
330
1F
100
AcDbEntity
  8
0
  6
Continuous
 62
     7
370
    25
100
AcDbLine
 10
0.0059055118
 20
4.7888886103
 30
0.0
 11
0.0059055118
 21
4.7841627099
 31
0.0
  0
LINE
  5
485
330
1F
100
AcDbEntity
  8
0
  6
Continuous
 62
     7
370
    25
100
AcDbLine
 10
0.0059055118
 20
4.7841627099
 30
0.0
 11
0.0255905512
 21
4.7817997597
 31
0.0
  0
LINE
  5
486
330
1F
100
AcDbEntity
  8
0
  6
Continuous
 62
     7
370
    25
100
AcDbLine
 10
0.0255905512
 20
4.7817997597
 30
0.0
 11
0.0452755906
 21
4.7841627099
 31
0.0
  0
LINE
  5
487
330
1F
100
AcDbEntity
  8
0
  6
Continuous
 62
     7
370
    25
100
AcDbLine
 10
0.0452755906
 20
4.7841627099
 30
0.0
 11
0.0452755906
 21
4.7888886103
 31
0.0
  0
LINE
  5
488
330
1F
100
AcDbEntity
  8
0
  6
Continuous
 62
     7
370
    25
100
AcDbLine
 10
0.0452755906
 20
4.7888886103
 30
0.0
 11
0.0255905512
 21
4.7912515605
 31
0.0
  0
LINE
  5
489
330
1F
100
AcDbEntity
  8
0
  6
Continuous
 62
     7
370
    25
100
AcDbLine
 10
0.0255905512
 20
4.7912515605
 30
0.0
 11
0.0059055118
 21
4.7888886103
 31
0.0
  0
LINE
  5
48A
330
1F
100
AcDbEntity
  8
0
  6
Continuous
 62
     7
370
    25
100
AcDbLine
 10
-0.0454825153
 20
4.7528724119
 30
0.0
 11
-0.0454825153
 21
4.7481465115
 31
0.0
  0
LINE
  5
48B
330
1F
100
AcDbEntity
  8
0
  6
Continuous
 62
     7
370
    25
100
AcDbLine
 10
-0.0454825153
 20
4.7481465115
 30
0.0
 11
-0.0257974759
 21
4.7457835613
 31
0.0
  0
LINE
  5
48C
330
1F
100
AcDbEntity
  8
0
  6
Continuous
 62
     7
370
    25
100
AcDbLine
 10
-0.0257974759
 20
4.7457835613
 30
0.0
 11
-0.0061124365
 21
4.7481465115
 31
0.0
  0
LINE
  5
48D
330
1F
100
AcDbEntity
  8
0
  6
Continuous
 62
     7
370
    25
100
AcDbLine
 10
-0.0061124365
 20
4.7481465115
 30
0.0
 11
-0.0061124365
 21
4.7528724119
 31
0.0
  0
LINE
  5
48E
330
1F
100
AcDbEntity
  8
0
  6
Continuous
 62
     7
370
    25
100
AcDbLine
 10
-0.0061124365
 20
4.7528724119
 30
0.0
 11
-0.0257974759
 21
4.7552353621
 31
0.0
  0
LINE
  5
48F
330
1F
100
AcDbEntity
  8
0
  6
Continuous
 62
     7
370
    25
100
AcDbLine
 10
-0.0257974759
 20
4.7552353621
 30
0.0
 11
-0.0454825153
 21
4.7528724119
 31
0.0
  0
LINE
  5
490
330
1F
100
AcDbEntity
  8
0
  6
Continuous
 62
     7
370
    25
100
AcDbLine
 10
-0.1204925896
 20
4.7618764615
 30
0.0
 11
-0.1204925896
 21
4.7571505611
 31
0.0
  0
LINE
  5
491
330
1F
100
AcDbEntity
  8
0
  6
Continuous
 62
     7
370
    25
100
AcDbLine
 10
-0.1204925896
 20
4.7571505611
 30
0.0
 11
-0.1008075503
 21
4.7547876109
 31
0.0
  0
LINE
  5
492
330
1F
100
AcDbEntity
  8
0
  6
Continuous
 62
     7
370
    25
100
AcDbLine
 10
-0.1008075503
 20
4.7547876109
 30
0.0
 11
-0.0811225109
 21
4.7571505611
 31
0.0
  0
LINE
  5
493
330
1F
100
AcDbEntity
  8
0
  6
Continuous
 62
     7
370
    25
100
AcDbLine
 10
-0.0811225109
 20
4.7571505611
 30
0.0
 11
-0.0811225109
 21
4.7618764615
 31
0.0
  0
LINE
  5
494
330
1F
100
AcDbEntity
  8
0
  6
Continuous
 62
     7
370
    25
100
AcDbLine
 10
-0.0811225109
 20
4.7618764615
 30
0.0
 11
-0.1008075503
 21
4.7642394117
 31
0.0
  0
LINE
  5
495
330
1F
100
AcDbEntity
  8
0
  6
Continuous
 62
     7
370
    25
100
AcDbLine
 10
-0.1008075503
 20
4.7642394117
 30
0.0
 11
-0.1204925896
 21
4.7618764615
 31
0.0
  0
LINE
  5
496
330
1F
100
AcDbEntity
  8
0
  6
Continuous
 62
     7
370
    25
100
AcDbLine
 10
-0.195502664
 20
4.7708805111
 30
0.0
 11
-0.195502664
 21
4.7661546107
 31
0.0
  0
LINE
  5
497
330
1F
100
AcDbEntity
  8
0
  6
Continuous
 62
     7
370
    25
100
AcDbLine
 10
-0.195502664
 20
4.7661546107
 30
0.0
 11
-0.1758176246
 21
4.7637916605
 31
0.0
  0
LINE
  5
498
330
1F
100
AcDbEntity
  8
0
  6
Continuous
 62
     7
370
    25
100
AcDbLine
 10
-0.1758176246
 20
4.7637916605
 30
0.0
 11
-0.1561325852
 21
4.7661546107
 31
0.0
  0
LINE
  5
499
330
1F
100
AcDbEntity
  8
0
  6
Continuous
 62
     7
370
    25
100
AcDbLine
 10
-0.1561325852
 20
4.7661546107
 30
0.0
 11
-0.1561325852
 21
4.7708805111
 31
0.0
  0
LINE
  5
49A
330
1F
100
AcDbEntity
  8
0
  6
Continuous
 62
     7
370
    25
100
AcDbLine
 10
-0.1561325852
 20
4.7708805111
 30
0.0
 11
-0.1758176246
 21
4.7732434613
 31
0.0
  0
LINE
  5
49B
330
1F
100
AcDbEntity
  8
0
  6
Continuous
 62
     7
370
    25
100
AcDbLine
 10
-0.1758176246
 20
4.7732434613
 30
0.0
 11
-0.195502664
 21
4.7708805111
 31
0.0
  0
LINE
  5
49C
330
1F
100
AcDbEntity
  8
0
  6
Continuous
 62
     7
370
    25
100
AcDbLine
 10
-0.195502664
 20
4.7888886103
 30
0.0
 11
-0.195502664
 21
4.7841627099
 31
0.0
  0
LINE
  5
49D
330
1F
100
AcDbEntity
  8
0
  6
Continuous
 62
     7
370
    25
100
AcDbLine
 10
-0.195502664
 20
4.7841627099
 30
0.0
 11
-0.1758176246
 21
4.7817997597
 31
0.0
  0
LINE
  5
49E
330
1F
100
AcDbEntity
  8
0
  6
Continuous
 62
     7
370
    25
100
AcDbLine
 10
-0.1758176246
 20
4.7817997597
 30
0.0
 11
-0.1561325852
 21
4.7841627099
 31
0.0
  0
LINE
  5
49F
330
1F
100
AcDbEntity
  8
0
  6
Continuous
 62
     7
370
    25
100
AcDbLine
 10
-0.1561325852
 20
4.7841627099
 30
0.0
 11
-0.1561325852
 21
4.7888886103
 31
0.0
  0
LINE
  5
4A0
330
1F
100
AcDbEntity
  8
0
  6
Continuous
 62
     7
370
    25
100
AcDbLine
 10
-0.1561325852
 20
4.7888886103
 30
0.0
 11
-0.1758176246
 21
4.7912515605
 31
0.0
  0
LINE
  5
4A1
330
1F
100
AcDbEntity
  8
0
  6
Continuous
 62
     7
370
    25
100
AcDbLine
 10
-0.1758176246
 20
4.7912515605
 30
0.0
 11
-0.195502664
 21
4.7888886103
 31
0.0
  0
LINE
  5
4A2
330
1F
100
AcDbEntity
  8
0
  6
Continuous
 62
     7
370
    25
100
AcDbLine
 10
-0.1901554356
 20
4.8015289392
 30
0.0
 11
-0.1758176246
 21
4.7998078589
 31
0.0
  0
LINE
  5
4A3
330
1F
100
AcDbEntity
  8
0
  6
Continuous
 62
     7
370
    25
100
AcDbLine
 10
-0.1758176246
 20
4.7998078589
 30
0.0
 11
-0.1561325852
 21
4.8021708091
 31
0.0
  0
LINE
  5
4A4
330
1F
100
AcDbEntity
  8
0
  6
Continuous
 62
     7
370
    25
100
AcDbLine
 10
-0.1561325852
 20
4.8021708091
 30
0.0
 11
-0.1561325852
 21
4.8068967095
 31
0.0
  0
LINE
  5
4A5
330
1F
100
AcDbEntity
  8
0
  6
Continuous
 62
     7
370
    25
100
AcDbLine
 10
-0.1561325852
 20
4.8068967095
 30
0.0
 11
-0.1758176246
 21
4.8092596597
 31
0.0
  0
LINE
  5
4A6
330
1F
100
AcDbEntity
  8
0
  6
Continuous
 62
     7
370
    25
100
AcDbLine
 10
-0.1758176246
 20
4.8092596597
 30
0.0
 11
-0.1893383279
 21
4.8076366633
 31
0.0
  0
LINE
  5
4A7
330
1F
100
AcDbEntity
  8
0
  6
Continuous
 62
     7
370
    25
100
AcDbLine
 10
-0.0454825153
 20
4.7708805111
 30
0.0
 11
-0.0454825153
 21
4.7661546107
 31
0.0
  0
LINE
  5
4A8
330
1F
100
AcDbEntity
  8
0
  6
Continuous
 62
     7
370
    25
100
AcDbLine
 10
-0.0454825153
 20
4.7661546107
 30
0.0
 11
-0.0257974759
 21
4.7637916605
 31
0.0
  0
LINE
  5
4A9
330
1F
100
AcDbEntity
  8
0
  6
Continuous
 62
     7
370
    25
100
AcDbLine
 10
-0.0257974759
 20
4.7637916605
 30
0.0
 11
-0.0061124365
 21
4.7661546107
 31
0.0
  0
LINE
  5
4AA
330
1F
100
AcDbEntity
  8
0
  6
Continuous
 62
     7
370
    25
100
AcDbLine
 10
-0.0061124365
 20
4.7661546107
 30
0.0
 11
-0.0061124365
 21
4.7708805111
 31
0.0
  0
LINE
  5
4AB
330
1F
100
AcDbEntity
  8
0
  6
Continuous
 62
     7
370
    25
100
AcDbLine
 10
-0.0061124365
 20
4.7708805111
 30
0.0
 11
-0.0257974759
 21
4.7732434613
 31
0.0
  0
LINE
  5
4AC
330
1F
100
AcDbEntity
  8
0
  6
Continuous
 62
     7
370
    25
100
AcDbLine
 10
-0.0257974759
 20
4.7732434613
 30
0.0
 11
-0.0454825153
 21
4.7708805111
 31
0.0
  0
LINE
  5
4AD
330
1F
100
AcDbEntity
  8
0
  6
Continuous
 62
     7
370
    25
100
AcDbLine
 10
-0.1204925896
 20
4.7798845607
 30
0.0
 11
-0.1204925896
 21
4.7751586603
 31
0.0
  0
LINE
  5
4AE
330
1F
100
AcDbEntity
  8
0
  6
Continuous
 62
     7
370
    25
100
AcDbLine
 10
-0.1204925896
 20
4.7751586603
 30
0.0
 11
-0.1008075503
 21
4.7727957101
 31
0.0
  0
LINE
  5
4AF
330
1F
100
AcDbEntity
  8
0
  6
Continuous
 62
     7
370
    25
100
AcDbLine
 10
-0.1008075503
 20
4.7727957101
 30
0.0
 11
-0.0811225109
 21
4.7751586603
 31
0.0
  0
LINE
  5
4B0
330
1F
100
AcDbEntity
  8
0
  6
Continuous
 62
     7
370
    25
100
AcDbLine
 10
-0.0811225109
 20
4.7751586603
 30
0.0
 11
-0.0811225109
 21
4.7798845607
 31
0.0
  0
LINE
  5
4B1
330
1F
100
AcDbEntity
  8
0
  6
Continuous
 62
     7
370
    25
100
AcDbLine
 10
-0.0811225109
 20
4.7798845607
 30
0.0
 11
-0.1008075503
 21
4.7822475109
 31
0.0
  0
LINE
  5
4B2
330
1F
100
AcDbEntity
  8
0
  6
Continuous
 62
     7
370
    25
100
AcDbLine
 10
-0.1008075503
 20
4.7822475109
 30
0.0
 11
-0.1204925896
 21
4.7798845607
 31
0.0
  0
LINE
  5
4B3
330
1F
100
AcDbEntity
  8
0
  6
Continuous
 62
     7
370
    25
100
AcDbLine
 10
-0.1204925896
 20
4.8159007591
 30
0.0
 11
-0.1204925896
 21
4.8111748587
 31
0.0
  0
LINE
  5
4B4
330
1F
100
AcDbEntity
  8
0
  6
Continuous
 62
     7
370
    25
100
AcDbLine
 10
-0.1204925896
 20
4.8111748587
 30
0.0
 11
-0.1008075503
 21
4.8088119085
 31
0.0
  0
LINE
  5
4B5
330
1F
100
AcDbEntity
  8
0
  6
Continuous
 62
     7
370
    25
100
AcDbLine
 10
-0.1008075503
 20
4.8088119085
 30
0.0
 11
-0.0811225109
 21
4.8111748587
 31
0.0
  0
LINE
  5
4B6
330
1F
100
AcDbEntity
  8
0
  6
Continuous
 62
     7
370
    25
100
AcDbLine
 10
-0.0811225109
 20
4.8111748587
 30
0.0
 11
-0.0811225109
 21
4.8159007591
 31
0.0
  0
LINE
  5
4B7
330
1F
100
AcDbEntity
  8
0
  6
Continuous
 62
     7
370
    25
100
AcDbLine
 10
-0.0811225109
 20
4.8159007591
 30
0.0
 11
-0.096827964
 21
4.8177860083
 31
0.0
  0
LINE
  5
4B8
330
1F
100
AcDbEntity
  8
0
  6
Continuous
 62
     7
370
    25
100
AcDbLine
 10
0.1795477077
 20
4.7978926599
 30
0.0
 11
0.1795477077
 21
4.7931667595
 31
0.0
  0
LINE
  5
4B9
330
1F
100
AcDbEntity
  8
0
  6
Continuous
 62
     7
370
    25
100
AcDbLine
 10
0.1795477077
 20
4.7931667595
 30
0.0
 11
0.1992327471
 21
4.7908038093
 31
0.0
  0
LINE
  5
4BA
330
1F
100
AcDbEntity
  8
0
  6
Continuous
 62
     7
370
    25
100
AcDbLine
 10
0.1992327471
 20
4.7908038093
 30
0.0
 11
0.2189177865
 21
4.7931667595
 31
0.0
  0
LINE
  5
4BB
330
1F
100
AcDbEntity
  8
0
  6
Continuous
 62
     7
370
    25
100
AcDbLine
 10
0.2189177865
 20
4.7931667595
 30
0.0
 11
0.2189177865
 21
4.7936974633
 31
0.0
  0
LINE
  5
4BC
330
1F
100
AcDbEntity
  8
0
  6
Continuous
 62
     7
370
    25
100
AcDbLine
 10
0.19174371
 20
4.799356642
 30
0.0
 11
0.1795477077
 21
4.7978926599
 31
0.0
  0
LINE
  5
4BD
330
1F
100
AcDbEntity
  8
0
  6
Continuous
 62
     7
370
    25
100
AcDbLine
 10
0.1795477077
 20
4.7798845607
 30
0.0
 11
0.1795477077
 21
4.7751586603
 31
0.0
  0
LINE
  5
4BE
330
1F
100
AcDbEntity
  8
0
  6
Continuous
 62
     7
370
    25
100
AcDbLine
 10
0.1795477077
 20
4.7751586603
 30
0.0
 11
0.1992327471
 21
4.7727957101
 31
0.0
  0
LINE
  5
4BF
330
1F
100
AcDbEntity
  8
0
  6
Continuous
 62
     7
370
    25
100
AcDbLine
 10
0.1992327471
 20
4.7727957101
 30
0.0
 11
0.2189177865
 21
4.7751586603
 31
0.0
  0
LINE
  5
4C0
330
1F
100
AcDbEntity
  8
0
  6
Continuous
 62
     7
370
    25
100
AcDbLine
 10
0.2189177865
 20
4.7751586603
 30
0.0
 11
0.2189177865
 21
4.7798845607
 31
0.0
  0
LINE
  5
4C1
330
1F
100
AcDbEntity
  8
0
  6
Continuous
 62
     7
370
    25
100
AcDbLine
 10
0.2189177865
 20
4.7798845607
 30
0.0
 11
0.1992327471
 21
4.7822475109
 31
0.0
  0
LINE
  5
4C2
330
1F
100
AcDbEntity
  8
0
  6
Continuous
 62
     7
370
    25
100
AcDbLine
 10
0.1992327471
 20
4.7822475109
 30
0.0
 11
0.1795477077
 21
4.7798845607
 31
0.0
  0
LINE
  5
4C3
330
1F
100
AcDbEntity
  8
0
  6
Continuous
 62
     7
370
    25
100
AcDbLine
 10
0.1045376334
 20
4.7708805111
 30
0.0
 11
0.1045376334
 21
4.7661546107
 31
0.0
  0
LINE
  5
4C4
330
1F
100
AcDbEntity
  8
0
  6
Continuous
 62
     7
370
    25
100
AcDbLine
 10
0.1045376334
 20
4.7661546107
 30
0.0
 11
0.1242226728
 21
4.7637916605
 31
0.0
  0
LINE
  5
4C5
330
1F
100
AcDbEntity
  8
0
  6
Continuous
 62
     7
370
    25
100
AcDbLine
 10
0.1242226728
 20
4.7637916605
 30
0.0
 11
0.1439077121
 21
4.7661546107
 31
0.0
  0
LINE
  5
4C6
330
1F
100
AcDbEntity
  8
0
  6
Continuous
 62
     7
370
    25
100
AcDbLine
 10
0.1439077121
 20
4.7661546107
 30
0.0
 11
0.1439077121
 21
4.7708805111
 31
0.0
  0
LINE
  5
4C7
330
1F
100
AcDbEntity
  8
0
  6
Continuous
 62
     7
370
    25
100
AcDbLine
 10
0.1439077121
 20
4.7708805111
 30
0.0
 11
0.1242226728
 21
4.7732434613
 31
0.0
  0
LINE
  5
4C8
330
1F
100
AcDbEntity
  8
0
  6
Continuous
 62
     7
370
    25
100
AcDbLine
 10
0.1242226728
 20
4.7732434613
 30
0.0
 11
0.1045376334
 21
4.7708805111
 31
0.0
  0
LINE
  5
4C9
330
1F
100
AcDbEntity
  8
0
  6
Continuous
 62
     7
370
    25
100
AcDbLine
 10
0.0295275591
 20
4.7618764615
 30
0.0
 11
0.0295275591
 21
4.7571505611
 31
0.0
  0
LINE
  5
4CA
330
1F
100
AcDbEntity
  8
0
  6
Continuous
 62
     7
370
    25
100
AcDbLine
 10
0.0295275591
 20
4.7571505611
 30
0.0
 11
0.0492125984
 21
4.7547876109
 31
0.0
  0
LINE
  5
4CB
330
1F
100
AcDbEntity
  8
0
  6
Continuous
 62
     7
370
    25
100
AcDbLine
 10
0.0492125984
 20
4.7547876109
 30
0.0
 11
0.0688976378
 21
4.7571505611
 31
0.0
  0
LINE
  5
4CC
330
1F
100
AcDbEntity
  8
0
  6
Continuous
 62
     7
370
    25
100
AcDbLine
 10
0.0688976378
 20
4.7571505611
 30
0.0
 11
0.0688976378
 21
4.7618764615
 31
0.0
  0
LINE
  5
4CD
330
1F
100
AcDbEntity
  8
0
  6
Continuous
 62
     7
370
    25
100
AcDbLine
 10
0.0688976378
 20
4.7618764615
 30
0.0
 11
0.0492125984
 21
4.7642394117
 31
0.0
  0
LINE
  5
4CE
330
1F
100
AcDbEntity
  8
0
  6
Continuous
 62
     7
370
    25
100
AcDbLine
 10
0.0492125984
 20
4.7642394117
 30
0.0
 11
0.0295275591
 21
4.7618764615
 31
0.0
  0
LINE
  5
4CF
330
1F
100
AcDbEntity
  8
0
  6
Continuous
 62
     7
370
    25
100
AcDbLine
 10
-0.0454825153
 20
4.7888886103
 30
0.0
 11
-0.0454825153
 21
4.7841627099
 31
0.0
  0
LINE
  5
4D0
330
1F
100
AcDbEntity
  8
0
  6
Continuous
 62
     7
370
    25
100
AcDbLine
 10
-0.0454825153
 20
4.7841627099
 30
0.0
 11
-0.0257974759
 21
4.7817997597
 31
0.0
  0
LINE
  5
4D1
330
1F
100
AcDbEntity
  8
0
  6
Continuous
 62
     7
370
    25
100
AcDbLine
 10
-0.0257974759
 20
4.7817997597
 30
0.0
 11
-0.0061124365
 21
4.7841627099
 31
0.0
  0
LINE
  5
4D2
330
1F
100
AcDbEntity
  8
0
  6
Continuous
 62
     7
370
    25
100
AcDbLine
 10
-0.0061124365
 20
4.7841627099
 30
0.0
 11
-0.0061124365
 21
4.7888886103
 31
0.0
  0
LINE
  5
4D3
330
1F
100
AcDbEntity
  8
0
  6
Continuous
 62
     7
370
    25
100
AcDbLine
 10
-0.0061124365
 20
4.7888886103
 30
0.0
 11
-0.0257974759
 21
4.7912515605
 31
0.0
  0
LINE
  5
4D4
330
1F
100
AcDbEntity
  8
0
  6
Continuous
 62
     7
370
    25
100
AcDbLine
 10
-0.0257974759
 20
4.7912515605
 30
0.0
 11
-0.0454825153
 21
4.7888886103
 31
0.0
  0
LINE
  5
4D5
330
1F
100
AcDbEntity
  8
0
  6
Continuous
 62
     7
370
    25
100
AcDbLine
 10
-0.0454825153
 20
4.8068967095
 30
0.0
 11
-0.0454825153
 21
4.8021708091
 31
0.0
  0
LINE
  5
4D6
330
1F
100
AcDbEntity
  8
0
  6
Continuous
 62
     7
370
    25
100
AcDbLine
 10
-0.0454825153
 20
4.8021708091
 30
0.0
 11
-0.0257974759
 21
4.7998078589
 31
0.0
  0
LINE
  5
4D7
330
1F
100
AcDbEntity
  8
0
  6
Continuous
 62
     7
370
    25
100
AcDbLine
 10
-0.0257974759
 20
4.7998078589
 30
0.0
 11
-0.0061124365
 21
4.8021708091
 31
0.0
  0
LINE
  5
4D8
330
1F
100
AcDbEntity
  8
0
  6
Continuous
 62
     7
370
    25
100
AcDbLine
 10
-0.0061124365
 20
4.8021708091
 30
0.0
 11
-0.0061124365
 21
4.8068967095
 31
0.0
  0
LINE
  5
4D9
330
1F
100
AcDbEntity
  8
0
  6
Continuous
 62
     7
370
    25
100
AcDbLine
 10
-0.0061124365
 20
4.8068967095
 30
0.0
 11
-0.0257974759
 21
4.8092596597
 31
0.0
  0
LINE
  5
4DA
330
1F
100
AcDbEntity
  8
0
  6
Continuous
 62
     7
370
    25
100
AcDbLine
 10
-0.0257974759
 20
4.8092596597
 30
0.0
 11
-0.0454825153
 21
4.8068967095
 31
0.0
  0
LINE
  5
4DB
330
1F
100
AcDbEntity
  8
0
  6
Continuous
 62
     7
370
    25
100
AcDbLine
 10
0.1045376334
 20
4.8021708091
 30
0.0
 11
0.1242226728
 21
4.7998078589
 31
0.0
  0
LINE
  5
4DC
330
1F
100
AcDbEntity
  8
0
  6
Continuous
 62
     7
370
    25
100
AcDbLine
 10
0.1242226728
 20
4.7998078589
 30
0.0
 11
0.1439077121
 21
4.8021708091
 31
0.0
  0
LINE
  5
4DD
330
1F
100
AcDbEntity
  8
0
  6
Continuous
 62
     7
370
    25
100
AcDbLine
 10
0.1439077121
 20
4.8021708091
 30
0.0
 11
0.1439077121
 21
4.8068967095
 31
0.0
  0
LINE
  5
4DE
330
1F
100
AcDbEntity
  8
0
  6
Continuous
 62
     7
370
    25
100
AcDbLine
 10
0.1439077121
 20
4.8068967095
 30
0.0
 11
0.1242226728
 21
4.8092596597
 31
0.0
  0
LINE
  5
4DF
330
1F
100
AcDbEntity
  8
0
  6
Continuous
 62
     7
370
    25
100
AcDbLine
 10
0.1242226728
 20
4.8092596597
 30
0.0
 11
0.1045376334
 21
4.8068967095
 31
0.0
  0
LINE
  5
4E0
330
1F
100
AcDbEntity
  8
0
  6
Continuous
 62
     7
370
    25
100
AcDbLine
 10
0.1045376334
 20
4.8068967095
 30
0.0
 11
0.1045376334
 21
4.8021708091
 31
0.0
  0
LINE
  5
4E1
330
1F
100
AcDbEntity
  8
0
  6
Continuous
 62
     7
370
    25
100
AcDbLine
 10
0.1045376334
 20
4.7888886103
 30
0.0
 11
0.1045376334
 21
4.7841627099
 31
0.0
  0
LINE
  5
4E2
330
1F
100
AcDbEntity
  8
0
  6
Continuous
 62
     7
370
    25
100
AcDbLine
 10
0.1045376334
 20
4.7841627099
 30
0.0
 11
0.1242226728
 21
4.7817997597
 31
0.0
  0
LINE
  5
4E3
330
1F
100
AcDbEntity
  8
0
  6
Continuous
 62
     7
370
    25
100
AcDbLine
 10
0.1242226728
 20
4.7817997597
 30
0.0
 11
0.1439077121
 21
4.7841627099
 31
0.0
  0
LINE
  5
4E4
330
1F
100
AcDbEntity
  8
0
  6
Continuous
 62
     7
370
    25
100
AcDbLine
 10
0.1439077121
 20
4.7841627099
 30
0.0
 11
0.1439077121
 21
4.7888886103
 31
0.0
  0
LINE
  5
4E5
330
1F
100
AcDbEntity
  8
0
  6
Continuous
 62
     7
370
    25
100
AcDbLine
 10
0.1439077121
 20
4.7888886103
 30
0.0
 11
0.1242226728
 21
4.7912515605
 31
0.0
  0
LINE
  5
4E6
330
1F
100
AcDbEntity
  8
0
  6
Continuous
 62
     7
370
    25
100
AcDbLine
 10
0.1242226728
 20
4.7912515605
 30
0.0
 11
0.1045376334
 21
4.7888886103
 31
0.0
  0
LINE
  5
4E7
330
1F
100
AcDbEntity
  8
0
  6
Continuous
 62
     7
370
    25
100
AcDbLine
 10
0.0295275591
 20
4.7978926599
 30
0.0
 11
0.0295275591
 21
4.7931667595
 31
0.0
  0
LINE
  5
4E8
330
1F
100
AcDbEntity
  8
0
  6
Continuous
 62
     7
370
    25
100
AcDbLine
 10
0.0295275591
 20
4.7931667595
 30
0.0
 11
0.0492125984
 21
4.7908038093
 31
0.0
  0
LINE
  5
4E9
330
1F
100
AcDbEntity
  8
0
  6
Continuous
 62
     7
370
    25
100
AcDbLine
 10
0.0492125984
 20
4.7908038093
 30
0.0
 11
0.0688976378
 21
4.7931667595
 31
0.0
  0
LINE
  5
4EA
330
1F
100
AcDbEntity
  8
0
  6
Continuous
 62
     7
370
    25
100
AcDbLine
 10
0.0688976378
 20
4.7931667595
 30
0.0
 11
0.0688976378
 21
4.7978926599
 31
0.0
  0
LINE
  5
4EB
330
1F
100
AcDbEntity
  8
0
  6
Continuous
 62
     7
370
    25
100
AcDbLine
 10
0.0688976378
 20
4.7978926599
 30
0.0
 11
0.0492125984
 21
4.8002556101
 31
0.0
  0
LINE
  5
4EC
330
1F
100
AcDbEntity
  8
0
  6
Continuous
 62
     7
370
    25
100
AcDbLine
 10
0.0492125984
 20
4.8002556101
 30
0.0
 11
0.0295275591
 21
4.7978926599
 31
0.0
  0
LINE
  5
4ED
330
1F
100
AcDbEntity
  8
0
  6
Continuous
 62
     7
370
    25
100
AcDbLine
 10
-0.0946951137
 20
4.7528724119
 30
0.0
 11
-0.0946951137
 21
4.7481465115
 31
0.0
  0
LINE
  5
4EE
330
1F
100
AcDbEntity
  8
0
  6
Continuous
 62
     7
370
    25
100
AcDbLine
 10
-0.0946951137
 20
4.7481465115
 30
0.0
 11
-0.0750100743
 21
4.7457835613
 31
0.0
  0
LINE
  5
4EF
330
1F
100
AcDbEntity
  8
0
  6
Continuous
 62
     7
370
    25
100
AcDbLine
 10
-0.0750100743
 20
4.7457835613
 30
0.0
 11
-0.055325035
 21
4.7481465115
 31
0.0
  0
LINE
  5
4F0
330
1F
100
AcDbEntity
  8
0
  6
Continuous
 62
     7
370
    25
100
AcDbLine
 10
-0.055325035
 20
4.7481465115
 30
0.0
 11
-0.055325035
 21
4.7528724119
 31
0.0
  0
LINE
  5
4F1
330
1F
100
AcDbEntity
  8
0
  6
Continuous
 62
     7
370
    25
100
AcDbLine
 10
-0.055325035
 20
4.7528724119
 30
0.0
 11
-0.0750100743
 21
4.7552353621
 31
0.0
  0
LINE
  5
4F2
330
1F
100
AcDbEntity
  8
0
  6
Continuous
 62
     7
370
    25
100
AcDbLine
 10
-0.0750100743
 20
4.7552353621
 30
0.0
 11
-0.0946951137
 21
4.7528724119
 31
0.0
  0
LINE
  5
4F3
330
1F
100
AcDbEntity
  8
0
  6
Continuous
 62
     7
370
    25
100
AcDbLine
 10
-0.1697051881
 20
4.7618764615
 30
0.0
 11
-0.1697051881
 21
4.7571505611
 31
0.0
  0
LINE
  5
4F4
330
1F
100
AcDbEntity
  8
0
  6
Continuous
 62
     7
370
    25
100
AcDbLine
 10
-0.1697051881
 20
4.7571505611
 30
0.0
 11
-0.1500201487
 21
4.7547876109
 31
0.0
  0
LINE
  5
4F5
330
1F
100
AcDbEntity
  8
0
  6
Continuous
 62
     7
370
    25
100
AcDbLine
 10
-0.1500201487
 20
4.7547876109
 30
0.0
 11
-0.1303351093
 21
4.7571505611
 31
0.0
  0
LINE
  5
4F6
330
1F
100
AcDbEntity
  8
0
  6
Continuous
 62
     7
370
    25
100
AcDbLine
 10
-0.1303351093
 20
4.7571505611
 30
0.0
 11
-0.1303351093
 21
4.7618764615
 31
0.0
  0
LINE
  5
4F7
330
1F
100
AcDbEntity
  8
0
  6
Continuous
 62
     7
370
    25
100
AcDbLine
 10
-0.1303351093
 20
4.7618764615
 30
0.0
 11
-0.1500201487
 21
4.7642394117
 31
0.0
  0
LINE
  5
4F8
330
1F
100
AcDbEntity
  8
0
  6
Continuous
 62
     7
370
    25
100
AcDbLine
 10
-0.1500201487
 20
4.7642394117
 30
0.0
 11
-0.1697051881
 21
4.7618764615
 31
0.0
  0
LINE
  5
4F9
330
1F
100
AcDbEntity
  8
0
  6
Continuous
 62
     7
370
    25
100
AcDbLine
 10
-0.2447152624
 20
4.7884716901
 30
0.0
 11
-0.2447152624
 21
4.7841627099
 31
0.0
  0
LINE
  5
4FA
330
1F
100
AcDbEntity
  8
0
  6
Continuous
 62
     7
370
    25
100
AcDbLine
 10
-0.2447152624
 20
4.7841627099
 30
0.0
 11
-0.225030223
 21
4.7817997597
 31
0.0
  0
LINE
  5
4FB
330
1F
100
AcDbEntity
  8
0
  6
Continuous
 62
     7
370
    25
100
AcDbLine
 10
-0.225030223
 20
4.7817997597
 30
0.0
 11
-0.2053451837
 21
4.7841627099
 31
0.0
  0
LINE
  5
4FC
330
1F
100
AcDbEntity
  8
0
  6
Continuous
 62
     7
370
    25
100
AcDbLine
 10
-0.2053451837
 20
4.7841627099
 30
0.0
 11
-0.2053451837
 21
4.7888886103
 31
0.0
  0
LINE
  5
4FD
330
1F
100
AcDbEntity
  8
0
  6
Continuous
 62
     7
370
    25
100
AcDbLine
 10
-0.2053451837
 20
4.7888886103
 30
0.0
 11
-0.225030223
 21
4.7912515605
 31
0.0
  0
LINE
  5
4FE
330
1F
100
AcDbEntity
  8
0
  6
Continuous
 62
     7
370
    25
100
AcDbLine
 10
-0.225030223
 20
4.7912515605
 30
0.0
 11
-0.2406151541
 21
4.7893807786
 31
0.0
  0
LINE
  5
4FF
330
1F
100
AcDbEntity
  8
0
  6
Continuous
 62
     7
370
    25
100
AcDbLine
 10
0.2053451837
 20
4.7888886103
 30
0.0
 11
0.2053451837
 21
4.7841627099
 31
0.0
  0
LINE
  5
500
330
1F
100
AcDbEntity
  8
0
  6
Continuous
 62
     7
370
    25
100
AcDbLine
 10
0.2053451837
 20
4.7841627099
 30
0.0
 11
0.225030223
 21
4.7817997597
 31
0.0
  0
LINE
  5
501
330
1F
100
AcDbEntity
  8
0
  6
Continuous
 62
     7
370
    25
100
AcDbLine
 10
0.225030223
 20
4.7817997597
 30
0.0
 11
0.2447152624
 21
4.7841627099
 31
0.0
  0
LINE
  5
502
330
1F
100
AcDbEntity
  8
0
  6
Continuous
 62
     7
370
    25
100
AcDbLine
 10
0.2447152624
 20
4.7841627099
 30
0.0
 11
0.2447152624
 21
4.7884716901
 31
0.0
  0
LINE
  5
503
330
1F
100
AcDbEntity
  8
0
  6
Continuous
 62
     7
370
    25
100
AcDbLine
 10
0.2406151541
 20
4.7893807786
 30
0.0
 11
0.225030223
 21
4.7912515605
 31
0.0
  0
LINE
  5
504
330
1F
100
AcDbEntity
  8
0
  6
Continuous
 62
     7
370
    25
100
AcDbLine
 10
0.225030223
 20
4.7912515605
 30
0.0
 11
0.2053451837
 21
4.7888886103
 31
0.0
  0
LINE
  5
505
330
1F
100
AcDbEntity
  8
0
  6
Continuous
 62
     7
370
    25
100
AcDbLine
 10
0.1303351093
 20
4.7618764615
 30
0.0
 11
0.1303351093
 21
4.7571505611
 31
0.0
  0
LINE
  5
506
330
1F
100
AcDbEntity
  8
0
  6
Continuous
 62
     7
370
    25
100
AcDbLine
 10
0.1303351093
 20
4.7571505611
 30
0.0
 11
0.1500201487
 21
4.7547876109
 31
0.0
  0
LINE
  5
507
330
1F
100
AcDbEntity
  8
0
  6
Continuous
 62
     7
370
    25
100
AcDbLine
 10
0.1500201487
 20
4.7547876109
 30
0.0
 11
0.1697051881
 21
4.7571505611
 31
0.0
  0
LINE
  5
508
330
1F
100
AcDbEntity
  8
0
  6
Continuous
 62
     7
370
    25
100
AcDbLine
 10
0.1697051881
 20
4.7571505611
 30
0.0
 11
0.1697051881
 21
4.7618764615
 31
0.0
  0
LINE
  5
509
330
1F
100
AcDbEntity
  8
0
  6
Continuous
 62
     7
370
    25
100
AcDbLine
 10
0.1697051881
 20
4.7618764615
 30
0.0
 11
0.1500201487
 21
4.7642394117
 31
0.0
  0
LINE
  5
50A
330
1F
100
AcDbEntity
  8
0
  6
Continuous
 62
     7
370
    25
100
AcDbLine
 10
0.1500201487
 20
4.7642394117
 30
0.0
 11
0.1303351093
 21
4.7618764615
 31
0.0
  0
LINE
  5
50B
330
1F
100
AcDbEntity
  8
0
  6
Continuous
 62
     7
370
    25
100
AcDbLine
 10
0.055325035
 20
4.7528724119
 30
0.0
 11
0.055325035
 21
4.7481465115
 31
0.0
  0
LINE
  5
50C
330
1F
100
AcDbEntity
  8
0
  6
Continuous
 62
     7
370
    25
100
AcDbLine
 10
0.055325035
 20
4.7481465115
 30
0.0
 11
0.0750100743
 21
4.7457835613
 31
0.0
  0
LINE
  5
50D
330
1F
100
AcDbEntity
  8
0
  6
Continuous
 62
     7
370
    25
100
AcDbLine
 10
0.0750100743
 20
4.7457835613
 30
0.0
 11
0.0946951137
 21
4.7481465115
 31
0.0
  0
LINE
  5
50E
330
1F
100
AcDbEntity
  8
0
  6
Continuous
 62
     7
370
    25
100
AcDbLine
 10
0.0946951137
 20
4.7481465115
 30
0.0
 11
0.0946951137
 21
4.7528724119
 31
0.0
  0
LINE
  5
50F
330
1F
100
AcDbEntity
  8
0
  6
Continuous
 62
     7
370
    25
100
AcDbLine
 10
0.0946951137
 20
4.7528724119
 30
0.0
 11
0.0750100743
 21
4.7552353621
 31
0.0
  0
LINE
  5
510
330
1F
100
AcDbEntity
  8
0
  6
Continuous
 62
     7
370
    25
100
AcDbLine
 10
0.0750100743
 20
4.7552353621
 30
0.0
 11
0.055325035
 21
4.7528724119
 31
0.0
  0
LINE
  5
511
330
1F
100
AcDbEntity
  8
0
  6
Continuous
 62
     7
370
    25
100
AcDbLine
 10
-0.0946951137
 20
4.7708805111
 30
0.0
 11
-0.0946951137
 21
4.7661546107
 31
0.0
  0
LINE
  5
512
330
1F
100
AcDbEntity
  8
0
  6
Continuous
 62
     7
370
    25
100
AcDbLine
 10
-0.0946951137
 20
4.7661546107
 30
0.0
 11
-0.0750100743
 21
4.7637916605
 31
0.0
  0
LINE
  5
513
330
1F
100
AcDbEntity
  8
0
  6
Continuous
 62
     7
370
    25
100
AcDbLine
 10
-0.0750100743
 20
4.7637916605
 30
0.0
 11
-0.055325035
 21
4.7661546107
 31
0.0
  0
LINE
  5
514
330
1F
100
AcDbEntity
  8
0
  6
Continuous
 62
     7
370
    25
100
AcDbLine
 10
-0.055325035
 20
4.7661546107
 30
0.0
 11
-0.055325035
 21
4.7708805111
 31
0.0
  0
LINE
  5
515
330
1F
100
AcDbEntity
  8
0
  6
Continuous
 62
     7
370
    25
100
AcDbLine
 10
-0.055325035
 20
4.7708805111
 30
0.0
 11
-0.0750100743
 21
4.7732434613
 31
0.0
  0
LINE
  5
516
330
1F
100
AcDbEntity
  8
0
  6
Continuous
 62
     7
370
    25
100
AcDbLine
 10
-0.0750100743
 20
4.7732434613
 30
0.0
 11
-0.0946951137
 21
4.7708805111
 31
0.0
  0
LINE
  5
517
330
1F
100
AcDbEntity
  8
0
  6
Continuous
 62
     7
370
    25
100
AcDbLine
 10
-0.1697051881
 20
4.7798845607
 30
0.0
 11
-0.1697051881
 21
4.7751586603
 31
0.0
  0
LINE
  5
518
330
1F
100
AcDbEntity
  8
0
  6
Continuous
 62
     7
370
    25
100
AcDbLine
 10
-0.1697051881
 20
4.7751586603
 30
0.0
 11
-0.1500201487
 21
4.7727957101
 31
0.0
  0
LINE
  5
519
330
1F
100
AcDbEntity
  8
0
  6
Continuous
 62
     7
370
    25
100
AcDbLine
 10
-0.1500201487
 20
4.7727957101
 30
0.0
 11
-0.1303351093
 21
4.7751586603
 31
0.0
  0
LINE
  5
51A
330
1F
100
AcDbEntity
  8
0
  6
Continuous
 62
     7
370
    25
100
AcDbLine
 10
-0.1303351093
 20
4.7751586603
 30
0.0
 11
-0.1303351093
 21
4.7798845607
 31
0.0
  0
LINE
  5
51B
330
1F
100
AcDbEntity
  8
0
  6
Continuous
 62
     7
370
    25
100
AcDbLine
 10
-0.1303351093
 20
4.7798845607
 30
0.0
 11
-0.1500201487
 21
4.7822475109
 31
0.0
  0
LINE
  5
51C
330
1F
100
AcDbEntity
  8
0
  6
Continuous
 62
     7
370
    25
100
AcDbLine
 10
-0.1500201487
 20
4.7822475109
 30
0.0
 11
-0.1697051881
 21
4.7798845607
 31
0.0
  0
LINE
  5
51D
330
1F
100
AcDbEntity
  8
0
  6
Continuous
 62
     7
370
    25
100
AcDbLine
 10
-0.1697051881
 20
4.7978926599
 30
0.0
 11
-0.1697051881
 21
4.7931667595
 31
0.0
  0
LINE
  5
51E
330
1F
100
AcDbEntity
  8
0
  6
Continuous
 62
     7
370
    25
100
AcDbLine
 10
-0.1697051881
 20
4.7931667595
 30
0.0
 11
-0.1500201487
 21
4.7908038093
 31
0.0
  0
LINE
  5
51F
330
1F
100
AcDbEntity
  8
0
  6
Continuous
 62
     7
370
    25
100
AcDbLine
 10
-0.1500201487
 20
4.7908038093
 30
0.0
 11
-0.1303351093
 21
4.7931667595
 31
0.0
  0
LINE
  5
520
330
1F
100
AcDbEntity
  8
0
  6
Continuous
 62
     7
370
    25
100
AcDbLine
 10
-0.1303351093
 20
4.7931667595
 30
0.0
 11
-0.1303351093
 21
4.7978926599
 31
0.0
  0
LINE
  5
521
330
1F
100
AcDbEntity
  8
0
  6
Continuous
 62
     7
370
    25
100
AcDbLine
 10
-0.1303351093
 20
4.7978926599
 30
0.0
 11
-0.1500201487
 21
4.8002556101
 31
0.0
  0
LINE
  5
522
330
1F
100
AcDbEntity
  8
0
  6
Continuous
 62
     7
370
    25
100
AcDbLine
 10
-0.1500201487
 20
4.8002556101
 30
0.0
 11
-0.1697051881
 21
4.7978926599
 31
0.0
  0
LINE
  5
523
330
1F
100
AcDbEntity
  8
0
  6
Continuous
 62
     7
370
    25
100
AcDbLine
 10
-0.1697051881
 20
4.8120589872
 30
0.0
 11
-0.1697051881
 21
4.8111748587
 31
0.0
  0
LINE
  5
524
330
1F
100
AcDbEntity
  8
0
  6
Continuous
 62
     7
370
    25
100
AcDbLine
 10
-0.1697051881
 20
4.8111748587
 30
0.0
 11
-0.1500201487
 21
4.8088119085
 31
0.0
  0
LINE
  5
525
330
1F
100
AcDbEntity
  8
0
  6
Continuous
 62
     7
370
    25
100
AcDbLine
 10
-0.1500201487
 20
4.8088119085
 30
0.0
 11
-0.1303351093
 21
4.8111748587
 31
0.0
  0
LINE
  5
526
330
1F
100
AcDbEntity
  8
0
  6
Continuous
 62
     7
370
    25
100
AcDbLine
 10
-0.1303351093
 20
4.8111748587
 30
0.0
 11
-0.1303351093
 21
4.8155946576
 31
0.0
  0
LINE
  5
527
330
1F
100
AcDbEntity
  8
0
  6
Continuous
 62
     7
370
    25
100
AcDbLine
 10
0.1303351093
 20
4.8155946576
 30
0.0
 11
0.1303351093
 21
4.8111748587
 31
0.0
  0
LINE
  5
528
330
1F
100
AcDbEntity
  8
0
  6
Continuous
 62
     7
370
    25
100
AcDbLine
 10
0.1303351093
 20
4.8111748587
 30
0.0
 11
0.1500201487
 21
4.8088119085
 31
0.0
  0
LINE
  5
529
330
1F
100
AcDbEntity
  8
0
  6
Continuous
 62
     7
370
    25
100
AcDbLine
 10
0.1500201487
 20
4.8088119085
 30
0.0
 11
0.1697051881
 21
4.8111748587
 31
0.0
  0
LINE
  5
52A
330
1F
100
AcDbEntity
  8
0
  6
Continuous
 62
     7
370
    25
100
AcDbLine
 10
0.1697051881
 20
4.8111748587
 30
0.0
 11
0.1697051881
 21
4.8120589872
 31
0.0
  0
LINE
  5
52B
330
1F
100
AcDbEntity
  8
0
  6
Continuous
 62
     7
370
    25
100
AcDbLine
 10
0.1303351093
 20
4.7978926599
 30
0.0
 11
0.1303351093
 21
4.7931667595
 31
0.0
  0
LINE
  5
52C
330
1F
100
AcDbEntity
  8
0
  6
Continuous
 62
     7
370
    25
100
AcDbLine
 10
0.1303351093
 20
4.7931667595
 30
0.0
 11
0.1500201487
 21
4.7908038093
 31
0.0
  0
LINE
  5
52D
330
1F
100
AcDbEntity
  8
0
  6
Continuous
 62
     7
370
    25
100
AcDbLine
 10
0.1500201487
 20
4.7908038093
 30
0.0
 11
0.1697051881
 21
4.7931667595
 31
0.0
  0
LINE
  5
52E
330
1F
100
AcDbEntity
  8
0
  6
Continuous
 62
     7
370
    25
100
AcDbLine
 10
0.1697051881
 20
4.7931667595
 30
0.0
 11
0.1697051881
 21
4.7978926599
 31
0.0
  0
LINE
  5
52F
330
1F
100
AcDbEntity
  8
0
  6
Continuous
 62
     7
370
    25
100
AcDbLine
 10
0.1697051881
 20
4.7978926599
 30
0.0
 11
0.1500201487
 21
4.8002556101
 31
0.0
  0
LINE
  5
530
330
1F
100
AcDbEntity
  8
0
  6
Continuous
 62
     7
370
    25
100
AcDbLine
 10
0.1500201487
 20
4.8002556101
 30
0.0
 11
0.1303351093
 21
4.7978926599
 31
0.0
  0
LINE
  5
531
330
1F
100
AcDbEntity
  8
0
  6
Continuous
 62
     7
370
    25
100
AcDbLine
 10
0.1303351093
 20
4.7798845607
 30
0.0
 11
0.1303351093
 21
4.7751586603
 31
0.0
  0
LINE
  5
532
330
1F
100
AcDbEntity
  8
0
  6
Continuous
 62
     7
370
    25
100
AcDbLine
 10
0.1303351093
 20
4.7751586603
 30
0.0
 11
0.1500201487
 21
4.7727957101
 31
0.0
  0
LINE
  5
533
330
1F
100
AcDbEntity
  8
0
  6
Continuous
 62
     7
370
    25
100
AcDbLine
 10
0.1500201487
 20
4.7727957101
 30
0.0
 11
0.1697051881
 21
4.7751586603
 31
0.0
  0
LINE
  5
534
330
1F
100
AcDbEntity
  8
0
  6
Continuous
 62
     7
370
    25
100
AcDbLine
 10
0.1697051881
 20
4.7751586603
 30
0.0
 11
0.1697051881
 21
4.7798845607
 31
0.0
  0
LINE
  5
535
330
1F
100
AcDbEntity
  8
0
  6
Continuous
 62
     7
370
    25
100
AcDbLine
 10
0.1697051881
 20
4.7798845607
 30
0.0
 11
0.1500201487
 21
4.7822475109
 31
0.0
  0
LINE
  5
536
330
1F
100
AcDbEntity
  8
0
  6
Continuous
 62
     7
370
    25
100
AcDbLine
 10
0.1500201487
 20
4.7822475109
 30
0.0
 11
0.1303351093
 21
4.7798845607
 31
0.0
  0
LINE
  5
537
330
1F
100
AcDbEntity
  8
0
  6
Continuous
 62
     7
370
    25
100
AcDbLine
 10
0.055325035
 20
4.7708805111
 30
0.0
 11
0.055325035
 21
4.7661546107
 31
0.0
  0
LINE
  5
538
330
1F
100
AcDbEntity
  8
0
  6
Continuous
 62
     7
370
    25
100
AcDbLine
 10
0.055325035
 20
4.7661546107
 30
0.0
 11
0.0750100743
 21
4.7637916605
 31
0.0
  0
LINE
  5
539
330
1F
100
AcDbEntity
  8
0
  6
Continuous
 62
     7
370
    25
100
AcDbLine
 10
0.0750100743
 20
4.7637916605
 30
0.0
 11
0.0946951137
 21
4.7661546107
 31
0.0
  0
LINE
  5
53A
330
1F
100
AcDbEntity
  8
0
  6
Continuous
 62
     7
370
    25
100
AcDbLine
 10
0.0946951137
 20
4.7661546107
 30
0.0
 11
0.0946951137
 21
4.7708805111
 31
0.0
  0
LINE
  5
53B
330
1F
100
AcDbEntity
  8
0
  6
Continuous
 62
     7
370
    25
100
AcDbLine
 10
0.0946951137
 20
4.7708805111
 30
0.0
 11
0.0750100743
 21
4.7732434613
 31
0.0
  0
LINE
  5
53C
330
1F
100
AcDbEntity
  8
0
  6
Continuous
 62
     7
370
    25
100
AcDbLine
 10
0.0750100743
 20
4.7732434613
 30
0.0
 11
0.055325035
 21
4.7708805111
 31
0.0
  0
LINE
  5
53D
330
1F
100
AcDbEntity
  8
0
  6
Continuous
 62
     7
370
    25
100
AcDbLine
 10
-0.0196850394
 20
4.7618764615
 30
0.0
 11
-0.0196850394
 21
4.7571505611
 31
0.0
  0
LINE
  5
53E
330
1F
100
AcDbEntity
  8
0
  6
Continuous
 62
     7
370
    25
100
AcDbLine
 10
-0.0196850394
 20
4.7571505611
 30
0.0
 11
0.0
 21
4.7547876109
 31
0.0
  0
LINE
  5
53F
330
1F
100
AcDbEntity
  8
0
  6
Continuous
 62
     7
370
    25
100
AcDbLine
 10
0.0
 20
4.7547876109
 30
0.0
 11
0.0196850394
 21
4.7571505611
 31
0.0
  0
LINE
  5
540
330
1F
100
AcDbEntity
  8
0
  6
Continuous
 62
     7
370
    25
100
AcDbLine
 10
0.0196850394
 20
4.7571505611
 30
0.0
 11
0.0196850394
 21
4.7618764615
 31
0.0
  0
LINE
  5
541
330
1F
100
AcDbEntity
  8
0
  6
Continuous
 62
     7
370
    25
100
AcDbLine
 10
0.0196850394
 20
4.7618764615
 30
0.0
 11
0.0
 21
4.7642394117
 31
0.0
  0
LINE
  5
542
330
1F
100
AcDbEntity
  8
0
  6
Continuous
 62
     7
370
    25
100
AcDbLine
 10
0.0
 20
4.7642394117
 30
0.0
 11
-0.0196850394
 21
4.7618764615
 31
0.0
  0
LINE
  5
543
330
1F
100
AcDbEntity
  8
0
  6
Continuous
 62
     7
370
    25
100
AcDbLine
 10
-0.0946951137
 20
4.7888886103
 30
0.0
 11
-0.0946951137
 21
4.7841627099
 31
0.0
  0
LINE
  5
544
330
1F
100
AcDbEntity
  8
0
  6
Continuous
 62
     7
370
    25
100
AcDbLine
 10
-0.0946951137
 20
4.7841627099
 30
0.0
 11
-0.0750100743
 21
4.7817997597
 31
0.0
  0
LINE
  5
545
330
1F
100
AcDbEntity
  8
0
  6
Continuous
 62
     7
370
    25
100
AcDbLine
 10
-0.0750100743
 20
4.7817997597
 30
0.0
 11
-0.055325035
 21
4.7841627099
 31
0.0
  0
LINE
  5
546
330
1F
100
AcDbEntity
  8
0
  6
Continuous
 62
     7
370
    25
100
AcDbLine
 10
-0.055325035
 20
4.7841627099
 30
0.0
 11
-0.055325035
 21
4.7888886103
 31
0.0
  0
LINE
  5
547
330
1F
100
AcDbEntity
  8
0
  6
Continuous
 62
     7
370
    25
100
AcDbLine
 10
-0.055325035
 20
4.7888886103
 30
0.0
 11
-0.0750100743
 21
4.7912515605
 31
0.0
  0
LINE
  5
548
330
1F
100
AcDbEntity
  8
0
  6
Continuous
 62
     7
370
    25
100
AcDbLine
 10
-0.0750100743
 20
4.7912515605
 30
0.0
 11
-0.0946951137
 21
4.7888886103
 31
0.0
  0
LINE
  5
549
330
1F
100
AcDbEntity
  8
0
  6
Continuous
 62
     7
370
    25
100
AcDbLine
 10
-0.0946951137
 20
4.8068967095
 30
0.0
 11
-0.0946951137
 21
4.8021708091
 31
0.0
  0
LINE
  5
54A
330
1F
100
AcDbEntity
  8
0
  6
Continuous
 62
     7
370
    25
100
AcDbLine
 10
-0.0946951137
 20
4.8021708091
 30
0.0
 11
-0.0750100743
 21
4.7998078589
 31
0.0
  0
LINE
  5
54B
330
1F
100
AcDbEntity
  8
0
  6
Continuous
 62
     7
370
    25
100
AcDbLine
 10
-0.0750100743
 20
4.7998078589
 30
0.0
 11
-0.055325035
 21
4.8021708091
 31
0.0
  0
LINE
  5
54C
330
1F
100
AcDbEntity
  8
0
  6
Continuous
 62
     7
370
    25
100
AcDbLine
 10
-0.055325035
 20
4.8021708091
 30
0.0
 11
-0.055325035
 21
4.8068967095
 31
0.0
  0
LINE
  5
54D
330
1F
100
AcDbEntity
  8
0
  6
Continuous
 62
     7
370
    25
100
AcDbLine
 10
-0.055325035
 20
4.8068967095
 30
0.0
 11
-0.0750100743
 21
4.8092596597
 31
0.0
  0
LINE
  5
54E
330
1F
100
AcDbEntity
  8
0
  6
Continuous
 62
     7
370
    25
100
AcDbLine
 10
-0.0750100743
 20
4.8092596597
 30
0.0
 11
-0.0946951137
 21
4.8068967095
 31
0.0
  0
LINE
  5
54F
330
1F
100
AcDbEntity
  8
0
  6
Continuous
 62
     7
370
    25
100
AcDbLine
 10
-0.0157767181
 20
4.8107057121
 30
0.0
 11
0.0
 21
4.8088119085
 31
0.0
  0
LINE
  5
550
330
1F
100
AcDbEntity
  8
0
  6
Continuous
 62
     7
370
    25
100
AcDbLine
 10
0.0
 20
4.8088119085
 30
0.0
 11
0.0157767181
 21
4.8107057121
 31
0.0
  0
LINE
  5
551
330
1F
100
AcDbEntity
  8
0
  6
Continuous
 62
     7
370
    25
100
AcDbLine
 10
0.055325035
 20
4.8068967095
 30
0.0
 11
0.055325035
 21
4.8021708091
 31
0.0
  0
LINE
  5
552
330
1F
100
AcDbEntity
  8
0
  6
Continuous
 62
     7
370
    25
100
AcDbLine
 10
0.055325035
 20
4.8021708091
 30
0.0
 11
0.0750100743
 21
4.7998078589
 31
0.0
  0
LINE
  5
553
330
1F
100
AcDbEntity
  8
0
  6
Continuous
 62
     7
370
    25
100
AcDbLine
 10
0.0750100743
 20
4.7998078589
 30
0.0
 11
0.0946951137
 21
4.8021708091
 31
0.0
  0
LINE
  5
554
330
1F
100
AcDbEntity
  8
0
  6
Continuous
 62
     7
370
    25
100
AcDbLine
 10
0.0946951137
 20
4.8021708091
 30
0.0
 11
0.0946951137
 21
4.8068967095
 31
0.0
  0
LINE
  5
555
330
1F
100
AcDbEntity
  8
0
  6
Continuous
 62
     7
370
    25
100
AcDbLine
 10
0.0946951137
 20
4.8068967095
 30
0.0
 11
0.0750100743
 21
4.8092596597
 31
0.0
  0
LINE
  5
556
330
1F
100
AcDbEntity
  8
0
  6
Continuous
 62
     7
370
    25
100
AcDbLine
 10
0.0750100743
 20
4.8092596597
 30
0.0
 11
0.055325035
 21
4.8068967095
 31
0.0
  0
LINE
  5
557
330
1F
100
AcDbEntity
  8
0
  6
Continuous
 62
     7
370
    25
100
AcDbLine
 10
0.055325035
 20
4.7888886103
 30
0.0
 11
0.055325035
 21
4.7841627099
 31
0.0
  0
LINE
  5
558
330
1F
100
AcDbEntity
  8
0
  6
Continuous
 62
     7
370
    25
100
AcDbLine
 10
0.055325035
 20
4.7841627099
 30
0.0
 11
0.0750100743
 21
4.7817997597
 31
0.0
  0
LINE
  5
559
330
1F
100
AcDbEntity
  8
0
  6
Continuous
 62
     7
370
    25
100
AcDbLine
 10
0.0750100743
 20
4.7817997597
 30
0.0
 11
0.0946951137
 21
4.7841627099
 31
0.0
  0
LINE
  5
55A
330
1F
100
AcDbEntity
  8
0
  6
Continuous
 62
     7
370
    25
100
AcDbLine
 10
0.0946951137
 20
4.7841627099
 30
0.0
 11
0.0946951137
 21
4.7888886103
 31
0.0
  0
LINE
  5
55B
330
1F
100
AcDbEntity
  8
0
  6
Continuous
 62
     7
370
    25
100
AcDbLine
 10
0.0946951137
 20
4.7888886103
 30
0.0
 11
0.0750100743
 21
4.7912515605
 31
0.0
  0
LINE
  5
55C
330
1F
100
AcDbEntity
  8
0
  6
Continuous
 62
     7
370
    25
100
AcDbLine
 10
0.0750100743
 20
4.7912515605
 30
0.0
 11
0.055325035
 21
4.7888886103
 31
0.0
  0
LINE
  5
55D
330
1F
100
AcDbEntity
  8
0
  6
Continuous
 62
     7
370
    25
100
AcDbLine
 10
-0.0297344838
 20
4.7418602976
 30
0.0
 11
-0.0297344838
 21
4.7438683623
 31
0.0
  0
LINE
  5
55E
330
1F
100
AcDbEntity
  8
0
  6
Continuous
 62
     7
370
    25
100
AcDbLine
 10
-0.0297344838
 20
4.7438683623
 30
0.0
 11
-0.0494195232
 21
4.7462313125
 31
0.0
  0
LINE
  5
55F
330
1F
100
AcDbEntity
  8
0
  6
Continuous
 62
     7
370
    25
100
AcDbLine
 10
-0.0494195232
 20
4.7462313125
 30
0.0
 11
-0.0691045625
 21
4.7438683623
 31
0.0
  0
LINE
  5
560
330
1F
100
AcDbEntity
  8
0
  6
Continuous
 62
     7
370
    25
100
AcDbLine
 10
-0.0691045625
 20
4.7434509667
 30
0.0
 11
-0.0691045625
 21
4.7438683623
 31
0.0
  0
LINE
  5
561
330
1F
100
AcDbEntity
  8
0
  6
Continuous
 62
     7
370
    25
100
AcDbLine
 10
-0.1142396585
 20
4.7470067398
 30
0.0
 11
-0.1047445581
 21
4.7481465115
 31
0.0
  0
LINE
  5
562
330
1F
100
AcDbEntity
  8
0
  6
Continuous
 62
     7
370
    25
100
AcDbLine
 10
-0.1047445581
 20
4.7481465115
 30
0.0
 11
-0.1047445581
 21
4.7528724119
 31
0.0
  0
LINE
  5
563
330
1F
100
AcDbEntity
  8
0
  6
Continuous
 62
     7
370
    25
100
AcDbLine
 10
-0.1047445581
 20
4.7528724119
 30
0.0
 11
-0.1244295975
 21
4.7552353621
 31
0.0
  0
LINE
  5
564
330
1F
100
AcDbEntity
  8
0
  6
Continuous
 62
     7
370
    25
100
AcDbLine
 10
-0.1244295975
 20
4.7552353621
 30
0.0
 11
-0.1441146369
 21
4.7528724119
 31
0.0
  0
LINE
  5
565
330
1F
100
AcDbEntity
  8
0
  6
Continuous
 62
     7
370
    25
100
AcDbLine
 10
-0.1441146369
 20
4.7528724119
 30
0.0
 11
-0.1441146369
 21
4.7505759968
 31
0.0
  0
LINE
  5
566
330
1F
100
AcDbEntity
  8
0
  6
Continuous
 62
     7
370
    25
100
AcDbLine
 10
-0.1817217423
 20
4.7569144334
 30
0.0
 11
-0.1797546325
 21
4.7571505611
 31
0.0
  0
LINE
  5
567
330
1F
100
AcDbEntity
  8
0
  6
Continuous
 62
     7
370
    25
100
AcDbLine
 10
-0.1797546325
 20
4.7571505611
 30
0.0
 11
-0.1797546325
 21
4.7618764615
 31
0.0
  0
LINE
  5
568
330
1F
100
AcDbEntity
  8
0
  6
Continuous
 62
     7
370
    25
100
AcDbLine
 10
-0.1797546325
 20
4.7618764615
 30
0.0
 11
-0.1994396718
 21
4.7642394117
 31
0.0
  0
LINE
  5
569
330
1F
100
AcDbEntity
  8
0
  6
Continuous
 62
     7
370
    25
100
AcDbLine
 10
-0.1994396718
 20
4.7642394117
 30
0.0
 11
-0.2081551791
 21
4.7631932208
 31
0.0
  0
LINE
  5
56A
330
1F
100
AcDbEntity
  8
0
  6
Continuous
 62
     7
370
    25
100
AcDbLine
 10
-0.2145410263
 20
4.7650507613
 30
0.0
 11
-0.2053451837
 21
4.7661546107
 31
0.0
  0
LINE
  5
56B
330
1F
100
AcDbEntity
  8
0
  6
Continuous
 62
     7
370
    25
100
AcDbLine
 10
-0.2053451837
 20
4.7661546107
 30
0.0
 11
-0.2053451837
 21
4.7708805111
 31
0.0
  0
LINE
  5
56C
330
1F
100
AcDbEntity
  8
0
  6
Continuous
 62
     7
370
    25
100
AcDbLine
 10
-0.2053451837
 20
4.7708805111
 30
0.0
 11
-0.225030223
 21
4.7732434613
 31
0.0
  0
LINE
  5
56D
330
1F
100
AcDbEntity
  8
0
  6
Continuous
 62
     7
370
    25
100
AcDbLine
 10
-0.225030223
 20
4.7732434613
 30
0.0
 11
-0.2342260656
 21
4.7721396119
 31
0.0
  0
LINE
  5
56E
330
1F
100
AcDbEntity
  8
0
  6
Continuous
 62
     7
370
    25
100
AcDbLine
 10
-0.2388115344
 20
4.7742381049
 30
0.0
 11
-0.2311426596
 21
4.7751586603
 31
0.0
  0
LINE
  5
56F
330
1F
100
AcDbEntity
  8
0
  6
Continuous
 62
     7
370
    25
100
AcDbLine
 10
-0.2311426596
 20
4.7751586603
 30
0.0
 11
-0.2311426596
 21
4.7798845607
 31
0.0
  0
LINE
  5
570
330
1F
100
AcDbEntity
  8
0
  6
Continuous
 62
     7
370
    25
100
AcDbLine
 10
-0.2311426596
 20
4.7798845607
 30
0.0
 11
-0.2508276989
 21
4.7822475109
 31
0.0
  0
LINE
  5
571
330
1F
100
AcDbEntity
  8
0
  6
Continuous
 62
     7
370
    25
100
AcDbLine
 10
-0.2517337467
 20
4.7821387509
 30
0.0
 11
-0.2508276989
 21
4.7822475109
 31
0.0
  0
LINE
  5
572
330
1F
100
AcDbEntity
  8
0
  6
Continuous
 62
     7
370
    25
100
AcDbLine
 10
0.2517070945
 20
4.7821171113
 30
0.0
 11
0.2506207742
 21
4.7822475109
 31
0.0
  0
LINE
  5
573
330
1F
100
AcDbEntity
  8
0
  6
Continuous
 62
     7
370
    25
100
AcDbLine
 10
0.2506207742
 20
4.7822475109
 30
0.0
 11
0.2309357348
 21
4.7798845607
 31
0.0
  0
LINE
  5
574
330
1F
100
AcDbEntity
  8
0
  6
Continuous
 62
     7
370
    25
100
AcDbLine
 10
0.2309357348
 20
4.7798845607
 30
0.0
 11
0.2309357348
 21
4.7751586603
 31
0.0
  0
LINE
  5
575
330
1F
100
AcDbEntity
  8
0
  6
Continuous
 62
     7
370
    25
100
AcDbLine
 10
0.2309357348
 20
4.7751586603
 30
0.0
 11
0.2387704525
 21
4.7742181975
 31
0.0
  0
LINE
  5
576
330
1F
100
AcDbEntity
  8
0
  6
Continuous
 62
     7
370
    25
100
AcDbLine
 10
0.2342260656
 20
4.7721396119
 30
0.0
 11
0.225030223
 21
4.7732434613
 31
0.0
  0
LINE
  5
577
330
1F
100
AcDbEntity
  8
0
  6
Continuous
 62
     7
370
    25
100
AcDbLine
 10
0.225030223
 20
4.7732434613
 30
0.0
 11
0.2053451837
 21
4.7708805111
 31
0.0
  0
LINE
  5
578
330
1F
100
AcDbEntity
  8
0
  6
Continuous
 62
     7
370
    25
100
AcDbLine
 10
0.2053451837
 20
4.7708805111
 30
0.0
 11
0.2053451837
 21
4.7661546107
 31
0.0
  0
LINE
  5
579
330
1F
100
AcDbEntity
  8
0
  6
Continuous
 62
     7
370
    25
100
AcDbLine
 10
0.2053451837
 20
4.7661546107
 30
0.0
 11
0.2145410263
 21
4.7650507613
 31
0.0
  0
LINE
  5
57A
330
1F
100
AcDbEntity
  8
0
  6
Continuous
 62
     7
370
    25
100
AcDbLine
 10
0.2080927987
 20
4.76317587
 30
0.0
 11
0.1992327471
 21
4.7642394117
 31
0.0
  0
LINE
  5
57B
330
1F
100
AcDbEntity
  8
0
  6
Continuous
 62
     7
370
    25
100
AcDbLine
 10
0.1992327471
 20
4.7642394117
 30
0.0
 11
0.1795477077
 21
4.7618764615
 31
0.0
  0
LINE
  5
57C
330
1F
100
AcDbEntity
  8
0
  6
Continuous
 62
     7
370
    25
100
AcDbLine
 10
0.1795477077
 20
4.7618764615
 30
0.0
 11
0.1795477077
 21
4.7571505611
 31
0.0
  0
LINE
  5
57D
330
1F
100
AcDbEntity
  8
0
  6
Continuous
 62
     7
370
    25
100
AcDbLine
 10
0.1795477077
 20
4.7571505611
 30
0.0
 11
0.1816449322
 21
4.7568988147
 31
0.0
  0
LINE
  5
57E
330
1F
100
AcDbEntity
  8
0
  6
Continuous
 62
     7
370
    25
100
AcDbLine
 10
0.1439077121
 20
4.7505473509
 30
0.0
 11
0.1439077121
 21
4.7528724119
 31
0.0
  0
LINE
  5
57F
330
1F
100
AcDbEntity
  8
0
  6
Continuous
 62
     7
370
    25
100
AcDbLine
 10
0.1439077121
 20
4.7528724119
 30
0.0
 11
0.1242226728
 21
4.7552353621
 31
0.0
  0
LINE
  5
580
330
1F
100
AcDbEntity
  8
0
  6
Continuous
 62
     7
370
    25
100
AcDbLine
 10
0.1242226728
 20
4.7552353621
 30
0.0
 11
0.1045376334
 21
4.7528724119
 31
0.0
  0
LINE
  5
581
330
1F
100
AcDbEntity
  8
0
  6
Continuous
 62
     7
370
    25
100
AcDbLine
 10
0.1045376334
 20
4.7528724119
 30
0.0
 11
0.1045376334
 21
4.7481465115
 31
0.0
  0
LINE
  5
582
330
1F
100
AcDbEntity
  8
0
  6
Continuous
 62
     7
370
    25
100
AcDbLine
 10
0.1045376334
 20
4.7481465115
 30
0.0
 11
0.1141276447
 21
4.7469953469
 31
0.0
  0
LINE
  5
583
330
1F
100
AcDbEntity
  8
0
  6
Continuous
 62
     7
370
    25
100
AcDbLine
 10
0.0688976378
 20
4.7434391168
 30
0.0
 11
0.0688976378
 21
4.7438683623
 31
0.0
  0
LINE
  5
584
330
1F
100
AcDbEntity
  8
0
  6
Continuous
 62
     7
370
    25
100
AcDbLine
 10
0.0688976378
 20
4.7438683623
 30
0.0
 11
0.0492125984
 21
4.7462313125
 31
0.0
  0
LINE
  5
585
330
1F
100
AcDbEntity
  8
0
  6
Continuous
 62
     7
370
    25
100
AcDbLine
 10
0.0492125984
 20
4.7462313125
 30
0.0
 11
0.0295275591
 21
4.7438683623
 31
0.0
  0
LINE
  5
586
330
1F
100
AcDbEntity
  8
0
  6
Continuous
 62
     7
370
    25
100
AcDbLine
 10
0.0295275591
 20
4.7438683623
 30
0.0
 11
0.0295275591
 21
4.7418553594
 31
0.0
  0
LINE
  5
587
330
1F
100
AcDbEntity
  8
0
  6
Continuous
 62
     7
370
    25
100
AcDbLine
 10
0.0196850394
 20
4.7416606636
 30
0.0
 11
0.0196850394
 21
4.7438683623
 31
0.0
  0
LINE
  5
588
330
1F
100
AcDbEntity
  8
0
  6
Continuous
 62
     7
370
    25
100
AcDbLine
 10
0.0196850394
 20
4.7438683623
 30
0.0
 11
0.0
 21
4.7462313125
 31
0.0
  0
LINE
  5
589
330
1F
100
AcDbEntity
  8
0
  6
Continuous
 62
     7
370
    25
100
AcDbLine
 10
0.0
 20
4.7462313125
 30
0.0
 11
-0.0196850394
 21
4.7438683623
 31
0.0
  0
LINE
  5
58A
330
1F
100
AcDbEntity
  8
0
  6
Continuous
 62
     7
370
    25
100
AcDbLine
 10
-0.1008075503
 20
4.8088119085
 30
0.0
 11
-0.1008075503
 21
4.8175625045
 31
0.0
  0
LINE
  5
58B
330
1F
100
AcDbEntity
  8
0
  6
Continuous
 62
     7
370
    25
100
AcDbLine
 10
-0.1500201487
 20
4.8088119085
 30
0.0
 11
-0.1500201487
 21
4.8139643153
 31
0.0
  0
LINE
  5
58C
330
1F
100
AcDbEntity
  8
0
  6
Continuous
 62
     7
370
    25
100
AcDbLine
 10
0.1006006255
 20
4.8088119085
 30
0.0
 11
0.1006006255
 21
4.8175743643
 31
0.0
  0
LINE
  5
58D
330
1F
100
AcDbEntity
  8
0
  6
Continuous
 62
     7
370
    25
100
AcDbLine
 10
0.0
 20
4.8088119085
 30
0.0
 11
0.0
 21
4.8107835344
 31
0.0
  0
LINE
  5
58E
330
1F
100
AcDbEntity
  8
0
  6
Continuous
 62
     7
370
    25
100
AcDbLine
 10
-0.0494195232
 20
4.8088119085
 30
0.0
 11
-0.0494195232
 21
4.8100161039
 31
0.0
  0
LINE
  5
58F
330
1F
100
AcDbEntity
  8
0
  6
Continuous
 62
     7
370
    25
100
AcDbLine
 10
0.1500201487
 20
4.8088119085
 30
0.0
 11
0.1500201487
 21
4.8139643153
 31
0.0
  0
LINE
  5
590
330
1F
100
AcDbEntity
  8
0
  6
Continuous
 62
     7
370
    25
100
AcDbLine
 10
-0.3288985794
 20
4.7520112744
 30
0.0
 11
-0.3521678411
 21
4.7528643358
 31
0.0
  0
LINE
  5
591
330
1F
100
AcDbEntity
  8
0
  6
Continuous
 62
     7
370
    25
100
AcDbLine
 10
-0.3275312709
 20
4.7613254527
 30
0.0
 11
-0.3508005326
 21
4.7621785141
 31
0.0
  0
LINE
  5
592
330
1F
100
AcDbEntity
  8
0
  6
Continuous
 62
     7
370
    25
100
AcDbLine
 10
0.3508005326
 20
4.7621785141
 30
0.0
 11
0.3275312709
 21
4.7613254528
 31
0.0
  0
LINE
  5
593
330
1F
100
AcDbEntity
  8
0
  6
Continuous
 62
     7
370
    25
100
AcDbLine
 10
0.3521678411
 20
4.7528643358
 30
0.0
 11
0.3288985794
 21
4.7520112744
 31
0.0
  0
LINE
  5
594
330
1F
100
AcDbEntity
  8
0
  6
Continuous
 62
     7
370
    25
100
AcDbLine
 10
0.3288985794
 20
4.7312208504
 30
0.0
 11
0.3521678411
 21
4.730367789
 31
0.0
  0
LINE
  5
595
330
1F
100
AcDbEntity
  8
0
  6
Continuous
 62
     7
370
    25
100
AcDbLine
 10
-0.3521678411
 20
4.730367789
 30
0.0
 11
-0.3288985794
 21
4.7312208504
 31
0.0
  0
LINE
  5
596
330
1F
100
AcDbEntity
  8
0
  6
Continuous
 62
     7
370
    25
100
AcDbLine
 10
-0.1758176246
 20
4.7998078589
 30
0.0
 11
-0.1758176246
 21
4.8092596597
 31
0.0
  0
LINE
  5
597
330
1F
100
AcDbEntity
  8
0
  6
Continuous
 62
     7
370
    25
100
AcDbLine
 10
0.1242226728
 20
4.7998078589
 30
0.0
 11
0.1242226728
 21
4.8092596597
 31
0.0
  0
LINE
  5
598
330
1F
100
AcDbEntity
  8
0
  6
Continuous
 62
     7
370
    25
100
AcDbLine
 10
0.1756106999
 20
4.7998078589
 30
0.0
 11
0.1756106999
 21
4.8092596597
 31
0.0
  0
LINE
  5
599
330
1F
100
AcDbEntity
  8
0
  6
Continuous
 62
     7
370
    25
100
AcDbLine
 10
-0.0257974759
 20
4.7998078589
 30
0.0
 11
-0.0257974759
 21
4.8092596597
 31
0.0
  0
LINE
  5
59A
330
1F
100
AcDbEntity
  8
0
  6
Continuous
 62
     7
370
    25
100
AcDbLine
 10
0.0750100743
 20
4.7998078589
 30
0.0
 11
0.0750100743
 21
4.8092596597
 31
0.0
  0
LINE
  5
59B
330
1F
100
AcDbEntity
  8
0
  6
Continuous
 62
     7
370
    25
100
AcDbLine
 10
-0.1244295975
 20
4.7998078589
 30
0.0
 11
-0.1244295975
 21
4.8092596597
 31
0.0
  0
LINE
  5
59C
330
1F
100
AcDbEntity
  8
0
  6
Continuous
 62
     7
370
    25
100
AcDbLine
 10
0.0255905512
 20
4.7998078589
 30
0.0
 11
0.0255905512
 21
4.8092596597
 31
0.0
  0
LINE
  5
59D
330
1F
100
AcDbEntity
  8
0
  6
Continuous
 62
     7
370
    25
100
AcDbLine
 10
-0.0750100743
 20
4.7998078589
 30
0.0
 11
-0.0750100743
 21
4.8092596597
 31
0.0
  0
LINE
  5
59E
330
1F
100
AcDbEntity
  8
0
  6
Continuous
 62
     7
370
    25
100
AcDbLine
 10
0.1992327471
 20
4.7908038093
 30
0.0
 11
0.1992327471
 21
4.7970082043
 31
0.0
  0
LINE
  5
59F
330
1F
100
AcDbEntity
  8
0
  6
Continuous
 62
     7
370
    25
100
AcDbLine
 10
-0.1994396718
 20
4.7908038093
 30
0.0
 11
-0.1994396718
 21
4.7969760059
 31
0.0
  0
LINE
  5
5A0
330
1F
100
AcDbEntity
  8
0
  6
Continuous
 62
     7
370
    25
100
AcDbLine
 10
0.1500201487
 20
4.7908038093
 30
0.0
 11
0.1500201487
 21
4.8002556101
 31
0.0
  0
LINE
  5
5A1
330
1F
100
AcDbEntity
  8
0
  6
Continuous
 62
     7
370
    25
100
AcDbLine
 10
-0.1500201487
 20
4.7908038093
 30
0.0
 11
-0.1500201487
 21
4.8002556101
 31
0.0
  0
LINE
  5
5A2
330
1F
100
AcDbEntity
  8
0
  6
Continuous
 62
     7
370
    25
100
AcDbLine
 10
-0.0494195232
 20
4.7908038093
 30
0.0
 11
-0.0494195232
 21
4.8002556101
 31
0.0
  0
LINE
  5
5A3
330
1F
100
AcDbEntity
  8
0
  6
Continuous
 62
     7
370
    25
100
AcDbLine
 10
0.1006006255
 20
4.7908038093
 30
0.0
 11
0.1006006255
 21
4.8002556101
 31
0.0
  0
LINE
  5
5A4
330
1F
100
AcDbEntity
  8
0
  6
Continuous
 62
     7
370
    25
100
AcDbLine
 10
0.0492125984
 20
4.7908038093
 30
0.0
 11
0.0492125984
 21
4.8002556101
 31
0.0
  0
LINE
  5
5A5
330
1F
100
AcDbEntity
  8
0
  6
Continuous
 62
     7
370
    25
100
AcDbLine
 10
0.0255905512
 20
4.7817997597
 30
0.0
 11
0.0255905512
 21
4.7912515605
 31
0.0
  0
LINE
  5
5A6
330
1F
100
AcDbEntity
  8
0
  6
Continuous
 62
     7
370
    25
100
AcDbLine
 10
-0.1244295975
 20
4.7817997597
 30
0.0
 11
-0.1244295975
 21
4.7912515605
 31
0.0
  0
LINE
  5
5A7
330
1F
100
AcDbEntity
  8
0
  6
Continuous
 62
     7
370
    25
100
AcDbLine
 10
0.0750100743
 20
4.7817997597
 30
0.0
 11
0.0750100743
 21
4.7912515605
 31
0.0
  0
LINE
  5
5A8
330
1F
100
AcDbEntity
  8
0
  6
Continuous
 62
     7
370
    25
100
AcDbLine
 10
-0.0257974759
 20
4.7817997597
 30
0.0
 11
-0.0257974759
 21
4.7912515605
 31
0.0
  0
LINE
  5
5A9
330
1F
100
AcDbEntity
  8
0
  6
Continuous
 62
     7
370
    25
100
AcDbLine
 10
-0.0750100743
 20
4.7817997597
 30
0.0
 11
-0.0750100743
 21
4.7912515605
 31
0.0
  0
LINE
  5
5AA
330
1F
100
AcDbEntity
  8
0
  6
Continuous
 62
     7
370
    25
100
AcDbLine
 10
0.225030223
 20
4.7817997597
 30
0.0
 11
0.225030223
 21
4.7912515605
 31
0.0
  0
LINE
  5
5AB
330
1F
100
AcDbEntity
  8
0
  6
Continuous
 62
     7
370
    25
100
AcDbLine
 10
0.1756106999
 20
4.7817997597
 30
0.0
 11
0.1756106999
 21
4.7912515605
 31
0.0
  0
LINE
  5
5AC
330
1F
100
AcDbEntity
  8
0
  6
Continuous
 62
     7
370
    25
100
AcDbLine
 10
-0.225030223
 20
4.7817997597
 30
0.0
 11
-0.225030223
 21
4.7912515605
 31
0.0
  0
LINE
  5
5AD
330
1F
100
AcDbEntity
  8
0
  6
Continuous
 62
     7
370
    25
100
AcDbLine
 10
0.1242226728
 20
4.7817997597
 30
0.0
 11
0.1242226728
 21
4.7912515605
 31
0.0
  0
LINE
  5
5AE
330
1F
100
AcDbEntity
  8
0
  6
Continuous
 62
     7
370
    25
100
AcDbLine
 10
-0.1758176246
 20
4.7817997597
 30
0.0
 11
-0.1758176246
 21
4.7912515605
 31
0.0
  0
LINE
  5
5AF
330
1F
100
AcDbEntity
  8
0
  6
Continuous
 62
     7
370
    25
100
AcDbLine
 10
0.2963082986
 20
4.7389873231
 30
0.0
 11
0.2769531877
 21
4.7418050807
 31
0.0
  0
LINE
  5
5B0
330
1F
100
AcDbEntity
  8
0
  6
Continuous
 62
     7
370
    25
100
AcDbLine
 10
-0.2769531877
 20
4.7418050751
 30
0.0
 11
-0.2963082987
 21
4.7389873285
 31
0.0
  0
LINE
  5
5B1
330
1F
100
AcDbEntity
  8
0
  6
Continuous
 62
     7
370
    25
100
AcDbLine
 10
0.1006006255
 20
4.7727957101
 30
0.0
 11
0.1006006255
 21
4.7822475109
 31
0.0
  0
LINE
  5
5B2
330
1F
100
AcDbEntity
  8
0
  6
Continuous
 62
     7
370
    25
100
AcDbLine
 10
0.0
 20
4.7727957101
 30
0.0
 11
0.0
 21
4.7822475109
 31
0.0
  0
LINE
  5
5B3
330
1F
100
AcDbEntity
  8
0
  6
Continuous
 62
     7
370
    25
100
AcDbLine
 10
-0.1008075503
 20
4.7727957101
 30
0.0
 11
-0.1008075503
 21
4.7822475109
 31
0.0
  0
LINE
  5
5B4
330
1F
100
AcDbEntity
  8
0
  6
Continuous
 62
     7
370
    25
100
AcDbLine
 10
0.1500201487
 20
4.7727957101
 30
0.0
 11
0.1500201487
 21
4.7822475109
 31
0.0
  0
LINE
  5
5B5
330
1F
100
AcDbEntity
  8
0
  6
Continuous
 62
     7
370
    25
100
AcDbLine
 10
-0.1500201487
 20
4.7727957101
 30
0.0
 11
-0.1500201487
 21
4.7822475109
 31
0.0
  0
LINE
  5
5B6
330
1F
100
AcDbEntity
  8
0
  6
Continuous
 62
     7
370
    25
100
AcDbLine
 10
-0.0494195232
 20
4.7727957101
 30
0.0
 11
-0.0494195232
 21
4.7822475109
 31
0.0
  0
LINE
  5
5B7
330
1F
100
AcDbEntity
  8
0
  6
Continuous
 62
     7
370
    25
100
AcDbLine
 10
0.1992327471
 20
4.7727957101
 30
0.0
 11
0.1992327471
 21
4.7822475109
 31
0.0
  0
LINE
  5
5B8
330
1F
100
AcDbEntity
  8
0
  6
Continuous
 62
     7
370
    25
100
AcDbLine
 10
-0.1994396718
 20
4.7727957101
 30
0.0
 11
-0.1994396718
 21
4.7822475109
 31
0.0
  0
LINE
  5
5B9
330
1F
100
AcDbEntity
  8
0
  6
Continuous
 62
     7
370
    25
100
AcDbLine
 10
-0.0750100743
 20
4.7637916605
 30
0.0
 11
-0.0750100743
 21
4.7732434613
 31
0.0
  0
LINE
  5
5BA
330
1F
100
AcDbEntity
  8
0
  6
Continuous
 62
     7
370
    25
100
AcDbLine
 10
0.1756106999
 20
4.7637916605
 30
0.0
 11
0.1756106999
 21
4.7732434613
 31
0.0
  0
LINE
  5
5BB
330
1F
100
AcDbEntity
  8
0
  6
Continuous
 62
     7
370
    25
100
AcDbLine
 10
0.1242226728
 20
4.7637916605
 30
0.0
 11
0.1242226728
 21
4.7732434613
 31
0.0
  0
LINE
  5
5BC
330
1F
100
AcDbEntity
  8
0
  6
Continuous
 62
     7
370
    25
100
AcDbLine
 10
0.0255905512
 20
4.7637916605
 30
0.0
 11
0.0255905512
 21
4.7732434613
 31
0.0
  0
LINE
  5
5BD
330
1F
100
AcDbEntity
  8
0
  6
Continuous
 62
     7
370
    25
100
AcDbLine
 10
-0.1758176246
 20
4.7637916605
 30
0.0
 11
-0.1758176246
 21
4.7732434613
 31
0.0
  0
LINE
  5
5BE
330
1F
100
AcDbEntity
  8
0
  6
Continuous
 62
     7
370
    25
100
AcDbLine
 10
-0.1244295975
 20
4.7637916605
 30
0.0
 11
-0.1244295975
 21
4.7732434613
 31
0.0
  0
LINE
  5
5BF
330
1F
100
AcDbEntity
  8
0
  6
Continuous
 62
     7
370
    25
100
AcDbLine
 10
0.0750100743
 20
4.7637916605
 30
0.0
 11
0.0750100743
 21
4.7732434613
 31
0.0
  0
LINE
  5
5C0
330
1F
100
AcDbEntity
  8
0
  6
Continuous
 62
     7
370
    25
100
AcDbLine
 10
-0.0257974759
 20
4.7637916605
 30
0.0
 11
-0.0257974759
 21
4.7732434613
 31
0.0
  0
LINE
  5
5C1
330
1F
100
AcDbEntity
  8
0
  6
Continuous
 62
     7
370
    25
100
AcDbLine
 10
0.2724368378
 20
4.709656294
 30
0.0
 11
0.2724368319
 21
4.732762141
 31
0.0
  0
LINE
  5
5C2
330
1F
100
AcDbEntity
  8
0
  6
Continuous
 62
     7
370
    25
100
AcDbLine
 10
-0.2724368326
 20
4.7327621412
 30
0.0
 11
-0.2724368378
 21
4.709656294
 31
0.0
  0
LINE
  5
5C3
330
1F
100
AcDbEntity
  8
0
  6
Continuous
 62
     7
370
    25
100
AcDbLine
 10
-0.267920488
 20
4.7006133106
 30
0.0
 11
-0.2872755989
 21
4.6977955677
 31
0.0
  0
LINE
  5
5C4
330
1F
100
AcDbEntity
  8
0
  6
Continuous
 62
     7
370
    25
100
AcDbLine
 10
-0.2724368378
 20
4.709656294
 30
0.0
 11
-0.2917919488
 21
4.7068385511
 31
0.0
  0
LINE
  5
5C5
330
1F
100
AcDbEntity
  8
0
  6
Continuous
 62
     7
370
    25
100
AcDbLine
 10
0.2917919488
 20
4.7068385511
 30
0.0
 11
0.2724368378
 21
4.709656294
 31
0.0
  0
LINE
  5
5C6
330
1F
100
AcDbEntity
  8
0
  6
Continuous
 62
     7
370
    25
100
AcDbLine
 10
0.2872755989
 20
4.6977955677
 30
0.0
 11
0.267920488
 21
4.7006133106
 31
0.0
  0
LINE
  5
5C7
330
1F
100
AcDbEntity
  8
0
  6
Continuous
 62
     7
370
    25
100
AcDbLine
 10
-0.2917919488
 20
4.7068385511
 30
0.0
 11
-0.2917919441
 21
4.7299443986
 31
0.0
  0
LINE
  5
5C8
330
1F
100
AcDbEntity
  8
0
  6
Continuous
 62
     7
370
    25
100
AcDbLine
 10
-0.2724368326
 20
4.7327621412
 30
0.0
 11
-0.2917919441
 21
4.7299443986
 31
0.0
  0
LINE
  5
5C9
330
1F
100
AcDbEntity
  8
0
  6
Continuous
 62
     7
370
    25
100
AcDbLine
 10
0.2917919454
 20
4.7299443989
 30
0.0
 11
0.2724368319
 21
4.732762141
 31
0.0
  0
LINE
  5
5CA
330
1F
100
AcDbEntity
  8
0
  6
Continuous
 62
     7
370
    25
100
AcDbLine
 10
0.2917919454
 20
4.7299443989
 30
0.0
 11
0.2917919488
 21
4.7068385511
 31
0.0
  0
LINE
  5
5CB
330
1F
100
AcDbEntity
  8
0
  6
Continuous
 62
     7
370
    25
100
AcDbLine
 10
0.1006006255
 20
4.7547876109
 30
0.0
 11
0.1006006255
 21
4.7642394117
 31
0.0
  0
LINE
  5
5CC
330
1F
100
AcDbEntity
  8
0
  6
Continuous
 62
     7
370
    25
100
AcDbLine
 10
-0.1008075503
 20
4.7547876109
 30
0.0
 11
-0.1008075503
 21
4.7642394117
 31
0.0
  0
LINE
  5
5CD
330
1F
100
AcDbEntity
  8
0
  6
Continuous
 62
     7
370
    25
100
AcDbLine
 10
0.0
 20
4.7547876109
 30
0.0
 11
0.0
 21
4.7642394117
 31
0.0
  0
LINE
  5
5CE
330
1F
100
AcDbEntity
  8
0
  6
Continuous
 62
     7
370
    25
100
AcDbLine
 10
0.1500201487
 20
4.7547876109
 30
0.0
 11
0.1500201487
 21
4.7642394117
 31
0.0
  0
LINE
  5
5CF
330
1F
100
AcDbEntity
  8
0
  6
Continuous
 62
     7
370
    25
100
AcDbLine
 10
-0.0494195232
 20
4.7547876109
 30
0.0
 11
-0.0494195232
 21
4.7642394117
 31
0.0
  0
LINE
  5
5D0
330
1F
100
AcDbEntity
  8
0
  6
Continuous
 62
     7
370
    25
100
AcDbLine
 10
-0.1500201487
 20
4.7547876109
 30
0.0
 11
-0.1500201487
 21
4.7642394117
 31
0.0
  0
LINE
  5
5D1
330
1F
100
AcDbEntity
  8
0
  6
Continuous
 62
     7
370
    25
100
AcDbLine
 10
0.0492125984
 20
4.7547876109
 30
0.0
 11
0.0492125984
 21
4.7642394117
 31
0.0
  0
LINE
  5
5D2
330
1F
100
AcDbEntity
  8
0
  6
Continuous
 62
     7
370
    25
100
AcDbLine
 10
-0.2107649382
 20
4.6818881069
 30
0.0
 11
-0.1972123436
 21
4.6859122608
 31
0.0
  0
LINE
  5
5D3
330
1F
100
AcDbEntity
  8
0
  6
Continuous
 62
     7
370
    25
100
AcDbLine
 10
0.1972123436
 20
4.6859122608
 30
0.0
 11
0.2107649382
 21
4.6818881069
 31
0.0
  0
LINE
  5
5D4
330
1F
100
AcDbEntity
  8
0
  6
Continuous
 62
     7
370
    25
100
AcDbLine
 10
-0.0750100743
 20
4.7457835613
 30
0.0
 11
-0.0750100743
 21
4.7552353621
 31
0.0
  0
LINE
  5
5D5
330
1F
100
AcDbEntity
  8
0
  6
Continuous
 62
     7
370
    25
100
AcDbLine
 10
0.0255905512
 20
4.7457835613
 30
0.0
 11
0.0255905512
 21
4.7552353621
 31
0.0
  0
LINE
  5
5D6
330
1F
100
AcDbEntity
  8
0
  6
Continuous
 62
     7
370
    25
100
AcDbLine
 10
-0.0257974759
 20
4.7457835613
 30
0.0
 11
-0.0257974759
 21
4.7552353621
 31
0.0
  0
LINE
  5
5D7
330
1F
100
AcDbEntity
  8
0
  6
Continuous
 62
     7
370
    25
100
AcDbLine
 10
0.0750100743
 20
4.7457835613
 30
0.0
 11
0.0750100743
 21
4.7552353621
 31
0.0
  0
LINE
  5
5D8
330
1F
100
AcDbEntity
  8
0
  6
Continuous
 62
     7
370
    25
100
AcDbLine
 10
0.1893559652
 20
4.7168295719
 30
0.0
 11
0.1893383279
 21
4.7167200592
 31
0.0
  0
LINE
  5
5D9
330
1F
100
AcDbEntity
  8
0
  6
Continuous
 62
     7
370
    25
100
AcDbLine
 10
-0.1893559933
 20
4.7168295627
 30
0.0
 11
-0.1893383279
 21
4.7167200541
 31
0.0
  0
LINE
  5
5DA
330
1F
100
AcDbEntity
  8
0
  6
Continuous
 62
     7
370
    25
100
AcDbLine
 10
-0.1878041213
 20
4.721723587
 30
0.0
 11
-0.18659402
 21
4.7223598047
 31
0.0
  0
LINE
  5
5DB
330
1F
100
AcDbEntity
  8
0
  6
Continuous
 62
     7
370
    25
100
AcDbLine
 10
0.0696099904
 20
4.7074744978
 30
0.0
 11
0.0655069918
 21
4.7123124641
 31
0.0
  0
LINE
  5
5DC
330
1F
100
AcDbEntity
  8
0
  6
Continuous
 62
     7
370
    25
100
AcDbLine
 10
-0.0655069918
 20
4.7123124585
 30
0.0
 11
-0.0696099905
 21
4.7074745032
 31
0.0
  0
LINE
  5
5DD
330
1F
100
AcDbEntity
  8
0
  6
Continuous
 62
     7
370
    25
100
AcDbLine
 10
-0.057752591
 20
4.7043262802
 30
0.0
 11
-0.0577526001
 21
4.6812204317
 31
0.0
  0
LINE
  5
5DE
330
1F
100
AcDbEntity
  8
0
  6
Continuous
 62
     7
370
    25
100
AcDbLine
 10
0.0577526001
 20
4.6812204317
 30
0.0
 11
0.0577525898
 21
4.7043262802
 31
0.0
  0
LINE
  5
5DF
330
1F
100
AcDbEntity
  8
0
  6
Continuous
 62
     7
370
    25
100
AcDbLine
 10
-0.0499982083
 20
4.6732342027
 30
0.0
 11
-0.054101207
 21
4.6683962511
 31
0.0
  0
LINE
  5
5E0
330
1F
100
AcDbEntity
  8
0
  6
Continuous
 62
     7
370
    25
100
AcDbLine
 10
-0.0577526001
 20
4.6812204317
 30
0.0
 11
-0.0618555987
 21
4.6763824802
 31
0.0
  0
LINE
  5
5E1
330
1F
100
AcDbEntity
  8
0
  6
Continuous
 62
     7
370
    25
100
AcDbLine
 10
0.0618555987
 20
4.6763824801
 30
0.0
 11
0.0577526001
 21
4.6812204317
 31
0.0
  0
LINE
  5
5E2
330
1F
100
AcDbEntity
  8
0
  6
Continuous
 62
     7
370
    25
100
AcDbLine
 10
0.054101207
 20
4.6683962511
 30
0.0
 11
0.0499982083
 21
4.6732342027
 31
0.0
  0
LINE
  5
5E3
330
1F
100
AcDbEntity
  8
0
  6
Continuous
 62
     7
370
    25
100
AcDbLine
 10
-0.0618555987
 20
4.6763824802
 30
0.0
 11
-0.0618555907
 21
4.6994883287
 31
0.0
  0
LINE
  5
5E4
330
1F
100
AcDbEntity
  8
0
  6
Continuous
 62
     7
370
    25
100
AcDbLine
 10
-0.057752591
 20
4.7043262802
 30
0.0
 11
-0.0618555907
 21
4.6994883287
 31
0.0
  0
LINE
  5
5E5
330
1F
100
AcDbEntity
  8
0
  6
Continuous
 62
     7
370
    25
100
AcDbLine
 10
0.061855593
 20
4.6994883288
 30
0.0
 11
0.0577525898
 21
4.7043262802
 31
0.0
  0
LINE
  5
5E6
330
1F
100
AcDbEntity
  8
0
  6
Continuous
 62
     7
370
    25
100
AcDbLine
 10
0.061855593
 20
4.6994883288
 30
0.0
 11
0.0618555987
 21
4.6763824801
 31
0.0
  0
LINE
  5
5E7
330
1F
100
AcDbEntity
  8
0
  6
Continuous
 62
     7
370
    25
100
AcDbLine
 10
-3.311023622
 20
0.842519685
 30
0.0
 11
-4.688976378
 21
0.842519685
 31
0.0
  0
LINE
  5
5E8
330
1F
100
AcDbEntity
  8
0
  6
Continuous
 62
     7
370
    25
100
AcDbLine
 10
-3.3228346457
 20
0.8543307087
 30
0.0
 11
-4.6771653543
 21
0.8543307087
 31
0.0
  0
LINE
  5
5E9
330
1F
100
AcDbEntity
  8
0
  6
Continuous
 62
     7
370
    25
100
AcDbLine
 10
-4.688976378
 20
0.842519685
 30
0.0
 11
-4.688976378
 21
0.1968503937
 31
0.0
  0
LINE
  5
5EA
330
1F
100
AcDbEntity
  8
0
  6
Continuous
 62
     7
370
    25
100
AcDbLine
 10
-3.311023622
 20
0.842519685
 30
0.0
 11
-3.311023622
 21
0.1968503937
 31
0.0
  0
LINE
  5
5EB
330
1F
100
AcDbEntity
  8
0
  6
Continuous
 62
     7
370
    25
100
AcDbLine
 10
-3.3799212598
 20
0.8937007874
 30
0.0
 11
-3.3799212598
 21
0.8543307087
 31
0.0
  0
LINE
  5
5EC
330
1F
100
AcDbEntity
  8
0
  6
Continuous
 62
     7
370
    25
100
AcDbLine
 10
-4.6200787402
 20
0.8543307087
 30
0.0
 11
-4.6200787402
 21
0.8937007874
 31
0.0
  0
LINE
  5
5ED
330
1F
100
AcDbEntity
  8
0
  6
Continuous
 62
     7
370
    25
100
AcDbLine
 10
3.311023622
 20
0.842519685
 30
0.0
 11
3.311023622
 21
0.1968503937
 31
0.0
  0
LINE
  5
5EE
330
1F
100
AcDbEntity
  8
0
  6
Continuous
 62
     7
370
    25
100
AcDbLine
 10
4.688976378
 20
0.842519685
 30
0.0
 11
3.311023622
 21
0.842519685
 31
0.0
  0
LINE
  5
5EF
330
1F
100
AcDbEntity
  8
0
  6
Continuous
 62
     7
370
    25
100
AcDbLine
 10
4.688976378
 20
0.842519685
 30
0.0
 11
4.688976378
 21
0.1968503937
 31
0.0
  0
LINE
  5
5F0
330
1F
100
AcDbEntity
  8
0
  6
Continuous
 62
     7
370
    25
100
AcDbLine
 10
4.6771653543
 20
0.8543307087
 30
0.0
 11
3.3228346457
 21
0.8543307087
 31
0.0
  0
LINE
  5
5F1
330
1F
100
AcDbEntity
  8
0
  6
Continuous
 62
     7
370
    25
100
AcDbLine
 10
4.6200787402
 20
0.8937007874
 30
0.0
 11
4.6200787402
 21
0.8543307087
 31
0.0
  0
LINE
  5
5F2
330
1F
100
AcDbEntity
  8
0
  6
Continuous
 62
     7
370
    25
100
AcDbLine
 10
3.3799212598
 20
0.8543307087
 30
0.0
 11
3.3799212598
 21
0.8937007874
 31
0.0
  0
LINE
  5
5F3
330
1F
100
AcDbEntity
  8
0
  6
Continuous
 62
     7
370
    25
100
AcDbLine
 10
1.1023622047
 20
0.1968503937
 30
0.0
 11
-1.1023622047
 21
0.1968503937
 31
0.0
  0
LINE
  5
5F4
330
1F
100
AcDbEntity
  8
0
  6
Continuous
 62
     7
370
    25
100
AcDbLine
 10
1.062992126
 20
0.2362204724
 30
0.0
 11
-1.062992126
 21
0.2362204724
 31
0.0
  0
LINE
  5
5F5
330
1F
100
AcDbEntity
  8
0
  6
Continuous
 62
     7
370
    25
100
AcDbLine
 10
1.1023622047
 20
0.1968503937
 30
0.0
 11
1.1023622047
 21
0.0
 31
0.0
  0
LINE
  5
5F6
330
1F
100
AcDbEntity
  8
0
  6
Continuous
 62
     7
370
    25
100
AcDbLine
 10
-1.1023622047
 20
0.1968503937
 30
0.0
 11
-1.1023622047
 21
0.0
 31
0.0
  0
LINE
  5
5F7
330
1F
100
AcDbEntity
  8
0
  6
Continuous
 62
     7
370
    25
100
AcDbLine
 10
-1.1023622047
 20
0.0
 30
0.0
 11
1.1023622047
 21
0.0
 31
0.0
  0
LINE
  5
5F8
330
1F
100
AcDbEntity
  8
0
  6
Continuous
 62
     7
370
    25
100
AcDbLine
 10
0.0
 20
8.6255216758
 30
0.0
 11
0.0
 21
4.8373864082
 31
0.0
  0
LINE
  5
5F9
330
1F
100
AcDbEntity
  8
0
  6
Continuous
 62
     7
370
    25
100
AcDbLine
 10
4.0
 20
1.8779527559
 30
0.0
 11
4.0
 21
0.8937007874
 31
0.0
  0
LINE
  5
5FA
330
1F
100
AcDbEntity
  8
0
  6
Continuous
 62
     7
370
    25
100
AcDbLine
 10
3.311023622
 20
0.8937007874
 30
0.0
 11
4.688976378
 21
0.8937007874
 31
0.0
  0
LINE
  5
5FB
330
1F
100
AcDbEntity
  8
0
  6
Continuous
 62
     7
370
    25
100
AcDbLine
 10
4.6692913386
 20
1.8779527559
 30
0.0
 11
3.3307086614
 21
1.8779527559
 31
0.0
  0
LINE
  5
5FC
330
1F
100
AcDbEntity
  8
0
  6
Continuous
 62
     7
370
    25
100
AcDbLine
 10
2.9566929134
 20
0.1968503937
 30
0.0
 11
5.0433070866
 21
0.1968503937
 31
0.0
  0
LINE
  5
5FD
330
1F
100
AcDbEntity
  8
0
  6
Continuous
 62
     7
370
    25
100
AcDbLine
 10
2.937007874
 20
0.1771653543
 30
0.0
 11
5.062992126
 21
0.1771653543
 31
0.0
  0
LINE
  5
5FE
330
1F
100
AcDbEntity
  8
0
  6
Continuous
 62
     7
370
    25
100
AcDbLine
 10
5.062992126
 20
0.0
 30
0.0
 11
5.062992126
 21
0.1771653543
 31
0.0
  0
LINE
  5
5FF
330
1F
100
AcDbEntity
  8
0
  6
Continuous
 62
     7
370
    25
100
AcDbLine
 10
2.937007874
 20
0.0
 30
0.0
 11
2.937007874
 21
0.1771653543
 31
0.0
  0
LINE
  5
600
330
1F
100
AcDbEntity
  8
0
  6
Continuous
 62
     7
370
    25
100
AcDbLine
 10
5.062992126
 20
0.0
 30
0.0
 11
2.937007874
 21
0.0
 31
0.0
  0
LINE
  5
601
330
1F
100
AcDbEntity
  8
0
  6
Continuous
 62
     7
370
    25
100
AcDbLine
 10
5.8503937008
 20
1.3267716535
 30
0.0
 11
5.8503937008
 21
1.6417322835
 31
0.0
  0
LINE
  5
602
330
1F
100
AcDbEntity
  8
0
  6
Continuous
 62
     7
370
    25
100
AcDbLine
 10
5.8700787402
 20
1.3464566929
 30
0.0
 11
5.8700787402
 21
1.6220472441
 31
0.0
  0
LINE
  5
603
330
1F
100
AcDbEntity
  8
0
  6
Continuous
 62
     7
370
    25
100
AcDbLine
 10
5.8503937008
 20
1.3267716535
 30
0.0
 11
4.6880865981
 21
1.3267716535
 31
0.0
  0
LINE
  5
604
330
1F
100
AcDbEntity
  8
0
  6
Continuous
 62
     7
370
    25
100
AcDbLine
 10
5.8503937008
 20
1.6417322835
 30
0.0
 11
4.6880865693
 21
1.6417322835
 31
0.0
  0
LINE
  5
605
330
1F
100
AcDbEntity
  8
0
  6
Continuous
 62
     7
370
    25
100
AcDbLine
 10
-4.688976378
 20
0.8937007874
 30
0.0
 11
-3.311023622
 21
0.8937007874
 31
0.0
  0
LINE
  5
606
330
1F
100
AcDbEntity
  8
0
  6
Continuous
 62
     7
370
    25
100
AcDbLine
 10
-4.0
 20
1.8779527559
 30
0.0
 11
-4.0
 21
0.8937007874
 31
0.0
  0
LINE
  5
607
330
1F
100
AcDbEntity
  8
0
  6
Continuous
 62
     7
370
    25
100
AcDbLine
 10
-3.3307086614
 20
1.8779527559
 30
0.0
 11
-4.6692913386
 21
1.8779527559
 31
0.0
  0
LINE
  5
608
330
1F
100
AcDbEntity
  8
0
  6
Continuous
 62
     7
370
    25
100
AcDbLine
 10
-5.8503937008
 20
1.6417322835
 30
0.0
 11
-5.8503937008
 21
1.3267716535
 31
0.0
  0
LINE
  5
609
330
1F
100
AcDbEntity
  8
0
  6
Continuous
 62
     7
370
    25
100
AcDbLine
 10
-5.8503937008
 20
1.6417322835
 30
0.0
 11
-4.688064564
 21
1.6417322835
 31
0.0
  0
LINE
  5
60A
330
1F
100
AcDbEntity
  8
0
  6
Continuous
 62
     7
370
    25
100
AcDbLine
 10
-5.8503937008
 20
1.3267716535
 30
0.0
 11
-4.6880645888
 21
1.3267716535
 31
0.0
  0
LINE
  5
60B
330
1F
100
AcDbEntity
  8
0
  6
Continuous
 62
     7
370
    25
100
AcDbLine
 10
-5.8700787402
 20
1.6220472441
 30
0.0
 11
-5.8700787402
 21
1.3464566929
 31
0.0
  0
LINE
  5
60C
330
1F
100
AcDbEntity
  8
0
  6
Continuous
 62
     7
370
    25
100
AcDbLine
 10
-5.0433070866
 20
0.1968503937
 30
0.0
 11
-2.9566929134
 21
0.1968503937
 31
0.0
  0
LINE
  5
60D
330
1F
100
AcDbEntity
  8
0
  6
Continuous
 62
     7
370
    25
100
AcDbLine
 10
-5.062992126
 20
0.1771653543
 30
0.0
 11
-2.937007874
 21
0.1771653543
 31
0.0
  0
LINE
  5
60E
330
1F
100
AcDbEntity
  8
0
  6
Continuous
 62
     7
370
    25
100
AcDbLine
 10
-2.937007874
 20
0.0
 30
0.0
 11
-2.937007874
 21
0.1771653543
 31
0.0
  0
LINE
  5
60F
330
1F
100
AcDbEntity
  8
0
  6
Continuous
 62
     7
370
    25
100
AcDbLine
 10
-2.937007874
 20
0.0
 30
0.0
 11
-5.062992126
 21
0.0
 31
0.0
  0
LINE
  5
610
330
1F
100
AcDbEntity
  8
0
  6
Continuous
 62
     7
370
    25
100
AcDbLine
 10
-5.062992126
 20
0.0
 30
0.0
 11
-5.062992126
 21
0.1771653543
 31
0.0
  0
LINE
  5
611
330
1F
100
AcDbEntity
  8
0
  6
Continuous
 62
     8
370
    25
100
AcDbLine
 10
0.0
 20
4.6628306284
 30
0.0
 11
0.0
 21
4.6675372907
 31
0.0
  0
LINE
  5
612
330
1F
100
AcDbEntity
  8
0
  6
Continuous
 62
     8
370
    25
100
AcDbLine
 10
0.3599505592
 20
4.7662418404
 30
0.0
 11
0.3599505558
 21
4.7608148661
 31
0.0
  0
LINE
  5
613
330
1F
100
AcDbEntity
  8
0
  6
Continuous
 62
     8
370
    25
100
AcDbLine
 10
-0.3599505558
 20
4.7608148661
 30
0.0
 11
-0.3599505605
 21
4.7662418395
 31
0.0
  0
LINE
  5
614
330
1F
100
AcDbEntity
  8
0
  6
Continuous
 62
     8
370
    25
100
AcDbLine
 10
0.0
 20
4.68178764
 30
0.0
 11
0.0
 21
4.7203025204
 31
0.0
  0
LINE
  5
615
330
1F
100
AcDbEntity
  8
0
  6
Continuous
 62
     8
370
    25
100
AcDbLine
 10
-0.3211139976
 20
4.7391688405
 30
0.0
 11
-0.3211139823
 21
4.7585299349
 31
0.0
  0
LINE
  5
616
330
1F
100
AcDbEntity
  8
0
  6
Continuous
 62
     8
370
    25
100
AcDbLine
 10
0.3211139859
 20
4.7585299115
 30
0.0
 11
0.3211139976
 21
4.7391688405
 31
0.0
  0
LINE
  5
617
330
1F
100
AcDbEntity
  8
0
  6
Continuous
 62
     8
370
    25
100
AcDbLine
 10
0.1996022464
 20
4.8085856409
 30
0.0
 11
0.1907623275
 21
4.8059608156
 31
0.0
  0
LINE
  5
618
330
1F
100
AcDbEntity
  8
0
  6
Continuous
 62
     8
370
    25
100
AcDbLine
 10
-0.1907623275
 20
4.8059608156
 30
0.0
 11
-0.1996022464
 21
4.8085856409
 31
0.0
  0
LINE
  5
619
330
1F
100
AcDbEntity
  8
0
  6
Continuous
 62
     8
370
    25
100
AcDbLine
 10
0.1907623275
 20
4.8059608156
 30
0.0
 11
0.1907623289
 21
4.8096902331
 31
0.0
  0
LINE
  5
61A
330
1F
100
AcDbEntity
  8
0
  6
Continuous
 62
     8
370
    25
100
AcDbLine
 10
-0.1907623288
 20
4.8096902331
 30
0.0
 11
-0.1907623275
 21
4.8059608156
 31
0.0
  0
LINE
  5
61B
330
1F
100
AcDbEntity
  8
0
  6
Continuous
 62
     8
370
    25
100
AcDbLine
 10
0.0
 20
4.7462313125
 30
0.0
 11
0.0
 21
4.7222505381
 31
0.0
  0
LINE
  5
61C
330
1F
100
AcDbEntity
  8
0
  6
Continuous
 62
     8
370
    25
100
AcDbLine
 10
-0.3508005326
 20
4.7621785141
 30
0.0
 11
-0.3508005332
 21
4.7714078866
 31
0.0
  0
LINE
  5
61D
330
1F
100
AcDbEntity
  8
0
  6
Continuous
 62
     8
370
    25
100
AcDbLine
 10
0.350800533
 20
4.7714078867
 30
0.0
 11
0.3508005326
 21
4.7621785141
 31
0.0
  0
LINE
  5
61E
330
1F
100
AcDbEntity
  8
0
  6
Continuous
 62
     8
370
    25
100
AcDbLine
 10
0.3275312709
 20
4.7613254528
 30
0.0
 11
0.3275312724
 21
4.7812375733
 31
0.0
  0
LINE
  5
61F
330
1F
100
AcDbEntity
  8
0
  6
Continuous
 62
     8
370
    25
100
AcDbLine
 10
-0.3275312723
 20
4.7812375733
 30
0.0
 11
-0.3275312709
 21
4.7613254527
 31
0.0
  0
LINE
  5
620
330
1F
100
AcDbEntity
  8
0
  6
Continuous
 62
     8
370
    25
100
AcDbLine
 10
-0.3211139976
 20
4.7391688405
 30
0.0
 11
-0.3210245636
 21
4.7389228
 31
0.0
  0
LINE
  5
621
330
1F
100
AcDbEntity
  8
0
  6
Continuous
 62
     8
370
    25
100
AcDbLine
 10
0.3211139976
 20
4.7391688405
 30
0.0
 11
0.3210245636
 21
4.7389228
 31
0.0
  0
LINE
  5
622
330
1F
100
AcDbEntity
  8
0
  6
Continuous
 62
     8
370
    25
100
AcDbLine
 10
0.1843123115
 20
4.7225439539
 30
0.0
 11
0.1865767963
 21
4.7222695592
 31
0.0
  0
LINE
  5
623
330
1F
100
AcDbEntity
  8
0
  6
Continuous
 62
     8
370
    25
100
AcDbLine
 10
-0.18803005
 20
4.7214400523
 30
0.0
 11
-0.1843123115
 21
4.7225439595
 31
0.0
  0
LINE
  5
624
330
1F
100
AcDbEntity
  8
0
  6
Continuous
 62
     8
370
    25
100
AcDbLine
 10
0.1843123115
 20
4.7225439539
 30
0.0
 11
0.1880300469
 21
4.7214400506
 31
0.0
  0
LINE
  5
625
330
1F
100
AcDbEntity
  8
0
  6
Continuous
 62
     8
370
    25
100
AcDbLine
 10
0.0619752227
 20
4.6760982007
 30
0.0
 11
0.0618555987
 21
4.6763824801
 31
0.0
  0
LINE
  5
626
330
1F
100
AcDbEntity
  8
0
  6
Continuous
 62
     8
370
    25
100
AcDbLine
 10
-0.0619752227
 20
4.6760982007
 30
0.0
 11
-0.0618555987
 21
4.6763824802
 31
0.0
  0
LINE
  5
627
330
1F
100
AcDbEntity
  8
0
  6
Continuous
 62
     8
370
    25
100
AcDbLine
 10
0.0619752227
 20
4.6992040496
 30
0.0
 11
0.0618555987
 21
4.699488329
 31
0.0
  0
LINE
  5
628
330
1F
100
AcDbEntity
  8
0
  6
Continuous
 62
     8
370
    25
100
AcDbLine
 10
-0.0619752227
 20
4.6992040459
 30
0.0
 11
-0.0618555907
 21
4.6994883287
 31
0.0
  0
LINE
  5
629
330
1F
100
AcDbEntity
  8
0
  6
Continuous
 62
     8
370
    25
100
AcDbLine
 10
0.0
 20
0.2362204724
 30
0.0
 11
0.0
 21
4.6458457166
 31
0.0
  0
LINE
  5
62A
330
1F
100
AcDbEntity
  8
0
  6
Continuous
 62
     8
370
    25
100
AcDbLine
 10
4.688976378
 20
1.8582677165
 30
0.0
 11
3.311023622
 21
1.8582677165
 31
0.0
  0
LINE
  5
62B
330
1F
100
AcDbEntity
  8
0
  6
Continuous
 62
     8
370
    25
100
AcDbLine
 10
-3.311023622
 20
1.8582677165
 30
0.0
 11
-4.688976378
 21
1.8582677165
 31
0.0
  0
ARC
  5
62C
330
1F
100
AcDbEntity
  8
0
  6
Continuous
 62
     7
370
    25
100
AcDbCircle
 10
-0.054101207
 20
4.8225378233
 30
0.0
 40
0.0078740157480613
100
AcDbArc
 50
203.0408404774
 51
220.3008085716
  0
ARC
  5
62D
330
1F
100
AcDbEntity
  8
0
  6
Continuous
 62
     7
370
    25
100
AcDbCircle
 10
0.054101207
 20
4.8225378233
 30
0.0
 40
0.0078740157480324
100
AcDbArc
 50
319.6991914284
 51
336.9591595226
  0
ARC
  5
62E
330
1F
100
AcDbEntity
  8
0
  6
Continuous
 62
     7
370
    25
100
AcDbCircle
 10
0.0499982083
 20
4.8176998718
 30
0.0
 40
0.0078740157480305
100
AcDbArc
 50
268.1897046455
 51
319.6991914284
  0
ARC
  5
62F
330
1F
100
AcDbEntity
  8
0
  6
Continuous
 62
     7
370
    25
100
AcDbCircle
 10
-0.0499982083
 20
4.8176998718
 30
0.0
 40
0.0078740157480331
100
AcDbArc
 50
220.3008085716
 51
271.8102953544
  0
ARC
  5
630
330
1F
100
AcDbEntity
  8
0
  6
Continuous
 62
     7
370
    25
100
AcDbCircle
 10
-0.1972123436
 20
4.8050218137
 30
0.0
 40
0.0078740157480319
100
AcDbArc
 50
278.7010774132
 51
0.0
  0
ARC
  5
631
330
1F
100
AcDbEntity
  8
0
  6
Continuous
 62
     7
370
    25
100
AcDbCircle
 10
0.1972123436
 20
4.8050218137
 30
0.0
 40
0.0078740157480316
100
AcDbArc
 50
180.0
 51
261.2989225868
  0
ARC
  5
632
330
1F
100
AcDbEntity
  8
0
  6
Continuous
 62
     7
370
    25
100
AcDbCircle
 10
-0.2872755989
 20
4.7931385067
 30
0.0
 40
0.0078740157480347
100
AcDbArc
 50
195.0283353672
 51
261.716993408
  0
ARC
  5
633
330
1F
100
AcDbEntity
  8
0
  6
Continuous
 62
     7
370
    25
100
AcDbCircle
 10
0.2872755989
 20
4.7931385067
 30
0.0
 40
0.0078740157480345
100
AcDbArc
 50
278.283006592
 51
344.9716646328
  0
ARC
  5
634
330
1F
100
AcDbEntity
  8
0
  6
Continuous
 62
     7
370
    25
100
AcDbCircle
 10
-0.267920488
 20
4.7903207638
 30
0.0
 40
0.0078740157480307
100
AcDbArc
 50
261.716993408
 51
285.772649063
  0
ARC
  5
635
330
1F
100
AcDbEntity
  8
0
  6
Continuous
 62
     7
370
    25
100
AcDbCircle
 10
0.267920488
 20
4.7903207638
 30
0.0
 40
0.0078740157480133
100
AcDbArc
 50
254.227350937
 51
278.2830065921
  0
ARC
  5
636
330
1F
100
AcDbEntity
  8
0
  6
Continuous
 62
     7
370
    25
100
AcDbCircle
 10
-0.3288985794
 20
4.7597132241
 30
0.0
 40
0.007874015748031
100
AcDbArc
 50
323.8271522934
 51
0.0
  0
ARC
  5
637
330
1F
100
AcDbEntity
  8
0
  6
Continuous
 62
     7
370
    25
100
AcDbCircle
 10
0.3288985794
 20
4.7597132241
 30
0.0
 40
0.0078740157480315
100
AcDbArc
 50
180.0
 51
216.1728477066
  0
ARC
  5
638
330
1F
100
AcDbEntity
  8
0
  6
Continuous
 62
     7
370
    25
100
AcDbCircle
 10
-0.3288985794
 20
4.7389228
 30
0.0
 40
0.0078740157480316
100
AcDbArc
 50
272.0995482747
 51
0.0
  0
ARC
  5
639
330
1F
100
AcDbEntity
  8
0
  6
Continuous
 62
     7
370
    25
100
AcDbCircle
 10
0.3288985794
 20
4.7389228
 30
0.0
 40
0.0078740157480316
100
AcDbArc
 50
180.0
 51
267.9004517253
  0
ARC
  5
63A
330
1F
100
AcDbEntity
  8
0
  6
Continuous
 62
     7
370
    25
100
AcDbCircle
 10
0.3521678411
 20
4.7380697386
 30
0.0
 40
0.0078740157480282
100
AcDbArc
 50
267.9004517253
 51
323.5397662925
  0
ARC
  5
63B
330
1F
100
AcDbEntity
  8
0
  6
Continuous
 62
     7
370
    25
100
AcDbCircle
 10
-0.3521678411
 20
4.7380697386
 30
0.0
 40
0.0078740157480308
100
AcDbArc
 50
216.4602337076
 51
272.0995482747
  0
ARC
  5
63C
330
1F
100
AcDbEntity
  8
0
  6
Continuous
 62
     7
370
    25
100
AcDbCircle
 10
-0.2872755989
 20
4.7054975174
 30
0.0
 40
0.0078740157480334
100
AcDbArc
 50
180.0
 51
254.1779818769
  0
ARC
  5
63D
330
1F
100
AcDbEntity
  8
0
  6
Continuous
 62
     7
370
    25
100
AcDbCircle
 10
0.2872755989
 20
4.7054975174
 30
0.0
 40
0.0078740157480313
100
AcDbArc
 50
285.8220181231
 51
0.0
  0
ARC
  5
63E
330
1F
100
AcDbEntity
  8
0
  6
Continuous
 62
     7
370
    25
100
AcDbCircle
 10
0.1972123436
 20
4.6936142104
 30
0.0
 40
0.0078740157480293
100
AcDbArc
 50
180.0
 51
253.4623363555
  0
ARC
  5
63F
330
1F
100
AcDbEntity
  8
0
  6
Continuous
 62
     7
370
    25
100
AcDbCircle
 10
-0.1972123436
 20
4.6936142104
 30
0.0
 40
0.0078740157480314
100
AcDbArc
 50
286.5376636445
 51
0.0
  0
ARC
  5
640
330
1F
100
AcDbEntity
  8
0
  6
Continuous
 62
     7
370
    25
100
AcDbCircle
 10
0.2107649382
 20
4.6895900565
 30
0.0
 40
0.0078740157480257
100
AcDbArc
 50
253.4623363555
 51
278.6729388198
  0
ARC
  5
641
330
1F
100
AcDbEntity
  8
0
  6
Continuous
 62
     7
370
    25
100
AcDbCircle
 10
-0.2107649382
 20
4.6895900565
 30
0.0
 40
0.0078740157480423
100
AcDbArc
 50
261.3270611802
 51
286.5376636445
  0
ARC
  5
642
330
1F
100
AcDbEntity
  8
0
  6
Continuous
 62
     7
370
    25
100
AcDbCircle
 10
0.054101207
 20
4.6760982007
 30
0.0
 40
0.0078740157480311
100
AcDbArc
 50
271.8294105638
 51
0.0
  0
ARC
  5
643
330
1F
100
AcDbEntity
  8
0
  6
Continuous
 62
     7
370
    25
100
AcDbCircle
 10
-0.054101207
 20
4.6760982007
 30
0.0
 40
0.0078740157480311
100
AcDbArc
 50
180.0
 51
268.1705894362
  0
ARC
  5
644
330
1F
100
AcDbEntity
  8
0
  6
Continuous
 62
     7
370
    25
100
AcDbCircle
 10
0.0
 20
8.1530807309
 30
0.0
 40
0.4724409448818892
100
AcDbArc
 50
0.0
 51
180.0
  0
ARC
  5
645
330
1F
100
AcDbEntity
  8
0
  6
Continuous
 62
     7
370
    25
100
AcDbCircle
 10
3.3307086614
 20
1.8582677165
 30
0.0
 40
0.0196850393700787
100
AcDbArc
 50
90.0
 51
180.0
  0
ARC
  5
646
330
1F
100
AcDbEntity
  8
0
  6
Continuous
 62
     7
370
    25
100
AcDbCircle
 10
4.6692913386
 20
1.8582677165
 30
0.0
 40
0.0196850393700778
100
AcDbArc
 50
360.0
 51
90.0
  0
ARC
  5
647
330
1F
100
AcDbEntity
  8
0
  6
Continuous
 62
     7
370
    25
100
AcDbCircle
 10
-3.3307086614
 20
1.8582677165
 30
0.0
 40
0.0196850393700787
100
AcDbArc
 50
0.0
 51
90.0
  0
ARC
  5
648
330
1F
100
AcDbEntity
  8
0
  6
Continuous
 62
     7
370
    25
100
AcDbCircle
 10
-4.6692913386
 20
1.8582677165
 30
0.0
 40
0.019685039370078
100
AcDbArc
 50
90.0
 51
180.0
  0
ARC
  5
649
330
1F
100
AcDbEntity
  8
0
  6
Continuous
 62
     7
370
    25
100
AcDbCircle
 10
0.0
 20
3.1130828167
 30
0.0
 40
1.702612817877453
100
AcDbArc
 50
88.1790970565
 51
91.8209029435
  0
ARC
  5
64A
330
1F
100
AcDbEntity
  8
0
  6
Continuous
 62
     7
370
    25
100
AcDbCircle
 10
0.3460737769
 20
4.749318012
 30
0.0
 40
0.0180206172296474
100
AcDbArc
 50
320.3583919334
 51
39.6416080666
  0
ARC
  5
64B
330
1F
100
AcDbEntity
  8
0
  6
Continuous
 62
     7
370
    25
100
AcDbCircle
 10
-0.3460737769
 20
4.749318012
 30
0.0
 40
0.0180206172296562
100
AcDbArc
 50
140.3583919335
 51
219.6416080665
  0
ARC
  5
64C
330
1F
100
AcDbEntity
  8
0
  6
Continuous
 62
     7
370
    25
100
AcDbCircle
 10
0.0
 20
3.2208400328
 30
0.0
 40
1.589944218607066
100
AcDbArc
 50
88.197950194
 51
91.802049806
  0
ARC
  5
64D
330
1F
100
AcDbEntity
  8
0
  6
Continuous
 62
     7
370
    25
100
AcDbCircle
 10
-0.0001051892
 20
6.2288216066
 30
0.0
 40
1.547033970165015
100
AcDbArc
 50
268.1956973274
 51
270.0038957742
  0
ARC
  5
64E
330
1F
100
AcDbEntity
  8
0
  6
Continuous
 62
     7
370
    25
100
AcDbCircle
 10
-0.1086233098
 20
5.2717672757
 30
0.0
 40
0.582907346940655
100
AcDbArc
 50
254.7873830427
 51
261.7223498178
  0
ARC
  5
64F
330
1F
100
AcDbEntity
  8
0
  6
Continuous
 62
     7
370
    25
100
AcDbCircle
 10
-0.2420355564
 20
4.8668380558
 30
0.0
 40
0.1198289464012965
100
AcDbArc
 50
230.3833653445
 51
256.3086317252
  0
ARC
  5
650
330
1F
100
AcDbEntity
  8
0
  6
Continuous
 62
     7
370
    25
100
AcDbCircle
 10
-0.3076060939
 20
4.749823944
 30
0.0
 40
0.017204496258401
100
AcDbArc
 50
181.6851376191
 51
218.2665571045
  0
ARC
  5
651
330
1F
100
AcDbEntity
  8
0
  6
Continuous
 62
     7
370
    25
100
AcDbCircle
 10
0.3076060939
 20
4.749823944
 30
0.0
 40
0.0172044962583991
100
AcDbArc
 50
321.7334428955
 51
358.3148623809
  0
ARC
  5
652
330
1F
100
AcDbEntity
  8
0
  6
Continuous
 62
     7
370
    25
100
AcDbCircle
 10
0.2420358376
 20
4.866837011
 30
0.0
 40
0.1198278958746996
100
AcDbArc
 50
283.691393606
 51
309.6168144279
  0
ARC
  5
653
330
1F
100
AcDbEntity
  8
0
  6
Continuous
 62
     7
370
    25
100
AcDbCircle
 10
0.1086233098
 20
5.2717672757
 30
0.0
 40
0.5829073469408665
100
AcDbArc
 50
278.2776501822
 51
285.2126169573
  0
ARC
  5
654
330
1F
100
AcDbEntity
  8
0
  6
Continuous
 62
     7
370
    25
100
AcDbCircle
 10
0.0001051892
 20
6.2288216066
 30
0.0
 40
1.54703397015064
100
AcDbArc
 50
269.9961042258
 51
271.8043026726
  0
ARC
  5
655
330
1F
100
AcDbEntity
  8
0
  6
Continuous
 62
     7
370
    25
100
AcDbCircle
 10
-0.1191279009
 20
4.1686425059
 30
0.0
 40
0.6393031753053424
100
AcDbArc
 50
98.2411024952
 51
105.2491646443
  0
ARC
  5
656
330
1F
100
AcDbEntity
  8
0
  6
Continuous
 62
     7
370
    25
100
AcDbCircle
 10
0.1191279009
 20
4.1686425059
 30
0.0
 40
0.639303175305529
100
AcDbArc
 50
74.7508353557
 51
81.7588975048
  0
ARC
  5
657
330
1F
100
AcDbEntity
  8
0
  6
Continuous
 62
     7
370
    25
100
AcDbCircle
 10
0.1992586818
 20
4.8055751227
 30
0.0
 40
0.0085051040649938
100
AcDbArc
 50
177.4008363245
 51
256.0779740117
  0
ARC
  5
658
330
1F
100
AcDbEntity
  8
0
  6
Continuous
 62
     7
370
    25
100
AcDbCircle
 10
-0.1992586818
 20
4.8055751227
 30
0.0
 40
0.0085051040638413
100
AcDbArc
 50
283.9220259848
 51
2.5991636211
  0
ARC
  5
659
330
1F
100
AcDbEntity
  8
0
  6
Continuous
 62
     7
370
    25
100
AcDbCircle
 10
-0.1112566021
 20
4.206501362
 30
0.0
 40
0.5970384341393997
100
AcDbArc
 50
98.2776501822
 51
105.2126169573
  0
ARC
  5
65A
330
1F
100
AcDbEntity
  8
0
  6
Continuous
 62
     7
370
    25
100
AcDbCircle
 10
0.1112566021
 20
4.206501362
 30
0.0
 40
0.5970384341394369
100
AcDbArc
 50
74.7873830427
 51
81.7223498178
  0
ARC
  5
65B
330
1F
100
AcDbEntity
  8
0
  6
Continuous
 62
     7
370
    25
100
AcDbCircle
 10
-0.0000107172
 20
5.9689470134
 30
0.0
 40
1.246696475373712
100
AcDbArc
 50
269.095768343
 51
270.0004925422
  0
ARC
  5
65C
330
1F
100
AcDbEntity
  8
0
  6
Continuous
 62
     7
370
    25
100
AcDbCircle
 10
-0.2322493766
 20
4.8065403111
 30
0.0
 40
0.0312262200621509
100
AcDbArc
 50
221.3700873684
 51
231.3930301711
  0
ARC
  5
65D
330
1F
100
AcDbEntity
  8
0
  6
Continuous
 62
     7
370
    25
100
AcDbCircle
 10
-0.1875926033
 20
4.8800987003
 30
0.0
 40
0.1176003595629541
100
AcDbArc
 50
244.180734939
 51
246.637830915
  0
ARC
  5
65E
330
1F
100
AcDbEntity
  8
0
  6
Continuous
 62
     7
370
    25
100
AcDbCircle
 10
-0.13384346
 20
5.0305672129
 30
0.0
 40
0.2775087084201552
100
AcDbArc
 50
253.0945673509
 51
254.4676997922
  0
ARC
  5
65F
330
1F
100
AcDbEntity
  8
0
  6
Continuous
 62
     7
370
    25
100
AcDbCircle
 10
-0.0617546807
 20
5.3539668457
 30
0.0
 40
0.6089857788990442
100
AcDbArc
 50
258.638719252
 51
262.2274335317
  0
ARC
  5
660
330
1F
100
AcDbEntity
  8
0
  6
Continuous
 62
     7
370
    25
100
AcDbCircle
 10
-0.0108931075
 20
5.7705946286
 30
0.0
 40
1.028791852370146
100
AcDbArc
 50
264.2346691226
 51
266.7563380946
  0
ARC
  5
661
330
1F
100
AcDbEntity
  8
0
  6
Continuous
 62
     7
370
    25
100
AcDbCircle
 10
0.0108357197
 20
5.7713087881
 30
0.0
 40
1.029508255210019
100
AcDbArc
 50
273.2330667691
 51
275.7582498278
  0
ARC
  5
662
330
1F
100
AcDbEntity
  8
0
  6
Continuous
 62
     7
370
    25
100
AcDbCircle
 10
0.0615958062
 20
5.3548870834
 30
0.0
 40
0.6099194718435488
100
AcDbArc
 50
277.7560389626
 51
281.3515201409
  0
ARC
  5
663
330
1F
100
AcDbEntity
  8
0
  6
Continuous
 62
     7
370
    25
100
AcDbCircle
 10
0.1337854617
 20
5.0307636723
 30
0.0
 40
0.2777135436025139
100
AcDbArc
 50
285.5196168219
 51
286.9050949034
  0
ARC
  5
664
330
1F
100
AcDbEntity
  8
0
  6
Continuous
 62
     7
370
    25
100
AcDbCircle
 10
0.1875418671
 20
4.8802116844
 30
0.0
 40
0.1177241998862215
100
AcDbArc
 50
293.3630323829
 51
295.7953254197
  0
ARC
  5
665
330
1F
100
AcDbEntity
  8
0
  6
Continuous
 62
     7
370
    25
100
AcDbCircle
 10
0.2322181562
 20
4.8065706435
 30
0.0
 40
0.0312696970130311
100
AcDbArc
 50
308.5540903899
 51
318.6260116813
  0
ARC
  5
666
330
1F
100
AcDbEntity
  8
0
  6
Continuous
 62
     7
370
    25
100
AcDbCircle
 10
0.3729605979
 20
4.7606741324
 30
0.0
 40
0.0222110706248602
100
AcDbArc
 50
176.1163167241
 51
200.5862680543
  0
ARC
  5
667
330
1F
100
AcDbEntity
  8
0
  6
Continuous
 62
     7
370
    25
100
AcDbCircle
 10
0.3530343144
 20
4.7457871331
 30
0.0
 40
0.0165428882897911
100
AcDbArc
 50
65.286606513
 51
97.7603392651
  0
ARC
  5
668
330
1F
100
AcDbEntity
  8
0
  6
Continuous
 62
     7
370
    25
100
AcDbCircle
 10
0.3519112172
 20
4.7609000289
 30
0.0
 40
0.008039789708966
100
AcDbArc
 50
271.8291480583
 51
359.3930736049
  0
ARC
  5
669
330
1F
100
AcDbEntity
  8
0
  6
Continuous
 62
     7
370
    25
100
AcDbCircle
 10
-0.3729605979
 20
4.7606741324
 30
0.0
 40
0.0222110706432914
100
AcDbArc
 50
339.4137319521
 51
3.8836832856
  0
ARC
  5
66A
330
1F
100
AcDbEntity
  8
0
  6
Continuous
 62
     7
370
    25
100
AcDbCircle
 10
-0.3519112172
 20
4.7609000289
 30
0.0
 40
0.0080397897089648
100
AcDbArc
 50
180.6069263951
 51
268.1708519417
  0
ARC
  5
66B
330
1F
100
AcDbEntity
  8
0
  6
Continuous
 62
     7
370
    25
100
AcDbCircle
 10
-0.3530343144
 20
4.745787133
 30
0.0
 40
0.0165428884271619
100
AcDbArc
 50
82.2396609269
 51
114.7133934068
  0
ARC
  5
66C
330
1F
100
AcDbEntity
  8
0
  6
Continuous
 62
     7
370
    25
100
AcDbCircle
 10
-0.3496913362
 20
4.759821071
 30
0.0
 40
0.0222110706244891
100
AcDbArc
 50
339.4137319452
 51
3.8836832759
  0
ARC
  5
66D
330
1F
100
AcDbEntity
  8
0
  6
Continuous
 62
     7
370
    25
100
AcDbCircle
 10
0.3496913362
 20
4.759821071
 30
0.0
 40
0.022211070644329
100
AcDbArc
 50
176.1163167153
 51
200.5862680475
  0
ARC
  5
66E
330
1F
100
AcDbEntity
  8
0
  6
Continuous
 62
     7
370
    25
100
AcDbCircle
 10
0.3525171856
 20
4.737801077
 30
0.0
 40
0.0074333973094349
100
AcDbArc
 50
323.6050767534
 51
0.1547820305
  0
ARC
  5
66F
330
1F
100
AcDbEntity
  8
0
  6
Continuous
 62
     7
370
    25
100
AcDbCircle
 10
0.3385911007
 20
4.7416160624
 30
0.0
 40
0.0176309822625306
100
AcDbArc
 50
320.3583919335
 51
39.6416080665
  0
ARC
  5
670
330
1F
100
AcDbEntity
  8
0
  6
Continuous
 62
     7
370
    25
100
AcDbCircle
 10
-0.3385911007
 20
4.7416160624
 30
0.0
 40
0.0176309822625305
100
AcDbArc
 50
140.3583919335
 51
219.6416080665
  0
ARC
  5
671
330
1F
100
AcDbEntity
  8
0
  6
Continuous
 62
     7
370
    25
100
AcDbCircle
 10
-0.3525171856
 20
4.737801077
 30
0.0
 40
0.0074333973094348
100
AcDbArc
 50
179.8452179695
 51
216.3949232466
  0
ARC
  5
672
330
1F
100
AcDbEntity
  8
0
  6
Continuous
 62
     7
370
    25
100
AcDbCircle
 10
0.3161871157
 20
4.7416160624
 30
0.0
 40
0.0164207716726266
100
AcDbArc
 50
320.7243021313
 51
39.2756978687
  0
ARC
  5
673
330
1F
100
AcDbEntity
  8
0
  6
Continuous
 62
     7
370
    25
100
AcDbCircle
 10
-0.3161871157
 20
4.7416160624
 30
0.0
 40
0.0164207716726265
100
AcDbArc
 50
140.7243021313
 51
219.2756978687
  0
ARC
  5
674
330
1F
100
AcDbEntity
  8
0
  6
Continuous
 62
     7
370
    25
100
AcDbCircle
 10
-0.3291511308
 20
4.739254471
 30
0.0
 40
0.0080375893813652
100
AcDbArc
 50
271.8006039459
 51
359.3895731623
  0
ARC
  5
675
330
1F
100
AcDbEntity
  8
0
  6
Continuous
 62
     7
370
    25
100
AcDbCircle
 10
0.3291511308
 20
4.739254471
 30
0.0
 40
0.0080375893813652
100
AcDbArc
 50
180.6104268377
 51
268.1993960541
  0
ARC
  5
676
330
1F
100
AcDbEntity
  8
0
  6
Continuous
 62
     7
370
    25
100
AcDbCircle
 10
0.2416844705
 20
4.8770714722
 30
0.0
 40
0.1397886944060285
100
AcDbArc
 50
284.6136687249
 51
304.5826332283
  0
ARC
  5
677
330
1F
100
AcDbEntity
  8
0
  6
Continuous
 62
     7
370
    25
100
AcDbCircle
 10
0.2788711479
 20
4.7500654888
 30
0.0
 40
0.0084801481533662
100
AcDbArc
 50
177.6442113435
 51
256.9282772143
  0
ARC
  5
678
330
1F
100
AcDbEntity
  8
0
  6
Continuous
 62
     7
370
    25
100
AcDbCircle
 10
-0.2788698086
 20
4.7500645958
 30
0.0
 40
0.008478931199907
100
AcDbArc
 50
283.0643412594
 51
2.3622448693
  0
ARC
  5
679
330
1F
100
AcDbEntity
  8
0
  6
Continuous
 62
     7
370
    25
100
AcDbCircle
 10
-0.2364401305
 20
4.8885274207
 30
0.0
 40
0.1522128099508406
100
AcDbArc
 50
236.2397345836
 51
254.5640710289
  0
ARC
  5
67A
330
1F
100
AcDbEntity
  8
0
  6
Continuous
 62
     7
370
    25
100
AcDbCircle
 10
0.2233381119
 20
4.9777898165
 30
0.0
 40
0.2497023232827551
100
AcDbArc
 50
286.9914326006
 51
293.0299112938
  0
ARC
  5
67B
330
1F
100
AcDbEntity
  8
0
  6
Continuous
 62
     7
370
    25
100
AcDbCircle
 10
-0.2233381119
 20
4.9777898165
 30
0.0
 40
0.2497023233388625
100
AcDbArc
 50
246.9700887067
 51
253.0085674022
  0
ARC
  5
67C
330
1F
100
AcDbEntity
  8
0
  6
Continuous
 62
     7
370
    25
100
AcDbCircle
 10
-0.2680336075
 20
4.7025250608
 30
0.0
 40
0.0305560047609822
100
AcDbArc
 50
77.8053662526
 51
98.2853642177
  0
ARC
  5
67D
330
1F
100
AcDbEntity
  8
0
  6
Continuous
 62
     7
370
    25
100
AcDbCircle
 10
0.2680336362
 20
4.7025240898
 30
0.0
 40
0.0305569611242766
100
AcDbArc
 50
81.7149527201
 51
102.1943080018
  0
ARC
  5
67E
330
1F
100
AcDbEntity
  8
0
  6
Continuous
 62
     7
370
    25
100
AcDbCircle
 10
-0.2630784276
 20
4.7086808828
 30
0.0
 40
0.0094091056269595
100
AcDbArc
 50
174.0496434952
 51
239.0283221553
  0
ARC
  5
67F
330
1F
100
AcDbEntity
  8
0
  6
Continuous
 62
     7
370
    25
100
AcDbCircle
 10
-0.2680336314
 20
4.6794190395
 30
0.0
 40
0.0305561742505702
100
AcDbArc
 50
77.8054108982
 51
98.2852826253
  0
ARC
  5
680
330
1F
100
AcDbEntity
  8
0
  6
Continuous
 62
     7
370
    25
100
AcDbCircle
 10
-0.2701009097
 20
4.7088622541
 30
0.0
 40
0.0085322510592198
100
AcDbArc
 50
284.8062121619
 51
2.8449585656
  0
ARC
  5
681
330
1F
100
AcDbEntity
  8
0
  6
Continuous
 62
     7
370
    25
100
AcDbCircle
 10
0.2630784276
 20
4.7086808828
 30
0.0
 40
0.0094091056310159
100
AcDbArc
 50
300.9716778541
 51
5.9503565415
  0
ARC
  5
682
330
1F
100
AcDbEntity
  8
0
  6
Continuous
 62
     7
370
    25
100
AcDbCircle
 10
0.2701009097
 20
4.7088622541
 30
0.0
 40
0.0085322510592198
100
AcDbArc
 50
177.1550414344
 51
255.1937878381
  0
ARC
  5
683
330
1F
100
AcDbEntity
  8
0
  6
Continuous
 62
     7
370
    25
100
AcDbCircle
 10
0.2680336314
 20
4.6794190391
 30
0.0
 40
0.0305561746000488
100
AcDbArc
 50
81.7147175408
 51
102.1945890318
  0
ARC
  5
684
330
1F
100
AcDbEntity
  8
0
  6
Continuous
 62
     7
370
    25
100
AcDbCircle
 10
-0.2824335386
 20
4.7058631399
 30
0.0
 40
0.0094091056310165
100
AcDbArc
 50
174.0496434584
 51
239.0283221459
  0
ARC
  5
685
330
1F
100
AcDbEntity
  8
0
  6
Continuous
 62
     7
370
    25
100
AcDbCircle
 10
0.2824335386
 20
4.7058631399
 30
0.0
 40
0.0094091056268996
100
AcDbArc
 50
300.9716778445
 51
5.9503565051
  0
ARC
  5
686
330
1F
100
AcDbEntity
  8
0
  6
Continuous
 62
     7
370
    25
100
AcDbCircle
 10
0.1112566021
 20
5.2767307628
 30
0.0
 40
0.5970384341392235
100
AcDbArc
 50
278.2776501822
 51
285.2126169573
  0
ARC
  5
687
330
1F
100
AcDbEntity
  8
0
  6
Continuous
 62
     7
370
    25
100
AcDbCircle
 10
0.2017853733
 20
4.6939965448
 30
0.0
 40
0.0092880701872084
100
AcDbArc
 50
174.2156200736
 51
240.5045003311
  0
ARC
  5
688
330
1F
100
AcDbEntity
  8
0
  6
Continuous
 62
     7
370
    25
100
AcDbCircle
 10
-0.2017853733
 20
4.6939965448
 30
0.0
 40
0.0092880701872084
100
AcDbArc
 50
299.4954996689
 51
5.7843799264
  0
ARC
  5
689
330
1F
100
AcDbEntity
  8
0
  6
Continuous
 62
     7
370
    25
100
AcDbCircle
 10
-0.1112566021
 20
5.2767307628
 30
0.0
 40
0.5970384341394274
100
AcDbArc
 50
254.7873830427
 51
261.7223498178
  0
ARC
  5
68A
330
1F
100
AcDbEntity
  8
0
  6
Continuous
 62
     7
370
    25
100
AcDbCircle
 10
-0.1191279009
 20
5.314589619
 30
0.0
 40
0.639303175305313
100
AcDbArc
 50
254.7508353557
 51
261.7588975048
  0
ARC
  5
68B
330
1F
100
AcDbEntity
  8
0
  6
Continuous
 62
     7
370
    25
100
AcDbCircle
 10
0.1191279009
 20
5.314589619
 30
0.0
 40
0.6393031753051645
100
AcDbArc
 50
278.2411024952
 51
285.2491646443
  0
ARC
  5
68C
330
1F
100
AcDbEntity
  8
0
  6
Continuous
 62
     7
370
    25
100
AcDbCircle
 10
0.1894411042
 20
4.7305942232
 30
0.0
 40
0.0095452266591311
100
AcDbArc
 50
173.8983102944
 51
237.4989595861
  0
ARC
  5
68D
330
1F
100
AcDbEntity
  8
0
  6
Continuous
 62
     7
370
    25
100
AcDbCircle
 10
-0.1894424014
 20
4.7305948603
 30
0.0
 40
0.0095464562484399
100
AcDbArc
 50
302.5055704059
 51
6.0970692735
  0
ARC
  5
68E
330
1F
100
AcDbEntity
  8
0
  6
Continuous
 62
     7
370
    25
100
AcDbCircle
 10
-0.0837239311
 20
4.7201299316
 30
0.0
 40
0.0198234448457093
100
AcDbArc
 50
336.7744120676
 51
4.3093894309
  0
ARC
  5
68F
330
1F
100
AcDbEntity
  8
0
  6
Continuous
 62
     7
370
    25
100
AcDbCircle
 10
-0.0168280091
 20
5.9724482195
 30
0.0
 40
1.261075592824609
100
AcDbArc
 50
262.3679591004
 51
267.7877667354
  0
ARC
  5
690
330
1F
100
AcDbEntity
  8
0
  6
Continuous
 62
     7
370
    25
100
AcDbCircle
 10
0.0168252268
 20
5.9724756111
 30
0.0
 40
1.261103116846277
100
AcDbArc
 50
272.2123114601
 51
277.6320008754
  0
ARC
  5
691
330
1F
100
AcDbEntity
  8
0
  6
Continuous
 62
     7
370
    25
100
AcDbCircle
 10
0.0837286001
 20
4.7201306257
 30
0.0
 40
0.0198280271630339
100
AcDbArc
 50
175.6936794532
 51
203.2222314037
  0
ARC
  5
692
330
1F
100
AcDbEntity
  8
0
  6
Continuous
 62
     7
370
    25
100
AcDbCircle
 10
0.0167083638
 20
6.0772892906
 30
0.0
 40
1.370835870475662
100
AcDbArc
 50
272.2116380467
 51
277.161738945
  0
ARC
  5
693
330
1F
100
AcDbEntity
  8
0
  6
Continuous
 62
     7
370
    25
100
AcDbCircle
 10
-0.0169107329
 20
6.0740983712
 30
0.0
 40
1.367639520667266
100
AcDbArc
 50
262.7608206301
 51
267.7916748482
  0
ARC
  5
694
330
1F
100
AcDbEntity
  8
0
  6
Continuous
 62
     7
370
    25
100
AcDbCircle
 10
0.0496829763
 20
4.6812980405
 30
0.0
 40
0.0080699969934846
100
AcDbArc
 50
272.2386702677
 51
359.4489807068
  0
ARC
  5
695
330
1F
100
AcDbEntity
  8
0
  6
Continuous
 62
     7
370
    25
100
AcDbCircle
 10
0.0741558837
 20
4.6810367817
 30
0.0
 40
0.0253864830207525
100
AcDbArc
 50
176.5721996067
 51
197.8997046884
  0
ARC
  5
696
330
1F
100
AcDbEntity
  8
0
  6
Continuous
 62
     7
370
    25
100
AcDbCircle
 10
0.0509022146
 20
4.6659342673
 30
0.0
 40
0.0167509582412798
100
AcDbArc
 50
65.8608035933
 51
97.1584375269
  0
ARC
  5
697
330
1F
100
AcDbEntity
  8
0
  6
Continuous
 62
     7
370
    25
100
AcDbCircle
 10
-0.0496829763
 20
4.6812980405
 30
0.0
 40
0.0080699969937541
100
AcDbArc
 50
180.5510193597
 51
267.7613297311
  0
ARC
  5
698
330
1F
100
AcDbEntity
  8
0
  6
Continuous
 62
     7
370
    25
100
AcDbCircle
 10
-0.0509022146
 20
4.6659342675
 30
0.0
 40
0.0167509580789723
100
AcDbArc
 50
82.8415623723
 51
114.1391966217
  0
ARC
  5
699
330
1F
100
AcDbEntity
  8
0
  6
Continuous
 62
     7
370
    25
100
AcDbCircle
 10
-0.0741558837
 20
4.6810367817
 30
0.0
 40
0.0253864830207526
100
AcDbArc
 50
342.1002953116
 51
3.4278003933
  0
ARC
  5
69A
330
1F
100
AcDbEntity
  8
0
  6
Continuous
 62
     7
370
    25
100
AcDbCircle
 10
0.0
 20
6.2623920921
 30
0.0
 40
1.589944218607066
100
AcDbArc
 50
268.197950194
 51
271.802049806
  0
ARC
  5
69B
330
1F
100
AcDbEntity
  8
0
  6
Continuous
 62
     7
370
    25
100
AcDbCircle
 10
-0.0509022296
 20
4.689040306
 30
0.0
 40
0.0167507749258037
100
AcDbArc
 50
82.8414249056
 51
114.139387509
  0
ARC
  5
69C
330
1F
100
AcDbEntity
  8
0
  6
Continuous
 62
     7
370
    25
100
AcDbCircle
 10
0.050902139
 20
4.6890397181
 30
0.0
 40
0.016751347897968
100
AcDbArc
 50
65.8611558672
 51
97.1580189895
  0
ARC
  5
69D
330
1F
100
AcDbEntity
  8
0
  6
Continuous
 62
     7
370
    25
100
AcDbCircle
 10
-0.0537859749
 20
4.6764600889
 30
0.0
 40
0.0080699969935667
100
AcDbArc
 50
180.5510192938
 51
267.761329732
  0
ARC
  5
69E
330
1F
100
AcDbEntity
  8
0
  6
Continuous
 62
     7
370
    25
100
AcDbCircle
 10
0.0537859749
 20
4.6764600889
 30
0.0
 40
0.0080699969937103
100
AcDbArc
 50
272.2386702683
 51
359.4489806406
  0
ARC
  5
69F
330
1F
100
AcDbEntity
  8
0
  6
Continuous
 62
     7
370
    25
100
AcDbCircle
 10
0.0
 20
6.3701493081
 30
0.0
 40
1.702612817876867
100
AcDbArc
 50
268.1790970565
 51
271.8209029435
  0
ARC
  5
6A0
330
1F
100
AcDbEntity
  8
0
  6
Continuous
 62
     7
370
    25
100
AcDbCircle
 10
-4.6771653543
 20
0.842519685
 30
0.0
 40
0.0118110236220466
100
AcDbArc
 50
90.0
 51
180.0
  0
ARC
  5
6A1
330
1F
100
AcDbEntity
  8
0
  6
Continuous
 62
     7
370
    25
100
AcDbCircle
 10
-3.3228346457
 20
0.842519685
 30
0.0
 40
0.0118110236220472
100
AcDbArc
 50
0.0
 51
90.0
  0
ARC
  5
6A2
330
1F
100
AcDbEntity
  8
0
  6
Continuous
 62
     7
370
    25
100
AcDbCircle
 10
3.3228346457
 20
0.842519685
 30
0.0
 40
0.0118110236220472
100
AcDbArc
 50
90.0
 51
180.0
  0
ARC
  5
6A3
330
1F
100
AcDbEntity
  8
0
  6
Continuous
 62
     7
370
    25
100
AcDbCircle
 10
4.6771653543
 20
0.842519685
 30
0.0
 40
0.0118110236220466
100
AcDbArc
 50
360.0
 51
90.0
  0
ARC
  5
6A4
330
1F
100
AcDbEntity
  8
0
  6
Continuous
 62
     7
370
    25
100
AcDbCircle
 10
-4.9350393701
 20
0.0295275591
 30
0.0
 40
0.0492125984251923
100
AcDbArc
 50
216.8698976458
 51
270.0
  0
ARC
  5
6A5
330
1F
100
AcDbEntity
  8
0
  6
Continuous
 62
     7
370
    25
100
AcDbCircle
 10
-3.0649606299
 20
0.0295275591
 30
0.0
 40
0.0492125984251996
100
AcDbArc
 50
270.0
 51
323.1301023542
  0
ARC
  5
6A6
330
1F
100
AcDbEntity
  8
0
  6
Continuous
 62
     7
370
    25
100
AcDbCircle
 10
3.0649606299
 20
0.0295275591
 30
0.0
 40
0.0492125984251999
100
AcDbArc
 50
216.8698976458
 51
270.0
  0
ARC
  5
6A7
330
1F
100
AcDbEntity
  8
0
  6
Continuous
 62
     7
370
    25
100
AcDbCircle
 10
4.9350393701
 20
0.0295275591
 30
0.0
 40
0.0492125984251923
100
AcDbArc
 50
270.0
 51
323.1301023542
  0
ARC
  5
6A8
330
1F
100
AcDbEntity
  8
0
  6
Continuous
 62
     7
370
    25
100
AcDbCircle
 10
-1.062992126
 20
0.1968503937
 30
0.0
 40
0.0393700787401579
100
AcDbArc
 50
90.0
 51
180.0
  0
ARC
  5
6A9
330
1F
100
AcDbEntity
  8
0
  6
Continuous
 62
     7
370
    25
100
AcDbCircle
 10
1.062992126
 20
0.1968503937
 30
0.0
 40
0.0393700787401579
100
AcDbArc
 50
0.0
 51
90.0
  0
ARC
  5
6AA
330
1F
100
AcDbEntity
  8
0
  6
Continuous
 62
     7
370
    25
100
AcDbCircle
 10
5.0433070866
 20
0.1771653543
 30
0.0
 40
0.0196850393700814
100
AcDbArc
 50
0.0
 51
90.0
  0
ARC
  5
6AB
330
1F
100
AcDbEntity
  8
0
  6
Continuous
 62
     7
370
    25
100
AcDbCircle
 10
2.9566929134
 20
0.1771653543
 30
0.0
 40
0.0196850393700796
100
AcDbArc
 50
90.0
 51
180.0
  0
ARC
  5
6AC
330
1F
100
AcDbEntity
  8
0
  6
Continuous
 62
     7
370
    25
100
AcDbCircle
 10
5.8503937008
 20
1.6220472441
 30
0.0
 40
0.0196850393700776
100
AcDbArc
 50
360.0
 51
90.0
  0
ARC
  5
6AD
330
1F
100
AcDbEntity
  8
0
  6
Continuous
 62
     7
370
    25
100
AcDbCircle
 10
5.8503937008
 20
1.3464566929
 30
0.0
 40
0.0196850393700772
100
AcDbArc
 50
270.0
 51
0.0
  0
ARC
  5
6AE
330
1F
100
AcDbEntity
  8
0
  6
Continuous
 62
     7
370
    25
100
AcDbCircle
 10
-5.8503937008
 20
1.3464566929
 30
0.0
 40
0.0196850393700772
100
AcDbArc
 50
180.0
 51
270.0
  0
ARC
  5
6AF
330
1F
100
AcDbEntity
  8
0
  6
Continuous
 62
     7
370
    25
100
AcDbCircle
 10
-5.8503937008
 20
1.6220472441
 30
0.0
 40
0.0196850393700776
100
AcDbArc
 50
90.0
 51
180.0
  0
ARC
  5
6B0
330
1F
100
AcDbEntity
  8
0
  6
Continuous
 62
     7
370
    25
100
AcDbCircle
 10
-2.9566929134
 20
0.1771653543
 30
0.0
 40
0.0196850393700796
100
AcDbArc
 50
0.0
 51
90.0
  0
ARC
  5
6B1
330
1F
100
AcDbEntity
  8
0
  6
Continuous
 62
     7
370
    25
100
AcDbCircle
 10
-5.0433070866
 20
0.1771653543
 30
0.0
 40
0.0196850393700814
100
AcDbArc
 50
90.0
 51
180.0
  0
ARC
  5
6B2
330
1F
100
AcDbEntity
  8
0
  6
Continuous
 62
     8
370
    25
100
AcDbCircle
 10
-0.0145033837
 20
6.1256897287
 30
0.0
 40
1.450872631370945
100
AcDbArc
 50
262.8564748809
 51
268.1256156122
  0
ARC
  5
6B3
330
1F
100
AcDbEntity
  8
0
  6
Continuous
 62
     8
370
    25
100
AcDbCircle
 10
0.006753281
 20
6.2609988548
 30
0.0
 40
1.586366326347864
100
AcDbArc
 50
271.9943028678
 51
274.79385867
  0
ARC
  5
6B4
330
1F
100
AcDbEntity
  8
0
  6
Continuous
 62
     8
370
    25
100
AcDbCircle
 10
-0.0425045371
 20
4.8197329839
 30
0.0
 40
0.0125882660155103
100
AcDbArc
 50
180.7672630985
 51
202.8936480685
  0
ARC
  5
6B5
330
1F
100
AcDbEntity
  8
0
  6
Continuous
 62
     8
370
    25
100
AcDbCircle
 10
0.0425045371
 20
4.8197329839
 30
0.0
 40
0.0125882660172754
100
AcDbArc
 50
337.106351933
 51
359.2327368999
  0
ARC
  5
6B6
330
1F
100
AcDbEntity
  8
0
  6
Continuous
 62
     8
370
    25
100
AcDbCircle
 10
-0.0544227754
 20
4.8223112904
 30
0.0
 40
0.0074823299307132
100
AcDbArc
 50
220.5705306683
 51
272.4631619105
  0
ARC
  5
6B7
330
1F
100
AcDbEntity
  8
0
  6
Continuous
 62
     8
370
    25
100
AcDbCircle
 10
0.0544283059
 20
4.822298561
 30
0.0
 40
0.0074698524110042
100
AcDbArc
 50
267.4902609233
 51
319.4760464979
  0
ARC
  5
6B8
330
1F
100
AcDbEntity
  8
0
  6
Continuous
 62
     8
370
    25
100
AcDbCircle
 10
-0.0503253072
 20
4.8174606094
 30
0.0
 40
0.0074698524109963
100
AcDbArc
 50
220.5239535019
 51
272.5097390768
  0
ARC
  5
6B9
330
1F
100
AcDbEntity
  8
0
  6
Continuous
 62
     8
370
    25
100
AcDbCircle
 10
0.0503197768
 20
4.8174733389
 30
0.0
 40
0.0074823299311582
100
AcDbArc
 50
267.5368380911
 51
319.4294693296
  0
ARC
  5
6BA
330
1F
100
AcDbEntity
  8
0
  6
Continuous
 62
     8
370
    25
100
AcDbCircle
 10
-0.2126957991
 20
4.8094028355
 30
0.0
 40
0.0082869031889705
100
AcDbArc
 50
283.4738474988
 51
349.8225914681
  0
ARC
  5
6BB
330
1F
100
AcDbEntity
  8
0
  6
Continuous
 62
     8
370
    25
100
AcDbCircle
 10
-0.2075929462
 20
4.8080536952
 30
0.0
 40
0.0074216778951813
100
AcDbArc
 50
191.9764295175
 51
244.6976121675
  0
ARC
  5
6BC
330
1F
100
AcDbEntity
  8
0
  6
Continuous
 62
     8
370
    25
100
AcDbCircle
 10
0.2124956536
 20
4.8092138861
 30
0.0
 40
0.0080579278542944
100
AcDbArc
 50
189.1064268495
 51
257.5971341836
  0
ARC
  5
6BD
330
1F
100
AcDbEntity
  8
0
  6
Continuous
 62
     8
370
    25
100
AcDbCircle
 10
0.2075929462
 20
4.8080536952
 30
0.0
 40
0.0074216778951814
100
AcDbArc
 50
295.3023878325
 51
348.0235704825
  0
ARC
  5
6BE
330
1F
100
AcDbEntity
  8
0
  6
Continuous
 62
     8
370
    25
100
AcDbCircle
 10
-0.2854901385
 20
4.7931914681
 30
0.0
 40
0.0079577957956691
100
AcDbArc
 50
192.2038207012
 51
257.0343890864
  0
ARC
  5
6BF
330
1F
100
AcDbEntity
  8
0
  6
Continuous
 62
     8
370
    25
100
AcDbCircle
 10
0.2854901385
 20
4.7931914681
 30
0.0
 40
0.0079577957955767
100
AcDbArc
 50
282.9656109132
 51
347.7961792992
  0
ARC
  5
6C0
330
1F
100
AcDbEntity
  8
0
  6
Continuous
 62
     8
370
    25
100
AcDbCircle
 10
-0.1907241689
 20
4.8044694321
 30
0.0
 40
0.0014918715586053
100
AcDbArc
 50
21.7317017363
 51
91.4656529799
  0
ARC
  5
6C1
330
1F
100
AcDbEntity
  8
0
  6
Continuous
 62
     8
370
    25
100
AcDbCircle
 10
0.190724169
 20
4.8044694321
 30
0.0
 40
0.0014918715834836
100
AcDbArc
 50
88.5343478238
 51
158.2682979708
  0
ARC
  5
6C2
330
1F
100
AcDbEntity
  8
0
  6
Continuous
 62
     8
370
    25
100
AcDbCircle
 10
-0.3286118935
 20
4.7595553627
 30
0.0
 40
0.0075495335467428
100
AcDbArc
 50
267.8237273276
 51
323.5100943634
  0
ARC
  5
6C3
330
1F
100
AcDbEntity
  8
0
  6
Continuous
 62
     8
370
    25
100
AcDbCircle
 10
0.3286118935
 20
4.7595553627
 30
0.0
 40
0.0075495335467428
100
AcDbArc
 50
216.4899056366
 51
272.1762726724
  0
ARC
  5
6C4
330
1F
100
AcDbEntity
  8
0
  6
Continuous
 62
     8
370
    25
100
AcDbCircle
 10
0.3524568624
 20
4.7379075409
 30
0.0
 40
0.0075452893933014
100
AcDbArc
 50
267.8047556535
 51
323.2261155932
  0
ARC
  5
6C5
330
1F
100
AcDbEntity
  8
0
  6
Continuous
 62
     8
370
    25
100
AcDbCircle
 10
-0.3524568624
 20
4.7379075409
 30
0.0
 40
0.0075452893933013
100
AcDbArc
 50
216.7738844068
 51
272.1952443466
  0
ARC
  5
6C6
330
1F
100
AcDbEntity
  8
0
  6
Continuous
 62
     8
370
    25
100
AcDbCircle
 10
0.3264942174
 20
4.7745822037
 30
0.0
 40
0.0080502784253147
100
AcDbArc
 50
180.3683484237
 51
227.200367924
  0
ARC
  5
6C7
330
1F
100
AcDbEntity
  8
0
  6
Continuous
 62
     8
370
    25
100
AcDbCircle
 10
-0.3264991183
 20
4.7745844006
 30
0.0
 40
0.0080550946830819
100
AcDbArc
 50
312.8154220503
 51
359.6162159044
  0
ARC
  5
6C8
330
1F
100
AcDbEntity
  8
0
  6
Continuous
 62
     8
370
    25
100
AcDbCircle
 10
0.2970683155
 20
4.7442494834
 30
0.0
 40
0.0053169390846855
100
AcDbArc
 50
261.7818816184
 51
313.6260945447
  0
ARC
  5
6C9
330
1F
100
AcDbEntity
  8
0
  6
Continuous
 62
     8
370
    25
100
AcDbCircle
 10
-0.292053416
 20
4.7026192492
 30
0.0
 40
0.0042273956586944
100
AcDbArc
 50
86.4539552602
 51
137.0890504466
  0
ARC
  5
6CA
330
1F
100
AcDbEntity
  8
0
  6
Continuous
 62
     8
370
    25
100
AcDbCircle
 10
0.292053416
 20
4.7026192492
 30
0.0
 40
0.0042273955930203
100
AcDbArc
 50
42.9109492917
 51
93.5460452696
  0
ARC
  5
6CB
330
1F
100
AcDbEntity
  8
0
  6
Continuous
 62
     8
370
    25
100
AcDbCircle
 10
0.292053416
 20
4.725725098
 30
0.0
 40
0.0042273956586887
100
AcDbArc
 50
42.9109495533
 51
93.5460447399
  0
ARC
  5
6CC
330
1F
100
AcDbEntity
  8
0
  6
Continuous
 62
     8
370
    25
100
AcDbCircle
 10
-0.2920532701
 20
4.7257247199
 30
0.0
 40
0.004227762877262
100
AcDbArc
 50
86.456180771
 51
137.0866000995
  0
ARC
  5
6CD
330
1F
100
AcDbEntity
  8
0
  6
Continuous
 62
     8
370
    25
100
AcDbCircle
 10
0.0566609579
 20
3.6152170655
 30
0.0
 40
1.237475780220033
100
AcDbArc
 50
72.9270814599
 51
92.6243496914
  0
ARC
  5
6CE
330
1F
100
AcDbEntity
  8
0
  6
Continuous
 62
     8
370
    25
100
AcDbCircle
 10
0.4341093741
 20
4.7416412079
 30
0.0
 40
0.0260579549078568
100
AcDbArc
 50
305.1765953699
 51
20.640091875
  0
ARC
  5
6CF
330
1F
100
AcDbEntity
  8
0
  6
Continuous
 62
     8
370
    25
100
AcDbCircle
 10
-0.057224125
 20
3.623479422
 30
0.0
 40
1.22924823542508
100
AcDbArc
 50
87.3317950582
 51
107.2494973126
  0
ARC
  5
6D0
330
1F
100
AcDbEntity
  8
0
  6
Continuous
 62
     8
370
    25
100
AcDbCircle
 10
-0.4312667148
 20
4.742125484
 30
0.0
 40
0.0289248254537202
100
AcDbArc
 50
167.9879651081
 51
243.549319425
  0
SPLINE
  5
6FB
330
1B
100
AcDbEntity
 67
     1
  8
0
  6
Continuous
 62
     7
370
    25
100
AcDbSpline
210
0.0
220
0.0
230
1.0
 70
     8
 71
     3
 72
    35
 73
    31
 74
     0
 42
0.000000001
 43
0.00000001
 40
0.0
 40
0.0
 40
0.0
 40
0.0
 40
0.0155812248728712
 40
0.0310690837977086
 40
0.0465002352311691
 40
0.0619117422968492
 40
0.0773408096870382
 40
0.0928245155123422
 40
0.1083995476706244
 40
0.1241019539354956
 40
0.1550957789097037
 40
0.1862712163183987
 40
0.2173173913054774
 40
0.2482589416399052
 40
0.3100783356265968
 40
0.3724431930379111
 40
0.4354304799939888
 40
0.4988558125932668
 40
0.562228390529389
 40
0.6252386110132806
 40
0.6878821919053983
 40
0.75012876228449
 40
0.7812759620508919
 40
0.8125344408529047
 40
0.8438974274540728
 40
0.8750890711434459
 40
0.906570604384402
 40
0.9376819281938127
 40
0.9687240562176893
 40
1.0
 40
1.0
 40
1.0
 40
1.0
 10
0.0000000000000011
 20
1.322834645669291
 30
0.0
 10
-0.0026407512363589
 20
1.322870890750898
 30
0.0
 10
-0.0079064297770894
 20
1.322943163726026
 30
0.0
 10
-0.0157681740586739
 20
1.323533207437307
 30
0.0
 10
-0.0235621432158809
 20
1.324476792281553
 30
0.0
 10
-0.0312872838450204
 20
1.325807850935977
 30
0.0
 10
-0.0389425552857437
 20
1.327517399163681
 30
0.0
 10
-0.046527063968361
 20
1.329607449697975
 30
0.0
 10
-0.0540396536486182
 20
1.332078649990408
 30
0.0
 10
-0.063868343520638
 20
1.33583965380517
 30
0.0
 10
-0.0757892914962184
 20
1.341428315600048
 30
0.0
 10
-0.0893029779341469
 20
1.349491686496216
 30
0.0
 10
-0.1019648695729559
 20
1.358794971625955
 30
0.0
 10
-0.1175085633856606
 20
1.372711047047844
 30
0.0
 10
-0.1343095114400345
 20
1.392918334526538
 30
0.0
 10
-0.1495697878640757
 20
1.42076490602717
 30
0.0
 10
-0.159114816666354
 20
1.451446343870279
 30
0.0
 10
-0.1625231217196433
 20
1.483645994997377
 30
0.0
 10
-0.1593547169940504
 20
1.515875306321358
 30
0.0
 10
-0.1500243284580285
 20
1.546670811552209
 30
0.0
 10
-0.1348972402977539
 20
1.574736092756458
 30
0.0
 10
-0.1181142630924386
 20
1.595162664785798
 30
0.0
 10
-0.1025328653889944
 20
1.609249907516595
 30
0.0
 10
-0.0898282470979655
 20
1.61866645369677
 30
0.0
 10
-0.0762568582240016
 20
1.626831046241787
 30
0.0
 10
-0.0618830166114298
 20
1.633617026313637
 30
0.0
 10
-0.0469399505510962
 20
1.638980983216
 30
0.0
 10
-0.0315491738402733
 20
1.642829945048322
 30
0.0
 10
-0.015867901562025
 20
1.645231259892944
 30
0.0
 10
-0.0053025142053851
 20
1.645522916094583
 30
0.0
 10
0.0000000000000011
 20
1.645669291338583
 30
0.0
  0
SPLINE
  5
700
330
1B
100
AcDbEntity
 67
     1
  8
0
  6
Continuous
 62
     7
370
    25
100
AcDbSpline
210
0.0
220
0.0
230
1.0
 70
     8
 71
     3
 72
    35
 73
    31
 74
     0
 42
0.000000001
 43
0.00000001
 40
0.0
 40
0.0
 40
0.0
 40
0.0
 40
0.0155745395620423
 40
0.0310558752885322
 40
0.0464806200366115
 40
0.0618857901624834
 40
0.0773085429680976
 40
0.0927859091221619
 40
0.1083545295984263
 40
0.1240504063034372
 40
0.1550383954491748
 40
0.1862085232671799
 40
0.2172449035846702
 40
0.2481761994659961
 40
0.3099687572589889
 40
0.3723282910507772
 40
0.4353557424282011
 40
0.4988518735361976
 40
0.562295021258558
 40
0.6253457336854411
 40
0.6879852028333522
 40
0.7502062193032787
 40
0.7813437425415667
 40
0.812593261271189
 40
0.8439514926017787
 40
0.8751376213089292
 40
0.9066070580751884
 40
0.9377065003791399
 40
0.9687365976740338
 40
1.0
 40
1.0
 40
1.0
 40
1.0
 10
0.0000000000000011
 20
1.645669291338583
 30
0.0
 10
0.0026396159334092
 20
1.645633075685701
 30
0.0
 10
0.0079030513570369
 20
1.64556086110787
 30
0.0
 10
0.0157614878883104
 20
1.644971300703858
 30
0.0
 10
0.0235522564765307
 20
1.644028490824451
 30
0.0
 10
0.031274305059833
 20
1.642698525945589
 30
0.0
 10
0.0389265942038693
 20
1.640990383040706
 30
0.0
 10
0.0465082315556912
 20
1.638902051452396
 30
0.0
 10
0.0540180614422385
 20
1.636432882037818
 30
0.0
 10
0.0638443858466492
 20
1.632674545790321
 30
0.0
 10
0.0757636000466432
 20
1.62708918842172
 30
0.0
 10
0.089275750871096
 20
1.619030110796761
 30
0.0
 10
0.1019361648523787
 20
1.609732044148148
 30
0.0
 10
0.1174773996933165
 20
1.595825088520294
 30
0.0
 10
0.134279705611323
 20
1.57562855019035
 30
0.0
 10
0.1495503268110105
 20
1.54778634860142
 30
0.0
 10
0.1591098311071223
 20
1.517090480548592
 30
0.0
 10
0.1625256197613602
 20
1.484859999791897
 30
0.0
 10
0.1593507737628569
 20
1.452599660206609
 30
0.0
 10
0.1500066844748154
 20
1.421789162508382
 30
0.0
 10
0.1348695748873675
 20
1.393727430236897
 30
0.0
 10
0.118085195949069
 20
1.373310902732128
 30
0.0
 10
0.102506057412184
 20
1.359232288320586
 30
0.0
 10
0.0898027397077069
 20
1.349820622746498
 30
0.0
 10
0.0762327222494675
 20
1.341660019307986
 30
0.0
 10
0.0618611793400961
 20
1.334877978171675
 30
0.0
 10
0.0469220647843743
 20
1.329517808554471
 30
0.0
 10
0.0315368478213702
 20
1.325671817094158
 30
0.0
 10
0.015861591252174
 20
1.3232723499816
 30
0.0
 10
0.0053003818908909
 20
1.322980910944549
 30
0.0
 10
0.0000000000000011
 20
1.322834645669291
 30
0.0
  0
LINE
  5
718
330
1B
100
AcDbEntity
 67
     1
  8
0
  6
Continuous
 62
     7
370
    25
100
AcDbLine
 10
0.688976378
 20
0.1968503937
 30
0.0
 11
0.688976378
 21
0.842519685
 31
0.0
  0
LINE
  5
719
330
1B
100
AcDbEntity
 67
     1
  8
0
  6
Continuous
 62
     7
370
    25
100
AcDbLine
 10
-0.688976378
 20
0.842519685
 30
0.0
 11
-0.688976378
 21
0.1968503937
 31
0.0
  0
LINE
  5
71A
330
1B
100
AcDbEntity
 67
     1
  8
0
  6
Continuous
 62
     7
370
    25
100
AcDbLine
 10
-0.6200787402
 20
0.8937007874
 30
0.0
 11
-0.6200787402
 21
0.8543307087
 31
0.0
  0
LINE
  5
71B
330
1B
100
AcDbEntity
 67
     1
  8
0
  6
Continuous
 62
     7
370
    25
100
AcDbLine
 10
0.6200787402
 20
0.8543307087
 30
0.0
 11
0.6200787402
 21
0.8937007874
 31
0.0
  0
LINE
  5
71C
330
1B
100
AcDbEntity
 67
     1
  8
0
  6
Continuous
 62
     7
370
    25
100
AcDbLine
 10
-0.9350393701
 20
-0.0196850394
 30
0.0
 11
0.9350393701
 21
-0.0196850394
 31
0.0
  0
LINE
  5
71D
330
1B
100
AcDbEntity
 67
     1
  8
0
  6
Continuous
 62
     7
370
    25
100
AcDbLine
 10
-1.1023622047
 20
0.1968503937
 30
0.0
 11
-1.1023622047
 21
0.0
 31
0.0
  0
LINE
  5
71E
330
1B
100
AcDbEntity
 67
     1
  8
0
  6
Continuous
 62
     7
370
    25
100
AcDbLine
 10
1.1023622047
 20
0.0
 30
0.0
 11
1.1023622047
 21
0.1968503937
 31
0.0
  0
LINE
  5
71F
330
1B
100
AcDbEntity
 67
     1
  8
0
  6
Continuous
 62
     7
370
    25
100
AcDbLine
 10
-1.0039370079
 20
-0.0078740157
 30
0.0
 11
-0.9670237732
 21
-0.0078740157
 31
0.0
  0
LINE
  5
720
330
1B
100
AcDbEntity
 67
     1
  8
0
  6
Continuous
 62
     7
370
    25
100
AcDbLine
 10
0.9670237732
 20
-0.0078740157
 30
0.0
 11
1.0039370079
 21
-0.0078740157
 31
0.0
  0
LINE
  5
721
330
1B
100
AcDbEntity
 67
     1
  8
0
  6
Continuous
 62
     7
370
    25
100
AcDbLine
 10
-1.062992126
 20
0.1771653543
 30
0.0
 11
-1.062992126
 21
0.0
 31
0.0
  0
LINE
  5
722
330
1B
100
AcDbEntity
 67
     1
  8
0
  6
Continuous
 62
     7
370
    25
100
AcDbLine
 10
1.062992126
 20
0.0
 30
0.0
 11
1.062992126
 21
0.1771653543
 31
0.0
  0
LINE
  5
723
330
1B
100
AcDbEntity
 67
     1
  8
0
  6
Continuous
 62
     7
370
    25
100
AcDbLine
 10
0.0
 20
0.8937007874
 30
0.0
 11
0.0
 21
-0.0196850394
 31
0.0
  0
LINE
  5
724
330
1B
100
AcDbEntity
 67
     1
  8
0
  6
Continuous
 62
     7
370
    25
100
AcDbLine
 10
0.6771653543
 20
0.8543307087
 30
0.0
 11
-0.6771653543
 21
0.8543307087
 31
0.0
  0
LINE
  5
725
330
1B
100
AcDbEntity
 67
     1
  8
0
  6
Continuous
 62
     7
370
    25
100
AcDbLine
 10
-0.688976378
 20
0.2362204724
 30
0.0
 11
-1.062992126
 21
0.2362204724
 31
0.0
  0
LINE
  5
726
330
1B
100
AcDbEntity
 67
     1
  8
0
  6
Continuous
 62
     7
370
    25
100
AcDbLine
 10
1.062992126
 20
0.2362204724
 30
0.0
 11
0.688976378
 21
0.2362204724
 31
0.0
  0
LINE
  5
727
330
1B
100
AcDbEntity
 67
     1
  8
0
  6
Continuous
 62
     7
370
    25
100
AcDbLine
 10
-1.1023622047
 20
0.0
 30
0.0
 11
1.1023622047
 21
0.0
 31
0.0
  0
LINE
  5
728
330
1B
100
AcDbEntity
 67
     1
  8
0
  6
Continuous
 62
     7
370
    25
100
AcDbLine
 10
-0.4724409449
 20
1.8779527559
 30
0.0
 11
-0.4724409449
 21
5.7908760065
 31
0.0
  0
LINE
  5
729
330
1B
100
AcDbEntity
 67
     1
  8
0
  6
Continuous
 62
     7
370
    25
100
AcDbLine
 10
-0.4724409449
 20
5.7908760065
 30
0.0
 11
0.4724409449
 21
5.7908760065
 31
0.0
  0
LINE
  5
72A
330
1B
100
AcDbEntity
 67
     1
  8
0
  6
Continuous
 62
     7
370
    25
100
AcDbLine
 10
0.4724409449
 20
1.8779527559
 30
0.0
 11
0.4724409449
 21
5.7908760065
 31
0.0
  0
LINE
  5
72B
330
1B
100
AcDbEntity
 67
     1
  8
0
  6
Continuous
 62
     7
370
    25
100
AcDbLine
 10
5.1349065848
 20
6.3802319805
 30
0.0
 11
4.2106726313
 21
6.1837799892
 31
0.0
  0
LINE
  5
72C
330
1B
100
AcDbEntity
 67
     1
  8
0
  6
Continuous
 62
     7
370
    25
100
AcDbLine
 10
4.535636967
 20
4.6549429912
 30
0.0
 11
5.4598709204
 21
4.8513949825
 31
0.0
  0
LINE
  5
72D
330
1B
100
AcDbEntity
 67
     1
  8
0
  6
Continuous
 62
     7
370
    25
100
AcDbLine
 10
4.2106726313
 20
6.1837799892
 30
0.0
 11
4.535636967
 21
4.6549429912
 31
0.0
  0
LINE
  5
72E
330
1B
100
AcDbEntity
 67
     1
  8
0
  6
Continuous
 62
     7
370
    25
100
AcDbLine
 10
5.4598709204
 20
4.8513949825
 30
0.0
 11
5.1349065848
 21
6.3802319805
 31
0.0
  0
LINE
  5
72F
330
1B
100
AcDbEntity
 67
     1
  8
0
  6
Continuous
 62
     7
370
    25
100
AcDbLine
 10
4.5496455413
 20
4.6458457166
 30
0.0
 11
5.4507736459
 21
4.8373864082
 31
0.0
  0
LINE
  5
730
330
1B
100
AcDbEntity
 67
     1
  8
0
  6
Continuous
 62
     7
370
    25
100
AcDbLine
 10
0.688976378
 20
1.8582677165
 30
0.0
 11
-0.688976378
 21
1.8582677165
 31
0.0
  0
LINE
  5
731
330
1B
100
AcDbEntity
 67
     1
  8
0
  6
Continuous
 62
     7
370
    25
100
AcDbLine
 10
0.688976378
 20
1.8582677165
 30
0.0
 11
0.688976378
 21
0.8937007874
 31
0.0
  0
LINE
  5
732
330
1B
100
AcDbEntity
 67
     1
  8
0
  6
Continuous
 62
     7
370
    25
100
AcDbLine
 10
0.688976378
 20
0.8937007874
 30
0.0
 11
-0.688976378
 21
0.8937007874
 31
0.0
  0
LINE
  5
733
330
1B
100
AcDbEntity
 67
     1
  8
0
  6
Continuous
 62
     7
370
    25
100
AcDbLine
 10
-0.688976378
 20
1.8582677165
 30
0.0
 11
-0.688976378
 21
0.8937007874
 31
0.0
  0
LINE
  5
734
330
1B
100
AcDbEntity
 67
     1
  8
0
  6
Continuous
 62
     7
370
    25
100
AcDbLine
 10
0.6692913386
 20
1.8779527559
 30
0.0
 11
-0.6692913386
 21
1.8779527559
 31
0.0
  0
LINE
  5
735
330
1B
100
AcDbEntity
 67
     1
  8
0
  6
Continuous
 62
     7
370
    25
100
AcDbLine
 10
0.0
 20
1.6417322835
 30
0.0
 11
0.0
 21
1.6220472441
 31
0.0
  0
LINE
  5
736
330
1B
100
AcDbEntity
 67
     1
  8
0
  6
Continuous
 62
     7
370
    25
100
AcDbLine
 10
0.0
 20
1.3267716535
 30
0.0
 11
0.0
 21
1.3464566929
 31
0.0
  0
LINE
  5
737
330
1B
100
AcDbEntity
 67
     1
  8
0
  6
Continuous
 62
     7
370
    25
100
AcDbLine
 10
-1.1023622047
 20
0.1968503937
 30
0.0
 11
1.1023622047
 21
0.1968503937
 31
0.0
  0
LINE
  5
738
330
1B
100
AcDbEntity
 67
     1
  8
0
  6
Continuous
 62
     8
370
    25
100
AcDbLine
 10
0.688976378
 20
0.842519685
 30
0.0
 11
-0.688976378
 21
0.842519685
 31
0.0
  0
LINE
  5
739
330
1B
100
AcDbEntity
 67
     1
  8
0
  6
Continuous
 62
     8
370
    25
100
AcDbLine
 10
-1.062992126
 20
0.1771653543
 30
0.0
 11
1.062992126
 21
0.1771653543
 31
0.0
  0
ARC
  5
73A
330
1B
100
AcDbEntity
 67
     1
  8
0
  6
Continuous
 62
     7
370
    25
100
AcDbCircle
 10
-0.6771653543
 20
0.842519685
 30
0.0
 40
0.0118110236220469
100
AcDbArc
 50
90.0
 51
180.0
  0
ARC
  5
73B
330
1B
100
AcDbEntity
 67
     1
  8
0
  6
Continuous
 62
     7
370
    25
100
AcDbCircle
 10
0.6771653543
 20
0.842519685
 30
0.0
 40
0.0118110236220469
100
AcDbArc
 50
0.0
 51
90.0
  0
ARC
  5
73C
330
1B
100
AcDbEntity
 67
     1
  8
0
  6
Continuous
 62
     7
370
    25
100
AcDbCircle
 10
-0.9350393701
 20
0.0295275591
 30
0.0
 40
0.0492125984251967
100
AcDbArc
 50
216.8698976458
 51
270.0
  0
ARC
  5
73D
330
1B
100
AcDbEntity
 67
     1
  8
0
  6
Continuous
 62
     7
370
    25
100
AcDbCircle
 10
0.9350393701
 20
0.0295275591
 30
0.0
 40
0.0492125984251964
100
AcDbArc
 50
270.0
 51
323.1301023542
  0
ARC
  5
73E
330
1B
100
AcDbEntity
 67
     1
  8
0
  6
Continuous
 62
     7
370
    25
100
AcDbCircle
 10
-1.062992126
 20
0.1968503937
 30
0.0
 40
0.0393700787401577
100
AcDbArc
 50
90.0
 51
180.0
  0
ARC
  5
73F
330
1B
100
AcDbEntity
 67
     1
  8
0
  6
Continuous
 62
     7
370
    25
100
AcDbCircle
 10
1.062992126
 20
0.1968503937
 30
0.0
 40
0.0393700787401579
100
AcDbArc
 50
0.0
 51
90.0
  0
ARC
  5
740
330
1B
100
AcDbEntity
 67
     1
  8
0
  6
Continuous
 62
     7
370
    25
100
AcDbCircle
 10
-1.0039370079
 20
0.031496063
 30
0.0
 40
0.0393700787401532
100
AcDbArc
 50
233.1301023542
 51
270.0
  0
ARC
  5
741
330
1B
100
AcDbEntity
 67
     1
  8
0
  6
Continuous
 62
     7
370
    25
100
AcDbCircle
 10
1.0039370079
 20
0.031496063
 30
0.0
 40
0.0393700787401557
100
AcDbArc
 50
270.0
 51
306.8698976458
  0
ARC
  5
742
330
1B
100
AcDbEntity
 67
     1
  8
0
  6
Continuous
 62
     7
370
    25
100
AcDbCircle
 10
-1.0433070866
 20
0.1771653543
 30
0.0
 40
0.0196850393700785
100
AcDbArc
 50
90.0
 51
180.0
  0
ARC
  5
743
330
1B
100
AcDbEntity
 67
     1
  8
0
  6
Continuous
 62
     7
370
    25
100
AcDbCircle
 10
1.0433070866
 20
0.1771653543
 30
0.0
 40
0.0196850393700789
100
AcDbArc
 50
0.0
 51
90.0
  0
ARC
  5
744
330
1B
100
AcDbEntity
 67
     1
  8
0
  6
Continuous
 62
     7
370
    25
100
AcDbCircle
 10
2.3622047244
 20
5.7908760065
 30
0.0
 40
2.834645669290683
100
AcDbArc
 50
12.0
 51
180.0
  0
ARC
  5
745
330
1B
100
AcDbEntity
 67
     1
  8
0
  6
Continuous
 62
     7
370
    25
100
AcDbCircle
 10
2.3622047244
 20
5.7908760065
 30
0.0
 40
1.88976377952728
100
AcDbArc
 50
12.0
 51
180.0
  0
ARC
  5
746
330
1B
100
AcDbEntity
 67
     1
  8
0
  6
Continuous
 62
     7
370
    25
100
AcDbCircle
 10
5.448317996
 20
4.8489393326
 30
0.0
 40
0.0118110236200897
100
AcDbArc
 50
281.9999999844
 51
12.0000000149
  0
ARC
  5
747
330
1B
100
AcDbEntity
 67
     1
  8
0
  6
Continuous
 62
     7
370
    25
100
AcDbCircle
 10
4.5471898914
 20
4.6573986411
 30
0.0
 40
0.0118110236217182
100
AcDbArc
 50
192.000000011
 51
282.000000011
  0
ARC
  5
748
330
1B
100
AcDbEntity
 67
     1
  8
0
  6
Continuous
 62
     7
370
    25
100
AcDbCircle
 10
-0.6692913386
 20
1.8582677165
 30
0.0
 40
0.0196850393700785
100
AcDbArc
 50
90.0
 51
180.0
  0
ARC
  5
749
330
1B
100
AcDbEntity
 67
     1
  8
0
  6
Continuous
 62
     7
370
    25
100
AcDbCircle
 10
0.6692913386
 20
1.8582677165
 30
0.0
 40
0.0196850393700788
100
AcDbArc
 50
0.0
 51
90.0
  0
ARC
  5
74A
330
1B
100
AcDbEntity
 67
     1
  8
0
  6
Continuous
 62
     7
370
    25
100
AcDbCircle
 10
0.0
 20
1.4842519685
 30
0.0
 40
0.1574803149606301
100
AcDbArc
 50
90.0
 51
270.0
  0
ARC
  5
74B
330
1B
100
AcDbEntity
 67
     1
  8
0
  6
Continuous
 62
     7
370
    25
100
AcDbCircle
 10
0.0
 20
1.4842519685
 30
0.0
 40
0.1377952755905516
100
AcDbArc
 50
90.0
 51
270.0
  0
VIEWPORT
  5
8A7
330
1B
100
AcDbEntity
 67
     1
  8
0
100
AcDbViewport
 10
0.0
 20
0.0
 30
0.0
 40
8.4
 41
6.4
 68
     1
 69
     1
 12
0.0
 22
4.3029183182
 13
0.0
 23
0.0
 14
0.5
 24
0.5
 15
0.5
 25
0.5
 16
0.0
 26
0.0
 36
1.0
 17
0.0
 27
0.0
 37
0.0
 42
50.0
 43
0.0
 44
0.0
 45
9.1237795276
 50
0.0
 51
0.0
 72
   100
 90
   557152
  1

281
     0
 71
     1
 74
     0
110
0.0
120
0.0
130
0.0
111
1.0
121
0.0
131
0.0
112
0.0
122
1.0
132
0.0
 79
     0
146
0.0
  0
ENDSEC
  0
SECTION
  2
OBJECTS
  0
DICTIONARY
  5
C
330
0
100
AcDbDictionary
281
     1
  3
ACAD_GROUP
350
D
  3
ACAD_LAYOUT
350
1A
  3
ACAD_MLINESTYLE
350
17
  3
ACAD_PLOTSETTINGS
350
19
  3
ACAD_PLOTSTYLENAME
350
E
  3
ACAD_SCALELIST
350
47
  0
DICTIONARY
  5
D
102
{ACAD_REACTORS
330
C
102
}
330
C
100
AcDbDictionary
281
     1
  0
DICTIONARY
  5
1A
102
{ACAD_REACTORS
330
C
102
}
330
C
100
AcDbDictionary
281
     1
  3
_Isometric
350
7B9
  3
_Left
350
1E
  3
_Top
350
26
  3
Model
350
22
  0
DICTIONARY
  5
17
102
{ACAD_REACTORS
330
C
102
}
330
C
100
AcDbDictionary
281
     1
  3
Standard
350
18
  0
DICTIONARY
  5
19
102
{ACAD_REACTORS
330
C
102
}
330
C
100
AcDbDictionary
281
     1
  0
ACDBDICTIONARYWDFLT
  5
E
102
{ACAD_REACTORS
330
C
102
}
330
C
100
AcDbDictionary
281
     1
  3
Normal
350
F
100
AcDbDictionaryWithDefault
340
F
  0
DICTIONARY
  5
47
102
{ACAD_REACTORS
330
C
102
}
330
C
100
AcDbDictionary
281
     1
  3
A0
350
48
  3
A1
350
49
  3
A2
350
4A
  3
A3
350
4B
  3
A4
350
4C
  3
A5
350
4D
  3
A6
350
4E
  3
A7
350
4F
  3
A8
350
50
  3
A9
350
51
  3
B0
350
52
  3
B1
350
53
  3
B2
350
54
  3
B3
350
55
  3
B4
350
56
  3
B5
350
57
  3
B6
350
58
  3
B7
350
59
  3
B8
350
5A
  3
B9
350
5B
  3
C0
350
5C
  3
C1
350
5D
  3
C2
350
5E
  3
C3
350
5F
  3
C4
350
60
  3
C5
350
61
  3
C6
350
62
  3
C7
350
63
  3
C8
350
64
  3
C9
350
65
  3
D0
350
66
  3
D1
350
67
  3
D2
350
68
  0
LAYOUT
  5
7B9
102
{ACAD_REACTORS
330
1A
102
}
330
1A
100
AcDbPlotSettings
  1

  2
none_device
  4
Letter_(8.50_x_11.00_Inches)
  6

 40
6.35
 41
6.35
 42
6.35001
 43
6.35001
 44
215.9
 45
279.4
 46
0.0
 47
0.0
 48
0.0
 49
0.0
140
0.0
141
0.0
142
1.0
143
1.0806508926
 70
   688
 72
     0
 73
     1
 74
     1
  7

 75
     0
147
0.9253682266
148
28.0
149
0.5
100
AcDbLayout
  1
_Isometric
 70
     1
 71
     3
 10
0.0
 20
0.0
 11
0.0
 21
0.0
 12
0.0
 22
0.0
 32
0.0
 14
0.0
 24
0.0
 34
0.0
 15
0.0
 25
0.0
 35
0.0
146
0.0
 13
0.0
 23
0.0
 33
0.0
 16
1.0
 26
0.0
 36
0.0
 17
0.0
 27
1.0
 37
0.0
 76
     0
330
7B8
331
8AB
  0
LAYOUT
  5
1E
102
{ACAD_REACTORS
330
1A
102
}
330
1A
100
AcDbPlotSettings
  1

  2
none_device
  4
Letter_(8.50_x_11.00_Inches)
  6

 40
6.35
 41
6.35
 42
6.35001
 43
6.35001
 44
215.9
 45
279.4
 46
0.0
 47
0.0
 48
0.0
 49
0.0
140
0.0
141
0.0
142
1.0
143
1.0806508926
 70
   688
 72
     0
 73
     1
 74
     1
  7

 75
     0
147
0.9253682266
148
28.0
149
0.5
100
AcDbLayout
  1
_Left
 70
     1
 71
     1
 10
-1.3725253533
 20
-0.2898477625
 11
10.514634465
 21
8.8956848244
 12
0.0
 22
0.0
 32
0.0
 14
-1.1023622047
 24
-0.0196850394
 34
0.0
 15
5.4601290196
 25
8.6255216758
 35
0.0
146
0.0
 13
0.0
 23
0.0
 33
0.0
 16
1.0
 26
0.0
 36
0.0
 17
0.0
 27
1.0
 37
0.0
 76
     0
330
1B
331
8A7
  0
LAYOUT
  5
26
102
{ACAD_REACTORS
330
1A
102
}
330
1A
100
AcDbPlotSettings
  1

  2
none_device
  4
Letter_(8.50_x_11.00_Inches)
  6

 40
6.35
 41
6.35
 42
6.35001
 43
6.35001
 44
215.9
 45
279.4
 46
0.0
 47
0.0
 48
0.0
 49
0.0
140
0.0
141
0.0
142
1.0
143
1.0806508926
 70
   688
 72
     0
 73
     1
 74
     1
  7

 75
     0
147
0.9253682266
148
28.0
149
0.5
100
AcDbLayout
  1
_Top
 70
     1
 71
     2
 10
0.0
 20
0.0
 11
0.0
 21
0.0
 12
0.0
 22
0.0
 32
0.0
 14
0.0
 24
0.0
 34
0.0
 15
0.0
 25
0.0
 35
0.0
146
0.0
 13
0.0
 23
0.0
 33
0.0
 16
1.0
 26
0.0
 36
0.0
 17
0.0
 27
1.0
 37
0.0
 76
     0
330
23
331
8A9
  0
LAYOUT
  5
22
102
{ACAD_REACTORS
330
1A
102
}
330
1A
100
AcDbPlotSettings
  1

  2
none_device
  4
ANSI_A_(11.00_x_8.50_Inches)
  6

 40
6.35
 41
19.05
 42
6.35000508
 43
19.05000254
 44
279.4
 45
215.9
 46
133.34999746
 47
-12.4796485469
 48
0.0
 49
0.0
140
0.0
141
0.0
142
0.9275855131
143
1.0
 70
  1696
 72
     0
 73
     0
 74
     0
  7

 75
     0
147
0.5913241897
148
-39.4088153714
149
0.0
100
AcDbLayout
  1
Model
 70
     1
 71
     0
 10
0.0
 20
0.0
 11
12.0
 21
9.0
 12
0.0
 22
0.0
 32
0.0
 14
-5.8700787402
 24
-0.0196850394
 34
0.0
 15
5.8700787402
 25
8.6255216758
 35
0.0
146
0.0
 13
0.0
 23
0.0
 33
0.0
 16
1.0
 26
0.0
 36
0.0
 17
0.0
 27
1.0
 37
0.0
 76
     0
330
1F
331
29
  0
MLINESTYLE
  5
18
102
{ACAD_REACTORS
330
17
102
}
330
17
100
AcDbMlineStyle
  2
Standard
 70
     0
  3

 62
   256
 51
90.0
 52
90.0
 71
     2
 49
0.5
 62
   256
  6
BYLAYER
 49
-0.5
 62
   256
  6
BYLAYER
  0
ACDBPLACEHOLDER
  5
F
102
{ACAD_REACTORS
330
E
102
}
330
E
  0
SCALE
  5
48
102
{ACAD_REACTORS
330
47
102
}
330
47
100
AcDbScale
 70
     0
300
1:1
140
1.0
141
1.0
290
     1
  0
SCALE
  5
49
102
{ACAD_REACTORS
330
47
102
}
330
47
100
AcDbScale
 70
     0
300
1:2
140
1.0
141
2.0
290
     0
  0
SCALE
  5
4A
102
{ACAD_REACTORS
330
47
102
}
330
47
100
AcDbScale
 70
     0
300
1:4
140
1.0
141
4.0
290
     0
  0
SCALE
  5
4B
102
{ACAD_REACTORS
330
47
102
}
330
47
100
AcDbScale
 70
     0
300
1:5
140
1.0
141
5.0
290
     0
  0
SCALE
  5
4C
102
{ACAD_REACTORS
330
47
102
}
330
47
100
AcDbScale
 70
     0
300
1:8
140
1.0
141
8.0
290
     0
  0
SCALE
  5
4D
102
{ACAD_REACTORS
330
47
102
}
330
47
100
AcDbScale
 70
     0
300
1:10
140
1.0
141
10.0
290
     0
  0
SCALE
  5
4E
102
{ACAD_REACTORS
330
47
102
}
330
47
100
AcDbScale
 70
     0
300
1:16
140
1.0
141
16.0
290
     0
  0
SCALE
  5
4F
102
{ACAD_REACTORS
330
47
102
}
330
47
100
AcDbScale
 70
     0
300
1:20
140
1.0
141
20.0
290
     0
  0
SCALE
  5
50
102
{ACAD_REACTORS
330
47
102
}
330
47
100
AcDbScale
 70
     0
300
1:30
140
1.0
141
30.0
290
     0
  0
SCALE
  5
51
102
{ACAD_REACTORS
330
47
102
}
330
47
100
AcDbScale
 70
     0
300
1:40
140
1.0
141
40.0
290
     0
  0
SCALE
  5
52
102
{ACAD_REACTORS
330
47
102
}
330
47
100
AcDbScale
 70
     0
300
1:50
140
1.0
141
50.0
290
     0
  0
SCALE
  5
53
102
{ACAD_REACTORS
330
47
102
}
330
47
100
AcDbScale
 70
     0
300
1:100
140
1.0
141
100.0
290
     0
  0
SCALE
  5
54
102
{ACAD_REACTORS
330
47
102
}
330
47
100
AcDbScale
 70
     0
300
2:1
140
2.0
141
1.0
290
     0
  0
SCALE
  5
55
102
{ACAD_REACTORS
330
47
102
}
330
47
100
AcDbScale
 70
     0
300
4:1
140
4.0
141
1.0
290
     0
  0
SCALE
  5
56
102
{ACAD_REACTORS
330
47
102
}
330
47
100
AcDbScale
 70
     0
300
8:1
140
8.0
141
1.0
290
     0
  0
SCALE
  5
57
102
{ACAD_REACTORS
330
47
102
}
330
47
100
AcDbScale
 70
     0
300
10:1
140
10.0
141
1.0
290
     0
  0
SCALE
  5
58
102
{ACAD_REACTORS
330
47
102
}
330
47
100
AcDbScale
 70
     0
300
100:1
140
100.0
141
1.0
290
     0
  0
SCALE
  5
59
102
{ACAD_REACTORS
330
47
102
}
330
47
100
AcDbScale
 70
     0
300
1/128" = 1'-0"
140
0.0078125
141
12.0
290
     0
  0
SCALE
  5
5A
102
{ACAD_REACTORS
330
47
102
}
330
47
100
AcDbScale
 70
     0
300
1/64" = 1'-0"
140
0.015625
141
12.0
290
     0
  0
SCALE
  5
5B
102
{ACAD_REACTORS
330
47
102
}
330
47
100
AcDbScale
 70
     0
300
1/32" = 1'-0"
140
0.03125
141
12.0
290
     0
  0
SCALE
  5
5C
102
{ACAD_REACTORS
330
47
102
}
330
47
100
AcDbScale
 70
     0
300
1/16" = 1'-0"
140
0.0625
141
12.0
290
     0
  0
SCALE
  5
5D
102
{ACAD_REACTORS
330
47
102
}
330
47
100
AcDbScale
 70
     0
300
3/32" = 1'-0"
140
0.09375
141
12.0
290
     0
  0
SCALE
  5
5E
102
{ACAD_REACTORS
330
47
102
}
330
47
100
AcDbScale
 70
     0
300
1/8" = 1'-0"
140
0.125
141
12.0
290
     0
  0
SCALE
  5
5F
102
{ACAD_REACTORS
330
47
102
}
330
47
100
AcDbScale
 70
     0
300
3/16" = 1'-0"
140
0.1875
141
12.0
290
     0
  0
SCALE
  5
60
102
{ACAD_REACTORS
330
47
102
}
330
47
100
AcDbScale
 70
     0
300
1/4" = 1'-0"
140
0.25
141
12.0
290
     0
  0
SCALE
  5
61
102
{ACAD_REACTORS
330
47
102
}
330
47
100
AcDbScale
 70
     0
300
3/8" = 1'-0"
140
0.375
141
12.0
290
     0
  0
SCALE
  5
62
102
{ACAD_REACTORS
330
47
102
}
330
47
100
AcDbScale
 70
     0
300
1/2" = 1'-0"
140
0.5
141
12.0
290
     0
  0
SCALE
  5
63
102
{ACAD_REACTORS
330
47
102
}
330
47
100
AcDbScale
 70
     0
300
3/4" = 1'-0"
140
0.75
141
12.0
290
     0
  0
SCALE
  5
64
102
{ACAD_REACTORS
330
47
102
}
330
47
100
AcDbScale
 70
     0
300
1" = 1'-0"
140
1.0
141
12.0
290
     0
  0
SCALE
  5
65
102
{ACAD_REACTORS
330
47
102
}
330
47
100
AcDbScale
 70
     0
300
1-1/2" = 1'-0"
140
1.5
141
12.0
290
     0
  0
SCALE
  5
66
102
{ACAD_REACTORS
330
47
102
}
330
47
100
AcDbScale
 70
     0
300
3" = 1'-0"
140
3.0
141
12.0
290
     0
  0
SCALE
  5
67
102
{ACAD_REACTORS
330
47
102
}
330
47
100
AcDbScale
 70
     0
300
6" = 1'-0"
140
6.0
141
12.0
290
     0
  0
SCALE
  5
68
102
{ACAD_REACTORS
330
47
102
}
330
47
100
AcDbScale
 70
     0
300
1'-0" = 1'-0"
140
12.0
141
12.0
290
     0
  0
ENDSEC
  0
EOF
