  0
SECTION
  2
HEADER
  9
$ACADVER
  1
AC1015
  9
$ACADMAINTVER
 70
     6
  9
$DWGCODEPAGE
  3
ANSI_1252
  9
$INSBASE
 10
0.0
 20
0.0
 30
0.0
  9
$EXTMIN
 10
-301.0
 20
-351.0
 30
0.0
  9
$EXTMAX
 10
301.0
 20
350.0
 30
0.0
  9
$LIMMIN
 10
0.0
 20
0.0
  9
$LIMMAX
 10
420.0
 20
297.0
  9
$ORTHOMODE
 70
     0
  9
$REGENMODE
 70
     1
  9
$FILLMODE
 70
     1
  9
$QTEXTMODE
 70
     0
  9
$MIRRTEXT
 70
     1
  9
$LTSCALE
 40
1.0
  9
$ATTMODE
 70
     1
  9
$TEXTSIZE
 40
3.5
  9
$TRACEWID
 40
1.0
  9
$TEXTSTYLE
  7
Standard
  9
$CLAYER
  8
0
  9
$CELTYPE
  6
ByLayer
  9
$CECOLOR
 62
   256
  9
$CELTSCALE
 40
1.0
  9
$DISPSILH
 70
     0
  9
$DIMSCALE
 40
1.0
  9
$DIMASZ
 40
3.302
  9
$DIMEXO
 40
1.0
  9
$DIMDLI
 40
3.75
  9
$DIMRND
 40
0.0
  9
$DIMDLE
 40
0.0
  9
$DIMEXE
 40
1.0
  9
$DIMTP
 40
0.0
  9
$DIMTM
 40
0.0
  9
$DIMTXT
 40
3.5
  9
$DIMCEN
 40
2.5
  9
$DIMTSZ
 40
0.0
  9
$DIMTOL
 70
     0
  9
$DIMLIM
 70
     0
  9
$DIMTIH
 70
     1
  9
$DIMTOH
 70
     1
  9
$DIMSE1
 70
     0
  9
$DIMSE2
 70
     0
  9
$DIMTAD
 70
     1
  9
$DIMZIN
 70
     1
  9
$DIMBLK
  1

  9
$DIMASO
 70
     1
  9
$DIMSHO
 70
     1
  9
$DIMPOST
  1

  9
$DIMAPOST
  1

  9
$DIMALT
 70
     0
  9
$DIMALTD
 70
     3
  9
$DIMALTF
 40
0.0393700787
  9
$DIMLFAC
 40
1.0
  9
$DIMTOFL
 70
     1
  9
$DIMTVP
 40
0.0
  9
$DIMTIX
 70
     0
  9
$DIMSOXD
 70
     0
  9
$DIMSAH
 70
     0
  9
$DIMBLK1
  1

  9
$DIMBLK2
  1

  9
$DIMSTYLE
  2
ISO-25
  9
$DIMCLRD
 70
     0
  9
$DIMCLRE
 70
     0
  9
$DIMCLRT
 70
     0
  9
$DIMTFAC
 40
1.0
  9
$DIMGAP
 40
1.524
  9
$DIMJUST
 70
     0
  9
$DIMSD1
 70
     0
  9
$DIMSD2
 70
     0
  9
$DIMTOLJ
 70
     0
  9
$DIMTZIN
 70
     1
  9
$DIMALTZ
 70
     0
  9
$DIMALTTZ
 70
     0
  9
$DIMUPT
 70
     0
  9
$DIMDEC
 70
     2
  9
$DIMTDEC
 70
     2
  9
$DIMALTU
 70
     2
  9
$DIMALTTD
 70
     3
  9
$DIMTXSTY
  7
Standard
  9
$DIMAUNIT
 70
     0
  9
$DIMADEC
 70
     2
  9
$DIMALTRND
 40
0.0
  9
$DIMAZIN
 70
     0
  9
$DIMDSEP
 70
    44
  9
$DIMATFIT
 70
     3
  9
$DIMFRAC
 70
     0
  9
$DIMLDRBLK
  1

  9
$DIMLUNIT
 70
     2
  9
$DIMLWD
 70
    -2
  9
$DIMLWE
 70
    -2
  9
$DIMTMOVE
 70
     0
  9
$LUNITS
 70
     2
  9
$LUPREC
 70
     2
  9
$SKETCHINC
 40
1.0
  9
$FILLETRAD
 40
10.0
  9
$AUNITS
 70
     0
  9
$AUPREC
 70
     2
  9
$MENU
  1
.
  9
$ELEVATION
 40
0.0
  9
$PELEVATION
 40
0.0
  9
$THICKNESS
 40
0.0
  9
$LIMCHECK
 70
     0
  9
$CHAMFERA
 40
0.0
  9
$CHAMFERB
 40
0.0
  9
$CHAMFERC
 40
0.0
  9
$CHAMFERD
 40
0.0
  9
$SKPOLY
 70
     0
  9
$TDCREATE
 40
2459276.427041771
  9
$TDUCREATE
 40
2459276.427041771
  9
$TDUPDATE
 40
2459276.427150382
  9
$TDUUPDATE
 40
2459276.427150382
  9
$TDINDWG
 40
0.0000000116
  9
$TDUSRTIMER
 40
0.0000000116
  9
$USRTIMER
 70
     1
  9
$ANGBASE
 50
0.0
  9
$ANGDIR
 70
     0
  9
$PDMODE
 70
     0
  9
$PDSIZE
 40
-1.0
  9
$PLINEWID
 40
0.0
  9
$SPLFRAME
 70
     0
  9
$SPLINETYPE
 70
     6
  9
$SPLINESEGS
 70
     8
  9
$HANDSEED
  5
67D
  9
$SURFTAB1
 70
     6
  9
$SURFTAB2
 70
     6
  9
$SURFTYPE
 70
     6
  9
$SURFU
 70
     6
  9
$SURFV
 70
     6
  9
$UCSBASE
  2

  9
$UCSNAME
  2

  9
$UCSORG
 10
0.0
 20
0.0
 30
0.0
  9
$UCSXDIR
 10
1.0
 20
0.0
 30
0.0
  9
$UCSYDIR
 10
0.0
 20
1.0
 30
0.0
  9
$UCSORTHOREF
  2

  9
$UCSORTHOVIEW
 70
     0
  9
$UCSORGTOP
 10
0.0
 20
0.0
 30
0.0
  9
$UCSORGBOTTOM
 10
0.0
 20
0.0
 30
0.0
  9
$UCSORGLEFT
 10
0.0
 20
0.0
 30
0.0
  9
$UCSORGRIGHT
 10
0.0
 20
0.0
 30
0.0
  9
$UCSORGFRONT
 10
0.0
 20
0.0
 30
0.0
  9
$UCSORGBACK
 10
0.0
 20
0.0
 30
0.0
  9
$PUCSBASE
  2

  9
$PUCSNAME
  2

  9
$PUCSORG
 10
0.0
 20
0.0
 30
0.0
  9
$PUCSXDIR
 10
1.0
 20
0.0
 30
0.0
  9
$PUCSYDIR
 10
0.0
 20
1.0
 30
0.0
  9
$PUCSORTHOREF
  2

  9
$PUCSORTHOVIEW
 70
     0
  9
$PUCSORGTOP
 10
0.0
 20
0.0
 30
0.0
  9
$PUCSORGBOTTOM
 10
0.0
 20
0.0
 30
0.0
  9
$PUCSORGLEFT
 10
0.0
 20
0.0
 30
0.0
  9
$PUCSORGRIGHT
 10
0.0
 20
0.0
 30
0.0
  9
$PUCSORGFRONT
 10
0.0
 20
0.0
 30
0.0
  9
$PUCSORGBACK
 10
0.0
 20
0.0
 30
0.0
  9
$USERI1
 70
     0
  9
$USERI2
 70
     0
  9
$USERI3
 70
     0
  9
$USERI4
 70
     0
  9
$USERI5
 70
     0
  9
$USERR1
 40
0.0
  9
$USERR2
 40
0.0
  9
$USERR3
 40
0.0
  9
$USERR4
 40
0.0
  9
$USERR5
 40
0.0
  9
$WORLDVIEW
 70
     1
  9
$SHADEDGE
 70
     3
  9
$SHADEDIF
 70
    70
  9
$TILEMODE
 70
     1
  9
$MAXACTVP
 70
    64
  9
$PINSBASE
 10
0.0
 20
0.0
 30
0.0
  9
$PLIMCHECK
 70
     0
  9
$PEXTMIN
 10
-301.0
 20
-351.0
 30
0.0
  9
$PEXTMAX
 10
301.0
 20
350.0
 30
0.0
  9
$PLIMMIN
 10
-372.8974358974
 20
-377.9615384615
  9
$PLIMMAX
 10
694.7794871795
 20
376.9615384615
  9
$UNITMODE
 70
     0
  9
$VISRETAIN
 70
     1
  9
$PLINEGEN
 70
     0
  9
$PSLTSCALE
 70
     1
  9
$TREEDEPTH
 70
  3020
  9
$CMLSTYLE
  2
Standard
  9
$CMLJUST
 70
     0
  9
$CMLSCALE
 40
20.0
  9
$PROXYGRAPHICS
 70
     1
  9
$MEASUREMENT
 70
     1
  9
$CELWEIGHT
370
    -1
  9
$ENDCAPS
280
     0
  9
$JOINSTYLE
280
     0
  9
$LWDISPLAY
290
     1
  9
$INSUNITS
 70
     4
  9
$HYPERLINKBASE
  1

  9
$STYLESHEET
  1

  9
$XEDIT
290
     1
  9
$CEPSNTYPE
380
     0
  9
$PSTYLEMODE
290
     1
  9
$FINGERPRINTGUID
  2
{4ab87f92-29ce-44f6-8d10-1bc648da903e}
  9
$VERSIONGUID
  2
{FAEB1C32-E019-11D5-929B-00C0DF256EC4}
  9
$EXTNAMES
290
     1
  9
$PSVPSCALE
 40
0.0
  9
$OLESTARTUP
290
     0
  0
ENDSEC
  0
SECTION
  2
CLASSES
  0
CLASS
  1
ACDBDICTIONARYWDFLT
  2
AcDbDictionaryWithDefault
  3
ObjectDBX Classes
 90
        0
280
     0
281
     0
  0
CLASS
  1
VISUALSTYLE
  2
AcDbVisualStyle
  3
ObjectDBX Classes
 90
     4095
280
     0
281
     0
  0
CLASS
  1
MATERIAL
  2
AcDbMaterial
  3
ObjectDBX Classes
 90
     1153
280
     0
281
     0
  0
CLASS
  1
SCALE
  2
AcDbScale
  3
ObjectDBX Classes
 90
     1153
280
     0
281
     0
  0
CLASS
  1
TABLESTYLE
  2
AcDbTableStyle
  3
ObjectDBX Classes
 90
     4095
280
     0
281
     0
  0
CLASS
  1
MLEADERSTYLE
  2
AcDbMLeaderStyle
  3
ACDB_MLEADERSTYLE_CLASS
 90
     4095
280
     0
281
     0
  0
CLASS
  1
SUN
  2
AcDbSun
  3
SCENEOE
 90
     1153
280
     0
281
     0
  0
CLASS
  1
ACDBPLACEHOLDER
  2
AcDbPlaceHolder
  3
ObjectDBX Classes
 90
        0
280
     0
281
     0
  0
CLASS
  1
LAYOUT
  2
AcDbLayout
  3
ObjectDBX Classes
 90
        0
280
     0
281
     0
  0
ENDSEC
  0
SECTION
  2
TABLES
  0
TABLE
  2
VPORT
  5
8
330
0
100
AcDbSymbolTable
 70
     1
  0
VPORT
  5
29
330
8
100
AcDbSymbolTableRecord
100
AcDbViewportTableRecord
  2
*Active
 70
     0
 10
0.0
 20
0.0
 11
1.0
 21
1.0
 12
0.0
 22
-0.5
 13
0.0
 23
0.0
 14
10.0
 24
10.0
 15
10.0
 25
10.0
 16
0.0
 26
0.0
 36
1.0
 17
0.0
 27
0.0
 37
0.0
 40
715.02
 41
0.8587731812
 42
50.0
 43
0.0
 44
0.0
 50
0.0
 51
0.0
 71
     0
 72
   100
 73
     1
 74
     3
 75
     0
 76
     0
 77
     0
 78
     0
281
     0
 65
     1
110
0.0
120
0.0
130
0.0
111
1.0
121
0.0
131
0.0
112
0.0
122
1.0
132
0.0
 79
     0
146
0.0
  0
ENDTAB
  0
TABLE
  2
LTYPE
  5
5
330
0
100
AcDbSymbolTable
 70
     6
  0
LTYPE
  5
14
330
5
100
AcDbSymbolTableRecord
100
AcDbLinetypeTableRecord
  2
ByBlock
 70
     0
  3

 72
    65
 73
     0
 40
0.0
  0
LTYPE
  5
15
330
5
100
AcDbSymbolTableRecord
100
AcDbLinetypeTableRecord
  2
ByLayer
 70
     0
  3

 72
    65
 73
     0
 40
0.0
  0
LTYPE
  5
16
330
5
100
AcDbSymbolTableRecord
100
AcDbLinetypeTableRecord
  2
Continuous
 70
     0
  3
Solid line
 72
    65
 73
     0
 40
0.0
  0
LTYPE
  5
6E
330
5
100
AcDbSymbolTableRecord
100
AcDbLinetypeTableRecord
  2
HIDDEN
 70
     0
  3
Hidden __ __ __ __ __ __ __ __ __ __ __ __ __ __
 72
    65
 73
     2
 40
1.905
 49
1.27
 74
     0
 49
-0.635
 74
     0
  0
LTYPE
  5
6F
330
5
100
AcDbSymbolTableRecord
100
AcDbLinetypeTableRecord
  2
PHANTOM
 70
     0
  3
Phantom ______  __  __  ______  __  __  ______
 72
    65
 73
     6
 40
12.7
 49
6.35
 74
     0
 49
-1.27
 74
     0
 49
1.27
 74
     0
 49
-1.27
 74
     0
 49
1.27
 74
     0
 49
-1.27
 74
     0
  0
LTYPE
  5
70
330
5
100
AcDbSymbolTableRecord
100
AcDbLinetypeTableRecord
  2
CENTER
 70
     0
  3
Center ____ _ ____ _ ____ _ ____ _ ____ _ ____
 72
    65
 73
     4
 40
10.16
 49
6.35
 74
     0
 49
-1.27
 74
     0
 49
1.27
 74
     0
 49
-1.27
 74
     0
  0
LTYPE
  5
71
330
5
100
AcDbSymbolTableRecord
100
AcDbLinetypeTableRecord
  2
CENTERX2
 70
     0
  3
Center (2x) ________  __  ________  __  _____
 72
    65
 73
     4
 40
20.32
 49
12.7
 74
     0
 49
-2.54
 74
     0
 49
2.54
 74
     0
 49
-2.54
 74
     0
  0
LTYPE
  5
72
330
5
100
AcDbSymbolTableRecord
100
AcDbLinetypeTableRecord
  2
DOT2
 70
     0
  3
Dot (.5x) ........................................
 72
    65
 73
     2
 40
0.635
 49
0.0
 74
     0
 49
-0.635
 74
     0
  0
ENDTAB
  0
TABLE
  2
LAYER
  5
2
330
0
100
AcDbSymbolTable
 70
     1
  0
LAYER
  5
10
330
2
100
AcDbSymbolTableRecord
100
AcDbLayerTableRecord
  2
0
 70
     0
 62
     7
  6
Continuous
370
    -3
390
F
  0
ENDTAB
  0
TABLE
  2
STYLE
  5
3
330
0
100
AcDbSymbolTable
 70
     1
  0
STYLE
  5
11
330
3
100
AcDbSymbolTableRecord
100
AcDbTextStyleTableRecord
  2
Standard
 70
     0
 40
0.0
 41
1.0
 50
0.0
 71
     0
 42
3.5
  3
txt
  4

  0
ENDTAB
  0
TABLE
  2
VIEW
  5
6
330
0
100
AcDbSymbolTable
 70
     0
  0
ENDTAB
  0
TABLE
  2
UCS
  5
7
330
0
100
AcDbSymbolTable
 70
     0
  0
ENDTAB
  0
TABLE
  2
APPID
  5
9
330
0
100
AcDbSymbolTable
 70
     1
  0
APPID
  5
12
330
9
100
AcDbSymbolTableRecord
100
AcDbRegAppTableRecord
  2
ACAD
 70
     0
  0
ENDTAB
  0
TABLE
  2
DIMSTYLE
  5
A
330
0
100
AcDbSymbolTable
 70
     1
100
AcDbDimStyleTable
  0
DIMSTYLE
105
27
330
A
100
AcDbSymbolTableRecord
100
AcDbDimStyleTableRecord
  2
ISO-25
 70
     0
 41
2.5
 42
0.625
 43
3.75
 44
1.25
 73
     0
 74
     0
 77
     1
 78
     8
140
2.5
141
2.5
143
0.0393700787
147
0.625
171
     3
172
     1
178
     0
271
     2
272
     2
274
     3
278
    44
283
     0
284
     8
340
11
  0
ENDTAB
  0
TABLE
  2
BLOCK_RECORD
  5
1
330
0
100
AcDbSymbolTable
 70
     4
  0
BLOCK_RECORD
  5
1F
330
1
100
AcDbSymbolTableRecord
100
AcDbBlockTableRecord
  2
*Model_Space
340
22
  0
BLOCK_RECORD
  5
1B
330
1
100
AcDbSymbolTableRecord
100
AcDbBlockTableRecord
  2
*Paper_Space
340
1E
  0
BLOCK_RECORD
  5
23
330
1
100
AcDbSymbolTableRecord
100
AcDbBlockTableRecord
  2
*Paper_Space0
340
26
  0
BLOCK_RECORD
  5
347
330
1
100
AcDbSymbolTableRecord
100
AcDbBlockTableRecord
  2
*Paper_Space1
340
348
  0
BLOCK_RECORD
  5
41C
330
1
100
AcDbSymbolTableRecord
100
AcDbBlockTableRecord
  2
*Paper_Space2
340
41D
  0
BLOCK_RECORD
  5
4F1
330
1
100
AcDbSymbolTableRecord
100
AcDbBlockTableRecord
  2
*Paper_Space3
340
4F2
  0
ENDTAB
  0
ENDSEC
  0
SECTION
  2
BLOCKS
  0
BLOCK
  5
20
330
1F
100
AcDbEntity
  8
0
100
AcDbBlockBegin
  2
*Model_Space
 70
     0
 10
0.0
 20
0.0
 30
0.0
  3
*Model_Space
  1

  0
ENDBLK
  5
21
330
1F
100
AcDbEntity
  8
0
100
AcDbBlockEnd
  0
BLOCK
  5
1C
330
1B
100
AcDbEntity
 67
     1
  8
0
100
AcDbBlockBegin
  2
*Paper_Space
 70
     0
 10
0.0
 20
0.0
 30
0.0
  3
*Paper_Space
  1

  0
ENDBLK
  5
1D
330
1B
100
AcDbEntity
 67
     1
  8
0
100
AcDbBlockEnd
  0
BLOCK
  5
24
330
23
100
AcDbEntity
  8
0
100
AcDbBlockBegin
  2
*Paper_Space0
 70
     0
 10
0.0
 20
0.0
 30
0.0
  3
*Paper_Space0
  1

  0
LWPOLYLINE
  5
22D
330
23
100
AcDbEntity
  8
0
  6
Continuous
 62
     7
370
    25
100
AcDbPolyline
 90
        3
 70
   128
 43
0.0
 10
-143.1463423959
 20
-222.615
 10
-143.2231711859
 20
-222.6654417291
 10
-143.3660303962
 20
-222.7217931069
  0
LWPOLYLINE
  5
22E
330
23
100
AcDbEntity
  8
0
  6
Continuous
 62
     7
370
    25
100
AcDbPolyline
 90
        3
 70
   128
 43
0.0
 10
-143.3660303962
 20
-208.5082068931
 10
-143.2231711859
 20
-208.5645582709
 10
-143.1463423959
 20
-208.615
  0
LWPOLYLINE
  5
25D
330
23
100
AcDbEntity
  8
0
  6
Continuous
 62
     7
370
    25
100
AcDbPolyline
 90
        3
 70
   128
 43
0.0
 10
-143.1463423959
 20
238.615
 10
-143.2231711859
 20
238.5645582709
 10
-143.3660303962
 20
238.5082068931
  0
LWPOLYLINE
  5
25E
330
23
100
AcDbEntity
  8
0
  6
Continuous
 62
     7
370
    25
100
AcDbPolyline
 90
        3
 70
   128
 43
0.0
 10
-143.3660303962
 20
252.7217931069
 10
-143.2231711859
 20
252.6654417291
 10
-143.1463423959
 20
252.615
  0
SPLINE
  5
270
330
23
100
AcDbEntity
  8
0
  6
Continuous
 62
     7
370
    25
100
AcDbSpline
210
0.0
220
0.0
230
1.0
 70
     8
 71
     3
 72
     9
 73
     5
 74
     0
 42
0.000000001
 43
0.00000001
 40
0.0
 40
0.0
 40
0.0
 40
0.0
 40
0.4918154293393744
 40
1.0
 40
1.0
 40
1.0
 40
1.0
 10
-143.276342190582
 20
255.2679595808605
 30
0.0
 10
-143.27276909278
 20
255.2778759141764
 30
0.0
 10
-143.2655039734104
 20
255.2980386271055
 30
0.0
 10
-143.2598569967207
 20
255.3237406015934
 30
0.0
 10
-143.2569872902962
 20
255.3368019484636
 30
0.0
  0
SPLINE
  5
273
330
23
100
AcDbEntity
  8
0
  6
Continuous
 62
     7
370
    25
100
AcDbSpline
210
0.0
220
0.0
230
1.0
 70
     8
 71
     3
 72
     9
 73
     5
 74
     0
 42
0.000000001
 43
0.00000001
 40
0.0
 40
0.0
 40
0.0
 40
0.0
 40
0.4918186149714577
 40
1.0
 40
1.0
 40
1.0
 40
1.0
 10
-143.2763421905818
 20
235.8620404191339
 30
0.0
 10
-143.2727696204722
 20
235.8521240628656
 30
0.0
 10
-143.2655056211017
 20
235.8319614338668
 30
0.0
 10
-143.259857539982
 20
235.8062593646588
 30
0.0
 10
-143.2569872902959
 20
235.7931980515306
 30
0.0
  0
SPLINE
  5
27A
330
23
100
AcDbEntity
  8
0
  6
Continuous
 62
     7
370
    25
100
AcDbSpline
210
0.0
220
0.0
230
1.0
 70
     8
 71
     3
 72
     9
 73
     5
 74
     0
 42
0.000000001
 43
0.00000001
 40
0.0
 40
0.0
 40
0.0
 40
0.0
 40
0.4918154293396145
 40
1.0
 40
1.0
 40
1.0
 40
1.0
 10
-143.2763421905856
 20
-205.9620404191354
 30
0.0
 10
-143.2727690927836
 20
-205.9521240858195
 30
0.0
 10
-143.265503973414
 20
-205.9319613728904
 30
0.0
 10
-143.2598569967243
 20
-205.9062593984026
 30
0.0
 10
-143.2569872902997
 20
-205.8931980515324
 30
0.0
  0
SPLINE
  5
27D
330
23
100
AcDbEntity
  8
0
  6
Continuous
 62
     7
370
    25
100
AcDbSpline
210
0.0
220
0.0
230
1.0
 70
     8
 71
     3
 72
     9
 73
     5
 74
     0
 42
0.000000001
 43
0.00000001
 40
0.0
 40
0.0
 40
0.0
 40
0.0
 40
0.4918186149714577
 40
1.0
 40
1.0
 40
1.0
 40
1.0
 10
-143.2763421905853
 20
-225.367959580862
 30
0.0
 10
-143.2727696204758
 20
-225.3778759371304
 30
0.0
 10
-143.2655056211052
 20
-225.398038566129
 30
0.0
 10
-143.2598575399856
 20
-225.4237406353371
 30
0.0
 10
-143.2569872902995
 20
-225.4368019484653
 30
0.0
  0
LINE
  5
2B7
330
23
100
AcDbEntity
  8
0
  6
Continuous
 62
     7
370
    25
100
AcDbLine
 10
-143.9670073879
 20
255.1002152136
 30
0.0
 11
-143.3296099444
 21
255.2054590631
 31
0.0
  0
LINE
  5
2B8
330
23
100
AcDbEntity
  8
0
  6
Continuous
 62
     7
370
    25
100
AcDbLine
 10
-143.3296099444
 20
235.9245409369
 30
0.0
 11
-143.9670073879
 21
236.0297847864
 31
0.0
  0
LINE
  5
2B9
330
23
100
AcDbEntity
  8
0
  6
Continuous
 62
     7
370
    25
100
AcDbLine
 10
-143.9670073879
 20
-206.1297847864
 30
0.0
 11
-143.3296099444
 21
-206.0245409369
 31
0.0
  0
LINE
  5
2BA
330
23
100
AcDbEntity
  8
0
  6
Continuous
 62
     7
370
    25
100
AcDbLine
 10
-143.3296099444
 20
-225.3054590631
 30
0.0
 11
-143.9670073879
 21
-225.2002152136
 31
0.0
  0
LINE
  5
2BB
330
23
100
AcDbEntity
  8
0
  6
Continuous
 62
     7
370
    25
100
AcDbLine
 10
-144.7102481917
 20
-351.0
 30
0.0
 11
-156.6997951292
 21
-351.0
 31
0.0
  0
LINE
  5
2BC
330
23
100
AcDbEntity
  8
0
  6
Continuous
 62
     7
370
    25
100
AcDbLine
 10
-143.9602486675
 20
-350.25
 30
0.0
 11
-143.9602486675
 21
-244.3091273959
 31
0.0
  0
LINE
  5
2BD
330
23
100
AcDbEntity
  8
0
  6
Continuous
 62
     7
370
    25
100
AcDbLine
 10
-143.9602486675
 20
-186.9182486561
 30
0.0
 11
-143.9602486675
 21
216.9208726041
 31
0.0
  0
LINE
  5
2BE
330
23
100
AcDbEntity
  8
0
  6
Continuous
 62
     7
370
    25
100
AcDbLine
 10
-143.9602486675
 20
274.3117513789
 30
0.0
 11
-143.9602486675
 21
349.25
 31
0.0
  0
LINE
  5
2BF
330
23
100
AcDbEntity
  8
0
  6
Continuous
 62
     7
370
    25
100
AcDbLine
 10
-156.6997951292
 20
350.0
 30
0.0
 11
-144.7102481917
 21
350.0
 31
0.0
  0
LINE
  5
2C0
330
23
100
AcDbEntity
  8
0
  6
Continuous
 62
     7
370
    25
100
AcDbLine
 10
-156.2157741038
 20
349.25
 30
0.0
 11
-156.2157741038
 21
-350.25
 31
0.0
  0
LINE
  5
2C1
330
23
100
AcDbEntity
  8
0
  6
Continuous
 62
     7
370
    25
100
AcDbLine
 10
-157.4497941416
 20
-350.25
 30
0.0
 11
-143.9602486675
 21
-350.25
 31
0.0
  0
LINE
  5
2C2
330
23
100
AcDbEntity
  8
0
  6
Continuous
 62
     7
370
    25
100
AcDbLine
 10
-156.9669902688
 20
-350.25
 30
0.0
 11
-156.9669902688
 21
349.25
 31
0.0
  0
LINE
  5
2C3
330
23
100
AcDbEntity
  8
0
  6
Continuous
 62
     7
370
    25
100
AcDbLine
 10
-143.9602486675
 20
349.25
 30
0.0
 11
-157.4497941415
 21
349.25
 31
0.0
  0
LINE
  5
2C4
330
23
100
AcDbEntity
  8
0
  6
Continuous
 62
     7
370
    25
100
AcDbLine
 10
-156.2169912564
 20
-351.0
 30
0.0
 11
-156.2157741038
 21
-350.25
 31
0.0
  0
LINE
  5
2C5
330
23
100
AcDbEntity
  8
0
  6
Continuous
 62
     7
370
    25
100
AcDbLine
 10
-156.2157741038
 20
349.25
 30
0.0
 11
-156.2169912564
 21
350.0
 31
0.0
  0
LINE
  5
2C6
330
23
100
AcDbEntity
  8
0
  6
Continuous
 62
     7
370
    25
100
AcDbLine
 10
-144.7170064003
 20
-351.0
 30
0.0
 11
-144.7157892477
 21
-350.25
 31
0.0
  0
LINE
  5
2C7
330
23
100
AcDbEntity
  8
0
  6
Continuous
 62
     7
370
    25
100
AcDbLine
 10
-144.7157892477
 20
-350.25
 30
0.0
 11
-144.7157892476
 21
349.25
 31
0.0
  0
LINE
  5
2C8
330
23
100
AcDbEntity
  8
0
  6
Continuous
 62
     7
370
    25
100
AcDbLine
 10
-144.7157892476
 20
349.25
 30
0.0
 11
-144.7170064003
 21
350.0
 31
0.0
  0
LINE
  5
2C9
330
23
100
AcDbEntity
  8
0
  6
Continuous
 62
     7
370
    25
100
AcDbLine
 10
-143.9670073879
 20
349.25
 30
0.0
 11
-143.9670073879
 21
-350.25
 31
0.0
  0
LINE
  5
2CA
330
23
100
AcDbEntity
  8
0
  6
Continuous
 62
     7
370
    25
100
AcDbLine
 10
-157.4497941415
 20
349.25
 30
0.0
 11
-157.4497941415
 21
330.0
 31
0.0
  0
LINE
  5
2CB
330
23
100
AcDbEntity
  8
0
  6
Continuous
 62
     7
370
    25
100
AcDbLine
 10
-157.4497941416
 20
-331.0
 30
0.0
 11
-157.4497941416
 21
-350.25
 31
0.0
  0
LINE
  5
2CC
330
23
100
AcDbEntity
  8
0
  6
Continuous
 62
     7
370
    25
100
AcDbLine
 10
-143.0
 20
-224.0
 30
0.0
 11
-143.9670073879
 21
-224.0
 31
0.0
  0
LINE
  5
2CD
330
23
100
AcDbEntity
  8
0
  6
Continuous
 62
     7
370
    25
100
AcDbLine
 10
-143.9670073879
 20
-207.23
 30
0.0
 11
-143.0
 21
-207.23
 31
0.0
  0
LINE
  5
2CE
330
23
100
AcDbEntity
  8
0
  6
Continuous
 62
     7
370
    25
100
AcDbLine
 10
-143.9670073879
 20
-208.49
 30
0.0
 11
-143.0319716874
 21
-208.49
 31
0.0
  0
LINE
  5
2CF
330
23
100
AcDbEntity
  8
0
  6
Continuous
 62
     7
370
    25
100
AcDbLine
 10
-143.0319716874
 20
-208.48
 30
0.0
 11
-143.0319716874
 21
-208.49
 31
0.0
  0
LINE
  5
2D0
330
23
100
AcDbEntity
  8
0
  6
Continuous
 62
     7
370
    25
100
AcDbLine
 10
-143.0
 20
-208.48
 30
0.0
 11
-143.0319716874
 21
-208.48
 31
0.0
  0
LINE
  5
2D1
330
23
100
AcDbEntity
  8
0
  6
Continuous
 62
     7
370
    25
100
AcDbLine
 10
-143.0319716898
 20
-222.74
 30
0.0
 11
-143.9670073879
 21
-222.74
 31
0.0
  0
LINE
  5
2D2
330
23
100
AcDbEntity
  8
0
  6
Continuous
 62
     7
370
    25
100
AcDbLine
 10
-143.0319716874
 20
-222.75
 30
0.0
 11
-143.0319716874
 21
-222.74
 31
0.0
  0
LINE
  5
2D3
330
23
100
AcDbEntity
  8
0
  6
Continuous
 62
     7
370
    25
100
AcDbLine
 10
-143.0319716874
 20
-222.75
 30
0.0
 11
-143.0
 21
-222.75
 31
0.0
  0
LINE
  5
2D4
330
23
100
AcDbEntity
  8
0
  6
Continuous
 62
     7
370
    25
100
AcDbLine
 10
-143.3660303962
 20
-222.74
 30
0.0
 11
-143.3660303962
 21
-222.7217931069
 31
0.0
  0
LINE
  5
2D5
330
23
100
AcDbEntity
  8
0
  6
Continuous
 62
     7
370
    25
100
AcDbLine
 10
-143.0535733009
 20
-210.125
 30
0.0
 11
-143.0535733009
 21
-221.105
 31
0.0
  0
LINE
  5
2D6
330
23
100
AcDbEntity
  8
0
  6
Continuous
 62
     7
370
    25
100
AcDbLine
 10
-143.3660303962
 20
-208.5082068931
 30
0.0
 11
-143.3660303962
 21
-208.49
 31
0.0
  0
LINE
  5
2D7
330
23
100
AcDbEntity
  8
0
  6
Continuous
 62
     7
370
    25
100
AcDbLine
 10
-143.0663004865
 20
-210.125
 30
0.0
 11
-143.0663004865
 21
-221.105
 31
0.0
  0
LINE
  5
2D8
330
23
100
AcDbEntity
  8
0
  6
Continuous
 62
     7
370
    25
100
AcDbLine
 10
-143.0
 20
-349.0
 30
0.0
 11
-143.0
 21
350.0
 31
0.0
  0
LINE
  5
2D9
330
23
100
AcDbEntity
  8
0
  6
Continuous
 62
     7
370
    25
100
AcDbLine
 10
-143.0
 20
350.0
 30
0.0
 11
-1.0
 21
350.0
 31
0.0
  0
LINE
  5
2DA
330
23
100
AcDbEntity
  8
0
  6
Continuous
 62
     7
370
    25
100
AcDbLine
 10
-142.0
 20
350.0
 30
0.0
 11
-142.0
 21
-350.0
 31
0.0
  0
LINE
  5
2DB
330
23
100
AcDbEntity
  8
0
  6
Continuous
 62
     7
370
    25
100
AcDbLine
 10
0.0
 20
349.0
 30
0.0
 11
-143.0
 21
349.0
 31
0.0
  0
LINE
  5
2DC
330
23
100
AcDbEntity
  8
0
  6
Continuous
 62
     7
370
    25
100
AcDbLine
 10
-1.0
 20
-350.0
 30
0.0
 11
-1.0
 21
350.0
 31
0.0
  0
LINE
  5
2DD
330
23
100
AcDbEntity
  8
0
  6
Continuous
 62
     7
370
    25
100
AcDbLine
 10
-143.0
 20
-349.0
 30
0.0
 11
0.0
 21
-349.0
 31
0.0
  0
LINE
  5
2DE
330
23
100
AcDbEntity
  8
0
  6
Continuous
 62
     7
370
    25
100
AcDbLine
 10
0.0
 20
349.0
 30
0.0
 11
0.0
 21
-349.0
 31
0.0
  0
LINE
  5
2DF
330
23
100
AcDbEntity
  8
0
  6
Continuous
 62
     7
370
    25
100
AcDbLine
 10
-1.0
 20
-350.0
 30
0.0
 11
-142.0
 21
-350.0
 31
0.0
  0
LINE
  5
2E0
330
23
100
AcDbEntity
  8
0
  6
Continuous
 62
     7
370
    25
100
AcDbLine
 10
-143.0011125279
 20
-222.615
 30
0.0
 11
-143.0011125279
 21
-221.105
 31
0.0
  0
LINE
  5
2E1
330
23
100
AcDbEntity
  8
0
  6
Continuous
 62
     7
370
    25
100
AcDbLine
 10
-143.0
 20
-221.105
 30
0.0
 11
-143.9670073879
 21
-221.105
 31
0.0
  0
LINE
  5
2E2
330
23
100
AcDbEntity
  8
0
  6
Continuous
 62
     7
370
    25
100
AcDbLine
 10
-143.0
 20
-222.615
 30
0.0
 11
-143.9670073879
 21
-222.615
 31
0.0
  0
LINE
  5
2E3
330
23
100
AcDbEntity
  8
0
  6
Continuous
 62
     7
370
    25
100
AcDbLine
 10
-143.0011125279
 20
-208.615
 30
0.0
 11
-143.0011125279
 21
-210.125
 31
0.0
  0
LINE
  5
2E4
330
23
100
AcDbEntity
  8
0
  6
Continuous
 62
     7
370
    25
100
AcDbLine
 10
-143.9670073879
 20
-208.615
 30
0.0
 11
-143.0
 21
-208.615
 31
0.0
  0
LINE
  5
2E5
330
23
100
AcDbEntity
  8
0
  6
Continuous
 62
     7
370
    25
100
AcDbLine
 10
-143.9670073879
 20
-210.125
 30
0.0
 11
-143.0
 21
-210.125
 31
0.0
  0
LINE
  5
2E6
330
23
100
AcDbEntity
  8
0
  6
Continuous
 62
     7
370
    25
100
AcDbLine
 10
-143.0
 20
237.23
 30
0.0
 11
-143.9670073879
 21
237.23
 31
0.0
  0
LINE
  5
2E7
330
23
100
AcDbEntity
  8
0
  6
Continuous
 62
     7
370
    25
100
AcDbLine
 10
-143.0319716898
 20
238.49
 30
0.0
 11
-143.9670073879
 21
238.49
 31
0.0
  0
LINE
  5
2E8
330
23
100
AcDbEntity
  8
0
  6
Continuous
 62
     7
370
    25
100
AcDbLine
 10
-143.0319716874
 20
238.48
 30
0.0
 11
-143.0319716874
 21
238.49
 31
0.0
  0
LINE
  5
2E9
330
23
100
AcDbEntity
  8
0
  6
Continuous
 62
     7
370
    25
100
AcDbLine
 10
-143.0319716874
 20
238.48
 30
0.0
 11
-143.0
 21
238.48
 31
0.0
  0
LINE
  5
2EA
330
23
100
AcDbEntity
  8
0
  6
Continuous
 62
     7
370
    25
100
AcDbLine
 10
-143.9670073879
 20
252.74
 30
0.0
 11
-143.0319716874
 21
252.74
 31
0.0
  0
LINE
  5
2EB
330
23
100
AcDbEntity
  8
0
  6
Continuous
 62
     7
370
    25
100
AcDbLine
 10
-143.0319716874
 20
252.75
 30
0.0
 11
-143.0319716874
 21
252.74
 31
0.0
  0
LINE
  5
2EC
330
23
100
AcDbEntity
  8
0
  6
Continuous
 62
     7
370
    25
100
AcDbLine
 10
-143.0
 20
252.75
 30
0.0
 11
-143.0319716874
 21
252.75
 31
0.0
  0
LINE
  5
2ED
330
23
100
AcDbEntity
  8
0
  6
Continuous
 62
     7
370
    25
100
AcDbLine
 10
-143.9670073879
 20
254.0
 30
0.0
 11
-143.0
 21
254.0
 31
0.0
  0
LINE
  5
2EE
330
23
100
AcDbEntity
  8
0
  6
Continuous
 62
     7
370
    25
100
AcDbLine
 10
-143.3660303962
 20
238.49
 30
0.0
 11
-143.3660303962
 21
238.5082068931
 31
0.0
  0
LINE
  5
2EF
330
23
100
AcDbEntity
  8
0
  6
Continuous
 62
     7
370
    25
100
AcDbLine
 10
-143.0535733009
 20
251.105
 30
0.0
 11
-143.0535733009
 21
240.125
 31
0.0
  0
LINE
  5
2F0
330
23
100
AcDbEntity
  8
0
  6
Continuous
 62
     7
370
    25
100
AcDbLine
 10
-143.3660303962
 20
252.7217931069
 30
0.0
 11
-143.3660303962
 21
252.74
 31
0.0
  0
LINE
  5
2F1
330
23
100
AcDbEntity
  8
0
  6
Continuous
 62
     7
370
    25
100
AcDbLine
 10
-143.0663004865
 20
251.105
 30
0.0
 11
-143.0663004865
 21
240.125
 31
0.0
  0
LINE
  5
2F2
330
23
100
AcDbEntity
  8
0
  6
Continuous
 62
     7
370
    25
100
AcDbLine
 10
-143.9670073879
 20
274.3088785653
 30
0.0
 11
-143.0
 21
274.1384028252
 31
0.0
  0
LINE
  5
2F3
330
23
100
AcDbEntity
  8
0
  6
Continuous
 62
     7
370
    25
100
AcDbLine
 10
-143.0
 20
274.1423788142
 30
0.0
 11
-143.9670073879
 21
274.3129435095
 31
0.0
  0
LINE
  5
2F4
330
23
100
AcDbEntity
  8
0
  6
Continuous
 62
     7
370
    25
100
AcDbLine
 10
-143.9670073879
 20
-186.9211214697
 30
0.0
 11
-143.0
 21
-187.0915972099
 31
0.0
  0
LINE
  5
2F5
330
23
100
AcDbEntity
  8
0
  6
Continuous
 62
     7
370
    25
100
AcDbLine
 10
-143.0
 20
-187.0876212208
 30
0.0
 11
-143.9670073879
 21
-186.9170565255
 31
0.0
  0
LINE
  5
2F6
330
23
100
AcDbEntity
  8
0
  6
Continuous
 62
     7
370
    25
100
AcDbLine
 10
-143.0011125279
 20
252.615
 30
0.0
 11
-143.0011125279
 21
251.105
 31
0.0
  0
LINE
  5
2F7
330
23
100
AcDbEntity
  8
0
  6
Continuous
 62
     7
370
    25
100
AcDbLine
 10
-143.9670073879
 20
251.105
 30
0.0
 11
-143.0
 21
251.105
 31
0.0
  0
LINE
  5
2F8
330
23
100
AcDbEntity
  8
0
  6
Continuous
 62
     7
370
    25
100
AcDbLine
 10
-143.9670073879
 20
252.615
 30
0.0
 11
-143.0
 21
252.615
 31
0.0
  0
LINE
  5
2F9
330
23
100
AcDbEntity
  8
0
  6
Continuous
 62
     7
370
    25
100
AcDbLine
 10
-143.0011125279
 20
238.615
 30
0.0
 11
-143.0011125279
 21
240.125
 31
0.0
  0
LINE
  5
2FA
330
23
100
AcDbEntity
  8
0
  6
Continuous
 62
     7
370
    25
100
AcDbLine
 10
-143.0
 20
238.615
 30
0.0
 11
-143.9670073879
 21
238.615
 31
0.0
  0
LINE
  5
2FB
330
23
100
AcDbEntity
  8
0
  6
Continuous
 62
     7
370
    25
100
AcDbLine
 10
-143.0
 20
240.125
 30
0.0
 11
-143.9670073879
 21
240.125
 31
0.0
  0
LINE
  5
2FC
330
23
100
AcDbEntity
  8
0
  6
Continuous
 62
     7
370
    25
100
AcDbLine
 10
-143.9670073879
 20
274.210319697
 30
0.0
 11
-143.0
 21
274.0397305953
 31
0.0
  0
LINE
  5
2FD
330
23
100
AcDbEntity
  8
0
  6
Continuous
 62
     7
370
    25
100
AcDbLine
 10
-143.0
 20
217.0902694047
 30
0.0
 11
-143.9670073879
 21
216.919680303
 31
0.0
  0
LINE
  5
2FE
330
23
100
AcDbEntity
  8
0
  6
Continuous
 62
     7
370
    25
100
AcDbLine
 10
-143.3323902078
 20
255.205
 30
0.0
 11
-143.0
 21
255.205
 31
0.0
  0
LINE
  5
2FF
330
23
100
AcDbEntity
  8
0
  6
Continuous
 62
     7
370
    25
100
AcDbLine
 10
-143.0
 20
235.925
 30
0.0
 11
-143.3323902078
 21
235.925
 31
0.0
  0
LINE
  5
300
330
23
100
AcDbEntity
  8
0
  6
Continuous
 62
     7
370
    25
100
AcDbLine
 10
-143.9670073879
 20
-187.019680303
 30
0.0
 11
-143.0
 21
-187.1902694047
 31
0.0
  0
LINE
  5
301
330
23
100
AcDbEntity
  8
0
  6
Continuous
 62
     7
370
    25
100
AcDbLine
 10
-143.0
 20
-244.1397305953
 30
0.0
 11
-143.9670073879
 21
-244.310319697
 31
0.0
  0
LINE
  5
302
330
23
100
AcDbEntity
  8
0
  6
Continuous
 62
     7
370
    25
100
AcDbLine
 10
-143.3323902078
 20
-206.025
 30
0.0
 11
-143.0
 21
-206.025
 31
0.0
  0
LINE
  5
303
330
23
100
AcDbEntity
  8
0
  6
Continuous
 62
     7
370
    25
100
AcDbLine
 10
-143.0
 20
-225.305
 30
0.0
 11
-143.3323902078
 21
-225.305
 31
0.0
  0
LINE
  5
304
330
23
100
AcDbEntity
  8
0
  6
Continuous
 62
     7
370
    25
100
AcDbLine
 10
-160.9501952501
 20
350.0
 30
0.0
 11
-157.9599581678
 21
350.0
 31
0.0
  0
LINE
  5
305
330
23
100
AcDbEntity
  8
0
  6
Continuous
 62
     7
370
    25
100
AcDbLine
 10
-157.9593949335
 20
349.5
 30
0.0
 11
-157.9599581678
 21
350.0
 31
0.0
  0
LINE
  5
306
330
23
100
AcDbEntity
  8
0
  6
Continuous
 62
     7
370
    25
100
AcDbLine
 10
-157.9593949335
 20
349.5
 30
0.0
 11
-157.9593949335
 21
330.0
 31
0.0
  0
LINE
  5
307
330
23
100
AcDbEntity
  8
0
  6
Continuous
 62
     7
370
    25
100
AcDbLine
 10
-157.9593949335
 20
-331.0
 30
0.0
 11
-157.9593949335
 21
-350.5
 31
0.0
  0
LINE
  5
308
330
23
100
AcDbEntity
  8
0
  6
Continuous
 62
     7
370
    25
100
AcDbLine
 10
-157.9599581678
 20
-351.0
 30
0.0
 11
-157.9593949335
 21
-350.5
 31
0.0
  0
LINE
  5
309
330
23
100
AcDbEntity
  8
0
  6
Continuous
 62
     7
370
    25
100
AcDbLine
 10
-157.9599581678
 20
-351.0
 30
0.0
 11
-160.9501952501
 21
-351.0
 31
0.0
  0
LINE
  5
30A
330
23
100
AcDbEntity
  8
0
  6
Continuous
 62
     7
370
    25
100
AcDbLine
 10
-160.4665799423
 20
-351.0
 30
0.0
 11
-160.9665792839
 21
-350.5
 31
0.0
  0
LINE
  5
30B
330
23
100
AcDbEntity
  8
0
  6
Continuous
 62
     7
370
    25
100
AcDbLine
 10
-161.4501945917
 20
-350.5
 30
0.0
 11
-157.9657717993
 21
-350.5
 31
0.0
  0
LINE
  5
30C
330
23
100
AcDbEntity
  8
0
  6
Continuous
 62
     7
370
    25
100
AcDbLine
 10
-160.4665799423
 20
-351.0
 30
0.0
 11
-160.4657685072
 21
-350.5
 31
0.0
  0
LINE
  5
30D
330
23
100
AcDbEntity
  8
0
  6
Continuous
 62
     7
370
    25
100
AcDbLine
 10
-157.9657717993
 20
-350.5
 30
0.0
 11
-157.9665832344
 21
-351.0
 31
0.0
  0
LINE
  5
30E
330
23
100
AcDbEntity
  8
0
  6
Continuous
 62
     7
370
    25
100
AcDbLine
 10
-157.9657717993
 20
349.5
 30
0.0
 11
-161.4501945917
 21
349.5
 31
0.0
  0
LINE
  5
30F
330
23
100
AcDbEntity
  8
0
  6
Continuous
 62
     7
370
    25
100
AcDbLine
 10
-157.9657717993
 20
-350.5
 30
0.0
 11
-157.9657717993
 21
349.5
 31
0.0
  0
LINE
  5
310
330
23
100
AcDbEntity
  8
0
  6
Continuous
 62
     7
370
    25
100
AcDbLine
 10
-160.4657685072
 20
349.5
 30
0.0
 11
-160.4657685072
 21
-350.5
 31
0.0
  0
LINE
  5
311
330
23
100
AcDbEntity
  8
0
  6
Continuous
 62
     7
370
    25
100
AcDbLine
 10
-160.9665792839
 20
-350.5
 30
0.0
 11
-160.9665792838
 21
349.5
 31
0.0
  0
LINE
  5
312
330
23
100
AcDbEntity
  8
0
  6
Continuous
 62
     7
370
    25
100
AcDbLine
 10
-160.4657685072
 20
349.5
 30
0.0
 11
-160.4665799423
 21
350.0
 31
0.0
  0
LINE
  5
313
330
23
100
AcDbEntity
  8
0
  6
Continuous
 62
     7
370
    25
100
AcDbLine
 10
-157.9665832344
 20
350.0
 30
0.0
 11
-157.9657717993
 21
349.5
 31
0.0
  0
LINE
  5
314
330
23
100
AcDbEntity
  8
0
  6
Continuous
 62
     7
370
    25
100
AcDbLine
 10
-160.4665799423
 20
350.0
 30
0.0
 11
-160.9665792838
 21
349.5
 31
0.0
  0
LINE
  5
315
330
23
100
AcDbEntity
  8
0
  6
Continuous
 62
     7
370
    25
100
AcDbLine
 10
-161.4501945917
 20
349.5
 30
0.0
 11
-161.4501945917
 21
-350.5
 31
0.0
  0
LINE
  5
316
330
23
100
AcDbEntity
  8
0
  6
Continuous
 62
     7
370
    25
100
AcDbLine
 10
-161.4501945917
 20
-350.5
 30
0.0
 11
-160.9501952501
 21
-351.0
 31
0.0
  0
LINE
  5
317
330
23
100
AcDbEntity
  8
0
  6
Continuous
 62
     7
370
    25
100
AcDbLine
 10
-161.4501945917
 20
349.5
 30
0.0
 11
-160.9501952501
 21
350.0
 31
0.0
  0
LINE
  5
318
330
23
100
AcDbEntity
  8
0
  6
Continuous
 62
     7
370
    25
100
AcDbLine
 10
-157.9657717993
 20
-331.0
 30
0.0
 11
-156.9982305194
 21
-331.0
 31
0.0
  0
LINE
  5
319
330
23
100
AcDbEntity
  8
0
  6
Continuous
 62
     7
370
    25
100
AcDbLine
 10
-157.9657717993
 20
330.0
 30
0.0
 11
-156.9982305194
 21
330.0
 31
0.0
  0
LINE
  5
31A
330
23
100
AcDbEntity
  8
0
  6
Continuous
 62
     7
370
    25
100
AcDbLine
 10
-156.9982305194
 20
-331.0
 30
0.0
 11
-156.9982305194
 21
330.0
 31
0.0
  0
LINE
  5
31B
330
23
100
AcDbEntity
  8
0
  6
Continuous
 62
     8
370
    25
100
AcDbLine
 10
-143.9670073879
 20
-223.9
 30
0.0
 11
-143.0
 21
-223.9
 31
0.0
  0
LINE
  5
31C
330
23
100
AcDbEntity
  8
0
  6
Continuous
 62
     8
370
    25
100
AcDbLine
 10
-143.0
 20
-207.33
 30
0.0
 11
-143.9670073879
 21
-207.33
 31
0.0
  0
LINE
  5
31D
330
23
100
AcDbEntity
  8
0
  6
Continuous
 62
     8
370
    25
100
AcDbLine
 10
-143.9670073879
 20
237.33
 30
0.0
 11
-143.0
 21
237.33
 31
0.0
  0
LINE
  5
31E
330
23
100
AcDbEntity
  8
0
  6
Continuous
 62
     8
370
    25
100
AcDbLine
 10
-143.0
 20
253.9
 30
0.0
 11
-143.9670073879
 21
253.9
 31
0.0
  0
LINE
  5
31F
330
23
100
AcDbEntity
  8
0
  6
Continuous
 62
     8
370
    25
100
AcDbLine
 10
-143.2445526051
 20
235.475
 30
0.0
 11
-143.9670073879
 21
235.5942880881
 31
0.0
  0
LINE
  5
320
330
23
100
AcDbEntity
  8
0
  6
Continuous
 62
     8
370
    25
100
AcDbLine
 10
-143.0
 20
235.475
 30
0.0
 11
-143.2445526051
 21
235.475
 31
0.0
  0
LINE
  5
321
330
23
100
AcDbEntity
  8
0
  6
Continuous
 62
     8
370
    25
100
AcDbLine
 10
-143.9670073879
 20
217.8862210395
 30
0.0
 11
-143.0
 21
218.0568101412
 31
0.0
  0
LINE
  5
322
330
23
100
AcDbEntity
  8
0
  6
Continuous
 62
     8
370
    25
100
AcDbLine
 10
-143.0
 20
273.0731898588
 30
0.0
 11
-143.9670073879
 21
273.2437789605
 31
0.0
  0
LINE
  5
323
330
23
100
AcDbEntity
  8
0
  6
Continuous
 62
     8
370
    25
100
AcDbLine
 10
-143.2445526051
 20
255.655
 30
0.0
 11
-143.0
 21
255.655
 31
0.0
  0
LINE
  5
324
330
23
100
AcDbEntity
  8
0
  6
Continuous
 62
     8
370
    25
100
AcDbLine
 10
-143.9670073879
 20
255.5357119119
 30
0.0
 11
-143.2445526051
 21
255.655
 31
0.0
  0
LINE
  5
325
330
23
100
AcDbEntity
  8
0
  6
Continuous
 62
     8
370
    25
100
AcDbLine
 10
-143.9670073879
 20
236.6362374582
 30
0.0
 11
-143.0
 21
236.6362374582
 31
0.0
  0
LINE
  5
326
330
23
100
AcDbEntity
  8
0
  6
Continuous
 62
     8
370
    25
100
AcDbLine
 10
-143.0
 20
254.4937625418
 30
0.0
 11
-143.9670073879
 21
254.4937625418
 31
0.0
  0
LINE
  5
327
330
23
100
AcDbEntity
  8
0
  6
Continuous
 62
     8
370
    25
100
AcDbLine
 10
-143.2445526051
 20
-225.755
 30
0.0
 11
-143.9670073879
 21
-225.6357119119
 31
0.0
  0
LINE
  5
328
330
23
100
AcDbEntity
  8
0
  6
Continuous
 62
     8
370
    25
100
AcDbLine
 10
-143.0
 20
-225.755
 30
0.0
 11
-143.2445526051
 21
-225.755
 31
0.0
  0
LINE
  5
329
330
23
100
AcDbEntity
  8
0
  6
Continuous
 62
     8
370
    25
100
AcDbLine
 10
-143.9670073879
 20
-243.3437789605
 30
0.0
 11
-143.0
 21
-243.1731898588
 31
0.0
  0
LINE
  5
32A
330
23
100
AcDbEntity
  8
0
  6
Continuous
 62
     8
370
    25
100
AcDbLine
 10
-143.0
 20
-188.1568101412
 30
0.0
 11
-143.9670073879
 21
-187.9862210395
 31
0.0
  0
LINE
  5
32B
330
23
100
AcDbEntity
  8
0
  6
Continuous
 62
     8
370
    25
100
AcDbLine
 10
-143.2445526051
 20
-205.575
 30
0.0
 11
-143.0
 21
-205.575
 31
0.0
  0
LINE
  5
32C
330
23
100
AcDbEntity
  8
0
  6
Continuous
 62
     8
370
    25
100
AcDbLine
 10
-143.9670073879
 20
-205.6942880881
 30
0.0
 11
-143.2445526051
 21
-205.575
 31
0.0
  0
LINE
  5
32D
330
23
100
AcDbEntity
  8
0
  6
Continuous
 62
     8
370
    25
100
AcDbLine
 10
-143.9670073879
 20
-224.5937625418
 30
0.0
 11
-143.0
 21
-224.5937625418
 31
0.0
  0
LINE
  5
32E
330
23
100
AcDbEntity
  8
0
  6
Continuous
 62
     8
370
    25
100
AcDbLine
 10
-143.0
 20
-206.7362374582
 30
0.0
 11
-143.9670073879
 21
-206.7362374582
 31
0.0
  0
ARC
  5
32F
330
23
100
AcDbEntity
  8
0
  6
Continuous
 62
     7
370
    25
100
AcDbCircle
 10
-144.7102484296
 20
-350.2500002379
 30
0.0
 40
0.7499997620753143
100
AcDbArc
 50
270.0000181761
 51
0.0000181761
  0
ARC
  5
330
330
23
100
AcDbEntity
  8
0
  6
Continuous
 62
     7
370
    25
100
AcDbCircle
 10
-144.7102484296
 20
349.2500002379
 30
0.0
 40
0.7499997620753143
100
AcDbArc
 50
359.9999818239
 51
89.9999818239
  0
ARC
  5
331
330
23
100
AcDbEntity
  8
0
  6
Continuous
 62
     7
370
    25
100
AcDbCircle
 10
-156.2169907626
 20
-350.2500004938
 30
0.0
 40
0.7499995061799529
100
AcDbArc
 50
179.9999622749
 51
269.9999622748
  0
ARC
  5
332
330
23
100
AcDbEntity
  8
0
  6
Continuous
 62
     7
370
    25
100
AcDbCircle
 10
-156.2169907626
 20
349.2500004938
 30
0.0
 40
0.7499995061800666
100
AcDbArc
 50
90.0000377252
 51
180.0000377251
  0
ARC
  5
333
330
23
100
AcDbEntity
  8
0
  6
Continuous
 62
     7
370
    25
100
AcDbCircle
 10
-144.7170068941
 20
-350.2500004938
 30
0.0
 40
0.7499995061801235
100
AcDbArc
 50
270.0000377252
 51
0.0000377251
  0
ARC
  5
334
330
23
100
AcDbEntity
  8
0
  6
Continuous
 62
     7
370
    25
100
AcDbCircle
 10
-144.7170068941
 20
349.2500004938
 30
0.0
 40
0.7499995061799813
100
AcDbArc
 50
359.9999622749
 51
89.9999622748
  0
ARC
  5
335
330
23
100
AcDbEntity
  8
0
  6
Continuous
 62
     7
370
    25
100
AcDbCircle
 10
-156.6997946354
 20
-350.2500004938
 30
0.0
 40
0.7499995061798677
100
AcDbArc
 50
179.9999622749
 51
269.9999622749
  0
ARC
  5
336
330
23
100
AcDbEntity
  8
0
  6
Continuous
 62
     7
370
    25
100
AcDbCircle
 10
-156.6997946354
 20
349.2500004938
 30
0.0
 40
0.7499995061801235
100
AcDbArc
 50
90.0000377252
 51
180.0000377251
  0
ARC
  5
337
330
23
100
AcDbEntity
  8
0
  6
Continuous
 62
     7
370
    25
100
AcDbCircle
 10
-143.5142857537
 20
-222.1049034806
 30
0.0
 40
0.6344544602137677
100
AcDbArc
 50
283.5134581935
 51
306.486949076
  0
ARC
  5
338
330
23
100
AcDbEntity
  8
0
  6
Continuous
 62
     7
370
    25
100
AcDbCircle
 10
-143.5142857537
 20
-209.1250965194
 30
0.0
 40
0.6344544602145086
100
AcDbArc
 50
53.5130509241
 51
76.4865418065
  0
ARC
  5
339
330
23
100
AcDbEntity
  8
0
  6
Continuous
 62
     7
370
    25
100
AcDbCircle
 10
-142.0
 20
-349.0
 30
0.0
 40
1.000000000000114
100
AcDbArc
 50
180.0
 51
270.0
  0
ARC
  5
33A
330
23
100
AcDbEntity
  8
0
  6
Continuous
 62
     7
370
    25
100
AcDbCircle
 10
-1.0
 20
349.0
 30
0.0
 40
1.000000000000057
100
AcDbArc
 50
0.0
 51
90.0
  0
ARC
  5
33B
330
23
100
AcDbEntity
  8
0
  6
Continuous
 62
     7
370
    25
100
AcDbCircle
 10
-1.0
 20
-349.0
 30
0.0
 40
1.000000000000057
100
AcDbArc
 50
270.0
 51
0.0
  0
ARC
  5
33C
330
23
100
AcDbEntity
  8
0
  6
Continuous
 62
     7
370
    25
100
AcDbCircle
 10
-142.0
 20
349.0
 30
0.0
 40
1.000000000000227
100
AcDbArc
 50
90.0
 51
180.0
  0
ARC
  5
33D
330
23
100
AcDbEntity
  8
0
  6
Continuous
 62
     7
370
    25
100
AcDbCircle
 10
-143.5142857537
 20
239.1250965194
 30
0.0
 40
0.6344544602154164
100
AcDbArc
 50
283.5134581935
 51
306.4869490758
  0
ARC
  5
33E
330
23
100
AcDbEntity
  8
0
  6
Continuous
 62
     7
370
    25
100
AcDbCircle
 10
-143.5142857537
 20
252.1049034806
 30
0.0
 40
0.6344544602132759
100
AcDbArc
 50
53.513050924
 51
76.4865418065
  0
ARC
  5
33F
330
23
100
AcDbEntity
  8
0
  6
Continuous
 62
     7
370
    25
100
AcDbCircle
 10
-144.4650803336
 20
255.5433543364
 30
0.0
 40
1.225623388460644
100
AcDbArc
 50
350.2977299973
 51
5.2264874483
  0
ARC
  5
340
330
23
100
AcDbEntity
  8
0
  6
Continuous
 62
     7
370
    25
100
AcDbCircle
 10
-143.354493597
 20
255.2820305426
 30
0.0
 40
0.079408024112317
100
AcDbArc
 50
284.0557354855
 51
349.7933927407
  0
ARC
  5
341
330
23
100
AcDbEntity
  8
0
  6
Continuous
 62
     7
370
    25
100
AcDbCircle
 10
-143.354493597
 20
235.8479694574
 30
0.0
 40
0.0794080241125126
100
AcDbArc
 50
10.2066072593
 51
75.9442645144
  0
ARC
  5
342
330
23
100
AcDbEntity
  8
0
  6
Continuous
 62
     7
370
    25
100
AcDbCircle
 10
-144.4650803625
 20
235.5866456637
 30
0.0
 40
1.225623417175651
100
AcDbArc
 50
354.7735126719
 51
9.7022692863
  0
ARC
  5
343
330
23
100
AcDbEntity
  8
0
  6
Continuous
 62
     7
370
    25
100
AcDbCircle
 10
-144.4650803336
 20
-205.6866456636
 30
0.0
 40
1.225623388462651
100
AcDbArc
 50
350.2977299973
 51
5.2264874483
  0
ARC
  5
344
330
23
100
AcDbEntity
  8
0
  6
Continuous
 62
     7
370
    25
100
AcDbCircle
 10
-143.354493597
 20
-205.9479694574
 30
0.0
 40
0.0794080241125445
100
AcDbArc
 50
284.0557354855
 51
349.7933927407
  0
ARC
  5
345
330
23
100
AcDbEntity
  8
0
  6
Continuous
 62
     7
370
    25
100
AcDbCircle
 10
-143.354493597
 20
-225.3820305426
 30
0.0
 40
0.079408024112579
100
AcDbArc
 50
10.2066072593
 51
75.9442645144
  0
ARC
  5
346
330
23
100
AcDbEntity
  8
0
  6
Continuous
 62
     7
370
    25
100
AcDbCircle
 10
-144.4650803625
 20
-225.6433543363
 30
0.0
 40
1.225623417176019
100
AcDbArc
 50
354.7735126719
 51
9.7022692863
  0
VIEWPORT
  5
675
330
23
100
AcDbEntity
  8
0
100
AcDbViewport
 10
0.0
 20
0.0
 30
0.0
 40
205.6
 41
156.0
 68
     1
 69
     1
 12
0.0
 22
-0.5
 13
0.0
 23
0.0
 14
10.0
 24
10.0
 15
10.0
 25
10.0
 16
0.0
 26
0.0
 36
1.0
 17
0.0
 27
0.0
 37
0.0
 42
50.0
 43
0.0
 44
0.0
 45
715.02
 50
0.0
 51
0.0
 72
   100
 90
   557152
  1

281
     0
 71
     1
 74
     0
110
0.0
120
0.0
130
0.0
111
1.0
121
0.0
131
0.0
112
0.0
122
1.0
132
0.0
 79
     0
146
0.0
  0
ENDBLK
  5
25
330
23
100
AcDbEntity
  8
0
100
AcDbBlockEnd
  0
BLOCK
  5
349
330
347
100
AcDbEntity
  8
0
100
AcDbBlockBegin
  2
*Paper_Space1
 70
     0
 10
0.0
 20
0.0
 30
0.0
  3
*Paper_Space1
  1

  0
LINE
  5
3CB
330
347
100
AcDbEntity
  8
0
  6
Continuous
 62
     7
370
    25
100
AcDbLine
 10
0.4799943932
 20
145.0462174788
 30
0.0
 11
299.4798046879
 21
144.7094033401
 31
0.0
  0
LINE
  5
3CC
330
347
100
AcDbEntity
  8
0
  6
Continuous
 62
     7
370
    25
100
AcDbLine
 10
298.7289603122
 20
143.9602486675
 30
0.0
 11
1.2291490659
 21
144.2953731032
 31
0.0
  0
LINE
  5
3CD
330
347
100
AcDbEntity
  8
0
  6
Continuous
 62
     7
370
    25
100
AcDbLine
 10
299.4927590778
 20
156.2093960438
 30
0.0
 11
0.4929487832
 21
156.5462101825
 31
0.0
  0
LINE
  5
3CE
330
347
100
AcDbEntity
  8
0
  6
Continuous
 62
     7
370
    25
100
AcDbLine
 10
1.2437931589
 20
157.2953648551
 30
0.0
 11
1.2291490659
 21
144.2953731032
 31
0.0
  0
LINE
  5
3CF
330
347
100
AcDbEntity
  8
0
  6
Continuous
 62
     7
370
    25
100
AcDbLine
 10
1.2437931589
 20
157.2953648551
 30
0.0
 11
298.7436044052
 21
156.9602404194
 31
0.0
  0
LINE
  5
3D0
330
347
100
AcDbEntity
  8
0
  6
Continuous
 62
     7
370
    25
100
AcDbLine
 10
298.7289603122
 20
143.9602486675
 30
0.0
 11
298.7436044052
 21
156.9602404194
 31
0.0
  0
LINE
  5
3D1
330
347
100
AcDbEntity
  8
0
  6
Continuous
 62
     7
370
    25
100
AcDbLine
 10
299.4927590778
 20
156.2093960438
 30
0.0
 11
299.4798046879
 21
144.7094033401
 31
0.0
  0
LINE
  5
3D2
330
347
100
AcDbEntity
  8
0
  6
Continuous
 62
     7
370
    25
100
AcDbLine
 10
0.4799943932
 20
145.0462174788
 30
0.0
 11
0.4929487832
 21
156.5462101825
 31
0.0
  0
LINE
  5
3D3
330
347
100
AcDbEntity
  8
0
  6
Continuous
 62
     7
370
    25
100
AcDbLine
 10
-0.4940135203
 20
156.7010122818
 30
0.0
 11
-299.4936197808
 21
156.2157741038
 31
0.0
  0
LINE
  5
3D4
330
347
100
AcDbEntity
  8
0
  6
Continuous
 62
     7
370
    25
100
AcDbLine
 10
-298.744837921
 20
156.9669902688
 30
0.0
 11
-298.723740609
 21
143.9670073879
 31
0.0
  0
LINE
  5
3D5
330
347
100
AcDbEntity
  8
0
  6
Continuous
 62
     7
370
    25
100
AcDbLine
 10
-298.744837921
 20
156.9669902688
 30
0.0
 11
-1.2452296853
 21
157.4497941415
 31
0.0
  0
LINE
  5
3D6
330
347
100
AcDbEntity
  8
0
  6
Continuous
 62
     7
370
    25
100
AcDbLine
 10
-1.2241323732
 20
144.4498112607
 30
0.0
 11
-1.2452296853
 21
157.4497941415
 31
0.0
  0
LINE
  5
3D7
330
347
100
AcDbEntity
  8
0
  6
Continuous
 62
     7
370
    25
100
AcDbLine
 10
-299.4749567739
 20
144.7157892476
 30
0.0
 11
-0.4753505135
 21
145.2010274256
 31
0.0
  0
LINE
  5
3D8
330
347
100
AcDbEntity
  8
0
  6
Continuous
 62
     7
370
    25
100
AcDbLine
 10
-299.4749567739
 20
144.7157892476
 30
0.0
 11
-299.4936197808
 21
156.2157741038
 31
0.0
  0
LINE
  5
3D9
330
347
100
AcDbEntity
  8
0
  6
Continuous
 62
     7
370
    25
100
AcDbLine
 10
-1.2241323732
 20
144.4498112607
 30
0.0
 11
-298.723740609
 21
143.9670073879
 31
0.0
  0
LINE
  5
3DA
330
347
100
AcDbEntity
  8
0
  6
Continuous
 62
     7
370
    25
100
AcDbLine
 10
-0.4940135203
 20
156.7010122818
 30
0.0
 11
-0.4753505135
 21
145.2010274256
 31
0.0
  0
LINE
  5
3DB
330
347
100
AcDbEntity
  8
0
  6
Continuous
 62
     7
370
    25
100
AcDbLine
 10
-285.0
 20
143.0
 30
0.0
 11
285.0
 21
143.0
 31
0.0
  0
LINE
  5
3DC
330
347
100
AcDbEntity
  8
0
  6
Continuous
 62
     7
370
    25
100
AcDbLine
 10
285.0
 20
143.0
 30
0.0
 11
285.0
 21
1.0
 31
0.0
  0
LINE
  5
3DD
330
347
100
AcDbEntity
  8
0
  6
Continuous
 62
     7
370
    25
100
AcDbLine
 10
-285.0
 20
1.0
 30
0.0
 11
-285.0
 21
143.0
 31
0.0
  0
LINE
  5
3DE
330
347
100
AcDbEntity
  8
0
  6
Continuous
 62
     7
370
    25
100
AcDbLine
 10
-285.0
 20
7.0
 30
0.0
 11
285.0
 21
7.0
 31
0.0
  0
LINE
  5
3DF
330
347
100
AcDbEntity
  8
0
  6
Continuous
 62
     7
370
    25
100
AcDbLine
 10
286.0
 20
143.0
 30
0.0
 11
286.0
 21
0.0
 31
0.0
  0
LINE
  5
3E0
330
347
100
AcDbEntity
  8
0
  6
Continuous
 62
     7
370
    25
100
AcDbLine
 10
300.0
 20
0.0
 30
0.0
 11
300.0
 21
143.0
 31
0.0
  0
LINE
  5
3E1
330
347
100
AcDbEntity
  8
0
  6
Continuous
 62
     7
370
    25
100
AcDbLine
 10
301.0
 20
142.0
 30
0.0
 11
285.0
 21
142.0
 31
0.0
  0
LINE
  5
3E2
330
347
100
AcDbEntity
  8
0
  6
Continuous
 62
     7
370
    25
100
AcDbLine
 10
301.0
 20
142.0
 30
0.0
 11
301.0
 21
1.0
 31
0.0
  0
LINE
  5
3E3
330
347
100
AcDbEntity
  8
0
  6
Continuous
 62
     7
370
    25
100
AcDbLine
 10
285.0
 20
1.0
 30
0.0
 11
301.0
 21
1.0
 31
0.0
  0
LINE
  5
3E4
330
347
100
AcDbEntity
  8
0
  6
Continuous
 62
     7
370
    25
100
AcDbLine
 10
286.0
 20
143.0
 30
0.0
 11
300.0
 21
143.0
 31
0.0
  0
LINE
  5
3E5
330
347
100
AcDbEntity
  8
0
  6
Continuous
 62
     7
370
    25
100
AcDbLine
 10
300.0
 20
0.0
 30
0.0
 11
286.0
 21
0.0
 31
0.0
  0
LINE
  5
3E6
330
347
100
AcDbEntity
  8
0
  6
Continuous
 62
     7
370
    25
100
AcDbLine
 10
-285.0
 20
142.0
 30
0.0
 11
-301.0
 21
142.0
 31
0.0
  0
LINE
  5
3E7
330
347
100
AcDbEntity
  8
0
  6
Continuous
 62
     7
370
    25
100
AcDbLine
 10
-286.0
 20
0.0
 30
0.0
 11
-300.0
 21
0.0
 31
0.0
  0
LINE
  5
3E8
330
347
100
AcDbEntity
  8
0
  6
Continuous
 62
     7
370
    25
100
AcDbLine
 10
-301.0
 20
1.0
 30
0.0
 11
-285.0
 21
1.0
 31
0.0
  0
LINE
  5
3E9
330
347
100
AcDbEntity
  8
0
  6
Continuous
 62
     7
370
    25
100
AcDbLine
 10
-286.0
 20
0.0
 30
0.0
 11
-286.0
 21
143.0
 31
0.0
  0
LINE
  5
3EA
330
347
100
AcDbEntity
  8
0
  6
Continuous
 62
     7
370
    25
100
AcDbLine
 10
-300.0
 20
143.0
 30
0.0
 11
-300.0
 21
0.0
 31
0.0
  0
LINE
  5
3EB
330
347
100
AcDbEntity
  8
0
  6
Continuous
 62
     7
370
    25
100
AcDbLine
 10
-300.0
 20
143.0
 30
0.0
 11
-286.0
 21
143.0
 31
0.0
  0
LINE
  5
3EC
330
347
100
AcDbEntity
  8
0
  6
Continuous
 62
     7
370
    25
100
AcDbLine
 10
-301.0
 20
1.0
 30
0.0
 11
-301.0
 21
142.0
 31
0.0
  0
LINE
  5
3ED
330
347
100
AcDbEntity
  8
0
  6
Continuous
 62
     7
370
    25
100
AcDbLine
 10
261.4778549876
 20
143.0
 30
0.0
 11
261.4789839461
 21
144.0022096263
 31
0.0
  0
LINE
  5
3EE
330
347
100
AcDbEntity
  8
0
  6
Continuous
 62
     7
370
    25
100
AcDbLine
 10
283.3693702564
 20
143.9775507758
 30
0.0
 11
283.0878699737
 21
143.0
 31
0.0
  0
LINE
  5
3EF
330
347
100
AcDbEntity
  8
0
  6
Continuous
 62
     7
370
    25
100
AcDbLine
 10
-282.3736573103
 20
143.9935383181
 30
0.0
 11
-261.8989986479
 21
144.0267661974
 31
0.0
  0
LINE
  5
3F0
330
347
100
AcDbEntity
  8
0
  6
Continuous
 62
     7
370
    25
100
AcDbLine
 10
-261.4737912558
 20
144.0274562573
 30
0.0
 11
-261.4721238193
 21
143.0
 31
0.0
  0
LINE
  5
3F1
330
347
100
AcDbEntity
  8
0
  6
Continuous
 62
     7
370
    25
100
AcDbLine
 10
-283.0779880791
 20
143.0
 30
0.0
 11
-283.3641626281
 21
143.9919308485
 31
0.0
  0
LINE
  5
3F2
330
347
100
AcDbEntity
  8
0
  6
Continuous
 62
     7
370
    25
100
AcDbLine
 10
298.9947307153
 20
157.9599581678
 30
0.0
 11
298.9981101214
 21
160.9599562644
 31
0.0
  0
LINE
  5
3F3
330
347
100
AcDbEntity
  8
0
  6
Continuous
 62
     7
370
    25
100
AcDbLine
 10
299.4975465698
 20
160.4593933473
 30
0.0
 11
0.4977362751
 21
160.796207486
 31
0.0
  0
LINE
  5
3F4
330
347
100
AcDbEntity
  8
0
  6
Continuous
 62
     7
370
    25
100
AcDbLine
 10
299.4975465698
 20
160.4593933473
 30
0.0
 11
299.4947303981
 21
157.9593949335
 31
0.0
  0
LINE
  5
3F5
330
347
100
AcDbEntity
  8
0
  6
Continuous
 62
     7
370
    25
100
AcDbLine
 10
0.4949201034
 20
158.2962090722
 30
0.0
 11
299.4947303981
 21
157.9593949335
 31
0.0
  0
LINE
  5
3F6
330
347
100
AcDbEntity
  8
0
  6
Continuous
 62
     7
370
    25
100
AcDbLine
 10
0.9982991923
 20
161.2956439344
 30
0.0
 11
0.9949197862
 21
158.2956458378
 31
0.0
  0
LINE
  5
3F7
330
347
100
AcDbEntity
  8
0
  6
Continuous
 62
     7
370
    25
100
AcDbLine
 10
0.4977362751
 20
160.796207486
 30
0.0
 11
0.9982991923
 21
161.2956439344
 31
0.0
  0
LINE
  5
3F8
330
347
100
AcDbEntity
  8
0
  6
Continuous
 62
     7
370
    25
100
AcDbLine
 10
0.4949201034
 20
158.2962090722
 30
0.0
 11
0.4977362751
 21
160.796207486
 31
0.0
  0
LINE
  5
3F9
330
347
100
AcDbEntity
  8
0
  6
Continuous
 62
     7
370
    25
100
AcDbLine
 10
298.9981101214
 20
160.9599562644
 30
0.0
 11
299.4975465698
 21
160.4593933473
 31
0.0
  0
LINE
  5
3FA
330
347
100
AcDbEntity
  8
0
  6
Continuous
 62
     7
370
    25
100
AcDbLine
 10
0.9982991923
 20
161.2956439344
 30
0.0
 11
298.9981101214
 21
160.9599562644
 31
0.0
  0
LINE
  5
3FB
330
347
100
AcDbEntity
  8
0
  6
Continuous
 62
     7
370
    25
100
AcDbLine
 10
-299.0013290725
 20
160.9665792838
 30
0.0
 11
-1.0017214952
 21
161.4501945917
 31
0.0
  0
LINE
  5
3FC
330
347
100
AcDbEntity
  8
0
  6
Continuous
 62
     7
370
    25
100
AcDbLine
 10
-0.9968528847
 20
158.4501985422
 30
0.0
 11
-1.0017214952
 21
161.4501945917
 31
0.0
  0
LINE
  5
3FD
330
347
100
AcDbEntity
  8
0
  6
Continuous
 62
     7
370
    25
100
AcDbLine
 10
-0.5009107185
 20
160.9510066852
 30
0.0
 11
-299.500516979
 21
160.4657685072
 31
0.0
  0
LINE
  5
3FE
330
347
100
AcDbEntity
  8
0
  6
Continuous
 62
     7
370
    25
100
AcDbLine
 10
-299.0013290725
 20
160.9665792838
 30
0.0
 11
-298.996460462
 21
157.9665832344
 31
0.0
  0
LINE
  5
3FF
330
347
100
AcDbEntity
  8
0
  6
Continuous
 62
     7
370
    25
100
AcDbLine
 10
-299.4964598036
 20
157.9657717993
 30
0.0
 11
-299.500516979
 21
160.4657685072
 31
0.0
  0
LINE
  5
400
330
347
100
AcDbEntity
  8
0
  6
Continuous
 62
     7
370
    25
100
AcDbLine
 10
-299.4964598036
 20
157.9657717993
 30
0.0
 11
-0.4968535431
 21
158.4510099773
 31
0.0
  0
LINE
  5
401
330
347
100
AcDbEntity
  8
0
  6
Continuous
 62
     7
370
    25
100
AcDbLine
 10
-299.500516979
 20
160.4657685072
 30
0.0
 11
-299.0013290725
 21
160.9665792838
 31
0.0
  0
LINE
  5
402
330
347
100
AcDbEntity
  8
0
  6
Continuous
 62
     7
370
    25
100
AcDbLine
 10
-1.0017214952
 20
161.4501945917
 30
0.0
 11
-0.5009107185
 21
160.9510066852
 31
0.0
  0
LINE
  5
403
330
347
100
AcDbEntity
  8
0
  6
Continuous
 62
     7
370
    25
100
AcDbLine
 10
-0.5009107185
 20
160.9510066852
 30
0.0
 11
-0.4968535431
 21
158.4510099773
 31
0.0
  0
LINE
  5
404
330
347
100
AcDbEntity
  8
0
  6
Continuous
 62
     7
370
    25
100
AcDbLine
 10
20.4949074141
 20
158.2736796983
 30
0.0
 11
20.4937809454
 21
157.2736803328
 31
0.0
  0
LINE
  5
405
330
347
100
AcDbEntity
  8
0
  6
Continuous
 62
     7
370
    25
100
AcDbLine
 10
279.4947430874
 20
157.9819243073
 30
0.0
 11
279.4936166187
 21
156.9819249417
 31
0.0
  0
LINE
  5
406
330
347
100
AcDbEntity
  8
0
  6
Continuous
 62
     7
370
    25
100
AcDbLine
 10
-20.496827206
 20
158.4185525741
 30
0.0
 11
-20.4952043358
 21
157.418553891
 31
0.0
  0
LINE
  5
407
330
347
100
AcDbEntity
  8
0
  6
Continuous
 62
     7
370
    25
100
AcDbLine
 10
-279.4964861407
 20
157.9982292025
 30
0.0
 11
-279.4948632705
 21
156.9982305194
 31
0.0
  0
LINE
  5
408
330
347
100
AcDbEntity
  8
0
  6
Continuous
 62
     8
370
    25
100
AcDbLine
 10
261.9041916283
 20
144.0017306428
 30
0.0
 11
262.0796604963
 21
143.0
 31
0.0
  0
LINE
  5
409
330
347
100
AcDbEntity
  8
0
  6
Continuous
 62
     8
370
    25
100
AcDbLine
 10
282.097042676
 20
143.0
 30
0.0
 11
282.3788642626
 21
143.9786665505
 31
0.0
  0
LINE
  5
40A
330
347
100
AcDbEntity
  8
0
  6
Continuous
 62
     8
370
    25
100
AcDbLine
 10
-261.8989986479
 20
144.0267661974
 30
0.0
 11
-262.0783275985
 21
143.0
 31
0.0
  0
LINE
  5
40B
330
347
100
AcDbEntity
  8
0
  6
Continuous
 62
     8
370
    25
100
AcDbLine
 10
-282.3736573103
 20
143.9935383181
 30
0.0
 11
-282.0870190023
 21
143.0
 31
0.0
  0
ARC
  5
40C
330
347
100
AcDbEntity
  8
0
  6
Continuous
 62
     7
370
    25
100
AcDbCircle
 10
298.7298051637
 20
144.7102481917
 30
0.0
 40
0.7500000000000394
100
AcDbArc
 50
269.9354580846
 51
359.9354580846
  0
ARC
  5
40D
330
347
100
AcDbEntity
  8
0
  6
Continuous
 62
     7
370
    25
100
AcDbCircle
 10
1.2299939174
 20
145.0453726273
 30
0.0
 40
0.7499999999999828
100
AcDbArc
 50
179.9354580846
 51
269.9354580846
  0
ARC
  5
40E
330
347
100
AcDbEntity
  8
0
  6
Continuous
 62
     7
370
    25
100
AcDbCircle
 10
1.2429483074
 20
156.545365331
 30
0.0
 40
0.7500000000000678
100
AcDbArc
 50
89.9354580846
 51
179.9354580846
  0
ARC
  5
40F
330
347
100
AcDbEntity
  8
0
  6
Continuous
 62
     7
370
    25
100
AcDbCircle
 10
298.7427595537
 20
156.2102408953
 30
0.0
 40
0.7500000000000394
100
AcDbArc
 50
359.9354580846
 51
89.9354580846
  0
ARC
  5
410
330
347
100
AcDbEntity
  8
0
  6
Continuous
 62
     7
370
    25
100
AcDbCircle
 10
-298.7436207684
 20
156.2169912564
 30
0.0
 40
0.7500000000000536
100
AcDbArc
 50
90.0929836517
 51
180.0929836517
  0
ARC
  5
411
330
347
100
AcDbEntity
  8
0
  6
Continuous
 62
     7
370
    25
100
AcDbCircle
 10
-298.7249577616
 20
144.7170064003
 30
0.0
 40
0.7500000000000538
100
AcDbArc
 50
180.0929836517
 51
270.0929836517
  0
ARC
  5
412
330
347
100
AcDbEntity
  8
0
  6
Continuous
 62
     7
370
    25
100
AcDbCircle
 10
-1.2440125327
 20
156.6997951292
 30
0.0
 40
0.7499999999999685
100
AcDbArc
 50
0.0929836517
 51
90.0929836517
  0
ARC
  5
413
330
347
100
AcDbEntity
  8
0
  6
Continuous
 62
     7
370
    25
100
AcDbCircle
 10
-1.2253495258
 20
145.199810273
 30
0.0
 40
0.7500000000000536
100
AcDbArc
 50
270.0929836517
 51
0.0929836517
  0
ARC
  5
414
330
347
100
AcDbEntity
  8
0
  6
Continuous
 62
     7
370
    25
100
AcDbCircle
 10
286.0
 20
142.0
 30
0.0
 40
0.9999999999999716
100
AcDbArc
 50
90.0
 51
180.0
  0
ARC
  5
415
330
347
100
AcDbEntity
  8
0
  6
Continuous
 62
     7
370
    25
100
AcDbCircle
 10
300.0
 20
142.0
 30
0.0
 40
1.000000000000142
100
AcDbArc
 50
0.0
 51
90.0
  0
ARC
  5
416
330
347
100
AcDbEntity
  8
0
  6
Continuous
 62
     7
370
    25
100
AcDbCircle
 10
300.0
 20
1.0
 30
0.0
 40
1.000000000000057
100
AcDbArc
 50
270.0
 51
360.0
  0
ARC
  5
417
330
347
100
AcDbEntity
  8
0
  6
Continuous
 62
     7
370
    25
100
AcDbCircle
 10
286.0
 20
1.0
 30
0.0
 40
0.9999999999999433
100
AcDbArc
 50
180.0
 51
270.0
  0
ARC
  5
418
330
347
100
AcDbEntity
  8
0
  6
Continuous
 62
     7
370
    25
100
AcDbCircle
 10
-286.0
 20
142.0
 30
0.0
 40
0.9999999999999716
100
AcDbArc
 50
360.0
 51
90.0
  0
ARC
  5
419
330
347
100
AcDbEntity
  8
0
  6
Continuous
 62
     7
370
    25
100
AcDbCircle
 10
-286.0
 20
1.0
 30
0.0
 40
0.9999999999999278
100
AcDbArc
 50
270.0
 51
0.0
  0
ARC
  5
41A
330
347
100
AcDbEntity
  8
0
  6
Continuous
 62
     7
370
    25
100
AcDbCircle
 10
-300.0
 20
1.0
 30
0.0
 40
1.000000000000057
100
AcDbArc
 50
180.0
 51
270.0
  0
ARC
  5
41B
330
347
100
AcDbEntity
  8
0
  6
Continuous
 62
     7
370
    25
100
AcDbCircle
 10
-300.0
 20
142.0
 30
0.0
 40
1.000000000000114
100
AcDbArc
 50
90.0
 51
180.0
  0
VIEWPORT
  5
677
330
347
100
AcDbEntity
  8
0
100
AcDbViewport
 10
0.0
 20
0.0
 30
0.0
 40
205.6
 41
156.0
 68
     1
 69
     1
 12
0.0
 22
-0.5
 13
0.0
 23
0.0
 14
10.0
 24
10.0
 15
10.0
 25
10.0
 16
0.0
 26
0.0
 36
1.0
 17
0.0
 27
0.0
 37
0.0
 42
50.0
 43
0.0
 44
0.0
 45
715.02
 50
0.0
 51
0.0
 72
   100
 90
   557152
  1

281
     0
 71
     1
 74
     0
110
0.0
120
0.0
130
0.0
111
1.0
121
0.0
131
0.0
112
0.0
122
1.0
132
0.0
 79
     0
146
0.0
  0
ENDBLK
  5
34A
330
347
100
AcDbEntity
  8
0
100
AcDbBlockEnd
  0
BLOCK
  5
41E
330
41C
100
AcDbEntity
  8
0
100
AcDbBlockBegin
  2
*Paper_Space2
 70
     0
 10
0.0
 20
0.0
 30
0.0
  3
*Paper_Space2
  1

  0
LINE
  5
4A0
330
41C
100
AcDbEntity
  8
0
  6
Continuous
 62
     7
370
    25
100
AcDbLine
 10
299.4798046879
 20
-144.7094033401
 30
0.0
 11
0.4799943932
 21
-145.0462174788
 31
0.0
  0
LINE
  5
4A1
330
41C
100
AcDbEntity
  8
0
  6
Continuous
 62
     7
370
    25
100
AcDbLine
 10
0.4929487832
 20
-156.5462101825
 30
0.0
 11
299.4927590778
 21
-156.2093960438
 31
0.0
  0
LINE
  5
4A2
330
41C
100
AcDbEntity
  8
0
  6
Continuous
 62
     7
370
    25
100
AcDbLine
 10
1.2291490659
 20
-144.2953731032
 30
0.0
 11
1.2437931589
 21
-157.2953648551
 31
0.0
  0
LINE
  5
4A3
330
41C
100
AcDbEntity
  8
0
  6
Continuous
 62
     7
370
    25
100
AcDbLine
 10
298.7436044052
 20
-156.9602404194
 30
0.0
 11
1.2437931589
 21
-157.2953648551
 31
0.0
  0
LINE
  5
4A4
330
41C
100
AcDbEntity
  8
0
  6
Continuous
 62
     7
370
    25
100
AcDbLine
 10
298.7436044052
 20
-156.9602404194
 30
0.0
 11
298.7289603122
 21
-143.9602486675
 31
0.0
  0
LINE
  5
4A5
330
41C
100
AcDbEntity
  8
0
  6
Continuous
 62
     7
370
    25
100
AcDbLine
 10
1.2291490659
 20
-144.2953731032
 30
0.0
 11
298.7289603122
 21
-143.9602486675
 31
0.0
  0
LINE
  5
4A6
330
41C
100
AcDbEntity
  8
0
  6
Continuous
 62
     7
370
    25
100
AcDbLine
 10
0.4929487832
 20
-156.5462101825
 30
0.0
 11
0.4799943932
 21
-145.0462174788
 31
0.0
  0
LINE
  5
4A7
330
41C
100
AcDbEntity
  8
0
  6
Continuous
 62
     7
370
    25
100
AcDbLine
 10
299.4798046879
 20
-144.7094033401
 30
0.0
 11
299.4927590778
 21
-156.2093960438
 31
0.0
  0
LINE
  5
4A8
330
41C
100
AcDbEntity
  8
0
  6
Continuous
 62
     7
370
    25
100
AcDbLine
 10
-1.2452296853
 20
-157.4497941416
 30
0.0
 11
-1.2241323732
 21
-144.4498112607
 31
0.0
  0
LINE
  5
4A9
330
41C
100
AcDbEntity
  8
0
  6
Continuous
 62
     7
370
    25
100
AcDbLine
 10
-0.4753505135
 20
-145.2010274256
 30
0.0
 11
-299.4749567739
 21
-144.7157892477
 31
0.0
  0
LINE
  5
4AA
330
41C
100
AcDbEntity
  8
0
  6
Continuous
 62
     7
370
    25
100
AcDbLine
 10
-0.4753505135
 20
-145.2010274256
 30
0.0
 11
-0.4940135203
 21
-156.7010122818
 31
0.0
  0
LINE
  5
4AB
330
41C
100
AcDbEntity
  8
0
  6
Continuous
 62
     7
370
    25
100
AcDbLine
 10
-299.4936197808
 20
-156.2157741038
 30
0.0
 11
-0.4940135203
 21
-156.7010122818
 31
0.0
  0
LINE
  5
4AC
330
41C
100
AcDbEntity
  8
0
  6
Continuous
 62
     7
370
    25
100
AcDbLine
 10
-298.723740609
 20
-143.9670073879
 30
0.0
 11
-298.744837921
 21
-156.9669902688
 31
0.0
  0
LINE
  5
4AD
330
41C
100
AcDbEntity
  8
0
  6
Continuous
 62
     7
370
    25
100
AcDbLine
 10
-298.723740609
 20
-143.9670073879
 30
0.0
 11
-1.2241323732
 21
-144.4498112607
 31
0.0
  0
LINE
  5
4AE
330
41C
100
AcDbEntity
  8
0
  6
Continuous
 62
     7
370
    25
100
AcDbLine
 10
-1.2452296853
 20
-157.4497941416
 30
0.0
 11
-298.744837921
 21
-156.9669902688
 31
0.0
  0
LINE
  5
4AF
330
41C
100
AcDbEntity
  8
0
  6
Continuous
 62
     7
370
    25
100
AcDbLine
 10
-299.4936197808
 20
-156.2157741038
 30
0.0
 11
-299.4749567739
 21
-144.7157892477
 31
0.0
  0
LINE
  5
4B0
330
41C
100
AcDbEntity
  8
0
  6
Continuous
 62
     7
370
    25
100
AcDbLine
 10
-285.0
 20
-7.0
 30
0.0
 11
285.0
 21
-7.0
 31
0.0
  0
LINE
  5
4B1
330
41C
100
AcDbEntity
  8
0
  6
Continuous
 62
     7
370
    25
100
AcDbLine
 10
285.0
 20
-143.0
 30
0.0
 11
285.0
 21
-1.0
 31
0.0
  0
LINE
  5
4B2
330
41C
100
AcDbEntity
  8
0
  6
Continuous
 62
     7
370
    25
100
AcDbLine
 10
-285.0
 20
-1.0
 30
0.0
 11
-285.0
 21
-143.0
 31
0.0
  0
LINE
  5
4B3
330
41C
100
AcDbEntity
  8
0
  6
Continuous
 62
     7
370
    25
100
AcDbLine
 10
-285.0
 20
-143.0
 30
0.0
 11
285.0
 21
-143.0
 31
0.0
  0
LINE
  5
4B4
330
41C
100
AcDbEntity
  8
0
  6
Continuous
 62
     7
370
    25
100
AcDbLine
 10
286.0
 20
0.0
 30
0.0
 11
286.0
 21
-143.0
 31
0.0
  0
LINE
  5
4B5
330
41C
100
AcDbEntity
  8
0
  6
Continuous
 62
     7
370
    25
100
AcDbLine
 10
301.0
 20
-1.0
 30
0.0
 11
285.0
 21
-1.0
 31
0.0
  0
LINE
  5
4B6
330
41C
100
AcDbEntity
  8
0
  6
Continuous
 62
     7
370
    25
100
AcDbLine
 10
285.0
 20
-142.0
 30
0.0
 11
301.0
 21
-142.0
 31
0.0
  0
LINE
  5
4B7
330
41C
100
AcDbEntity
  8
0
  6
Continuous
 62
     7
370
    25
100
AcDbLine
 10
300.0
 20
-143.0
 30
0.0
 11
300.0
 21
0.0
 31
0.0
  0
LINE
  5
4B8
330
41C
100
AcDbEntity
  8
0
  6
Continuous
 62
     7
370
    25
100
AcDbLine
 10
301.0
 20
-1.0
 30
0.0
 11
301.0
 21
-142.0
 31
0.0
  0
LINE
  5
4B9
330
41C
100
AcDbEntity
  8
0
  6
Continuous
 62
     7
370
    25
100
AcDbLine
 10
286.0
 20
0.0
 30
0.0
 11
300.0
 21
0.0
 31
0.0
  0
LINE
  5
4BA
330
41C
100
AcDbEntity
  8
0
  6
Continuous
 62
     7
370
    25
100
AcDbLine
 10
300.0
 20
-143.0
 30
0.0
 11
286.0
 21
-143.0
 31
0.0
  0
LINE
  5
4BB
330
41C
100
AcDbEntity
  8
0
  6
Continuous
 62
     7
370
    25
100
AcDbLine
 10
-301.0
 20
-142.0
 30
0.0
 11
-301.0
 21
-1.0
 31
0.0
  0
LINE
  5
4BC
330
41C
100
AcDbEntity
  8
0
  6
Continuous
 62
     7
370
    25
100
AcDbLine
 10
-300.0
 20
0.0
 30
0.0
 11
-300.0
 21
-143.0
 31
0.0
  0
LINE
  5
4BD
330
41C
100
AcDbEntity
  8
0
  6
Continuous
 62
     7
370
    25
100
AcDbLine
 10
-301.0
 20
-142.0
 30
0.0
 11
-285.0
 21
-142.0
 31
0.0
  0
LINE
  5
4BE
330
41C
100
AcDbEntity
  8
0
  6
Continuous
 62
     7
370
    25
100
AcDbLine
 10
-285.0
 20
-1.0
 30
0.0
 11
-301.0
 21
-1.0
 31
0.0
  0
LINE
  5
4BF
330
41C
100
AcDbEntity
  8
0
  6
Continuous
 62
     7
370
    25
100
AcDbLine
 10
-286.0
 20
-143.0
 30
0.0
 11
-300.0
 21
-143.0
 31
0.0
  0
LINE
  5
4C0
330
41C
100
AcDbEntity
  8
0
  6
Continuous
 62
     7
370
    25
100
AcDbLine
 10
-286.0
 20
-143.0
 30
0.0
 11
-286.0
 21
0.0
 31
0.0
  0
LINE
  5
4C1
330
41C
100
AcDbEntity
  8
0
  6
Continuous
 62
     7
370
    25
100
AcDbLine
 10
-300.0
 20
0.0
 30
0.0
 11
-286.0
 21
0.0
 31
0.0
  0
LINE
  5
4C2
330
41C
100
AcDbEntity
  8
0
  6
Continuous
 62
     7
370
    25
100
AcDbLine
 10
261.4789839082
 20
-144.0022096096
 30
0.0
 11
261.4778549497
 21
-143.0
 31
0.0
  0
LINE
  5
4C3
330
41C
100
AcDbEntity
  8
0
  6
Continuous
 62
     7
370
    25
100
AcDbLine
 10
283.0878699406
 20
-143.0
 30
0.0
 11
283.3693702185
 21
-143.9775507591
 31
0.0
  0
LINE
  5
4C4
330
41C
100
AcDbEntity
  8
0
  6
Continuous
 62
     7
370
    25
100
AcDbLine
 10
-283.3641626281
 20
-143.9919308485
 30
0.0
 11
-283.0779880791
 21
-143.0
 31
0.0
  0
LINE
  5
4C5
330
41C
100
AcDbEntity
  8
0
  6
Continuous
 62
     7
370
    25
100
AcDbLine
 10
-261.4721238193
 20
-143.0
 30
0.0
 11
-261.4737912558
 21
-144.0274562573
 31
0.0
  0
LINE
  5
4C6
330
41C
100
AcDbEntity
  8
0
  6
Continuous
 62
     7
370
    25
100
AcDbLine
 10
-282.3736573103
 20
-143.9935383181
 30
0.0
 11
-261.8989986479
 21
-144.0267661974
 31
0.0
  0
LINE
  5
4C7
330
41C
100
AcDbEntity
  8
0
  6
Continuous
 62
     7
370
    25
100
AcDbLine
 10
298.9981101214
 20
-160.9599562644
 30
0.0
 11
298.9947307153
 21
-157.9599581678
 31
0.0
  0
LINE
  5
4C8
330
41C
100
AcDbEntity
  8
0
  6
Continuous
 62
     7
370
    25
100
AcDbLine
 10
0.4977362751
 20
-160.796207486
 30
0.0
 11
299.4975465698
 21
-160.4593933473
 31
0.0
  0
LINE
  5
4C9
330
41C
100
AcDbEntity
  8
0
  6
Continuous
 62
     7
370
    25
100
AcDbLine
 10
298.9981101214
 20
-160.9599562644
 30
0.0
 11
299.4975465698
 21
-160.4593933473
 31
0.0
  0
LINE
  5
4CA
330
41C
100
AcDbEntity
  8
0
  6
Continuous
 62
     7
370
    25
100
AcDbLine
 10
298.9981101214
 20
-160.9599562644
 30
0.0
 11
0.9982991923
 21
-161.2956439344
 31
0.0
  0
LINE
  5
4CB
330
41C
100
AcDbEntity
  8
0
  6
Continuous
 62
     7
370
    25
100
AcDbLine
 10
0.9949197862
 20
-158.2956458378
 30
0.0
 11
0.9982991923
 21
-161.2956439344
 31
0.0
  0
LINE
  5
4CC
330
41C
100
AcDbEntity
  8
0
  6
Continuous
 62
     7
370
    25
100
AcDbLine
 10
299.4947303981
 20
-157.9593949335
 30
0.0
 11
299.4975465698
 21
-160.4593933473
 31
0.0
  0
LINE
  5
4CD
330
41C
100
AcDbEntity
  8
0
  6
Continuous
 62
     7
370
    25
100
AcDbLine
 10
0.4977362751
 20
-160.796207486
 30
0.0
 11
0.4949201034
 21
-158.2962090722
 31
0.0
  0
LINE
  5
4CE
330
41C
100
AcDbEntity
  8
0
  6
Continuous
 62
     7
370
    25
100
AcDbLine
 10
299.4947303981
 20
-157.9593949335
 30
0.0
 11
0.4949201034
 21
-158.2962090722
 31
0.0
  0
LINE
  5
4CF
330
41C
100
AcDbEntity
  8
0
  6
Continuous
 62
     7
370
    25
100
AcDbLine
 10
0.4977362751
 20
-160.796207486
 30
0.0
 11
0.9982991923
 21
-161.2956439344
 31
0.0
  0
LINE
  5
4D0
330
41C
100
AcDbEntity
  8
0
  6
Continuous
 62
     7
370
    25
100
AcDbLine
 10
-0.4968535431
 20
-158.4510099773
 30
0.0
 11
-0.5009107185
 21
-160.9510066852
 31
0.0
  0
LINE
  5
4D1
330
41C
100
AcDbEntity
  8
0
  6
Continuous
 62
     7
370
    25
100
AcDbLine
 10
-299.500516979
 20
-160.4657685072
 30
0.0
 11
-0.5009107185
 21
-160.9510066852
 31
0.0
  0
LINE
  5
4D2
330
41C
100
AcDbEntity
  8
0
  6
Continuous
 62
     7
370
    25
100
AcDbLine
 10
-1.0017214952
 20
-161.4501945917
 30
0.0
 11
-0.9968528847
 21
-158.4501985422
 31
0.0
  0
LINE
  5
4D3
330
41C
100
AcDbEntity
  8
0
  6
Continuous
 62
     7
370
    25
100
AcDbLine
 10
-0.4968535431
 20
-158.4510099773
 30
0.0
 11
-299.4964598036
 21
-157.9657717993
 31
0.0
  0
LINE
  5
4D4
330
41C
100
AcDbEntity
  8
0
  6
Continuous
 62
     7
370
    25
100
AcDbLine
 10
-298.996460462
 20
-157.9665832344
 30
0.0
 11
-299.0013290725
 21
-160.9665792839
 31
0.0
  0
LINE
  5
4D5
330
41C
100
AcDbEntity
  8
0
  6
Continuous
 62
     7
370
    25
100
AcDbLine
 10
-1.0017214952
 20
-161.4501945917
 30
0.0
 11
-0.5009107185
 21
-160.9510066852
 31
0.0
  0
LINE
  5
4D6
330
41C
100
AcDbEntity
  8
0
  6
Continuous
 62
     7
370
    25
100
AcDbLine
 10
-1.0017214952
 20
-161.4501945917
 30
0.0
 11
-299.0013290725
 21
-160.9665792839
 31
0.0
  0
LINE
  5
4D7
330
41C
100
AcDbEntity
  8
0
  6
Continuous
 62
     7
370
    25
100
AcDbLine
 10
-299.500516979
 20
-160.4657685072
 30
0.0
 11
-299.4964598036
 21
-157.9657717993
 31
0.0
  0
LINE
  5
4D8
330
41C
100
AcDbEntity
  8
0
  6
Continuous
 62
     7
370
    25
100
AcDbLine
 10
-299.500516979
 20
-160.4657685072
 30
0.0
 11
-299.0013290725
 21
-160.9665792839
 31
0.0
  0
LINE
  5
4D9
330
41C
100
AcDbEntity
  8
0
  6
Continuous
 62
     7
370
    25
100
AcDbLine
 10
279.4947430874
 20
-157.9819243073
 30
0.0
 11
279.4936166187
 21
-156.9819249417
 31
0.0
  0
LINE
  5
4DA
330
41C
100
AcDbEntity
  8
0
  6
Continuous
 62
     7
370
    25
100
AcDbLine
 10
20.4949074141
 20
-158.2736796983
 30
0.0
 11
20.4937809454
 21
-157.2736803328
 31
0.0
  0
LINE
  5
4DB
330
41C
100
AcDbEntity
  8
0
  6
Continuous
 62
     7
370
    25
100
AcDbLine
 10
-20.496827206
 20
-158.4185525741
 30
0.0
 11
-20.4952043359
 21
-157.418553891
 31
0.0
  0
LINE
  5
4DC
330
41C
100
AcDbEntity
  8
0
  6
Continuous
 62
     7
370
    25
100
AcDbLine
 10
-279.4964861407
 20
-157.9982292025
 30
0.0
 11
-279.4948632705
 21
-156.9982305194
 31
0.0
  0
LINE
  5
4DD
330
41C
100
AcDbEntity
  8
0
  6
Continuous
 62
     8
370
    25
100
AcDbLine
 10
261.9041915904
 20
-144.0017306261
 30
0.0
 11
262.0796604555
 21
-143.0
 31
0.0
  0
LINE
  5
4DE
330
41C
100
AcDbEntity
  8
0
  6
Continuous
 62
     8
370
    25
100
AcDbLine
 10
282.3788642247
 20
-143.9786665338
 30
0.0
 11
282.0970426429
 21
-143.0
 31
0.0
  0
LINE
  5
4DF
330
41C
100
AcDbEntity
  8
0
  6
Continuous
 62
     8
370
    25
100
AcDbLine
 10
-282.0870190023
 20
-143.0
 30
0.0
 11
-282.3736573103
 21
-143.9935383181
 31
0.0
  0
LINE
  5
4E0
330
41C
100
AcDbEntity
  8
0
  6
Continuous
 62
     8
370
    25
100
AcDbLine
 10
-261.8989986479
 20
-144.0267661974
 30
0.0
 11
-262.0783275985
 21
-143.0
 31
0.0
  0
ARC
  5
4E1
330
41C
100
AcDbEntity
  8
0
  6
Continuous
 62
     7
370
    25
100
AcDbCircle
 10
1.2299939174
 20
-145.0453726273
 30
0.0
 40
0.7499999999999589
100
AcDbArc
 50
90.0645419154
 51
180.0645419154
  0
ARC
  5
4E2
330
41C
100
AcDbEntity
  8
0
  6
Continuous
 62
     7
370
    25
100
AcDbCircle
 10
298.7298051637
 20
-144.7102481917
 30
0.0
 40
0.7500000000000394
100
AcDbArc
 50
0.0645419154
 51
90.0645419154
  0
ARC
  5
4E3
330
41C
100
AcDbEntity
  8
0
  6
Continuous
 62
     7
370
    25
100
AcDbCircle
 10
1.2429483073
 20
-156.545365331
 30
0.0
 40
0.7500000000000678
100
AcDbArc
 50
180.0645419154
 51
270.0645419154
  0
ARC
  5
4E4
330
41C
100
AcDbEntity
  8
0
  6
Continuous
 62
     7
370
    25
100
AcDbCircle
 10
298.7427595537
 20
-156.2102408953
 30
0.0
 40
0.7499999999998971
100
AcDbArc
 50
270.0645419154
 51
0.0645419154
  0
ARC
  5
4E5
330
41C
100
AcDbEntity
  8
0
  6
Continuous
 62
     7
370
    25
100
AcDbCircle
 10
-1.2253495258
 20
-145.199810273
 30
0.0
 40
0.7500000000000537
100
AcDbArc
 50
359.9070163483
 51
89.9070163483
  0
ARC
  5
4E6
330
41C
100
AcDbEntity
  8
0
  6
Continuous
 62
     7
370
    25
100
AcDbCircle
 10
-1.2440125327
 20
-156.6997951292
 30
0.0
 40
0.7499999999999684
100
AcDbArc
 50
269.9070163483
 51
359.9070163483
  0
ARC
  5
4E7
330
41C
100
AcDbEntity
  8
0
  6
Continuous
 62
     7
370
    25
100
AcDbCircle
 10
-298.7249577616
 20
-144.7170064003
 30
0.0
 40
0.7500000000001106
100
AcDbArc
 50
89.9070163483
 51
179.9070163483
  0
ARC
  5
4E8
330
41C
100
AcDbEntity
  8
0
  6
Continuous
 62
     7
370
    25
100
AcDbCircle
 10
-298.7436207684
 20
-156.2169912564
 30
0.0
 40
0.7500000000000536
100
AcDbArc
 50
179.9070163483
 51
269.9070163483
  0
ARC
  5
4E9
330
41C
100
AcDbEntity
  8
0
  6
Continuous
 62
     7
370
    25
100
AcDbCircle
 10
286.0
 20
-1.0
 30
0.0
 40
0.9999999999999433
100
AcDbArc
 50
90.0
 51
180.0
  0
ARC
  5
4EA
330
41C
100
AcDbEntity
  8
0
  6
Continuous
 62
     7
370
    25
100
AcDbCircle
 10
300.0
 20
-1.0
 30
0.0
 40
1.000000000000057
100
AcDbArc
 50
0.0
 51
90.0
  0
ARC
  5
4EB
330
41C
100
AcDbEntity
  8
0
  6
Continuous
 62
     7
370
    25
100
AcDbCircle
 10
286.0
 20
-142.0
 30
0.0
 40
0.9999999999999716
100
AcDbArc
 50
180.0
 51
270.0
  0
ARC
  5
4EC
330
41C
100
AcDbEntity
  8
0
  6
Continuous
 62
     7
370
    25
100
AcDbCircle
 10
300.0
 20
-142.0
 30
0.0
 40
1.000000000000142
100
AcDbArc
 50
270.0
 51
360.0
  0
ARC
  5
4ED
330
41C
100
AcDbEntity
  8
0
  6
Continuous
 62
     7
370
    25
100
AcDbCircle
 10
-286.0
 20
-1.0
 30
0.0
 40
0.9999999999999278
100
AcDbArc
 50
360.0
 51
90.0
  0
ARC
  5
4EE
330
41C
100
AcDbEntity
  8
0
  6
Continuous
 62
     7
370
    25
100
AcDbCircle
 10
-300.0
 20
-142.0
 30
0.0
 40
1.000000000000114
100
AcDbArc
 50
180.0
 51
270.0
  0
ARC
  5
4EF
330
41C
100
AcDbEntity
  8
0
  6
Continuous
 62
     7
370
    25
100
AcDbCircle
 10
-300.0
 20
-1.0
 30
0.0
 40
1.000000000000057
100
AcDbArc
 50
90.0
 51
180.0
  0
ARC
  5
4F0
330
41C
100
AcDbEntity
  8
0
  6
Continuous
 62
     7
370
    25
100
AcDbCircle
 10
-286.0
 20
-142.0
 30
0.0
 40
0.9999999999999716
100
AcDbArc
 50
270.0
 51
0.0
  0
VIEWPORT
  5
679
330
41C
100
AcDbEntity
  8
0
100
AcDbViewport
 10
0.0
 20
0.0
 30
0.0
 40
205.6
 41
156.0
 68
     1
 69
     1
 12
0.0
 22
-0.5
 13
0.0
 23
0.0
 14
10.0
 24
10.0
 15
10.0
 25
10.0
 16
0.0
 26
0.0
 36
1.0
 17
0.0
 27
0.0
 37
0.0
 42
50.0
 43
0.0
 44
0.0
 45
715.02
 50
0.0
 51
0.0
 72
   100
 90
   557152
  1

281
     0
 71
     1
 74
     0
110
0.0
120
0.0
130
0.0
111
1.0
121
0.0
131
0.0
112
0.0
122
1.0
132
0.0
 79
     0
146
0.0
  0
ENDBLK
  5
41F
330
41C
100
AcDbEntity
  8
0
100
AcDbBlockEnd
  0
BLOCK
  5
4F3
330
4F1
100
AcDbEntity
  8
0
100
AcDbBlockBegin
  2
*Paper_Space3
 70
     0
 10
0.0
 20
0.0
 30
0.0
  3
*Paper_Space3
  1

  0
LINE
  5
5B6
330
4F1
100
AcDbEntity
  8
0
  6
Continuous
 62
     7
370
    25
100
AcDbLine
 10
322.4503517386
 20
-344.1757715786
 30
0.0
 11
322.4503517386
 21
226.9945263355
 31
0.0
  0
LINE
  5
5B7
330
4F1
100
AcDbEntity
  8
0
  6
Continuous
 62
     7
370
    25
100
AcDbLine
 10
322.0759550635
 20
227.6436966847
 30
0.0
 11
111.9487898905
 21
349.2211254222
 31
0.0
  0
LINE
  5
5B8
330
4F1
100
AcDbEntity
  8
0
  6
Continuous
 62
     7
370
    25
100
AcDbLine
 10
111.1988504839
 20
349.2218569871
 30
0.0
 11
103.0579675226
 21
344.532801357
 31
0.0
  0
LINE
  5
5B9
330
4F1
100
AcDbEntity
  8
0
  6
Continuous
 62
     7
370
    25
100
AcDbLine
 10
102.6823036043
 20
343.8828994429
 30
0.0
 11
102.6823036043
 21
343.2584120312
 31
0.0
  0
LINE
  5
5BA
330
4F1
100
AcDbEntity
  8
0
  6
Continuous
 62
     7
370
    25
100
AcDbLine
 10
313.933804859
 20
-349.5147291228
 30
0.0
 11
322.0746878203
 21
-344.8256734927
 31
0.0
  0
LINE
  5
5BB
330
4F1
100
AcDbEntity
  8
0
  6
Continuous
 62
     7
370
    25
100
AcDbLine
 10
110.2978951039
 20
350.3002439951
 30
0.0
 11
-100.4074891723
 21
471.54370821
 31
0.0
  0
LINE
  5
5BC
330
4F1
100
AcDbEntity
  8
0
  6
Continuous
 62
     7
370
    25
100
AcDbLine
 10
110.6738380487
 20
348.9194558191
 30
0.0
 11
110.6738380487
 21
349.6501814448
 31
0.0
  0
LINE
  5
5BD
330
4F1
100
AcDbEntity
  8
0
  6
Continuous
 62
     7
370
    25
100
AcDbLine
 10
-109.6500667642
 20
466.1916868833
 30
0.0
 11
-109.6500667642
 21
465.3570006604
 31
0.0
  0
LINE
  5
5BE
330
4F1
100
AcDbEntity
  8
0
  6
Continuous
 62
     7
370
    25
100
AcDbLine
 10
-101.1574289629
 20
471.5426542645
 30
0.0
 11
-109.2759494995
 21
466.8406954882
 31
0.0
  0
LINE
  5
5BF
330
4F1
100
AcDbEntity
  8
0
  6
Continuous
 62
     7
370
    25
100
AcDbLine
 10
201.9396462005
 20
168.6345874134
 30
0.0
 11
201.9396462005
 21
-401.3108992829
 31
0.0
  0
LINE
  5
5C0
330
4F1
100
AcDbEntity
  8
0
  6
Continuous
 62
     7
370
    25
100
AcDbLine
 10
302.1417429815
 20
227.0574081593
 30
0.0
 11
202.4396868342
 21
169.5006362758
 31
0.0
  0
LINE
  5
5C1
330
4F1
100
AcDbEntity
  8
0
  6
Continuous
 62
     7
370
    25
100
AcDbLine
 10
313.5411972845
 20
-349.4689841821
 30
0.0
 11
313.5411972845
 21
220.4765025141
 31
0.0
  0
LINE
  5
5C2
330
4F1
100
AcDbEntity
  8
0
  6
Continuous
 62
     7
370
    25
100
AcDbLine
 10
313.0411566508
 20
221.3425513765
 30
0.0
 11
303.1416617142
 21
227.0574081593
 31
0.0
  0
LINE
  5
5C3
330
4F1
100
AcDbEntity
  8
0
  6
Continuous
 62
     7
370
    25
100
AcDbLine
 10
213.3391005035
 20
-407.891804928
 30
0.0
 11
313.0411566508
 21
-350.3350330445
 31
0.0
  0
LINE
  5
5C4
330
4F1
100
AcDbEntity
  8
0
  6
Continuous
 62
     7
370
    25
100
AcDbLine
 10
202.4396868342
 20
-402.1769481452
 30
0.0
 11
212.3391817708
 21
-407.891804928
 31
0.0
  0
LINE
  5
5C5
330
4F1
100
AcDbEntity
  8
0
  6
Continuous
 62
     7
370
    25
100
AcDbLine
 10
-212.4249275748
 20
407.8421641774
 30
0.0
 11
-212.4249275748
 21
-162.1033225188
 31
0.0
  0
LINE
  5
5C6
330
4F1
100
AcDbEntity
  8
0
  6
Continuous
 62
     7
370
    25
100
AcDbLine
 10
-112.2228307938
 20
466.2649849233
 30
0.0
 11
-211.9248869411
 21
408.7082130398
 31
0.0
  0
LINE
  5
5C7
330
4F1
100
AcDbEntity
  8
0
  6
Continuous
 62
     7
370
    25
100
AcDbLine
 10
-101.3234171245
 20
460.5501281406
 30
0.0
 11
-111.2229120612
 21
466.2649849233
 31
0.0
  0
LINE
  5
5C8
330
4F1
100
AcDbEntity
  8
0
  6
Continuous
 62
     7
370
    25
100
AcDbLine
 10
-211.9248869411
 20
-162.9693713812
 30
0.0
 11
-202.0253920045
 21
-168.6842281639
 31
0.0
  0
LINE
  5
5C9
330
4F1
100
AcDbEntity
  8
0
  6
Continuous
 62
     7
370
    25
100
AcDbLine
 10
-201.0254732718
 20
-168.6842281639
 30
0.0
 11
-189.9177152397
 21
-162.2718559432
 31
0.0
  0
LINE
  5
5CA
330
4F1
100
AcDbEntity
  8
0
  6
Continuous
 62
     7
370
    25
100
AcDbLine
 10
322.2300840878
 20
226.688028616
 30
0.0
 11
314.0892011265
 21
221.9989729859
 31
0.0
  0
LINE
  5
5CB
330
4F1
100
AcDbEntity
  8
0
  6
Continuous
 62
     7
370
    25
100
AcDbLine
 10
313.5594687773
 20
222.9178763143
 30
0.0
 11
321.7003517386
 21
227.6069319444
 31
0.0
  0
LINE
  5
5CC
330
4F1
100
AcDbEntity
  8
0
  6
Continuous
 62
     7
370
    25
100
AcDbLine
 10
314.0892011265
 20
221.9989729859
 30
0.0
 11
314.0892011265
 21
-349.1713249282
 31
0.0
  0
LINE
  5
5CD
330
4F1
100
AcDbEntity
  8
0
  6
Continuous
 62
     7
370
    25
100
AcDbLine
 10
313.0285416277
 20
221.9996627295
 30
0.0
 11
102.9013764547
 21
343.577091467
 31
0.0
  0
LINE
  5
5CE
330
4F1
100
AcDbEntity
  8
0
  6
Continuous
 62
     7
370
    25
100
AcDbLine
 10
103.4323036043
 20
344.4953050518
 30
0.0
 11
313.5594687773
 21
222.9178763143
 31
0.0
  0
LINE
  5
5CF
330
4F1
100
AcDbEntity
  8
0
  6
Continuous
 62
     7
370
    25
100
AcDbLine
 10
322.2300840878
 20
-344.4822692981
 30
0.0
 11
322.2300840878
 21
226.688028616
 31
0.0
  0
LINE
  5
5D0
330
4F1
100
AcDbEntity
  8
0
  6
Continuous
 62
     7
370
    25
100
AcDbLine
 10
314.0892011265
 20
-349.1713249282
 30
0.0
 11
322.2300840878
 21
-344.4822692981
 31
0.0
  0
LINE
  5
5D1
330
4F1
100
AcDbEntity
  8
0
  6
Continuous
 62
     7
370
    25
100
AcDbLine
 10
111.5731865656
 20
349.1843606819
 30
0.0
 11
103.4323036043
 21
344.4953050518
 31
0.0
  0
LINE
  5
5D2
330
4F1
100
AcDbEntity
  8
0
  6
Continuous
 62
     7
370
    25
100
AcDbLine
 10
321.7003517386
 20
227.6069319444
 30
0.0
 11
111.5731865656
 21
349.1843606819
 31
0.0
  0
LINE
  5
5D3
330
4F1
100
AcDbEntity
  8
0
  6
Continuous
 62
     7
370
    25
100
AcDbLine
 10
101.2758487814
 20
344.641573183
 30
0.0
 11
-109.4295354949
 21
465.8850373979
 31
0.0
  0
LINE
  5
5D4
330
4F1
100
AcDbEntity
  8
0
  6
Continuous
 62
     7
370
    25
100
AcDbLine
 10
-108.9000667642
 20
466.8040924922
 30
0.0
 11
101.805317512
 21
345.5606282774
 31
0.0
  0
LINE
  5
5D5
330
4F1
100
AcDbEntity
  8
0
  6
Continuous
 62
     7
370
    25
100
AcDbLine
 10
110.455028093
 20
349.3445256526
 30
0.0
 11
102.3365075564
 21
344.6425668763
 31
0.0
  0
LINE
  5
5D6
330
4F1
100
AcDbEntity
  8
0
  6
Continuous
 62
     7
370
    25
100
AcDbLine
 10
101.805317512
 20
345.5606282774
 30
0.0
 11
109.9238380487
 21
350.2625870537
 31
0.0
  0
LINE
  5
5D7
330
4F1
100
AcDbEntity
  8
0
  6
Continuous
 62
     7
370
    25
100
AcDbLine
 10
-100.7815462276
 20
471.5060512685
 30
0.0
 11
-108.9000667642
 21
466.8040924922
 31
0.0
  0
LINE
  5
5D8
330
4F1
100
AcDbEntity
  8
0
  6
Continuous
 62
     7
370
    25
100
AcDbLine
 10
109.9238380487
 20
350.2625870537
 30
0.0
 11
-100.7815462276
 21
471.5060512685
 31
0.0
  0
LINE
  5
5D9
330
4F1
100
AcDbEntity
  8
0
  6
Continuous
 62
     7
370
    25
100
AcDbLine
 10
-100.4091629285
 20
460.5006200901
 30
0.0
 11
302.6417023478
 21
227.8243082206
 31
0.0
  0
LINE
  5
5DA
330
4F1
100
AcDbEntity
  8
0
  6
Continuous
 62
     7
370
    25
100
AcDbLine
 10
302.6417023478
 20
227.8243082206
 30
0.0
 11
206.4751801065
 21
172.3085566167
 31
0.0
  0
LINE
  5
5DB
330
4F1
100
AcDbEntity
  8
0
  6
Continuous
 62
     7
370
    25
100
AcDbLine
 10
-196.5756851699
 20
404.9848684861
 30
0.0
 11
206.4751801065
 21
172.3085566167
 31
0.0
  0
LINE
  5
5DC
330
4F1
100
AcDbEntity
  8
0
  6
Continuous
 62
     7
370
    25
100
AcDbLine
 10
-196.5756851699
 20
404.9848684861
 30
0.0
 11
-100.4091629285
 21
460.5006200901
 31
0.0
  0
LINE
  5
5DD
330
4F1
100
AcDbEntity
  8
0
  6
Continuous
 62
     7
370
    25
100
AcDbLine
 10
206.4751801065
 20
171.830276954
 30
0.0
 11
206.4751801065
 21
172.3085566167
 31
0.0
  0
LINE
  5
5DE
330
4F1
100
AcDbEntity
  8
0
  6
Continuous
 62
     7
370
    25
100
AcDbLine
 10
302.6417023478
 20
227.1913592969
 30
0.0
 11
302.6417023478
 21
227.8243082206
 31
0.0
  0
LINE
  5
5DF
330
4F1
100
AcDbEntity
  8
0
  6
Continuous
 62
     7
370
    25
100
AcDbLine
 10
-196.5756851699
 20
391.920215496
 30
0.0
 11
201.9396462005
 21
161.8622116181
 31
0.0
  0
LINE
  5
5E0
330
4F1
100
AcDbEntity
  8
0
  6
Continuous
 62
     7
370
    25
100
AcDbLine
 10
-196.5756851699
 20
-145.3636387249
 30
0.0
 11
201.9396462005
 21
-375.4216426027
 31
0.0
  0
LINE
  5
5E1
330
4F1
100
AcDbEntity
  8
0
  6
Continuous
 62
     7
370
    25
100
AcDbLine
 10
-196.5756851699
 20
-158.428291715
 30
0.0
 11
201.9396462005
 21
-388.4862955929
 31
0.0
  0
LINE
  5
5E2
330
4F1
100
AcDbEntity
  8
0
  6
Continuous
 62
     7
370
    25
100
AcDbLine
 10
-196.5756851699
 20
-158.428291715
 30
0.0
 11
-196.5756851699
 21
404.9848684861
 31
0.0
  0
LINE
  5
5E3
330
4F1
100
AcDbEntity
  8
0
  6
Continuous
 62
     7
370
    25
100
AcDbLine
 10
212.132034356
 20
-407.4339601215
 30
0.0
 11
212.132034356
 21
162.5115265747
 31
0.0
  0
LINE
  5
5E4
330
4F1
100
AcDbEntity
  8
0
  6
Continuous
 62
     7
370
    25
100
AcDbLine
 10
213.5462479183
 20
162.5115265747
 30
0.0
 11
213.5462479183
 21
-407.4339601215
 31
0.0
  0
LINE
  5
5E5
330
4F1
100
AcDbEntity
  8
0
  6
Continuous
 62
     7
370
    25
100
AcDbLine
 10
212.8391411372
 20
163.7362714425
 30
0.0
 11
312.5411972845
 21
221.293043326
 31
0.0
  0
LINE
  5
5E6
330
4F1
100
AcDbEntity
  8
0
  6
Continuous
 62
     7
370
    25
100
AcDbLine
 10
313.2483040656
 20
220.0682984582
 30
0.0
 11
213.5462479183
 21
162.5115265747
 31
0.0
  0
LINE
  5
5E7
330
4F1
100
AcDbEntity
  8
0
  6
Continuous
 62
     7
370
    25
100
AcDbLine
 10
202.9396462005
 20
169.4511282253
 30
0.0
 11
212.8391411372
 21
163.7362714425
 31
0.0
  0
LINE
  5
5E8
330
4F1
100
AcDbEntity
  8
0
  6
Continuous
 62
     7
370
    25
100
AcDbLine
 10
212.132034356
 20
162.5115265747
 30
0.0
 11
202.2325394194
 21
168.2263833575
 31
0.0
  0
LINE
  5
5E9
330
4F1
100
AcDbEntity
  8
0
  6
Continuous
 62
     7
370
    25
100
AcDbLine
 10
313.2483040656
 20
-349.877188238
 30
0.0
 11
313.2483040656
 21
220.0682984582
 31
0.0
  0
LINE
  5
5EA
330
4F1
100
AcDbEntity
  8
0
  6
Continuous
 62
     7
370
    25
100
AcDbLine
 10
213.5462479183
 20
-407.4339601215
 30
0.0
 11
313.2483040656
 21
-349.877188238
 31
0.0
  0
LINE
  5
5EB
330
4F1
100
AcDbEntity
  8
0
  6
Continuous
 62
     7
370
    25
100
AcDbLine
 10
202.2325394194
 20
-401.7191033388
 30
0.0
 11
212.132034356
 21
-407.4339601215
 31
0.0
  0
LINE
  5
5EC
330
4F1
100
AcDbEntity
  8
0
  6
Continuous
 62
     7
370
    25
100
AcDbLine
 10
202.2325394194
 20
168.2263833575
 30
0.0
 11
202.2325394194
 21
-401.7191033388
 31
0.0
  0
LINE
  5
5ED
330
4F1
100
AcDbEntity
  8
0
  6
Continuous
 62
     7
370
    25
100
AcDbLine
 10
302.6417023478
 20
227.0079001088
 30
0.0
 11
202.9396462005
 21
169.4511282253
 31
0.0
  0
LINE
  5
5EE
330
4F1
100
AcDbEntity
  8
0
  6
Continuous
 62
     7
370
    25
100
AcDbLine
 10
312.5411972845
 20
221.293043326
 30
0.0
 11
302.6417023478
 21
227.0079001088
 31
0.0
  0
LINE
  5
5EF
330
4F1
100
AcDbEntity
  8
0
  6
Continuous
 62
     7
370
    25
100
AcDbLine
 10
-202.2325394194
 20
-168.2263833575
 30
0.0
 11
-202.2325394194
 21
401.7191033388
 31
0.0
  0
LINE
  5
5F0
330
4F1
100
AcDbEntity
  8
0
  6
Continuous
 62
     7
370
    25
100
AcDbLine
 10
-200.818325857
 20
401.7191033388
 30
0.0
 11
-200.818325857
 21
-168.2263833575
 31
0.0
  0
LINE
  5
5F1
330
4F1
100
AcDbEntity
  8
0
  6
Continuous
 62
     7
370
    25
100
AcDbLine
 10
-201.5254326382
 20
402.9438482066
 30
0.0
 11
-101.8233764909
 21
460.5006200901
 31
0.0
  0
LINE
  5
5F2
330
4F1
100
AcDbEntity
  8
0
  6
Continuous
 62
     7
370
    25
100
AcDbLine
 10
-202.2325394194
 20
401.7191033388
 30
0.0
 11
-212.132034356
 21
407.4339601215
 31
0.0
  0
LINE
  5
5F3
330
4F1
100
AcDbEntity
  8
0
  6
Continuous
 62
     7
370
    25
100
AcDbLine
 10
-211.4249275748
 20
408.6587049893
 30
0.0
 11
-201.5254326382
 21
402.9438482066
 31
0.0
  0
LINE
  5
5F4
330
4F1
100
AcDbEntity
  8
0
  6
Continuous
 62
     7
370
    25
100
AcDbLine
 10
-212.132034356
 20
-162.5115265747
 30
0.0
 11
-202.2325394194
 21
-168.2263833575
 31
0.0
  0
LINE
  5
5F5
330
4F1
100
AcDbEntity
  8
0
  6
Continuous
 62
     7
370
    25
100
AcDbLine
 10
-212.132034356
 20
407.4339601215
 30
0.0
 11
-212.132034356
 21
-162.5115265747
 31
0.0
  0
LINE
  5
5F6
330
4F1
100
AcDbEntity
  8
0
  6
Continuous
 62
     7
370
    25
100
AcDbLine
 10
-111.7228714275
 20
466.2154768728
 30
0.0
 11
-211.4249275748
 21
408.6587049893
 31
0.0
  0
LINE
  5
5F7
330
4F1
100
AcDbEntity
  8
0
  6
Continuous
 62
     7
370
    25
100
AcDbLine
 10
-101.8233764909
 20
460.5006200901
 30
0.0
 11
-111.7228714275
 21
466.2154768728
 31
0.0
  0
LINE
  5
5F8
330
4F1
100
AcDbEntity
  8
0
  6
Continuous
 62
     7
370
    25
100
AcDbLine
 10
323.1157592042
 20
228.2183179816
 30
0.0
 11
324.8855163697
 21
229.2376779012
 31
0.0
  0
LINE
  5
5F9
330
4F1
100
AcDbEntity
  8
0
  6
Continuous
 62
     7
370
    25
100
AcDbLine
 10
324.8855163697
 20
229.2376779012
 30
0.0
 11
325.2386712692
 21
228.6250756822
 31
0.0
  0
LINE
  5
5FA
330
4F1
100
AcDbEntity
  8
0
  6
Continuous
 62
     7
370
    25
100
AcDbLine
 10
325.2386712692
 20
228.6250756822
 30
0.0
 11
323.4689141037
 21
227.6057157626
 31
0.0
  0
LINE
  5
5FB
330
4F1
100
AcDbEntity
  8
0
  6
Continuous
 62
     7
370
    25
100
AcDbLine
 10
323.4689141037
 20
227.6057157626
 30
0.0
 11
323.1157592042
 21
228.2183179816
 31
0.0
  0
LINE
  5
5FC
330
4F1
100
AcDbEntity
  8
0
  6
Continuous
 62
     7
370
    25
100
AcDbLine
 10
112.2822842323
 20
349.0281690068
 30
0.0
 11
112.2822842323
 21
349.7961399392
 31
0.0
  0
LINE
  5
5FD
330
4F1
100
AcDbEntity
  8
0
  6
Continuous
 62
     7
370
    25
100
AcDbLine
 10
112.6354391318
 20
350.0000785321
 30
0.0
 11
112.2822842323
 21
349.7961399392
 31
0.0
  0
LINE
  5
5FE
330
4F1
100
AcDbEntity
  8
0
  6
Continuous
 62
     7
370
    25
100
AcDbLine
 10
112.6354391318
 20
350.0000785321
 30
0.0
 11
323.1157592042
 21
228.2183179816
 31
0.0
  0
LINE
  5
5FF
330
4F1
100
AcDbEntity
  8
0
  6
Continuous
 62
     7
370
    25
100
AcDbLine
 10
323.4689141037
 20
227.6057157626
 30
0.0
 11
323.4689141037
 21
-343.9728525574
 31
0.0
  0
LINE
  5
600
330
4F1
100
AcDbEntity
  8
0
  6
Continuous
 62
     7
370
    25
100
AcDbLine
 10
323.1157592042
 20
-344.1767911503
 30
0.0
 11
323.4689141037
 21
-343.9728525574
 31
0.0
  0
LINE
  5
601
330
4F1
100
AcDbEntity
  8
0
  6
Continuous
 62
     7
370
    25
100
AcDbLine
 10
323.1157592042
 20
-344.1767911503
 30
0.0
 11
322.4503517386
 21
-343.7917931961
 31
0.0
  0
LINE
  5
602
330
4F1
100
AcDbEntity
  8
0
  6
Continuous
 62
     7
370
    25
100
AcDbLine
 10
325.2386712692
 20
-342.9534926378
 30
0.0
 11
325.2386712692
 21
228.6250756822
 31
0.0
  0
LINE
  5
603
330
4F1
100
AcDbEntity
  8
0
  6
Continuous
 62
     7
370
    25
100
AcDbLine
 10
323.4689141037
 20
-343.9728525574
 30
0.0
 11
325.2386712692
 21
-342.9534926378
 31
0.0
  0
LINE
  5
604
330
4F1
100
AcDbEntity
  8
0
  6
Continuous
 62
     7
370
    25
100
AcDbLine
 10
114.4051962973
 20
351.0194384517
 30
0.0
 11
112.6354391318
 21
350.0000785321
 31
0.0
  0
LINE
  5
605
330
4F1
100
AcDbEntity
  8
0
  6
Continuous
 62
     7
370
    25
100
AcDbLine
 10
324.8855163697
 20
229.2376779012
 30
0.0
 11
114.4051962973
 21
351.0194384517
 31
0.0
  0
LINE
  5
606
330
4F1
100
AcDbEntity
  8
0
  6
Continuous
 62
     7
370
    25
100
AcDbLine
 10
325.2394678028
 20
229.0332794791
 30
0.0
 11
325.2386712692
 21
228.6250756822
 31
0.0
  0
LINE
  5
607
330
4F1
100
AcDbEntity
  8
0
  6
Continuous
 62
     7
370
    25
100
AcDbLine
 10
325.2394678028
 20
229.0332794791
 30
0.0
 11
324.8855163697
 21
229.2376779012
 31
0.0
  0
LINE
  5
608
330
4F1
100
AcDbEntity
  8
0
  6
Continuous
 62
     7
370
    25
100
AcDbLine
 10
325.2394678028
 20
229.0332794791
 30
0.0
 11
325.2394678028
 21
-342.5452888409
 31
0.0
  0
LINE
  5
609
330
4F1
100
AcDbEntity
  8
0
  6
Continuous
 62
     7
370
    25
100
AcDbLine
 10
325.2394678028
 20
-342.5452888409
 30
0.0
 11
325.2386712692
 21
-342.9534926378
 31
0.0
  0
LINE
  5
60A
330
4F1
100
AcDbEntity
  8
0
  6
Continuous
 62
     7
370
    25
100
AcDbLine
 10
114.7591477304
 20
350.8150400296
 30
0.0
 11
325.2394678028
 21
229.0332794791
 31
0.0
  0
LINE
  5
60B
330
4F1
100
AcDbEntity
  8
0
  6
Continuous
 62
     7
370
    25
100
AcDbLine
 10
114.4051962973
 20
351.0194384517
 30
0.0
 11
114.7591477304
 21
350.8150400296
 31
0.0
  0
LINE
  5
60C
330
4F1
100
AcDbEntity
  8
0
  6
Continuous
 62
     7
370
    25
100
AcDbLine
 10
325.2386712692
 20
-342.9534926378
 30
0.0
 11
324.8855163697
 21
-343.1574312307
 31
0.0
  0
LINE
  5
60D
330
4F1
100
AcDbEntity
  8
0
  6
Continuous
 62
     7
370
    25
100
AcDbLine
 10
324.8855163697
 20
-343.1574312307
 30
0.0
 11
323.1157592042
 21
-344.1767911503
 31
0.0
  0
LINE
  5
60E
330
4F1
100
AcDbEntity
  8
0
  6
Continuous
 62
     7
370
    25
100
AcDbLine
 10
-100.0773092338
 20
471.3537170538
 30
0.0
 11
-100.0773092338
 21
472.1189521206
 31
0.0
  0
LINE
  5
60F
330
4F1
100
AcDbEntity
  8
0
  6
Continuous
 62
     7
370
    25
100
AcDbLine
 10
-99.7231825375
 20
472.3234519985
 30
0.0
 11
-100.0773092338
 21
472.1189521206
 31
0.0
  0
LINE
  5
610
330
4F1
100
AcDbEntity
  8
0
  6
Continuous
 62
     7
370
    25
100
AcDbLine
 10
-99.7231825375
 20
472.3234519985
 30
0.0
 11
111.336328435
 21
350.8762172556
 31
0.0
  0
LINE
  5
611
330
4F1
100
AcDbEntity
  8
0
  6
Continuous
 62
     7
370
    25
100
AcDbLine
 10
111.6904551312
 20
350.2641763215
 30
0.0
 11
111.336328435
 21
350.8762172556
 31
0.0
  0
LINE
  5
612
330
4F1
100
AcDbEntity
  8
0
  6
Continuous
 62
     7
370
    25
100
AcDbLine
 10
111.6904551312
 20
350.2641763215
 30
0.0
 11
111.6904551312
 21
349.3127303989
 31
0.0
  0
LINE
  5
613
330
4F1
100
AcDbEntity
  8
0
  6
Continuous
 62
     7
370
    25
100
AcDbLine
 10
111.336328435
 20
350.8762172556
 30
0.0
 11
113.1012242038
 21
351.898382207
 31
0.0
  0
LINE
  5
614
330
4F1
100
AcDbEntity
  8
0
  6
Continuous
 62
     7
370
    25
100
AcDbLine
 10
113.1012242038
 20
351.898382207
 30
0.0
 11
113.4553509001
 21
351.2863412729
 31
0.0
  0
LINE
  5
615
330
4F1
100
AcDbEntity
  8
0
  6
Continuous
 62
     7
370
    25
100
AcDbLine
 10
113.4553509001
 20
351.2863412729
 30
0.0
 11
111.6904551312
 21
350.2641763215
 31
0.0
  0
LINE
  5
616
330
4F1
100
AcDbEntity
  8
0
  6
Continuous
 62
     7
370
    25
100
AcDbLine
 10
-97.9582867687
 20
473.3456169498
 30
0.0
 11
-99.7231825375
 21
472.3234519985
 31
0.0
  0
LINE
  5
617
330
4F1
100
AcDbEntity
  8
0
  6
Continuous
 62
     7
370
    25
100
AcDbLine
 10
113.1012242038
 20
351.898382207
 30
0.0
 11
-97.9582867687
 21
473.3456169498
 31
0.0
  0
LINE
  5
618
330
4F1
100
AcDbEntity
  8
0
  6
Continuous
 62
     7
370
    25
100
AcDbLine
 10
113.4553509001
 20
350.4723383486
 30
0.0
 11
113.4553509001
 21
351.2863412729
 31
0.0
  0
LINE
  5
619
330
4F1
100
AcDbEntity
  8
0
  6
Continuous
 62
     7
370
    25
100
AcDbLine
 10
113.4542033576
 20
351.6945447913
 30
0.0
 11
113.4553509001
 21
351.2863412729
 31
0.0
  0
LINE
  5
61A
330
4F1
100
AcDbEntity
  8
0
  6
Continuous
 62
     7
370
    25
100
AcDbLine
 10
113.4542033576
 20
351.6945447913
 30
0.0
 11
113.1012242038
 21
351.898382207
 31
0.0
  0
LINE
  5
61B
330
4F1
100
AcDbEntity
  8
0
  6
Continuous
 62
     7
370
    25
100
AcDbLine
 10
-100.0773092338
 20
472.1189521206
 30
0.0
 11
-98.312413465
 21
473.141117072
 31
0.0
  0
LINE
  5
61C
330
4F1
100
AcDbEntity
  8
0
  6
Continuous
 62
     7
370
    25
100
AcDbLine
 10
-98.312413465
 20
473.141117072
 30
0.0
 11
-97.9582867687
 21
473.3456169498
 31
0.0
  0
LINE
  5
61D
330
4F1
100
AcDbEntity
  8
0
  6
Continuous
 62
     8
370
    25
100
AcDbLine
 10
313.0285416277
 20
221.3498338743
 30
0.0
 11
313.0285416277
 21
221.9996627295
 31
0.0
  0
LINE
  5
61E
330
4F1
100
AcDbEntity
  8
0
  6
Continuous
 62
     8
370
    25
100
AcDbLine
 10
102.9013764547
 20
343.577091467
 30
0.0
 11
102.9013764547
 21
343.1319439667
 31
0.0
  0
LINE
  5
61F
330
4F1
100
AcDbEntity
  8
0
  6
Continuous
 62
     8
370
    25
100
AcDbLine
 10
101.2758487814
 20
344.0703411181
 30
0.0
 11
101.2758487814
 21
344.641573183
 31
0.0
  0
LINE
  5
620
330
4F1
100
AcDbEntity
  8
0
  6
Continuous
 62
     8
370
    25
100
AcDbLine
 10
102.3365075564
 20
344.6425668763
 30
0.0
 11
102.3365075564
 21
343.4580358406
 31
0.0
  0
LINE
  5
621
330
4F1
100
AcDbEntity
  8
0
  6
Continuous
 62
     8
370
    25
100
AcDbLine
 10
-109.4295354949
 20
465.8850373979
 30
0.0
 11
-109.4295354949
 21
465.2296906685
 31
0.0
  0
LINE
  5
622
330
4F1
100
AcDbEntity
  8
0
  6
Continuous
 62
     8
370
    25
100
AcDbLine
 10
110.455028093
 20
348.7934237831
 30
0.0
 11
110.455028093
 21
349.3445256526
 31
0.0
  0
LINE
  5
623
330
4F1
100
AcDbEntity
  8
0
  6
Continuous
 62
     8
370
    25
100
AcDbLine
 10
-196.5756851699
 20
404.1683276742
 30
0.0
 11
-200.818325857
 21
401.7191033388
 31
0.0
  0
LINE
  5
624
330
4F1
100
AcDbEntity
  8
0
  6
Continuous
 62
     8
370
    25
100
AcDbLine
 10
-200.818325857
 20
-168.2263833575
 30
0.0
 11
-190.2106897325
 21
-162.1027253685
 31
0.0
  0
ARC
  5
625
330
4F1
100
AcDbEntity
  8
0
  6
Continuous
 62
     7
370
    25
100
AcDbCircle
 10
321.7003517386
 20
226.9945263355
 30
0.0
 40
0.7500000000001498
100
AcDbArc
 50
360.0
 51
59.9467648474
  0
ARC
  5
626
330
4F1
100
AcDbEntity
  8
0
  6
Continuous
 62
     7
370
    25
100
AcDbCircle
 10
103.4323036043
 20
343.8828994429
 30
0.0
 40
0.7500000000002558
100
AcDbArc
 50
119.9414512855
 51
180.0
  0
ARC
  5
627
330
4F1
100
AcDbEntity
  8
0
  6
Continuous
 62
     7
370
    25
100
AcDbCircle
 10
111.5731865656
 20
348.571955073
 30
0.0
 40
0.7500000000001835
100
AcDbArc
 50
59.9467648475
 51
119.9414512855
  0
ARC
  5
628
330
4F1
100
AcDbEntity
  8
0
  6
Continuous
 62
     7
370
    25
100
AcDbCircle
 10
313.5594687773
 20
-348.8648272087
 30
0.0
 40
0.7499999999992614
100
AcDbArc
 50
267.7931787254
 51
299.9414512855
  0
ARC
  5
629
330
4F1
100
AcDbEntity
  8
0
  6
Continuous
 62
     7
370
    25
100
AcDbCircle
 10
321.7003517386
 20
-344.1757715786
 30
0.0
 40
0.7499999999997158
100
AcDbArc
 50
299.9414512855
 51
0.0
  0
ARC
  5
62A
330
4F1
100
AcDbEntity
  8
0
  6
Continuous
 62
     7
370
    25
100
AcDbCircle
 10
109.9238380487
 20
349.6501814448
 30
0.0
 40
0.7500000000001336
100
AcDbArc
 50
0.0
 51
60.0831448296
  0
ARC
  5
62B
330
4F1
100
AcDbEntity
  8
0
  6
Continuous
 62
     7
370
    25
100
AcDbCircle
 10
-108.9000667642
 20
466.1916868833
 30
0.0
 40
0.7500000000000426
100
AcDbArc
 50
120.0778989947
 51
180.0
  0
ARC
  5
62C
330
4F1
100
AcDbEntity
  8
0
  6
Continuous
 62
     7
370
    25
100
AcDbCircle
 10
-100.7815462276
 20
470.8936456596
 30
0.0
 40
0.7499999999996937
100
AcDbArc
 50
60.0831448296
 51
120.0778989948
  0
ARC
  5
62D
330
4F1
100
AcDbEntity
  8
0
  6
Continuous
 62
     7
370
    25
100
AcDbCircle
 10
202.9396462005
 20
168.6345874134
 30
0.0
 40
1.000000000000227
100
AcDbArc
 50
119.9973117337
 51
180.0
  0
ARC
  5
62E
330
4F1
100
AcDbEntity
  8
0
  6
Continuous
 62
     7
370
    25
100
AcDbCircle
 10
312.5411972845
 20
220.4765025141
 30
0.0
 40
0.9999999999998295
100
AcDbArc
 50
360.0
 51
60.0026882664
  0
ARC
  5
62F
330
4F1
100
AcDbEntity
  8
0
  6
Continuous
 62
     7
370
    25
100
AcDbCircle
 10
302.6417023478
 20
226.1913592969
 30
0.0
 40
1.000000000000105
100
AcDbArc
 50
60.0026882664
 51
119.9973117336
  0
ARC
  5
630
330
4F1
100
AcDbEntity
  8
0
  6
Continuous
 62
     7
370
    25
100
AcDbCircle
 10
212.8391411372
 20
-407.0257560656
 30
0.0
 40
1.000000000000204
100
AcDbArc
 50
240.0026882664
 51
299.9973117336
  0
ARC
  5
631
330
4F1
100
AcDbEntity
  8
0
  6
Continuous
 62
     7
370
    25
100
AcDbCircle
 10
202.9396462005
 20
-401.3108992829
 30
0.0
 40
0.9999999999997726
100
AcDbArc
 50
180.0
 51
240.0026882664
  0
ARC
  5
632
330
4F1
100
AcDbEntity
  8
0
  6
Continuous
 62
     7
370
    25
100
AcDbCircle
 10
312.5411972845
 20
-349.4689841821
 30
0.0
 40
0.9999999999999502
100
AcDbArc
 50
299.9973117336
 51
0.0
  0
ARC
  5
633
330
4F1
100
AcDbEntity
  8
0
  6
Continuous
 62
     7
370
    25
100
AcDbCircle
 10
-211.4249275748
 20
407.8421641774
 30
0.0
 40
1.000000000000148
100
AcDbArc
 50
119.9973117337
 51
180.0
  0
ARC
  5
634
330
4F1
100
AcDbEntity
  8
0
  6
Continuous
 62
     7
370
    25
100
AcDbCircle
 10
-101.8233764909
 20
459.6840792782
 30
0.0
 40
0.9999999999996015
100
AcDbArc
 50
30.0038964361
 51
60.0026882664
  0
ARC
  5
635
330
4F1
100
AcDbEntity
  8
0
  6
Continuous
 62
     7
370
    25
100
AcDbCircle
 10
-111.7228714275
 20
465.3989360609
 30
0.0
 40
1.000000000000351
100
AcDbArc
 50
60.0026882664
 51
119.9973117336
  0
ARC
  5
636
330
4F1
100
AcDbEntity
  8
0
  6
Continuous
 62
     7
370
    25
100
AcDbCircle
 10
-201.5254326382
 20
-167.8181793016
 30
0.0
 40
0.9999999999999928
100
AcDbArc
 50
240.0026882663
 51
299.9973117336
  0
ARC
  5
637
330
4F1
100
AcDbEntity
  8
0
  6
Continuous
 62
     7
370
    25
100
AcDbCircle
 10
-211.4249275748
 20
-162.1033225188
 30
0.0
 40
0.999999999999801
100
AcDbArc
 50
180.0
 51
240.0026882664
  0
ARC
  5
638
330
4F1
100
AcDbEntity
  8
0
  6
Continuous
 62
     7
370
    25
100
AcDbCircle
 10
314.1788207354
 20
221.9471537099
 30
0.0
 40
1.151476974502807
100
AcDbArc
 50
122.5391732956
 51
177.386322987
  0
ARC
  5
639
330
4F1
100
AcDbEntity
  8
0
  6
Continuous
 62
     7
370
    25
100
AcDbCircle
 10
312.9366528146
 20
221.9466907937
 30
0.0
 40
1.153733521579758
100
AcDbArc
 50
2.597285317
 51
57.3281692741
  0
ARC
  5
63A
330
4F1
100
AcDbEntity
  8
0
  6
Continuous
 62
     7
370
    25
100
AcDbCircle
 10
313.5595369766
 20
223.0228494787
 30
0.0
 40
1.15276501687244
100
AcDbArc
 50
242.5723891135
 51
297.3530923561
  0
ARC
  5
63B
330
4F1
100
AcDbEntity
  8
0
  6
Continuous
 62
     7
370
    25
100
AcDbCircle
 10
321.077535776
 20
226.6357464238
 30
0.0
 40
1.153733521579865
100
AcDbArc
 50
2.597285317
 51
57.3281692741
  0
ARC
  5
63C
330
4F1
100
AcDbEntity
  8
0
  6
Continuous
 62
     7
370
    25
100
AcDbCircle
 10
104.0516555624
 20
343.5245824473
 30
0.0
 40
1.15147697450323
100
AcDbArc
 50
122.5391732956
 51
177.3863229869
  0
ARC
  5
63D
330
4F1
100
AcDbEntity
  8
0
  6
Continuous
 62
     7
370
    25
100
AcDbCircle
 10
102.4288988407
 20
344.5893410046
 30
0.0
 40
1.154232489507431
100
AcDbArc
 50
122.7010853218
 51
177.4063234576
  0
ARC
  5
63E
330
4F1
100
AcDbEntity
  8
0
  6
Continuous
 62
     7
370
    25
100
AcDbCircle
 10
101.1867266818
 20
344.5900079145
 30
0.0
 40
1.150981539421999
100
AcDbArc
 50
2.617291551
 51
57.490030383
  0
ARC
  5
63F
330
4F1
100
AcDbEntity
  8
0
  6
Continuous
 62
     7
370
    25
100
AcDbCircle
 10
101.8052192604
 20
345.66559983
 30
0.0
 40
1.152763496005736
100
AcDbArc
 50
242.6633010698
 51
297.4440556322
  0
ARC
  5
640
330
4F1
100
AcDbEntity
  8
0
  6
Continuous
 62
     7
370
    25
100
AcDbCircle
 10
-108.2764854355
 20
465.8328052194
 30
0.0
 40
1.154232489507145
100
AcDbArc
 50
122.7010853218
 51
177.4063234576
  0
ARC
  5
641
330
4F1
100
AcDbEntity
  8
0
  6
Continuous
 62
     7
370
    25
100
AcDbCircle
 10
109.3052472184
 20
349.2919666908
 30
0.0
 40
1.150981539421747
100
AcDbArc
 50
2.617291551
 51
57.490030383
  0
ARC
  5
642
330
4F1
100
AcDbEntity
  8
0
  6
Continuous
 62
     7
370
    25
100
AcDbCircle
 10
212.011031817
 20
162.4416657225
 30
0.0
 40
1.53680480757182
100
AcDbArc
 50
2.6054784856
 51
57.39452166
  0
ARC
  5
643
330
4F1
100
AcDbEntity
  8
0
  6
Continuous
 62
     7
370
    25
100
AcDbCircle
 10
212.8391411372
 20
163.8762376597
 30
0.0
 40
1.537021907911771
100
AcDbArc
 50
242.6096722366
 51
297.3903277634
  0
ARC
  5
644
330
4F1
100
AcDbEntity
  8
0
  6
Continuous
 62
     7
370
    25
100
AcDbCircle
 10
213.6672504573
 20
162.4416657225
 30
0.0
 40
1.53680480757188
100
AcDbArc
 50
122.60547834
 51
177.3945215144
  0
ARC
  5
645
330
4F1
100
AcDbEntity
  8
0
  6
Continuous
 62
     7
370
    25
100
AcDbCircle
 10
212.8391411372
 20
-406.0692490366
 30
0.0
 40
1.537021907911923
100
AcDbArc
 50
242.6096722366
 51
297.3903277634
  0
ARC
  5
646
330
4F1
100
AcDbEntity
  8
0
  6
Continuous
 62
     7
370
    25
100
AcDbCircle
 10
311.7130879643
 20
219.998437606
 30
0.0
 40
1.536804807572078
100
AcDbArc
 50
2.6054784857
 51
57.39452166
  0
ARC
  5
647
330
4F1
100
AcDbEntity
  8
0
  6
Continuous
 62
     7
370
    25
100
AcDbCircle
 10
203.7677555207
 20
168.1565225052
 30
0.0
 40
1.536804807572027
100
AcDbArc
 50
122.60547834
 51
177.3945215143
  0
ARC
  5
648
330
4F1
100
AcDbEntity
  8
0
  6
Continuous
 62
     7
370
    25
100
AcDbCircle
 10
-200.697323318
 20
401.6492424865
 30
0.0
 40
1.536804807572084
100
AcDbArc
 50
122.60547834
 51
177.3945215143
  0
ARC
  5
649
330
4F1
100
AcDbEntity
  8
0
  6
Continuous
 62
     7
370
    25
100
AcDbCircle
 10
-202.3535419583
 20
401.6492424865
 30
0.0
 40
1.536804807571962
100
AcDbArc
 50
2.6054784857
 51
57.39452166
  0
ARC
  5
64A
330
4F1
100
AcDbEntity
  8
0
  6
Continuous
 62
     7
370
    25
100
AcDbCircle
 10
-201.5254326382
 20
403.0838144237
 30
0.0
 40
1.53702190791167
100
AcDbArc
 50
242.6096722366
 51
297.3903277634
  0
ARC
  5
64B
330
4F1
100
AcDbEntity
  8
0
  6
Continuous
 62
     7
370
    25
100
AcDbCircle
 10
-201.5254326382
 20
-166.8616722725
 30
0.0
 40
1.537021907911569
100
AcDbArc
 50
242.6096722366
 51
297.3903277634
  0
ARC
  5
64C
330
4F1
100
AcDbEntity
  8
0
  6
Continuous
 62
     7
370
    25
100
AcDbCircle
 10
-210.5968182546
 20
407.3640992693
 30
0.0
 40
1.536804807571946
100
AcDbArc
 50
122.60547834
 51
177.3945215143
  0
ARC
  5
64D
330
4F1
100
AcDbEntity
  8
0
  6
Continuous
 62
     8
370
    25
100
AcDbCircle
 10
313.5725395112
 20
-348.1819467718
 30
0.0
 40
1.11615785666142
100
AcDbArc
 50
268.3908966074
 51
297.5739431255
  0
ARC
  5
64E
330
4F1
100
AcDbEntity
  8
0
  6
Continuous
 62
     8
370
    25
100
AcDbCircle
 10
321.9180441758
 20
227.3199381782
 30
0.0
 40
0.3602157950717116
100
AcDbArc
 50
63.9995263344
 51
127.1812885613
  0
ARC
  5
64F
330
4F1
100
AcDbEntity
  8
0
  6
Continuous
 62
     8
370
    25
100
AcDbCircle
 10
322.0913284527
 20
227.0201443752
 30
0.0
 40
0.3599361107876956
100
AcDbArc
 50
292.6748300034
 51
355.9185877841
  0
ARC
  5
650
330
4F1
100
AcDbEntity
  8
0
  6
Continuous
 62
     8
370
    25
100
AcDbCircle
 10
322.081735264
 20
-344.1432592979
 30
0.0
 40
0.370047502075568
100
AcDbArc
 50
293.6339097206
 51
354.9595080668
  0
ARC
  5
651
330
4F1
100
AcDbEntity
  8
0
  6
Continuous
 62
     8
370
    25
100
AcDbCircle
 10
111.7908790028
 20
348.8973669157
 30
0.0
 40
0.3602157950528467
100
AcDbArc
 50
63.9995263326
 51
127.1812885631
  0
ARC
  5
652
330
4F1
100
AcDbEntity
  8
0
  6
Continuous
 62
     8
370
    25
100
AcDbCircle
 10
103.0572369962
 20
343.9201189134
 30
0.0
 40
0.3767762430628846
100
AcDbArc
 50
185.669153023
 51
245.5644933946
  0
ARC
  5
653
330
4F1
100
AcDbEntity
  8
0
  6
Continuous
 62
     8
370
    25
100
AcDbCircle
 10
103.2126170359
 20
344.1894116664
 30
0.0
 40
0.3766071581693672
100
AcDbArc
 50
54.3148414568
 51
114.2449698362
  0
ARC
  5
654
330
4F1
100
AcDbEntity
  8
0
  6
Continuous
 62
     8
370
    25
100
AcDbCircle
 10
111.3534999972
 20
348.8784672965
 30
0.0
 40
0.3766071581694169
100
AcDbArc
 50
54.3148414568
 51
114.2449698362
  0
ARC
  5
655
330
4F1
100
AcDbEntity
  8
0
  6
Continuous
 62
     8
370
    25
100
AcDbCircle
 10
313.7219322593
 20
-349.2119913193
 30
0.0
 40
0.3695134316264508
100
AcDbArc
 50
304.9864484027
 51
6.3184221853
  0
ARC
  5
656
330
4F1
100
AcDbEntity
  8
0
  6
Continuous
 62
     8
370
    25
100
AcDbCircle
 10
321.8628152207
 20
-344.5229356892
 30
0.0
 40
0.3695134316261156
100
AcDbArc
 50
304.9864484027
 51
6.3184221853
  0
ARC
  5
657
330
4F1
100
AcDbEntity
  8
0
  6
Continuous
 62
     8
370
    25
100
AcDbCircle
 10
110.1435228131
 20
349.9570318831
 30
0.0
 40
0.3763314470519448
100
AcDbArc
 50
65.7824120563
 51
125.7149726888
  0
ARC
  5
658
330
4F1
100
AcDbEntity
  8
0
  6
Continuous
 62
     8
370
    25
100
AcDbCircle
 10
110.2990849116
 20
349.6873084602
 30
0.0
 40
0.3765877441449595
100
AcDbArc
 50
294.4623505463
 51
354.3421355684
  0
ARC
  5
659
330
4F1
100
AcDbEntity
  8
0
  6
Continuous
 62
     8
370
    25
100
AcDbCircle
 10
-100.5618614631
 20
471.2004960979
 30
0.0
 40
0.3763314470515425
100
AcDbArc
 50
65.7824120563
 51
125.7149726889
  0
ARC
  5
65A
330
4F1
100
AcDbEntity
  8
0
  6
Continuous
 62
     8
370
    25
100
AcDbCircle
 10
-109.2908795345
 20
466.2173775896
 30
0.0
 40
0.3601048158745302
100
AcDbArc
 50
184.0910882132
 51
247.3535692218
  0
ARC
  5
65B
330
4F1
100
AcDbEntity
  8
0
  6
Continuous
 62
     8
370
    25
100
AcDbCircle
 10
-109.1177703405
 20
466.516760529
 30
0.0
 40
0.3604920306714192
100
AcDbArc
 50
52.8497854797
 51
116.0265023659
  0
ARC
  5
65C
330
4F1
100
AcDbEntity
  8
0
  6
Continuous
 62
     8
370
    25
100
AcDbCircle
 10
-100.9992498038
 20
471.2187193052
 30
0.0
 40
0.3604920307206602
100
AcDbArc
 50
52.8497854845
 51
116.026502361
  0
ARC
  5
65D
330
4F1
100
AcDbEntity
  8
0
  6
Continuous
 62
     8
370
    25
100
AcDbCircle
 10
202.440103263
 20
168.6844937903
 30
0.0
 40
0.5029392784938941
100
AcDbArc
 50
185.6947992512
 51
245.6253417064
  0
ARC
  5
65E
330
4F1
100
AcDbEntity
  8
0
  6
Continuous
 62
     8
370
    25
100
AcDbCircle
 10
202.6467261457
 20
169.0422468962
 30
0.0
 40
0.502977235901536
100
AcDbArc
 50
54.3824225248
 51
114.3071190461
  0
ARC
  5
65F
330
4F1
100
AcDbEntity
  8
0
  6
Continuous
 62
     8
370
    25
100
AcDbCircle
 10
202.440103263
 20
-401.260992906
 30
0.0
 40
0.5029392784939622
100
AcDbArc
 50
185.6947992512
 51
245.6253417064
  0
ARC
  5
660
330
4F1
100
AcDbEntity
  8
0
  6
Continuous
 62
     8
370
    25
100
AcDbCircle
 10
302.348782293
 20
226.5990187797
 30
0.0
 40
0.5029772359014797
100
AcDbArc
 50
54.3824225248
 51
114.3071190461
  0
ARC
  5
661
330
4F1
100
AcDbEntity
  8
0
  6
Continuous
 62
     8
370
    25
100
AcDbCircle
 10
312.8341173393
 20
220.8841619969
 30
0.0
 40
0.5029772359014235
100
AcDbArc
 50
65.6928809539
 51
125.6175774752
  0
ARC
  5
662
330
4F1
100
AcDbEntity
  8
0
  6
Continuous
 62
     8
370
    25
100
AcDbCircle
 10
313.040740222
 20
220.526408891
 30
0.0
 40
0.5029392784937756
100
AcDbArc
 50
294.3746582936
 51
354.3052007488
  0
ARC
  5
663
330
4F1
100
AcDbEntity
  8
0
  6
Continuous
 62
     8
370
    25
100
AcDbCircle
 10
313.040740222
 20
-349.4190778052
 30
0.0
 40
0.502939278493899
100
AcDbArc
 50
294.3746582936
 51
354.3052007488
  0
ARC
  5
664
330
4F1
100
AcDbEntity
  8
0
  6
Continuous
 62
     8
370
    25
100
AcDbCircle
 10
302.9346224027
 20
226.5990187797
 30
0.0
 40
0.5029772359015797
100
AcDbArc
 50
65.6928809539
 51
125.6175774752
  0
ARC
  5
665
330
4F1
100
AcDbEntity
  8
0
  6
Continuous
 62
     8
370
    25
100
AcDbCircle
 10
213.0562460161
 20
-407.4880468589
 30
0.0
 40
0.4929779298890435
100
AcDbArc
 50
305.0133328672
 51
6.2988475262
  0
ARC
  5
666
330
4F1
100
AcDbEntity
  8
0
  6
Continuous
 62
     8
370
    25
100
AcDbCircle
 10
212.6077199118
 20
-407.4945241501
 30
0.0
 40
0.4795255463717927
100
AcDbArc
 50
172.744170435
 51
235.9436491716
  0
ARC
  5
667
330
4F1
100
AcDbEntity
  8
0
  6
Continuous
 62
     8
370
    25
100
AcDbCircle
 10
312.7726185101
 20
-349.9377522668
 30
0.0
 40
0.4795255460238917
100
AcDbArc
 50
304.0563508028
 51
7.2558295906
  0
ARC
  5
668
330
4F1
100
AcDbEntity
  8
0
  6
Continuous
 62
     8
370
    25
100
AcDbCircle
 10
202.7082249751
 20
-401.7796673675
 30
0.0
 40
0.4795255462149245
100
AcDbArc
 50
172.7441704235
 51
235.9436491831
  0
ARC
  5
669
330
4F1
100
AcDbEntity
  8
0
  6
Continuous
 62
     8
370
    25
100
AcDbCircle
 10
-102.5868770056
 20
459.2766080904
 30
0.0
 40
1.442615129304044
100
AcDbArc
 50
28.8567998287
 51
58.0453714773
  0
ARC
  5
66A
330
4F1
100
AcDbEntity
  8
0
  6
Continuous
 62
     8
370
    25
100
AcDbCircle
 10
-211.7178476296
 20
408.2498236602
 30
0.0
 40
0.5029772359014335
100
AcDbArc
 50
54.3824225248
 51
114.3071190461
  0
ARC
  5
66B
330
4F1
100
AcDbEntity
  8
0
  6
Continuous
 62
     8
370
    25
100
AcDbCircle
 10
-211.9244705123
 20
407.8920705543
 30
0.0
 40
0.5029392784939849
100
AcDbArc
 50
185.6947992512
 51
245.6253417064
  0
ARC
  5
66C
330
4F1
100
AcDbEntity
  8
0
  6
Continuous
 62
     8
370
    25
100
AcDbCircle
 10
-211.9244705123
 20
-162.0534161419
 30
0.0
 40
0.5029392784939952
100
AcDbArc
 50
185.6947992512
 51
245.6253417064
  0
ARC
  5
66D
330
4F1
100
AcDbEntity
  8
0
  6
Continuous
 62
     8
370
    25
100
AcDbCircle
 10
-112.0157914823
 20
465.8065955437
 30
0.0
 40
0.5029772359016774
100
AcDbArc
 50
54.3824225248
 51
114.3071190461
  0
ARC
  5
66E
330
4F1
100
AcDbEntity
  8
0
  6
Continuous
 62
     8
370
    25
100
AcDbCircle
 10
-101.530456436
 20
460.091738761
 30
0.0
 40
0.5029772359016812
100
AcDbArc
 50
65.6928809539
 51
125.6175774752
  0
ARC
  5
66F
330
4F1
100
AcDbEntity
  8
0
  6
Continuous
 62
     8
370
    25
100
AcDbCircle
 10
-111.4299513726
 20
465.8065955437
 30
0.0
 40
0.5029772359019364
100
AcDbArc
 50
65.6928809539
 51
125.6175774752
  0
ARC
  5
670
330
4F1
100
AcDbEntity
  8
0
  6
Continuous
 62
     8
370
    25
100
AcDbCircle
 10
-201.308327759
 20
-168.280470095
 30
0.0
 40
0.4929779297308943
100
AcDbArc
 50
305.0133328563
 51
6.2988475371
  0
ARC
  5
671
330
4F1
100
AcDbEntity
  8
0
  6
Continuous
 62
     8
370
    25
100
AcDbCircle
 10
-201.7425375173
 20
-168.280470095
 30
0.0
 40
0.492977929730843
100
AcDbArc
 50
173.7011524629
 51
234.9866671437
  0
ARC
  5
672
330
4F1
100
AcDbEntity
  8
0
  6
Continuous
 62
     8
370
    25
100
AcDbCircle
 10
-211.6420324536
 20
-162.5656133121
 30
0.0
 40
0.492977929970522
100
AcDbArc
 50
173.7011524794
 51
234.9866671272
  0
VIEWPORT
  5
67B
330
4F1
100
AcDbEntity
  8
0
100
AcDbViewport
 10
0.0
 20
0.0
 30
0.0
 40
205.6
 41
156.0
 68
     1
 69
     1
 12
0.0
 22
-0.5
 13
0.0
 23
0.0
 14
10.0
 24
10.0
 15
10.0
 25
10.0
 16
0.0
 26
0.0
 36
1.0
 17
0.0
 27
0.0
 37
0.0
 42
50.0
 43
0.0
 44
0.0
 45
715.02
 50
0.0
 51
0.0
 72
   100
 90
   557152
  1

281
     0
 71
     1
 74
     0
110
0.0
120
0.0
130
0.0
111
1.0
121
0.0
131
0.0
112
0.0
122
1.0
132
0.0
 79
     0
146
0.0
  0
ENDBLK
  5
4F4
330
4F1
100
AcDbEntity
  8
0
100
AcDbBlockEnd
  0
ENDSEC
  0
SECTION
  2
ENTITIES
  0
LINE
  5
E1
330
1F
100
AcDbEntity
  8
0
  6
Continuous
 62
     7
370
    25
100
AcDbLine
 10
0.4799943932
 20
-350.25
 30
0.0
 11
299.4927590778
 21
-350.25
 31
0.0
  0
LINE
  5
E2
330
1F
100
AcDbEntity
  8
0
  6
Continuous
 62
     7
370
    25
100
AcDbLine
 10
298.7289603122
 20
-350.25
 30
0.0
 11
298.7298051637
 21
-351.0
 31
0.0
  0
LINE
  5
E3
330
1F
100
AcDbEntity
  8
0
  6
Continuous
 62
     7
370
    25
100
AcDbLine
 10
1.2291490659
 20
-350.25
 30
0.0
 11
1.2299939174
 21
-351.0
 31
0.0
  0
LINE
  5
E4
330
1F
100
AcDbEntity
  8
0
  6
Continuous
 62
     7
370
    25
100
AcDbLine
 10
0.4799943932
 20
-350.25
 30
0.0
 11
0.4799943932
 21
-340.0
 31
0.0
  0
LINE
  5
E5
330
1F
100
AcDbEntity
  8
0
  6
Continuous
 62
     7
370
    25
100
AcDbLine
 10
299.4927590778
 20
-350.25
 30
0.0
 11
299.4927590778
 21
-350.0
 31
0.0
  0
LINE
  5
E6
330
1F
100
AcDbEntity
  8
0
  6
Continuous
 62
     7
370
    25
100
AcDbLine
 10
-299.4936197808
 20
-350.25
 30
0.0
 11
-0.4753505135
 21
-350.25
 31
0.0
  0
LINE
  5
E7
330
1F
100
AcDbEntity
  8
0
  6
Continuous
 62
     7
370
    25
100
AcDbLine
 10
-298.7249577616
 20
-351.0
 30
0.0
 11
-298.723740609
 21
-350.25
 31
0.0
  0
LINE
  5
E8
330
1F
100
AcDbEntity
  8
0
  6
Continuous
 62
     7
370
    25
100
AcDbLine
 10
-300.0
 20
350.0
 30
0.0
 11
300.0
 21
350.0
 31
0.0
  0
LINE
  5
E9
330
1F
100
AcDbEntity
  8
0
  6
Continuous
 62
     7
370
    25
100
AcDbLine
 10
-0.9968528847
 20
-351.0
 30
0.0
 11
-299.0005176374
 21
-351.0
 31
0.0
  0
LINE
  5
EA
330
1F
100
AcDbEntity
  8
0
  6
Continuous
 62
     7
370
    25
100
AcDbLine
 10
-1.2253495258
 20
-351.0
 30
0.0
 11
-1.2241323732
 21
-350.25
 31
0.0
  0
LINE
  5
EB
330
1F
100
AcDbEntity
  8
0
  6
Continuous
 62
     7
370
    25
100
AcDbLine
 10
-0.4753505135
 20
-340.0
 30
0.0
 11
-0.4753505135
 21
-350.25
 31
0.0
  0
LINE
  5
EC
330
1F
100
AcDbEntity
  8
0
  6
Continuous
 62
     7
370
    25
100
AcDbLine
 10
-299.4936197808
 20
-350.0
 30
0.0
 11
-299.4936197808
 21
-350.25
 31
0.0
  0
LINE
  5
ED
330
1F
100
AcDbEntity
  8
0
  6
Continuous
 62
     7
370
    25
100
AcDbLine
 10
-285.0
 20
350.0
 30
0.0
 11
-285.0
 21
-349.0
 31
0.0
  0
LINE
  5
EE
330
1F
100
AcDbEntity
  8
0
  6
Continuous
 62
     7
370
    25
100
AcDbLine
 10
285.0
 20
-349.0
 30
0.0
 11
285.0
 21
350.0
 31
0.0
  0
LINE
  5
EF
330
1F
100
AcDbEntity
  8
0
  6
Continuous
 62
     7
370
    25
100
AcDbLine
 10
-285.0
 20
334.0
 30
0.0
 11
285.0
 21
334.0
 31
0.0
  0
LINE
  5
F0
330
1F
100
AcDbEntity
  8
0
  6
Continuous
 62
     7
370
    25
100
AcDbLine
 10
-285.0
 20
-324.0
 30
0.0
 11
285.0
 21
-324.0
 31
0.0
  0
LINE
  5
F1
330
1F
100
AcDbEntity
  8
0
  6
Continuous
 62
     7
370
    25
100
AcDbLine
 10
-285.0
 20
-340.0
 30
0.0
 11
285.0
 21
-340.0
 31
0.0
  0
LINE
  5
F2
330
1F
100
AcDbEntity
  8
0
  6
Continuous
 62
     7
370
    25
100
AcDbLine
 10
285.0
 20
-349.0
 30
0.0
 11
301.0
 21
-349.0
 31
0.0
  0
LINE
  5
F3
330
1F
100
AcDbEntity
  8
0
  6
Continuous
 62
     7
370
    25
100
AcDbLine
 10
300.0
 20
-350.0
 30
0.0
 11
300.0
 21
350.0
 31
0.0
  0
LINE
  5
F4
330
1F
100
AcDbEntity
  8
0
  6
Continuous
 62
     7
370
    25
100
AcDbLine
 10
300.0
 20
-350.0
 30
0.0
 11
286.0
 21
-350.0
 31
0.0
  0
LINE
  5
F5
330
1F
100
AcDbEntity
  8
0
  6
Continuous
 62
     7
370
    25
100
AcDbLine
 10
286.0
 20
350.0
 30
0.0
 11
286.0
 21
-350.0
 31
0.0
  0
LINE
  5
F6
330
1F
100
AcDbEntity
  8
0
  6
Continuous
 62
     7
370
    25
100
AcDbLine
 10
301.0
 20
349.0
 30
0.0
 11
285.0
 21
349.0
 31
0.0
  0
LINE
  5
F7
330
1F
100
AcDbEntity
  8
0
  6
Continuous
 62
     7
370
    25
100
AcDbLine
 10
301.0
 20
349.0
 30
0.0
 11
301.0
 21
-349.0
 31
0.0
  0
LINE
  5
F8
330
1F
100
AcDbEntity
  8
0
  6
Continuous
 62
     7
370
    25
100
AcDbLine
 10
-286.0
 20
-350.0
 30
0.0
 11
-286.0
 21
350.0
 31
0.0
  0
LINE
  5
F9
330
1F
100
AcDbEntity
  8
0
  6
Continuous
 62
     7
370
    25
100
AcDbLine
 10
-285.0
 20
349.0
 30
0.0
 11
-301.0
 21
349.0
 31
0.0
  0
LINE
  5
FA
330
1F
100
AcDbEntity
  8
0
  6
Continuous
 62
     7
370
    25
100
AcDbLine
 10
-301.0
 20
-349.0
 30
0.0
 11
-285.0
 21
-349.0
 31
0.0
  0
LINE
  5
FB
330
1F
100
AcDbEntity
  8
0
  6
Continuous
 62
     7
370
    25
100
AcDbLine
 10
-286.0
 20
-350.0
 30
0.0
 11
-300.0
 21
-350.0
 31
0.0
  0
LINE
  5
FC
330
1F
100
AcDbEntity
  8
0
  6
Continuous
 62
     7
370
    25
100
AcDbLine
 10
-300.0
 20
350.0
 30
0.0
 11
-300.0
 21
-350.0
 31
0.0
  0
LINE
  5
FD
330
1F
100
AcDbEntity
  8
0
  6
Continuous
 62
     7
370
    25
100
AcDbLine
 10
-301.0
 20
-349.0
 30
0.0
 11
-301.0
 21
349.0
 31
0.0
  0
LINE
  5
FE
330
1F
100
AcDbEntity
  8
0
  6
Continuous
 62
     7
370
    25
100
AcDbLine
 10
299.4947303981
 20
-350.5
 30
0.0
 11
299.4975465698
 21
-350.5
 31
0.0
  0
LINE
  5
FF
330
1F
100
AcDbEntity
  8
0
  6
Continuous
 62
     7
370
    25
100
AcDbLine
 10
299.4975465698
 20
-350.5
 30
0.0
 11
299.4150072902
 21
-350.5825393319
 31
0.0
  0
LINE
  5
100
330
1F
100
AcDbEntity
  8
0
  6
Continuous
 62
     7
370
    25
100
AcDbLine
 10
299.0752986746
 20
-350.9222481631
 30
0.0
 11
298.997546887
 21
-351.0
 31
0.0
  0
LINE
  5
101
330
1F
100
AcDbEntity
  8
0
  6
Continuous
 62
     7
370
    25
100
AcDbLine
 10
298.997546887
 20
-351.0
 30
0.0
 11
0.9949197862
 21
-351.0
 31
0.0
  0
LINE
  5
102
330
1F
100
AcDbEntity
  8
0
  6
Continuous
 62
     7
370
    25
100
AcDbLine
 10
298.9947307153
 20
-351.0
 30
0.0
 11
299.0697813103
 21
-350.9249493574
 31
0.0
  0
LINE
  5
103
330
1F
100
AcDbEntity
  8
0
  6
Continuous
 62
     7
370
    25
100
AcDbLine
 10
299.4177084828
 20
-350.5770219641
 30
0.0
 11
299.4947303981
 21
-350.5
 31
0.0
  0
LINE
  5
104
330
1F
100
AcDbEntity
  8
0
  6
Continuous
 62
     7
370
    25
100
AcDbLine
 10
299.4975465698
 20
-350.5
 30
0.0
 11
299.4975465698
 21
-350.0
 31
0.0
  0
LINE
  5
105
330
1F
100
AcDbEntity
  8
0
  6
Continuous
 62
     7
370
    25
100
AcDbLine
 10
299.4947303981
 20
-350.0
 30
0.0
 11
299.4947303981
 21
-350.5
 31
0.0
  0
LINE
  5
106
330
1F
100
AcDbEntity
  8
0
  6
Continuous
 62
     7
370
    25
100
AcDbLine
 10
0.4949201034
 20
-350.5
 30
0.0
 11
0.5408429588
 21
-350.5459228845
 31
0.0
  0
LINE
  5
107
330
1F
100
AcDbEntity
  8
0
  6
Continuous
 62
     7
370
    25
100
AcDbLine
 10
0.9340712207
 20
-350.9391513959
 30
0.0
 11
0.9949197862
 21
-351.0
 31
0.0
  0
LINE
  5
108
330
1F
100
AcDbEntity
  8
0
  6
Continuous
 62
     7
370
    25
100
AcDbLine
 10
0.4949201034
 20
-350.5
 30
0.0
 11
0.4949201034
 21
-350.3988818402
 31
0.0
  0
LINE
  5
109
330
1F
100
AcDbEntity
  8
0
  6
Continuous
 62
     7
370
    25
100
AcDbLine
 10
-299.4964598036
 20
-350.5
 30
0.0
 11
-299.4964598036
 21
-350.0
 31
0.0
  0
LINE
  5
10A
330
1F
100
AcDbEntity
  8
0
  6
Continuous
 62
     7
370
    25
100
AcDbLine
 10
-299.500516979
 20
-350.5
 30
0.0
 11
-299.4964598036
 21
-350.5
 31
0.0
  0
LINE
  5
10B
330
1F
100
AcDbEntity
  8
0
  6
Continuous
 62
     7
370
    25
100
AcDbLine
 10
-299.500516979
 20
-350.0
 30
0.0
 11
-299.500516979
 21
-350.5
 31
0.0
  0
LINE
  5
10C
330
1F
100
AcDbEntity
  8
0
  6
Continuous
 62
     7
370
    25
100
AcDbLine
 10
-299.4964598036
 20
-350.5
 30
0.0
 11
-299.4177476538
 21
-350.5787122534
 31
0.0
  0
LINE
  5
10D
330
1F
100
AcDbEntity
  8
0
  6
Continuous
 62
     7
370
    25
100
AcDbLine
 10
-299.072332589
 20
-350.9241277731
 30
0.0
 11
-298.996460462
 21
-351.0
 31
0.0
  0
LINE
  5
10E
330
1F
100
AcDbEntity
  8
0
  6
Continuous
 62
     7
370
    25
100
AcDbLine
 10
-0.4968535431
 20
-350.4283036887
 30
0.0
 11
-0.4968535431
 21
-350.5
 31
0.0
  0
LINE
  5
10F
330
1F
100
AcDbEntity
  8
0
  6
Continuous
 62
     7
370
    25
100
AcDbLine
 10
-0.9968528847
 20
-351.0
 30
0.0
 11
-0.9407619621
 21
-350.9439090036
 31
0.0
  0
LINE
  5
110
330
1F
100
AcDbEntity
  8
0
  6
Continuous
 62
     7
370
    25
100
AcDbLine
 10
-0.531441436
 20
-350.5345879384
 30
0.0
 11
-0.4968535431
 21
-350.5
 31
0.0
  0
LINE
  5
111
330
1F
100
AcDbEntity
  8
0
  6
Continuous
 62
     7
370
    25
100
AcDbLine
 10
-299.0005176374
 20
-351.0
 30
0.0
 11
-299.0803670885
 21
-350.9201504438
 31
0.0
  0
LINE
  5
112
330
1F
100
AcDbEntity
  8
0
  6
Continuous
 62
     7
370
    25
100
AcDbLine
 10
-299.4137703297
 20
-350.5867467635
 30
0.0
 11
-299.500516979
 21
-350.5
 31
0.0
  0
LINE
  5
113
330
1F
100
AcDbEntity
  8
0
  6
Continuous
 62
     8
370
    25
100
AcDbLine
 10
298.7289603122
 20
-350.25
 30
0.0
 11
298.7289603122
 21
-350.0
 31
0.0
  0
LINE
  5
114
330
1F
100
AcDbEntity
  8
0
  6
Continuous
 62
     8
370
    25
100
AcDbLine
 10
299.4798046879
 20
-350.0
 30
0.0
 11
299.4798046879
 21
-350.25
 31
0.0
  0
LINE
  5
115
330
1F
100
AcDbEntity
  8
0
  6
Continuous
 62
     8
370
    25
100
AcDbLine
 10
285.0317541634
 20
349.25
 30
0.0
 11
285.0
 21
349.25
 31
0.0
  0
LINE
  5
116
330
1F
100
AcDbEntity
  8
0
  6
Continuous
 62
     8
370
    25
100
AcDbLine
 10
1.2291490659
 20
-340.0
 30
0.0
 11
1.2291490659
 21
-350.25
 31
0.0
  0
LINE
  5
117
330
1F
100
AcDbEntity
  8
0
  6
Continuous
 62
     8
370
    25
100
AcDbLine
 10
-299.4749567739
 20
-350.25
 30
0.0
 11
-299.4749567739
 21
-350.0
 31
0.0
  0
LINE
  5
118
330
1F
100
AcDbEntity
  8
0
  6
Continuous
 62
     8
370
    25
100
AcDbLine
 10
-298.723740609
 20
-350.0
 30
0.0
 11
-298.723740609
 21
-350.25
 31
0.0
  0
LINE
  5
119
330
1F
100
AcDbEntity
  8
0
  6
Continuous
 62
     8
370
    25
100
AcDbLine
 10
-1.2241323732
 20
-350.25
 30
0.0
 11
-1.2241323732
 21
-340.0
 31
0.0
  0
LINE
  5
11A
330
1F
100
AcDbEntity
  8
0
  6
Continuous
 62
     8
370
    25
100
AcDbLine
 10
-285.0
 20
349.25
 30
0.0
 11
-285.0317541634
 21
349.25
 31
0.0
  0
ARC
  5
11B
330
1F
100
AcDbEntity
  8
0
  6
Continuous
 62
     7
370
    25
100
AcDbCircle
 10
298.7298049258
 20
-350.2500002379
 30
0.0
 40
0.7499997620752574
100
AcDbArc
 50
270.0000181761
 51
0.0000181761
  0
ARC
  5
11C
330
1F
100
AcDbEntity
  8
0
  6
Continuous
 62
     7
370
    25
100
AcDbCircle
 10
1.2299941553
 20
-350.2500002379
 30
0.0
 40
0.7499997620753711
100
AcDbArc
 50
179.9999818239
 51
269.9999818239
  0
ARC
  5
11D
330
1F
100
AcDbEntity
  8
0
  6
Continuous
 62
     7
370
    25
100
AcDbCircle
 10
298.7427593158
 20
-350.2500002379
 30
0.0
 40
0.7499997620752574
100
AcDbArc
 50
270.0000181761
 51
0.0000181761
  0
ARC
  5
11E
330
1F
100
AcDbEntity
  8
0
  6
Continuous
 62
     7
370
    25
100
AcDbCircle
 10
-298.7249572678
 20
-350.2500004938
 30
0.0
 40
0.7499995061801235
100
AcDbArc
 50
179.9999622749
 51
269.9999622748
  0
ARC
  5
11F
330
1F
100
AcDbEntity
  8
0
  6
Continuous
 62
     7
370
    25
100
AcDbCircle
 10
-1.2253500197
 20
-350.2500004938
 30
0.0
 40
0.7499995061800098
100
AcDbArc
 50
270.0000377252
 51
0.0000377251
  0
ARC
  5
120
330
1F
100
AcDbEntity
  8
0
  6
Continuous
 62
     7
370
    25
100
AcDbCircle
 10
-298.7436202746
 20
-350.2500004938
 30
0.0
 40
0.7499995061800098
100
AcDbArc
 50
179.9999622749
 51
269.9999622748
  0
ARC
  5
121
330
1F
100
AcDbEntity
  8
0
  6
Continuous
 62
     7
370
    25
100
AcDbCircle
 10
300.0
 20
349.0
 30
0.0
 40
1.000000000000057
100
AcDbArc
 50
0.0
 51
90.0
  0
ARC
  5
122
330
1F
100
AcDbEntity
  8
0
  6
Continuous
 62
     7
370
    25
100
AcDbCircle
 10
286.0
 20
-349.0
 30
0.0
 40
0.9999999999999432
100
AcDbArc
 50
180.0
 51
270.0
  0
ARC
  5
123
330
1F
100
AcDbEntity
  8
0
  6
Continuous
 62
     7
370
    25
100
AcDbCircle
 10
286.0
 20
349.0
 30
0.0
 40
1.0
100
AcDbArc
 50
90.0
 51
180.0
  0
ARC
  5
124
330
1F
100
AcDbEntity
  8
0
  6
Continuous
 62
     7
370
    25
100
AcDbCircle
 10
300.0
 20
-349.0
 30
0.0
 40
1.000000000000057
100
AcDbArc
 50
270.0
 51
360.0
  0
ARC
  5
125
330
1F
100
AcDbEntity
  8
0
  6
Continuous
 62
     7
370
    25
100
AcDbCircle
 10
-286.0
 20
349.0
 30
0.0
 40
0.9999999999999432
100
AcDbArc
 50
360.0
 51
90.0
  0
ARC
  5
126
330
1F
100
AcDbEntity
  8
0
  6
Continuous
 62
     7
370
    25
100
AcDbCircle
 10
-300.0
 20
-349.0
 30
0.0
 40
1.000000000000057
100
AcDbArc
 50
180.0
 51
270.0
  0
ARC
  5
127
330
1F
100
AcDbEntity
  8
0
  6
Continuous
 62
     7
370
    25
100
AcDbCircle
 10
-286.0
 20
-349.0
 30
0.0
 40
1.0
100
AcDbArc
 50
270.0
 51
0.0
  0
ARC
  5
128
330
1F
100
AcDbEntity
  8
0
  6
Continuous
 62
     7
370
    25
100
AcDbCircle
 10
-300.0
 20
349.0
 30
0.0
 40
1.000000000000057
100
AcDbArc
 50
90.0
 51
180.0
  0
LWPOLYLINE
  5
135
330
1B
100
AcDbEntity
 67
     1
  8
0
  6
Continuous
 62
     7
370
    25
100
AcDbPolyline
 90
        3
 70
   128
 43
0.0
 10
-0.4799943932
 20
-350.25
 10
-0.4944054238
 20
-350.3963177415
 10
-0.4949201034
 20
-350.3988818402
  0
LWPOLYLINE
  5
138
330
1B
100
AcDbEntity
 67
     1
  8
0
  6
Continuous
 62
     7
370
    25
100
AcDbPolyline
 90
        3
 70
   128
 43
0.0
 10
-0.4949201034
 20
349.3988818402
 10
-0.4944054238
 20
349.3963177415
 10
-0.4799943932
 20
349.25
  0
LWPOLYLINE
  5
142
330
1B
100
AcDbEntity
 67
     1
  8
0
  6
Continuous
 62
     7
370
    25
100
AcDbPolyline
 90
        3
 70
   128
 43
0.0
 10
0.4968535431
 20
-350.4283036887
 10
0.4897615342
 20
-350.3963177415
 10
0.4753505135
 20
-350.25
  0
LWPOLYLINE
  5
143
330
1B
100
AcDbEntity
 67
     1
  8
0
  6
Continuous
 62
     7
370
    25
100
AcDbPolyline
 90
        3
 70
   128
 43
0.0
 10
0.4753505135
 20
349.25
 10
0.4897615342
 20
349.3963177415
 10
0.4968535431
 20
349.4283036887
  0
LINE
  5
1A3
330
1B
100
AcDbEntity
 67
     1
  8
0
  6
Continuous
 62
     7
370
    25
100
AcDbLine
 10
-0.4799943932
 20
-118.5058988661
 30
0.0
 11
0.4753505135
 21
-118.5058988661
 31
0.0
  0
LINE
  5
1A4
330
1B
100
AcDbEntity
 67
     1
  8
0
  6
Continuous
 62
     7
370
    25
100
AcDbLine
 10
0.4753505135
 20
-119.5058988661
 30
0.0
 11
-0.4799943932
 21
-119.5058988661
 31
0.0
  0
LINE
  5
1A5
330
1B
100
AcDbEntity
 67
     1
  8
0
  6
Continuous
 62
     7
370
    25
100
AcDbLine
 10
0.4753505135
 20
-116.5058988661
 30
0.0
 11
-0.4799943932
 21
-116.5058988661
 31
0.0
  0
LINE
  5
1A6
330
1B
100
AcDbEntity
 67
     1
  8
0
  6
Continuous
 62
     7
370
    25
100
AcDbLine
 10
-0.4799943932
 20
-115.5058988661
 30
0.0
 11
0.4753505135
 21
-115.5058988661
 31
0.0
  0
LINE
  5
1A7
330
1B
100
AcDbEntity
 67
     1
  8
0
  6
Continuous
 62
     7
370
    25
100
AcDbLine
 10
-0.4929487832
 20
-350.25
 30
0.0
 11
-0.4949201034
 21
-350.3043423967
 31
0.0
  0
LINE
  5
1A8
330
1B
100
AcDbEntity
 67
     1
  8
0
  6
Continuous
 62
     7
370
    25
100
AcDbLine
 10
-0.4949201034
 20
349.3043423967
 30
0.0
 11
-0.4929487832
 21
349.25
 31
0.0
  0
LINE
  5
1A9
330
1B
100
AcDbEntity
 67
     1
  8
0
  6
Continuous
 62
     7
370
    25
100
AcDbLine
 10
-0.4929487832
 20
349.25
 30
0.0
 11
-0.4929487832
 21
-350.25
 31
0.0
  0
LINE
  5
1AA
330
1B
100
AcDbEntity
 67
     1
  8
0
  6
Continuous
 62
     7
370
    25
100
AcDbLine
 10
-0.4949201034
 20
-350.25
 30
0.0
 11
-0.4799943932
 21
-350.25
 31
0.0
  0
LINE
  5
1AB
330
1B
100
AcDbEntity
 67
     1
  8
0
  6
Continuous
 62
     7
370
    25
100
AcDbLine
 10
-0.4799943932
 20
349.25
 30
0.0
 11
-0.4949201034
 21
349.25
 31
0.0
  0
LINE
  5
1AC
330
1B
100
AcDbEntity
 67
     1
  8
0
  6
Continuous
 62
     7
370
    25
100
AcDbLine
 10
-0.4799943932
 20
-350.25
 30
0.0
 11
-0.4799943932
 21
349.25
 31
0.0
  0
LINE
  5
1AD
330
1B
100
AcDbEntity
 67
     1
  8
0
  6
Continuous
 62
     7
370
    25
100
AcDbLine
 10
0.4940135203
 20
-350.25
 30
0.0
 11
0.4940135203
 21
349.25
 31
0.0
  0
LINE
  5
1AE
330
1B
100
AcDbEntity
 67
     1
  8
0
  6
Continuous
 62
     7
370
    25
100
AcDbLine
 10
0.4968535431
 20
349.25
 30
0.0
 11
0.4753505135
 21
349.25
 31
0.0
  0
LINE
  5
1AF
330
1B
100
AcDbEntity
 67
     1
  8
0
  6
Continuous
 62
     7
370
    25
100
AcDbLine
 10
0.4753505135
 20
-350.25
 30
0.0
 11
0.4968535431
 21
-350.25
 31
0.0
  0
LINE
  5
1B0
330
1B
100
AcDbEntity
 67
     1
  8
0
  6
Continuous
 62
     7
370
    25
100
AcDbLine
 10
0.4753505135
 20
349.25
 30
0.0
 11
0.4753505135
 21
-350.25
 31
0.0
  0
LINE
  5
1B1
330
1B
100
AcDbEntity
 67
     1
  8
0
  6
Continuous
 62
     7
370
    25
100
AcDbLine
 10
0.4753505135
 20
334.0
 30
0.0
 11
-0.4799943932
 21
334.0
 31
0.0
  0
LINE
  5
1B2
330
1B
100
AcDbEntity
 67
     1
  8
0
  6
Continuous
 62
     7
370
    25
100
AcDbLine
 10
0.4753505135
 20
-340.0
 30
0.0
 11
-0.4799943932
 21
-340.0
 31
0.0
  0
LINE
  5
1B3
330
1B
100
AcDbEntity
 67
     1
  8
0
  6
Continuous
 62
     7
370
    25
100
AcDbLine
 10
0.4753505135
 20
-324.0
 30
0.0
 11
-0.4799943932
 21
-324.0
 31
0.0
  0
LINE
  5
1B4
330
1B
100
AcDbEntity
 67
     1
  8
0
  6
Continuous
 62
     7
370
    25
100
AcDbLine
 10
-300.0
 20
350.0
 30
0.0
 11
-300.0
 21
-350.0
 31
0.0
  0
LINE
  5
1B5
330
1B
100
AcDbEntity
 67
     1
  8
0
  6
Continuous
 62
     7
370
    25
100
AcDbLine
 10
-301.0
 20
-349.0
 30
0.0
 11
-301.0
 21
349.0
 31
0.0
  0
LINE
  5
1B6
330
1B
100
AcDbEntity
 67
     1
  8
0
  6
Continuous
 62
     7
370
    25
100
AcDbLine
 10
-301.0
 20
349.0
 30
0.0
 11
-299.4975465698
 21
349.0
 31
0.0
  0
LINE
  5
1B7
330
1B
100
AcDbEntity
 67
     1
  8
0
  6
Continuous
 62
     7
370
    25
100
AcDbLine
 10
-301.0
 20
-349.0
 30
0.0
 11
-299.4975465698
 21
-349.0
 31
0.0
  0
LINE
  5
1B8
330
1B
100
AcDbEntity
 67
     1
  8
0
  6
Continuous
 62
     7
370
    25
100
AcDbLine
 10
-299.4975465698
 20
-350.0
 30
0.0
 11
-300.0
 21
-350.0
 31
0.0
  0
LINE
  5
1B9
330
1B
100
AcDbEntity
 67
     1
  8
0
  6
Continuous
 62
     7
370
    25
100
AcDbLine
 10
299.500516979
 20
349.0
 30
0.0
 11
301.0
 21
349.0
 31
0.0
  0
LINE
  5
1BA
330
1B
100
AcDbEntity
 67
     1
  8
0
  6
Continuous
 62
     7
370
    25
100
AcDbLine
 10
300.0
 20
-350.0
 30
0.0
 11
300.0
 21
350.0
 31
0.0
  0
LINE
  5
1BB
330
1B
100
AcDbEntity
 67
     1
  8
0
  6
Continuous
 62
     7
370
    25
100
AcDbLine
 10
-300.0
 20
350.0
 30
0.0
 11
300.0
 21
350.0
 31
0.0
  0
LINE
  5
1BC
330
1B
100
AcDbEntity
 67
     1
  8
0
  6
Continuous
 62
     7
370
    25
100
AcDbLine
 10
300.0
 20
-350.0
 30
0.0
 11
299.500516979
 21
-350.0
 31
0.0
  0
LINE
  5
1BD
330
1B
100
AcDbEntity
 67
     1
  8
0
  6
Continuous
 62
     7
370
    25
100
AcDbLine
 10
299.500516979
 20
-349.0
 30
0.0
 11
301.0
 21
-349.0
 31
0.0
  0
LINE
  5
1BE
330
1B
100
AcDbEntity
 67
     1
  8
0
  6
Continuous
 62
     7
370
    25
100
AcDbLine
 10
301.0
 20
349.0
 30
0.0
 11
301.0
 21
-349.0
 31
0.0
  0
LINE
  5
1BF
330
1B
100
AcDbEntity
 67
     1
  8
0
  6
Continuous
 62
     7
370
    25
100
AcDbLine
 10
0.4753505135
 20
118.4941011339
 30
0.0
 11
-0.4799943932
 21
118.4941011339
 31
0.0
  0
LINE
  5
1C0
330
1B
100
AcDbEntity
 67
     1
  8
0
  6
Continuous
 62
     7
370
    25
100
AcDbLine
 10
-0.4799943932
 20
116.4941011339
 30
0.0
 11
0.4753505135
 21
116.4941011339
 31
0.0
  0
LINE
  5
1C1
330
1B
100
AcDbEntity
 67
     1
  8
0
  6
Continuous
 62
     7
370
    25
100
AcDbLine
 10
-0.4799943932
 20
119.4941011339
 30
0.0
 11
0.4753505135
 21
119.4941011339
 31
0.0
  0
LINE
  5
1C2
330
1B
100
AcDbEntity
 67
     1
  8
0
  6
Continuous
 62
     7
370
    25
100
AcDbLine
 10
0.4753505135
 20
115.4941011339
 30
0.0
 11
-0.4799943932
 21
115.4941011339
 31
0.0
  0
LINE
  5
1C3
330
1B
100
AcDbEntity
 67
     1
  8
0
  6
Continuous
 62
     7
370
    25
100
AcDbLine
 10
-0.4949201034
 20
349.5
 30
0.0
 11
-299.4975465698
 21
349.5
 31
0.0
  0
LINE
  5
1C4
330
1B
100
AcDbEntity
 67
     1
  8
0
  6
Continuous
 62
     7
370
    25
100
AcDbLine
 10
-0.9977359579
 20
350.0
 30
0.0
 11
-0.9982991923
 21
349.5
 31
0.0
  0
LINE
  5
1C5
330
1B
100
AcDbEntity
 67
     1
  8
0
  6
Continuous
 62
     7
370
    25
100
AcDbLine
 10
-0.4977362751
 20
349.5
 30
0.0
 11
-0.9977359579
 21
350.0
 31
0.0
  0
LINE
  5
1C6
330
1B
100
AcDbEntity
 67
     1
  8
0
  6
Continuous
 62
     7
370
    25
100
AcDbLine
 10
-0.4977362751
 20
349.5
 30
0.0
 11
-0.4977362751
 21
-350.5
 31
0.0
  0
LINE
  5
1C7
330
1B
100
AcDbEntity
 67
     1
  8
0
  6
Continuous
 62
     7
370
    25
100
AcDbLine
 10
-299.4975465698
 20
-350.5
 30
0.0
 11
-0.4949201034
 21
-350.5
 31
0.0
  0
LINE
  5
1C8
330
1B
100
AcDbEntity
 67
     1
  8
0
  6
Continuous
 62
     7
370
    25
100
AcDbLine
 10
-0.9982991923
 20
-350.5
 30
0.0
 11
-0.9982991923
 21
349.5
 31
0.0
  0
LINE
  5
1C9
330
1B
100
AcDbEntity
 67
     1
  8
0
  6
Continuous
 62
     7
370
    25
100
AcDbLine
 10
-298.9981101214
 20
349.5
 30
0.0
 11
-298.9981101214
 21
-350.5
 31
0.0
  0
LINE
  5
1CA
330
1B
100
AcDbEntity
 67
     1
  8
0
  6
Continuous
 62
     7
370
    25
100
AcDbLine
 10
-0.9977359579
 20
-351.0
 30
0.0
 11
-0.9982991923
 21
-350.5
 31
0.0
  0
LINE
  5
1CB
330
1B
100
AcDbEntity
 67
     1
  8
0
  6
Continuous
 62
     7
370
    25
100
AcDbLine
 10
-0.9977359579
 20
-351.0
 30
0.0
 11
-0.4977362751
 21
-350.5
 31
0.0
  0
LINE
  5
1CC
330
1B
100
AcDbEntity
 67
     1
  8
0
  6
Continuous
 62
     7
370
    25
100
AcDbLine
 10
-0.9949197862
 20
-351.0
 30
0.0
 11
-298.997546887
 21
-351.0
 31
0.0
  0
LINE
  5
1CD
330
1B
100
AcDbEntity
 67
     1
  8
0
  6
Continuous
 62
     7
370
    25
100
AcDbLine
 10
-298.9981101214
 20
-350.5
 30
0.0
 11
-298.997546887
 21
-351.0
 31
0.0
  0
LINE
  5
1CE
330
1B
100
AcDbEntity
 67
     1
  8
0
  6
Continuous
 62
     7
370
    25
100
AcDbLine
 10
-298.9981101214
 20
349.5
 30
0.0
 11
-298.997546887
 21
350.0
 31
0.0
  0
LINE
  5
1CF
330
1B
100
AcDbEntity
 67
     1
  8
0
  6
Continuous
 62
     7
370
    25
100
AcDbLine
 10
-298.997546887
 20
350.0
 30
0.0
 11
-299.4975465698
 21
349.5
 31
0.0
  0
LINE
  5
1D0
330
1B
100
AcDbEntity
 67
     1
  8
0
  6
Continuous
 62
     7
370
    25
100
AcDbLine
 10
-299.4975465698
 20
-350.5
 30
0.0
 11
-299.4975465698
 21
349.5
 31
0.0
  0
LINE
  5
1D1
330
1B
100
AcDbEntity
 67
     1
  8
0
  6
Continuous
 62
     7
370
    25
100
AcDbLine
 10
-299.4975465698
 20
-350.5
 30
0.0
 11
-298.997546887
 21
-351.0
 31
0.0
  0
LINE
  5
1D2
330
1B
100
AcDbEntity
 67
     1
  8
0
  6
Continuous
 62
     7
370
    25
100
AcDbLine
 10
-0.4949201034
 20
-350.5
 30
0.0
 11
-0.4949201034
 21
349.5
 31
0.0
  0
LINE
  5
1D3
330
1B
100
AcDbEntity
 67
     1
  8
0
  6
Continuous
 62
     7
370
    25
100
AcDbLine
 10
-0.4949201034
 20
-350.5
 30
0.0
 11
-0.9949197862
 21
-351.0
 31
0.0
  0
LINE
  5
1D4
330
1B
100
AcDbEntity
 67
     1
  8
0
  6
Continuous
 62
     7
370
    25
100
AcDbLine
 10
-0.9949197862
 20
350.0
 30
0.0
 11
-0.4949201034
 21
349.5
 31
0.0
  0
LINE
  5
1D5
330
1B
100
AcDbEntity
 67
     1
  8
0
  6
Continuous
 62
     7
370
    25
100
AcDbLine
 10
1.0017214952
 20
-350.5
 30
0.0
 11
1.0009100601
 21
-351.0
 31
0.0
  0
LINE
  5
1D6
330
1B
100
AcDbEntity
 67
     1
  8
0
  6
Continuous
 62
     7
370
    25
100
AcDbLine
 10
0.5009107185
 20
-350.5
 30
0.0
 11
1.0009100601
 21
-351.0
 31
0.0
  0
LINE
  5
1D7
330
1B
100
AcDbEntity
 67
     1
  8
0
  6
Continuous
 62
     7
370
    25
100
AcDbLine
 10
0.4968535431
 20
-350.5
 30
0.0
 11
299.500516979
 21
-350.5
 31
0.0
  0
LINE
  5
1D8
330
1B
100
AcDbEntity
 67
     1
  8
0
  6
Continuous
 62
     7
370
    25
100
AcDbLine
 10
299.0005176374
 20
-351.0
 30
0.0
 11
299.0013290725
 21
-350.5
 31
0.0
  0
LINE
  5
1D9
330
1B
100
AcDbEntity
 67
     1
  8
0
  6
Continuous
 62
     7
370
    25
100
AcDbLine
 10
299.0005176374
 20
-351.0
 30
0.0
 11
0.9968528847
 21
-351.0
 31
0.0
  0
LINE
  5
1DA
330
1B
100
AcDbEntity
 67
     1
  8
0
  6
Continuous
 62
     7
370
    25
100
AcDbLine
 10
299.500516979
 20
349.5
 30
0.0
 11
0.4968535431
 21
349.5
 31
0.0
  0
LINE
  5
1DB
330
1B
100
AcDbEntity
 67
     1
  8
0
  6
Continuous
 62
     7
370
    25
100
AcDbLine
 10
299.0013290725
 20
-350.5
 30
0.0
 11
299.0013290725
 21
349.5
 31
0.0
  0
LINE
  5
1DC
330
1B
100
AcDbEntity
 67
     1
  8
0
  6
Continuous
 62
     7
370
    25
100
AcDbLine
 10
1.0017214952
 20
349.5
 30
0.0
 11
1.0017214952
 21
-350.5
 31
0.0
  0
LINE
  5
1DD
330
1B
100
AcDbEntity
 67
     1
  8
0
  6
Continuous
 62
     7
370
    25
100
AcDbLine
 10
0.5009107185
 20
-350.5
 30
0.0
 11
0.5009107185
 21
349.5
 31
0.0
  0
LINE
  5
1DE
330
1B
100
AcDbEntity
 67
     1
  8
0
  6
Continuous
 62
     7
370
    25
100
AcDbLine
 10
1.0017214952
 20
349.5
 30
0.0
 11
1.0009100601
 21
350.0
 31
0.0
  0
LINE
  5
1DF
330
1B
100
AcDbEntity
 67
     1
  8
0
  6
Continuous
 62
     7
370
    25
100
AcDbLine
 10
299.0005176374
 20
350.0
 30
0.0
 11
299.0013290725
 21
349.5
 31
0.0
  0
LINE
  5
1E0
330
1B
100
AcDbEntity
 67
     1
  8
0
  6
Continuous
 62
     7
370
    25
100
AcDbLine
 10
1.0009100601
 20
350.0
 30
0.0
 11
0.5009107185
 21
349.5
 31
0.0
  0
LINE
  5
1E1
330
1B
100
AcDbEntity
 67
     1
  8
0
  6
Continuous
 62
     7
370
    25
100
AcDbLine
 10
299.0005176374
 20
-351.0
 30
0.0
 11
299.500516979
 21
-350.5
 31
0.0
  0
LINE
  5
1E2
330
1B
100
AcDbEntity
 67
     1
  8
0
  6
Continuous
 62
     7
370
    25
100
AcDbLine
 10
299.500516979
 20
349.5
 30
0.0
 11
299.500516979
 21
-350.5
 31
0.0
  0
LINE
  5
1E3
330
1B
100
AcDbEntity
 67
     1
  8
0
  6
Continuous
 62
     7
370
    25
100
AcDbLine
 10
299.500516979
 20
349.5
 30
0.0
 11
299.0005176374
 21
350.0
 31
0.0
  0
LINE
  5
1E4
330
1B
100
AcDbEntity
 67
     1
  8
0
  6
Continuous
 62
     7
370
    25
100
AcDbLine
 10
0.9968528847
 20
-351.0
 30
0.0
 11
0.4968535431
 21
-350.5
 31
0.0
  0
LINE
  5
1E5
330
1B
100
AcDbEntity
 67
     1
  8
0
  6
Continuous
 62
     7
370
    25
100
AcDbLine
 10
0.4968535431
 20
349.5
 30
0.0
 11
0.4968535431
 21
-350.5
 31
0.0
  0
LINE
  5
1E6
330
1B
100
AcDbEntity
 67
     1
  8
0
  6
Continuous
 62
     7
370
    25
100
AcDbLine
 10
0.4968535431
 20
349.5
 30
0.0
 11
0.9968528847
 21
350.0
 31
0.0
  0
LINE
  5
1E7
330
1B
100
AcDbEntity
 67
     1
  8
0
  6
Continuous
 62
     8
370
    25
100
AcDbLine
 10
0.4968535431
 20
-350.3152071624
 30
0.0
 11
0.4940135203
 21
-350.25
 31
0.0
  0
LINE
  5
1E8
330
1B
100
AcDbEntity
 67
     1
  8
0
  6
Continuous
 62
     8
370
    25
100
AcDbLine
 10
0.4940135203
 20
349.25
 30
0.0
 11
0.4968535431
 21
349.3152071624
 31
0.0
  0
ARC
  5
1E9
330
1B
100
AcDbEntity
 67
     1
  8
0
  6
Continuous
 62
     7
370
    25
100
AcDbCircle
 10
-1.242948624
 20
-350.2500003166
 30
0.0
 40
0.7499997620760309
100
AcDbArc
 50
295.2118097478
 51
334.7882266044
  0
ARC
  5
1EA
330
1B
100
AcDbEntity
 67
     1
  8
0
  6
Continuous
 62
     7
370
    25
100
AcDbCircle
 10
-1.242948624
 20
349.2500003166
 30
0.0
 40
0.7499997620765738
100
AcDbArc
 50
25.2117733956
 51
64.7881902522
  0
ARC
  5
1EB
330
1B
100
AcDbEntity
 67
     1
  8
0
  6
Continuous
 62
     7
370
    25
100
AcDbCircle
 10
-298.7427592349
 20
-350.2500003188
 30
0.0
 40
0.7499997620758918
100
AcDbArc
 50
206.3200891679
 51
243.6798744799
  0
ARC
  5
1EC
330
1B
100
AcDbEntity
 67
     1
  8
0
  6
Continuous
 62
     7
370
    25
100
AcDbCircle
 10
-298.7427592349
 20
349.2500003187
 30
0.0
 40
0.7499997620749276
100
AcDbArc
 50
116.32012552
 51
153.6799108322
  0
ARC
  5
1ED
330
1B
100
AcDbEntity
 67
     1
  8
0
  6
Continuous
 62
     7
370
    25
100
AcDbCircle
 10
-1.2299942299
 20
-350.2500003125
 30
0.0
 40
0.7499997620750488
100
AcDbArc
 50
293.2387932088
 51
336.7612431434
  0
ARC
  5
1EE
330
1B
100
AcDbEntity
 67
     1
  8
0
  6
Continuous
 62
     7
370
    25
100
AcDbCircle
 10
-1.2299942299
 20
349.2500003125
 30
0.0
 40
0.7499997620761235
100
AcDbArc
 50
23.2387568566
 51
66.7612067911
  0
ARC
  5
1EF
330
1B
100
AcDbEntity
 67
     1
  8
0
  6
Continuous
 62
     7
370
    25
100
AcDbCircle
 10
298.7436201055
 20
-350.250000663
 30
0.0
 40
0.7499995061796745
100
AcDbArc
 50
296.6793040872
 51
333.3207713631
  0
ARC
  5
1F0
330
1B
100
AcDbEntity
 67
     1
  8
0
  6
Continuous
 62
     7
370
    25
100
AcDbCircle
 10
298.7436201055
 20
349.250000663
 30
0.0
 40
0.749999506181966
100
AcDbArc
 50
26.6792286371
 51
63.3206959127
  0
ARC
  5
1F1
330
1B
100
AcDbEntity
 67
     1
  8
0
  6
Continuous
 62
     7
370
    25
100
AcDbCircle
 10
1.2253501701
 20
-350.2500006443
 30
0.0
 40
0.7499995061782201
100
AcDbArc
 50
202.2996170345
 51
247.7003075153
  0
ARC
  5
1F2
330
1B
100
AcDbEntity
 67
     1
  8
0
  6
Continuous
 62
     7
370
    25
100
AcDbCircle
 10
1.2253501701
 20
349.2500006443
 30
0.0
 40
0.7499995061846352
100
AcDbArc
 50
112.299692485
 51
157.7003829653
  0
ARC
  5
1F3
330
1B
100
AcDbEntity
 67
     1
  8
0
  6
Continuous
 62
     7
370
    25
100
AcDbCircle
 10
-300.0
 20
349.0
 30
0.0
 40
1.000000000000057
100
AcDbArc
 50
90.0
 51
180.0
  0
ARC
  5
1F4
330
1B
100
AcDbEntity
 67
     1
  8
0
  6
Continuous
 62
     7
370
    25
100
AcDbCircle
 10
-300.0
 20
-349.0
 30
0.0
 40
1.000000000000057
100
AcDbArc
 50
180.0
 51
270.0
  0
ARC
  5
1F5
330
1B
100
AcDbEntity
 67
     1
  8
0
  6
Continuous
 62
     7
370
    25
100
AcDbCircle
 10
300.0
 20
349.0
 30
0.0
 40
1.000000000000057
100
AcDbArc
 50
0.0
 51
90.0
  0
ARC
  5
1F6
330
1B
100
AcDbEntity
 67
     1
  8
0
  6
Continuous
 62
     7
370
    25
100
AcDbCircle
 10
300.0
 20
-349.0
 30
0.0
 40
1.000000000000057
100
AcDbArc
 50
270.0
 51
360.0
  0
ARC
  5
1F7
330
1B
100
AcDbEntity
 67
     1
  8
0
  6
Continuous
 62
     8
370
    25
100
AcDbCircle
 10
1.2440131892
 20
-350.2500006566
 30
0.0
 40
0.7499995061809505
100
AcDbArc
 50
205.0736038559
 51
244.9263206938
  0
ARC
  5
1F8
330
1B
100
AcDbEntity
 67
     1
  8
0
  6
Continuous
 62
     8
370
    25
100
AcDbCircle
 10
1.2440131892
 20
349.2500006566
 30
0.0
 40
0.749999506179756
100
AcDbArc
 50
115.0736793062
 51
154.9263961441
  0
VIEWPORT
  5
673
330
1B
100
AcDbEntity
 67
     1
  8
0
100
AcDbViewport
 10
0.0
 20
0.0
 30
0.0
 40
205.6
 41
156.0
 68
     1
 69
     1
 12
0.0
 22
-0.5
 13
0.0
 23
0.0
 14
10.0
 24
10.0
 15
10.0
 25
10.0
 16
0.0
 26
0.0
 36
1.0
 17
0.0
 27
0.0
 37
0.0
 42
50.0
 43
0.0
 44
0.0
 45
715.02
 50
0.0
 51
0.0
 72
   100
 90
   557152
  1

281
     0
 71
     1
 74
     0
110
0.0
120
0.0
130
0.0
111
1.0
121
0.0
131
0.0
112
0.0
122
1.0
132
0.0
 79
     0
146
0.0
  0
ENDSEC
  0
SECTION
  2
OBJECTS
  0
DICTIONARY
  5
C
330
0
100
AcDbDictionary
281
     1
  3
ACAD_GROUP
350
D
  3
ACAD_LAYOUT
350
1A
  3
ACAD_MLINESTYLE
350
17
  3
ACAD_PLOTSETTINGS
350
19
  3
ACAD_PLOTSTYLENAME
350
E
  3
ACAD_SCALELIST
350
47
  0
DICTIONARY
  5
D
102
{ACAD_REACTORS
330
C
102
}
330
C
100
AcDbDictionary
281
     1
  0
DICTIONARY
  5
1A
102
{ACAD_REACTORS
330
C
102
}
330
C
100
AcDbDictionary
281
     1
  3
_Back
350
1E
  3
_Bottom
350
41D
  3
_Isometric
350
4F2
  3
_Left
350
26
  3
_Top
350
348
  3
Model
350
22
  0
DICTIONARY
  5
17
102
{ACAD_REACTORS
330
C
102
}
330
C
100
AcDbDictionary
281
     1
  3
Standard
350
18
  0
DICTIONARY
  5
19
102
{ACAD_REACTORS
330
C
102
}
330
C
100
AcDbDictionary
281
     1
  0
ACDBDICTIONARYWDFLT
  5
E
102
{ACAD_REACTORS
330
C
102
}
330
C
100
AcDbDictionary
281
     1
  3
Normal
350
F
100
AcDbDictionaryWithDefault
340
F
  0
DICTIONARY
  5
47
102
{ACAD_REACTORS
330
C
102
}
330
C
100
AcDbDictionary
281
     1
  3
A0
350
48
  3
A1
350
49
  3
A2
350
4A
  3
A3
350
4B
  3
A4
350
4C
  3
A5
350
4D
  3
A6
350
4E
  3
A7
350
4F
  3
A8
350
50
  3
A9
350
51
  3
B0
350
52
  3
B1
350
53
  3
B2
350
54
  3
B3
350
55
  3
B4
350
56
  3
B5
350
57
  3
B6
350
58
  3
B7
350
59
  3
B8
350
5A
  3
B9
350
5B
  3
C0
350
5C
  3
C1
350
5D
  3
C2
350
5E
  3
C3
350
5F
  3
C4
350
60
  3
C5
350
61
  3
C6
350
62
  3
C7
350
63
  3
C8
350
64
  3
C9
350
65
  3
D0
350
66
  3
D1
350
67
  3
D2
350
68
  0
LAYOUT
  5
1E
102
{ACAD_REACTORS
330
1A
102
}
330
1A
100
AcDbPlotSettings
  1

  2
none_device
  4
ISO_A4_(210.00_x_297.00_MM)
  6

 40
7.5
 41
20.0
 42
7.5
 43
20.0
 44
210.0
 45
297.0
 46
0.0
 47
0.0
 48
0.0
 49
0.0
140
0.0
141
0.0
142
1.0
143
3.5948717949
 70
   688
 72
     1
 73
     1
 74
     1
  7

 75
     0
147
0.2781740371
148
301.0
149
351.0
100
AcDbLayout
  1
_Back
 70
     1
 71
     1
 10
-372.8974358974
 20
-377.9615384615
 11
694.7794871795
 21
376.9615384615
 12
0.0
 22
0.0
 32
0.0
 14
-301.0
 24
-351.0
 34
0.0
 15
301.0
 25
350.0
 35
0.0
146
0.0
 13
0.0
 23
0.0
 33
0.0
 16
1.0
 26
0.0
 36
0.0
 17
0.0
 27
1.0
 37
0.0
 76
     0
330
1B
331
673
  0
LAYOUT
  5
41D
102
{ACAD_REACTORS
330
1A
102
}
330
1A
100
AcDbPlotSettings
  1

  2
none_device
  4
ISO_A4_(210.00_x_297.00_MM)
  6

 40
7.5
 41
20.0
 42
7.5
 43
20.0
 44
210.0
 45
297.0
 46
0.0
 47
0.0
 48
0.0
 49
0.0
140
0.0
141
0.0
142
1.0
143
3.5948717949
 70
   688
 72
     1
 73
     1
 74
     1
  7

 75
     0
147
0.2781740371
148
301.0
149
351.0
100
AcDbLayout
  1
_Bottom
 70
     1
 71
     4
 10
0.0
 20
0.0
 11
0.0
 21
0.0
 12
0.0
 22
0.0
 32
0.0
 14
0.0
 24
0.0
 34
0.0
 15
0.0
 25
0.0
 35
0.0
146
0.0
 13
0.0
 23
0.0
 33
0.0
 16
1.0
 26
0.0
 36
0.0
 17
0.0
 27
1.0
 37
0.0
 76
     0
330
41C
331
679
  0
LAYOUT
  5
4F2
102
{ACAD_REACTORS
330
1A
102
}
330
1A
100
AcDbPlotSettings
  1

  2
none_device
  4
ISO_A4_(210.00_x_297.00_MM)
  6

 40
7.5
 41
20.0
 42
7.5
 43
20.0
 44
210.0
 45
297.0
 46
0.0
 47
0.0
 48
0.0
 49
0.0
140
0.0
141
0.0
142
1.0
143
3.5948717949
 70
   688
 72
     1
 73
     1
 74
     1
  7

 75
     0
147
0.2781740371
148
301.0
149
351.0
100
AcDbLayout
  1
_Isometric
 70
     1
 71
     5
 10
0.0
 20
0.0
 11
0.0
 21
0.0
 12
0.0
 22
0.0
 32
0.0
 14
0.0
 24
0.0
 34
0.0
 15
0.0
 25
0.0
 35
0.0
146
0.0
 13
0.0
 23
0.0
 33
0.0
 16
1.0
 26
0.0
 36
0.0
 17
0.0
 27
1.0
 37
0.0
 76
     0
330
4F1
331
67B
  0
LAYOUT
  5
26
102
{ACAD_REACTORS
330
1A
102
}
330
1A
100
AcDbPlotSettings
  1

  2
none_device
  4
ISO_A4_(210.00_x_297.00_MM)
  6

 40
7.5
 41
20.0
 42
7.5
 43
20.0
 44
210.0
 45
297.0
 46
0.0
 47
0.0
 48
0.0
 49
0.0
140
0.0
141
0.0
142
1.0
143
3.5948717949
 70
   688
 72
     1
 73
     1
 74
     1
  7

 75
     0
147
0.2781740371
148
301.0
149
351.0
100
AcDbLayout
  1
_Left
 70
     1
 71
     2
 10
0.0
 20
0.0
 11
0.0
 21
0.0
 12
0.0
 22
0.0
 32
0.0
 14
0.0
 24
0.0
 34
0.0
 15
0.0
 25
0.0
 35
0.0
146
0.0
 13
0.0
 23
0.0
 33
0.0
 16
1.0
 26
0.0
 36
0.0
 17
0.0
 27
1.0
 37
0.0
 76
     0
330
23
331
675
  0
LAYOUT
  5
348
102
{ACAD_REACTORS
330
1A
102
}
330
1A
100
AcDbPlotSettings
  1

  2
none_device
  4
ISO_A4_(210.00_x_297.00_MM)
  6

 40
7.5
 41
20.0
 42
7.5
 43
20.0
 44
210.0
 45
297.0
 46
0.0
 47
0.0
 48
0.0
 49
0.0
140
0.0
141
0.0
142
1.0
143
3.5948717949
 70
   688
 72
     1
 73
     1
 74
     1
  7

 75
     0
147
0.2781740371
148
301.0
149
351.0
100
AcDbLayout
  1
_Top
 70
     1
 71
     3
 10
0.0
 20
0.0
 11
0.0
 21
0.0
 12
0.0
 22
0.0
 32
0.0
 14
0.0
 24
0.0
 34
0.0
 15
0.0
 25
0.0
 35
0.0
146
0.0
 13
0.0
 23
0.0
 33
0.0
 16
1.0
 26
0.0
 36
0.0
 17
0.0
 27
1.0
 37
0.0
 76
     0
330
347
331
677
  0
LAYOUT
  5
22
102
{ACAD_REACTORS
330
1A
102
}
330
1A
100
AcDbPlotSettings
  1

  2
none_device
  4
ANSI_A_(11.00_x_8.50_Inches)
  6

 40
6.35
 41
19.05
 42
6.35000508
 43
19.05000254
 44
279.4
 45
215.9
 46
133.34999746
 47
89.0524530809
 48
0.0
 49
0.0
140
0.0
141
0.0
142
0.0120042796
143
1.0
 70
  1696
 72
     0
 73
     0
 74
     0
  7

 75
     0
147
0.0179189148
148
-1300.4909072572
149
0.0
100
AcDbLayout
  1
Model
 70
     1
 71
     0
 10
0.0
 20
0.0
 11
420.0
 21
297.0
 12
0.0
 22
0.0
 32
0.0
 14
-301.0
 24
-351.0
 34
0.0
 15
301.0
 25
350.0
 35
0.0
146
0.0
 13
0.0
 23
0.0
 33
0.0
 16
1.0
 26
0.0
 36
0.0
 17
0.0
 27
1.0
 37
0.0
 76
     0
330
1F
331
29
  0
MLINESTYLE
  5
18
102
{ACAD_REACTORS
330
17
102
}
330
17
100
AcDbMlineStyle
  2
Standard
 70
     0
  3

 62
   256
 51
90.0
 52
90.0
 71
     2
 49
0.5
 62
   256
  6
BYLAYER
 49
-0.5
 62
   256
  6
BYLAYER
  0
ACDBPLACEHOLDER
  5
F
102
{ACAD_REACTORS
330
E
102
}
330
E
  0
SCALE
  5
48
102
{ACAD_REACTORS
330
47
102
}
330
47
100
AcDbScale
 70
     0
300
1:1
140
1.0
141
1.0
290
     1
  0
SCALE
  5
49
102
{ACAD_REACTORS
330
47
102
}
330
47
100
AcDbScale
 70
     0
300
1:2
140
1.0
141
2.0
290
     0
  0
SCALE
  5
4A
102
{ACAD_REACTORS
330
47
102
}
330
47
100
AcDbScale
 70
     0
300
1:4
140
1.0
141
4.0
290
     0
  0
SCALE
  5
4B
102
{ACAD_REACTORS
330
47
102
}
330
47
100
AcDbScale
 70
     0
300
1:5
140
1.0
141
5.0
290
     0
  0
SCALE
  5
4C
102
{ACAD_REACTORS
330
47
102
}
330
47
100
AcDbScale
 70
     0
300
1:8
140
1.0
141
8.0
290
     0
  0
SCALE
  5
4D
102
{ACAD_REACTORS
330
47
102
}
330
47
100
AcDbScale
 70
     0
300
1:10
140
1.0
141
10.0
290
     0
  0
SCALE
  5
4E
102
{ACAD_REACTORS
330
47
102
}
330
47
100
AcDbScale
 70
     0
300
1:16
140
1.0
141
16.0
290
     0
  0
SCALE
  5
4F
102
{ACAD_REACTORS
330
47
102
}
330
47
100
AcDbScale
 70
     0
300
1:20
140
1.0
141
20.0
290
     0
  0
SCALE
  5
50
102
{ACAD_REACTORS
330
47
102
}
330
47
100
AcDbScale
 70
     0
300
1:30
140
1.0
141
30.0
290
     0
  0
SCALE
  5
51
102
{ACAD_REACTORS
330
47
102
}
330
47
100
AcDbScale
 70
     0
300
1:40
140
1.0
141
40.0
290
     0
  0
SCALE
  5
52
102
{ACAD_REACTORS
330
47
102
}
330
47
100
AcDbScale
 70
     0
300
1:50
140
1.0
141
50.0
290
     0
  0
SCALE
  5
53
102
{ACAD_REACTORS
330
47
102
}
330
47
100
AcDbScale
 70
     0
300
1:100
140
1.0
141
100.0
290
     0
  0
SCALE
  5
54
102
{ACAD_REACTORS
330
47
102
}
330
47
100
AcDbScale
 70
     0
300
2:1
140
2.0
141
1.0
290
     0
  0
SCALE
  5
55
102
{ACAD_REACTORS
330
47
102
}
330
47
100
AcDbScale
 70
     0
300
4:1
140
4.0
141
1.0
290
     0
  0
SCALE
  5
56
102
{ACAD_REACTORS
330
47
102
}
330
47
100
AcDbScale
 70
     0
300
8:1
140
8.0
141
1.0
290
     0
  0
SCALE
  5
57
102
{ACAD_REACTORS
330
47
102
}
330
47
100
AcDbScale
 70
     0
300
10:1
140
10.0
141
1.0
290
     0
  0
SCALE
  5
58
102
{ACAD_REACTORS
330
47
102
}
330
47
100
AcDbScale
 70
     0
300
100:1
140
100.0
141
1.0
290
     0
  0
SCALE
  5
59
102
{ACAD_REACTORS
330
47
102
}
330
47
100
AcDbScale
 70
     0
300
1/128" = 1'-0"
140
0.0078125
141
12.0
290
     0
  0
SCALE
  5
5A
102
{ACAD_REACTORS
330
47
102
}
330
47
100
AcDbScale
 70
     0
300
1/64" = 1'-0"
140
0.015625
141
12.0
290
     0
  0
SCALE
  5
5B
102
{ACAD_REACTORS
330
47
102
}
330
47
100
AcDbScale
 70
     0
300
1/32" = 1'-0"
140
0.03125
141
12.0
290
     0
  0
SCALE
  5
5C
102
{ACAD_REACTORS
330
47
102
}
330
47
100
AcDbScale
 70
     0
300
1/16" = 1'-0"
140
0.0625
141
12.0
290
     0
  0
SCALE
  5
5D
102
{ACAD_REACTORS
330
47
102
}
330
47
100
AcDbScale
 70
     0
300
3/32" = 1'-0"
140
0.09375
141
12.0
290
     0
  0
SCALE
  5
5E
102
{ACAD_REACTORS
330
47
102
}
330
47
100
AcDbScale
 70
     0
300
1/8" = 1'-0"
140
0.125
141
12.0
290
     0
  0
SCALE
  5
5F
102
{ACAD_REACTORS
330
47
102
}
330
47
100
AcDbScale
 70
     0
300
3/16" = 1'-0"
140
0.1875
141
12.0
290
     0
  0
SCALE
  5
60
102
{ACAD_REACTORS
330
47
102
}
330
47
100
AcDbScale
 70
     0
300
1/4" = 1'-0"
140
0.25
141
12.0
290
     0
  0
SCALE
  5
61
102
{ACAD_REACTORS
330
47
102
}
330
47
100
AcDbScale
 70
     0
300
3/8" = 1'-0"
140
0.375
141
12.0
290
     0
  0
SCALE
  5
62
102
{ACAD_REACTORS
330
47
102
}
330
47
100
AcDbScale
 70
     0
300
1/2" = 1'-0"
140
0.5
141
12.0
290
     0
  0
SCALE
  5
63
102
{ACAD_REACTORS
330
47
102
}
330
47
100
AcDbScale
 70
     0
300
3/4" = 1'-0"
140
0.75
141
12.0
290
     0
  0
SCALE
  5
64
102
{ACAD_REACTORS
330
47
102
}
330
47
100
AcDbScale
 70
     0
300
1" = 1'-0"
140
1.0
141
12.0
290
     0
  0
SCALE
  5
65
102
{ACAD_REACTORS
330
47
102
}
330
47
100
AcDbScale
 70
     0
300
1-1/2" = 1'-0"
140
1.5
141
12.0
290
     0
  0
SCALE
  5
66
102
{ACAD_REACTORS
330
47
102
}
330
47
100
AcDbScale
 70
     0
300
3" = 1'-0"
140
3.0
141
12.0
290
     0
  0
SCALE
  5
67
102
{ACAD_REACTORS
330
47
102
}
330
47
100
AcDbScale
 70
     0
300
6" = 1'-0"
140
6.0
141
12.0
290
     0
  0
SCALE
  5
68
102
{ACAD_REACTORS
330
47
102
}
330
47
100
AcDbScale
 70
     0
300
1'-0" = 1'-0"
140
12.0
141
12.0
290
     0
  0
ENDSEC
  0
EOF
