  0
SECTION
  2
HEADER
  9
$ACADVER
  1
AC1015
  9
$ACADMAINTVER
 70
     6
  9
$DWGCODEPAGE
  3
ANSI_1252
  9
$INSBASE
 10
0.0
 20
0.0
 30
0.0
  9
$EXTMIN
 10
-150.0
 20
0.0
 30
0.0
  9
$EXTMAX
 10
150.0
 20
1500.0
 30
0.0
  9
$LIMMIN
 10
0.0
 20
0.0
  9
$LIMMAX
 10
420.0
 20
297.0
  9
$ORTHOMODE
 70
     0
  9
$REGENMODE
 70
     1
  9
$FILLMODE
 70
     1
  9
$QTEXTMODE
 70
     0
  9
$MIRRTEXT
 70
     1
  9
$LTSCALE
 40
1.0
  9
$ATTMODE
 70
     1
  9
$TEXTSIZE
 40
3.5
  9
$TRACEWID
 40
1.0
  9
$TEXTSTYLE
  7
Standard
  9
$CLAYER
  8
0
  9
$CELTYPE
  6
ByLayer
  9
$CECOLOR
 62
   256
  9
$CELTSCALE
 40
1.0
  9
$DISPSILH
 70
     0
  9
$DIMSCALE
 40
1.0
  9
$DIMASZ
 40
3.302
  9
$DIMEXO
 40
1.0
  9
$DIMDLI
 40
3.75
  9
$DIMRND
 40
0.0
  9
$DIMDLE
 40
0.0
  9
$DIMEXE
 40
1.0
  9
$DIMTP
 40
0.0
  9
$DIMTM
 40
0.0
  9
$DIMTXT
 40
3.5
  9
$DIMCEN
 40
2.5
  9
$DIMTSZ
 40
0.0
  9
$DIMTOL
 70
     0
  9
$DIMLIM
 70
     0
  9
$DIMTIH
 70
     1
  9
$DIMTOH
 70
     1
  9
$DIMSE1
 70
     0
  9
$DIMSE2
 70
     0
  9
$DIMTAD
 70
     1
  9
$DIMZIN
 70
     1
  9
$DIMBLK
  1

  9
$DIMASO
 70
     1
  9
$DIMSHO
 70
     1
  9
$DIMPOST
  1

  9
$DIMAPOST
  1

  9
$DIMALT
 70
     0
  9
$DIMALTD
 70
     3
  9
$DIMALTF
 40
0.0393700787
  9
$DIMLFAC
 40
1.0
  9
$DIMTOFL
 70
     1
  9
$DIMTVP
 40
0.0
  9
$DIMTIX
 70
     0
  9
$DIMSOXD
 70
     0
  9
$DIMSAH
 70
     0
  9
$DIMBLK1
  1

  9
$DIMBLK2
  1

  9
$DIMSTYLE
  2
ISO-25
  9
$DIMCLRD
 70
     0
  9
$DIMCLRE
 70
     0
  9
$DIMCLRT
 70
     0
  9
$DIMTFAC
 40
1.0
  9
$DIMGAP
 40
1.524
  9
$DIMJUST
 70
     0
  9
$DIMSD1
 70
     0
  9
$DIMSD2
 70
     0
  9
$DIMTOLJ
 70
     0
  9
$DIMTZIN
 70
     1
  9
$DIMALTZ
 70
     0
  9
$DIMALTTZ
 70
     0
  9
$DIMUPT
 70
     0
  9
$DIMDEC
 70
     2
  9
$DIMTDEC
 70
     2
  9
$DIMALTU
 70
     2
  9
$DIMALTTD
 70
     3
  9
$DIMTXSTY
  7
Standard
  9
$DIMAUNIT
 70
     0
  9
$DIMADEC
 70
     2
  9
$DIMALTRND
 40
0.0
  9
$DIMAZIN
 70
     0
  9
$DIMDSEP
 70
    44
  9
$DIMATFIT
 70
     3
  9
$DIMFRAC
 70
     0
  9
$DIMLDRBLK
  1

  9
$DIMLUNIT
 70
     2
  9
$DIMLWD
 70
    -2
  9
$DIMLWE
 70
    -2
  9
$DIMTMOVE
 70
     0
  9
$LUNITS
 70
     2
  9
$LUPREC
 70
     2
  9
$SKETCHINC
 40
1.0
  9
$FILLETRAD
 40
10.0
  9
$AUNITS
 70
     0
  9
$AUPREC
 70
     2
  9
$MENU
  1
.
  9
$ELEVATION
 40
0.0
  9
$PELEVATION
 40
0.0
  9
$THICKNESS
 40
0.0
  9
$LIMCHECK
 70
     0
  9
$CHAMFERA
 40
0.0
  9
$CHAMFERB
 40
0.0
  9
$CHAMFERC
 40
0.0
  9
$CHAMFERD
 40
0.0
  9
$SKPOLY
 70
     0
  9
$TDCREATE
 40
2458862.473459977
  9
$TDUCREATE
 40
2458862.473459977
  9
$TDUPDATE
 40
2458862.473504097
  9
$TDUUPDATE
 40
2458862.473504097
  9
$TDINDWG
 40
0.0000000116
  9
$TDUSRTIMER
 40
0.0000000116
  9
$USRTIMER
 70
     1
  9
$ANGBASE
 50
0.0
  9
$ANGDIR
 70
     0
  9
$PDMODE
 70
     0
  9
$PDSIZE
 40
-1.0
  9
$PLINEWID
 40
0.0
  9
$SPLFRAME
 70
     0
  9
$SPLINETYPE
 70
     6
  9
$SPLINESEGS
 70
     8
  9
$HANDSEED
  5
805
  9
$SURFTAB1
 70
     6
  9
$SURFTAB2
 70
     6
  9
$SURFTYPE
 70
     6
  9
$SURFU
 70
     6
  9
$SURFV
 70
     6
  9
$UCSBASE
  2

  9
$UCSNAME
  2

  9
$UCSORG
 10
0.0
 20
0.0
 30
0.0
  9
$UCSXDIR
 10
1.0
 20
0.0
 30
0.0
  9
$UCSYDIR
 10
0.0
 20
1.0
 30
0.0
  9
$UCSORTHOREF
  2

  9
$UCSORTHOVIEW
 70
     0
  9
$UCSORGTOP
 10
0.0
 20
0.0
 30
0.0
  9
$UCSORGBOTTOM
 10
0.0
 20
0.0
 30
0.0
  9
$UCSORGLEFT
 10
0.0
 20
0.0
 30
0.0
  9
$UCSORGRIGHT
 10
0.0
 20
0.0
 30
0.0
  9
$UCSORGFRONT
 10
0.0
 20
0.0
 30
0.0
  9
$UCSORGBACK
 10
0.0
 20
0.0
 30
0.0
  9
$PUCSBASE
  2

  9
$PUCSNAME
  2

  9
$PUCSORG
 10
0.0
 20
0.0
 30
0.0
  9
$PUCSXDIR
 10
1.0
 20
0.0
 30
0.0
  9
$PUCSYDIR
 10
0.0
 20
1.0
 30
0.0
  9
$PUCSORTHOREF
  2

  9
$PUCSORTHOVIEW
 70
     0
  9
$PUCSORGTOP
 10
0.0
 20
0.0
 30
0.0
  9
$PUCSORGBOTTOM
 10
0.0
 20
0.0
 30
0.0
  9
$PUCSORGLEFT
 10
0.0
 20
0.0
 30
0.0
  9
$PUCSORGRIGHT
 10
0.0
 20
0.0
 30
0.0
  9
$PUCSORGFRONT
 10
0.0
 20
0.0
 30
0.0
  9
$PUCSORGBACK
 10
0.0
 20
0.0
 30
0.0
  9
$USERI1
 70
     0
  9
$USERI2
 70
     0
  9
$USERI3
 70
     0
  9
$USERI4
 70
     0
  9
$USERI5
 70
     0
  9
$USERR1
 40
0.0
  9
$USERR2
 40
0.0
  9
$USERR3
 40
0.0
  9
$USERR4
 40
0.0
  9
$USERR5
 40
0.0
  9
$WORLDVIEW
 70
     1
  9
$SHADEDGE
 70
     3
  9
$SHADEDIF
 70
    70
  9
$TILEMODE
 70
     1
  9
$MAXACTVP
 70
    64
  9
$PINSBASE
 10
0.0
 20
0.0
 30
0.0
  9
$PLIMCHECK
 70
     0
  9
$PEXTMIN
 10
-150.0
 20
0.0
 30
0.0
  9
$PEXTMAX
 10
150.0
 20
1500.0
 30
0.0
  9
$PLIMMIN
 10
-303.8461538462
 20
-57.6923076923
  9
$PLIMMAX
 10
1980.7692307692
 20
1557.6923076923
  9
$UNITMODE
 70
     0
  9
$VISRETAIN
 70
     1
  9
$PLINEGEN
 70
     0
  9
$PSLTSCALE
 70
     1
  9
$TREEDEPTH
 70
  3020
  9
$CMLSTYLE
  2
Standard
  9
$CMLJUST
 70
     0
  9
$CMLSCALE
 40
20.0
  9
$PROXYGRAPHICS
 70
     1
  9
$MEASUREMENT
 70
     1
  9
$CELWEIGHT
370
    -1
  9
$ENDCAPS
280
     0
  9
$JOINSTYLE
280
     0
  9
$LWDISPLAY
290
     1
  9
$INSUNITS
 70
     4
  9
$HYPERLINKBASE
  1

  9
$STYLESHEET
  1

  9
$XEDIT
290
     1
  9
$CEPSNTYPE
380
     0
  9
$PSTYLEMODE
290
     1
  9
$FINGERPRINTGUID
  2
{564d634e-1e60-4cc5-939e-b7a92fc7fdb7}
  9
$VERSIONGUID
  2
{FAEB1C32-E019-11D5-929B-00C0DF256EC4}
  9
$EXTNAMES
290
     1
  9
$PSVPSCALE
 40
0.0
  9
$OLESTARTUP
290
     0
  0
ENDSEC
  0
SECTION
  2
CLASSES
  0
CLASS
  1
ACDBDICTIONARYWDFLT
  2
AcDbDictionaryWithDefault
  3
ObjectDBX Classes
 90
        0
280
     0
281
     0
  0
CLASS
  1
VISUALSTYLE
  2
AcDbVisualStyle
  3
ObjectDBX Classes
 90
     4095
280
     0
281
     0
  0
CLASS
  1
MATERIAL
  2
AcDbMaterial
  3
ObjectDBX Classes
 90
     1153
280
     0
281
     0
  0
CLASS
  1
SCALE
  2
AcDbScale
  3
ObjectDBX Classes
 90
     1153
280
     0
281
     0
  0
CLASS
  1
TABLESTYLE
  2
AcDbTableStyle
  3
ObjectDBX Classes
 90
     4095
280
     0
281
     0
  0
CLASS
  1
MLEADERSTYLE
  2
AcDbMLeaderStyle
  3
ACDB_MLEADERSTYLE_CLASS
 90
     4095
280
     0
281
     0
  0
CLASS
  1
SUN
  2
AcDbSun
  3
SCENEOE
 90
     1153
280
     0
281
     0
  0
CLASS
  1
ACDBPLACEHOLDER
  2
AcDbPlaceHolder
  3
ObjectDBX Classes
 90
        0
280
     0
281
     0
  0
CLASS
  1
LAYOUT
  2
AcDbLayout
  3
ObjectDBX Classes
 90
        0
280
     0
281
     0
  0
ENDSEC
  0
SECTION
  2
TABLES
  0
TABLE
  2
VPORT
  5
8
330
0
100
AcDbSymbolTable
 70
     1
  0
VPORT
  5
29
330
8
100
AcDbSymbolTableRecord
100
AcDbViewportTableRecord
  2
*Active
 70
     0
 10
0.0
 20
0.0
 11
1.0
 21
1.0
 12
0.0
 22
750.0
 13
0.0
 23
0.0
 14
10.0
 24
10.0
 15
10.0
 25
10.0
 16
0.0
 26
0.0
 36
1.0
 17
0.0
 27
0.0
 37
0.0
 40
1530.0
 41
0.2
 42
50.0
 43
0.0
 44
0.0
 50
0.0
 51
0.0
 71
     0
 72
   100
 73
     1
 74
     3
 75
     0
 76
     0
 77
     0
 78
     0
281
     0
 65
     1
110
0.0
120
0.0
130
0.0
111
1.0
121
0.0
131
0.0
112
0.0
122
1.0
132
0.0
 79
     0
146
0.0
  0
ENDTAB
  0
TABLE
  2
LTYPE
  5
5
330
0
100
AcDbSymbolTable
 70
     6
  0
LTYPE
  5
14
330
5
100
AcDbSymbolTableRecord
100
AcDbLinetypeTableRecord
  2
ByBlock
 70
     0
  3

 72
    65
 73
     0
 40
0.0
  0
LTYPE
  5
15
330
5
100
AcDbSymbolTableRecord
100
AcDbLinetypeTableRecord
  2
ByLayer
 70
     0
  3

 72
    65
 73
     0
 40
0.0
  0
LTYPE
  5
16
330
5
100
AcDbSymbolTableRecord
100
AcDbLinetypeTableRecord
  2
Continuous
 70
     0
  3
Solid line
 72
    65
 73
     0
 40
0.0
  0
LTYPE
  5
6E
330
5
100
AcDbSymbolTableRecord
100
AcDbLinetypeTableRecord
  2
HIDDEN
 70
     0
  3
Hidden __ __ __ __ __ __ __ __ __ __ __ __ __ __
 72
    65
 73
     2
 40
1.905
 49
1.27
 74
     0
 49
-0.635
 74
     0
  0
LTYPE
  5
6F
330
5
100
AcDbSymbolTableRecord
100
AcDbLinetypeTableRecord
  2
PHANTOM
 70
     0
  3
Phantom ______  __  __  ______  __  __  ______
 72
    65
 73
     6
 40
12.7
 49
6.35
 74
     0
 49
-1.27
 74
     0
 49
1.27
 74
     0
 49
-1.27
 74
     0
 49
1.27
 74
     0
 49
-1.27
 74
     0
  0
LTYPE
  5
70
330
5
100
AcDbSymbolTableRecord
100
AcDbLinetypeTableRecord
  2
CENTER
 70
     0
  3
Center ____ _ ____ _ ____ _ ____ _ ____ _ ____
 72
    65
 73
     4
 40
10.16
 49
6.35
 74
     0
 49
-1.27
 74
     0
 49
1.27
 74
     0
 49
-1.27
 74
     0
  0
LTYPE
  5
71
330
5
100
AcDbSymbolTableRecord
100
AcDbLinetypeTableRecord
  2
CENTERX2
 70
     0
  3
Center (2x) ________  __  ________  __  _____
 72
    65
 73
     4
 40
20.32
 49
12.7
 74
     0
 49
-2.54
 74
     0
 49
2.54
 74
     0
 49
-2.54
 74
     0
  0
LTYPE
  5
72
330
5
100
AcDbSymbolTableRecord
100
AcDbLinetypeTableRecord
  2
DOT2
 70
     0
  3
Dot (.5x) ........................................
 72
    65
 73
     2
 40
0.635
 49
0.0
 74
     0
 49
-0.635
 74
     0
  0
ENDTAB
  0
TABLE
  2
LAYER
  5
2
330
0
100
AcDbSymbolTable
 70
     1
  0
LAYER
  5
10
330
2
100
AcDbSymbolTableRecord
100
AcDbLayerTableRecord
  2
0
 70
     0
 62
     7
  6
Continuous
370
    -3
390
F
  0
ENDTAB
  0
TABLE
  2
STYLE
  5
3
330
0
100
AcDbSymbolTable
 70
     1
  0
STYLE
  5
11
330
3
100
AcDbSymbolTableRecord
100
AcDbTextStyleTableRecord
  2
Standard
 70
     0
 40
0.0
 41
1.0
 50
0.0
 71
     0
 42
3.5
  3
txt
  4

  0
ENDTAB
  0
TABLE
  2
VIEW
  5
6
330
0
100
AcDbSymbolTable
 70
     0
  0
ENDTAB
  0
TABLE
  2
UCS
  5
7
330
0
100
AcDbSymbolTable
 70
     0
  0
ENDTAB
  0
TABLE
  2
APPID
  5
9
330
0
100
AcDbSymbolTable
 70
     1
  0
APPID
  5
12
330
9
100
AcDbSymbolTableRecord
100
AcDbRegAppTableRecord
  2
ACAD
 70
     0
  0
ENDTAB
  0
TABLE
  2
DIMSTYLE
  5
A
330
0
100
AcDbSymbolTable
 70
     1
100
AcDbDimStyleTable
  0
DIMSTYLE
105
27
330
A
100
AcDbSymbolTableRecord
100
AcDbDimStyleTableRecord
  2
ISO-25
 70
     0
 41
2.5
 42
0.625
 43
3.75
 44
1.25
 73
     0
 74
     0
 77
     1
 78
     8
140
2.5
141
2.5
143
0.0393700787
147
0.625
171
     3
172
     1
178
     0
271
     2
272
     2
274
     3
278
    44
283
     0
284
     8
340
11
  0
ENDTAB
  0
TABLE
  2
BLOCK_RECORD
  5
1
330
0
100
AcDbSymbolTable
 70
     7
  0
BLOCK_RECORD
  5
1F
330
1
100
AcDbSymbolTableRecord
100
AcDbBlockTableRecord
  2
*Model_Space
340
22
  0
BLOCK_RECORD
  5
1B
330
1
100
AcDbSymbolTableRecord
100
AcDbBlockTableRecord
  2
*Paper_Space
340
1E
  0
BLOCK_RECORD
  5
23
330
1
100
AcDbSymbolTableRecord
100
AcDbBlockTableRecord
  2
*Paper_Space0
340
26
  0
BLOCK_RECORD
  5
20F
330
1
100
AcDbSymbolTableRecord
100
AcDbBlockTableRecord
  2
*Paper_Space1
340
210
  0
BLOCK_RECORD
  5
28B
330
1
100
AcDbSymbolTableRecord
100
AcDbBlockTableRecord
  2
*Paper_Space2
340
28C
  0
BLOCK_RECORD
  5
327
330
1
100
AcDbSymbolTableRecord
100
AcDbBlockTableRecord
  2
*Paper_Space3
340
328
  0
BLOCK_RECORD
  5
3C1
330
1
100
AcDbSymbolTableRecord
100
AcDbBlockTableRecord
  2
*Paper_Space4
340
3C2
  0
BLOCK_RECORD
  5
545
330
1
100
AcDbSymbolTableRecord
100
AcDbBlockTableRecord
  2
*Paper_Space5
340
546
  0
BLOCK_RECORD
  5
6A9
330
1
100
AcDbSymbolTableRecord
100
AcDbBlockTableRecord
  2
*Paper_Space6
340
6AA
  0
ENDTAB
  0
ENDSEC
  0
SECTION
  2
BLOCKS
  0
BLOCK
  5
20
330
1F
100
AcDbEntity
  8
0
100
AcDbBlockBegin
  2
*Model_Space
 70
     0
 10
0.0
 20
0.0
 30
0.0
  3
*Model_Space
  1

  0
ENDBLK
  5
21
330
1F
100
AcDbEntity
  8
0
100
AcDbBlockEnd
  0
BLOCK
  5
1C
330
1B
100
AcDbEntity
 67
     1
  8
0
100
AcDbBlockBegin
  2
*Paper_Space
 70
     0
 10
0.0
 20
0.0
 30
0.0
  3
*Paper_Space
  1

  0
ENDBLK
  5
1D
330
1B
100
AcDbEntity
 67
     1
  8
0
100
AcDbBlockEnd
  0
BLOCK
  5
24
330
23
100
AcDbEntity
  8
0
100
AcDbBlockBegin
  2
*Paper_Space0
 70
     0
 10
0.0
 20
0.0
 30
0.0
  3
*Paper_Space0
  1

  0
LINE
  5
1DC
330
23
100
AcDbEntity
  8
0
  6
Continuous
 62
     7
370
    25
100
AcDbLine
 10
-99.5
 20
1500.0
 30
0.0
 11
-99.5
 21
0.0
 31
0.0
  0
LINE
  5
1DD
330
23
100
AcDbEntity
  8
0
  6
Continuous
 62
     7
370
    25
100
AcDbLine
 10
100.0
 20
1499.5
 30
0.0
 11
-100.0
 21
1499.5
 31
0.0
  0
LINE
  5
1DE
330
23
100
AcDbEntity
  8
0
  6
Continuous
 62
     7
370
    25
100
AcDbLine
 10
99.5
 20
0.0
 30
0.0
 11
99.5
 21
1500.0
 31
0.0
  0
LINE
  5
1DF
330
23
100
AcDbEntity
  8
0
  6
Continuous
 62
     7
370
    25
100
AcDbLine
 10
-100.0
 20
0.5
 30
0.0
 11
100.0
 21
0.5
 31
0.0
  0
LINE
  5
1E0
330
23
100
AcDbEntity
  8
0
  6
Continuous
 62
     7
370
    25
100
AcDbLine
 10
-100.0
 20
0.5
 30
0.0
 11
-100.0
 21
1500.0
 31
0.0
  0
LINE
  5
1E1
330
23
100
AcDbEntity
  8
0
  6
Continuous
 62
     7
370
    25
100
AcDbLine
 10
99.5
 20
0.0
 30
0.0
 11
-99.5
 21
0.0
 31
0.0
  0
LINE
  5
1E2
330
23
100
AcDbEntity
  8
0
  6
Continuous
 62
     7
370
    25
100
AcDbLine
 10
100.0
 20
1499.5
 30
0.0
 11
100.0
 21
0.5
 31
0.0
  0
LINE
  5
1E3
330
23
100
AcDbEntity
  8
0
  6
Continuous
 62
     7
370
    25
100
AcDbLine
 10
-100.0
 20
1500.0
 30
0.0
 11
99.5
 21
1500.0
 31
0.0
  0
LINE
  5
1E4
330
23
100
AcDbEntity
  8
0
  6
Continuous
 62
     7
370
    25
100
AcDbLine
 10
100.0
 20
1.0
 30
0.0
 11
118.0
 21
1.0
 31
0.0
  0
LINE
  5
1E5
330
23
100
AcDbEntity
  8
0
  6
Continuous
 62
     7
370
    25
100
AcDbLine
 10
101.0
 20
1500.0
 30
0.0
 11
101.0
 21
0.0
 31
0.0
  0
LINE
  5
1E6
330
23
100
AcDbEntity
  8
0
  6
Continuous
 62
     7
370
    25
100
AcDbLine
 10
117.0
 20
0.0
 30
0.0
 11
101.0
 21
0.0
 31
0.0
  0
LINE
  5
1E7
330
23
100
AcDbEntity
  8
0
  6
Continuous
 62
     7
370
    25
100
AcDbLine
 10
118.0
 20
1499.0
 30
0.0
 11
100.0
 21
1499.0
 31
0.0
  0
LINE
  5
1E8
330
23
100
AcDbEntity
  8
0
  6
Continuous
 62
     7
370
    25
100
AcDbLine
 10
117.0
 20
0.0
 30
0.0
 11
117.0
 21
1500.0
 31
0.0
  0
LINE
  5
1E9
330
23
100
AcDbEntity
  8
0
  6
Continuous
 62
     7
370
    25
100
AcDbLine
 10
101.0
 20
1500.0
 30
0.0
 11
117.0
 21
1500.0
 31
0.0
  0
LINE
  5
1EA
330
23
100
AcDbEntity
  8
0
  6
Continuous
 62
     7
370
    25
100
AcDbLine
 10
118.0
 20
1499.0
 30
0.0
 11
118.0
 21
1.0
 31
0.0
  0
LINE
  5
1EB
330
23
100
AcDbEntity
  8
0
  6
Continuous
 62
     7
370
    25
100
AcDbLine
 10
118.0
 20
550.9876813235
 30
0.0
 11
130.3552009571
 21
554.0764815627
 31
0.0
  0
LINE
  5
1EC
330
23
100
AcDbEntity
  8
0
  6
Continuous
 62
     7
370
    25
100
AcDbLine
 10
130.4253562504
 20
553.1063390626
 30
0.0
 11
118.0
 21
550.0
 31
0.0
  0
LINE
  5
1ED
330
23
100
AcDbEntity
  8
0
  6
Continuous
 62
     7
370
    25
100
AcDbLine
 10
130.3552009571
 20
945.9235184373
 30
0.0
 11
118.0
 21
949.0123186765
 31
0.0
  0
LINE
  5
1EE
330
23
100
AcDbEntity
  8
0
  6
Continuous
 62
     7
370
    25
100
AcDbLine
 10
137.1723803318
 20
562.807764064
 30
0.0
 11
137.1723803318
 21
937.192235936
 31
0.0
  0
LINE
  5
1EF
330
23
100
AcDbEntity
  8
0
  6
Continuous
 62
     7
370
    25
100
AcDbLine
 10
123.1723803318
 20
624.0
 30
0.0
 11
118.0
 21
624.0
 31
0.0
  0
LINE
  5
1F0
330
23
100
AcDbEntity
  8
0
  6
Continuous
 62
     7
370
    25
100
AcDbLine
 10
134.1723803318
 20
865.0
 30
0.0
 11
134.1723803318
 21
635.0
 31
0.0
  0
LINE
  5
1F1
330
23
100
AcDbEntity
  8
0
  6
Continuous
 62
     7
370
    25
100
AcDbLine
 10
118.0
 20
876.0
 30
0.0
 11
123.1723803318
 21
876.0
 31
0.0
  0
LINE
  5
1F2
330
23
100
AcDbEntity
  8
0
  6
Continuous
 62
     7
370
    25
100
AcDbLine
 10
118.0
 20
625.0
 30
0.0
 11
123.0
 21
625.0
 31
0.0
  0
LINE
  5
1F3
330
23
100
AcDbEntity
  8
0
  6
Continuous
 62
     7
370
    25
100
AcDbLine
 10
123.0
 20
875.0
 30
0.0
 11
118.0
 21
875.0
 31
0.0
  0
LINE
  5
1F4
330
23
100
AcDbEntity
  8
0
  6
Continuous
 62
     7
370
    25
100
AcDbLine
 10
118.0
 20
950.0
 30
0.0
 11
130.4253562504
 21
946.8936609374
 31
0.0
  0
LINE
  5
1F5
330
23
100
AcDbEntity
  8
0
  6
Continuous
 62
     7
370
    25
100
AcDbLine
 10
133.0
 20
635.0
 30
0.0
 11
134.1723803318
 21
635.0
 31
0.0
  0
LINE
  5
1F6
330
23
100
AcDbEntity
  8
0
  6
Continuous
 62
     7
370
    25
100
AcDbLine
 10
133.0
 20
865.0
 30
0.0
 11
134.1723803318
 21
865.0
 31
0.0
  0
LINE
  5
1F7
330
23
100
AcDbEntity
  8
0
  6
Continuous
 62
     7
370
    25
100
AcDbLine
 10
138.0
 20
562.807764064
 30
0.0
 11
137.1723803318
 21
562.807764064
 31
0.0
  0
LINE
  5
1F8
330
23
100
AcDbEntity
  8
0
  6
Continuous
 62
     7
370
    25
100
AcDbLine
 10
138.0
 20
937.192235936
 30
0.0
 11
137.1723803318
 21
937.192235936
 31
0.0
  0
LINE
  5
1F9
330
23
100
AcDbEntity
  8
0
  6
Continuous
 62
     7
370
    25
100
AcDbLine
 10
133.0
 20
635.0
 30
0.0
 11
133.0
 21
865.0
 31
0.0
  0
LINE
  5
1FA
330
23
100
AcDbEntity
  8
0
  6
Continuous
 62
     7
370
    25
100
AcDbLine
 10
138.0
 20
937.192235936
 30
0.0
 11
138.0
 21
562.807764064
 31
0.0
  0
ARC
  5
1FB
330
23
100
AcDbEntity
  8
0
  6
Continuous
 62
     7
370
    25
100
AcDbCircle
 10
-99.5
 20
1499.5
 30
0.0
 40
0.4999999999997726
100
AcDbArc
 50
90.0
 51
180.0
  0
ARC
  5
1FC
330
23
100
AcDbEntity
  8
0
  6
Continuous
 62
     7
370
    25
100
AcDbCircle
 10
99.5
 20
1499.5
 30
0.0
 40
0.5000000000000284
100
AcDbArc
 50
0.0
 51
90.0
  0
ARC
  5
1FD
330
23
100
AcDbEntity
  8
0
  6
Continuous
 62
     7
370
    25
100
AcDbCircle
 10
99.5
 20
0.5
 30
0.0
 40
0.4999999999999574
100
AcDbArc
 50
270.0
 51
0.0
  0
ARC
  5
1FE
330
23
100
AcDbEntity
  8
0
  6
Continuous
 62
     7
370
    25
100
AcDbCircle
 10
-99.5
 20
0.5
 30
0.0
 40
0.4999999999999716
100
AcDbArc
 50
180.0
 51
270.0
  0
ARC
  5
1FF
330
23
100
AcDbEntity
  8
0
  6
Continuous
 62
     7
370
    25
100
AcDbCircle
 10
101.0
 20
1.0
 30
0.0
 40
1.000000000000014
100
AcDbArc
 50
180.0
 51
270.0
  0
ARC
  5
200
330
23
100
AcDbEntity
  8
0
  6
Continuous
 62
     7
370
    25
100
AcDbCircle
 10
101.0
 20
1499.0
 30
0.0
 40
1.00000000000027
100
AcDbArc
 50
90.0
 51
180.0
  0
ARC
  5
201
330
23
100
AcDbEntity
  8
0
  6
Continuous
 62
     7
370
    25
100
AcDbCircle
 10
117.0
 20
1499.0
 30
0.0
 40
1.0
100
AcDbArc
 50
0.0
 51
90.0
  0
ARC
  5
202
330
23
100
AcDbEntity
  8
0
  6
Continuous
 62
     7
370
    25
100
AcDbCircle
 10
117.0
 20
1.0
 30
0.0
 40
1.000000000000014
100
AcDbArc
 50
270.0
 51
0.0
  0
ARC
  5
203
330
23
100
AcDbEntity
  8
0
  6
Continuous
 62
     7
370
    25
100
AcDbCircle
 10
128.9180117438
 20
553.484944187
 30
0.0
 40
1.554165146206276
100
AcDbArc
 50
345.9004879114
 51
22.3717348761
  0
ARC
  5
204
330
23
100
AcDbEntity
  8
0
  6
Continuous
 62
     7
370
    25
100
AcDbCircle
 10
128.1723803318
 20
937.192235936
 30
0.0
 40
9.000000000000256
100
AcDbArc
 50
0.0
 51
75.9637565321
  0
ARC
  5
205
330
23
100
AcDbEntity
  8
0
  6
Continuous
 62
     7
370
    25
100
AcDbCircle
 10
128.1723803318
 20
562.807764064
 30
0.0
 40
9.000000000000007
100
AcDbArc
 50
284.0362434679
 51
0.0
  0
ARC
  5
206
330
23
100
AcDbEntity
  8
0
  6
Continuous
 62
     7
370
    25
100
AcDbCircle
 10
123.1723803318
 20
635.0
 30
0.0
 40
11.00000000000013
100
AcDbArc
 50
270.0
 51
0.0
  0
ARC
  5
207
330
23
100
AcDbEntity
  8
0
  6
Continuous
 62
     7
370
    25
100
AcDbCircle
 10
123.1723803318
 20
865.0
 30
0.0
 40
11.0
100
AcDbArc
 50
0.0
 51
90.0
  0
ARC
  5
208
330
23
100
AcDbEntity
  8
0
  6
Continuous
 62
     7
370
    25
100
AcDbCircle
 10
121.5928136183
 20
624.2425712553
 30
0.0
 40
1.598083795047053
100
AcDbArc
 50
351.2693943887
 51
28.2916959581
  0
ARC
  5
209
330
23
100
AcDbEntity
  8
0
  6
Continuous
 62
     7
370
    25
100
AcDbCircle
 10
121.5928136183
 20
875.7574287447
 30
0.0
 40
1.598083795047285
100
AcDbArc
 50
331.7083040419
 51
8.7306056113
  0
ARC
  5
20A
330
23
100
AcDbEntity
  8
0
  6
Continuous
 62
     7
370
    25
100
AcDbCircle
 10
128.9180117438
 20
946.515055813
 30
0.0
 40
1.554165146205904
100
AcDbArc
 50
337.6282651239
 51
14.0995120886
  0
ARC
  5
20B
330
23
100
AcDbEntity
  8
0
  6
Continuous
 62
     7
370
    25
100
AcDbCircle
 10
123.0
 20
635.0
 30
0.0
 40
10.0
100
AcDbArc
 50
270.0
 51
0.0
  0
ARC
  5
20C
330
23
100
AcDbEntity
  8
0
  6
Continuous
 62
     7
370
    25
100
AcDbCircle
 10
123.0
 20
865.0
 30
0.0
 40
10.0
100
AcDbArc
 50
0.0
 51
90.0
  0
ARC
  5
20D
330
23
100
AcDbEntity
  8
0
  6
Continuous
 62
     7
370
    25
100
AcDbCircle
 10
128.0
 20
562.807764064
 30
0.0
 40
10.00000000000005
100
AcDbArc
 50
284.0362434679
 51
0.0
  0
ARC
  5
20E
330
23
100
AcDbEntity
  8
0
  6
Continuous
 62
     7
370
    25
100
AcDbCircle
 10
128.0
 20
937.192235936
 30
0.0
 40
10.00000000000006
100
AcDbArc
 50
0.0
 51
75.9637565321
  0
VIEWPORT
  5
7F7
330
23
100
AcDbEntity
  8
0
100
AcDbViewport
 10
0.0
 20
0.0
 30
0.0
 40
205.6
 41
156.0
 68
     1
 69
     1
 12
0.0
 22
750.0
 13
0.0
 23
0.0
 14
10.0
 24
10.0
 15
10.0
 25
10.0
 16
0.0
 26
0.0
 36
1.0
 17
0.0
 27
0.0
 37
0.0
 42
50.0
 43
0.0
 44
0.0
 45
1530.0
 50
0.0
 51
0.0
 72
   100
 90
   557152
  1

281
     0
 71
     1
 74
     0
110
0.0
120
0.0
130
0.0
111
1.0
121
0.0
131
0.0
112
0.0
122
1.0
132
0.0
 79
     0
146
0.0
  0
ENDBLK
  5
25
330
23
100
AcDbEntity
  8
0
100
AcDbBlockEnd
  0
BLOCK
  5
211
330
20F
100
AcDbEntity
  8
0
100
AcDbBlockBegin
  2
*Paper_Space1
 70
     0
 10
0.0
 20
0.0
 30
0.0
  3
*Paper_Space1
  1

  0
LINE
  5
258
330
20F
100
AcDbEntity
  8
0
  6
Continuous
 62
     7
370
    25
100
AcDbLine
 10
-99.5
 20
1500.0
 30
0.0
 11
100.0
 21
1500.0
 31
0.0
  0
LINE
  5
259
330
20F
100
AcDbEntity
  8
0
  6
Continuous
 62
     7
370
    25
100
AcDbLine
 10
100.0
 20
1499.5
 30
0.0
 11
-100.0
 21
1499.5
 31
0.0
  0
LINE
  5
25A
330
20F
100
AcDbEntity
  8
0
  6
Continuous
 62
     7
370
    25
100
AcDbLine
 10
-99.5
 20
1500.0
 30
0.0
 11
-99.5
 21
0.0
 31
0.0
  0
LINE
  5
25B
330
20F
100
AcDbEntity
  8
0
  6
Continuous
 62
     7
370
    25
100
AcDbLine
 10
99.5
 20
0.0
 30
0.0
 11
99.5
 21
1500.0
 31
0.0
  0
LINE
  5
25C
330
20F
100
AcDbEntity
  8
0
  6
Continuous
 62
     7
370
    25
100
AcDbLine
 10
-100.0
 20
0.5
 30
0.0
 11
100.0
 21
0.5
 31
0.0
  0
LINE
  5
25D
330
20F
100
AcDbEntity
  8
0
  6
Continuous
 62
     7
370
    25
100
AcDbLine
 10
99.5
 20
0.0
 30
0.0
 11
-99.5
 21
0.0
 31
0.0
  0
LINE
  5
25E
330
20F
100
AcDbEntity
  8
0
  6
Continuous
 62
     7
370
    25
100
AcDbLine
 10
100.0
 20
1500.0
 30
0.0
 11
100.0
 21
0.5
 31
0.0
  0
LINE
  5
25F
330
20F
100
AcDbEntity
  8
0
  6
Continuous
 62
     7
370
    25
100
AcDbLine
 10
-100.0
 20
0.5
 30
0.0
 11
-100.0
 21
1499.5
 31
0.0
  0
LINE
  5
260
330
20F
100
AcDbEntity
  8
0
  6
Continuous
 62
     7
370
    25
100
AcDbLine
 10
-117.0
 20
1500.0
 30
0.0
 11
-117.0
 21
0.0
 31
0.0
  0
LINE
  5
261
330
20F
100
AcDbEntity
  8
0
  6
Continuous
 62
     7
370
    25
100
AcDbLine
 10
-118.0
 20
1.0
 30
0.0
 11
-118.0
 21
1499.0
 31
0.0
  0
LINE
  5
262
330
20F
100
AcDbEntity
  8
0
  6
Continuous
 62
     7
370
    25
100
AcDbLine
 10
-100.0
 20
1499.0
 30
0.0
 11
-118.0
 21
1499.0
 31
0.0
  0
LINE
  5
263
330
20F
100
AcDbEntity
  8
0
  6
Continuous
 62
     7
370
    25
100
AcDbLine
 10
-118.0
 20
1.0
 30
0.0
 11
-100.0
 21
1.0
 31
0.0
  0
LINE
  5
264
330
20F
100
AcDbEntity
  8
0
  6
Continuous
 62
     7
370
    25
100
AcDbLine
 10
-101.0
 20
0.0
 30
0.0
 11
-101.0
 21
1500.0
 31
0.0
  0
LINE
  5
265
330
20F
100
AcDbEntity
  8
0
  6
Continuous
 62
     7
370
    25
100
AcDbLine
 10
-101.0
 20
0.0
 30
0.0
 11
-117.0
 21
0.0
 31
0.0
  0
LINE
  5
266
330
20F
100
AcDbEntity
  8
0
  6
Continuous
 62
     7
370
    25
100
AcDbLine
 10
-117.0
 20
1500.0
 30
0.0
 11
-101.0
 21
1500.0
 31
0.0
  0
LINE
  5
267
330
20F
100
AcDbEntity
  8
0
  6
Continuous
 62
     7
370
    25
100
AcDbLine
 10
-118.0
 20
875.0
 30
0.0
 11
-123.0
 21
875.0
 31
0.0
  0
LINE
  5
268
330
20F
100
AcDbEntity
  8
0
  6
Continuous
 62
     7
370
    25
100
AcDbLine
 10
-123.1723803318
 20
876.0
 30
0.0
 11
-118.0
 21
876.0
 31
0.0
  0
LINE
  5
269
330
20F
100
AcDbEntity
  8
0
  6
Continuous
 62
     7
370
    25
100
AcDbLine
 10
-130.3552009571
 20
554.0764815627
 30
0.0
 11
-118.0
 21
550.9876813235
 31
0.0
  0
LINE
  5
26A
330
20F
100
AcDbEntity
  8
0
  6
Continuous
 62
     7
370
    25
100
AcDbLine
 10
-137.1723803318
 20
937.192235936
 30
0.0
 11
-137.1723803318
 21
562.807764064
 31
0.0
  0
LINE
  5
26B
330
20F
100
AcDbEntity
  8
0
  6
Continuous
 62
     7
370
    25
100
AcDbLine
 10
-118.0
 20
949.0123186765
 30
0.0
 11
-130.3552009571
 21
945.9235184373
 31
0.0
  0
LINE
  5
26C
330
20F
100
AcDbEntity
  8
0
  6
Continuous
 62
     7
370
    25
100
AcDbLine
 10
-134.1723803318
 20
635.0
 30
0.0
 11
-134.1723803318
 21
865.0
 31
0.0
  0
LINE
  5
26D
330
20F
100
AcDbEntity
  8
0
  6
Continuous
 62
     7
370
    25
100
AcDbLine
 10
-118.0
 20
624.0
 30
0.0
 11
-123.1723803318
 21
624.0
 31
0.0
  0
LINE
  5
26E
330
20F
100
AcDbEntity
  8
0
  6
Continuous
 62
     7
370
    25
100
AcDbLine
 10
-123.0
 20
625.0
 30
0.0
 11
-118.0
 21
625.0
 31
0.0
  0
LINE
  5
26F
330
20F
100
AcDbEntity
  8
0
  6
Continuous
 62
     7
370
    25
100
AcDbLine
 10
-118.0
 20
550.0
 30
0.0
 11
-130.4253562504
 21
553.1063390626
 31
0.0
  0
LINE
  5
270
330
20F
100
AcDbEntity
  8
0
  6
Continuous
 62
     7
370
    25
100
AcDbLine
 10
-130.4253562504
 20
946.8936609374
 30
0.0
 11
-118.0
 21
950.0
 31
0.0
  0
LINE
  5
271
330
20F
100
AcDbEntity
  8
0
  6
Continuous
 62
     7
370
    25
100
AcDbLine
 10
-133.0
 20
865.0
 30
0.0
 11
-134.1723803318
 21
865.0
 31
0.0
  0
LINE
  5
272
330
20F
100
AcDbEntity
  8
0
  6
Continuous
 62
     7
370
    25
100
AcDbLine
 10
-133.0
 20
635.0
 30
0.0
 11
-134.1723803318
 21
635.0
 31
0.0
  0
LINE
  5
273
330
20F
100
AcDbEntity
  8
0
  6
Continuous
 62
     7
370
    25
100
AcDbLine
 10
-138.0
 20
937.192235936
 30
0.0
 11
-137.1723803318
 21
937.192235936
 31
0.0
  0
LINE
  5
274
330
20F
100
AcDbEntity
  8
0
  6
Continuous
 62
     7
370
    25
100
AcDbLine
 10
-138.0
 20
562.807764064
 30
0.0
 11
-137.1723803318
 21
562.807764064
 31
0.0
  0
LINE
  5
275
330
20F
100
AcDbEntity
  8
0
  6
Continuous
 62
     7
370
    25
100
AcDbLine
 10
-133.0
 20
865.0
 30
0.0
 11
-133.0
 21
635.0
 31
0.0
  0
LINE
  5
276
330
20F
100
AcDbEntity
  8
0
  6
Continuous
 62
     7
370
    25
100
AcDbLine
 10
-138.0
 20
562.807764064
 30
0.0
 11
-138.0
 21
937.192235936
 31
0.0
  0
ARC
  5
277
330
20F
100
AcDbEntity
  8
0
  6
Continuous
 62
     7
370
    25
100
AcDbCircle
 10
-99.5
 20
0.5
 30
0.0
 40
0.4999999999999716
100
AcDbArc
 50
180.0
 51
270.0
  0
ARC
  5
278
330
20F
100
AcDbEntity
  8
0
  6
Continuous
 62
     7
370
    25
100
AcDbCircle
 10
99.5
 20
0.5
 30
0.0
 40
0.4999999999999716
100
AcDbArc
 50
270.0
 51
0.0
  0
ARC
  5
279
330
20F
100
AcDbEntity
  8
0
  6
Continuous
 62
     7
370
    25
100
AcDbCircle
 10
-99.5
 20
1499.5
 30
0.0
 40
0.4999999999997726
100
AcDbArc
 50
90.0
 51
180.0
  0
ARC
  5
27A
330
20F
100
AcDbEntity
  8
0
  6
Continuous
 62
     7
370
    25
100
AcDbCircle
 10
99.5
 20
1499.5
 30
0.0
 40
0.5000000000000284
100
AcDbArc
 50
0.0
 51
90.0
  0
ARC
  5
27B
330
20F
100
AcDbEntity
  8
0
  6
Continuous
 62
     7
370
    25
100
AcDbCircle
 10
-101.0
 20
1.0
 30
0.0
 40
1.000000000000014
100
AcDbArc
 50
270.0
 51
0.0
  0
ARC
  5
27C
330
20F
100
AcDbEntity
  8
0
  6
Continuous
 62
     7
370
    25
100
AcDbCircle
 10
-117.0
 20
1.0
 30
0.0
 40
1.000000000000014
100
AcDbArc
 50
180.0
 51
270.0
  0
ARC
  5
27D
330
20F
100
AcDbEntity
  8
0
  6
Continuous
 62
     7
370
    25
100
AcDbCircle
 10
-101.0
 20
1499.0
 30
0.0
 40
1.00000000000027
100
AcDbArc
 50
0.0
 51
90.0
  0
ARC
  5
27E
330
20F
100
AcDbEntity
  8
0
  6
Continuous
 62
     7
370
    25
100
AcDbCircle
 10
-117.0
 20
1499.0
 30
0.0
 40
1.0
100
AcDbArc
 50
90.0
 51
180.0
  0
ARC
  5
27F
330
20F
100
AcDbEntity
  8
0
  6
Continuous
 62
     7
370
    25
100
AcDbCircle
 10
-121.5928136183
 20
875.7574287447
 30
0.0
 40
1.59808379504726
100
AcDbArc
 50
171.2693943887
 51
208.2916959581
  0
ARC
  5
280
330
20F
100
AcDbEntity
  8
0
  6
Continuous
 62
     7
370
    25
100
AcDbCircle
 10
-128.1723803318
 20
562.807764064
 30
0.0
 40
9.0
100
AcDbArc
 50
180.0
 51
255.9637565321
  0
ARC
  5
281
330
20F
100
AcDbEntity
  8
0
  6
Continuous
 62
     7
370
    25
100
AcDbCircle
 10
-128.1723803318
 20
937.192235936
 30
0.0
 40
8.999999999999744
100
AcDbArc
 50
104.0362434679
 51
180.0
  0
ARC
  5
282
330
20F
100
AcDbEntity
  8
0
  6
Continuous
 62
     7
370
    25
100
AcDbCircle
 10
-123.1723803318
 20
865.0
 30
0.0
 40
11.00000000000004
100
AcDbArc
 50
90.0
 51
180.0
  0
ARC
  5
283
330
20F
100
AcDbEntity
  8
0
  6
Continuous
 62
     7
370
    25
100
AcDbCircle
 10
-123.1723803318
 20
635.0
 30
0.0
 40
11.00000000000001
100
AcDbArc
 50
180.0
 51
270.0
  0
ARC
  5
284
330
20F
100
AcDbEntity
  8
0
  6
Continuous
 62
     7
370
    25
100
AcDbCircle
 10
-121.5928136183
 20
624.2425712553
 30
0.0
 40
1.598083795047053
100
AcDbArc
 50
151.7083040419
 51
188.7306056113
  0
ARC
  5
285
330
20F
100
AcDbEntity
  8
0
  6
Continuous
 62
     7
370
    25
100
AcDbCircle
 10
-128.9180117438
 20
553.484944187
 30
0.0
 40
1.554165146206276
100
AcDbArc
 50
157.6282651239
 51
194.0995120886
  0
ARC
  5
286
330
20F
100
AcDbEntity
  8
0
  6
Continuous
 62
     7
370
    25
100
AcDbCircle
 10
-128.9180117438
 20
946.515055813
 30
0.0
 40
1.554165146205904
100
AcDbArc
 50
165.9004879114
 51
202.3717348761
  0
ARC
  5
287
330
20F
100
AcDbEntity
  8
0
  6
Continuous
 62
     7
370
    25
100
AcDbCircle
 10
-123.0
 20
865.0
 30
0.0
 40
10.00000000000011
100
AcDbArc
 50
90.0
 51
180.0
  0
ARC
  5
288
330
20F
100
AcDbEntity
  8
0
  6
Continuous
 62
     7
370
    25
100
AcDbCircle
 10
-123.0
 20
635.0
 30
0.0
 40
9.999999999999943
100
AcDbArc
 50
180.0
 51
270.0
  0
ARC
  5
289
330
20F
100
AcDbEntity
  8
0
  6
Continuous
 62
     7
370
    25
100
AcDbCircle
 10
-128.0
 20
937.192235936
 30
0.0
 40
10.00000000000006
100
AcDbArc
 50
104.0362434679
 51
180.0
  0
ARC
  5
28A
330
20F
100
AcDbEntity
  8
0
  6
Continuous
 62
     7
370
    25
100
AcDbCircle
 10
-128.0
 20
562.807764064
 30
0.0
 40
10.00000000000003
100
AcDbArc
 50
180.0
 51
255.9637565321
  0
VIEWPORT
  5
7F9
330
20F
100
AcDbEntity
  8
0
100
AcDbViewport
 10
0.0
 20
0.0
 30
0.0
 40
205.6
 41
156.0
 68
     1
 69
     1
 12
0.0
 22
750.0
 13
0.0
 23
0.0
 14
10.0
 24
10.0
 15
10.0
 25
10.0
 16
0.0
 26
0.0
 36
1.0
 17
0.0
 27
0.0
 37
0.0
 42
50.0
 43
0.0
 44
0.0
 45
1530.0
 50
0.0
 51
0.0
 72
   100
 90
   557152
  1

281
     0
 71
     1
 74
     0
110
0.0
120
0.0
130
0.0
111
1.0
121
0.0
131
0.0
112
0.0
122
1.0
132
0.0
 79
     0
146
0.0
  0
ENDBLK
  5
212
330
20F
100
AcDbEntity
  8
0
100
AcDbBlockEnd
  0
BLOCK
  5
28D
330
28B
100
AcDbEntity
  8
0
100
AcDbBlockBegin
  2
*Paper_Space2
 70
     0
 10
0.0
 20
0.0
 30
0.0
  3
*Paper_Space2
  1

  0
LINE
  5
2F1
330
28B
100
AcDbEntity
  8
0
  6
Continuous
 62
     7
370
    25
100
AcDbLine
 10
-149.5
 20
100.0
 30
0.0
 11
-134.5
 21
100.0
 31
0.0
  0
LINE
  5
2F2
330
28B
100
AcDbEntity
  8
0
  6
Continuous
 62
     7
370
    25
100
AcDbLine
 10
-134.5
 20
-100.0
 30
0.0
 11
-134.5
 21
100.0
 31
0.0
  0
LINE
  5
2F3
330
28B
100
AcDbEntity
  8
0
  6
Continuous
 62
     7
370
    25
100
AcDbLine
 10
-134.0
 20
99.5
 30
0.0
 11
-150.0
 21
99.5
 31
0.0
  0
LINE
  5
2F4
330
28B
100
AcDbEntity
  8
0
  6
Continuous
 62
     7
370
    25
100
AcDbLine
 10
-149.5
 20
100.0
 30
0.0
 11
-149.5
 21
-100.0
 31
0.0
  0
LINE
  5
2F5
330
28B
100
AcDbEntity
  8
0
  6
Continuous
 62
     7
370
    25
100
AcDbLine
 10
-134.0
 20
100.0
 30
0.0
 11
-134.0
 21
-99.5
 31
0.0
  0
LINE
  5
2F6
330
28B
100
AcDbEntity
  8
0
  6
Continuous
 62
     7
370
    25
100
AcDbLine
 10
-150.0
 20
-99.5
 30
0.0
 11
-150.0
 21
99.5
 31
0.0
  0
LINE
  5
2F7
330
28B
100
AcDbEntity
  8
0
  6
Continuous
 62
     7
370
    25
100
AcDbLine
 10
149.5
 20
-100.0
 30
0.0
 11
149.5
 21
100.0
 31
0.0
  0
LINE
  5
2F8
330
28B
100
AcDbEntity
  8
0
  6
Continuous
 62
     7
370
    25
100
AcDbLine
 10
-150.0
 20
-99.5
 30
0.0
 11
150.0
 21
-99.5
 31
0.0
  0
LINE
  5
2F9
330
28B
100
AcDbEntity
  8
0
  6
Continuous
 62
     7
370
    25
100
AcDbLine
 10
134.5
 20
100.0
 30
0.0
 11
134.5
 21
-100.0
 31
0.0
  0
LINE
  5
2FA
330
28B
100
AcDbEntity
  8
0
  6
Continuous
 62
     7
370
    25
100
AcDbLine
 10
150.0
 20
99.5
 30
0.0
 11
134.0
 21
99.5
 31
0.0
  0
LINE
  5
2FB
330
28B
100
AcDbEntity
  8
0
  6
Continuous
 62
     7
370
    25
100
AcDbLine
 10
150.0
 20
99.5
 30
0.0
 11
150.0
 21
-99.5
 31
0.0
  0
LINE
  5
2FC
330
28B
100
AcDbEntity
  8
0
  6
Continuous
 62
     7
370
    25
100
AcDbLine
 10
134.5
 20
100.0
 30
0.0
 11
149.5
 21
100.0
 31
0.0
  0
LINE
  5
2FD
330
28B
100
AcDbEntity
  8
0
  6
Continuous
 62
     7
370
    25
100
AcDbLine
 10
134.0
 20
-99.5
 30
0.0
 11
134.0
 21
100.0
 31
0.0
  0
LINE
  5
2FE
330
28B
100
AcDbEntity
  8
0
  6
Continuous
 62
     7
370
    25
100
AcDbLine
 10
134.0
 20
100.0
 30
0.0
 11
-134.0
 21
100.0
 31
0.0
  0
LINE
  5
2FF
330
28B
100
AcDbEntity
  8
0
  6
Continuous
 62
     7
370
    25
100
AcDbLine
 10
-134.0
 20
84.0
 30
0.0
 11
134.0
 21
84.0
 31
0.0
  0
LINE
  5
300
330
28B
100
AcDbEntity
  8
0
  6
Continuous
 62
     7
370
    25
100
AcDbLine
 10
134.0
 20
83.5
 30
0.0
 11
-134.0
 21
83.5
 31
0.0
  0
LINE
  5
301
330
28B
100
AcDbEntity
  8
0
  6
Continuous
 62
     7
370
    25
100
AcDbLine
 10
133.5
 20
-100.0
 30
0.0
 11
133.5
 21
84.0
 31
0.0
  0
LINE
  5
302
330
28B
100
AcDbEntity
  8
0
  6
Continuous
 62
     7
370
    25
100
AcDbLine
 10
149.5
 20
-100.0
 30
0.0
 11
-149.5
 21
-100.0
 31
0.0
  0
LINE
  5
303
330
28B
100
AcDbEntity
  8
0
  6
Continuous
 62
     7
370
    25
100
AcDbLine
 10
-133.5
 20
84.0
 30
0.0
 11
-133.5
 21
-100.0
 31
0.0
  0
LINE
  5
304
330
28B
100
AcDbEntity
  8
0
  6
Continuous
 62
     7
370
    25
100
AcDbLine
 10
149.0
 20
-118.0
 30
0.0
 11
149.0
 21
-100.0
 31
0.0
  0
LINE
  5
305
330
28B
100
AcDbEntity
  8
0
  6
Continuous
 62
     7
370
    25
100
AcDbLine
 10
150.0
 20
-101.0
 30
0.0
 11
150.0
 21
-117.0
 31
0.0
  0
LINE
  5
306
330
28B
100
AcDbEntity
  8
0
  6
Continuous
 62
     7
370
    25
100
AcDbLine
 10
-150.0
 20
-117.0
 30
0.0
 11
150.0
 21
-117.0
 31
0.0
  0
LINE
  5
307
330
28B
100
AcDbEntity
  8
0
  6
Continuous
 62
     7
370
    25
100
AcDbLine
 10
150.0
 20
-101.0
 30
0.0
 11
-150.0
 21
-101.0
 31
0.0
  0
LINE
  5
308
330
28B
100
AcDbEntity
  8
0
  6
Continuous
 62
     7
370
    25
100
AcDbLine
 10
149.0
 20
-118.0
 30
0.0
 11
-149.0
 21
-118.0
 31
0.0
  0
LINE
  5
309
330
28B
100
AcDbEntity
  8
0
  6
Continuous
 62
     7
370
    25
100
AcDbLine
 10
-149.0
 20
-100.0
 30
0.0
 11
-149.0
 21
-118.0
 31
0.0
  0
LINE
  5
30A
330
28B
100
AcDbEntity
  8
0
  6
Continuous
 62
     7
370
    25
100
AcDbLine
 10
-150.0
 20
-117.0
 30
0.0
 11
-150.0
 21
-101.0
 31
0.0
  0
LINE
  5
30B
330
28B
100
AcDbEntity
  8
0
  6
Continuous
 62
     7
370
    25
100
AcDbLine
 10
-105.0272467092
 20
-118.0
 30
0.0
 11
-102.8528093654
 21
-130.4253562504
 31
0.0
  0
LINE
  5
30C
330
28B
100
AcDbEntity
  8
0
  6
Continuous
 62
     7
370
    25
100
AcDbLine
 10
-102.6448334419
 20
-137.1723803318
 30
0.0
 11
-106.0
 21
-118.0
 31
0.0
  0
LINE
  5
30D
330
28B
100
AcDbEntity
  8
0
  6
Continuous
 62
     7
370
    25
100
AcDbLine
 10
-94.0
 20
-118.0
 30
0.0
 11
-97.3551665581
 21
-137.1723803318
 31
0.0
  0
LINE
  5
30E
330
28B
100
AcDbEntity
  8
0
  6
Continuous
 62
     7
370
    25
100
AcDbLine
 10
-97.1471906346
 20
-130.4253562504
 30
0.0
 11
-94.9727532908
 21
-118.0
 31
0.0
  0
LINE
  5
30F
330
28B
100
AcDbEntity
  8
0
  6
Continuous
 62
     7
370
    25
100
AcDbLine
 10
-102.8528093654
 20
-130.4253562504
 30
0.0
 11
-97.1471906346
 21
-130.4253562504
 31
0.0
  0
LINE
  5
310
330
28B
100
AcDbEntity
  8
0
  6
Continuous
 62
     7
370
    25
100
AcDbLine
 10
-102.8528093654
 20
-130.4253562504
 30
0.0
 11
-101.6598029748
 21
-138.0
 31
0.0
  0
LINE
  5
311
330
28B
100
AcDbEntity
  8
0
  6
Continuous
 62
     7
370
    25
100
AcDbLine
 10
-98.3401970252
 20
-138.0
 30
0.0
 11
-97.1471906346
 21
-130.4253562504
 31
0.0
  0
LINE
  5
312
330
28B
100
AcDbEntity
  8
0
  6
Continuous
 62
     7
370
    25
100
AcDbLine
 10
-98.3401970252
 20
-138.0
 30
0.0
 11
-101.6598029748
 21
-138.0
 31
0.0
  0
ARC
  5
313
330
28B
100
AcDbEntity
  8
0
  6
Continuous
 62
     7
370
    25
100
AcDbCircle
 10
-149.5
 20
-99.5
 30
0.0
 40
0.5
100
AcDbArc
 50
180.0
 51
270.0
  0
ARC
  5
314
330
28B
100
AcDbEntity
  8
0
  6
Continuous
 62
     7
370
    25
100
AcDbCircle
 10
-149.5
 20
99.5
 30
0.0
 40
0.5000000000000284
100
AcDbArc
 50
90.0
 51
180.0
  0
ARC
  5
315
330
28B
100
AcDbEntity
  8
0
  6
Continuous
 62
     7
370
    25
100
AcDbCircle
 10
-134.5
 20
-99.5
 30
0.0
 40
0.5000000000000284
100
AcDbArc
 50
270.0
 51
360.0
  0
ARC
  5
316
330
28B
100
AcDbEntity
  8
0
  6
Continuous
 62
     7
370
    25
100
AcDbCircle
 10
-134.5
 20
99.5
 30
0.0
 40
0.5
100
AcDbArc
 50
0.0
 51
90.0
  0
ARC
  5
317
330
28B
100
AcDbEntity
  8
0
  6
Continuous
 62
     7
370
    25
100
AcDbCircle
 10
149.5
 20
-99.5
 30
0.0
 40
0.5000000000000284
100
AcDbArc
 50
270.0
 51
360.0
  0
ARC
  5
318
330
28B
100
AcDbEntity
  8
0
  6
Continuous
 62
     7
370
    25
100
AcDbCircle
 10
149.5
 20
99.5
 30
0.0
 40
0.5
100
AcDbArc
 50
0.0
 51
90.0
  0
ARC
  5
319
330
28B
100
AcDbEntity
  8
0
  6
Continuous
 62
     7
370
    25
100
AcDbCircle
 10
134.5
 20
-99.5
 30
0.0
 40
0.5000000000000284
100
AcDbArc
 50
180.0
 51
270.0
  0
ARC
  5
31A
330
28B
100
AcDbEntity
  8
0
  6
Continuous
 62
     7
370
    25
100
AcDbCircle
 10
134.5
 20
99.5
 30
0.0
 40
0.5000000000000284
100
AcDbArc
 50
90.0
 51
180.0
  0
ARC
  5
31B
330
28B
100
AcDbEntity
  8
0
  6
Continuous
 62
     7
370
    25
100
AcDbCircle
 10
133.5
 20
-99.5
 30
0.0
 40
0.4999999999999147
100
AcDbArc
 50
270.0
 51
0.0
  0
ARC
  5
31C
330
28B
100
AcDbEntity
  8
0
  6
Continuous
 62
     7
370
    25
100
AcDbCircle
 10
-133.5
 20
-99.5
 30
0.0
 40
0.5000000000000284
100
AcDbArc
 50
180.0
 51
270.0
  0
ARC
  5
31D
330
28B
100
AcDbEntity
  8
0
  6
Continuous
 62
     7
370
    25
100
AcDbCircle
 10
133.5
 20
83.5
 30
0.0
 40
0.4999999999999716
100
AcDbArc
 50
360.0
 51
90.0
  0
ARC
  5
31E
330
28B
100
AcDbEntity
  8
0
  6
Continuous
 62
     7
370
    25
100
AcDbCircle
 10
-133.5
 20
83.5
 30
0.0
 40
0.4999999999999716
100
AcDbArc
 50
90.0
 51
180.0
  0
ARC
  5
31F
330
28B
100
AcDbEntity
  8
0
  6
Continuous
 62
     7
370
    25
100
AcDbCircle
 10
149.0
 20
-117.0
 30
0.0
 40
1.000000000000057
100
AcDbArc
 50
270.0
 51
360.0
  0
ARC
  5
320
330
28B
100
AcDbEntity
  8
0
  6
Continuous
 62
     7
370
    25
100
AcDbCircle
 10
-149.0
 20
-101.0
 30
0.0
 40
1.000000000000057
100
AcDbArc
 50
90.0
 51
180.0
  0
ARC
  5
321
330
28B
100
AcDbEntity
  8
0
  6
Continuous
 62
     7
370
    25
100
AcDbCircle
 10
-149.0
 20
-117.0
 30
0.0
 40
1.000000000000028
100
AcDbArc
 50
180.0
 51
270.0
  0
ARC
  5
322
330
28B
100
AcDbEntity
  8
0
  6
Continuous
 62
     7
370
    25
100
AcDbCircle
 10
149.0
 20
-101.0
 30
0.0
 40
1.000000000000057
100
AcDbArc
 50
0.0
 51
90.0
  0
ARC
  5
323
330
28B
100
AcDbEntity
  8
0
  6
Continuous
 62
     7
370
    25
100
AcDbCircle
 10
-103.2684451388
 20
-129.3108360279
 30
0.0
 40
1.189499231825738
100
AcDbArc
 50
241.4004884706
 51
290.45189277
  0
ARC
  5
324
330
28B
100
AcDbEntity
  8
0
  6
Continuous
 62
     7
370
    25
100
AcDbCircle
 10
-96.7315548612
 20
-129.3108360279
 30
0.0
 40
1.189499231825803
100
AcDbArc
 50
249.54810723
 51
298.5995115294
  0
ARC
  5
325
330
28B
100
AcDbEntity
  8
0
  6
Continuous
 62
     7
370
    25
100
AcDbCircle
 10
-98.3401970252
 20
-137.0
 30
0.0
 40
0.9999999999999755
100
AcDbArc
 50
270.0
 51
350.0737544933
  0
ARC
  5
326
330
28B
100
AcDbEntity
  8
0
  6
Continuous
 62
     7
370
    25
100
AcDbCircle
 10
-101.6598029748
 20
-137.0
 30
0.0
 40
0.9999999999999755
100
AcDbArc
 50
189.9262455067
 51
270.0
  0
VIEWPORT
  5
7FB
330
28B
100
AcDbEntity
  8
0
100
AcDbViewport
 10
0.0
 20
0.0
 30
0.0
 40
205.6
 41
156.0
 68
     1
 69
     1
 12
0.0
 22
750.0
 13
0.0
 23
0.0
 14
10.0
 24
10.0
 15
10.0
 25
10.0
 16
0.0
 26
0.0
 36
1.0
 17
0.0
 27
0.0
 37
0.0
 42
50.0
 43
0.0
 44
0.0
 45
1530.0
 50
0.0
 51
0.0
 72
   100
 90
   557152
  1

281
     0
 71
     1
 74
     0
110
0.0
120
0.0
130
0.0
111
1.0
121
0.0
131
0.0
112
0.0
122
1.0
132
0.0
 79
     0
146
0.0
  0
ENDBLK
  5
28E
330
28B
100
AcDbEntity
  8
0
100
AcDbBlockEnd
  0
BLOCK
  5
329
330
327
100
AcDbEntity
  8
0
100
AcDbBlockBegin
  2
*Paper_Space3
 70
     0
 10
0.0
 20
0.0
 30
0.0
  3
*Paper_Space3
  1

  0
LINE
  5
38E
330
327
100
AcDbEntity
  8
0
  6
Continuous
 62
     7
370
    25
100
AcDbLine
 10
-133.5
 20
100.0
 30
0.0
 11
-133.5
 21
-100.0
 31
0.0
  0
LINE
  5
38F
330
327
100
AcDbEntity
  8
0
  6
Continuous
 62
     7
370
    25
100
AcDbLine
 10
133.5
 20
-100.0
 30
0.0
 11
133.5
 21
100.0
 31
0.0
  0
LINE
  5
390
330
327
100
AcDbEntity
  8
0
  6
Continuous
 62
     7
370
    25
100
AcDbLine
 10
-134.0
 20
99.5
 30
0.0
 11
-134.0
 21
-100.0
 31
0.0
  0
LINE
  5
391
330
327
100
AcDbEntity
  8
0
  6
Continuous
 62
     7
370
    25
100
AcDbLine
 10
134.0
 20
-100.0
 30
0.0
 11
134.0
 21
99.5
 31
0.0
  0
LINE
  5
392
330
327
100
AcDbEntity
  8
0
  6
Continuous
 62
     7
370
    25
100
AcDbLine
 10
134.0
 20
-100.0
 30
0.0
 11
-134.0
 21
-100.0
 31
0.0
  0
LINE
  5
393
330
327
100
AcDbEntity
  8
0
  6
Continuous
 62
     7
370
    25
100
AcDbLine
 10
-149.5
 20
100.0
 30
0.0
 11
-149.5
 21
-100.0
 31
0.0
  0
LINE
  5
394
330
327
100
AcDbEntity
  8
0
  6
Continuous
 62
     7
370
    25
100
AcDbLine
 10
-150.0
 20
-99.5
 30
0.0
 11
-150.0
 21
99.5
 31
0.0
  0
LINE
  5
395
330
327
100
AcDbEntity
  8
0
  6
Continuous
 62
     7
370
    25
100
AcDbLine
 10
-134.5
 20
-100.0
 30
0.0
 11
-134.5
 21
100.0
 31
0.0
  0
LINE
  5
396
330
327
100
AcDbEntity
  8
0
  6
Continuous
 62
     7
370
    25
100
AcDbLine
 10
-134.5
 20
-100.0
 30
0.0
 11
-149.5
 21
-100.0
 31
0.0
  0
LINE
  5
397
330
327
100
AcDbEntity
  8
0
  6
Continuous
 62
     7
370
    25
100
AcDbLine
 10
150.0
 20
99.5
 30
0.0
 11
-150.0
 21
99.5
 31
0.0
  0
LINE
  5
398
330
327
100
AcDbEntity
  8
0
  6
Continuous
 62
     7
370
    25
100
AcDbLine
 10
-149.5
 20
100.0
 30
0.0
 11
149.5
 21
100.0
 31
0.0
  0
LINE
  5
399
330
327
100
AcDbEntity
  8
0
  6
Continuous
 62
     7
370
    25
100
AcDbLine
 10
149.5
 20
-100.0
 30
0.0
 11
134.5
 21
-100.0
 31
0.0
  0
LINE
  5
39A
330
327
100
AcDbEntity
  8
0
  6
Continuous
 62
     7
370
    25
100
AcDbLine
 10
134.5
 20
100.0
 30
0.0
 11
134.5
 21
-100.0
 31
0.0
  0
LINE
  5
39B
330
327
100
AcDbEntity
  8
0
  6
Continuous
 62
     7
370
    25
100
AcDbLine
 10
-150.0
 20
-99.5
 30
0.0
 11
150.0
 21
-99.5
 31
0.0
  0
LINE
  5
39C
330
327
100
AcDbEntity
  8
0
  6
Continuous
 62
     7
370
    25
100
AcDbLine
 10
149.5
 20
-100.0
 30
0.0
 11
149.5
 21
100.0
 31
0.0
  0
LINE
  5
39D
330
327
100
AcDbEntity
  8
0
  6
Continuous
 62
     7
370
    25
100
AcDbLine
 10
150.0
 20
99.5
 30
0.0
 11
150.0
 21
-99.5
 31
0.0
  0
LINE
  5
39E
330
327
100
AcDbEntity
  8
0
  6
Continuous
 62
     7
370
    25
100
AcDbLine
 10
-149.0
 20
118.0
 30
0.0
 11
-149.0
 21
100.0
 31
0.0
  0
LINE
  5
39F
330
327
100
AcDbEntity
  8
0
  6
Continuous
 62
     7
370
    25
100
AcDbLine
 10
150.0
 20
117.0
 30
0.0
 11
-150.0
 21
117.0
 31
0.0
  0
LINE
  5
3A0
330
327
100
AcDbEntity
  8
0
  6
Continuous
 62
     7
370
    25
100
AcDbLine
 10
149.0
 20
100.0
 30
0.0
 11
149.0
 21
118.0
 31
0.0
  0
LINE
  5
3A1
330
327
100
AcDbEntity
  8
0
  6
Continuous
 62
     7
370
    25
100
AcDbLine
 10
-150.0
 20
101.0
 30
0.0
 11
150.0
 21
101.0
 31
0.0
  0
LINE
  5
3A2
330
327
100
AcDbEntity
  8
0
  6
Continuous
 62
     7
370
    25
100
AcDbLine
 10
-150.0
 20
101.0
 30
0.0
 11
-150.0
 21
117.0
 31
0.0
  0
LINE
  5
3A3
330
327
100
AcDbEntity
  8
0
  6
Continuous
 62
     7
370
    25
100
AcDbLine
 10
-149.0
 20
118.0
 30
0.0
 11
149.0
 21
118.0
 31
0.0
  0
LINE
  5
3A4
330
327
100
AcDbEntity
  8
0
  6
Continuous
 62
     7
370
    25
100
AcDbLine
 10
150.0
 20
117.0
 30
0.0
 11
150.0
 21
101.0
 31
0.0
  0
LINE
  5
3A5
330
327
100
AcDbEntity
  8
0
  6
Continuous
 62
     7
370
    25
100
AcDbLine
 10
-94.9727532908
 20
118.0
 30
0.0
 11
-97.1471906346
 21
130.4253562504
 31
0.0
  0
LINE
  5
3A6
330
327
100
AcDbEntity
  8
0
  6
Continuous
 62
     7
370
    25
100
AcDbLine
 10
-97.3551665581
 20
137.1723803318
 30
0.0
 11
-94.0
 21
118.0
 31
0.0
  0
LINE
  5
3A7
330
327
100
AcDbEntity
  8
0
  6
Continuous
 62
     7
370
    25
100
AcDbLine
 10
-106.0
 20
118.0
 30
0.0
 11
-102.6448334419
 21
137.1723803318
 31
0.0
  0
LINE
  5
3A8
330
327
100
AcDbEntity
  8
0
  6
Continuous
 62
     7
370
    25
100
AcDbLine
 10
-102.8528093654
 20
130.4253562504
 30
0.0
 11
-105.0272467092
 21
118.0
 31
0.0
  0
LINE
  5
3A9
330
327
100
AcDbEntity
  8
0
  6
Continuous
 62
     7
370
    25
100
AcDbLine
 10
-97.1471906346
 20
130.4253562504
 30
0.0
 11
-102.8528093654
 21
130.4253562504
 31
0.0
  0
LINE
  5
3AA
330
327
100
AcDbEntity
  8
0
  6
Continuous
 62
     7
370
    25
100
AcDbLine
 10
-101.6598029748
 20
138.0
 30
0.0
 11
-102.8528093654
 21
130.4253562504
 31
0.0
  0
LINE
  5
3AB
330
327
100
AcDbEntity
  8
0
  6
Continuous
 62
     7
370
    25
100
AcDbLine
 10
-101.6598029748
 20
138.0
 30
0.0
 11
-98.3401970252
 21
138.0
 31
0.0
  0
LINE
  5
3AC
330
327
100
AcDbEntity
  8
0
  6
Continuous
 62
     7
370
    25
100
AcDbLine
 10
-97.1471906346
 20
130.4253562504
 30
0.0
 11
-98.3401970252
 21
138.0
 31
0.0
  0
ARC
  5
3AD
330
327
100
AcDbEntity
  8
0
  6
Continuous
 62
     7
370
    25
100
AcDbCircle
 10
-133.5
 20
-99.5
 30
0.0
 40
0.5
100
AcDbArc
 50
180.0
 51
270.0
  0
ARC
  5
3AE
330
327
100
AcDbEntity
  8
0
  6
Continuous
 62
     7
370
    25
100
AcDbCircle
 10
-133.5
 20
99.5
 30
0.0
 40
0.4999999999999574
100
AcDbArc
 50
90.0
 51
180.0
  0
ARC
  5
3AF
330
327
100
AcDbEntity
  8
0
  6
Continuous
 62
     7
370
    25
100
AcDbCircle
 10
133.5
 20
99.5
 30
0.0
 40
0.4999999999999716
100
AcDbArc
 50
360.0
 51
90.0
  0
ARC
  5
3B0
330
327
100
AcDbEntity
  8
0
  6
Continuous
 62
     7
370
    25
100
AcDbCircle
 10
133.5
 20
-99.5
 30
0.0
 40
0.4999999999999716
100
AcDbArc
 50
270.0
 51
0.0
  0
ARC
  5
3B1
330
327
100
AcDbEntity
  8
0
  6
Continuous
 62
     7
370
    25
100
AcDbCircle
 10
-149.5
 20
-99.5
 30
0.0
 40
0.5000000000000284
100
AcDbArc
 50
180.0
 51
270.0
  0
ARC
  5
3B2
330
327
100
AcDbEntity
  8
0
  6
Continuous
 62
     7
370
    25
100
AcDbCircle
 10
-149.5
 20
99.5
 30
0.0
 40
0.5
100
AcDbArc
 50
90.0
 51
180.0
  0
ARC
  5
3B3
330
327
100
AcDbEntity
  8
0
  6
Continuous
 62
     7
370
    25
100
AcDbCircle
 10
-134.5
 20
99.5
 30
0.0
 40
0.5000000000000284
100
AcDbArc
 50
0.0
 51
90.0
  0
ARC
  5
3B4
330
327
100
AcDbEntity
  8
0
  6
Continuous
 62
     7
370
    25
100
AcDbCircle
 10
-134.5
 20
-99.5
 30
0.0
 40
0.5
100
AcDbArc
 50
270.0
 51
0.0
  0
ARC
  5
3B5
330
327
100
AcDbEntity
  8
0
  6
Continuous
 62
     7
370
    25
100
AcDbCircle
 10
149.5
 20
-99.5
 30
0.0
 40
0.5
100
AcDbArc
 50
270.0
 51
0.0
  0
ARC
  5
3B6
330
327
100
AcDbEntity
  8
0
  6
Continuous
 62
     7
370
    25
100
AcDbCircle
 10
134.5
 20
99.5
 30
0.0
 40
0.5000000000000284
100
AcDbArc
 50
90.0
 51
180.0
  0
ARC
  5
3B7
330
327
100
AcDbEntity
  8
0
  6
Continuous
 62
     7
370
    25
100
AcDbCircle
 10
134.5
 20
-99.5
 30
0.0
 40
0.5000000000000284
100
AcDbArc
 50
180.0
 51
270.0
  0
ARC
  5
3B8
330
327
100
AcDbEntity
  8
0
  6
Continuous
 62
     7
370
    25
100
AcDbCircle
 10
149.5
 20
99.5
 30
0.0
 40
0.5000000000000284
100
AcDbArc
 50
0.0
 51
90.0
  0
ARC
  5
3B9
330
327
100
AcDbEntity
  8
0
  6
Continuous
 62
     7
370
    25
100
AcDbCircle
 10
-149.0
 20
101.0
 30
0.0
 40
1.000000000000028
100
AcDbArc
 50
180.0
 51
270.0
  0
ARC
  5
3BA
330
327
100
AcDbEntity
  8
0
  6
Continuous
 62
     7
370
    25
100
AcDbCircle
 10
149.0
 20
117.0
 30
0.0
 40
1.000000000000028
100
AcDbArc
 50
0.0
 51
90.0
  0
ARC
  5
3BB
330
327
100
AcDbEntity
  8
0
  6
Continuous
 62
     7
370
    25
100
AcDbCircle
 10
149.0
 20
101.0
 30
0.0
 40
1.000000000000028
100
AcDbArc
 50
270.0
 51
0.0
  0
ARC
  5
3BC
330
327
100
AcDbEntity
  8
0
  6
Continuous
 62
     7
370
    25
100
AcDbCircle
 10
-149.0
 20
117.0
 30
0.0
 40
1.000000000000057
100
AcDbArc
 50
90.0
 51
180.0
  0
ARC
  5
3BD
330
327
100
AcDbEntity
  8
0
  6
Continuous
 62
     7
370
    25
100
AcDbCircle
 10
-96.7315548612
 20
129.3108360279
 30
0.0
 40
1.189499231825997
100
AcDbArc
 50
61.4004884706
 51
110.45189277
  0
ARC
  5
3BE
330
327
100
AcDbEntity
  8
0
  6
Continuous
 62
     7
370
    25
100
AcDbCircle
 10
-103.2684451388
 20
129.3108360279
 30
0.0
 40
1.189499231826036
100
AcDbArc
 50
69.54810723
 51
118.5995115294
  0
ARC
  5
3BF
330
327
100
AcDbEntity
  8
0
  6
Continuous
 62
     7
370
    25
100
AcDbCircle
 10
-98.3401970252
 20
137.0
 30
0.0
 40
1.0
100
AcDbArc
 50
9.9262455067
 51
90.0
  0
ARC
  5
3C0
330
327
100
AcDbEntity
  8
0
  6
Continuous
 62
     7
370
    25
100
AcDbCircle
 10
-101.6598029748
 20
137.0
 30
0.0
 40
0.9999999999999716
100
AcDbArc
 50
90.0
 51
170.0737544933
  0
VIEWPORT
  5
7FD
330
327
100
AcDbEntity
  8
0
100
AcDbViewport
 10
0.0
 20
0.0
 30
0.0
 40
205.6
 41
156.0
 68
     1
 69
     1
 12
0.0
 22
750.0
 13
0.0
 23
0.0
 14
10.0
 24
10.0
 15
10.0
 25
10.0
 16
0.0
 26
0.0
 36
1.0
 17
0.0
 27
0.0
 37
0.0
 42
50.0
 43
0.0
 44
0.0
 45
1530.0
 50
0.0
 51
0.0
 72
   100
 90
   557152
  1

281
     0
 71
     1
 74
     0
110
0.0
120
0.0
130
0.0
111
1.0
121
0.0
131
0.0
112
0.0
122
1.0
132
0.0
 79
     0
146
0.0
  0
ENDBLK
  5
32A
330
327
100
AcDbEntity
  8
0
100
AcDbBlockEnd
  0
BLOCK
  5
3C3
330
3C1
100
AcDbEntity
  8
0
100
AcDbBlockBegin
  2
*Paper_Space4
 70
     0
 10
0.0
 20
0.0
 30
0.0
  3
*Paper_Space4
  1

  0
SPLINE
  5
3E8
330
3C1
100
AcDbEntity
  8
0
  6
Continuous
 62
     7
370
    25
100
AcDbSpline
210
0.0
220
0.0
230
1.0
 70
     8
 71
     3
 72
    15
 73
    11
 74
     0
 42
0.000000001
 43
0.00000001
 40
0.0
 40
0.0
 40
0.0
 40
0.0
 40
0.0748075313064199
 40
0.2167586440394564
 40
0.357624163692896
 40
0.4975673521308198
 40
0.6369683200683028
 40
0.7762796123172301
 40
0.9159564058554301
 40
1.0
 40
1.0
 40
1.0
 40
1.0
 10
-165.5418294697911
 20
761.8779751536881
 30
0.0
 10
-165.7196301304
 20
761.6616909320561
 30
0.0
 10
-166.2348166287361
 20
761.0349963494472
 30
0.0
 10
-167.0310178095177
 20
759.8502595694257
 30
0.0
 10
-167.8743633978235
 20
758.3115914873835
 30
0.0
 10
-168.5862594631068
 20
756.6792944962423
 30
0.0
 10
-169.1485240722945
 20
755.0054470956537
 30
0.0
 10
-169.5404548161982
 20
753.3400982758549
 30
0.0
 10
-169.7321031668736
 20
751.9386362480794
 30
0.0
 10
-169.7509027587648
 20
751.1325243251803
 30
0.0
 10
-169.7579650801176
 20
750.8296974617687
 30
0.0
  0
SPLINE
  5
3EB
330
3C1
100
AcDbEntity
  8
0
  6
Continuous
 62
     7
370
    25
100
AcDbSpline
210
0.0
220
0.0
230
1.0
 70
     8
 71
     3
 72
    17
 73
    13
 74
     0
 42
0.000000001
 43
0.00000001
 40
0.0
 40
0.0
 40
0.0
 40
0.0
 40
0.0552027173176928
 40
0.163051811165538
 40
0.271127475138913
 40
0.3794857412430935
 40
0.4883489355654866
 40
0.5977449402888806
 40
0.707585277700313
 40
0.8177063449243342
 40
0.9279001746127479
 40
1.0
 40
1.0
 40
1.0
 40
1.0
 10
-162.9180977986232
 20
691.5370189445122
 30
0.0
 10
-162.9117410230594
 20
691.7747109613762
 30
0.0
 10
-162.8929650674687
 20
692.4767799125515
 30
0.0
 10
-162.6778050357824
 20
693.7266634894393
 30
0.0
 10
-162.1894855631964
 20
695.264706568231
 30
0.0
 10
-161.4668937306713
 20
696.8067259869263
 30
0.0
 10
-160.5345070053289
 20
698.3008305946804
 30
0.0
 10
-159.418649081173
 20
699.6999576074446
 30
0.0
 10
-158.154155558444
 20
700.9601240559196
 30
0.0
 10
-156.7825366257094
 20
702.0357019741704
 30
0.0
 10
-155.5126559536674
 20
702.8104754898447
 30
0.0
 10
-154.7175671549513
 20
703.1588634204679
 30
0.0
 10
-154.4030978250616
 20
703.296655978056
 30
0.0
  0
SPLINE
  5
3EE
330
3C1
100
AcDbEntity
  8
0
  6
Continuous
 62
     7
370
    25
100
AcDbSpline
210
0.0
220
0.0
230
1.0
 70
     8
 71
     3
 72
    12
 73
     8
 74
     0
 42
0.000000001
 43
0.00000001
 40
0.0
 40
0.0
 40
0.0
 40
0.0
 40
0.2131421855717838
 40
0.4604646577911676
 40
0.7027248580507512
 40
0.9372579838998567
 40
1.0
 40
1.0
 40
1.0
 40
1.0
 10
-160.8530926372502
 20
499.4177633419153
 30
0.0
 10
-161.1155905593542
 20
499.6008450700792
 30
0.0
 10
-161.6826815627059
 20
499.9963682044634
 30
0.0
 10
-162.3088846960193
 20
500.8879950157556
 30
0.0
 10
-162.7538710647476
 20
502.01883084569
 30
0.0
 10
-162.907135062292
 20
503.0156383549431
 30
0.0
 10
-162.916187266961
 20
503.6076780550184
 30
0.0
 10
-162.9180977986232
 20
503.7326322107897
 30
0.0
  0
SPLINE
  5
3EF
330
3C1
100
AcDbEntity
  8
0
  6
Continuous
 62
     7
370
    25
100
AcDbSpline
210
0.0
220
0.0
230
1.0
 70
     8
 71
     3
 72
     9
 73
     5
 74
     0
 42
0.000000001
 43
0.00000001
 40
0.0
 40
0.0
 40
0.0
 40
0.0
 40
0.3619828225419155
 40
1.0
 40
1.0
 40
1.0
 40
1.0
 10
-161.2259758326782
 20
502.5828463710171
 30
0.0
 10
-161.3963273526583
 20
502.448106252862
 30
0.0
 10
-161.8669339930065
 20
502.0758783189255
 30
0.0
 10
-162.3016902643061
 20
501.8507452635177
 30
0.0
 10
-162.5790722334029
 20
501.7071065069538
 30
0.0
  0
SPLINE
  5
3F1
330
3C1
100
AcDbEntity
  8
0
  6
Continuous
 62
     7
370
    25
100
AcDbSpline
210
0.0
220
0.0
230
1.0
 70
     8
 71
     3
 72
    11
 73
     7
 74
     0
 42
0.000000001
 43
0.00000001
 40
0.0
 40
0.0
 40
0.0
 40
0.0
 40
0.2088546978642164
 40
0.57524733420039
 40
0.9392514808953945
 40
1.0
 40
1.0
 40
1.0
 40
1.0
 10
-164.1803496158192
 20
438.3689099518627
 30
0.0
 10
-163.9584477375651
 20
438.2668183587382
 30
0.0
 10
-163.3472646268903
 20
437.9856280508848
 30
0.0
 10
-162.2070110682938
 20
437.8324299430623
 30
0.0
 10
-161.2117531096428
 20
437.8595185490188
 30
0.0
 10
-160.6668811833738
 20
437.9415526223399
 30
0.0
 10
-160.5889530965419
 20
437.9532852113772
 30
0.0
  0
SPLINE
  5
3F3
330
3C1
100
AcDbEntity
  8
0
  6
Continuous
 62
     7
370
    25
100
AcDbSpline
210
0.0
220
0.0
230
1.0
 70
     8
 71
     3
 72
    12
 73
     8
 74
     0
 42
0.000000001
 43
0.00000001
 40
0.0
 40
0.0
 40
0.0
 40
0.0
 40
0.124196485580635
 40
0.3638031496820059
 40
0.6067038252372122
 40
0.8170392373112162
 40
0.9999999999999999
 40
0.9999999999999999
 40
0.9999999999999999
 40
0.9999999999999999
 10
-169.7579650801177
 20
445.12949684206
 30
0.0
 10
-169.7524199071545
 20
444.8709331949938
 30
0.0
 10
-169.7361766827174
 20
444.1135343945674
 30
0.0
 10
-169.5521651999067
 20
442.9624742812784
 30
0.0
 10
-169.1346572251295
 20
441.8288020874054
 30
0.0
 10
-168.560991526028
 20
440.9486104105435
 30
0.0
 10
-168.0607039601724
 20
440.5805453216846
 30
0.0
 10
-167.8279709704152
 20
440.409322020524
 30
0.0
  0
LWPOLYLINE
  5
435
330
3C1
100
AcDbEntity
  8
0
  6
Continuous
 62
     7
370
    25
100
AcDbPolyline
 90
        9
 70
   128
 43
0.0
 10
-154.2041122303
 20
497.982675305
 10
-155.9871119689
 20
497.4325582391
 10
-157.7015920275
 20
497.2487531239
 10
-159.2816658989
 20
497.4383234867
 10
-160.6666122303
 20
497.9939842449
 10
-161.8032083109
 20
498.8943816672
 10
-162.6477753908
 20
500.1049139855
 10
-163.1678572307
 20
501.5790611218
 10
-163.3434673771
 20
503.2601724283
  0
LWPOLYLINE
  5
451
330
3C1
100
AcDbEntity
  8
0
  6
Continuous
 62
     7
370
    25
100
AcDbPolyline
 90
        6
 70
   128
 43
0.0
 10
-169.4650718613
 20
444.7212927861
 10
-169.3585355267
 20
443.2684709259
 10
-169.0427369232
 20
442.0366049341
 10
-168.5289709675
 20
441.0697539795
 10
-167.8356131171
 20
440.4024986496
 10
-167.719854891
 20
440.3311889815
  0
LWPOLYLINE
  5
485
330
3C1
100
AcDbEntity
  8
0
  6
Continuous
 62
     8
370
    25
100
AcDbPolyline
 90
        6
 70
   128
 43
0.0
 10
-160.7407580951
 20
499.3321896619
 10
-160.7412426518
 20
499.3324694286
 10
-159.4634488412
 20
498.8164981639
 10
-158.0056243989
 20
498.6318111791
 10
-156.4237927008
 20
498.7855058914
 10
-154.7787426518
 20
499.2716758993
  0
LWPOLYLINE
  5
486
330
3C1
100
AcDbEntity
  8
0
  6
Continuous
 62
     8
370
    25
100
AcDbPolyline
 90
        3
 70
   128
 43
0.0
 10
-160.5908817574
 20
502.6269523859
 10
-161.7048255013
 20
501.8341812343
 10
-162.5095573197
 20
501.4660284579
  0
LINE
  5
48A
330
3C1
100
AcDbEntity
  8
0
  6
Continuous
 62
     7
370
    25
100
AcDbLine
 10
-176.5695885155
 20
1244.8131502183
 30
0.0
 11
-176.5695885155
 21
1244.566790044
 31
0.0
  0
LINE
  5
48B
330
3C1
100
AcDbEntity
  8
0
  6
Continuous
 62
     7
370
    25
100
AcDbLine
 10
-35.6053187425
 20
1326.4787817758
 30
0.0
 11
-176.3195681986
 21
1245.2461746494
 31
0.0
  0
LINE
  5
48C
330
3C1
100
AcDbEntity
  8
0
  6
Continuous
 62
     7
370
    25
100
AcDbLine
 10
-24.4987576584
 20
1320.3557209371
 30
0.0
 11
-35.1053593762
 21
1326.4787817758
 31
0.0
  0
LINE
  5
48D
330
3C1
100
AcDbEntity
  8
0
  6
Continuous
 62
     7
370
    25
100
AcDbLine
 10
24.2487373415
 20
1128.8831983394
 30
0.0
 11
24.2487373415
 21
1128.6936288829
 31
0.0
  0
LINE
  5
48E
330
3C1
100
AcDbEntity
  8
0
  6
Continuous
 62
     7
370
    25
100
AcDbLine
 10
165.2130071145
 20
1210.548829897
 30
0.0
 11
24.4987576584
 21
1129.3162227706
 31
0.0
  0
LINE
  5
48F
330
3C1
100
AcDbEntity
  8
0
  6
Continuous
 62
     7
370
    25
100
AcDbLine
 10
176.5695885155
 20
-20.0019323896
 30
0.0
 11
176.5695885155
 21
1203.9927446271
 31
0.0
  0
LINE
  5
490
330
3C1
100
AcDbEntity
  8
0
  6
Continuous
 62
     7
370
    25
100
AcDbLine
 10
176.3195681986
 20
1204.4257690583
 30
0.0
 11
165.7129664808
 21
1210.548829897
 31
0.0
  0
LINE
  5
491
330
3C1
100
AcDbEntity
  8
0
  6
Continuous
 62
     7
370
    25
100
AcDbLine
 10
35.6053187425
 20
-101.6675639472
 30
0.0
 11
176.3195681986
 21
-20.4349568208
 31
0.0
  0
LINE
  5
492
330
3C1
100
AcDbEntity
  8
0
  6
Continuous
 62
     7
370
    25
100
AcDbLine
 10
34.8919055662
 20
-101.5443396856
 30
0.0
 11
35.1053593762
 21
-101.6675639472
 31
0.0
  0
LINE
  5
493
330
3C1
100
AcDbEntity
  8
0
  6
Continuous
 62
     7
370
    25
100
AcDbLine
 10
153.6921512006
 20
1204.4257690583
 30
0.0
 11
-35.1053593762
 21
1313.4162519866
 31
0.0
  0
LINE
  5
494
330
3C1
100
AcDbEntity
  8
0
  6
Continuous
 62
     7
370
    25
100
AcDbLine
 10
-165.2558800165
 20
1238.2818853237
 30
0.0
 11
-165.2558800165
 21
1238.0923158671
 31
0.0
  0
LINE
  5
495
330
3C1
100
AcDbEntity
  8
0
  6
Continuous
 62
     7
370
    25
100
AcDbLine
 10
-35.6053187425
 20
1313.4162519866
 30
0.0
 11
-165.0058596996
 21
1238.7149097549
 31
0.0
  0
LINE
  5
496
330
3C1
100
AcDbEntity
  8
0
  6
Continuous
 62
     7
370
    25
100
AcDbLine
 10
34.941125497
 20
-101.234473166
 30
0.0
 11
34.941125497
 21
1121.9436630389
 31
0.0
  0
LINE
  5
497
330
3C1
100
AcDbEntity
  8
0
  6
Continuous
 62
     7
370
    25
100
AcDbLine
 10
34.4410848633
 20
1122.8097119013
 30
0.0
 11
-176.2767359303
 21
1244.4545205629
 31
0.0
  0
LINE
  5
498
330
3C1
100
AcDbEntity
  8
0
  6
Continuous
 62
     7
370
    25
100
AcDbLine
 10
-189.0904037956
 20
1237.0572068059
 30
0.0
 11
-189.0904037956
 21
13.879070601
 31
0.0
  0
LINE
  5
499
330
3C1
100
AcDbEntity
  8
0
  6
Continuous
 62
     7
370
    25
100
AcDbLine
 10
-177.276654663
 20
1244.4545205629
 30
0.0
 11
-188.5903631619
 21
1237.9232556683
 31
0.0
  0
LINE
  5
49A
330
3C1
100
AcDbEntity
  8
0
  6
Continuous
 62
     7
370
    25
100
AcDbLine
 10
23.1273763643
 20
-108.6317869229
 30
0.0
 11
34.4410848633
 21
-102.1005220283
 31
0.0
  0
LINE
  5
49B
330
3C1
100
AcDbEntity
  8
0
  6
Continuous
 62
     7
370
    25
100
AcDbLine
 10
-188.5903631619
 20
13.0130217387
 30
0.0
 11
22.1274576317
 21
-108.6317869229
 31
0.0
  0
LINE
  5
49C
330
3C1
100
AcDbEntity
  8
0
  6
Continuous
 62
     7
370
    25
100
AcDbLine
 10
-158.2755663848
 20
770.3949500194
 30
0.0
 11
-165.5418294698
 21
761.8779751537
 31
0.0
  0
LINE
  5
49D
330
3C1
100
AcDbEntity
  8
0
  6
Continuous
 62
     7
370
    25
100
AcDbLine
 10
-169.7579650801
 20
750.8296974618
 30
0.0
 11
-169.7579650801
 21
445.1294968421
 31
0.0
  0
LINE
  5
49E
330
3C1
100
AcDbEntity
  8
0
  6
Continuous
 62
     7
370
    25
100
AcDbLine
 10
-154.4030978251
 20
703.2966559781
 30
0.0
 11
-150.1552188583
 21
705.0184473586
 31
0.0
  0
LINE
  5
49F
330
3C1
100
AcDbEntity
  8
0
  6
Continuous
 62
     7
370
    25
100
AcDbLine
 10
-162.9180977986
 20
503.7326322108
 30
0.0
 11
-162.9180977986
 21
691.5370189445
 31
0.0
  0
LINE
  5
4A0
330
3C1
100
AcDbEntity
  8
0
  6
Continuous
 62
     7
370
    25
100
AcDbLine
 10
-158.2311248649
 20
505.0452058005
 30
0.0
 11
-161.2259758327
 21
502.582846371
 31
0.0
  0
LINE
  5
4A1
330
3C1
100
AcDbEntity
  8
0
  6
Continuous
 62
     7
370
    25
100
AcDbLine
 10
-167.719854891
 20
440.3311889815
 30
0.0
 11
-164.7200246564
 21
438.5994238487
 31
0.0
  0
LINE
  5
4A2
330
3C1
100
AcDbEntity
  8
0
  6
Continuous
 62
     7
370
    25
100
AcDbLine
 10
-160.5889530965
 20
437.9532852114
 30
0.0
 11
-150.2245480782
 21
439.607811107
 31
0.0
  0
LINE
  5
4A3
330
3C1
100
AcDbEntity
  8
0
  6
Continuous
 62
     7
370
    25
100
AcDbLine
 10
-176.0695885155
 20
1245.2214206242
 30
0.0
 11
-165.4629867977
 21
1239.0983597855
 31
0.0
  0
LINE
  5
4A4
330
3C1
100
AcDbEntity
  8
0
  6
Continuous
 62
     7
370
    25
100
AcDbLine
 10
-165.8165401882
 20
1238.4859873516
 30
0.0
 11
-176.423141906
 21
1244.6090481903
 31
0.0
  0
LINE
  5
4A5
330
3C1
100
AcDbEntity
  8
0
  6
Continuous
 62
     7
370
    25
100
AcDbLine
 10
-165.4629867977
 20
1239.0983597855
 30
0.0
 11
-24.7487373415
 21
1320.3309669119
 31
0.0
  0
LINE
  5
4A6
330
3C1
100
AcDbEntity
  8
0
  6
Continuous
 62
     7
370
    25
100
AcDbLine
 10
-35.3553390593
 20
1326.4540277506
 30
0.0
 11
-176.0695885155
 21
1245.2214206242
 31
0.0
  0
LINE
  5
4A7
330
3C1
100
AcDbEntity
  8
0
  6
Continuous
 62
     7
370
    25
100
AcDbLine
 10
-24.7487373415
 20
1320.3309669119
 30
0.0
 11
-35.3553390593
 21
1326.4540277506
 31
0.0
  0
LINE
  5
4A8
330
3C1
100
AcDbEntity
  8
0
  6
Continuous
 62
     7
370
    25
100
AcDbLine
 10
35.7088924499
 20
1122.5560354728
 30
0.0
 11
35.7088924499
 21
-101.4386415439
 31
0.0
  0
LINE
  5
4A9
330
3C1
100
AcDbEntity
  8
0
  6
Continuous
 62
     7
370
    25
100
AcDbLine
 10
35.0017856687
 20
-101.4386415439
 30
0.0
 11
35.0017856687
 21
1122.5560354728
 31
0.0
  0
LINE
  5
4AA
330
3C1
100
AcDbEntity
  8
0
  6
Continuous
 62
     7
370
    25
100
AcDbLine
 10
35.3553390593
 20
1123.1684079067
 30
0.0
 11
176.0695885155
 21
1204.4010150331
 31
0.0
  0
LINE
  5
4AB
330
3C1
100
AcDbEntity
  8
0
  6
Continuous
 62
     7
370
    25
100
AcDbLine
 10
176.423141906
 20
1203.7886425992
 30
0.0
 11
35.7088924499
 21
1122.5560354728
 31
0.0
  0
LINE
  5
4AC
330
3C1
100
AcDbEntity
  8
0
  6
Continuous
 62
     7
370
    25
100
AcDbLine
 10
35.0017856687
 20
1122.5560354728
 30
0.0
 11
24.3951839509
 21
1128.6790963115
 31
0.0
  0
LINE
  5
4AD
330
3C1
100
AcDbEntity
  8
0
  6
Continuous
 62
     7
370
    25
100
AcDbLine
 10
24.7487373415
 20
1129.2914687454
 30
0.0
 11
35.3553390593
 21
1123.1684079067
 31
0.0
  0
LINE
  5
4AE
330
3C1
100
AcDbEntity
  8
0
  6
Continuous
 62
     7
370
    25
100
AcDbLine
 10
176.423141906
 20
-20.2060344176
 30
0.0
 11
176.423141906
 21
1203.7886425992
 31
0.0
  0
LINE
  5
4AF
330
3C1
100
AcDbEntity
  8
0
  6
Continuous
 62
     7
370
    25
100
AcDbLine
 10
35.7088924499
 20
-101.4386415439
 30
0.0
 11
176.423141906
 21
-20.2060344176
 31
0.0
  0
LINE
  5
4B0
330
3C1
100
AcDbEntity
  8
0
  6
Continuous
 62
     7
370
    25
100
AcDbLine
 10
165.4629867977
 20
1210.5240758717
 30
0.0
 11
24.7487373415
 21
1129.2914687454
 31
0.0
  0
LINE
  5
4B1
330
3C1
100
AcDbEntity
  8
0
  6
Continuous
 62
     7
370
    25
100
AcDbLine
 10
176.0695885155
 20
1204.4010150331
 30
0.0
 11
165.4629867977
 21
1210.5240758717
 31
0.0
  0
LINE
  5
4B2
330
3C1
100
AcDbEntity
  8
0
  6
Continuous
 62
     7
370
    25
100
AcDbLine
 10
154.1492782987
 20
1204.4010150331
 30
0.0
 11
154.1492782987
 21
1204.1618752018
 31
0.0
  0
LINE
  5
4B3
330
3C1
100
AcDbEntity
  8
0
  6
Continuous
 62
     7
370
    25
100
AcDbLine
 10
154.1492782987
 20
1204.4010150331
 30
0.0
 11
165.4629867977
 21
1210.9322799276
 31
0.0
  0
LINE
  5
4B4
330
3C1
100
AcDbEntity
  8
0
  6
Continuous
 62
     7
370
    25
100
AcDbLine
 10
165.4629867977
 20
1210.9322799276
 30
0.0
 11
165.4629867977
 21
1210.6158054658
 31
0.0
  0
LINE
  5
4B5
330
3C1
100
AcDbEntity
  8
0
  6
Continuous
 62
     7
370
    25
100
AcDbLine
 10
-35.3553390593
 20
1313.7997020173
 30
0.0
 11
-35.3553390593
 21
1313.4832275554
 31
0.0
  0
LINE
  5
4B6
330
3C1
100
AcDbEntity
  8
0
  6
Continuous
 62
     7
370
    25
100
AcDbLine
 10
-35.3553390593
 20
1313.7997020173
 30
0.0
 11
154.1492782987
 21
1204.4010150331
 31
0.0
  0
LINE
  5
4B7
330
3C1
100
AcDbEntity
  8
0
  6
Continuous
 62
     7
370
    25
100
AcDbLine
 10
165.4629867977
 20
1210.9322799276
 30
0.0
 11
-24.0416305603
 21
1320.3309669119
 31
0.0
  0
LINE
  5
4B8
330
3C1
100
AcDbEntity
  8
0
  6
Continuous
 62
     7
370
    25
100
AcDbLine
 10
-24.0416305603
 20
1320.3309669119
 30
0.0
 11
-35.3553390593
 21
1313.7997020173
 31
0.0
  0
LINE
  5
4B9
330
3C1
100
AcDbEntity
  8
0
  6
Continuous
 62
     7
370
    25
100
AcDbLine
 10
23.6880771697
 20
1129.0873003674
 30
0.0
 11
-165.1094334071
 21
1238.0777832957
 31
0.0
  0
LINE
  5
4BA
330
3C1
100
AcDbEntity
  8
0
  6
Continuous
 62
     7
370
    25
100
AcDbLine
 10
-164.7558800165
 20
1238.6901557296
 30
0.0
 11
24.0416305603
 21
1129.6996728013
 31
0.0
  0
LINE
  5
4BB
330
3C1
100
AcDbEntity
  8
0
  6
Continuous
 62
     7
370
    25
100
AcDbLine
 10
24.0416305603
 20
1129.6996728013
 30
0.0
 11
153.4421715175
 21
1204.4010150331
 31
0.0
  0
LINE
  5
4BC
330
3C1
100
AcDbEntity
  8
0
  6
Continuous
 62
     7
370
    25
100
AcDbLine
 10
-35.3553390593
 20
1313.3914979614
 30
0.0
 11
-164.7558800165
 21
1238.6901557296
 31
0.0
  0
LINE
  5
4BD
330
3C1
100
AcDbEntity
  8
0
  6
Continuous
 62
     7
370
    25
100
AcDbLine
 10
153.4421715175
 20
1204.4010150331
 30
0.0
 11
-35.3553390593
 21
1313.3914979614
 31
0.0
  0
LINE
  5
4BE
330
3C1
100
AcDbEntity
  8
0
  6
Continuous
 62
     7
370
    25
100
AcDbLine
 10
23.3345237792
 20
1115.0041940884
 30
0.0
 11
23.3345237792
 21
-108.1739421164
 31
0.0
  0
LINE
  5
4BF
330
3C1
100
AcDbEntity
  8
0
  6
Continuous
 62
     7
370
    25
100
AcDbLine
 10
21.9203102168
 20
-108.1739421164
 30
0.0
 11
21.9203102168
 21
1115.0041940884
 31
0.0
  0
LINE
  5
4C0
330
3C1
100
AcDbEntity
  8
0
  6
Continuous
 62
     7
370
    25
100
AcDbLine
 10
-188.0904037956
 20
1237.8737476178
 30
0.0
 11
22.627416998
 21
1116.2289389562
 31
0.0
  0
LINE
  5
4C1
330
3C1
100
AcDbEntity
  8
0
  6
Continuous
 62
     7
370
    25
100
AcDbLine
 10
21.9203102168
 20
1115.0041940884
 30
0.0
 11
-188.7975105768
 21
1236.64900275
 31
0.0
  0
LINE
  5
4C2
330
3C1
100
AcDbEntity
  8
0
  6
Continuous
 62
     7
370
    25
100
AcDbLine
 10
22.627416998
 20
1116.2289389562
 30
0.0
 11
33.941125497
 21
1122.7602038508
 31
0.0
  0
LINE
  5
4C3
330
3C1
100
AcDbEntity
  8
0
  6
Continuous
 62
     7
370
    25
100
AcDbLine
 10
34.6482322781
 20
1121.535458983
 30
0.0
 11
23.3345237792
 21
1115.0041940884
 31
0.0
  0
LINE
  5
4C4
330
3C1
100
AcDbEntity
  8
0
  6
Continuous
 62
     7
370
    25
100
AcDbLine
 10
34.6482322781
 20
-101.6426772219
 30
0.0
 11
34.6482322781
 21
1121.535458983
 31
0.0
  0
LINE
  5
4C5
330
3C1
100
AcDbEntity
  8
0
  6
Continuous
 62
     7
370
    25
100
AcDbLine
 10
23.3345237792
 20
-108.1739421164
 30
0.0
 11
34.6482322781
 21
-101.6426772219
 31
0.0
  0
LINE
  5
4C6
330
3C1
100
AcDbEntity
  8
0
  6
Continuous
 62
     7
370
    25
100
AcDbLine
 10
-188.7975105768
 20
1236.64900275
 30
0.0
 11
-188.7975105768
 21
13.4708665451
 31
0.0
  0
LINE
  5
4C7
330
3C1
100
AcDbEntity
  8
0
  6
Continuous
 62
     7
370
    25
100
AcDbLine
 10
-188.7975105768
 20
13.4708665451
 30
0.0
 11
21.9203102168
 21
-108.1739421164
 31
0.0
  0
LINE
  5
4C8
330
3C1
100
AcDbEntity
  8
0
  6
Continuous
 62
     7
370
    25
100
AcDbLine
 10
-176.7766952966
 20
1244.4050125124
 30
0.0
 11
-188.0904037956
 21
1237.8737476178
 31
0.0
  0
LINE
  5
4C9
330
3C1
100
AcDbEntity
  8
0
  6
Continuous
 62
     7
370
    25
100
AcDbLine
 10
33.941125497
 20
1122.7602038508
 30
0.0
 11
-176.7766952966
 21
1244.4050125124
 31
0.0
  0
LINE
  5
4CA
330
3C1
100
AcDbEntity
  8
0
  6
Continuous
 62
     7
370
    25
100
AcDbLine
 10
-160.1719621077
 20
438.4683221678
 30
0.0
 11
-149.9066376115
 21
440.107031305
 31
0.0
  0
LINE
  5
4CB
330
3C1
100
AcDbEntity
  8
0
  6
Continuous
 62
     7
370
    25
100
AcDbLine
 10
-165.8360187808
 20
749.0021610667
 30
0.0
 11
-165.8360187808
 21
443.3019604469
 31
0.0
  0
LINE
  5
4CC
330
3C1
100
AcDbEntity
  8
0
  6
Continuous
 62
     7
370
    25
100
AcDbLine
 10
-149.9066376115
 20
765.1103918398
 30
0.0
 11
-160.1719621077
 21
758.4274197923
 31
0.0
  0
LINE
  5
4CD
330
3C1
100
AcDbEntity
  8
0
  6
Continuous
 62
     7
370
    25
100
AcDbLine
 10
-149.9066376115
 20
705.49285387
 30
0.0
 11
-149.9066376115
 21
765.1103918398
 31
0.0
  0
LINE
  5
4CE
330
3C1
100
AcDbEntity
  8
0
  6
Continuous
 62
     7
370
    25
100
AcDbLine
 10
-154.2041122303
 20
703.7509599002
 30
0.0
 11
-149.9066376115
 21
705.49285387
 31
0.0
  0
LINE
  5
4CF
330
3C1
100
AcDbEntity
  8
0
  6
Continuous
 62
     7
370
    25
100
AcDbLine
 10
-163.3434673771
 20
503.2601724283
 30
0.0
 11
-163.3434673771
 21
691.064559162
 31
0.0
  0
LINE
  5
4D0
330
3C1
100
AcDbEntity
  8
0
  6
Continuous
 62
     7
370
    25
100
AcDbLine
 10
-149.9066376115
 20
499.7245692748
 30
0.0
 11
-154.2041122303
 21
497.982675305
 31
0.0
  0
LINE
  5
4D1
330
3C1
100
AcDbEntity
  8
0
  6
Continuous
 62
     7
370
    25
100
AcDbLine
 10
-149.9066376115
 20
440.107031305
 30
0.0
 11
-149.9066376115
 21
499.7245692748
 31
0.0
  0
LINE
  5
4D2
330
3C1
100
AcDbEntity
  8
0
  6
Continuous
 62
     7
370
    25
100
AcDbLine
 10
-164.9525728096
 20
761.922093201
 30
0.0
 11
-160.9180911143
 21
759.5930364937
 31
0.0
  0
LINE
  5
4D3
330
3C1
100
AcDbEntity
  8
0
  6
Continuous
 62
     7
370
    25
100
AcDbLine
 10
-167.1177559835
 20
749.0664167932
 30
0.0
 11
-169.4650718613
 21
750.4214934059
 31
0.0
  0
LINE
  5
4D4
330
3C1
100
AcDbEntity
  8
0
  6
Continuous
 62
     7
370
    25
100
AcDbLine
 10
-160.9180911143
 20
759.5930364937
 30
0.0
 11
-150.5944780599
 21
766.3139557883
 31
0.0
  0
LINE
  5
4D5
330
3C1
100
AcDbEntity
  8
0
  6
Continuous
 62
     7
370
    25
100
AcDbLine
 10
-157.7040785374
 20
770.4182407818
 30
0.0
 11
-164.9525728096
 21
761.922093201
 31
0.0
  0
LINE
  5
4D6
330
3C1
100
AcDbEntity
  8
0
  6
Continuous
 62
     7
370
    25
100
AcDbLine
 10
-150.5944780599
 20
766.3139557883
 30
0.0
 11
-157.7040785374
 21
770.4182407818
 31
0.0
  0
LINE
  5
4D7
330
3C1
100
AcDbEntity
  8
0
  6
Continuous
 62
     7
370
    25
100
AcDbLine
 10
-167.1177559835
 20
443.3662161735
 30
0.0
 11
-167.1177559835
 21
749.0664167932
 31
0.0
  0
LINE
  5
4D8
330
3C1
100
AcDbEntity
  8
0
  6
Continuous
 62
     7
370
    25
100
AcDbLine
 10
-169.4650718613
 20
750.4214934059
 30
0.0
 11
-169.4650718613
 21
444.7212927861
 31
0.0
  0
LINE
  5
4D9
330
3C1
100
AcDbEntity
  8
0
  6
Continuous
 62
     7
370
    25
100
AcDbLine
 10
-169.4650718613
 20
444.7212927861
 30
0.0
 11
-167.1177559835
 21
443.3662161735
 31
0.0
  0
LINE
  5
4DA
330
3C1
100
AcDbEntity
  8
0
  6
Continuous
 62
     7
370
    25
100
AcDbLine
 10
-160.8803989372
 20
499.4160455495
 30
0.0
 11
-160.7407580951
 21
499.3321896619
 31
0.0
  0
LINE
  5
4DB
330
3C1
100
AcDbEntity
  8
0
  6
Continuous
 62
     7
370
    25
100
AcDbLine
 10
-160.5908817574
 20
502.6269523859
 30
0.0
 11
-154.7787426518
 21
499.2716758993
 31
0.0
  0
LINE
  5
4DC
330
3C1
100
AcDbEntity
  8
0
  6
Continuous
 62
     7
370
    25
100
AcDbLine
 10
-154.7787426518
 20
499.2716758993
 30
0.0
 11
-150.6244903123
 21
500.95551763
 31
0.0
  0
LINE
  5
4DD
330
3C1
100
AcDbEntity
  8
0
  6
Continuous
 62
     7
370
    25
100
AcDbLine
 10
-157.674066285
 20
505.0251512144
 30
0.0
 11
-160.5908817574
 21
502.6269523859
 31
0.0
  0
LINE
  5
4DE
330
3C1
100
AcDbEntity
  8
0
  6
Continuous
 62
     7
370
    25
100
AcDbLine
 10
-150.6244903123
 20
500.95551763
 30
0.0
 11
-157.674066285
 21
505.0251512144
 31
0.0
  0
LINE
  5
4DF
330
3C1
100
AcDbEntity
  8
0
  6
Continuous
 62
     7
370
    25
100
AcDbLine
 10
-164.2604402584
 20
438.3679262135
 30
0.0
 11
-164.7200246564
 21
438.5994238487
 31
0.0
  0
LINE
  5
4E0
330
3C1
100
AcDbEntity
  8
0
  6
Continuous
 62
     8
370
    25
100
AcDbLine
 10
-165.8165401882
 20
1238.415978095
 30
0.0
 11
-165.8165401882
 21
1238.4859873516
 31
0.0
  0
LINE
  5
4E1
330
3C1
100
AcDbEntity
  8
0
  6
Continuous
 62
     8
370
    25
100
AcDbLine
 10
-176.423141906
 20
1244.6090481903
 30
0.0
 11
-176.423141906
 21
1244.5238860472
 31
0.0
  0
LINE
  5
4E2
330
3C1
100
AcDbEntity
  8
0
  6
Continuous
 62
     8
370
    25
100
AcDbLine
 10
24.3951839509
 20
1128.6790963115
 30
0.0
 11
24.3951839509
 21
1128.6090870548
 31
0.0
  0
LINE
  5
4E3
330
3C1
100
AcDbEntity
  8
0
  6
Continuous
 62
     8
370
    25
100
AcDbLine
 10
34.9279874737
 20
-101.3960387528
 30
0.0
 11
35.0017856687
 21
-101.4386415439
 31
0.0
  0
LINE
  5
4E4
330
3C1
100
AcDbEntity
  8
0
  6
Continuous
 62
     8
370
    25
100
AcDbLine
 10
23.6880771697
 20
1129.0172911107
 30
0.0
 11
23.6880771697
 21
1129.0873003674
 31
0.0
  0
LINE
  5
4E5
330
3C1
100
AcDbEntity
  8
0
  6
Continuous
 62
     8
370
    25
100
AcDbLine
 10
-165.1094334071
 20
1238.0777832957
 30
0.0
 11
-165.1094334071
 21
1238.007774039
 31
0.0
  0
ARC
  5
4E6
330
3C1
100
AcDbEntity
  8
0
  6
Continuous
 62
     7
370
    25
100
AcDbCircle
 10
-176.0695885155
 20
1244.8131502182
 30
0.0
 40
0.5000000000000593
100
AcDbArc
 50
119.9973117336
 51
180.0
  0
ARC
  5
4E7
330
3C1
100
AcDbEntity
  8
0
  6
Continuous
 62
     7
370
    25
100
AcDbCircle
 10
-24.7487373415
 20
1319.9226965059
 30
0.0
 40
0.49999999999406
100
AcDbArc
 50
30.003896436
 51
60.0026882665
  0
ARC
  5
4E8
330
3C1
100
AcDbEntity
  8
0
  6
Continuous
 62
     7
370
    25
100
AcDbCircle
 10
-35.3553390593
 20
1326.0457573446
 30
0.0
 40
0.4999999999999157
100
AcDbArc
 50
60.0026882663
 51
119.9973117337
  0
ARC
  5
4E9
330
3C1
100
AcDbEntity
  8
0
  6
Continuous
 62
     7
370
    25
100
AcDbCircle
 10
24.7487373415
 20
1128.8831983394
 30
0.0
 40
0.4999999999989839
100
AcDbArc
 50
119.9973117336
 51
180.0000000001
  0
ARC
  5
4EA
330
3C1
100
AcDbEntity
  8
0
  6
Continuous
 62
     7
370
    25
100
AcDbCircle
 10
176.0695885155
 20
1203.9927446271
 30
0.0
 40
0.499999999999801
100
AcDbArc
 50
0.0
 51
60.0026882663
  0
ARC
  5
4EB
330
3C1
100
AcDbEntity
  8
0
  6
Continuous
 62
     7
370
    25
100
AcDbCircle
 10
165.4629867977
 20
1210.1158054658
 30
0.0
 40
0.5000000000002014
100
AcDbArc
 50
60.0026882664
 51
119.9973117337
  0
ARC
  5
4EC
330
3C1
100
AcDbEntity
  8
0
  6
Continuous
 62
     7
370
    25
100
AcDbCircle
 10
35.3553390593
 20
-101.234539516
 30
0.0
 40
0.5000000000004977
100
AcDbArc
 50
240.0026882664
 51
299.9973117336
  0
ARC
  5
4ED
330
3C1
100
AcDbEntity
  8
0
  6
Continuous
 62
     7
370
    25
100
AcDbCircle
 10
176.0695885155
 20
-20.0019323896
 30
0.0
 40
0.5000000000003126
100
AcDbArc
 50
299.9973117337
 51
360.0
  0
ARC
  5
4EE
330
3C1
100
AcDbEntity
  8
0
  6
Continuous
 62
     7
370
    25
100
AcDbCircle
 10
153.4421715175
 20
1203.9927446271
 30
0.0
 40
0.4999999999994428
100
AcDbArc
 50
5.534745807
 51
60.0026882664
  0
ARC
  5
4EF
330
3C1
100
AcDbEntity
  8
0
  6
Continuous
 62
     7
370
    25
100
AcDbCircle
 10
-164.7558800165
 20
1238.2818853237
 30
0.0
 40
0.4999999999999716
100
AcDbArc
 50
119.9973117337
 51
180.0
  0
ARC
  5
4F0
330
3C1
100
AcDbEntity
  8
0
  6
Continuous
 62
     7
370
    25
100
AcDbCircle
 10
-35.3553390593
 20
1312.9832275554
 30
0.0
 40
0.4999999999995148
100
AcDbArc
 50
60.0026882663
 51
119.9973117337
  0
ARC
  5
4F1
330
3C1
100
AcDbEntity
  8
0
  6
Continuous
 62
     7
370
    25
100
AcDbCircle
 10
33.941125497
 20
1121.9436630389
 30
0.0
 40
0.9999999999998508
100
AcDbArc
 50
0.0
 51
60.0026882664
  0
ARC
  5
4F2
330
3C1
100
AcDbEntity
  8
0
  6
Continuous
 62
     7
370
    25
100
AcDbCircle
 10
-188.0904037956
 20
1237.0572068059
 30
0.0
 40
0.9999999999997442
100
AcDbArc
 50
119.9973117336
 51
180.0
  0
ARC
  5
4F3
330
3C1
100
AcDbEntity
  8
0
  6
Continuous
 62
     7
370
    25
100
AcDbCircle
 10
-176.7766952966
 20
1243.5884717005
 30
0.0
 40
0.9999999999987423
100
AcDbArc
 50
60.0026882663
 51
119.9973117337
  0
ARC
  5
4F4
330
3C1
100
AcDbEntity
  8
0
  6
Continuous
 62
     7
370
    25
100
AcDbCircle
 10
22.627416998
 20
-107.7657380605
 30
0.0
 40
1.000000000000322
100
AcDbArc
 50
240.0026882664
 51
299.9973117336
  0
ARC
  5
4F5
330
3C1
100
AcDbEntity
  8
0
  6
Continuous
 62
     7
370
    25
100
AcDbCircle
 10
33.941125497
 20
-101.234473166
 30
0.0
 40
0.9999999999999647
100
AcDbArc
 50
299.9973117336
 51
360.0
  0
ARC
  5
4F6
330
3C1
100
AcDbEntity
  8
0
  6
Continuous
 62
     7
370
    25
100
AcDbCircle
 10
-188.0904037956
 20
13.879070601
 30
0.0
 40
1.000000000000142
100
AcDbArc
 50
180.0
 51
240.0026882663
  0
ARC
  5
4F7
330
3C1
100
AcDbEntity
  8
0
  6
Continuous
 62
     7
370
    25
100
AcDbCircle
 10
-165.0489321376
 20
1238.4510569255
 30
0.0
 40
0.7684024037853117
100
AcDbArc
 50
122.60547834
 51
177.3945215144
  0
ARC
  5
4F8
330
3C1
100
AcDbEntity
  8
0
  6
Continuous
 62
     7
370
    25
100
AcDbCircle
 10
-175.6555338554
 20
1244.5741177642
 30
0.0
 40
0.7684024037853346
100
AcDbArc
 50
122.60547834
 51
177.3945215144
  0
ARC
  5
4F9
330
3C1
100
AcDbEntity
  8
0
  6
Continuous
 62
     7
370
    25
100
AcDbCircle
 10
35.7693937194
 20
1122.5211050467
 30
0.0
 40
0.7684024037846521
100
AcDbArc
 50
122.60547834
 51
177.3945215144
  0
ARC
  5
4FA
330
3C1
100
AcDbEntity
  8
0
  6
Continuous
 62
     7
370
    25
100
AcDbCircle
 10
34.9412843992
 20
1122.5211050467
 30
0.0
 40
0.7684024037847516
100
AcDbArc
 50
2.6054784856
 51
57.39452166
  0
ARC
  5
4FB
330
3C1
100
AcDbEntity
  8
0
  6
Continuous
 62
     7
370
    25
100
AcDbCircle
 10
35.3553390593
 20
1123.2383910153
 30
0.0
 40
0.7685109539566998
100
AcDbArc
 50
242.6096722366
 51
297.3903277634
  0
ARC
  5
4FC
330
3C1
100
AcDbEntity
  8
0
  6
Continuous
 62
     7
370
    25
100
AcDbCircle
 10
35.3553390593
 20
-100.7562860015
 30
0.0
 40
0.768510953955867
100
AcDbArc
 50
242.6096722366
 51
297.3903277634
  0
ARC
  5
4FD
330
3C1
100
AcDbEntity
  8
0
  6
Continuous
 62
     7
370
    25
100
AcDbCircle
 10
175.6555338554
 20
1203.753712173
 30
0.0
 40
0.7684024037862408
100
AcDbArc
 50
2.6054784857
 51
57.39452166
  0
ARC
  5
4FE
330
3C1
100
AcDbEntity
  8
0
  6
Continuous
 62
     7
370
    25
100
AcDbCircle
 10
25.1627920016
 20
1128.6441658853
 30
0.0
 40
0.7684024037850454
100
AcDbArc
 50
122.60547834
 51
177.3945215144
  0
ARC
  5
4FF
330
3C1
100
AcDbEntity
  8
0
  6
Continuous
 62
     7
370
    25
100
AcDbCircle
 10
24.4556852204
 20
1129.0523699413
 30
0.0
 40
0.7684024037848081
100
AcDbArc
 50
122.60547834
 51
177.3945215144
  0
ARC
  5
500
330
3C1
100
AcDbEntity
  8
0
  6
Continuous
 62
     7
370
    25
100
AcDbCircle
 10
-164.3418253564
 20
1238.0428528696
 30
0.0
 40
0.7684024037844768
100
AcDbArc
 50
122.60547834
 51
177.3945215144
  0
ARC
  5
501
330
3C1
100
AcDbEntity
  8
0
  6
Continuous
 62
     7
370
    25
100
AcDbCircle
 10
21.7993076778
 20
1114.9343332361
 30
0.0
 40
1.536804807571642
100
AcDbArc
 50
2.6054784856
 51
57.39452166
  0
ARC
  5
502
330
3C1
100
AcDbEntity
  8
0
  6
Continuous
 62
     7
370
    25
100
AcDbCircle
 10
22.627416998
 20
1116.3689051734
 30
0.0
 40
1.537021907911371
100
AcDbArc
 50
242.6096722366
 51
297.3903277634
  0
ARC
  5
503
330
3C1
100
AcDbEntity
  8
0
  6
Continuous
 62
     7
370
    25
100
AcDbCircle
 10
23.4555263181
 20
1114.9343332361
 30
0.0
 40
1.536804807571636
100
AcDbArc
 50
122.60547834
 51
177.3945215144
  0
ARC
  5
504
330
3C1
100
AcDbEntity
  8
0
  6
Continuous
 62
     7
370
    25
100
AcDbCircle
 10
22.627416998
 20
-106.8092310315
 30
0.0
 40
1.537021907911015
100
AcDbArc
 50
242.6096722366
 51
297.3903277634
  0
ARC
  5
505
330
3C1
100
AcDbEntity
  8
0
  6
Continuous
 62
     7
370
    25
100
AcDbCircle
 10
-187.2622944754
 20
1236.5791418977
 30
0.0
 40
1.536804807570807
100
AcDbArc
 50
122.60547834
 51
177.3945215144
  0
ARC
  5
506
330
3C1
100
AcDbEntity
  8
0
  6
Continuous
 62
     7
370
    25
100
AcDbCircle
 10
33.1130161768
 20
1121.4655981307
 30
0.0
 40
1.536804807571645
100
AcDbArc
 50
2.6054784856
 51
57.39452166
  0
ARC
  5
507
330
3C1
100
AcDbEntity
  8
0
  6
Continuous
 62
     7
370
    25
100
AcDbCircle
 10
-161.2054091149
 20
442.9927186626
 30
0.0
 40
4.640924084624742
100
AcDbArc
 50
176.1793412965
 51
282.8665676117
  0
ARC
  5
508
330
3C1
100
AcDbEntity
  8
0
  6
Continuous
 62
     7
370
    25
100
AcDbCircle
 10
-153.9199436488
 20
748.2557831631
 30
0.0
 40
11.93942739529875
100
AcDbArc
 50
121.577053138
 51
176.4158912286
  0
ARC
  5
509
330
3C1
100
AcDbEntity
  8
0
  6
Continuous
 62
     7
370
    25
100
AcDbCircle
 10
-148.4687797458
 20
689.9839717559
 30
0.0
 40
14.91388618946419
100
AcDbArc
 50
112.6166287242
 51
175.8449865665
  0
ARC
  5
50A
330
3C1
100
AcDbEntity
  8
0
  6
Continuous
 62
     7
370
    25
100
AcDbCircle
 10
-153.4059055244
 20
748.0797663323
 30
0.0
 40
13.74730235884308
100
AcDbArc
 50
123.1236690872
 51
175.8843160335
  0
ARC
  5
50B
330
3C1
100
AcDbEntity
  8
0
  6
Continuous
 62
     7
370
    25
100
AcDbCircle
 10
-162.7317118116
 20
757.6104976358
 30
0.0
 40
2.686946288365894
100
AcDbArc
 50
17.7000369751
 51
47.5478164083
  0
ARC
  5
50C
330
3C1
100
AcDbEntity
  8
0
  6
Continuous
 62
     7
370
    25
100
AcDbCircle
 10
-166.4054657125
 20
750.4589683475
 30
0.0
 40
1.564147455124946
100
AcDbArc
 50
242.9102510492
 51
291.3498790277
  0
ARC
  5
50D
330
3C1
100
AcDbEntity
  8
0
  6
Continuous
 62
     7
370
    25
100
AcDbCircle
 10
-150.8576282298
 20
749.7560628885
 30
0.0
 40
18.61933823406136
100
AcDbArc
 50
139.2009305729
 51
177.951888485
  0
ARC
  5
50E
330
3C1
100
AcDbEntity
  8
0
  6
Continuous
 62
     7
370
    25
100
AcDbCircle
 10
-151.39884464
 20
765.0559244213
 30
0.0
 40
1.493200761945912
100
AcDbArc
 50
2.0904393827
 51
57.4057554247
  0
ARC
  5
50F
330
3C1
100
AcDbEntity
  8
0
  6
Continuous
 62
     7
370
    25
100
AcDbCircle
 10
-166.4054657125
 20
444.7587677277
 30
0.0
 40
1.564147455124567
100
AcDbArc
 50
242.9102510492
 51
291.3498790277
  0
ARC
  5
510
330
3C1
100
AcDbEntity
  8
0
  6
Continuous
 62
     7
370
    25
100
AcDbCircle
 10
-157.9761016321
 20
770.0699259996
 30
0.0
 40
0.4419499423853636
100
AcDbArc
 50
52.0112619514
 51
132.6562889234
  0
ARC
  5
511
330
3C1
100
AcDbEntity
  8
0
  6
Continuous
 62
     7
370
    25
100
AcDbCircle
 10
-150.3635843734
 20
705.4299569859
 30
0.0
 40
0.4612552018018282
100
AcDbArc
 50
296.8551095536
 51
7.8372851027
  0
ARC
  5
512
330
3C1
100
AcDbEntity
  8
0
  6
Continuous
 62
     7
370
    25
100
AcDbCircle
 10
-156.0407956672
 20
497.9364745112
 30
0.0
 40
1.837264423149749
100
AcDbArc
 50
1.4409409572
 51
46.6132364395
  0
ARC
  5
513
330
3C1
100
AcDbEntity
  8
0
  6
Continuous
 62
     7
370
    25
100
AcDbCircle
 10
-151.4463302369
 20
499.6514554577
 30
0.0
 40
1.541427588527884
100
AcDbArc
 50
2.7187041278
 51
57.7802425769
  0
ARC
  5
514
330
3C1
100
AcDbEntity
  8
0
  6
Continuous
 62
     7
370
    25
100
AcDbCircle
 10
-157.9669230272
 20
504.6372031935
 30
0.0
 40
0.4860748279248589
100
AcDbArc
 50
52.9513359655
 51
122.9250506166
  0
ARC
  5
515
330
3C1
100
AcDbEntity
  8
0
  6
Continuous
 62
     7
370
    25
100
AcDbCircle
 10
-150.3394069894
 20
440.031789917
 30
0.0
 40
0.4392614265419315
100
AcDbArc
 50
285.1580108623
 51
9.8628703326
  0
ARC
  5
516
330
3C1
100
AcDbEntity
  8
0
  6
Continuous
 62
     8
370
    25
100
AcDbCircle
 10
-165.4608177937
 20
1239.1747886064
 30
0.0
 40
0.7752326041483002
100
AcDbArc
 50
242.686499904
 51
287.1543308797
  0
ARC
  5
517
330
3C1
100
AcDbEntity
  8
0
  6
Continuous
 62
     8
370
    25
100
AcDbCircle
 10
-165.881521201
 20
1238.4459708457
 30
0.0
 40
0.7751015260100279
100
AcDbArc
 50
12.843276122
 51
57.3181546139
  0
ARC
  5
518
330
3C1
100
AcDbEntity
  8
0
  6
Continuous
 62
     8
370
    25
100
AcDbCircle
 10
-25.1304875989
 20
1319.7189609121
 30
0.0
 40
0.7213075646500028
100
AcDbArc
 50
28.8567998287
 51
58.0453714774
  0
ARC
  5
519
330
3C1
100
AcDbEntity
  8
0
  6
Continuous
 62
     8
370
    25
100
AcDbCircle
 10
-176.3193599842
 20
1244.8381034067
 30
0.0
 40
0.2514696392470632
100
AcDbArc
 50
185.6947992512
 51
245.6253417064
  0
ARC
  5
51A
330
3C1
100
AcDbEntity
  8
0
  6
Continuous
 62
     8
370
    25
100
AcDbCircle
 10
-176.2160485429
 20
1245.0169799596
 30
0.0
 40
0.2514886179506486
100
AcDbArc
 50
54.3824225247
 51
114.3071190461
  0
ARC
  5
51B
330
3C1
100
AcDbEntity
  8
0
  6
Continuous
 62
     8
370
    25
100
AcDbCircle
 10
-35.5017990868
 20
1326.249587086
 30
0.0
 40
0.2514886179508383
100
AcDbArc
 50
54.3824225248
 51
114.3071190461
  0
ARC
  5
51C
330
3C1
100
AcDbEntity
  8
0
  6
Continuous
 62
     8
370
    25
100
AcDbCircle
 10
-24.6022773141
 20
1320.1265262473
 30
0.0
 40
0.2514886179506209
100
AcDbArc
 50
65.6928809539
 51
125.6175774753
  0
ARC
  5
51D
330
3C1
100
AcDbEntity
  8
0
  6
Continuous
 62
     8
370
    25
100
AcDbCircle
 10
-35.2088790319
 20
1326.249587086
 30
0.0
 40
0.2514886179508383
100
AcDbArc
 50
65.6928809539
 51
125.6175774752
  0
ARC
  5
51E
330
3C1
100
AcDbEntity
  8
0
  6
Continuous
 62
     8
370
    25
100
AcDbCircle
 10
24.4989658728
 20
1128.9081515279
 30
0.0
 40
0.2514696392470433
100
AcDbArc
 50
185.6947992513
 51
245.6253417064
  0
ARC
  5
51F
330
3C1
100
AcDbEntity
  8
0
  6
Continuous
 62
     8
370
    25
100
AcDbCircle
 10
24.6022773141
 20
1129.0870280808
 30
0.0
 40
0.251488617951498
100
AcDbArc
 50
54.3824225249
 51
114.307119046
  0
ARC
  5
520
330
3C1
100
AcDbEntity
  8
0
  6
Continuous
 62
     8
370
    25
100
AcDbCircle
 10
165.3165267702
 20
1210.3196352072
 30
0.0
 40
0.2514886179506369
100
AcDbArc
 50
54.3824225247
 51
114.3071190461
  0
ARC
  5
521
330
3C1
100
AcDbEntity
  8
0
  6
Continuous
 62
     8
370
    25
100
AcDbCircle
 10
176.3193599842
 20
1204.0176978156
 30
0.0
 40
0.251469639247121
100
AcDbArc
 50
294.3746582936
 51
354.3052007489
  0
ARC
  5
522
330
3C1
100
AcDbEntity
  8
0
  6
Continuous
 62
     8
370
    25
100
AcDbCircle
 10
176.2160485429
 20
1204.1965743685
 30
0.0
 40
0.2514886179510279
100
AcDbArc
 50
65.6928809539
 51
125.6175774752
  0
ARC
  5
523
330
3C1
100
AcDbEntity
  8
0
  6
Continuous
 62
     8
370
    25
100
AcDbCircle
 10
176.3193599842
 20
-19.9769792012
 30
0.0
 40
0.2514696392468472
100
AcDbArc
 50
294.3746582936
 51
354.3052007488
  0
ARC
  5
524
330
3C1
100
AcDbEntity
  8
0
  6
Continuous
 62
     8
370
    25
100
AcDbCircle
 10
165.6094468251
 20
1210.3196352072
 30
0.0
 40
0.2514886179510406
100
AcDbArc
 50
65.6928809539
 51
125.6175774752
  0
ARC
  5
525
330
3C1
100
AcDbEntity
  8
0
  6
Continuous
 62
     8
370
    25
100
AcDbCircle
 10
35.2467866199
 20
-101.4656849126
 30
0.0
 40
0.2464889649927832
100
AcDbArc
 50
173.7011524804
 51
234.9866671262
  0
ARC
  5
526
330
3C1
100
AcDbEntity
  8
0
  6
Continuous
 62
     8
370
    25
100
AcDbCircle
 10
35.4638914987
 20
-101.4656849126
 30
0.0
 40
0.2464889650089161
100
AcDbArc
 50
305.013332876
 51
6.2988475174
  0
ARC
  5
527
330
3C1
100
AcDbEntity
  8
0
  6
Continuous
 62
     8
370
    25
100
AcDbCircle
 10
176.1852991281
 20
-20.2363164319
 30
0.0
 40
0.2397627731995012
100
AcDbArc
 50
304.0563508304
 51
7.255829563
  0
ARC
  5
528
330
3C1
100
AcDbEntity
  8
0
  6
Continuous
 62
     8
370
    25
100
AcDbCircle
 10
23.623096157
 20
1129.0472838614
 30
0.0
 40
0.7751015260101477
100
AcDbArc
 50
12.8432761874
 51
57.3181546132
  0
ARC
  5
529
330
3C1
100
AcDbEntity
  8
0
  6
Continuous
 62
     8
370
    25
100
AcDbCircle
 10
24.0449717481
 20
1129.7892887505
 30
0.0
 40
0.7875032889295491
100
AcDbArc
 50
243.050977333
 51
286.7898534839
  0
ARC
  5
52A
330
3C1
100
AcDbEntity
  8
0
  6
Continuous
 62
     8
370
    25
100
AcDbCircle
 10
153.0119485865
 20
1203.7405317963
 30
0.0
 40
0.7882448073837401
100
AcDbArc
 50
15.0197433971
 51
56.9207443128
  0
ARC
  5
52B
330
3C1
100
AcDbEntity
  8
0
  6
Continuous
 62
     8
370
    25
100
AcDbCircle
 10
153.5886315449
 20
1204.1965743685
 30
0.0
 40
0.2514886179510163
100
AcDbArc
 50
65.6928809539
 51
125.6175774752
  0
ARC
  5
52C
330
3C1
100
AcDbEntity
  8
0
  6
Continuous
 62
     8
370
    25
100
AcDbCircle
 10
-35.2088790319
 20
1313.1870572968
 30
0.0
 40
0.2514886179512265
100
AcDbArc
 50
65.692880954
 51
125.6175774752
  0
ARC
  5
52D
330
3C1
100
AcDbEntity
  8
0
  6
Continuous
 62
     8
370
    25
100
AcDbCircle
 10
-164.9023400439
 20
1238.4857150651
 30
0.0
 40
0.2514886179498322
100
AcDbArc
 50
54.3824225246
 51
114.3071190462
  0
ARC
  5
52E
330
3C1
100
AcDbEntity
  8
0
  6
Continuous
 62
     8
370
    25
100
AcDbCircle
 10
-165.0056514852
 20
1238.3068385121
 30
0.0
 40
0.2514696392468992
100
AcDbArc
 50
185.6947992512
 51
245.6253417064
  0
ARC
  5
52F
330
3C1
100
AcDbEntity
  8
0
  6
Continuous
 62
     8
370
    25
100
AcDbCircle
 10
-35.5017990868
 20
1313.1870572968
 30
0.0
 40
0.2514886179512293
100
AcDbArc
 50
54.3824225248
 51
114.307119046
  0
ARC
  5
530
330
3C1
100
AcDbEntity
  8
0
  6
Continuous
 62
     8
370
    25
100
AcDbCircle
 10
34.4406684345
 20
1121.9935694158
 30
0.0
 40
0.5029392784935873
100
AcDbArc
 50
294.3746582936
 51
354.3052007489
  0
ARC
  5
531
330
3C1
100
AcDbEntity
  8
0
  6
Continuous
 62
     8
370
    25
100
AcDbCircle
 10
34.2340455518
 20
1122.3513225217
 30
0.0
 40
0.5029772359017878
100
AcDbArc
 50
65.6928809539
 51
125.6175774752
  0
ARC
  5
532
330
3C1
100
AcDbEntity
  8
0
  6
Continuous
 62
     8
370
    25
100
AcDbCircle
 10
34.4406684345
 20
-101.1845667891
 30
0.0
 40
0.5029392784936568
100
AcDbArc
 50
294.3746582936
 51
354.3052007488
  0
ARC
  5
533
330
3C1
100
AcDbEntity
  8
0
  6
Continuous
 62
     8
370
    25
100
AcDbCircle
 10
-176.4837752418
 20
1243.9961311833
 30
0.0
 40
0.5029772359011957
100
AcDbArc
 50
65.6928809538
 51
125.6175774752
  0
ARC
  5
534
330
3C1
100
AcDbEntity
  8
0
  6
Continuous
 62
     8
370
    25
100
AcDbCircle
 10
-188.5899467331
 20
1237.1071131828
 30
0.0
 40
0.5029392784950256
100
AcDbArc
 50
185.6947992512
 51
245.6253417063
  0
ARC
  5
535
330
3C1
100
AcDbEntity
  8
0
  6
Continuous
 62
     8
370
    25
100
AcDbCircle
 10
-188.3833238505
 20
1237.4648662887
 30
0.0
 40
0.5029772359013207
100
AcDbArc
 50
54.3824225248
 51
114.3071190461
  0
ARC
  5
536
330
3C1
100
AcDbEntity
  8
0
  6
Continuous
 62
     8
370
    25
100
AcDbCircle
 10
-188.5899467331
 20
13.9289769779
 30
0.0
 40
0.5029392784937698
100
AcDbArc
 50
185.6947992512
 51
245.6253417064
  0
ARC
  5
537
330
3C1
100
AcDbEntity
  8
0
  6
Continuous
 62
     8
370
    25
100
AcDbCircle
 10
-177.0696153515
 20
1243.9961311833
 30
0.0
 40
0.502977235900445
100
AcDbArc
 50
54.3824225247
 51
114.3071190462
  0
ARC
  5
538
330
3C1
100
AcDbEntity
  8
0
  6
Continuous
 62
     8
370
    25
100
AcDbCircle
 10
22.8588382232
 20
-108.234506145
 30
0.0
 40
0.4795255464267604
100
AcDbArc
 50
304.0563508324
 51
7.255829561
  0
ARC
  5
539
330
3C1
100
AcDbEntity
  8
0
  6
Continuous
 62
     8
370
    25
100
AcDbCircle
 10
22.3959957727
 20
-108.234506145
 30
0.0
 40
0.4795255464267578
100
AcDbArc
 50
172.744170439
 51
235.9436491676
  0
ARC
  5
53A
330
3C1
100
AcDbEntity
  8
0
  6
Continuous
 62
     8
370
    25
100
AcDbCircle
 10
34.1725467222
 20
-101.7032412505
 30
0.0
 40
0.4795255464267525
100
AcDbArc
 50
304.0563508324
 51
7.255829561
  0
ARC
  5
53B
330
3C1
100
AcDbEntity
  8
0
  6
Continuous
 62
     8
370
    25
100
AcDbCircle
 10
-188.3218250209
 20
13.4103025165
 30
0.0
 40
0.4795255463991673
100
AcDbArc
 50
172.744170437
 51
235.9436491696
  0
ARC
  5
53C
330
3C1
100
AcDbEntity
  8
0
  6
Continuous
 62
     8
370
    25
100
AcDbCircle
 10
-169.2702925338
 20
750.8704191898
 30
0.0
 40
0.4893601392596874
100
AcDbArc
 50
184.759755637
 51
246.5450060044
  0
ARC
  5
53D
330
3C1
100
AcDbEntity
  8
0
  6
Continuous
 62
     8
370
    25
100
AcDbCircle
 10
-165.214976313
 20
761.469303331
 30
0.0
 40
0.523329977155155
100
AcDbArc
 50
59.9065928256
 51
128.6370098579
  0
ARC
  5
53E
330
3C1
100
AcDbEntity
  8
0
  6
Continuous
 62
     8
370
    25
100
AcDbCircle
 10
-169.2702634166
 20
445.1702510075
 30
0.0
 40
0.4894014861349745
100
AcDbArc
 50
184.7767506059
 51
246.5433903517
  0
ARC
  5
53F
330
3C1
100
AcDbEntity
  8
0
  6
Continuous
 62
     8
370
    25
100
AcDbCircle
 10
-163.4859621269
 20
691.620924233
 30
0.0
 40
0.574322945617122
100
AcDbArc
 50
284.3656466971
 51
351.3951322362
  0
ARC
  5
540
330
3C1
100
AcDbEntity
  8
0
  6
Continuous
 62
     8
370
    25
100
AcDbCircle
 10
-154.6523314818
 20
703.6764819095
 30
0.0
 40
0.4543649067873294
100
AcDbArc
 50
303.3157724952
 51
9.434308458
  0
ARC
  5
541
330
3C1
100
AcDbEntity
  8
0
  6
Continuous
 62
     8
370
    25
100
AcDbCircle
 10
-163.4854050643
 20
503.8156794706
 30
0.0
 40
0.5733536265556857
100
AcDbArc
 50
284.332993283
 51
351.6717111789
  0
ARC
  5
542
330
3C1
100
AcDbEntity
  8
0
  6
Continuous
 62
     8
370
    25
100
AcDbCircle
 10
-160.8728173434
 20
502.0859307631
 30
0.0
 40
0.6100754634353435
100
AcDbArc
 50
62.4752123134
 51
124.7864263203
  0
ARC
  5
543
330
3C1
100
AcDbEntity
  8
0
  6
Continuous
 62
     8
370
    25
100
AcDbCircle
 10
-161.9101159568
 20
442.9992627716
 30
0.0
 40
5.22055259980172
100
AcDbArc
 50
175.9693476186
 51
237.4361117398
  0
ARC
  5
544
330
3C1
100
AcDbEntity
  8
0
  6
Continuous
 62
     8
370
    25
100
AcDbCircle
 10
-160.7529959095
 20
438.5124520419
 30
0.0
 40
0.5827072375016107
100
AcDbArc
 50
286.3304054418
 51
355.6566890077
  0
VIEWPORT
  5
7FF
330
3C1
100
AcDbEntity
  8
0
100
AcDbViewport
 10
0.0
 20
0.0
 30
0.0
 40
205.6
 41
156.0
 68
     1
 69
     1
 12
0.0
 22
750.0
 13
0.0
 23
0.0
 14
10.0
 24
10.0
 15
10.0
 25
10.0
 16
0.0
 26
0.0
 36
1.0
 17
0.0
 27
0.0
 37
0.0
 42
50.0
 43
0.0
 44
0.0
 45
1530.0
 50
0.0
 51
0.0
 72
   100
 90
   557152
  1

281
     0
 71
     1
 74
     0
110
0.0
120
0.0
130
0.0
111
1.0
121
0.0
131
0.0
112
0.0
122
1.0
132
0.0
 79
     0
146
0.0
  0
ENDBLK
  5
3C4
330
3C1
100
AcDbEntity
  8
0
100
AcDbBlockEnd
  0
BLOCK
  5
547
330
545
100
AcDbEntity
  8
0
100
AcDbBlockBegin
  2
*Paper_Space5
 70
     0
 10
0.0
 20
0.0
 30
0.0
  3
*Paper_Space5
  1

  0
SPLINE
  5
56C
330
545
100
AcDbEntity
  8
0
  6
Continuous
 62
     7
370
    25
100
AcDbSpline
210
0.0
220
0.0
230
1.0
 70
     8
 71
     3
 72
    15
 73
    11
 74
     0
 42
0.000000001
 43
0.00000001
 40
0.0
 40
0.0
 40
0.0
 40
0.0
 40
0.0750245299383543
 40
0.2196840088004984
 40
0.3623060534715246
 40
0.5034119032291365
 40
0.6435790947705129
 40
0.7832816886957548
 40
0.9230362571506683
 40
1.0
 40
1.0
 40
1.0
 40
1.0
 10
-152.636540336218
 20
776.6389077811318
 30
0.0
 10
-152.7305319134623
 20
776.4162091249821
 30
0.0
 10
-153.0057545173157
 20
775.7641112900787
 30
0.0
 10
-153.428562347241
 20
774.5343791466668
 30
0.0
 10
-153.8749912783616
 20
772.9362332766166
 30
0.0
 10
-154.2485014292042
 20
771.2495051588601
 30
0.0
 10
-154.5407519064308
 20
769.5280396050224
 30
0.0
 10
-154.7417685468494
 20
767.8250119461874
 30
0.0
 10
-154.8352851573771
 20
766.4290084009971
 30
0.0
 10
-154.8439596759298
 20
765.6411491895932
 30
0.0
 10
-154.8470402804768
 20
765.3613546794613
 30
0.0
  0
SPLINE
  5
56F
330
545
100
AcDbEntity
  8
0
  6
Continuous
 62
     7
370
    25
100
AcDbSpline
210
0.0
220
0.0
230
1.0
 70
     8
 71
     3
 72
    17
 73
    13
 74
     0
 42
0.000000001
 43
0.00000001
 40
0.0
 40
0.0
 40
0.0
 40
0.0
 40
0.05553514380477
 40
0.1617925395346908
 40
0.268745668282709
 40
0.3763742901413998
 40
0.4845758400941091
 40
0.5932035497089502
 40
0.7020595790855969
 40
0.810874882317353
 40
0.9192570896643137
 40
1.0
 40
1.0
 40
1.0
 40
1.0
 10
-148.0467149411734
 20
703.9229455422226
 30
0.0
 10
-148.0417715260548
 20
704.1828979433222
 30
0.0
 10
-148.0273696963085
 20
704.9402266589896
 30
0.0
 10
-147.8647924608842
 20
706.291622536638
 30
0.0
 10
-147.5001421024343
 20
707.9590834945587
 30
0.0
 10
-146.9605737410266
 20
709.6473617036298
 30
0.0
 10
-146.2644832043524
 20
711.2992372975906
 30
0.0
 10
-145.4329105449405
 20
712.8612866975909
 30
0.0
 10
-144.4937067865049
 20
714.2837079988078
 30
0.0
 10
-143.481539416023
 20
715.513907442683
 30
0.0
 10
-142.5191321859709
 20
716.4489824086329
 30
0.0
 10
-141.9147102987174
 20
716.8821589208322
 30
0.0
 10
-141.6566653449565
 20
717.0670943366702
 30
0.0
  0
SPLINE
  5
572
330
545
100
AcDbEntity
  8
0
  6
Continuous
 62
     7
370
    25
100
AcDbSpline
210
0.0
220
0.0
230
1.0
 70
     8
 71
     3
 72
    14
 73
    10
 74
     0
 42
0.000000001
 43
0.00000001
 40
0.0
 40
0.0
 40
0.0
 40
0.0
 40
0.050304193093505
 40
0.2380841825179821
 40
0.4061870443266747
 40
0.5662069802110057
 40
0.7360985687486299
 40
0.903379485555524
 40
1.0
 40
1.0
 40
1.0
 40
1.0
 10
-145.6132209865508
 20
501.9173750694429
 30
0.0
 10
-145.6851548549052
 20
501.9237765377872
 30
0.0
 10
-146.025609898299
 20
501.9540739794895
 30
0.0
 10
-146.4858582112268
 20
502.2330008773312
 30
0.0
 10
-147.0496319791751
 20
502.7771443305732
 30
0.0
 10
-147.5120402746993
 20
503.5798483379151
 30
0.0
 10
-147.8546385518335
 20
504.6340167323334
 30
0.0
 10
-148.0245504755269
 20
505.7418632214258
 30
0.0
 10
-148.0407748254642
 20
506.4977269210113
 30
0.0
 10
-148.0467149411734
 20
506.7744663807316
 30
0.0
  0
SPLINE
  5
573
330
545
100
AcDbEntity
  8
0
  6
Continuous
 62
     7
370
    25
100
AcDbSpline
210
0.0
220
0.0
230
1.0
 70
     8
 71
     3
 72
    10
 73
     6
 74
     0
 42
0.000000001
 43
0.00000001
 40
0.0
 40
0.0
 40
0.0
 40
0.0
 40
0.4360129349162866
 40
0.8846807720876703
 40
1.0
 40
1.0
 40
1.0
 40
1.0
 10
-148.7569436028419
 20
437.9501441535283
 30
0.0
 10
-148.4185258500744
 20
437.883410251019
 30
0.0
 10
-147.7318680589149
 20
437.7480055515977
 30
0.0
 10
-146.9161395725823
 20
437.871291061366
 30
0.0
 10
-146.4621221813717
 20
438.0075142997835
 30
0.0
 10
-146.3692886072446
 20
438.0353680568118
 30
0.0
  0
SPLINE
  5
575
330
545
100
AcDbEntity
  8
0
  6
Continuous
 62
     7
370
    25
100
AcDbSpline
210
0.0
220
0.0
230
1.0
 70
     8
 71
     3
 72
    14
 73
    10
 74
     0
 42
0.000000001
 43
0.00000001
 40
0.0
 40
0.0
 40
0.0
 40
0.0
 40
0.0955656992103464
 40
0.2806542613791008
 40
0.4694047511991045
 40
0.6663238229170607
 40
0.8179320583700282
 40
0.9479292800564277
 40
1.0
 40
1.0
 40
1.0
 40
1.0
 10
-154.8470402804769
 20
444.4512275002205
 30
0.0
 10
-154.8442232404149
 20
444.1928031456395
 30
0.0
 10
-154.8359502480712
 20
443.4338708408839
 30
0.0
 10
-154.7419493131331
 20
442.2915496727612
 30
0.0
 10
-154.520192913564
 20
441.1100085855078
 30
0.0
 10
-154.1911981947972
 20
440.2015829938308
 30
0.0
 10
-153.7343752663573
 20
439.5580956570553
 30
0.0
 10
-153.2675413172861
 20
439.1623720734213
 30
0.0
 10
-152.939205978425
 20
439.1090242763113
 30
0.0
 10
-152.8453033543587
 20
439.0937670147745
 30
0.0
  0
LWPOLYLINE
  5
5A6
330
545
100
AcDbEntity
  8
0
  6
Continuous
 62
     7
370
    25
100
AcDbPolyline
 90
        8
 70
   128
 43
0.0
 10
-150.1203909323
 20
443.3380189229
 10
-150.0203668648
 20
441.9521355555
 10
-149.7238721434
 20
440.748906185
 10
-149.2415112586
 20
439.7713657572
 10
-148.5905364274
 20
439.0544771811
 10
-147.7942305477
 20
438.6238808391
 10
-146.8810744571
 20
438.4949775272
 10
-145.8837282815
 20
438.6723776273
  0
LWPOLYLINE
  5
5AE
330
545
100
AcDbEntity
  8
0
  6
Continuous
 62
     7
370
    25
100
AcDbPolyline
 90
        9
 70
   128
 43
0.0
 10
-141.4198310891
 20
501.5782322774
 10
-142.753498606
 20
500.8721545531
 10
-144.0359140282
 20
500.5555560451
 10
-145.2177948501
 20
500.6406034564
 10
-146.2537220546
 20
501.1240284628
 10
-147.1038855402
 20
501.9872533123
 10
-147.7356140009
 20
503.1971047581
 10
-148.1246304662
 20
504.7070888876
 10
-148.2559852516
 20
506.4591778575
  0
LWPOLYLINE
  5
5C1
330
545
100
AcDbEntity
  8
0
  6
Continuous
 62
     7
370
    25
100
AcDbPolyline
 90
        3
 70
   128
 43
0.0
 10
-145.7899561739
 20
501.9324250955
 10
-145.7492424737
 20
501.9216677879
 10
-145.566578023
 20
501.880774604
  0
LWPOLYLINE
  5
5CD
330
545
100
AcDbEntity
  8
0
  6
Continuous
 62
     8
370
    25
100
AcDbPolyline
 90
        7
 70
   128
 43
0.0
 10
-178.8900480838
 20
1275.7061679777
 10
-178.9718350813
 20
1275.7339907465
 10
-179.0415116294
 20
1275.7694967797
 10
-179.0964000973
 20
1275.8113216005
 10
-179.1343911521
 20
1275.8578579043
 10
-179.1540248187
 20
1275.9073173272
 10
-179.1567003893
 20
1275.9339224811
  0
LWPOLYLINE
  5
5DD
330
545
100
AcDbEntity
  8
0
  6
Continuous
 62
     8
370
    25
100
AcDbPolyline
 90
        3
 70
   128
 43
0.0
 10
85.6531853964
 20
-81.3117617014
 10
85.6193162551
 20
-81.2933649412
 10
85.5954960229
 20
-81.265374523
  0
LWPOLYLINE
  5
5EE
330
545
100
AcDbEntity
  8
0
  6
Continuous
 62
     8
370
    25
100
AcDbPolyline
 90
        7
 70
   128
 43
0.0
 10
-187.3816606348
 20
1267.4137482643
 10
-187.3763094935
 20
1267.3605379565
 10
-187.3370421603
 20
1267.2616191108
 10
-187.2610600508
 20
1267.1685465031
 10
-187.151283115
 20
1267.0848968616
 10
-187.0119300188
 20
1267.0138847951
 10
-186.8483560237
 20
1266.9582392575
  0
LWPOLYLINE
  5
5F0
330
545
100
AcDbEntity
  8
0
  6
Continuous
 62
     8
370
    25
100
AcDbPolyline
 90
        7
 70
   128
 43
0.0
 10
-186.8483560237
 20
-17.0783771943
 10
-187.0119300188
 20
-17.0227316567
 10
-187.151283115
 20
-16.9517195902
 10
-187.2610600508
 20
-16.8680699487
 10
-187.3370421603
 20
-16.774997341
 10
-187.3763094935
 20
-16.6760784953
 10
-187.3816606348
 20
-16.6228681875
  0
LWPOLYLINE
  5
5F3
330
545
100
AcDbEntity
  8
0
  6
Continuous
 62
     8
370
    25
100
AcDbPolyline
 90
        6
 70
   128
 43
0.0
 10
76.7082442362
 20
-88.7074138101
 10
76.7172116572
 20
-88.865886377
 10
76.7437693074
 20
-89.0007639763
 10
76.786896591
 20
-89.1068633376
 10
76.8449361509
 20
-89.1801071218
 10
76.9126744334
 20
-89.2169006423
  0
LWPOLYLINE
  5
5F4
330
545
100
AcDbEntity
  8
0
  6
Continuous
 62
     8
370
    25
100
AcDbPolyline
 90
        6
 70
   128
 43
0.0
 10
-186.8483560237
 20
-17.0783771943
 10
-186.8393886026
 20
-17.2368497612
 10
-186.8128309525
 20
-17.3717273605
 10
-186.7697036689
 20
-17.4778267218
 10
-186.711664109
 20
-17.551070506
 10
-186.6439258264
 20
-17.5878640265
  0
LWPOLYLINE
  5
5F6
330
545
100
AcDbEntity
  8
0
  6
Continuous
 62
     8
370
    25
100
AcDbPolyline
 90
        8
 70
   128
 43
0.0
 10
-154.3137356694
 20
764.9058456727
 10
-154.4603502123
 20
764.9545557994
 10
-154.5882953543
 20
765.0156490476
 10
-154.6936763939
 20
765.0872657142
 10
-154.7732854898
 20
765.1672257591
 10
-154.8246993092
 20
765.2530951663
 10
-154.8463527947
 20
765.3422600367
 10
-154.8470401617
 20
765.3616056568
  0
LWPOLYLINE
  5
5F8
330
545
100
AcDbEntity
  8
0
  6
Continuous
 62
     8
370
    25
100
AcDbPolyline
 90
        8
 70
   128
 43
0.0
 10
-154.3137356694
 20
443.9957184934
 10
-154.4603502123
 20
444.0444286202
 10
-154.5882953543
 20
444.1055218683
 10
-154.6936763939
 20
444.1771385349
 10
-154.7732854898
 20
444.2570985798
 10
-154.8246993092
 20
444.3429679871
 10
-154.8463527947
 20
444.4321328574
 10
-154.8470402805
 20
444.4512275002
  0
LWPOLYLINE
  5
5FF
330
545
100
AcDbEntity
  8
0
  6
Continuous
 62
     8
370
    25
100
AcDbPolyline
 90
        7
 70
   128
 43
0.0
 10
-148.7508326403
 20
437.9447261898
 10
-148.8575619021
 20
437.9773612253
 10
-149.7203111684
 20
438.4498129524
 10
-150.4256030321
 20
439.2414601301
 10
-150.9482118815
 20
440.3239885451
 10
-151.2694459823
 20
441.6586802664
 10
-151.3778160108
 20
443.1977984393
  0
LWPOLYLINE
  5
601
330
545
100
AcDbEntity
  8
0
  6
Continuous
 62
     8
370
    25
100
AcDbPolyline
 90
        7
 70
   128
 43
0.0
 10
-154.3137356694
 20
443.9957184934
 10
-154.2551864786
 20
442.4701405566
 10
-154.0816329886
 20
441.1755852609
 10
-153.7992825486
 20
440.1583539335
 10
-153.4182337617
 20
439.4548290763
 10
-152.9521152961
 20
439.0901731021
 10
-152.8796021197
 20
439.0666808747
  0
LINE
  5
602
330
545
100
AcDbEntity
  8
0
  6
Continuous
 62
     7
370
    25
100
AcDbLine
 10
-179.1567003893
 20
1275.9339224811
 30
0.0
 11
-179.1567003893
 21
1275.6721272104
 31
0.0
  0
LINE
  5
603
330
545
100
AcDbEntity
  8
0
  6
Continuous
 62
     7
370
    25
100
AcDbLine
 10
-86.1335570716
 20
1366.9380305216
 30
0.0
 11
-179.0059394686
 21
1276.2917381675
 31
0.0
  0
LINE
  5
604
330
545
100
AcDbEntity
  8
0
  6
Continuous
 62
     7
370
    25
100
AcDbLine
 10
-72.3869135712
 20
1363.4572243343
 30
0.0
 11
-85.6531853964
 21
1367.0627127546
 31
0.0
  0
LINE
  5
605
330
545
100
AcDbEntity
  8
0
  6
Continuous
 62
     7
370
    25
100
AcDbLine
 10
72.0180461671
 20
1207.6700083908
 30
0.0
 11
72.0180461671
 21
1207.540067705
 31
0.0
  0
LINE
  5
606
330
545
100
AcDbEntity
  8
0
  6
Continuous
 62
     7
370
    25
100
AcDbLine
 10
165.0411894848
 20
1298.6741164313
 30
0.0
 11
72.1688070877
 21
1208.0278240773
 31
0.0
  0
LINE
  5
607
330
545
100
AcDbEntity
  8
0
  6
Continuous
 62
     7
370
    25
100
AcDbLine
 10
178.7878329852
 20
1295.1933102441
 30
0.0
 11
165.52156116
 21
1298.7987986644
 31
0.0
  0
LINE
  5
608
330
545
100
AcDbEntity
  8
0
  6
Continuous
 62
     7
370
    25
100
AcDbLine
 10
179.1567003893
 20
9.8170285721
 30
0.0
 11
179.1567003893
 21
1294.7108123246
 31
0.0
  0
LINE
  5
609
330
545
100
AcDbEntity
  8
0
  6
Continuous
 62
     7
370
    25
100
AcDbLine
 10
85.5861252344
 20
-81.2935361863
 30
0.0
 11
85.6531853964
 21
-81.3117617014
 31
0.0
  0
LINE
  5
60A
330
545
100
AcDbEntity
  8
0
  6
Continuous
 62
     7
370
    25
100
AcDbLine
 10
86.1335570716
 20
-81.1870794684
 30
0.0
 11
179.0059394686
 21
9.4592128857
 31
0.0
  0
LINE
  5
60B
330
545
100
AcDbEntity
  8
0
  6
Continuous
 62
     7
370
    25
100
AcDbLine
 10
-165.0060104425
 20
1272.0880681661
 30
0.0
 11
-165.0060104425
 21
1271.9581274803
 31
0.0
  0
LINE
  5
60C
330
545
100
AcDbEntity
  8
0
  6
Continuous
 62
     7
370
    25
100
AcDbLine
 10
-79.4499933476
 20
1355.8040320978
 30
0.0
 11
-164.8552495218
 21
1272.4458838526
 31
0.0
  0
LINE
  5
60D
330
545
100
AcDbEntity
  8
0
  6
Continuous
 62
     7
370
    25
100
AcDbLine
 10
157.1700168154
 20
1291.7510204502
 30
0.0
 11
-78.9696216724
 21
1355.9287143308
 31
0.0
  0
LINE
  5
60E
330
545
100
AcDbEntity
  8
0
  6
Continuous
 62
     7
370
    25
100
AcDbLine
 10
84.9043310397
 20
1204.0378515963
 30
0.0
 11
-178.6522692202
 21
1275.6668882121
 31
0.0
  0
LINE
  5
60F
330
545
100
AcDbEntity
  8
0
  6
Continuous
 62
     7
370
    25
100
AcDbLine
 10
85.642065848
 20
-80.9637606944
 30
0.0
 11
85.642065848
 21
1203.0728557574
 31
0.0
  0
LINE
  5
610
330
545
100
AcDbEntity
  8
0
  6
Continuous
 62
     7
370
    25
100
AcDbLine
 10
-187.3816606348
 20
1267.4137482643
 30
0.0
 11
-187.3816606348
 21
-16.6228681875
 31
0.0
  0
LINE
  5
611
330
545
100
AcDbEntity
  8
0
  6
Continuous
 62
     7
370
    25
100
AcDbLine
 10
-179.6130125705
 20
1275.4175237461
 30
0.0
 11
-187.0801387934
 21
1268.1293796372
 31
0.0
  0
LINE
  5
612
330
545
100
AcDbEntity
  8
0
  6
Continuous
 62
     7
370
    25
100
AcDbLine
 10
-186.6439258264
 20
-17.5878640265
 30
0.0
 11
76.9126744334
 21
-89.2169006423
 31
0.0
  0
LINE
  5
613
330
545
100
AcDbEntity
  8
0
  6
Continuous
 62
     7
370
    25
100
AcDbLine
 10
77.8734177838
 20
-88.9675361762
 30
0.0
 11
85.3405440067
 21
-81.6793920673
 31
0.0
  0
LINE
  5
614
330
545
100
AcDbEntity
  8
0
  6
Continuous
 62
     7
370
    25
100
AcDbLine
 10
-148.7601371207
 20
785.4855852221
 30
0.0
 11
-152.6365403362
 21
776.6389077811
 31
0.0
  0
LINE
  5
615
330
545
100
AcDbEntity
  8
0
  6
Continuous
 62
     7
370
    25
100
AcDbLine
 10
-154.8470402805
 20
765.3613546795
 30
0.0
 11
-154.8470402805
 21
444.4512275002
 31
0.0
  0
LINE
  5
616
330
545
100
AcDbEntity
  8
0
  6
Continuous
 62
     7
370
    25
100
AcDbLine
 10
-148.0467149412
 20
506.7744663807
 30
0.0
 11
-148.0467149412
 21
703.9229455422
 31
0.0
  0
LINE
  5
617
330
545
100
AcDbEntity
  8
0
  6
Continuous
 62
     7
370
    25
100
AcDbLine
 10
-141.656665345
 20
717.0670943367
 30
0.0
 11
-138.4742801613
 21
719.1842427295
 31
0.0
  0
LINE
  5
618
330
545
100
AcDbEntity
  8
0
  6
Continuous
 62
     7
370
    25
100
AcDbLine
 10
-152.8796021197
 20
439.0666808747
 30
0.0
 11
-148.7233456153
 21
437.9370994146
 31
0.0
  0
LINE
  5
619
330
545
100
AcDbEntity
  8
0
  6
Continuous
 62
     7
370
    25
100
AcDbLine
 10
-146.3692886072
 20
438.0353680568
 30
0.0
 11
-138.6169780164
 21
440.5196402682
 31
0.0
  0
LINE
  5
61A
330
545
100
AcDbEntity
  8
0
  6
Continuous
 62
     7
370
    25
100
AcDbLine
 10
-178.6567003893
 20
1276.3625061314
 30
0.0
 11
-165.3904285642
 21
1272.7570177112
 31
0.0
  0
LINE
  5
61B
330
545
100
AcDbEntity
  8
0
  6
Continuous
 62
     7
370
    25
100
AcDbLine
 10
-165.3904285642
 20
1272.7570177112
 30
0.0
 11
-72.5180461671
 21
1363.4033100652
 31
0.0
  0
LINE
  5
61C
330
545
100
AcDbEntity
  8
0
  6
Continuous
 62
     7
370
    25
100
AcDbLine
 10
-85.7843179922
 20
1367.0087984855
 30
0.0
 11
-178.6567003893
 21
1276.3625061314
 31
0.0
  0
LINE
  5
61D
330
545
100
AcDbEntity
  8
0
  6
Continuous
 62
     7
370
    25
100
AcDbLine
 10
-72.5180461671
 20
1363.4033100652
 30
0.0
 11
-85.7843179922
 21
1367.0087984855
 31
0.0
  0
LINE
  5
61E
330
545
100
AcDbEntity
  8
0
  6
Continuous
 62
     7
370
    25
100
AcDbLine
 10
72.5180461671
 20
1208.0985920412
 30
0.0
 11
85.7843179922
 21
1204.4931036209
 31
0.0
  0
LINE
  5
61F
330
545
100
AcDbEntity
  8
0
  6
Continuous
 62
     7
370
    25
100
AcDbLine
 10
86.2265270531
 20
1203.9443370232
 30
0.0
 11
86.2265270531
 21
-80.9494467293
 31
0.0
  0
LINE
  5
620
330
545
100
AcDbEntity
  8
0
  6
Continuous
 62
     7
370
    25
100
AcDbLine
 10
85.7843179922
 20
1204.4931036209
 30
0.0
 11
178.6567003893
 21
1295.139395975
 31
0.0
  0
LINE
  5
621
330
545
100
AcDbEntity
  8
0
  6
Continuous
 62
     7
370
    25
100
AcDbLine
 10
179.0989094502
 20
1294.5906293773
 30
0.0
 11
86.2265270531
 21
1203.9443370232
 31
0.0
  0
LINE
  5
622
330
545
100
AcDbEntity
  8
0
  6
Continuous
 62
     7
370
    25
100
AcDbLine
 10
165.3904285642
 20
1298.7448843952
 30
0.0
 11
72.5180461671
 21
1208.0985920412
 31
0.0
  0
LINE
  5
623
330
545
100
AcDbEntity
  8
0
  6
Continuous
 62
     7
370
    25
100
AcDbLine
 10
178.6567003893
 20
1295.139395975
 30
0.0
 11
165.3904285642
 21
1298.7448843952
 31
0.0
  0
LINE
  5
624
330
545
100
AcDbEntity
  8
0
  6
Continuous
 62
     7
370
    25
100
AcDbLine
 10
179.0989094502
 20
9.6968456248
 30
0.0
 11
179.0989094502
 21
1294.5906293773
 31
0.0
  0
LINE
  5
625
330
545
100
AcDbEntity
  8
0
  6
Continuous
 62
     7
370
    25
100
AcDbLine
 10
86.2265270531
 20
-80.9494467293
 30
0.0
 11
179.0989094502
 21
9.6968456248
 31
0.0
  0
LINE
  5
626
330
545
100
AcDbEntity
  8
0
  6
Continuous
 62
     7
370
    25
100
AcDbLine
 10
-79.3096156346
 20
1356.2227375124
 30
0.0
 11
-79.3096156346
 21
1355.9005036879
 31
0.0
  0
LINE
  5
627
330
545
100
AcDbEntity
  8
0
  6
Continuous
 62
     7
370
    25
100
AcDbLine
 10
-79.3096156346
 20
1356.2227375124
 30
0.0
 11
157.7144409749
 21
1291.8046777371
 31
0.0
  0
LINE
  5
628
330
545
100
AcDbEntity
  8
0
  6
Continuous
 62
     7
370
    25
100
AcDbLine
 10
157.7144409749
 20
1291.8046777371
 30
0.0
 11
157.7144409749
 21
1291.5229852738
 31
0.0
  0
LINE
  5
629
330
545
100
AcDbEntity
  8
0
  6
Continuous
 62
     7
370
    25
100
AcDbLine
 10
165.1815671978
 20
1299.092821846
 30
0.0
 11
-71.8424894118
 21
1363.5108816213
 31
0.0
  0
LINE
  5
62A
330
545
100
AcDbEntity
  8
0
  6
Continuous
 62
     7
370
    25
100
AcDbLine
 10
157.7144409749
 20
1291.8046777371
 30
0.0
 11
165.1815671978
 21
1299.092821846
 31
0.0
  0
LINE
  5
62B
330
545
100
AcDbEntity
  8
0
  6
Continuous
 62
     7
370
    25
100
AcDbLine
 10
-71.8424894118
 20
1363.5108816213
 30
0.0
 11
-79.3096156346
 21
1356.2227375124
 31
0.0
  0
LINE
  5
62C
330
545
100
AcDbEntity
  8
0
  6
Continuous
 62
     7
370
    25
100
AcDbLine
 10
165.1815671978
 20
1299.092821846
 30
0.0
 11
165.1815671978
 21
1298.7705880214
 31
0.0
  0
LINE
  5
62D
330
545
100
AcDbEntity
  8
0
  6
Continuous
 62
     7
370
    25
100
AcDbLine
 10
-164.5060104425
 20
1272.5166518165
 30
0.0
 11
71.6336280454
 21
1208.3389579359
 31
0.0
  0
LINE
  5
62E
330
545
100
AcDbEntity
  8
0
  6
Continuous
 62
     7
370
    25
100
AcDbLine
 10
71.6336280454
 20
1208.3389579359
 30
0.0
 11
157.0388842196
 21
1291.6971061811
 31
0.0
  0
LINE
  5
62F
330
545
100
AcDbEntity
  8
0
  6
Continuous
 62
     7
370
    25
100
AcDbLine
 10
-79.1007542683
 20
1355.8748000617
 30
0.0
 11
-164.5060104425
 21
1272.5166518165
 31
0.0
  0
LINE
  5
630
330
545
100
AcDbEntity
  8
0
  6
Continuous
 62
     7
370
    25
100
AcDbLine
 10
157.0388842196
 20
1291.6971061811
 30
0.0
 11
-79.1007542683
 21
1355.8748000617
 31
0.0
  0
LINE
  5
631
330
545
100
AcDbEntity
  8
0
  6
Continuous
 62
     7
370
    25
100
AcDbLine
 10
-186.3816606348
 20
1268.270915565
 30
0.0
 11
77.1749396251
 21
1196.6418789492
 31
0.0
  0
LINE
  5
632
330
545
100
AcDbEntity
  8
0
  6
Continuous
 62
     7
370
    25
100
AcDbLine
 10
76.7082442362
 20
1195.3292026417
 30
0.0
 11
-186.8483560237
 21
1266.9582392575
 31
0.0
  0
LINE
  5
633
330
545
100
AcDbEntity
  8
0
  6
Continuous
 62
     7
370
    25
100
AcDbLine
 10
78.0593577468
 20
1195.5443457538
 30
0.0
 11
78.0593577468
 21
-88.492270698
 31
0.0
  0
LINE
  5
634
330
545
100
AcDbEntity
  8
0
  6
Continuous
 62
     7
370
    25
100
AcDbLine
 10
76.7082442362
 20
-88.7074138101
 30
0.0
 11
76.7082442362
 21
1195.3292026417
 31
0.0
  0
LINE
  5
635
330
545
100
AcDbEntity
  8
0
  6
Continuous
 62
     7
370
    25
100
AcDbLine
 10
77.1749396251
 20
1196.6418789492
 30
0.0
 11
84.642065848
 21
1203.9300230581
 31
0.0
  0
LINE
  5
636
330
545
100
AcDbEntity
  8
0
  6
Continuous
 62
     7
370
    25
100
AcDbLine
 10
85.5264839697
 20
1202.8324898627
 30
0.0
 11
78.0593577468
 21
1195.5443457538
 31
0.0
  0
LINE
  5
637
330
545
100
AcDbEntity
  8
0
  6
Continuous
 62
     7
370
    25
100
AcDbLine
 10
-186.8483560237
 20
1266.9582392575
 30
0.0
 11
-186.8483560237
 21
-17.0783771943
 31
0.0
  0
LINE
  5
638
330
545
100
AcDbEntity
  8
0
  6
Continuous
 62
     7
370
    25
100
AcDbLine
 10
-186.8483560237
 20
-17.0783771943
 30
0.0
 11
76.7082442362
 21
-88.7074138101
 31
0.0
  0
LINE
  5
639
330
545
100
AcDbEntity
  8
0
  6
Continuous
 62
     7
370
    25
100
AcDbLine
 10
-178.9145344119
 20
1275.5590596739
 30
0.0
 11
-186.3816606348
 21
1268.270915565
 31
0.0
  0
LINE
  5
63A
330
545
100
AcDbEntity
  8
0
  6
Continuous
 62
     7
370
    25
100
AcDbLine
 10
84.642065848
 20
1203.9300230581
 30
0.0
 11
-178.9145344119
 21
1275.5590596739
 31
0.0
  0
LINE
  5
63B
330
545
100
AcDbEntity
  8
0
  6
Continuous
 62
     7
370
    25
100
AcDbLine
 10
85.5264839697
 20
-81.2041265891
 30
0.0
 11
85.5264839697
 21
1202.8324898627
 31
0.0
  0
LINE
  5
63C
330
545
100
AcDbEntity
  8
0
  6
Continuous
 62
     7
370
    25
100
AcDbLine
 10
78.0593577468
 20
-88.492270698
 30
0.0
 11
85.5264839697
 21
-81.2041265891
 31
0.0
  0
LINE
  5
63D
330
545
100
AcDbEntity
  8
0
  6
Continuous
 62
     7
370
    25
100
AcDbLine
 10
-145.8837282815
 20
438.6723776273
 30
0.0
 11
-138.2053593314
 21
441.1329548175
 31
0.0
  0
LINE
  5
63E
330
545
100
AcDbEntity
  8
0
  6
Continuous
 62
     7
370
    25
100
AcDbLine
 10
-150.1203909323
 20
764.2481461022
 30
0.0
 11
-150.1203909323
 21
443.3380189229
 31
0.0
  0
LINE
  5
63F
330
545
100
AcDbEntity
  8
0
  6
Continuous
 62
     7
370
    25
100
AcDbLine
 10
-138.2053593314
 20
782.3066588304
 30
0.0
 11
-145.8837282815
 21
774.5508445132
 31
0.0
  0
LINE
  5
640
330
545
100
AcDbEntity
  8
0
  6
Continuous
 62
     7
370
    25
100
AcDbLine
 10
-138.2053593314
 20
719.7228867125
 30
0.0
 11
-138.2053593314
 21
782.3066588304
 31
0.0
  0
LINE
  5
641
330
545
100
AcDbEntity
  8
0
  6
Continuous
 62
     7
370
    25
100
AcDbLine
 10
-141.4198310891
 20
717.5843920543
 30
0.0
 11
-138.2053593314
 21
719.7228867125
 31
0.0
  0
LINE
  5
642
330
545
100
AcDbEntity
  8
0
  6
Continuous
 62
     7
370
    25
100
AcDbLine
 10
-148.2559852516
 20
506.4591778575
 30
0.0
 11
-148.2559852516
 21
703.607657019
 31
0.0
  0
LINE
  5
643
330
545
100
AcDbEntity
  8
0
  6
Continuous
 62
     7
370
    25
100
AcDbLine
 10
-138.2053593314
 20
503.7167269355
 30
0.0
 11
-141.4198310891
 21
501.5782322774
 31
0.0
  0
LINE
  5
644
330
545
100
AcDbEntity
  8
0
  6
Continuous
 62
     7
370
    25
100
AcDbLine
 10
-138.2053593314
 20
441.1329548175
 30
0.0
 11
-138.2053593314
 21
503.7167269355
 31
0.0
  0
LINE
  5
645
330
545
100
AcDbEntity
  8
0
  6
Continuous
 62
     7
370
    25
100
AcDbLine
 10
-151.8338008298
 20
776.9586664538
 30
0.0
 11
-146.7876482289
 21
775.5872303029
 31
0.0
  0
LINE
  5
646
330
545
100
AcDbEntity
  8
0
  6
Continuous
 62
     7
370
    25
100
AcDbLine
 10
-151.3778160108
 20
764.1079256186
 30
0.0
 11
-154.3137356694
 21
764.9058456727
 31
0.0
  0
LINE
  5
647
330
545
100
AcDbEntity
  8
0
  6
Continuous
 62
     7
370
    25
100
AcDbLine
 10
-146.7876482289
 20
775.5872303029
 30
0.0
 11
-139.0656799698
 21
783.3870836795
 31
0.0
  0
LINE
  5
648
330
545
100
AcDbEntity
  8
0
  6
Continuous
 62
     7
370
    25
100
AcDbLine
 10
-147.9580561532
 20
785.8038409856
 30
0.0
 11
-151.8338008298
 21
776.9586664538
 31
0.0
  0
LINE
  5
649
330
545
100
AcDbEntity
  8
0
  6
Continuous
 62
     7
370
    25
100
AcDbLine
 10
-139.0656799698
 20
783.3870836795
 30
0.0
 11
-147.9580561532
 21
785.8038409856
 31
0.0
  0
LINE
  5
64A
330
545
100
AcDbEntity
  8
0
  6
Continuous
 62
     7
370
    25
100
AcDbLine
 10
-151.3778160108
 20
443.1977984393
 30
0.0
 11
-151.3778160108
 21
764.1079256186
 31
0.0
  0
LINE
  5
64B
330
545
100
AcDbEntity
  8
0
  6
Continuous
 62
     7
370
    25
100
AcDbLine
 10
-154.3137356694
 20
764.9058456727
 30
0.0
 11
-154.3137356694
 21
443.9957184934
 31
0.0
  0
LINE
  5
64C
330
545
100
AcDbEntity
  8
0
  6
Continuous
 62
     7
370
    25
100
AcDbLine
 10
-154.3137356694
 20
443.9957184934
 30
0.0
 11
-151.3778160108
 21
443.1977984393
 31
0.0
  0
LINE
  5
64D
330
545
100
AcDbEntity
  8
0
  6
Continuous
 62
     7
370
    25
100
AcDbLine
 10
-142.2105607787
 20
502.7506881013
 30
0.0
 11
-139.1032179776
 21
504.8179129775
 31
0.0
  0
LINE
  5
64E
330
545
100
AcDbEntity
  8
0
  6
Continuous
 62
     7
370
    25
100
AcDbLine
 10
-139.1032179776
 20
504.8179129775
 30
0.0
 11
-147.9205181454
 21
507.2142662312
 31
0.0
  0
LINE
  5
64F
330
545
100
AcDbEntity
  8
0
  6
Continuous
 62
     8
370
    25
100
AcDbLine
 10
-178.8707947592
 20
1275.7009353366
 30
0.0
 11
-178.8900480838
 21
1275.7061679777
 31
0.0
  0
LINE
  5
650
330
545
100
AcDbEntity
  8
0
  6
Continuous
 62
     8
370
    25
100
AcDbLine
 10
-178.8900480838
 20
1275.7061679777
 30
0.0
 11
-178.8900480838
 21
1275.7015925381
 31
0.0
  0
LINE
  5
651
330
545
100
AcDbEntity
  8
0
  6
Continuous
 62
     8
370
    25
100
AcDbLine
 10
85.5509702978
 20
1203.8367654672
 30
0.0
 11
85.1100285016
 21
1203.9566039991
 31
0.0
  0
LINE
  5
652
330
545
100
AcDbEntity
  8
0
  6
Continuous
 62
     8
370
    25
100
AcDbLine
 10
85.5509702978
 20
1203.4898601952
 30
0.0
 11
85.5509702978
 21
1203.8367654672
 31
0.0
  0
LINE
  5
653
330
545
100
AcDbEntity
  8
0
  6
Continuous
 62
     8
370
    25
100
AcDbLine
 10
-147.6898776232
 20
504.2398490121
 30
0.0
 11
-142.2105607787
 21
502.7506881013
 31
0.0
  0
LINE
  5
654
330
545
100
AcDbEntity
  8
0
  6
Continuous
 62
     8
370
    25
100
AcDbLine
 10
-147.9205181454
 20
507.2142662312
 30
0.0
 11
-148.0467149412
 21
507.01295924
 31
0.0
  0
ARC
  5
655
330
545
100
AcDbEntity
  8
0
  6
Continuous
 62
     7
370
    25
100
AcDbCircle
 10
-178.6567003893
 20
1275.9339224811
 30
0.0
 40
0.5000000000002465
100
AcDbArc
 50
134.305033619
 51
180.0
  0
ARC
  5
656
330
545
100
AcDbEntity
  8
0
  6
Continuous
 62
     7
370
    25
100
AcDbCircle
 10
-72.5180461671
 20
1362.9747264149
 30
0.0
 40
0.4999999999995489
100
AcDbArc
 50
34.1481358262
 51
74.7954868413
  0
ARC
  5
657
330
545
100
AcDbEntity
  8
0
  6
Continuous
 62
     7
370
    25
100
AcDbCircle
 10
-85.7843179922
 20
1366.5802148351
 30
0.0
 40
0.4999999999994323
100
AcDbArc
 50
74.7954868413
 51
134.305033619
  0
ARC
  5
658
330
545
100
AcDbEntity
  8
0
  6
Continuous
 62
     7
370
    25
100
AcDbCircle
 10
72.5180461671
 20
1207.6700083908
 30
0.0
 40
0.500000000000836
100
AcDbArc
 50
134.305033619
 51
180.0
  0
ARC
  5
659
330
545
100
AcDbEntity
  8
0
  6
Continuous
 62
     7
370
    25
100
AcDbCircle
 10
178.6567003893
 20
1294.7108123246
 30
0.0
 40
0.499999999999801
100
AcDbArc
 50
360.0
 51
74.7954868413
  0
ARC
  5
65A
330
545
100
AcDbEntity
  8
0
  6
Continuous
 62
     7
370
    25
100
AcDbCircle
 10
165.3904285642
 20
1298.3163007449
 30
0.0
 40
0.5000000000000457
100
AcDbArc
 50
74.7954868413
 51
134.305033619
  0
ARC
  5
65B
330
545
100
AcDbEntity
  8
0
  6
Continuous
 62
     7
370
    25
100
AcDbCircle
 10
85.7843179922
 20
-80.8292637819
 30
0.0
 40
0.5000000000001084
100
AcDbArc
 50
254.7954868413
 51
314.305033619
  0
ARC
  5
65C
330
545
100
AcDbEntity
  8
0
  6
Continuous
 62
     7
370
    25
100
AcDbCircle
 10
178.6567003893
 20
9.8170285721
 30
0.0
 40
0.5000000000000568
100
AcDbArc
 50
314.305033619
 51
360.0
  0
ARC
  5
65D
330
545
100
AcDbEntity
  8
0
  6
Continuous
 62
     7
370
    25
100
AcDbCircle
 10
-164.5060104425
 20
1272.0880681661
 30
0.0
 40
0.4999999999994031
100
AcDbArc
 50
134.305033619
 51
180.0
  0
ARC
  5
65E
330
545
100
AcDbEntity
  8
0
  6
Continuous
 62
     7
370
    25
100
AcDbCircle
 10
157.0388842196
 20
1291.2685225307
 30
0.0
 40
0.4999999999994504
100
AcDbArc
 50
8.888228188
 51
74.7954868414
  0
ARC
  5
65F
330
545
100
AcDbEntity
  8
0
  6
Continuous
 62
     7
370
    25
100
AcDbCircle
 10
-79.1007542683
 20
1355.4462164113
 30
0.0
 40
0.5000000000010264
100
AcDbArc
 50
74.7954868414
 51
134.305033619
  0
ARC
  5
660
330
545
100
AcDbEntity
  8
0
  6
Continuous
 62
     7
370
    25
100
AcDbCircle
 10
84.642065848
 20
1203.0728557574
 30
0.0
 40
1.000000000000285
100
AcDbArc
 50
0.0
 51
74.7954868413
  0
ARC
  5
661
330
545
100
AcDbEntity
  8
0
  6
Continuous
 62
     7
370
    25
100
AcDbCircle
 10
-186.3816606348
 20
1267.4137482643
 30
0.0
 40
1.000000000000369
100
AcDbArc
 50
134.305033619
 51
180.0
  0
ARC
  5
662
330
545
100
AcDbEntity
  8
0
  6
Continuous
 62
     7
370
    25
100
AcDbCircle
 10
-178.9145344119
 20
1274.7018923732
 30
0.0
 40
1.000000000000231
100
AcDbArc
 50
74.7954868413
 51
134.305033619
  0
ARC
  5
663
330
545
100
AcDbEntity
  8
0
  6
Continuous
 62
     7
370
    25
100
AcDbCircle
 10
77.1749396251
 20
-88.2519048033
 30
0.0
 40
0.999999999999938
100
AcDbArc
 50
254.7954868413
 51
314.305033619
  0
ARC
  5
664
330
545
100
AcDbEntity
  8
0
  6
Continuous
 62
     7
370
    25
100
AcDbCircle
 10
84.642065848
 20
-80.9637606944
 30
0.0
 40
1.000000000000418
100
AcDbArc
 50
314.305033619
 51
360.0
  0
ARC
  5
665
330
545
100
AcDbEntity
  8
0
  6
Continuous
 62
     7
370
    25
100
AcDbCircle
 10
-186.3816606348
 20
-16.6228681875
 30
0.0
 40
1.000000000000256
100
AcDbArc
 50
180.0
 51
254.7954868413
  0
ARC
  5
666
330
545
100
AcDbEntity
  8
0
  6
Continuous
 62
     7
370
    25
100
AcDbCircle
 10
-177.8675703596
 20
1275.7122968911
 30
0.0
 40
1.022496092918843
100
AcDbArc
 50
140.5129436103
 51
180.3434369839
  0
ARC
  5
667
330
545
100
AcDbEntity
  8
0
  6
Continuous
 62
     7
370
    25
100
AcDbCircle
 10
86.573448022
 20
1203.8428943806
 30
0.0
 40
1.02249609291685
100
AcDbArc
 50
140.5129436103
 51
180.3434369839
  0
ARC
  5
668
330
545
100
AcDbEntity
  8
0
  6
Continuous
 62
     7
370
    25
100
AcDbCircle
 10
85.6203409557
 20
1203.9084125176
 30
0.0
 40
0.6072496643079928
100
AcDbArc
 50
3.391562315
 51
74.3338098234
  0
ARC
  5
669
330
545
100
AcDbEntity
  8
0
  6
Continuous
 62
     7
370
    25
100
AcDbCircle
 10
85.7801669576
 20
1204.5724518856
 30
0.0
 40
0.770561882738572
100
AcDbArc
 50
252.6960345907
 51
305.3989149161
  0
ARC
  5
66A
330
545
100
AcDbEntity
  8
0
  6
Continuous
 62
     7
370
    25
100
AcDbCircle
 10
178.4927233527
 20
1294.5547048717
 30
0.0
 40
0.6072496643096583
100
AcDbArc
 50
3.3915623151
 51
74.3338098233
  0
ARC
  5
66B
330
545
100
AcDbEntity
  8
0
  6
Continuous
 62
     7
370
    25
100
AcDbCircle
 10
76.846985552
 20
1195.4724967426
 30
0.0
 40
1.214499328615991
100
AcDbArc
 50
3.391562315
 51
74.3338098234
  0
ARC
  5
66C
330
545
100
AcDbEntity
  8
0
  6
Continuous
 62
     7
370
    25
100
AcDbCircle
 10
77.1666375559
 20
1196.8005754785
 30
0.0
 40
1.541123765478985
100
AcDbArc
 50
252.6960345908
 51
305.398914916
  0
ARC
  5
66D
330
545
100
AcDbEntity
  8
0
  6
Continuous
 62
     7
370
    25
100
AcDbCircle
 10
78.7531996846
 20
1195.3414604685
 30
0.0
 40
2.044992185834676
100
AcDbArc
 50
140.5129436103
 51
180.3434369839
  0
ARC
  5
66E
330
545
100
AcDbEntity
  8
0
  6
Continuous
 62
     7
370
    25
100
AcDbCircle
 10
-184.8034005753
 20
1266.9704970843
 30
0.0
 40
2.044992185835373
100
AcDbArc
 50
140.5129436103
 51
180.3434369839
  0
ARC
  5
66F
330
545
100
AcDbEntity
  8
0
  6
Continuous
 62
     7
370
    25
100
AcDbCircle
 10
77.1666375559
 20
-87.2360409733
 30
0.0
 40
1.54112376547897
100
AcDbArc
 50
252.6960345908
 51
305.398914916
  0
ARC
  5
670
330
545
100
AcDbEntity
  8
0
  6
Continuous
 62
     7
370
    25
100
AcDbCircle
 10
84.3141117748
 20
1202.7606408515
 30
0.0
 40
1.214499328616454
100
AcDbArc
 50
3.391562315
 51
74.3338098233
  0
ARC
  5
671
330
545
100
AcDbEntity
  8
0
  6
Continuous
 62
     7
370
    25
100
AcDbCircle
 10
-134.5565100397
 20
763.8704333671
 30
0.0
 40
15.56846348703809
100
AcDbArc
 50
136.6834458292
 51
178.6097877134
  0
ARC
  5
672
330
545
100
AcDbEntity
  8
0
  6
Continuous
 62
     7
370
    25
100
AcDbCircle
 10
-130.255880278
 20
703.4638158755
 30
0.0
 40
18.0006796908951
100
AcDbArc
 50
128.3304539961
 51
179.5421518356
  0
ARC
  5
673
330
545
100
AcDbEntity
  8
0
  6
Continuous
 62
     7
370
    25
100
AcDbCircle
 10
-133.7484823159
 20
763.7159540215
 30
0.0
 40
17.63369071572422
100
AcDbArc
 50
137.6842632055
 51
178.7262922746
  0
ARC
  5
674
330
545
100
AcDbEntity
  8
0
  6
Continuous
 62
     7
370
    25
100
AcDbCircle
 10
-147.4431232325
 20
774.1031494381
 30
0.0
 40
1.622388206779094
100
AcDbArc
 50
16.0185275413
 51
66.1703581461
  0
ARC
  5
675
330
545
100
AcDbEntity
  8
0
  6
Continuous
 62
     7
370
    25
100
AcDbCircle
 10
-150.9195272819
 20
765.7063088182
 30
0.0
 40
1.662786039117147
100
AcDbArc
 50
254.0013341331
 51
298.7246504876
  0
ARC
  5
676
330
545
100
AcDbEntity
  8
0
  6
Continuous
 62
     7
370
    25
100
AcDbCircle
 10
-122.7652180365
 20
764.6961034665
 30
0.0
 40
31.54921483372915
100
AcDbArc
 50
157.1275820271
 51
179.6190893566
  0
ARC
  5
677
330
545
100
AcDbEntity
  8
0
  6
Continuous
 62
     7
370
    25
100
AcDbCircle
 10
-139.383955338
 20
782.2509069276
 30
0.0
 40
1.179913904260627
100
AcDbArc
 50
2.7082811318
 51
74.3509321748
  0
ARC
  5
678
330
545
100
AcDbEntity
  8
0
  6
Continuous
 62
     7
370
    25
100
AcDbCircle
 10
-150.9195272819
 20
444.796181639
 30
0.0
 40
1.662786039117419
100
AcDbArc
 50
254.0013341331
 51
298.7246504876
  0
ARC
  5
679
330
545
100
AcDbEntity
  8
0
  6
Continuous
 62
     7
370
    25
100
AcDbCircle
 10
-148.1814097151
 20
785.1968993813
 30
0.0
 40
0.6467340447243538
100
AcDbArc
 50
69.7964636885
 51
153.4886622949
  0
ARC
  5
67A
330
545
100
AcDbEntity
  8
0
  6
Continuous
 62
     7
370
    25
100
AcDbCircle
 10
-138.8261275888
 20
719.6963564585
 30
0.0
 40
0.6213349207173788
100
AcDbArc
 50
304.4909878579
 51
2.4472048891
  0
ARC
  5
67B
330
545
100
AcDbEntity
  8
0
  6
Continuous
 62
     7
370
    25
100
AcDbCircle
 10
-142.7601151224
 20
501.5271861519
 30
0.0
 40
1.341255753723081
100
AcDbArc
 50
2.1811157592
 51
65.8120490066
  0
ARC
  5
67C
330
545
100
AcDbEntity
  8
0
  6
Continuous
 62
     7
370
    25
100
AcDbCircle
 10
-139.4229843968
 20
503.640559271
 30
0.0
 40
1.220005046252223
100
AcDbArc
 50
3.5794325224
 51
74.8051440301
  0
ARC
  5
67D
330
545
100
AcDbEntity
  8
0
  6
Continuous
 62
     7
370
    25
100
AcDbCircle
 10
-138.8145396792
 20
441.0970151427
 30
0.0
 40
0.6102395892507431
100
AcDbArc
 50
288.8895234919
 51
3.3763524782
  0
ARC
  5
67E
330
545
100
AcDbEntity
  8
0
  6
Continuous
 62
     8
370
    25
100
AcDbCircle
 10
-165.36775248
 20
1272.80711342
 30
0.0
 40
0.7377240339766801
100
AcDbArc
 50
265.7032830255
 51
299.9354332429
  0
ARC
  5
67F
330
545
100
AcDbEntity
  8
0
  6
Continuous
 62
     8
370
    25
100
AcDbCircle
 10
-164.6011235349
 20
1272.1071204528
 30
0.0
 40
1.022432822050622
100
AcDbArc
 50
140.5326726244
 51
178.9466480236
  0
ARC
  5
680
330
545
100
AcDbEntity
  8
0
  6
Continuous
 62
     8
370
    25
100
AcDbCircle
 10
-165.5638805888
 20
1272.1596097697
 30
0.0
 40
0.6220786553289084
100
AcDbArc
 50
13.1804536673
 51
73.8098199471
  0
ARC
  5
681
330
545
100
AcDbEntity
  8
0
  6
Continuous
 62
     8
370
    25
100
AcDbCircle
 10
-72.6951831372
 20
1362.8022475795
 30
0.0
 40
0.6266207927636022
100
AcDbArc
 50
36.1888199892
 51
73.5794165412
  0
ARC
  5
682
330
545
100
AcDbEntity
  8
0
  6
Continuous
 62
     8
370
    25
100
AcDbCircle
 10
-178.7708456466
 20
1276.0286822687
 30
0.0
 40
0.3527995338429918
100
AcDbArc
 50
71.1227700801
 51
131.7872519909
  0
ARC
  5
683
330
545
100
AcDbEntity
  8
0
  6
Continuous
 62
     8
370
    25
100
AcDbCircle
 10
-85.8973312171
 20
1366.6693880563
 30
0.0
 40
0.3577309442433522
100
AcDbArc
 50
71.5838293161
 51
131.3261927549
  0
ARC
  5
684
330
545
100
AcDbEntity
  8
0
  6
Continuous
 62
     8
370
    25
100
AcDbCircle
 10
-72.4086922428
 20
1363.3237650585
 30
0.0
 40
0.135224586715803
100
AcDbArc
 50
80.7318299943
 51
143.9675277144
  0
ARC
  5
685
330
545
100
AcDbEntity
  8
0
  6
Continuous
 62
     8
370
    25
100
AcDbCircle
 10
-85.674964068
 20
1366.9292534787
 30
0.0
 40
0.1352245867154209
100
AcDbArc
 50
80.7318299943
 51
143.9675277145
  0
ARC
  5
686
330
545
100
AcDbEntity
  8
0
  6
Continuous
 62
     8
370
    25
100
AcDbCircle
 10
73.3073511963
 20
1207.4486947828
 30
0.0
 40
1.022432822048137
100
AcDbArc
 50
140.5326726243
 51
178.9466480237
  0
ARC
  5
687
330
545
100
AcDbEntity
  8
0
  6
Continuous
 62
     8
370
    25
100
AcDbCircle
 10
85.7869856625
 20
-80.3348007203
 30
0.0
 40
0.755636387696446
100
AcDbArc
 50
258.4616830389
 51
305.5690544013
  0
ARC
  5
688
330
545
100
AcDbEntity
  8
0
  6
Continuous
 62
     8
370
    25
100
AcDbCircle
 10
72.2156653406
 20
1207.6873414959
 30
0.0
 40
0.1983778572931464
100
AcDbArc
 50
185.0125641697
 51
242.6634007425
  0
ARC
  5
689
330
545
100
AcDbEntity
  8
0
  6
Continuous
 62
     8
370
    25
100
AcDbCircle
 10
72.4039009098
 20
1207.7647681785
 30
0.0
 40
0.3527995338426212
100
AcDbArc
 50
71.12277008
 51
131.7872519909
  0
ARC
  5
68A
330
545
100
AcDbEntity
  8
0
  6
Continuous
 62
     8
370
    25
100
AcDbCircle
 10
165.2774153392
 20
1298.405473966
 30
0.0
 40
0.3577309442425945
100
AcDbArc
 50
71.583829316
 51
131.3261927549
  0
ARC
  5
68B
330
545
100
AcDbEntity
  8
0
  6
Continuous
 62
     8
370
    25
100
AcDbCircle
 10
178.9907724749
 20
1294.7166140068
 30
0.0
 40
0.1660293115195073
100
AcDbArc
 50
310.6406362012
 51
357.9974645045
  0
ARC
  5
68C
330
545
100
AcDbEntity
  8
0
  6
Continuous
 62
     8
370
    25
100
AcDbCircle
 10
178.7660543136
 20
1295.0598509682
 30
0.0
 40
0.1352245867254264
100
AcDbArc
 50
80.7318299968
 51
143.9675277119
  0
ARC
  5
68D
330
545
100
AcDbEntity
  8
0
  6
Continuous
 62
     8
370
    25
100
AcDbCircle
 10
165.4997824884
 20
1298.6653393885
 30
0.0
 40
0.1352245867247765
100
AcDbArc
 50
80.7318299968
 51
143.9675277122
  0
ARC
  5
68E
330
545
100
AcDbEntity
  8
0
  6
Continuous
 62
     8
370
    25
100
AcDbCircle
 10
178.9907724749
 20
9.8228302543
 30
0.0
 40
0.1660293115202631
100
AcDbArc
 50
310.6406362014
 51
357.9974645043
  0
ARC
  5
68F
330
545
100
AcDbEntity
  8
0
  6
Continuous
 62
     8
370
    25
100
AcDbCircle
 10
85.9038670883
 20
-80.9602140887
 30
0.0
 40
0.3228395714665724
100
AcDbArc
 50
315.3544713609
 51
1.9112857849
  0
ARC
  5
690
330
545
100
AcDbEntity
  8
0
  6
Continuous
 62
     8
370
    25
100
AcDbCircle
 10
178.7762494854
 20
9.6860782653
 30
0.0
 40
0.3228395714675114
100
AcDbArc
 50
315.354471361
 51
1.9112857848
  0
ARC
  5
691
330
545
100
AcDbEntity
  8
0
  6
Continuous
 62
     8
370
    25
100
AcDbCircle
 10
72.4229330746
 20
1207.6890606775
 30
0.0
 40
1.022432822048606
100
AcDbArc
 50
140.5326726243
 51
178.9466480237
  0
ARC
  5
692
330
545
100
AcDbEntity
  8
0
  6
Continuous
 62
     8
370
    25
100
AcDbCircle
 10
71.4601760203
 20
1207.7415499937
 30
0.0
 40
0.6220786561177405
100
AcDbArc
 50
13.1804545053
 51
73.8098199253
  0
ARC
  5
693
330
545
100
AcDbEntity
  8
0
  6
Continuous
 62
     8
370
    25
100
AcDbCircle
 10
71.6563041294
 20
1208.3890536458
 30
0.0
 40
0.7377240350523685
100
AcDbArc
 50
265.7032830423
 51
299.9354331115
  0
ARC
  5
694
330
545
100
AcDbEntity
  8
0
  6
Continuous
 62
     8
370
    25
100
AcDbCircle
 10
-163.7167054132
 20
1271.8667545581
 30
0.0
 40
1.022432822049026
100
AcDbArc
 50
140.5326726243
 51
178.9466480237
  0
ARC
  5
695
330
545
100
AcDbEntity
  8
0
  6
Continuous
 62
     8
370
    25
100
AcDbCircle
 10
156.8638357579
 20
1291.0972256057
 30
0.0
 40
0.6248989267641379
100
AcDbArc
 50
16.7123796878
 51
73.7324637152
  0
ARC
  5
696
330
545
100
AcDbEntity
  8
0
  6
Continuous
 62
     8
370
    25
100
AcDbCircle
 10
-164.6190236674
 20
1272.1772413873
 30
0.0
 40
0.3577309442435384
100
AcDbArc
 50
71.5838293161
 51
131.326192755
  0
ARC
  5
697
330
545
100
AcDbEntity
  8
0
  6
Continuous
 62
     8
370
    25
100
AcDbCircle
 10
-164.808391269
 20
1272.1054012712
 30
0.0
 40
0.1983778572932256
100
AcDbArc
 50
185.0125641696
 51
242.6634007424
  0
ARC
  5
698
330
545
100
AcDbEntity
  8
0
  6
Continuous
 62
     8
370
    25
100
AcDbCircle
 10
-79.2148995255
 20
1355.5409761989
 30
0.0
 40
0.3527995338423769
100
AcDbArc
 50
71.1227700801
 51
131.7872519909
  0
ARC
  5
699
330
545
100
AcDbEntity
  8
0
  6
Continuous
 62
     8
370
    25
100
AcDbCircle
 10
157.1482381439
 20
1291.6175611743
 30
0.0
 40
0.1352245867162129
100
AcDbArc
 50
80.7318299945
 51
143.9675277143
  0
ARC
  5
69A
330
545
100
AcDbEntity
  8
0
  6
Continuous
 62
     8
370
    25
100
AcDbCircle
 10
-78.991400344
 20
1355.7952550549
 30
0.0
 40
0.135224586724811
100
AcDbArc
 50
80.7318299968
 51
143.9675277122
  0
ARC
  5
69B
330
545
100
AcDbEntity
  8
0
  6
Continuous
 62
     8
370
    25
100
AcDbCircle
 10
85.3102100193
 20
1203.0844591217
 30
0.0
 40
0.3320586230396128
100
AcDbArc
 50
310.6406362013
 51
357.9974645044
  0
ARC
  5
69C
330
545
100
AcDbEntity
  8
0
  6
Continuous
 62
     8
370
    25
100
AcDbCircle
 10
84.8607736966
 20
1203.7709330446
 30
0.0
 40
0.2704491734412298
100
AcDbArc
 50
80.7318299956
 51
143.9675277132
  0
ARC
  5
69D
330
545
100
AcDbEntity
  8
0
  6
Continuous
 62
     8
370
    25
100
AcDbCircle
 10
-178.6958265633
 20
1275.3999696604
 30
0.0
 40
0.2704491734408243
100
AcDbArc
 50
80.7318299956
 51
143.9675277132
  0
ARC
  5
69E
330
545
100
AcDbEntity
  8
0
  6
Continuous
 62
     8
370
    25
100
AcDbCircle
 10
85.3102100193
 20
-80.9521573301
 30
0.0
 40
0.3320586230386556
100
AcDbArc
 50
310.6406362012
 51
357.9974645045
  0
ARC
  5
69F
330
545
100
AcDbEntity
  8
0
  6
Continuous
 62
     8
370
    25
100
AcDbCircle
 10
-186.6076870846
 20
1267.5920947066
 30
0.0
 40
0.7154618884867496
100
AcDbArc
 50
71.5838293161
 51
131.326192755
  0
ARC
  5
6A0
330
545
100
AcDbEntity
  8
0
  6
Continuous
 62
     8
370
    25
100
AcDbCircle
 10
-179.1405608617
 20
1274.8802388154
 30
0.0
 40
0.7154618884858852
100
AcDbArc
 50
71.5838293161
 51
131.326192755
  0
ARC
  5
6A1
330
545
100
AcDbEntity
  8
0
  6
Continuous
 62
     8
370
    25
100
AcDbCircle
 10
77.4140378172
 20
-88.5138054169
 30
0.0
 40
0.645679142933864
100
AcDbArc
 50
315.3544713609
 51
1.9112857849
  0
ARC
  5
6A2
330
545
100
AcDbEntity
  8
0
  6
Continuous
 62
     8
370
    25
100
AcDbCircle
 10
84.8811640401
 20
-81.225661308
 30
0.0
 40
0.645679142933975
100
AcDbArc
 50
315.3544713609
 51
1.9112857849
  0
ARC
  5
6A3
330
545
100
AcDbEntity
  8
0
  6
Continuous
 62
     8
370
    25
100
AcDbCircle
 10
-152.0361311484
 20
776.2991619288
 30
0.0
 40
0.6898432984452283
100
AcDbArc
 50
72.9444367265
 51
150.516709992
  0
ARC
  5
6A4
330
545
100
AcDbEntity
  8
0
  6
Continuous
 62
     8
370
    25
100
AcDbCircle
 10
-148.4265020011
 20
703.947931222
 30
0.0
 40
0.3806080596831469
100
AcDbArc
 50
296.6161688245
 51
356.2360118554
  0
ARC
  5
6A5
330
545
100
AcDbEntity
  8
0
  6
Continuous
 62
     8
370
    25
100
AcDbCircle
 10
-142.0102076518
 20
717.54173739
 30
0.0
 40
0.5919154552218556
100
AcDbArc
 50
306.8134794663
 51
4.1324354317
  0
ARC
  5
6A6
330
545
100
AcDbEntity
  8
0
  6
Continuous
 62
     8
370
    25
100
AcDbCircle
 10
-148.4265020011
 20
506.7994520605
 30
0.0
 40
0.3806080596833812
100
AcDbArc
 50
296.6161688246
 51
356.2360118554
  0
ARC
  5
6A7
330
545
100
AcDbEntity
  8
0
  6
Continuous
 62
     8
370
    25
100
AcDbCircle
 10
-144.9715849418
 20
506.4938695731
 30
0.0
 40
4.651307553800283
100
AcDbArc
 50
262.6506135349
 51
306.4130159361
  0
ARC
  5
6A8
330
545
100
AcDbEntity
  8
0
  6
Continuous
 62
     8
370
    25
100
AcDbCircle
 10
-146.6332821098
 20
438.7401813821
 30
0.0
 40
0.752614304040942
100
AcDbArc
 50
290.5065441165
 51
354.8311592905
  0
VIEWPORT
  5
801
330
545
100
AcDbEntity
  8
0
100
AcDbViewport
 10
0.0
 20
0.0
 30
0.0
 40
205.6
 41
156.0
 68
     1
 69
     1
 12
0.0
 22
750.0
 13
0.0
 23
0.0
 14
10.0
 24
10.0
 15
10.0
 25
10.0
 16
0.0
 26
0.0
 36
1.0
 17
0.0
 27
0.0
 37
0.0
 42
50.0
 43
0.0
 44
0.0
 45
1530.0
 50
0.0
 51
0.0
 72
   100
 90
   557152
  1

281
     0
 71
     1
 74
     0
110
0.0
120
0.0
130
0.0
111
1.0
121
0.0
131
0.0
112
0.0
122
1.0
132
0.0
 79
     0
146
0.0
  0
ENDBLK
  5
548
330
545
100
AcDbEntity
  8
0
100
AcDbBlockEnd
  0
BLOCK
  5
6AB
330
6A9
100
AcDbEntity
  8
0
100
AcDbBlockBegin
  2
*Paper_Space6
 70
     0
 10
0.0
 20
0.0
 30
0.0
  3
*Paper_Space6
  1

  0
SPLINE
  5
6D0
330
6A9
100
AcDbEntity
  8
0
  6
Continuous
 62
     7
370
    25
100
AcDbSpline
210
0.0
220
0.0
230
1.0
 70
     8
 71
     3
 72
    17
 73
    13
 74
     0
 42
0.000000001
 43
0.00000001
 40
0.0
 40
0.0
 40
0.0
 40
0.0
 40
0.0559532725233453
 40
0.1630757803701845
 40
0.2706744833105798
 40
0.3786548859634506
 40
0.4868960168545415
 40
0.5952268665893566
 40
0.7033430765385531
 40
0.8108932833471112
 40
0.9176013664997665
 40
1.0
 40
1.0
 40
1.0
 40
1.0
 10
-137.8738929536623
 20
785.2756116968865
 30
0.0
 10
-137.8696762554359
 20
785.5670461540934
 30
0.0
 10
-137.8573866908967
 20
786.4164317108718
 30
0.0
 10
-137.7194838509678
 20
787.8840433152354
 30
0.0
 10
-137.4122099447368
 20
789.6411509328261
 30
0.0
 10
-136.9603950876966
 20
791.3639733374921
 30
0.0
 10
-136.3813823208288
 20
792.9948116503637
 30
0.0
 10
-135.695241822342
 20
794.4801105703015
 30
0.0
 10
-134.9285269781997
 20
795.7718845316141
 30
0.0
 10
-134.1162362761179
 20
796.8216736291629
 30
0.0
 10
-133.3522797338399
 20
797.5618736696422
 30
0.0
 10
-132.8934882470367
 20
797.8517721972087
 30
0.0
 10
-132.6935810610665
 20
797.9780884008211
 30
0.0
  0
SPLINE
  5
6D3
330
6A9
100
AcDbEntity
  8
0
  6
Continuous
 62
     7
370
    25
100
AcDbSpline
210
0.0
220
0.0
230
1.0
 70
     8
 71
     3
 72
    15
 73
    11
 74
     0
 42
0.000000001
 43
0.00000001
 40
0.0
 40
0.0
 40
0.0
 40
0.0
 40
0.0516339228396619
 40
0.2020523427727427
 40
0.3391554798611378
 40
0.4850768132778379
 40
0.6267014744196894
 40
0.767905629286501
 40
0.9097133656788476
 40
1.0
 40
1.0
 40
1.0
 40
1.0
 10
-135.129637614897
 20
561.8256530557645
 30
0.0
 10
-135.1985620589286
 20
561.8300707172217
 30
0.0
 10
-135.4682751588636
 20
561.8473577796395
 30
0.0
 10
-135.8851885785309
 20
562.0941554761472
 30
0.0
 10
-136.4481390980156
 20
562.6275296072909
 30
0.0
 10
-136.9614436387953
 20
563.454723500516
 30
0.0
 10
-137.3926410841105
 20
564.5607127875884
 30
0.0
 10
-137.6979888065729
 20
565.8848541852086
 30
0.0
 10
-137.8523457489362
 20
567.201777598851
 30
0.0
 10
-137.8678584027324
 20
568.0856848702153
 30
0.0
 10
-137.8738929536623
 20
568.4295321265624
 30
0.0
  0
SPLINE
  5
6D4
330
6A9
100
AcDbEntity
  8
0
  6
Continuous
 62
     7
370
    25
100
AcDbSpline
210
0.0
220
0.0
230
1.0
 70
     8
 71
     3
 72
     9
 73
     5
 74
     0
 42
0.000000001
 43
0.00000001
 40
0.0
 40
0.0
 40
0.0
 40
0.0
 40
0.6326108869003342
 40
0.9999999999999999
 40
0.9999999999999999
 40
0.9999999999999999
 40
0.9999999999999999
 10
-137.3872241783396
 20
492.2757865004882
 30
0.0
 10
-137.2627436126616
 20
492.2549593307227
 30
0.0
 10
-137.0659708914587
 20
492.222036770905
 30
0.0
 10
-136.8662016069046
 20
492.2434372643309
 30
0.0
 10
-136.7928085466277
 20
492.2512995726306
 30
0.0
  0
SPLINE
  5
6D6
330
6A9
100
AcDbEntity
  8
0
  6
Continuous
 62
     7
370
    25
100
AcDbSpline
210
0.0
220
0.0
230
1.0
 70
     8
 71
     3
 72
    16
 73
    12
 74
     0
 42
0.000000001
 43
0.00000001
 40
0.0
 40
0.0
 40
0.0
 40
0.0
 40
0.0769991882427866
 40
0.224615667626841
 40
0.3735332576605416
 40
0.5250656102739893
 40
0.6822917333958504
 40
0.8152947928941743
 40
0.9042298809732697
 40
0.9893348842489403
 40
1.0
 40
1.0
 40
1.0
 40
1.0
 10
-144.5308526879326
 20
499.8837161617026
 30
0.0
 10
-144.5291831748812
 20
499.6044649046778
 30
0.0
 10
-144.5243130094002
 20
498.7898562190062
 30
0.0
 10
-144.469604847195
 20
497.528536126052
 30
0.0
 10
-144.3463349147507
 20
496.1913920101028
 30
0.0
 10
-144.1583013684478
 20
495.0456026160131
 30
0.0
 10
-143.9115158116832
 20
494.1737327777216
 30
0.0
 10
-143.6127606306652
 20
493.5541317882139
 30
0.0
 10
-143.2002347679815
 20
493.1307339916743
 30
0.0
 10
-142.7907733814775
 20
492.8770471581746
 30
0.0
 10
-142.5640170890667
 20
492.9014128187091
 30
0.0
 10
-142.5387651406467
 20
492.9041262181766
 30
0.0
  0
LWPOLYLINE
  5
706
330
6A9
100
AcDbEntity
  8
0
  6
Continuous
 62
     7
370
    25
100
AcDbPolyline
 90
        8
 70
   128
 43
0.0
 10
-139.565179677
 20
499.3226608833
 10
-139.4819292242
 20
497.7719837757
 10
-139.2351554184
 20
496.3704983948
 10
-138.8336844215
 20
495.1683305511
 10
-138.2918753267
 20
494.2084772234
 10
-137.6291065879
 20
493.5252687205
 10
-136.8690829261
 20
493.1431408163
 10
-136.0389875019
 20
493.0757607748
  0
LWPOLYLINE
  5
70C
330
6A9
100
AcDbEntity
  8
0
  6
Continuous
 62
     7
370
    25
100
AcDbPolyline
 90
       10
 70
   128
 43
0.0
 10
-138.0134269735
 20
785.1057757313
 10
-137.9269867356
 20
786.9553241256
 10
-137.6702924648
 20
788.8459961333
 10
-137.2511436866
 20
790.720344642
 10
-136.6822760245
 20
792.5214185209
 10
-135.9809742346
 20
794.1944930516
 10
-135.1685470169
 20
795.6887327109
 10
-134.2696795614
 20
796.9587357831
 10
-133.3116835007
 20
797.9659138674
 10
-132.3236670604
 20
798.6796643673
  0
LWPOLYLINE
  5
70E
330
6A9
100
AcDbEntity
  8
0
  6
Continuous
 62
     7
370
    25
100
AcDbPolyline
 90
        9
 70
   128
 43
0.0
 10
-132.3236670604
 20
561.0917858816
 10
-133.433684154
 20
560.6661876164
 10
-134.5010439133
 20
560.655492704
 10
-135.4847283011
 20
561.0601121438
 10
-136.3469348783
 20
561.8644966377
 10
-137.0545295294
 20
563.0377341407
 10
-137.580319789
 20
564.5347377934
 10
-137.9040998322
 20
566.2979785851
 10
-138.0134269735
 20
568.259696161
  0
LWPOLYLINE
  5
717
330
6A9
100
AcDbEntity
  8
0
  6
Continuous
 62
     7
370
    25
100
AcDbPolyline
 90
        3
 70
   128
 43
0.0
 10
-144.5308526879
 20
852.856781281
 10
-144.5307625387
 20
852.8612570214
 10
-144.5132099696
 20
852.919119223
  0
LWPOLYLINE
  5
719
330
6A9
100
AcDbEntity
  8
0
  6
Continuous
 62
     7
370
    25
100
AcDbPolyline
 90
        3
 70
   128
 43
0.0
 10
-143.1850142894
 20
863.6718868311
 10
-143.2095359344
 20
863.5751701087
 10
-143.2189283814
 20
863.4172775913
  0
LWPOLYLINE
  5
732
330
6A9
100
AcDbEntity
  8
0
  6
Continuous
 62
     8
370
    25
100
AcDbPolyline
 90
        3
 70
   128
 43
0.0
 10
-90.5721672785
 20
1461.113789095
 10
-90.600179856
 20
1461.110472387
 10
-90.6346672784
 20
1461.089115245
  0
LWPOLYLINE
  5
733
330
6A9
100
AcDbEntity
  8
0
  6
Continuous
 62
     8
370
    25
100
AcDbPolyline
 90
        3
 70
   128
 43
0.0
 10
-104.6033824793
 20
1462.8815560471
 10
-104.6313950569
 20
1462.8782393391
 10
-104.6658824793
 20
1462.8568821971
  0
LWPOLYLINE
  5
73A
330
6A9
100
AcDbEntity
  8
0
  6
Continuous
 62
     8
370
    25
100
AcDbPolyline
 90
        3
 70
   128
 43
0.0
 10
175.5230071912
 20
1427.1479897637
 10
175.5162149248
 20
1427.1206114845
 10
175.4907143646
 20
1427.0890641986
  0
LWPOLYLINE
  5
73B
330
6A9
100
AcDbEntity
  8
0
  6
Continuous
 62
     8
370
    25
100
AcDbPolyline
 90
        3
 70
   128
 43
0.0
 10
175.0230071912
 20
1427.6193942845
 10
175.0574946136
 20
1427.6407514265
 10
175.0855071912
 20
1427.6440681345
  0
LWPOLYLINE
  5
73C
330
6A9
100
AcDbEntity
  8
0
  6
Continuous
 62
     8
370
    25
100
AcDbPolyline
 90
        3
 70
   128
 43
0.0
 10
175.5230071912
 20
13.8772363901
 10
175.5162149248
 20
13.8498581109
 10
175.4907143646
 20
13.818310825
  0
LWPOLYLINE
  5
73D
330
6A9
100
AcDbEntity
  8
0
  6
Continuous
 62
     8
370
    25
100
AcDbPolyline
 90
        3
 70
   128
 43
0.0
 10
160.9917919904
 20
1429.3871612366
 10
161.0262794128
 20
1429.4085183786
 10
161.0542919903
 20
1429.4118350866
  0
LWPOLYLINE
  5
747
330
6A9
100
AcDbEntity
  8
0
  6
Continuous
 62
     8
370
    25
100
AcDbPolyline
 90
        3
 70
   128
 43
0.0
 10
154.3995233954
 20
1424.5161358521
 10
154.4340108178
 20
1424.5374929941
 10
154.4620233954
 20
1424.5408097021
  0
LWPOLYLINE
  5
748
330
6A9
100
AcDbEntity
  8
0
  6
Continuous
 62
     8
370
    25
100
AcDbPolyline
 90
        3
 70
   128
 43
0.0
 10
-95.3561071799
 20
1455.9823876002
 10
-95.3216197575
 20
1456.0037447422
 10
-95.2936071799
 20
1456.0070614502
  0
LWPOLYLINE
  5
749
330
6A9
100
AcDbEntity
  8
0
  6
Continuous
 62
     8
370
    25
100
AcDbPolyline
 90
        3
 70
   128
 43
0.0
 10
104.6678452202
 20
1364.2186519834
 10
104.6542606873
 20
1364.163895425
 10
104.6032595669
 20
1364.1008008533
  0
LWPOLYLINE
  5
74A
330
6A9
100
AcDbEntity
  8
0
  6
Continuous
 62
     8
370
    25
100
AcDbPolyline
 90
        3
 70
   128
 43
0.0
 10
103.7928452201
 20
1365.2108087251
 10
103.736820065
 20
1365.204175309
 10
103.6678452202
 20
1365.161461025
  0
LWPOLYLINE
  5
74B
330
6A9
100
AcDbEntity
  8
0
  6
Continuous
 62
     8
370
    25
100
AcDbPolyline
 90
        3
 70
   128
 43
0.0
 10
104.6032595669
 20
-48.2271434787
 10
104.6542606873
 20
-48.1640489069
 10
104.6678452202
 20
-48.1092923485
  0
LWPOLYLINE
  5
74C
330
6A9
100
AcDbEntity
  8
0
  6
Continuous
 62
     8
370
    25
100
AcDbPolyline
 90
        3
 70
   128
 43
0.0
 10
-174.9606301037
 20
1400.3304455076
 10
-175.0166552588
 20
1400.3238120915
 10
-175.0856301036
 20
1400.2810978075
  0
LWPOLYLINE
  5
74D
330
6A9
100
AcDbEntity
  8
0
  6
Continuous
 62
     8
370
    25
100
AcDbPolyline
 90
        8
 70
   128
 43
0.0
 10
-181.7424843518
 20
1394.3494122512
 10
-181.7419935462
 20
1394.338969974
 10
-181.7166766956
 20
1394.2741724292
 10
-181.6539221796
 20
1394.2122663087
 10
-181.5561416189
 20
1394.1556306297
 10
-181.4270926659
 20
1394.1064418699
 10
-181.2717345992
 20
1394.0665903255
 10
-181.0960377423
 20
1394.0376074691
  0
LWPOLYLINE
  5
74F
330
6A9
100
AcDbEntity
  8
0
  6
Continuous
 62
     8
370
    25
100
AcDbPolyline
 90
        8
 70
   128
 43
0.0
 10
-181.0960377423
 20
-18.2903368629
 10
-181.2717345992
 20
-18.2613540065
 10
-181.4270926659
 20
-18.2215024621
 10
-181.5561416189
 20
-18.1723137022
 10
-181.6539221796
 20
-18.1156780233
 10
-181.7166766956
 20
-18.0537719027
 10
-181.7419935462
 20
-17.9889743579
 10
-181.7424843518
 20
-17.9785320807
  0
LWPOLYLINE
  5
752
330
6A9
100
AcDbEntity
  8
0
  6
Continuous
 62
     8
370
    25
100
AcDbPolyline
 90
        8
 70
   128
 43
0.0
 10
97.6574375815
 20
-53.4099736454
 10
97.6642310107
 20
-53.5879153234
 10
97.6843502308
 20
-53.7470363197
 10
97.7170220714
 20
-53.8812217035
 10
97.760990972
 20
-53.9853148058
 10
97.8145672324
 20
-54.055315387
 10
97.875691947
 20
-54.0885333641
 10
97.885990972
 20
-54.0903256049
  0
LWPOLYLINE
  5
753
330
6A9
100
AcDbEntity
  8
0
  6
Continuous
 62
     8
370
    25
100
AcDbPolyline
 90
        8
 70
   128
 43
0.0
 10
-181.0960377423
 20
-18.2903368629
 10
-181.0892443131
 20
-18.4682785409
 10
-181.069125093
 20
-18.6273995372
 10
-181.0364532524
 20
-18.761584921
 10
-180.9924843518
 20
-18.8656780233
 10
-180.9389080914
 20
-18.9356786045
 10
-180.8777833768
 20
-18.9688965816
 10
-180.8674843518
 20
-18.9706888223
  0
LWPOLYLINE
  5
755
330
6A9
100
AcDbEntity
  8
0
  6
Continuous
 62
     8
370
    25
100
AcDbPolyline
 90
        8
 70
   128
 43
0.0
 10
-143.8844060784
 20
852.5449764988
 10
-144.0416061477
 20
852.570205539
 10
-144.1832586764
 20
852.60415806
 10
-144.3050517044
 20
852.6458005334
 10
-144.4032778032
 20
852.6938653455
 10
-144.4749469308
 20
852.7468893843
 10
-144.51787745
 20
852.8032585765
 10
-144.5308526879
 20
852.856781281
  0
LWPOLYLINE
  5
757
330
6A9
100
AcDbEntity
  8
0
  6
Continuous
 62
     8
370
    25
100
AcDbPolyline
 90
        8
 70
   128
 43
0.0
 10
-143.8844060784
 20
499.5719113795
 10
-144.0416061477
 20
499.5971404197
 10
-144.1832586764
 20
499.6310929407
 10
-144.3050517044
 20
499.6727354141
 10
-144.4032778032
 20
499.7208002263
 10
-144.4749469308
 20
499.773824265
 10
-144.51787745
 20
499.8301934573
 10
-144.5308526879
 20
499.8837161617
  0
LWPOLYLINE
  5
75B
330
6A9
100
AcDbEntity
  8
0
  6
Continuous
 62
     8
370
    25
100
AcDbPolyline
 90
        3
 70
   128
 43
0.0
 10
-135.070766949
 20
561.7911622216
 10
-134.2251752894
 20
561.8215469076
 10
-133.1841330406
 20
562.2044308888
  0
LWPOLYLINE
  5
75D
330
6A9
100
AcDbEntity
  8
0
  6
Continuous
 62
     8
370
    25
100
AcDbPolyline
 90
        8
 70
   128
 43
0.0
 10
-137.5412698352
 20
492.2571819418
 10
-137.8783415457
 20
492.326503036
 10
-138.6960868066
 20
492.747722503
 10
-139.4091909144
 20
493.5039068319
 10
-139.9921488431
 20
494.5680101807
 10
-140.4241104011
 20
495.9019736132
 10
-140.6896259638
 20
497.4580863228
 10
-140.7791990477
 20
499.1806920667
  0
LWPOLYLINE
  5
75F
330
6A9
100
AcDbEntity
  8
0
  6
Continuous
 62
     8
370
    25
100
AcDbPolyline
 90
        8
 70
   128
 43
0.0
 10
-143.8844060784
 20
499.5719113795
 10
-143.8475265398
 20
497.8559443983
 10
-143.7382069648
 20
496.3195105334
 10
-143.5603572997
 20
495.0175621901
 10
-143.3203385515
 20
493.9966651169
 10
-143.0267352795
 20
493.2933329254
 10
-142.690048558
 20
492.9327211374
 10
-142.5512674796
 20
492.8883823147
  0
LINE
  5
760
330
6A9
100
AcDbEntity
  8
0
  6
Continuous
 62
     7
370
    25
100
AcDbLine
 10
-175.5230071912
 20
1400.336326025
 30
0.0
 11
-175.5230071912
 21
1400.2375669672
 31
0.0
  0
LINE
  5
761
330
6A9
100
AcDbEntity
  8
0
  6
Continuous
 62
     7
370
    25
100
AcDbLine
 10
-104.9966013932
 20
1462.7604776763
 30
0.0
 11
-175.3537261051
 21
1400.711326025
 31
0.0
  0
LINE
  5
762
330
6A9
100
AcDbEntity
  8
0
  6
Continuous
 62
     7
370
    25
100
AcDbLine
 10
-90.5721672785
 20
1461.113789095
 30
0.0
 11
-104.6033824793
 21
1462.8815560471
 31
0.0
  0
LINE
  5
763
330
6A9
100
AcDbEntity
  8
0
  6
Continuous
 62
     7
370
    25
100
AcDbLine
 10
160.6610730765
 20
1429.2907567158
 30
0.0
 11
90.3039483645
 21
1367.2416050645
 31
0.0
  0
LINE
  5
764
330
6A9
100
AcDbEntity
  8
0
  6
Continuous
 62
     7
370
    25
100
AcDbLine
 10
175.5230071912
 20
13.8772363901
 30
0.0
 11
175.5230071912
 21
1427.1479897637
 31
0.0
  0
LINE
  5
765
330
6A9
100
AcDbEntity
  8
0
  6
Continuous
 62
     7
370
    25
100
AcDbLine
 10
175.0855071912
 20
1427.6440681345
 30
0.0
 11
161.0542919903
 21
1429.4118350866
 31
0.0
  0
LINE
  5
766
330
6A9
100
AcDbEntity
  8
0
  6
Continuous
 62
     7
370
    25
100
AcDbLine
 10
104.5053980142
 20
-48.6556487498
 30
0.0
 11
104.6033824793
 21
-48.667993632
 31
0.0
  0
LINE
  5
767
330
6A9
100
AcDbEntity
  8
0
  6
Continuous
 62
     7
370
    25
100
AcDbLine
 10
104.9966013932
 20
-48.5469152612
 30
0.0
 11
175.3537261051
 21
13.5022363901
 31
0.0
  0
LINE
  5
768
330
6A9
100
AcDbEntity
  8
0
  6
Continuous
 62
     7
370
    25
100
AcDbLine
 10
-95.6868260938
 20
1455.8859830794
 30
0.0
 11
-160.3870965575
 21
1398.8257079428
 31
0.0
  0
LINE
  5
769
330
6A9
100
AcDbEntity
  8
0
  6
Continuous
 62
     7
370
    25
100
AcDbLine
 10
154.4620233954
 20
1424.5408097021
 30
0.0
 11
-95.2936071799
 21
1456.0070614502
 31
0.0
  0
LINE
  5
76A
330
6A9
100
AcDbEntity
  8
0
  6
Continuous
 62
     7
370
    25
100
AcDbLine
 10
104.6678452202
 20
-48.1092923485
 30
0.0
 11
104.6678452202
 21
1364.2186519834
 31
0.0
  0
LINE
  5
76B
330
6A9
100
AcDbEntity
  8
0
  6
Continuous
 62
     7
370
    25
100
AcDbLine
 10
103.7928452201
 20
1365.2108087251
 30
0.0
 11
-174.9606301037
 21
1400.3304455076
 31
0.0
  0
LINE
  5
76C
330
6A9
100
AcDbEntity
  8
0
  6
Continuous
 62
     7
370
    25
100
AcDbLine
 10
-181.7424843518
 20
1394.3494122512
 30
0.0
 11
-181.7424843518
 21
-17.9785320807
 31
0.0
  0
LINE
  5
76D
330
6A9
100
AcDbEntity
  8
0
  6
Continuous
 62
     7
370
    25
100
AcDbLine
 10
-175.7470679314
 20
1400.0882887659
 30
0.0
 11
-181.4039221796
 21
1395.0994122512
 31
0.0
  0
LINE
  5
76E
330
6A9
100
AcDbEntity
  8
0
  6
Continuous
 62
     7
370
    25
100
AcDbLine
 10
-180.8674843518
 20
-18.9706888223
 30
0.0
 11
97.885990972
 21
-54.0903256049
 31
0.0
  0
LINE
  5
76F
330
6A9
100
AcDbEntity
  8
0
  6
Continuous
 62
     7
370
    25
100
AcDbLine
 10
98.6724287997
 20
-53.8481688632
 30
0.0
 11
104.3292830479
 21
-48.8592923485
 31
0.0
  0
LINE
  5
770
330
6A9
100
AcDbEntity
  8
0
  6
Continuous
 62
     7
370
    25
100
AcDbLine
 10
-144.5308526879
 20
852.856781281
 30
0.0
 11
-144.5308526879
 21
499.8837161617
 31
0.0
  0
LINE
  5
771
330
6A9
100
AcDbEntity
  8
0
  6
Continuous
 62
     7
370
    25
100
AcDbLine
 10
-140.82713331
 20
870.7276875633
 30
0.0
 11
-143.1850142894
 21
863.6718868311
 31
0.0
  0
LINE
  5
772
330
6A9
100
AcDbEntity
  8
0
  6
Continuous
 62
     7
370
    25
100
AcDbLine
 10
-137.8738929537
 20
568.4295321266
 30
0.0
 11
-137.8738929537
 21
785.2756116969
 31
0.0
  0
LINE
  5
773
330
6A9
100
AcDbEntity
  8
0
  6
Continuous
 62
     7
370
    25
100
AcDbLine
 10
-132.6935810611
 20
797.9780884008
 30
0.0
 11
-130.0564941924
 21
799.4626081049
 31
0.0
  0
LINE
  5
774
330
6A9
100
AcDbEntity
  8
0
  6
Continuous
 62
     7
370
    25
100
AcDbLine
 10
-142.5512674796
 20
492.8883823147
 30
0.0
 11
-137.5412698352
 21
492.2571819418
 31
0.0
  0
LINE
  5
775
330
6A9
100
AcDbEntity
  8
0
  6
Continuous
 62
     7
370
    25
100
AcDbLine
 10
-136.7928085466
 20
492.2512995726
 30
0.0
 11
-130.3503748338
 21
492.9422931206
 31
0.0
  0
LINE
  5
776
330
6A9
100
AcDbEntity
  8
0
  6
Continuous
 62
     7
370
    25
100
AcDbLine
 10
-175.0230071912
 20
1400.8077305459
 30
0.0
 11
-160.9917919904
 21
1399.0399635937
 31
0.0
  0
LINE
  5
777
330
6A9
100
AcDbEntity
  8
0
  6
Continuous
 62
     7
370
    25
100
AcDbLine
 10
-160.9917919904
 20
1399.0399635937
 30
0.0
 11
-90.6346672784
 21
1461.089115245
 31
0.0
  0
LINE
  5
778
330
6A9
100
AcDbEntity
  8
0
  6
Continuous
 62
     7
370
    25
100
AcDbLine
 10
-104.6658824793
 20
1462.8568821971
 30
0.0
 11
-175.0230071912
 21
1400.8077305459
 31
0.0
  0
LINE
  5
779
330
6A9
100
AcDbEntity
  8
0
  6
Continuous
 62
     7
370
    25
100
AcDbLine
 10
-90.6346672784
 20
1461.089115245
 30
0.0
 11
-104.6658824793
 21
1462.8568821971
 31
0.0
  0
LINE
  5
77A
330
6A9
100
AcDbEntity
  8
0
  6
Continuous
 62
     7
370
    25
100
AcDbLine
 10
105.1335896527
 20
1365.0399125473
 30
0.0
 11
105.1335896527
 21
-48.2308408262
 31
0.0
  0
LINE
  5
77B
330
6A9
100
AcDbEntity
  8
0
  6
Continuous
 62
     7
370
    25
100
AcDbLine
 10
90.6346672784
 20
1367.3380095853
 30
0.0
 11
104.6658824793
 21
1365.5702426332
 31
0.0
  0
LINE
  5
77C
330
6A9
100
AcDbEntity
  8
0
  6
Continuous
 62
     7
370
    25
100
AcDbLine
 10
104.6658824793
 20
1365.5702426332
 30
0.0
 11
175.0230071912
 21
1427.6193942845
 31
0.0
  0
LINE
  5
77D
330
6A9
100
AcDbEntity
  8
0
  6
Continuous
 62
     7
370
    25
100
AcDbLine
 10
175.4907143646
 20
1427.0890641986
 30
0.0
 11
105.1335896527
 21
1365.0399125473
 31
0.0
  0
LINE
  5
77E
330
6A9
100
AcDbEntity
  8
0
  6
Continuous
 62
     7
370
    25
100
AcDbLine
 10
175.4907143646
 20
13.818310825
 30
0.0
 11
175.4907143646
 21
1427.0890641986
 31
0.0
  0
LINE
  5
77F
330
6A9
100
AcDbEntity
  8
0
  6
Continuous
 62
     7
370
    25
100
AcDbLine
 10
105.1335896527
 20
-48.2308408262
 30
0.0
 11
175.4907143646
 21
13.818310825
 31
0.0
  0
LINE
  5
780
330
6A9
100
AcDbEntity
  8
0
  6
Continuous
 62
     7
370
    25
100
AcDbLine
 10
160.9917919904
 20
1429.3871612366
 30
0.0
 11
90.6346672784
 21
1367.3380095853
 31
0.0
  0
LINE
  5
781
330
6A9
100
AcDbEntity
  8
0
  6
Continuous
 62
     7
370
    25
100
AcDbLine
 10
175.0230071912
 20
1427.6193942845
 30
0.0
 11
160.9917919904
 21
1429.3871612366
 31
0.0
  0
LINE
  5
782
330
6A9
100
AcDbEntity
  8
0
  6
Continuous
 62
     7
370
    25
100
AcDbLine
 10
160.7008615123
 20
1429.6019891928
 30
0.0
 11
-89.9901834098
 21
1461.186092071
 31
0.0
  0
LINE
  5
783
330
6A9
100
AcDbEntity
  8
0
  6
Continuous
 62
     7
370
    25
100
AcDbLine
 10
155.0440072641
 20
1424.6131126781
 30
0.0
 11
160.7008615123
 21
1429.6019891928
 31
0.0
  0
LINE
  5
784
330
6A9
100
AcDbEntity
  8
0
  6
Continuous
 62
     7
370
    25
100
AcDbLine
 10
-95.647037658
 20
1456.1972155563
 30
0.0
 11
155.0440072641
 21
1424.6131126781
 31
0.0
  0
LINE
  5
785
330
6A9
100
AcDbEntity
  8
0
  6
Continuous
 62
     7
370
    25
100
AcDbLine
 10
-89.9901834098
 20
1461.186092071
 30
0.0
 11
-95.647037658
 21
1456.1972155563
 31
0.0
  0
LINE
  5
786
330
6A9
100
AcDbEntity
  8
0
  6
Continuous
 62
     7
370
    25
100
AcDbLine
 10
155.0440072641
 20
1424.6131126781
 30
0.0
 11
155.0440072641
 21
1424.3369703032
 31
0.0
  0
LINE
  5
787
330
6A9
100
AcDbEntity
  8
0
  6
Continuous
 62
     7
370
    25
100
AcDbLine
 10
160.7008615123
 20
1429.6019891928
 30
0.0
 11
160.7008615123
 21
1429.3224008562
 31
0.0
  0
LINE
  5
788
330
6A9
100
AcDbEntity
  8
0
  6
Continuous
 62
     7
370
    25
100
AcDbLine
 10
-95.647037658
 20
1456.1972155563
 30
0.0
 11
-95.647037658
 21
1455.9176272197
 31
0.0
  0
LINE
  5
789
330
6A9
100
AcDbEntity
  8
0
  6
Continuous
 62
     7
370
    25
100
AcDbLine
 10
-160.0563776436
 20
1398.9221124636
 30
0.0
 11
89.6992529317
 21
1367.4558607155
 31
0.0
  0
LINE
  5
78A
330
6A9
100
AcDbEntity
  8
0
  6
Continuous
 62
     7
370
    25
100
AcDbLine
 10
89.6992529317
 20
1367.4558607155
 30
0.0
 11
154.3995233954
 21
1424.5161358521
 31
0.0
  0
LINE
  5
78B
330
6A9
100
AcDbEntity
  8
0
  6
Continuous
 62
     7
370
    25
100
AcDbLine
 10
-95.3561071799
 20
1455.9823876002
 30
0.0
 11
-160.0563776436
 21
1398.9221124636
 31
0.0
  0
LINE
  5
78C
330
6A9
100
AcDbEntity
  8
0
  6
Continuous
 62
     7
370
    25
100
AcDbLine
 10
154.3995233954
 20
1424.5161358521
 30
0.0
 11
-95.3561071799
 21
1455.9823876002
 31
0.0
  0
LINE
  5
78D
330
6A9
100
AcDbEntity
  8
0
  6
Continuous
 62
     7
370
    25
100
AcDbLine
 10
98.9464053187
 20
1359.1119243386
 30
0.0
 11
98.9464053187
 21
-53.2160199934
 31
0.0
  0
LINE
  5
78E
330
6A9
100
AcDbEntity
  8
0
  6
Continuous
 62
     7
370
    25
100
AcDbLine
 10
97.6574375815
 20
-53.4099736454
 30
0.0
 11
97.6574375815
 21
1358.9179706866
 31
0.0
  0
LINE
  5
78F
330
6A9
100
AcDbEntity
  8
0
  6
Continuous
 62
     7
370
    25
100
AcDbLine
 10
-180.7424843518
 20
1395.2922212929
 30
0.0
 11
98.010990972
 21
1360.1725845103
 31
0.0
  0
LINE
  5
790
330
6A9
100
AcDbEntity
  8
0
  6
Continuous
 62
     7
370
    25
100
AcDbLine
 10
97.6574375815
 20
1358.9179706866
 30
0.0
 11
-181.0960377423
 21
1394.0376074691
 31
0.0
  0
LINE
  5
791
330
6A9
100
AcDbEntity
  8
0
  6
Continuous
 62
     7
370
    25
100
AcDbLine
 10
-181.0960377423
 20
1394.0376074691
 30
0.0
 11
-181.0960377423
 21
-18.2903368629
 31
0.0
  0
LINE
  5
792
330
6A9
100
AcDbEntity
  8
0
  6
Continuous
 62
     7
370
    25
100
AcDbLine
 10
-181.0960377423
 20
-18.2903368629
 30
0.0
 11
97.6574375815
 21
-53.4099736454
 31
0.0
  0
LINE
  5
793
330
6A9
100
AcDbEntity
  8
0
  6
Continuous
 62
     7
370
    25
100
AcDbLine
 10
98.010990972
 20
1360.1725845103
 30
0.0
 11
103.6678452202
 21
1365.161461025
 31
0.0
  0
LINE
  5
794
330
6A9
100
AcDbEntity
  8
0
  6
Continuous
 62
     7
370
    25
100
AcDbLine
 10
104.6032595669
 20
1364.1008008533
 30
0.0
 11
98.9464053187
 21
1359.1119243386
 31
0.0
  0
LINE
  5
795
330
6A9
100
AcDbEntity
  8
0
  6
Continuous
 62
     7
370
    25
100
AcDbLine
 10
104.6032595669
 20
-48.2271434787
 30
0.0
 11
104.6032595669
 21
1364.1008008533
 31
0.0
  0
LINE
  5
796
330
6A9
100
AcDbEntity
  8
0
  6
Continuous
 62
     7
370
    25
100
AcDbLine
 10
98.9464053187
 20
-53.2160199934
 30
0.0
 11
104.6032595669
 21
-48.2271434787
 31
0.0
  0
LINE
  5
797
330
6A9
100
AcDbEntity
  8
0
  6
Continuous
 62
     7
370
    25
100
AcDbLine
 10
-175.0856301036
 20
1400.2810978075
 30
0.0
 11
-180.7424843518
 21
1395.2922212929
 31
0.0
  0
LINE
  5
798
330
6A9
100
AcDbEntity
  8
0
  6
Continuous
 62
     7
370
    25
100
AcDbLine
 10
103.6678452202
 20
1365.161461025
 30
0.0
 11
-175.0856301036
 21
1400.2810978075
 31
0.0
  0
LINE
  5
799
330
6A9
100
AcDbEntity
  8
0
  6
Continuous
 62
     7
370
    25
100
AcDbLine
 10
-136.0389875019
 20
493.0757607748
 30
0.0
 11
-129.6482486725
 21
493.7612097052
 31
0.0
  0
LINE
  5
79A
330
6A9
100
AcDbEntity
  8
0
  6
Continuous
 62
     7
370
    25
100
AcDbLine
 10
-139.565179677
 20
852.2957260026
 30
0.0
 11
-139.565179677
 21
499.3226608833
 31
0.0
  0
LINE
  5
79B
330
6A9
100
AcDbEntity
  8
0
  6
Continuous
 62
     7
370
    25
100
AcDbLine
 10
-129.6482486725
 20
869.0224365853
 30
0.0
 11
-136.0389875019
 21
862.5126900682
 31
0.0
  0
LINE
  5
79C
330
6A9
100
AcDbEntity
  8
0
  6
Continuous
 62
     7
370
    25
100
AcDbLine
 10
-129.6482486725
 20
800.1857623881
 30
0.0
 11
-129.6482486725
 21
869.0224365853
 31
0.0
  0
LINE
  5
79D
330
6A9
100
AcDbEntity
  8
0
  6
Continuous
 62
     7
370
    25
100
AcDbLine
 10
-132.3236670604
 20
798.6796643673
 30
0.0
 11
-129.6482486725
 21
800.1857623881
 31
0.0
  0
LINE
  5
79E
330
6A9
100
AcDbEntity
  8
0
  6
Continuous
 62
     7
370
    25
100
AcDbLine
 10
-138.0134269735
 20
568.259696161
 30
0.0
 11
-138.0134269735
 21
785.1057757313
 31
0.0
  0
LINE
  5
79F
330
6A9
100
AcDbEntity
  8
0
  6
Continuous
 62
     7
370
    25
100
AcDbLine
 10
-129.6482486725
 20
562.5978839024
 30
0.0
 11
-132.3236670604
 21
561.0917858816
 31
0.0
  0
LINE
  5
7A0
330
6A9
100
AcDbEntity
  8
0
  6
Continuous
 62
     7
370
    25
100
AcDbLine
 10
-129.6482486725
 20
493.7612097052
 30
0.0
 11
-129.6482486725
 21
562.5978839024
 31
0.0
  0
LINE
  5
7A1
330
6A9
100
AcDbEntity
  8
0
  6
Continuous
 62
     7
370
    25
100
AcDbLine
 10
-142.3223203923
 20
864.1939750024
 30
0.0
 11
-136.9852027747
 21
863.5215613868
 31
0.0
  0
LINE
  5
7A2
330
6A9
100
AcDbEntity
  8
0
  6
Continuous
 62
     7
370
    25
100
AcDbLine
 10
-140.7791990477
 20
852.153757186
 30
0.0
 11
-143.8844060784
 21
852.5449764988
 31
0.0
  0
LINE
  5
7A3
330
6A9
100
AcDbEntity
  8
0
  6
Continuous
 62
     7
370
    25
100
AcDbLine
 10
-140.7791990477
 20
499.1806920667
 30
0.0
 11
-140.7791990477
 21
852.153757186
 31
0.0
  0
LINE
  5
7A4
330
6A9
100
AcDbEntity
  8
0
  6
Continuous
 62
     7
370
    25
100
AcDbLine
 10
-143.8844060784
 20
852.5449764988
 30
0.0
 11
-143.8844060784
 21
499.5719113795
 31
0.0
  0
LINE
  5
7A5
330
6A9
100
AcDbEntity
  8
0
  6
Continuous
 62
     7
370
    25
100
AcDbLine
 10
-143.8844060784
 20
499.5719113795
 30
0.0
 11
-140.7791990477
 21
499.1806920667
 31
0.0
  0
LINE
  5
7A6
330
6A9
100
AcDbEntity
  8
0
  6
Continuous
 62
     7
370
    25
100
AcDbLine
 10
-136.9852027747
 20
863.5215613868
 30
0.0
 11
-130.5581760566
 21
870.068271542
 31
0.0
  0
LINE
  5
7A7
330
6A9
100
AcDbEntity
  8
0
  6
Continuous
 62
     7
370
    25
100
AcDbLine
 10
-139.9632934491
 20
871.2532049543
 30
0.0
 11
-142.3223203923
 21
864.1939750024
 31
0.0
  0
LINE
  5
7A8
330
6A9
100
AcDbEntity
  8
0
  6
Continuous
 62
     7
370
    25
100
AcDbLine
 10
-130.5581760566
 20
870.068271542
 30
0.0
 11
-139.9632934491
 21
871.2532049543
 31
0.0
  0
LINE
  5
7A9
330
6A9
100
AcDbEntity
  8
0
  6
Continuous
 62
     7
370
    25
100
AcDbLine
 10
-135.1716662767
 20
561.8059496151
 30
0.0
 11
-135.070766949
 21
561.7911622216
 31
0.0
  0
LINE
  5
7AA
330
6A9
100
AcDbEntity
  8
0
  6
Continuous
 62
     7
370
    25
100
AcDbLine
 10
-133.1841330406
 20
562.2044308888
 30
0.0
 11
-130.5978785346
 21
563.6603350607
 31
0.0
  0
LINE
  5
7AB
330
6A9
100
AcDbEntity
  8
0
  6
Continuous
 62
     7
370
    25
100
AcDbLine
 10
-130.5978785346
 20
563.6603350607
 30
0.0
 11
-137.3377671614
 21
564.5094812113
 31
0.0
  0
LINE
  5
7AC
330
6A9
100
AcDbEntity
  8
0
  6
Continuous
 62
     7
370
    25
100
AcDbLine
 10
-137.4314307185
 20
492.2460892712
 30
0.0
 11
-137.5412698352
 21
492.2571819418
 31
0.0
  0
LINE
  5
7AD
330
6A9
100
AcDbEntity
  8
0
  6
Continuous
 62
     8
370
    25
100
AcDbLine
 10
104.489105784
 20
1364.7892052992
 30
0.0
 11
104.489105784
 21
1364.9429357213
 31
0.0
  0
LINE
  5
7AE
330
6A9
100
AcDbEntity
  8
0
  6
Continuous
 62
     8
370
    25
100
AcDbLine
 10
104.489105784
 20
1364.9429357213
 30
0.0
 11
104.3365811094
 21
1364.962152024
 31
0.0
  0
LINE
  5
7AF
330
6A9
100
AcDbEntity
  8
0
  6
Continuous
 62
     8
370
    25
100
AcDbLine
 10
-136.3721573184
 20
562.6060841939
 30
0.0
 11
-133.1841330406
 21
562.2044308888
 31
0.0
  0
ARC
  5
7B0
330
6A9
100
AcDbEntity
  8
0
  6
Continuous
 62
     7
370
    25
100
AcDbCircle
 10
-175.0230071912
 20
1400.336326025
 30
0.0
 40
0.499999999999496
100
AcDbArc
 50
131.40962211
 51
180.0000000001
  0
ARC
  5
7B1
330
6A9
100
AcDbEntity
  8
0
  6
Continuous
 62
     7
370
    25
100
AcDbCircle
 10
-90.6346672784
 20
1460.6177107242
 30
0.0
 40
0.4999999999970857
100
AcDbArc
 50
41.4096221109
 51
82.8192442222
  0
ARC
  5
7B2
330
6A9
100
AcDbEntity
  8
0
  6
Continuous
 62
     7
370
    25
100
AcDbCircle
 10
-104.6658824793
 20
1462.3854776763
 30
0.0
 40
0.4999999999990502
100
AcDbArc
 50
82.8192442221
 51
131.40962211
  0
ARC
  5
7B3
330
6A9
100
AcDbEntity
  8
0
  6
Continuous
 62
     7
370
    25
100
AcDbCircle
 10
90.6346672784
 20
1366.8666050645
 30
0.0
 40
0.5000000000005322
100
AcDbArc
 50
131.40962211
 51
172.5943301064
  0
ARC
  5
7B4
330
6A9
100
AcDbEntity
  8
0
  6
Continuous
 62
     7
370
    25
100
AcDbCircle
 10
175.0230071912
 20
1427.1479897637
 30
0.0
 40
0.499999999999894
100
AcDbArc
 50
0.0
 51
82.8192442221
  0
ARC
  5
7B5
330
6A9
100
AcDbEntity
  8
0
  6
Continuous
 62
     7
370
    25
100
AcDbCircle
 10
160.9917919904
 20
1428.9157567158
 30
0.0
 40
0.4999999999990784
100
AcDbArc
 50
82.8192442221
 51
131.40962211
  0
ARC
  5
7B6
330
6A9
100
AcDbEntity
  8
0
  6
Continuous
 62
     7
370
    25
100
AcDbCircle
 10
104.6658824793
 20
-48.1719152612
 30
0.0
 40
0.5000000000001918
100
AcDbArc
 50
262.8192442221
 51
311.40962211
  0
ARC
  5
7B7
330
6A9
100
AcDbEntity
  8
0
  6
Continuous
 62
     7
370
    25
100
AcDbCircle
 10
175.0230071912
 20
13.8772363901
 30
0.0
 40
0.4999999999998707
100
AcDbArc
 50
311.40962211
 51
0.0
  0
ARC
  5
7B8
330
6A9
100
AcDbEntity
  8
0
  6
Continuous
 62
     7
370
    25
100
AcDbCircle
 10
-160.0563776436
 20
1398.4507079428
 30
0.0
 40
0.4999999999992465
100
AcDbArc
 50
131.4096221099
 51
172.5943301065
  0
ARC
  5
7B9
330
6A9
100
AcDbEntity
  8
0
  6
Continuous
 62
     7
370
    25
100
AcDbCircle
 10
154.3995233954
 20
1424.0447313313
 30
0.0
 40
0.4999999999992175
100
AcDbArc
 50
16.9398215909
 51
82.8192442221
  0
ARC
  5
7BA
330
6A9
100
AcDbEntity
  8
0
  6
Continuous
 62
     7
370
    25
100
AcDbCircle
 10
-95.3561071799
 20
1455.5109830794
 30
0.0
 40
0.499999999999069
100
AcDbArc
 50
82.8192442221
 51
131.40962211
  0
ARC
  5
7BB
330
6A9
100
AcDbEntity
  8
0
  6
Continuous
 62
     7
370
    25
100
AcDbCircle
 10
103.6678452202
 20
1364.2186519834
 30
0.0
 40
1.000000000000298
100
AcDbArc
 50
0.0
 51
82.8192442221
  0
ARC
  5
7BC
330
6A9
100
AcDbEntity
  8
0
  6
Continuous
 62
     7
370
    25
100
AcDbCircle
 10
-180.7424843518
 20
1394.3494122512
 30
0.0
 40
1.000000000000199
100
AcDbArc
 50
131.40962211
 51
180.0
  0
ARC
  5
7BD
330
6A9
100
AcDbEntity
  8
0
  6
Continuous
 62
     7
370
    25
100
AcDbCircle
 10
-175.0856301036
 20
1399.3382887659
 30
0.0
 40
1.000000000000024
100
AcDbArc
 50
82.8192442221
 51
131.40962211
  0
ARC
  5
7BE
330
6A9
100
AcDbEntity
  8
0
  6
Continuous
 62
     7
370
    25
100
AcDbCircle
 10
98.010990972
 20
-53.0981688632
 30
0.0
 40
0.9999999999997203
100
AcDbArc
 50
262.8192442221
 51
311.40962211
  0
ARC
  5
7BF
330
6A9
100
AcDbEntity
  8
0
  6
Continuous
 62
     7
370
    25
100
AcDbCircle
 10
103.6678452202
 20
-48.1092923485
 30
0.0
 40
1.000000000000128
100
AcDbArc
 50
311.40962211
 51
360.0
  0
ARC
  5
7C0
330
6A9
100
AcDbEntity
  8
0
  6
Continuous
 62
     7
370
    25
100
AcDbCircle
 10
-180.7424843518
 20
-17.9785320807
 30
0.0
 40
0.9999999999999504
100
AcDbArc
 50
180.0
 51
262.8192442221
  0
ARC
  5
7C1
330
6A9
100
AcDbEntity
  8
0
  6
Continuous
 62
     7
370
    25
100
AcDbCircle
 10
105.4715925384
 20
1365.0046299551
 30
0.0
 40
0.9844218612736655
100
AcDbArc
 50
144.9309440897
 51
183.5931111895
  0
ARC
  5
7C2
330
6A9
100
AcDbEntity
  8
0
  6
Continuous
 62
     7
370
    25
100
AcDbCircle
 10
104.5876268343
 20
1365.0298231206
 30
0.0
 40
0.5460560369782584
100
AcDbArc
 50
1.0587090424
 51
81.7605351794
  0
ARC
  5
7C3
330
6A9
100
AcDbEntity
  8
0
  6
Continuous
 62
     7
370
    25
100
AcDbCircle
 10
104.6731269783
 20
1365.910004799
 30
0.0
 40
0.9844218613212659
100
AcDbArc
 50
259.2261330329
 51
297.8883001309
  0
ARC
  5
7C4
330
6A9
100
AcDbEntity
  8
0
  6
Continuous
 62
     7
370
    25
100
AcDbCircle
 10
174.9447515463
 20
1427.0789747719
 30
0.0
 40
0.5460560369786235
100
AcDbArc
 50
1.0587090425
 51
81.7605351794
  0
ARC
  5
7C5
330
6A9
100
AcDbEntity
  8
0
  6
Continuous
 62
     7
370
    25
100
AcDbCircle
 10
97.8544796821
 20
1359.0917454852
 30
0.0
 40
1.09211207395693
100
AcDbArc
 50
1.0587090425
 51
81.7605351794
  0
ARC
  5
7C6
330
6A9
100
AcDbEntity
  8
0
  6
Continuous
 62
     7
370
    25
100
AcDbCircle
 10
98.0254799699
 20
1360.852108842
 30
0.0
 40
1.968843722644668
100
AcDbArc
 50
259.2261330329
 51
297.8883001309
  0
ARC
  5
7C7
330
6A9
100
AcDbEntity
  8
0
  6
Continuous
 62
     7
370
    25
100
AcDbCircle
 10
99.6224110902
 20
1359.0413591541
 30
0.0
 40
1.96884372254654
100
AcDbArc
 50
144.9309440897
 51
183.5931111895
  0
ARC
  5
7C8
330
6A9
100
AcDbEntity
  8
0
  6
Continuous
 62
     7
370
    25
100
AcDbCircle
 10
98.0254799699
 20
-51.4758354899
 30
0.0
 40
1.968843722643635
100
AcDbArc
 50
259.2261330329
 51
297.8883001309
  0
ARC
  5
7C9
330
6A9
100
AcDbEntity
  8
0
  6
Continuous
 62
     7
370
    25
100
AcDbCircle
 10
-179.1310642336
 20
1394.1609959366
 30
0.0
 40
1.968843722547402
100
AcDbArc
 50
144.9309440897
 51
183.5931111895
  0
ARC
  5
7CA
330
6A9
100
AcDbEntity
  8
0
  6
Continuous
 62
     7
370
    25
100
AcDbCircle
 10
103.5113339302
 20
1364.0806219999
 30
0.0
 40
1.092112073957568
100
AcDbArc
 50
1.0587090425
 51
81.7605351794
  0
ARC
  5
7CB
330
6A9
100
AcDbEntity
  8
0
  6
Continuous
 62
     7
370
    25
100
AcDbCircle
 10
-123.828367749
 20
852.5814439406
 30
0.0
 40
15.73940546523471
100
AcDbArc
 50
140.8775562305
 51
181.0401492765
  0
ARC
  5
7CC
330
6A9
100
AcDbEntity
  8
0
  6
Continuous
 62
     7
370
    25
100
AcDbCircle
 10
-123.5706749003
 20
852.7274487661
 30
0.0
 40
17.2180842535752
100
AcDbArc
 50
141.1778129867
 51
181.9093989032
  0
ARC
  5
7CD
330
6A9
100
AcDbEntity
  8
0
  6
Continuous
 62
     7
370
    25
100
AcDbCircle
 10
-137.3124102037
 20
862.2665143028
 30
0.0
 40
1.296999570088588
100
AcDbArc
 50
10.9413487436
 51
75.3875108122
  0
ARC
  5
7CE
330
6A9
100
AcDbEntity
  8
0
  6
Continuous
 62
     7
370
    25
100
AcDbCircle
 10
-140.4232534557
 20
854.3716685028
 30
0.0
 40
2.246292027704389
100
AcDbArc
 50
260.8825271898
 51
292.4573525853
  0
ARC
  5
7CF
330
6A9
100
AcDbEntity
  8
0
  6
Continuous
 62
     7
370
    25
100
AcDbCircle
 10
-103.8259902571
 20
853.1025318069
 30
0.0
 40
40.06229581584689
100
AcDbArc
 50
163.9274149226
 51
180.7974230306
  0
ARC
  5
7D0
330
6A9
100
AcDbEntity
  8
0
  6
Continuous
 62
     7
370
    25
100
AcDbCircle
 10
-107.830148291
 20
853.7254545204
 30
0.0
 40
36.69192269052309
100
AcDbArc
 50
164.6841121388
 51
181.2592234317
  0
ARC
  5
7D1
330
6A9
100
AcDbEntity
  8
0
  6
Continuous
 62
     7
370
    25
100
AcDbCircle
 10
-140.4232534557
 20
501.3986033836
 30
0.0
 40
2.246292027703852
100
AcDbArc
 50
260.8825271898
 51
292.4573525853
  0
ARC
  5
7D2
330
6A9
100
AcDbEntity
  8
0
  6
Continuous
 62
     7
370
    25
100
AcDbCircle
 10
-130.7107972189
 20
869.016725628
 30
0.0
 40
1.062563893816382
100
AcDbArc
 50
0.3079488486
 51
81.7417679896
  0
ARC
  5
7D3
330
6A9
100
AcDbEntity
  8
0
  6
Continuous
 62
     7
370
    25
100
AcDbCircle
 10
-140.0839251101
 20
870.4787539343
 30
0.0
 40
0.783789754970799
100
AcDbArc
 50
81.1465197633
 51
161.4820006106
  0
ARC
  5
7D4
330
6A9
100
AcDbEntity
  8
0
  6
Continuous
 62
     7
370
    25
100
AcDbCircle
 10
-130.4622075527
 20
800.1684587574
 30
0.0
 40
0.8141427849660269
100
AcDbArc
 50
299.8897038172
 51
1.2178449375
  0
ARC
  5
7D5
330
6A9
100
AcDbEntity
  8
0
  6
Continuous
 62
     7
370
    25
100
AcDbCircle
 10
-133.4698449433
 20
561.0944311387
 30
0.0
 40
1.146180935347267
100
AcDbArc
 50
359.8677676479
 51
75.5655067221
  0
ARC
  5
7D6
330
6A9
100
AcDbEntity
  8
0
  6
Continuous
 62
     7
370
    25
100
AcDbCircle
 10
-130.7468363496
 20
562.5715749331
 30
0.0
 40
1.098902655434665
100
AcDbArc
 50
1.3718566723
 51
82.209492988
  0
ARC
  5
7D7
330
6A9
100
AcDbEntity
  8
0
  6
Continuous
 62
     7
370
    25
100
AcDbCircle
 10
-130.4354259774
 20
493.7256688691
 30
0.0
 40
0.7879792258684429
100
AcDbArc
 50
276.196335325
 51
2.5851328473
  0
ARC
  5
7D8
330
6A9
100
AcDbEntity
  8
0
  6
Continuous
 62
     8
370
    25
100
AcDbCircle
 10
-160.2735891512
 20
1398.5209379013
 30
0.0
 40
0.8861168024109607
100
AcDbArc
 50
144.1453823716
 51
175.4430663129
  0
ARC
  5
7D9
330
6A9
100
AcDbEntity
  8
0
  6
Continuous
 62
     8
370
    25
100
AcDbCircle
 10
-161.071925732
 20
1398.4966469382
 30
0.0
 40
0.549194323308121
100
AcDbArc
 50
11.061338467
 51
81.6099370384
  0
ARC
  5
7DA
330
6A9
100
AcDbEntity
  8
0
  6
Continuous
 62
     8
370
    25
100
AcDbCircle
 10
-174.2892814782
 20
1400.2805665525
 30
0.0
 40
0.9034684819183249
100
AcDbArc
 50
144.3036779936
 51
176.6922463242
  0
ARC
  5
7DB
330
6A9
100
AcDbEntity
  8
0
  6
Continuous
 62
     8
370
    25
100
AcDbCircle
 10
-90.7086388613
 20
1460.5588755239
 30
0.0
 40
0.5353745949537025
100
AcDbArc
 50
40.8957905829
 51
82.0581557132
  0
ARC
  5
7DC
330
6A9
100
AcDbEntity
  8
0
  6
Continuous
 62
     8
370
    25
100
AcDbCircle
 10
-175.4246546186
 20
1400.3499514614
 30
0.0
 40
0.0992918982202292
100
AcDbArc
 50
187.8873621496
 51
242.9317019753
  0
ARC
  5
7DD
330
6A9
100
AcDbEntity
  8
0
  6
Continuous
 62
     8
370
    25
100
AcDbCircle
 10
-175.0821536971
 20
1400.3951612254
 30
0.0
 40
0.4167874198614054
100
AcDbArc
 50
81.8415869732
 51
130.6612067915
  0
ARC
  5
7DE
330
6A9
100
AcDbEntity
  8
0
  6
Continuous
 62
     8
370
    25
100
AcDbCircle
 10
-104.7250289852
 20
1462.4443128766
 30
0.0
 40
0.4167874198594979
100
AcDbArc
 50
81.8415869731
 51
130.6612067917
  0
ARC
  5
7DF
330
6A9
100
AcDbEntity
  8
0
  6
Continuous
 62
     8
370
    25
100
AcDbCircle
 10
104.7022760561
 20
-47.4369744125
 30
0.0
 40
0.9034684839360907
100
AcDbArc
 50
266.1269977537
 51
298.5155662094
  0
ARC
  5
7E0
330
6A9
100
AcDbEntity
  8
0
  6
Continuous
 62
     8
370
    25
100
AcDbCircle
 10
91.2641285248
 20
1366.8516445985
 30
0.0
 40
0.7954698995883974
100
AcDbArc
 50
142.3078617906
 51
177.2805868937
  0
ARC
  5
7E1
330
6A9
100
AcDbEntity
  8
0
  6
Continuous
 62
     8
370
    25
100
AcDbCircle
 10
90.5755207726
 20
1366.9254402649
 30
0.0
 40
0.4167874198609056
100
AcDbArc
 50
81.8415869732
 51
130.6612067915
  0
ARC
  5
7E2
330
6A9
100
AcDbEntity
  8
0
  6
Continuous
 62
     8
370
    25
100
AcDbCircle
 10
160.9326454845
 20
1428.9745919161
 30
0.0
 40
0.4167874198611614
100
AcDbArc
 50
81.8415869732
 51
130.6612067915
  0
ARC
  5
7E3
330
6A9
100
AcDbEntity
  8
0
  6
Continuous
 62
     8
370
    25
100
AcDbCircle
 10
104.6291951197
 20
-48.5721156432
 30
0.0
 40
0.0992918986679436
100
AcDbArc
 50
199.8875418791
 51
254.9318820159
  0
ARC
  5
7E4
330
6A9
100
AcDbEntity
  8
0
  6
Continuous
 62
     8
370
    25
100
AcDbCircle
 10
104.7168629067
 20
-48.2379522657
 30
0.0
 40
0.4167874198660866
100
AcDbArc
 50
312.1580374309
 51
0.9776572489
  0
ARC
  5
7E5
330
6A9
100
AcDbEntity
  8
0
  6
Continuous
 62
     8
370
    25
100
AcDbCircle
 10
175.0739876186
 20
13.8111993855
 30
0.0
 40
0.4167874198659119
100
AcDbArc
 50
312.1580374309
 51
0.9776572489
  0
ARC
  5
7E6
330
6A9
100
AcDbEntity
  8
0
  6
Continuous
 62
     8
370
    25
100
AcDbCircle
 10
90.3287141781
 20
1366.9694957286
 30
0.0
 40
0.7954698995890788
100
AcDbArc
 50
142.3078617907
 51
177.2805868937
  0
ARC
  5
7E7
330
6A9
100
AcDbEntity
  8
0
  6
Continuous
 62
     8
370
    25
100
AcDbCircle
 10
89.6191191901
 20
1366.9125440599
 30
0.0
 40
0.5491943233019512
100
AcDbArc
 50
11.0613384397
 51
81.6099370387
  0
ARC
  5
7E8
330
6A9
100
AcDbEntity
  8
0
  6
Continuous
 62
     8
370
    25
100
AcDbCircle
 10
-159.4269163972
 20
1398.4357474767
 30
0.0
 40
0.7954698995912728
100
AcDbArc
 50
142.3078617907
 51
177.2805868937
  0
ARC
  5
7E9
330
6A9
100
AcDbEntity
  8
0
  6
Continuous
 62
     8
370
    25
100
AcDbCircle
 10
154.3186299371
 20
1423.9719081254
 30
0.0
 40
0.5502068430069441
100
AcDbArc
 50
19.4226207561
 51
81.5455138919
  0
ARC
  5
7EA
330
6A9
100
AcDbEntity
  8
0
  6
Continuous
 62
     8
370
    25
100
AcDbCircle
 10
-160.1155241495
 20
1398.5095431431
 30
0.0
 40
0.4167874198607365
100
AcDbArc
 50
81.8415869732
 51
130.6612067916
  0
ARC
  5
7EB
330
6A9
100
AcDbEntity
  8
0
  6
Continuous
 62
     8
370
    25
100
AcDbCircle
 10
-95.4152536858
 20
1455.5698182797
 30
0.0
 40
0.4167874198617714
100
AcDbArc
 50
81.8415869732
 51
130.6612067915
  0
ARC
  5
7EC
330
6A9
100
AcDbEntity
  8
0
  6
Continuous
 62
     8
370
    25
100
AcDbCircle
 10
-180.8607773635
 20
1394.4670826519
 30
0.0
 40
0.8335748397251274
100
AcDbArc
 50
81.8415869733
 51
130.6612067915
  0
ARC
  5
7ED
330
6A9
100
AcDbEntity
  8
0
  6
Continuous
 62
     8
370
    25
100
AcDbCircle
 10
-175.2039231153
 20
1399.4559591666
 30
0.0
 40
0.8335748397231549
100
AcDbArc
 50
81.8415869732
 51
130.6612067915
  0
ARC
  5
7EE
330
6A9
100
AcDbEntity
  8
0
  6
Continuous
 62
     8
370
    25
100
AcDbCircle
 10
98.1129518268
 20
-53.2302428723
 30
0.0
 40
0.8335748397326995
100
AcDbArc
 50
312.158037431
 51
0.9776572489
  0
ARC
  5
7EF
330
6A9
100
AcDbEntity
  8
0
  6
Continuous
 62
     8
370
    25
100
AcDbCircle
 10
103.769806075
 20
-48.2413663577
 30
0.0
 40
0.833574839732153
100
AcDbArc
 50
312.1580374309
 51
0.9776572489
  0
ARC
  5
7F0
330
6A9
100
AcDbEntity
  8
0
  6
Continuous
 62
     8
370
    25
100
AcDbCircle
 10
-142.4137899525
 20
863.371320513
 30
0.0
 40
0.827724041773138
100
AcDbArc
 50
83.6554392104
 51
158.7078349379
  0
ARC
  5
7F1
330
6A9
100
AcDbEntity
  8
0
  6
Continuous
 62
     8
370
    25
100
AcDbCircle
 10
-138.0810841567
 20
785.3034452071
 30
0.0
 40
0.2089275379630583
100
AcDbArc
 50
288.8947577329
 51
352.5998838123
  0
ARC
  5
7F2
330
6A9
100
AcDbEntity
  8
0
  6
Continuous
 62
     8
370
    25
100
AcDbCircle
 10
-133.1094421496
 20
798.6454374983
 30
0.0
 40
0.7865201646555754
100
AcDbArc
 50
302.2647607199
 51
2.4941186599
  0
ARC
  5
7F3
330
6A9
100
AcDbEntity
  8
0
  6
Continuous
 62
     8
370
    25
100
AcDbCircle
 10
-138.0814966392
 20
568.4578581517
 30
0.0
 40
0.2095272152931881
100
AcDbArc
 50
288.957860879
 51
352.2303819077
  0
ARC
  5
7F4
330
6A9
100
AcDbEntity
  8
0
  6
Continuous
 62
     8
370
    25
100
AcDbCircle
 10
-136.9428315221
 20
493.1453109458
 30
0.0
 40
0.9065159893889966
100
AcDbArc
 50
279.5306766485
 51
355.5998006119
  0
VIEWPORT
  5
803
330
6A9
100
AcDbEntity
  8
0
100
AcDbViewport
 10
0.0
 20
0.0
 30
0.0
 40
205.6
 41
156.0
 68
     1
 69
     1
 12
0.0
 22
750.0
 13
0.0
 23
0.0
 14
10.0
 24
10.0
 15
10.0
 25
10.0
 16
0.0
 26
0.0
 36
1.0
 17
0.0
 27
0.0
 37
0.0
 42
50.0
 43
0.0
 44
0.0
 45
1530.0
 50
0.0
 51
0.0
 72
   100
 90
   557152
  1

281
     0
 71
     1
 74
     0
110
0.0
120
0.0
130
0.0
111
1.0
121
0.0
131
0.0
112
0.0
122
1.0
132
0.0
 79
     0
146
0.0
  0
ENDBLK
  5
6AC
330
6A9
100
AcDbEntity
  8
0
100
AcDbBlockEnd
  0
ENDSEC
  0
SECTION
  2
ENTITIES
  0
SPLINE
  5
73
330
1F
100
AcDbEntity
  8
0
  6
Continuous
 62
     7
370
    25
100
AcDbSpline
210
0.0
220
0.0
230
1.0
 70
     8
 71
     3
 72
    17
 73
    13
 74
     0
 42
0.000000001
 43
0.00000001
 40
0.0
 40
0.0
 40
0.0
 40
0.0
 40
0.0137247819843285
 40
0.0943526864966928
 40
0.1859764330243083
 40
0.2904924084558497
 40
0.4037074847366267
 40
0.5216026684139247
 40
0.6416814866662487
 40
0.762688500468989
 40
0.8840547431991364
 40
0.9999999999999999
 40
0.9999999999999999
 40
0.9999999999999999
 40
0.9999999999999999
 10
-95.53146122565722
 20
624.8837251928626
 30
0.0
 10
-95.52572464218224
 20
624.8796498972313
 30
0.0
 10
-95.48628779992158
 20
624.8516337807264
 30
0.0
 10
-95.6199434571067
 20
625.0029495684824
 30
0.0
 10
-95.77942160652319
 20
625.392041722983
 30
0.0
 10
-96.00121431886237
 20
626.0897136507069
 30
0.0
 10
-96.2203587629244
 20
627.0812462838139
 30
0.0
 10
-96.42491261484122
 20
628.3470017063481
 30
0.0
 10
-96.59551799007247
 20
629.8356444577129
 30
0.0
 10
-96.72172752966443
 20
631.4924949480035
 30
0.0
 10
-96.8007810014025
 20
633.2339535889251
 30
0.0
 10
-96.81046542545455
 20
634.4203516253148
 30
0.0
 10
-96.8151970252123
 20
634.9999999999998
 30
0.0
  0
SPLINE
  5
76
330
1F
100
AcDbEntity
  8
0
  6
Continuous
 62
     7
370
    25
100
AcDbSpline
210
0.0
220
0.0
230
1.0
 70
     8
 71
     3
 72
    17
 73
    13
 74
     0
 42
0.000000001
 43
0.00000001
 40
0.0
 40
0.0
 40
0.0
 40
0.0
 40
0.0636814258662683
 40
0.1851526894258009
 40
0.3067782043521655
 40
0.4283725913826162
 40
0.5497066430601388
 40
0.670243341199496
 40
0.7888110377761032
 40
0.8885653094524661
 40
0.975280846985945
 40
0.9999999999999999
 40
0.9999999999999999
 40
0.9999999999999999
 40
0.9999999999999999
 10
-103.1848029747876
 20
634.9999999999998
 30
0.0
 10
-103.1862833066355
 20
634.6819355442072
 30
0.0
 10
-103.190587346929
 20
633.7571684147084
 30
0.0
 10
-103.2385516070655
 20
632.241102188017
 30
0.0
 10
-103.3446772417999
 20
630.5227305829058
 30
0.0
 10
-103.4994078423854
 20
628.9397440224114
 30
0.0
 10
-103.6962716118006
 20
627.5438753317941
 30
0.0
 10
-103.9232222475735
 20
626.3870308612172
 30
0.0
 10
-104.1630005826436
 20
625.5456089606571
 30
0.0
 10
-104.3524832435882
 20
625.0576211090013
 30
0.0
 10
-104.4991195065446
 20
624.8609898918364
 30
0.0
 10
-104.4703137637898
 20
624.8849505781593
 30
0.0
 10
-104.4639238904088
 20
624.8902656902543
 30
0.0
  0
SPLINE
  5
78
330
1F
100
AcDbEntity
  8
0
  6
Continuous
 62
     7
370
    25
100
AcDbSpline
210
0.0
220
0.0
230
1.0
 70
     8
 71
     3
 72
    17
 73
    13
 74
     0
 42
0.000000001
 43
0.00000001
 40
0.0
 40
0.0
 40
0.0
 40
0.0
 40
0.0137247819843266
 40
0.0943526864966923
 40
0.1859764330243055
 40
0.2904924084558465
 40
0.4037074847366285
 40
0.5216026684138704
 40
0.6416814866662351
 40
0.762688500468975
 40
0.8840547431991221
 40
0.9999999999999999
 40
0.9999999999999999
 40
0.9999999999999999
 40
0.9999999999999999
 10
-104.4685387743426
 20
875.1162748071372
 30
0.0
 10
-104.4742753578176
 20
875.1203501027684
 30
0.0
 10
-104.5137122000783
 20
875.148366219274
 30
0.0
 10
-104.3800565428932
 20
874.997050431517
 30
0.0
 10
-104.2205783934767
 20
874.607958277017
 30
0.0
 10
-103.9987856811375
 20
873.9102863492931
 30
0.0
 10
-103.7796412370755
 20
872.918753716186
 30
0.0
 10
-103.5750873851586
 20
871.6529982936516
 30
0.0
 10
-103.4044820099274
 20
870.164355542287
 30
0.0
 10
-103.2782724703354
 20
868.5075050519962
 30
0.0
 10
-103.1992189985974
 20
866.7660464110749
 30
0.0
 10
-103.1895345745453
 20
865.5796483746849
 30
0.0
 10
-103.1848029747876
 20
864.9999999999998
 30
0.0
  0
SPLINE
  5
79
330
1F
100
AcDbEntity
  8
0
  6
Continuous
 62
     7
370
    25
100
AcDbSpline
210
0.0
220
0.0
230
1.0
 70
     8
 71
     3
 72
    17
 73
    13
 74
     0
 42
0.000000001
 43
0.00000001
 40
0.0
 40
0.0
 40
0.0
 40
0.0
 40
0.0636814258662682
 40
0.1851526894258009
 40
0.3067782043521806
 40
0.4283725913826071
 40
0.5497066430601599
 40
0.6702433411995063
 40
0.7888110377761014
 40
0.8885653094524861
 40
0.975280846985971
 40
0.9999999999999999
 40
0.9999999999999999
 40
0.9999999999999999
 40
0.9999999999999999
 10
-96.81519702521226
 20
864.9999999999999
 30
0.0
 10
-96.81371669336437
 20
865.3180644557924
 30
0.0
 10
-96.80941265307091
 20
866.2428315852912
 30
0.0
 10
-96.7614483929344
 20
867.758897811983
 30
0.0
 10
-96.65532275819996
 20
869.4772694170939
 30
0.0
 10
-96.50059215761446
 20
871.0602559775883
 30
0.0
 10
-96.30372838819925
 20
872.4561246682055
 30
0.0
 10
-96.0767777524264
 20
873.612969138783
 30
0.0
 10
-95.83699941735615
 20
874.4543910393423
 30
0.0
 10
-95.64751675641169
 20
874.9423788909991
 30
0.0
 10
-95.5008804934552
 20
875.1390101081632
 30
0.0
 10
-95.5296862362101
 20
875.1150494218402
 30
0.0
 10
-95.53607610959101
 20
875.1097343097454
 30
0.0
  0
LWPOLYLINE
  5
9B
330
1F
100
AcDbEntity
  8
0
  6
Continuous
 62
     7
370
    25
100
AcDbPolyline
 90
        8
 70
   128
 43
0.0
 10
-97.1471906346
 20
553.1063390626
 10
-97.4280344165
 20
553.7364576331
 10
-97.6851710217
 20
554.691022389
 10
-97.9094036505
 20
555.9358921736
 10
-98.092712353
 20
557.4265427217
 10
-98.2285408732
 20
559.1096591236
 10
-98.3120311405
 20
560.9250426967
 10
-98.3401970252
 20
562.807764064
  0
LWPOLYLINE
  5
9D
330
1F
100
AcDbEntity
  8
0
  6
Continuous
 62
     7
370
    25
100
AcDbPolyline
 90
        8
 70
   128
 43
0.0
 10
-97.3551665581
 20
562.807764064
 10
-97.3270006734
 20
561.1133148335
 10
-97.243510406
 20
559.4794696177
 10
-97.1076818859
 20
557.964664856
 10
-96.9243731833
 20
556.6230793626
 10
-96.7001405546
 20
555.5026965565
 10
-96.4430039493
 20
554.6435882762
 10
-96.1621601675
 20
554.0764815627
  0
LWPOLYLINE
  5
9F
330
1F
100
AcDbEntity
  8
0
  6
Continuous
 62
     7
370
    25
100
AcDbPolyline
 90
        8
 70
   128
 43
0.0
 10
-101.6598029748
 20
562.807764064
 10
-101.6879688595
 20
560.9250426967
 10
-101.7714591268
 20
559.1096591236
 10
-101.907287647
 20
557.4265427217
 10
-102.0905963495
 20
555.9358921736
 10
-102.3148289783
 20
554.691022389
 10
-102.5719655835
 20
553.7364576331
 10
-102.8528093654
 20
553.1063390626
  0
LWPOLYLINE
  5
A3
330
1F
100
AcDbEntity
  8
0
  6
Continuous
 62
     7
370
    25
100
AcDbPolyline
 90
        8
 70
   128
 43
0.0
 10
-103.8378398325
 20
554.0764815627
 10
-103.5569960507
 20
554.6435882762
 10
-103.2998594454
 20
555.5026965565
 10
-103.0756268167
 20
556.6230793626
 10
-102.8923181141
 20
557.964664856
 10
-102.756489594
 20
559.4794696177
 10
-102.6729993266
 20
561.1133148335
 10
-102.6448334419
 20
562.807764064
  0
LWPOLYLINE
  5
AC
330
1F
100
AcDbEntity
  8
0
  6
Continuous
 62
     7
370
    25
100
AcDbPolyline
 90
        8
 70
   128
 43
0.0
 10
-102.8528093654
 20
946.8936609374
 10
-102.5719655835
 20
946.2635423669
 10
-102.3148289783
 20
945.308977611
 10
-102.0905963495
 20
944.0641078264
 10
-101.907287647
 20
942.5734572783
 10
-101.7714591268
 20
940.8903408764
 10
-101.6879688595
 20
939.0749573033
 10
-101.6598029748
 20
937.192235936
  0
LWPOLYLINE
  5
AE
330
1F
100
AcDbEntity
  8
0
  6
Continuous
 62
     7
370
    25
100
AcDbPolyline
 90
        8
 70
   128
 43
0.0
 10
-98.3401970252
 20
937.192235936
 10
-98.3120311405
 20
939.0749573033
 10
-98.2285408732
 20
940.8903408764
 10
-98.092712353
 20
942.5734572783
 10
-97.9094036505
 20
944.0641078264
 10
-97.6851710217
 20
945.308977611
 10
-97.4280344165
 20
946.2635423669
 10
-97.1471906346
 20
946.8936609374
  0
LWPOLYLINE
  5
AF
330
1F
100
AcDbEntity
  8
0
  6
Continuous
 62
     7
370
    25
100
AcDbPolyline
 90
        8
 70
   128
 43
0.0
 10
-102.6448334419
 20
937.192235936
 10
-102.6729993266
 20
938.8866851665
 10
-102.756489594
 20
940.5205303823
 10
-102.8923181141
 20
942.035335144
 10
-103.0756268167
 20
943.3769206374
 10
-103.2998594454
 20
944.4973034435
 10
-103.5569960507
 20
945.3564117238
 10
-103.8378398325
 20
945.9235184373
  0
LWPOLYLINE
  5
B2
330
1F
100
AcDbEntity
  8
0
  6
Continuous
 62
     7
370
    25
100
AcDbPolyline
 90
        8
 70
   128
 43
0.0
 10
-96.1621601675
 20
945.9235184373
 10
-96.4430039493
 20
945.3564117238
 10
-96.7001405546
 20
944.4973034435
 10
-96.9243731833
 20
943.3769206374
 10
-97.1076818859
 20
942.035335144
 10
-97.243510406
 20
940.5205303823
 10
-97.3270006734
 20
938.8866851665
 10
-97.3551665581
 20
937.192235936
  0
LWPOLYLINE
  5
B7
330
1F
100
AcDbEntity
  8
0
  6
Continuous
 62
     7
370
    25
100
AcDbPolyline
 90
       10
 70
   128
 43
0.0
 10
-96.8301665581
 20
865.0
 10
-96.8009214826
 20
866.9101299543
 10
-96.7140748531
 20
868.7622215766
 10
-96.5722654603
 20
870.5
 10
-96.3798021111
 20
872.0706637066
 10
-96.1425327067
 20
873.4264888743
 10
-95.8676665581
 20
874.5262794416
 10
-95.563555334
 20
875.3366188286
 10
-95.2394393001
 20
875.8328852831
 10
-94.9051665581
 20
876.0
  0
LWPOLYLINE
  5
B9
330
1F
100
AcDbEntity
  8
0
  6
Continuous
 62
     7
370
    25
100
AcDbPolyline
 90
        9
 70
   128
 43
0.0
 10
-94.9051665581
 20
624.0
 10
-95.2807154279
 20
624.2113619156
 10
-95.6418321654
 20
624.8373251424
 10
-95.9746392566
 20
625.8538342647
 10
-96.2663471118
 20
627.2218254069
 10
-96.5057455617
 20
628.8887274368
 10
-96.6836346581
 20
630.790482244
 10
-96.7931782228
 20
632.8540064578
 10
-96.8301665581
 20
635.0
  0
LWPOLYLINE
  5
C0
330
1F
100
AcDbEntity
  8
0
  6
Continuous
 62
     7
370
    25
100
AcDbPolyline
 90
        9
 70
   128
 43
0.0
 10
-103.1698334419
 20
635.0
 10
-103.2068217772
 20
632.8540064578
 10
-103.3163653419
 20
630.790482244
 10
-103.4942544383
 20
628.8887274368
 10
-103.7336528882
 20
627.2218254069
 10
-104.0253607434
 20
625.8538342647
 10
-104.3581678346
 20
624.8373251424
 10
-104.7192845721
 20
624.2113619156
 10
-105.0948334419
 20
624.0
  0
LWPOLYLINE
  5
C2
330
1F
100
AcDbEntity
  8
0
  6
Continuous
 62
     7
370
    25
100
AcDbPolyline
 90
        9
 70
   128
 43
0.0
 10
-105.0948334419
 20
876.0
 10
-104.7192845721
 20
875.7886380844
 10
-104.3581678346
 20
875.1626748576
 10
-104.0253607434
 20
874.1461657353
 10
-103.7336528882
 20
872.7781745931
 10
-103.4942544383
 20
871.1112725632
 10
-103.3163653419
 20
869.209517756
 10
-103.2068217772
 20
867.1459935422
 10
-103.1698334419
 20
865.0
  0
LINE
  5
E7
330
1F
100
AcDbEntity
  8
0
  6
Continuous
 62
     7
370
    25
100
AcDbLine
 10
-103.1848029748
 20
865.0
 30
0.0
 11
-103.1848029748
 21
635.0
 31
0.0
  0
LINE
  5
E8
330
1F
100
AcDbEntity
  8
0
  6
Continuous
 62
     7
370
    25
100
AcDbLine
 10
-96.8151970252
 20
635.0
 30
0.0
 11
-96.8151970252
 21
865.0
 31
0.0
  0
LINE
  5
E9
330
1F
100
AcDbEntity
  8
0
  6
Continuous
 62
     7
370
    25
100
AcDbLine
 10
-104.4339049979
 20
624.911062591
 30
0.0
 11
-104.1098029748
 21
625.0
 31
0.0
  0
LINE
  5
EA
330
1F
100
AcDbEntity
  8
0
  6
Continuous
 62
     7
370
    25
100
AcDbLine
 10
-95.5660950021
 20
875.088937409
 30
0.0
 11
-95.8901970252
 21
875.0
 31
0.0
  0
LINE
  5
EB
330
1F
100
AcDbEntity
  8
0
  6
Continuous
 62
     7
370
    25
100
AcDbLine
 10
-150.0
 20
0.5
 30
0.0
 11
-150.0
 21
1499.5
 31
0.0
  0
LINE
  5
EC
330
1F
100
AcDbEntity
  8
0
  6
Continuous
 62
     7
370
    25
100
AcDbLine
 10
149.5
 20
0.0
 30
0.0
 11
-149.5
 21
0.0
 31
0.0
  0
LINE
  5
ED
330
1F
100
AcDbEntity
  8
0
  6
Continuous
 62
     7
370
    25
100
AcDbLine
 10
150.0
 20
1499.5
 30
0.0
 11
150.0
 21
0.5
 31
0.0
  0
LINE
  5
EE
330
1F
100
AcDbEntity
  8
0
  6
Continuous
 62
     7
370
    25
100
AcDbLine
 10
-149.5
 20
1500.0
 30
0.0
 11
149.5
 21
1500.0
 31
0.0
  0
LINE
  5
EF
330
1F
100
AcDbEntity
  8
0
  6
Continuous
 62
     7
370
    25
100
AcDbLine
 10
150.0
 20
1499.0
 30
0.0
 11
-150.0
 21
1499.0
 31
0.0
  0
LINE
  5
F0
330
1F
100
AcDbEntity
  8
0
  6
Continuous
 62
     7
370
    25
100
AcDbLine
 10
-150.0
 20
1.0
 30
0.0
 11
150.0
 21
1.0
 31
0.0
  0
LINE
  5
F1
330
1F
100
AcDbEntity
  8
0
  6
Continuous
 62
     7
370
    25
100
AcDbLine
 10
-149.0
 20
1500.0
 30
0.0
 11
-149.0
 21
0.0
 31
0.0
  0
LINE
  5
F2
330
1F
100
AcDbEntity
  8
0
  6
Continuous
 62
     7
370
    25
100
AcDbLine
 10
149.0
 20
0.0
 30
0.0
 11
149.0
 21
1500.0
 31
0.0
  0
LINE
  5
F3
330
1F
100
AcDbEntity
  8
0
  6
Continuous
 62
     7
370
    25
100
AcDbLine
 10
-102.6448334419
 20
562.807764064
 30
0.0
 11
-97.3551665581
 21
562.807764064
 31
0.0
  0
LINE
  5
F4
330
1F
100
AcDbEntity
  8
0
  6
Continuous
 62
     7
370
    25
100
AcDbLine
 10
-97.1471906346
 20
553.1063390626
 30
0.0
 11
-102.8528093654
 21
553.1063390626
 31
0.0
  0
LINE
  5
F5
330
1F
100
AcDbEntity
  8
0
  6
Continuous
 62
     7
370
    25
100
AcDbLine
 10
-101.6598029748
 20
937.192235936
 30
0.0
 11
-101.6598029748
 21
562.807764064
 31
0.0
  0
LINE
  5
F6
330
1F
100
AcDbEntity
  8
0
  6
Continuous
 62
     7
370
    25
100
AcDbLine
 10
-102.6448334419
 20
562.807764064
 30
0.0
 11
-102.6448334419
 21
937.192235936
 31
0.0
  0
LINE
  5
F7
330
1F
100
AcDbEntity
  8
0
  6
Continuous
 62
     7
370
    25
100
AcDbLine
 10
-97.3551665581
 20
937.192235936
 30
0.0
 11
-102.6448334419
 21
937.192235936
 31
0.0
  0
LINE
  5
F8
330
1F
100
AcDbEntity
  8
0
  6
Continuous
 62
     7
370
    25
100
AcDbLine
 10
-98.3401970252
 20
562.807764064
 30
0.0
 11
-98.3401970252
 21
937.192235936
 31
0.0
  0
LINE
  5
F9
330
1F
100
AcDbEntity
  8
0
  6
Continuous
 62
     7
370
    25
100
AcDbLine
 10
-97.3551665581
 20
937.192235936
 30
0.0
 11
-97.3551665581
 21
562.807764064
 31
0.0
  0
LINE
  5
FA
330
1F
100
AcDbEntity
  8
0
  6
Continuous
 62
     7
370
    25
100
AcDbLine
 10
-102.8528093654
 20
946.8936609374
 30
0.0
 11
-97.1471906346
 21
946.8936609374
 31
0.0
  0
LINE
  5
FB
330
1F
100
AcDbEntity
  8
0
  6
Continuous
 62
     7
370
    25
100
AcDbLine
 10
-96.1621601675
 20
554.0764815627
 30
0.0
 11
-94.0
 21
550.9876813235
 31
0.0
  0
LINE
  5
FC
330
1F
100
AcDbEntity
  8
0
  6
Continuous
 62
     7
370
    25
100
AcDbLine
 10
-94.0
 20
949.0123186765
 30
0.0
 11
-96.1621601675
 21
945.9235184373
 31
0.0
  0
LINE
  5
FD
330
1F
100
AcDbEntity
  8
0
  6
Continuous
 62
     7
370
    25
100
AcDbLine
 10
-94.0
 20
876.0
 30
0.0
 11
-94.0
 21
949.0123186765
 31
0.0
  0
LINE
  5
FE
330
1F
100
AcDbEntity
  8
0
  6
Continuous
 62
     7
370
    25
100
AcDbLine
 10
-94.9051665581
 20
876.0
 30
0.0
 11
-94.0
 21
876.0
 31
0.0
  0
LINE
  5
FF
330
1F
100
AcDbEntity
  8
0
  6
Continuous
 62
     7
370
    25
100
AcDbLine
 10
-96.8301665581
 20
635.0
 30
0.0
 11
-96.8301665581
 21
865.0
 31
0.0
  0
LINE
  5
100
330
1F
100
AcDbEntity
  8
0
  6
Continuous
 62
     7
370
    25
100
AcDbLine
 10
-94.0
 20
624.0
 30
0.0
 11
-94.9051665581
 21
624.0
 31
0.0
  0
LINE
  5
101
330
1F
100
AcDbEntity
  8
0
  6
Continuous
 62
     7
370
    25
100
AcDbLine
 10
-94.0
 20
550.9876813235
 30
0.0
 11
-94.0
 21
624.0
 31
0.0
  0
LINE
  5
102
330
1F
100
AcDbEntity
  8
0
  6
Continuous
 62
     7
370
    25
100
AcDbLine
 10
-103.8378398325
 20
945.9235184373
 30
0.0
 11
-106.0
 21
949.0123186765
 31
0.0
  0
LINE
  5
103
330
1F
100
AcDbEntity
  8
0
  6
Continuous
 62
     7
370
    25
100
AcDbLine
 10
-106.0
 20
550.9876813235
 30
0.0
 11
-103.8378398325
 21
554.0764815627
 31
0.0
  0
LINE
  5
104
330
1F
100
AcDbEntity
  8
0
  6
Continuous
 62
     7
370
    25
100
AcDbLine
 10
-106.0
 20
624.0
 30
0.0
 11
-106.0
 21
550.9876813235
 31
0.0
  0
LINE
  5
105
330
1F
100
AcDbEntity
  8
0
  6
Continuous
 62
     7
370
    25
100
AcDbLine
 10
-105.0948334419
 20
624.0
 30
0.0
 11
-106.0
 21
624.0
 31
0.0
  0
LINE
  5
106
330
1F
100
AcDbEntity
  8
0
  6
Continuous
 62
     7
370
    25
100
AcDbLine
 10
-103.1698334419
 20
865.0
 30
0.0
 11
-103.1698334419
 21
635.0
 31
0.0
  0
LINE
  5
107
330
1F
100
AcDbEntity
  8
0
  6
Continuous
 62
     7
370
    25
100
AcDbLine
 10
-106.0
 20
876.0
 30
0.0
 11
-105.0948334419
 21
876.0
 31
0.0
  0
LINE
  5
108
330
1F
100
AcDbEntity
  8
0
  6
Continuous
 62
     7
370
    25
100
AcDbLine
 10
-106.0
 20
949.0123186765
 30
0.0
 11
-106.0
 21
876.0
 31
0.0
  0
LINE
  5
109
330
1F
100
AcDbEntity
  8
0
  6
Continuous
 62
     7
370
    25
100
AcDbLine
 10
-96.8151970252
 20
635.0
 30
0.0
 11
-96.8301665581
 21
635.0
 31
0.0
  0
LINE
  5
10A
330
1F
100
AcDbEntity
  8
0
  6
Continuous
 62
     7
370
    25
100
AcDbLine
 10
-94.9727532908
 20
550.0
 30
0.0
 11
-97.1471906346
 21
553.1063390626
 31
0.0
  0
LINE
  5
10B
330
1F
100
AcDbEntity
  8
0
  6
Continuous
 62
     7
370
    25
100
AcDbLine
 10
-102.8528093654
 20
553.1063390626
 30
0.0
 11
-105.0272467092
 21
550.0
 31
0.0
  0
LINE
  5
10C
330
1F
100
AcDbEntity
  8
0
  6
Continuous
 62
     7
370
    25
100
AcDbLine
 10
-97.1471906346
 20
946.8936609374
 30
0.0
 11
-94.9727532908
 21
950.0
 31
0.0
  0
LINE
  5
10D
330
1F
100
AcDbEntity
  8
0
  6
Continuous
 62
     7
370
    25
100
AcDbLine
 10
-105.0272467092
 20
950.0
 30
0.0
 11
-102.8528093654
 21
946.8936609374
 31
0.0
  0
LINE
  5
10E
330
1F
100
AcDbEntity
  8
0
  6
Continuous
 62
     7
370
    25
100
AcDbLine
 10
-105.0272467092
 20
550.0
 30
0.0
 11
-94.9727532908
 21
550.0
 31
0.0
  0
LINE
  5
10F
330
1F
100
AcDbEntity
  8
0
  6
Continuous
 62
     7
370
    25
100
AcDbLine
 10
-94.9727532908
 20
950.0
 30
0.0
 11
-105.0272467092
 21
950.0
 31
0.0
  0
LINE
  5
110
330
1F
100
AcDbEntity
  8
0
  6
Continuous
 62
     7
370
    25
100
AcDbLine
 10
-104.9848029748
 20
625.0
 30
0.0
 11
-104.4680287493
 21
625.0
 31
0.0
  0
LINE
  5
111
330
1F
100
AcDbEntity
  8
0
  6
Continuous
 62
     7
370
    25
100
AcDbLine
 10
-95.5308527839
 20
625.0
 30
0.0
 11
-95.0151970252
 21
625.0
 31
0.0
  0
LINE
  5
112
330
1F
100
AcDbEntity
  8
0
  6
Continuous
 62
     7
370
    25
100
AcDbLine
 10
-104.4691472161
 20
875.0
 30
0.0
 11
-104.9848029748
 21
875.0
 31
0.0
  0
LINE
  5
113
330
1F
100
AcDbEntity
  8
0
  6
Continuous
 62
     7
370
    25
100
AcDbLine
 10
-95.0151970252
 20
875.0
 30
0.0
 11
-95.5319712507
 21
875.0
 31
0.0
  0
LINE
  5
114
330
1F
100
AcDbEntity
  8
0
  6
Continuous
 62
     8
370
    25
100
AcDbLine
 10
-149.5
 20
1500.0
 30
0.0
 11
-149.5
 21
1499.8660254038
 31
0.0
  0
LINE
  5
115
330
1F
100
AcDbEntity
  8
0
  6
Continuous
 62
     8
370
    25
100
AcDbLine
 10
-149.5
 20
0.1339745962
 30
0.0
 11
-149.5
 21
0.0
 31
0.0
  0
LINE
  5
116
330
1F
100
AcDbEntity
  8
0
  6
Continuous
 62
     8
370
    25
100
AcDbLine
 10
-149.8660254038
 20
0.5
 30
0.0
 11
-150.0
 21
0.5
 31
0.0
  0
LINE
  5
117
330
1F
100
AcDbEntity
  8
0
  6
Continuous
 62
     8
370
    25
100
AcDbLine
 10
-149.8660254038
 20
1499.5
 30
0.0
 11
-150.0
 21
1499.5
 31
0.0
  0
LINE
  5
118
330
1F
100
AcDbEntity
  8
0
  6
Continuous
 62
     8
370
    25
100
AcDbLine
 10
149.5
 20
0.0
 30
0.0
 11
149.5
 21
0.1339745962
 31
0.0
  0
LINE
  5
119
330
1F
100
AcDbEntity
  8
0
  6
Continuous
 62
     8
370
    25
100
AcDbLine
 10
150.0
 20
0.5
 30
0.0
 11
149.8660254038
 21
0.5
 31
0.0
  0
LINE
  5
11A
330
1F
100
AcDbEntity
  8
0
  6
Continuous
 62
     8
370
    25
100
AcDbLine
 10
149.5
 20
1499.8660254038
 30
0.0
 11
149.5
 21
1500.0
 31
0.0
  0
LINE
  5
11B
330
1F
100
AcDbEntity
  8
0
  6
Continuous
 62
     8
370
    25
100
AcDbLine
 10
150.0
 20
1499.5
 30
0.0
 11
149.8660254038
 21
1499.5
 31
0.0
  0
LINE
  5
11C
330
1F
100
AcDbEntity
  8
0
  6
Continuous
 62
     8
370
    25
100
AcDbLine
 10
-103.1848029748
 20
865.0
 30
0.0
 11
-103.1698334419
 21
865.0
 31
0.0
  0
LINE
  5
11D
330
1F
100
AcDbEntity
  8
0
  6
Continuous
 62
     8
370
    25
100
AcDbLine
 10
-103.1848029748
 20
635.0
 30
0.0
 11
-103.1698334419
 21
635.0
 31
0.0
  0
LINE
  5
11E
330
1F
100
AcDbEntity
  8
0
  6
Continuous
 62
     8
370
    25
100
AcDbLine
 10
-96.8151970252
 20
865.0
 30
0.0
 11
-96.8301665581
 21
865.0
 31
0.0
  0
ARC
  5
11F
330
1F
100
AcDbEntity
  8
0
  6
Continuous
 62
     7
370
    25
100
AcDbCircle
 10
-149.5
 20
0.5
 30
0.0
 40
0.5
100
AcDbArc
 50
180.0
 51
270.0
  0
ARC
  5
120
330
1F
100
AcDbEntity
  8
0
  6
Continuous
 62
     7
370
    25
100
AcDbCircle
 10
-149.5
 20
1499.5
 30
0.0
 40
0.5000000000000853
100
AcDbArc
 50
90.0
 51
180.0
  0
ARC
  5
121
330
1F
100
AcDbEntity
  8
0
  6
Continuous
 62
     7
370
    25
100
AcDbCircle
 10
149.5
 20
0.5
 30
0.0
 40
0.5
100
AcDbArc
 50
270.0
 51
360.0
  0
ARC
  5
122
330
1F
100
AcDbEntity
  8
0
  6
Continuous
 62
     7
370
    25
100
AcDbCircle
 10
149.5
 20
1499.5
 30
0.0
 40
0.4999999999997726
100
AcDbArc
 50
360.0
 51
90.0
  0
ARC
  5
123
330
1F
100
AcDbEntity
  8
0
  6
Continuous
 62
     7
370
    25
100
AcDbCircle
 10
-149.0
 20
1.0
 30
0.0
 40
1.000000000000009
100
AcDbArc
 50
180.0
 51
270.0
  0
ARC
  5
124
330
1F
100
AcDbEntity
  8
0
  6
Continuous
 62
     7
370
    25
100
AcDbCircle
 10
-149.0
 20
1499.0
 30
0.0
 40
1.000000000000227
100
AcDbArc
 50
90.0
 51
180.0
  0
ARC
  5
125
330
1F
100
AcDbEntity
  8
0
  6
Continuous
 62
     7
370
    25
100
AcDbCircle
 10
149.0
 20
1499.0
 30
0.0
 40
1.0
100
AcDbArc
 50
0.0
 51
90.0
  0
ARC
  5
126
330
1F
100
AcDbEntity
  8
0
  6
Continuous
 62
     7
370
    25
100
AcDbCircle
 10
149.0
 20
1.0
 30
0.0
 40
0.9999999999999807
100
AcDbArc
 50
270.0
 51
0.0
  0
ARC
  5
127
330
1F
100
AcDbEntity
  8
0
  6
Continuous
 62
     7
370
    25
100
AcDbCircle
 10
-97.1888875493
 20
554.1338205687
 30
0.0
 40
1.028327223304282
100
AcDbArc
 50
272.3238832219
 51
356.8035584897
  0
ARC
  5
128
330
1F
100
AcDbEntity
  8
0
  6
Continuous
 62
     7
370
    25
100
AcDbCircle
 10
-102.8111124507
 20
554.1338205687
 30
0.0
 40
1.028327223304397
100
AcDbArc
 50
183.1964415103
 51
267.6761167781
  0
ARC
  5
129
330
1F
100
AcDbEntity
  8
0
  6
Continuous
 62
     7
370
    25
100
AcDbCircle
 10
-102.8111124507
 20
945.8661794313
 30
0.0
 40
1.028327223304216
100
AcDbArc
 50
92.3238832219
 51
176.8035584897
  0
ARC
  5
12A
330
1F
100
AcDbEntity
  8
0
  6
Continuous
 62
     7
370
    25
100
AcDbCircle
 10
-97.1888875493
 20
945.8661794313
 30
0.0
 40
1.028327223304283
100
AcDbArc
 50
3.1964415103
 51
87.6761167781
  0
ARC
  5
12B
330
1F
100
AcDbEntity
  8
0
  6
Continuous
 62
     7
370
    25
100
AcDbCircle
 10
-94.9734026349
 20
550.9735056333
 30
0.0
 40
0.9735058499109336
100
AcDbArc
 50
270.0382172096
 51
0.8343410789
  0
ARC
  5
12C
330
1F
100
AcDbEntity
  8
0
  6
Continuous
 62
     7
370
    25
100
AcDbCircle
 10
-105.0265973651
 20
550.9735056333
 30
0.0
 40
0.9735058499109194
100
AcDbArc
 50
179.1656589211
 51
269.9617827904
  0
ARC
  5
12D
330
1F
100
AcDbEntity
  8
0
  6
Continuous
 62
     7
370
    25
100
AcDbCircle
 10
-94.9734026349
 20
949.0264943667
 30
0.0
 40
0.9735058499108517
100
AcDbArc
 50
359.1656589211
 51
89.9617827904
  0
ARC
  5
12E
330
1F
100
AcDbEntity
  8
0
  6
Continuous
 62
     7
370
    25
100
AcDbCircle
 10
-105.0265973651
 20
949.0264943667
 30
0.0
 40
0.9735058499110251
100
AcDbArc
 50
90.0382172096
 51
180.8343410789
  0
ARC
  5
12F
330
1F
100
AcDbEntity
  8
0
  6
Continuous
 62
     7
370
    25
100
AcDbCircle
 10
-104.9923446143
 20
623.99234375
 30
0.0
 40
1.007684471692699
100
AcDbArc
 50
89.5711870522
 51
179.5646702466
  0
ARC
  5
130
330
1F
100
AcDbEntity
  8
0
  6
Continuous
 62
     7
370
    25
100
AcDbCircle
 10
-95.0073455328
 20
623.9926583117
 30
0.0
 40
1.007372286148056
100
AcDbArc
 50
0.4175730096
 51
90.4465696915
  0
ARC
  5
131
330
1F
100
AcDbEntity
  8
0
  6
Continuous
 62
     7
370
    25
100
AcDbCircle
 10
-104.9923446143
 20
876.00765625
 30
0.0
 40
1.007684471692684
100
AcDbArc
 50
180.4353297534
 51
270.4288129478
  0
ARC
  5
132
330
1F
100
AcDbEntity
  8
0
  6
Continuous
 62
     7
370
    25
100
AcDbCircle
 10
-95.0076553857
 20
876.00765625
 30
0.0
 40
1.007684471692813
100
AcDbArc
 50
269.5711870522
 51
359.5646702466
  0
ARC
  5
133
330
1F
100
AcDbEntity
  8
0
  6
Continuous
 62
     8
370
    25
100
AcDbCircle
 10
-95.9046153651
 20
624.0040348598
 30
0.0
 40
0.9994569515415865
100
AcDbArc
 50
359.7686933259
 51
69.2327733947
  0
ARC
  5
134
330
1F
100
AcDbEntity
  8
0
  6
Continuous
 62
     8
370
    25
100
AcDbCircle
 10
-104.0953716248
 20
624.004030951
 30
0.0
 40
0.999469945718218
100
AcDbArc
 50
110.8202757241
 51
180.2310795909
  0
ARC
  5
135
330
1F
100
AcDbEntity
  8
0
  6
Continuous
 62
     8
370
    25
100
AcDbCircle
 10
-104.0953846349
 20
875.9959651402
 30
0.0
 40
0.9994569515407326
100
AcDbArc
 50
179.7686933258
 51
249.2327733947
  0
ARC
  5
136
330
1F
100
AcDbEntity
  8
0
  6
Continuous
 62
     8
370
    25
100
AcDbCircle
 10
-95.9046283751
 20
875.995969049
 30
0.0
 40
0.9994699457179907
100
AcDbArc
 50
290.8202757241
 51
0.2310795909
  0
LINE
  5
17A
330
1B
100
AcDbEntity
 67
     1
  8
0
  6
Continuous
 62
     7
370
    25
100
AcDbLine
 10
134.0
 20
15.5
 30
0.0
 11
-134.0
 21
15.5
 31
0.0
  0
LINE
  5
17B
330
1B
100
AcDbEntity
 67
     1
  8
0
  6
Continuous
 62
     7
370
    25
100
AcDbLine
 10
-133.5
 20
16.0
 30
0.0
 11
-133.5
 21
0.0
 31
0.0
  0
LINE
  5
17C
330
1B
100
AcDbEntity
 67
     1
  8
0
  6
Continuous
 62
     7
370
    25
100
AcDbLine
 10
133.5
 20
0.0
 30
0.0
 11
133.5
 21
16.0
 31
0.0
  0
LINE
  5
17D
330
1B
100
AcDbEntity
 67
     1
  8
0
  6
Continuous
 62
     7
370
    25
100
AcDbLine
 10
134.0
 20
1500.0
 30
0.0
 11
134.0
 21
0.5
 31
0.0
  0
LINE
  5
17E
330
1B
100
AcDbEntity
 67
     1
  8
0
  6
Continuous
 62
     7
370
    25
100
AcDbLine
 10
-134.0
 20
1500.0
 30
0.0
 11
-134.0
 21
0.5
 31
0.0
  0
LINE
  5
17F
330
1B
100
AcDbEntity
 67
     1
  8
0
  6
Continuous
 62
     7
370
    25
100
AcDbLine
 10
150.0
 20
1499.5
 30
0.0
 11
134.0
 21
1499.5
 31
0.0
  0
LINE
  5
180
330
1B
100
AcDbEntity
 67
     1
  8
0
  6
Continuous
 62
     7
370
    25
100
AcDbLine
 10
149.5
 20
0.0
 30
0.0
 11
149.5
 21
1500.0
 31
0.0
  0
LINE
  5
181
330
1B
100
AcDbEntity
 67
     1
  8
0
  6
Continuous
 62
     7
370
    25
100
AcDbLine
 10
134.5
 20
1500.0
 30
0.0
 11
134.5
 21
0.0
 31
0.0
  0
LINE
  5
182
330
1B
100
AcDbEntity
 67
     1
  8
0
  6
Continuous
 62
     7
370
    25
100
AcDbLine
 10
150.0
 20
1499.5
 30
0.0
 11
150.0
 21
0.5
 31
0.0
  0
LINE
  5
183
330
1B
100
AcDbEntity
 67
     1
  8
0
  6
Continuous
 62
     7
370
    25
100
AcDbLine
 10
-149.5
 20
1500.0
 30
0.0
 11
-149.5
 21
0.0
 31
0.0
  0
LINE
  5
184
330
1B
100
AcDbEntity
 67
     1
  8
0
  6
Continuous
 62
     7
370
    25
100
AcDbLine
 10
-134.0
 20
1499.5
 30
0.0
 11
-150.0
 21
1499.5
 31
0.0
  0
LINE
  5
185
330
1B
100
AcDbEntity
 67
     1
  8
0
  6
Continuous
 62
     7
370
    25
100
AcDbLine
 10
-134.5
 20
0.0
 30
0.0
 11
-134.5
 21
1500.0
 31
0.0
  0
LINE
  5
186
330
1B
100
AcDbEntity
 67
     1
  8
0
  6
Continuous
 62
     7
370
    25
100
AcDbLine
 10
-150.0
 20
0.5
 30
0.0
 11
150.0
 21
0.5
 31
0.0
  0
LINE
  5
187
330
1B
100
AcDbEntity
 67
     1
  8
0
  6
Continuous
 62
     7
370
    25
100
AcDbLine
 10
149.5
 20
0.0
 30
0.0
 11
-149.5
 21
0.0
 31
0.0
  0
LINE
  5
188
330
1B
100
AcDbEntity
 67
     1
  8
0
  6
Continuous
 62
     7
370
    25
100
AcDbLine
 10
-150.0
 20
0.5
 30
0.0
 11
-150.0
 21
1499.5
 31
0.0
  0
LINE
  5
189
330
1B
100
AcDbEntity
 67
     1
  8
0
  6
Continuous
 62
     7
370
    25
100
AcDbLine
 10
-149.5
 20
1500.0
 30
0.0
 11
149.5
 21
1500.0
 31
0.0
  0
LINE
  5
18A
330
1B
100
AcDbEntity
 67
     1
  8
0
  6
Continuous
 62
     7
370
    25
100
AcDbLine
 10
-134.0
 20
16.0
 30
0.0
 11
134.0
 21
16.0
 31
0.0
  0
ARC
  5
18B
330
1B
100
AcDbEntity
 67
     1
  8
0
  6
Continuous
 62
     7
370
    25
100
AcDbCircle
 10
133.5
 20
15.5
 30
0.0
 40
0.5000000000000586
100
AcDbArc
 50
0.0
 51
90.0
  0
ARC
  5
18C
330
1B
100
AcDbEntity
 67
     1
  8
0
  6
Continuous
 62
     7
370
    25
100
AcDbCircle
 10
133.5
 20
0.5
 30
0.0
 40
0.4999999999999432
100
AcDbArc
 50
270.0
 51
0.0
  0
ARC
  5
18D
330
1B
100
AcDbEntity
 67
     1
  8
0
  6
Continuous
 62
     7
370
    25
100
AcDbCircle
 10
-133.5
 20
0.5
 30
0.0
 40
0.4999999999999432
100
AcDbArc
 50
180.0
 51
270.0
  0
ARC
  5
18E
330
1B
100
AcDbEntity
 67
     1
  8
0
  6
Continuous
 62
     7
370
    25
100
AcDbCircle
 10
-133.5
 20
15.5
 30
0.0
 40
0.5000000000000568
100
AcDbArc
 50
90.0
 51
180.0
  0
ARC
  5
18F
330
1B
100
AcDbEntity
 67
     1
  8
0
  6
Continuous
 62
     7
370
    25
100
AcDbCircle
 10
149.5
 20
1499.5
 30
0.0
 40
0.4999999999997726
100
AcDbArc
 50
360.0
 51
90.0
  0
ARC
  5
190
330
1B
100
AcDbEntity
 67
     1
  8
0
  6
Continuous
 62
     7
370
    25
100
AcDbCircle
 10
149.5
 20
0.5
 30
0.0
 40
0.5
100
AcDbArc
 50
270.0
 51
360.0
  0
ARC
  5
191
330
1B
100
AcDbEntity
 67
     1
  8
0
  6
Continuous
 62
     7
370
    25
100
AcDbCircle
 10
134.5
 20
1499.5
 30
0.0
 40
0.5000000000000853
100
AcDbArc
 50
90.0
 51
180.0
  0
ARC
  5
192
330
1B
100
AcDbEntity
 67
     1
  8
0
  6
Continuous
 62
     7
370
    25
100
AcDbCircle
 10
134.5
 20
0.5
 30
0.0
 40
0.5
100
AcDbArc
 50
180.0
 51
270.0
  0
ARC
  5
193
330
1B
100
AcDbEntity
 67
     1
  8
0
  6
Continuous
 62
     7
370
    25
100
AcDbCircle
 10
-149.5
 20
1499.5
 30
0.0
 40
0.5000000000000853
100
AcDbArc
 50
90.0
 51
180.0
  0
ARC
  5
194
330
1B
100
AcDbEntity
 67
     1
  8
0
  6
Continuous
 62
     7
370
    25
100
AcDbCircle
 10
-134.5
 20
0.5
 30
0.0
 40
0.5
100
AcDbArc
 50
270.0
 51
360.0
  0
ARC
  5
195
330
1B
100
AcDbEntity
 67
     1
  8
0
  6
Continuous
 62
     7
370
    25
100
AcDbCircle
 10
-149.5
 20
0.5
 30
0.0
 40
0.5
100
AcDbArc
 50
180.0
 51
270.0
  0
ARC
  5
196
330
1B
100
AcDbEntity
 67
     1
  8
0
  6
Continuous
 62
     7
370
    25
100
AcDbCircle
 10
-134.5
 20
1499.5
 30
0.0
 40
0.499999999999801
100
AcDbArc
 50
360.0
 51
90.0
  0
VIEWPORT
  5
7F5
330
1B
100
AcDbEntity
 67
     1
  8
0
100
AcDbViewport
 10
0.0
 20
0.0
 30
0.0
 40
205.6
 41
156.0
 68
     1
 69
     1
 12
0.0
 22
750.0
 13
0.0
 23
0.0
 14
10.0
 24
10.0
 15
10.0
 25
10.0
 16
0.0
 26
0.0
 36
1.0
 17
0.0
 27
0.0
 37
0.0
 42
50.0
 43
0.0
 44
0.0
 45
1530.0
 50
0.0
 51
0.0
 72
   100
 90
   557152
  1

281
     0
 71
     1
 74
     0
110
0.0
120
0.0
130
0.0
111
1.0
121
0.0
131
0.0
112
0.0
122
1.0
132
0.0
 79
     0
146
0.0
  0
ENDSEC
  0
SECTION
  2
OBJECTS
  0
DICTIONARY
  5
C
330
0
100
AcDbDictionary
281
     1
  3
ACAD_GROUP
350
D
  3
ACAD_LAYOUT
350
1A
  3
ACAD_MLINESTYLE
350
17
  3
ACAD_PLOTSETTINGS
350
19
  3
ACAD_PLOTSTYLENAME
350
E
  3
ACAD_SCALELIST
350
47
  0
DICTIONARY
  5
D
102
{ACAD_REACTORS
330
C
102
}
330
C
100
AcDbDictionary
281
     1
  0
DICTIONARY
  5
1A
102
{ACAD_REACTORS
330
C
102
}
330
C
100
AcDbDictionary
281
     1
  3
_Back
350
1E
  3
_Bottom
350
328
  3
_Dimetric
350
6AA
  3
_Isometric
350
3C2
  3
_Left
350
26
  3
_Right
350
210
  3
_Top
350
28C
  3
_Trimetric
350
546
  3
Model
350
22
  0
DICTIONARY
  5
17
102
{ACAD_REACTORS
330
C
102
}
330
C
100
AcDbDictionary
281
     1
  3
Standard
350
18
  0
DICTIONARY
  5
19
102
{ACAD_REACTORS
330
C
102
}
330
C
100
AcDbDictionary
281
     1
  0
ACDBDICTIONARYWDFLT
  5
E
102
{ACAD_REACTORS
330
C
102
}
330
C
100
AcDbDictionary
281
     1
  3
Normal
350
F
100
AcDbDictionaryWithDefault
340
F
  0
DICTIONARY
  5
47
102
{ACAD_REACTORS
330
C
102
}
330
C
100
AcDbDictionary
281
     1
  3
A0
350
48
  3
A1
350
49
  3
A2
350
4A
  3
A3
350
4B
  3
A4
350
4C
  3
A5
350
4D
  3
A6
350
4E
  3
A7
350
4F
  3
A8
350
50
  3
A9
350
51
  3
B0
350
52
  3
B1
350
53
  3
B2
350
54
  3
B3
350
55
  3
B4
350
56
  3
B5
350
57
  3
B6
350
58
  3
B7
350
59
  3
B8
350
5A
  3
B9
350
5B
  3
C0
350
5C
  3
C1
350
5D
  3
C2
350
5E
  3
C3
350
5F
  3
C4
350
60
  3
C5
350
61
  3
C6
350
62
  3
C7
350
63
  3
C8
350
64
  3
C9
350
65
  3
D0
350
66
  3
D1
350
67
  3
D2
350
68
  0
LAYOUT
  5
1E
102
{ACAD_REACTORS
330
1A
102
}
330
1A
100
AcDbPlotSettings
  1

  2
none_device
  4
ISO_A4_(210.00_x_297.00_MM)
  6

 40
7.5
 41
20.0
 42
7.5
 43
20.0
 44
210.0
 45
297.0
 46
0.0
 47
0.0
 48
0.0
 49
0.0
140
0.0
141
0.0
142
1.0
143
7.6923076923
 70
   688
 72
     1
 73
     1
 74
     1
  7

 75
     0
147
0.13
148
150.0
149
0.0
100
AcDbLayout
  1
_Back
 70
     1
 71
     1
 10
-303.8461538462
 20
-57.6923076923
 11
1980.7692307692
 21
1557.6923076923
 12
0.0
 22
0.0
 32
0.0
 14
-150.0
 24
0.0
 34
0.0
 15
150.0
 25
1500.0
 35
0.0
146
0.0
 13
0.0
 23
0.0
 33
0.0
 16
1.0
 26
0.0
 36
0.0
 17
0.0
 27
1.0
 37
0.0
 76
     0
330
1B
331
7F5
  0
LAYOUT
  5
328
102
{ACAD_REACTORS
330
1A
102
}
330
1A
100
AcDbPlotSettings
  1

  2
none_device
  4
ISO_A4_(210.00_x_297.00_MM)
  6

 40
7.5
 41
20.0
 42
7.5
 43
20.0
 44
210.0
 45
297.0
 46
0.0
 47
0.0
 48
0.0
 49
0.0
140
0.0
141
0.0
142
1.0
143
7.6923076923
 70
   688
 72
     1
 73
     1
 74
     1
  7

 75
     0
147
0.13
148
150.0
149
0.0
100
AcDbLayout
  1
_Bottom
 70
     1
 71
     5
 10
0.0
 20
0.0
 11
0.0
 21
0.0
 12
0.0
 22
0.0
 32
0.0
 14
0.0
 24
0.0
 34
0.0
 15
0.0
 25
0.0
 35
0.0
146
0.0
 13
0.0
 23
0.0
 33
0.0
 16
1.0
 26
0.0
 36
0.0
 17
0.0
 27
1.0
 37
0.0
 76
     0
330
327
331
7FD
  0
LAYOUT
  5
6AA
102
{ACAD_REACTORS
330
1A
102
}
330
1A
100
AcDbPlotSettings
  1

  2
none_device
  4
ISO_A4_(210.00_x_297.00_MM)
  6

 40
7.5
 41
20.0
 42
7.5
 43
20.0
 44
210.0
 45
297.0
 46
0.0
 47
0.0
 48
0.0
 49
0.0
140
0.0
141
0.0
142
1.0
143
7.6923076923
 70
   688
 72
     1
 73
     1
 74
     1
  7

 75
     0
147
0.13
148
150.0
149
0.0
100
AcDbLayout
  1
_Dimetric
 70
     1
 71
     8
 10
0.0
 20
0.0
 11
0.0
 21
0.0
 12
0.0
 22
0.0
 32
0.0
 14
0.0
 24
0.0
 34
0.0
 15
0.0
 25
0.0
 35
0.0
146
0.0
 13
0.0
 23
0.0
 33
0.0
 16
1.0
 26
0.0
 36
0.0
 17
0.0
 27
1.0
 37
0.0
 76
     0
330
6A9
331
803
  0
LAYOUT
  5
3C2
102
{ACAD_REACTORS
330
1A
102
}
330
1A
100
AcDbPlotSettings
  1

  2
none_device
  4
ISO_A4_(210.00_x_297.00_MM)
  6

 40
7.5
 41
20.0
 42
7.5
 43
20.0
 44
210.0
 45
297.0
 46
0.0
 47
0.0
 48
0.0
 49
0.0
140
0.0
141
0.0
142
1.0
143
7.6923076923
 70
   688
 72
     1
 73
     1
 74
     1
  7

 75
     0
147
0.13
148
150.0
149
0.0
100
AcDbLayout
  1
_Isometric
 70
     1
 71
     6
 10
0.0
 20
0.0
 11
0.0
 21
0.0
 12
0.0
 22
0.0
 32
0.0
 14
0.0
 24
0.0
 34
0.0
 15
0.0
 25
0.0
 35
0.0
146
0.0
 13
0.0
 23
0.0
 33
0.0
 16
1.0
 26
0.0
 36
0.0
 17
0.0
 27
1.0
 37
0.0
 76
     0
330
3C1
331
7FF
  0
LAYOUT
  5
26
102
{ACAD_REACTORS
330
1A
102
}
330
1A
100
AcDbPlotSettings
  1

  2
none_device
  4
ISO_A4_(210.00_x_297.00_MM)
  6

 40
7.5
 41
20.0
 42
7.5
 43
20.0
 44
210.0
 45
297.0
 46
0.0
 47
0.0
 48
0.0
 49
0.0
140
0.0
141
0.0
142
1.0
143
7.6923076923
 70
   688
 72
     1
 73
     1
 74
     1
  7

 75
     0
147
0.13
148
150.0
149
0.0
100
AcDbLayout
  1
_Left
 70
     1
 71
     2
 10
0.0
 20
0.0
 11
0.0
 21
0.0
 12
0.0
 22
0.0
 32
0.0
 14
0.0
 24
0.0
 34
0.0
 15
0.0
 25
0.0
 35
0.0
146
0.0
 13
0.0
 23
0.0
 33
0.0
 16
1.0
 26
0.0
 36
0.0
 17
0.0
 27
1.0
 37
0.0
 76
     0
330
23
331
7F7
  0
LAYOUT
  5
210
102
{ACAD_REACTORS
330
1A
102
}
330
1A
100
AcDbPlotSettings
  1

  2
none_device
  4
ISO_A4_(210.00_x_297.00_MM)
  6

 40
7.5
 41
20.0
 42
7.5
 43
20.0
 44
210.0
 45
297.0
 46
0.0
 47
0.0
 48
0.0
 49
0.0
140
0.0
141
0.0
142
1.0
143
7.6923076923
 70
   688
 72
     1
 73
     1
 74
     1
  7

 75
     0
147
0.13
148
150.0
149
0.0
100
AcDbLayout
  1
_Right
 70
     1
 71
     3
 10
0.0
 20
0.0
 11
0.0
 21
0.0
 12
0.0
 22
0.0
 32
0.0
 14
0.0
 24
0.0
 34
0.0
 15
0.0
 25
0.0
 35
0.0
146
0.0
 13
0.0
 23
0.0
 33
0.0
 16
1.0
 26
0.0
 36
0.0
 17
0.0
 27
1.0
 37
0.0
 76
     0
330
20F
331
7F9
  0
LAYOUT
  5
28C
102
{ACAD_REACTORS
330
1A
102
}
330
1A
100
AcDbPlotSettings
  1

  2
none_device
  4
ISO_A4_(210.00_x_297.00_MM)
  6

 40
7.5
 41
20.0
 42
7.5
 43
20.0
 44
210.0
 45
297.0
 46
0.0
 47
0.0
 48
0.0
 49
0.0
140
0.0
141
0.0
142
1.0
143
7.6923076923
 70
   688
 72
     1
 73
     1
 74
     1
  7

 75
     0
147
0.13
148
150.0
149
0.0
100
AcDbLayout
  1
_Top
 70
     1
 71
     4
 10
0.0
 20
0.0
 11
0.0
 21
0.0
 12
0.0
 22
0.0
 32
0.0
 14
0.0
 24
0.0
 34
0.0
 15
0.0
 25
0.0
 35
0.0
146
0.0
 13
0.0
 23
0.0
 33
0.0
 16
1.0
 26
0.0
 36
0.0
 17
0.0
 27
1.0
 37
0.0
 76
     0
330
28B
331
7FB
  0
LAYOUT
  5
546
102
{ACAD_REACTORS
330
1A
102
}
330
1A
100
AcDbPlotSettings
  1

  2
none_device
  4
ISO_A4_(210.00_x_297.00_MM)
  6

 40
7.5
 41
20.0
 42
7.5
 43
20.0
 44
210.0
 45
297.0
 46
0.0
 47
0.0
 48
0.0
 49
0.0
140
0.0
141
0.0
142
1.0
143
7.6923076923
 70
   688
 72
     1
 73
     1
 74
     1
  7

 75
     0
147
0.13
148
150.0
149
0.0
100
AcDbLayout
  1
_Trimetric
 70
     1
 71
     7
 10
0.0
 20
0.0
 11
0.0
 21
0.0
 12
0.0
 22
0.0
 32
0.0
 14
0.0
 24
0.0
 34
0.0
 15
0.0
 25
0.0
 35
0.0
146
0.0
 13
0.0
 23
0.0
 33
0.0
 16
1.0
 26
0.0
 36
0.0
 17
0.0
 27
1.0
 37
0.0
 76
     0
330
545
331
801
  0
LAYOUT
  5
22
102
{ACAD_REACTORS
330
1A
102
}
330
1A
100
AcDbPlotSettings
  1

  2
none_device
  4
ANSI_A_(11.00_x_8.50_Inches)
  6

 40
6.35
 41
19.05
 42
6.35000508
 43
19.05000254
 44
279.4
 45
215.9
 46
133.34999746
 47
-17.97050127
 48
0.0
 49
0.0
140
0.0
141
0.0
142
0.00561
143
1.0
 70
  1696
 72
     0
 73
     0
 74
     0
  7

 75
     0
147
0.0179189148
148
-1300.4909072572
149
0.0
100
AcDbLayout
  1
Model
 70
     1
 71
     0
 10
0.0
 20
0.0
 11
420.0
 21
297.0
 12
0.0
 22
0.0
 32
0.0
 14
-150.0
 24
0.0
 34
0.0
 15
150.0
 25
1500.0
 35
0.0
146
0.0
 13
0.0
 23
0.0
 33
0.0
 16
1.0
 26
0.0
 36
0.0
 17
0.0
 27
1.0
 37
0.0
 76
     0
330
1F
331
29
  0
MLINESTYLE
  5
18
102
{ACAD_REACTORS
330
17
102
}
330
17
100
AcDbMlineStyle
  2
Standard
 70
     0
  3

 62
   256
 51
90.0
 52
90.0
 71
     2
 49
0.5
 62
   256
  6
BYLAYER
 49
-0.5
 62
   256
  6
BYLAYER
  0
ACDBPLACEHOLDER
  5
F
102
{ACAD_REACTORS
330
E
102
}
330
E
  0
SCALE
  5
48
102
{ACAD_REACTORS
330
47
102
}
330
47
100
AcDbScale
 70
     0
300
1:1
140
1.0
141
1.0
290
     1
  0
SCALE
  5
49
102
{ACAD_REACTORS
330
47
102
}
330
47
100
AcDbScale
 70
     0
300
1:2
140
1.0
141
2.0
290
     0
  0
SCALE
  5
4A
102
{ACAD_REACTORS
330
47
102
}
330
47
100
AcDbScale
 70
     0
300
1:4
140
1.0
141
4.0
290
     0
  0
SCALE
  5
4B
102
{ACAD_REACTORS
330
47
102
}
330
47
100
AcDbScale
 70
     0
300
1:5
140
1.0
141
5.0
290
     0
  0
SCALE
  5
4C
102
{ACAD_REACTORS
330
47
102
}
330
47
100
AcDbScale
 70
     0
300
1:8
140
1.0
141
8.0
290
     0
  0
SCALE
  5
4D
102
{ACAD_REACTORS
330
47
102
}
330
47
100
AcDbScale
 70
     0
300
1:10
140
1.0
141
10.0
290
     0
  0
SCALE
  5
4E
102
{ACAD_REACTORS
330
47
102
}
330
47
100
AcDbScale
 70
     0
300
1:16
140
1.0
141
16.0
290
     0
  0
SCALE
  5
4F
102
{ACAD_REACTORS
330
47
102
}
330
47
100
AcDbScale
 70
     0
300
1:20
140
1.0
141
20.0
290
     0
  0
SCALE
  5
50
102
{ACAD_REACTORS
330
47
102
}
330
47
100
AcDbScale
 70
     0
300
1:30
140
1.0
141
30.0
290
     0
  0
SCALE
  5
51
102
{ACAD_REACTORS
330
47
102
}
330
47
100
AcDbScale
 70
     0
300
1:40
140
1.0
141
40.0
290
     0
  0
SCALE
  5
52
102
{ACAD_REACTORS
330
47
102
}
330
47
100
AcDbScale
 70
     0
300
1:50
140
1.0
141
50.0
290
     0
  0
SCALE
  5
53
102
{ACAD_REACTORS
330
47
102
}
330
47
100
AcDbScale
 70
     0
300
1:100
140
1.0
141
100.0
290
     0
  0
SCALE
  5
54
102
{ACAD_REACTORS
330
47
102
}
330
47
100
AcDbScale
 70
     0
300
2:1
140
2.0
141
1.0
290
     0
  0
SCALE
  5
55
102
{ACAD_REACTORS
330
47
102
}
330
47
100
AcDbScale
 70
     0
300
4:1
140
4.0
141
1.0
290
     0
  0
SCALE
  5
56
102
{ACAD_REACTORS
330
47
102
}
330
47
100
AcDbScale
 70
     0
300
8:1
140
8.0
141
1.0
290
     0
  0
SCALE
  5
57
102
{ACAD_REACTORS
330
47
102
}
330
47
100
AcDbScale
 70
     0
300
10:1
140
10.0
141
1.0
290
     0
  0
SCALE
  5
58
102
{ACAD_REACTORS
330
47
102
}
330
47
100
AcDbScale
 70
     0
300
100:1
140
100.0
141
1.0
290
     0
  0
SCALE
  5
59
102
{ACAD_REACTORS
330
47
102
}
330
47
100
AcDbScale
 70
     0
300
1/128" = 1'-0"
140
0.0078125
141
12.0
290
     0
  0
SCALE
  5
5A
102
{ACAD_REACTORS
330
47
102
}
330
47
100
AcDbScale
 70
     0
300
1/64" = 1'-0"
140
0.015625
141
12.0
290
     0
  0
SCALE
  5
5B
102
{ACAD_REACTORS
330
47
102
}
330
47
100
AcDbScale
 70
     0
300
1/32" = 1'-0"
140
0.03125
141
12.0
290
     0
  0
SCALE
  5
5C
102
{ACAD_REACTORS
330
47
102
}
330
47
100
AcDbScale
 70
     0
300
1/16" = 1'-0"
140
0.0625
141
12.0
290
     0
  0
SCALE
  5
5D
102
{ACAD_REACTORS
330
47
102
}
330
47
100
AcDbScale
 70
     0
300
3/32" = 1'-0"
140
0.09375
141
12.0
290
     0
  0
SCALE
  5
5E
102
{ACAD_REACTORS
330
47
102
}
330
47
100
AcDbScale
 70
     0
300
1/8" = 1'-0"
140
0.125
141
12.0
290
     0
  0
SCALE
  5
5F
102
{ACAD_REACTORS
330
47
102
}
330
47
100
AcDbScale
 70
     0
300
3/16" = 1'-0"
140
0.1875
141
12.0
290
     0
  0
SCALE
  5
60
102
{ACAD_REACTORS
330
47
102
}
330
47
100
AcDbScale
 70
     0
300
1/4" = 1'-0"
140
0.25
141
12.0
290
     0
  0
SCALE
  5
61
102
{ACAD_REACTORS
330
47
102
}
330
47
100
AcDbScale
 70
     0
300
3/8" = 1'-0"
140
0.375
141
12.0
290
     0
  0
SCALE
  5
62
102
{ACAD_REACTORS
330
47
102
}
330
47
100
AcDbScale
 70
     0
300
1/2" = 1'-0"
140
0.5
141
12.0
290
     0
  0
SCALE
  5
63
102
{ACAD_REACTORS
330
47
102
}
330
47
100
AcDbScale
 70
     0
300
3/4" = 1'-0"
140
0.75
141
12.0
290
     0
  0
SCALE
  5
64
102
{ACAD_REACTORS
330
47
102
}
330
47
100
AcDbScale
 70
     0
300
1" = 1'-0"
140
1.0
141
12.0
290
     0
  0
SCALE
  5
65
102
{ACAD_REACTORS
330
47
102
}
330
47
100
AcDbScale
 70
     0
300
1-1/2" = 1'-0"
140
1.5
141
12.0
290
     0
  0
SCALE
  5
66
102
{ACAD_REACTORS
330
47
102
}
330
47
100
AcDbScale
 70
     0
300
3" = 1'-0"
140
3.0
141
12.0
290
     0
  0
SCALE
  5
67
102
{ACAD_REACTORS
330
47
102
}
330
47
100
AcDbScale
 70
     0
300
6" = 1'-0"
140
6.0
141
12.0
290
     0
  0
SCALE
  5
68
102
{ACAD_REACTORS
330
47
102
}
330
47
100
AcDbScale
 70
     0
300
1'-0" = 1'-0"
140
12.0
141
12.0
290
     0
  0
ENDSEC
  0
EOF
