  0
SECTION
  2
HEADER
  9
$ACADVER
  1
AC1015
  9
$ACADMAINTVER
 70
     6
  9
$DWGCODEPAGE
  3
ANSI_1252
  9
$INSBASE
 10
0.0
 20
0.0
 30
0.0
  9
$EXTMIN
 10
-365.0
 20
-227.5
 30
0.0
  9
$EXTMAX
 10
365.0
 20
227.5
 30
0.0
  9
$LIMMIN
 10
0.0
 20
0.0
  9
$LIMMAX
 10
420.0
 20
297.0
  9
$ORTHOMODE
 70
     0
  9
$REGENMODE
 70
     1
  9
$FILLMODE
 70
     1
  9
$QTEXTMODE
 70
     0
  9
$MIRRTEXT
 70
     1
  9
$LTSCALE
 40
1.0
  9
$ATTMODE
 70
     1
  9
$TEXTSIZE
 40
3.5
  9
$TRACEWID
 40
1.0
  9
$TEXTSTYLE
  7
Standard
  9
$CLAYER
  8
0
  9
$CELTYPE
  6
ByLayer
  9
$CECOLOR
 62
   256
  9
$CELTSCALE
 40
1.0
  9
$DISPSILH
 70
     0
  9
$DIMSCALE
 40
1.0
  9
$DIMASZ
 40
3.302
  9
$DIMEXO
 40
1.0
  9
$DIMDLI
 40
3.75
  9
$DIMRND
 40
0.0
  9
$DIMDLE
 40
0.0
  9
$DIMEXE
 40
1.0
  9
$DIMTP
 40
0.0
  9
$DIMTM
 40
0.0
  9
$DIMTXT
 40
3.5
  9
$DIMCEN
 40
2.5
  9
$DIMTSZ
 40
0.0
  9
$DIMTOL
 70
     0
  9
$DIMLIM
 70
     0
  9
$DIMTIH
 70
     1
  9
$DIMTOH
 70
     1
  9
$DIMSE1
 70
     0
  9
$DIMSE2
 70
     0
  9
$DIMTAD
 70
     1
  9
$DIMZIN
 70
     1
  9
$DIMBLK
  1

  9
$DIMASO
 70
     1
  9
$DIMSHO
 70
     1
  9
$DIMPOST
  1

  9
$DIMAPOST
  1

  9
$DIMALT
 70
     0
  9
$DIMALTD
 70
     3
  9
$DIMALTF
 40
0.0393700787
  9
$DIMLFAC
 40
1.0
  9
$DIMTOFL
 70
     1
  9
$DIMTVP
 40
0.0
  9
$DIMTIX
 70
     0
  9
$DIMSOXD
 70
     0
  9
$DIMSAH
 70
     0
  9
$DIMBLK1
  1

  9
$DIMBLK2
  1

  9
$DIMSTYLE
  2
ISO-25
  9
$DIMCLRD
 70
     0
  9
$DIMCLRE
 70
     0
  9
$DIMCLRT
 70
     0
  9
$DIMTFAC
 40
1.0
  9
$DIMGAP
 40
1.524
  9
$DIMJUST
 70
     0
  9
$DIMSD1
 70
     0
  9
$DIMSD2
 70
     0
  9
$DIMTOLJ
 70
     0
  9
$DIMTZIN
 70
     1
  9
$DIMALTZ
 70
     0
  9
$DIMALTTZ
 70
     0
  9
$DIMUPT
 70
     0
  9
$DIMDEC
 70
     2
  9
$DIMTDEC
 70
     2
  9
$DIMALTU
 70
     2
  9
$DIMALTTD
 70
     3
  9
$DIMTXSTY
  7
Standard
  9
$DIMAUNIT
 70
     0
  9
$DIMADEC
 70
     2
  9
$DIMALTRND
 40
0.0
  9
$DIMAZIN
 70
     0
  9
$DIMDSEP
 70
    44
  9
$DIMATFIT
 70
     3
  9
$DIMFRAC
 70
     0
  9
$DIMLDRBLK
  1

  9
$DIMLUNIT
 70
     2
  9
$DIMLWD
 70
    -2
  9
$DIMLWE
 70
    -2
  9
$DIMTMOVE
 70
     0
  9
$LUNITS
 70
     2
  9
$LUPREC
 70
     2
  9
$SKETCHINC
 40
1.0
  9
$FILLETRAD
 40
10.0
  9
$AUNITS
 70
     0
  9
$AUPREC
 70
     2
  9
$MENU
  1
.
  9
$ELEVATION
 40
0.0
  9
$PELEVATION
 40
0.0
  9
$THICKNESS
 40
0.0
  9
$LIMCHECK
 70
     0
  9
$CHAMFERA
 40
0.0
  9
$CHAMFERB
 40
0.0
  9
$CHAMFERC
 40
0.0
  9
$CHAMFERD
 40
0.0
  9
$SKPOLY
 70
     0
  9
$TDCREATE
 40
2460409.642834919
  9
$TDUCREATE
 40
2460409.601168253
  9
$TDUPDATE
 40
2460409.642871493
  9
$TDUUPDATE
 40
2460409.601204826
  9
$TDINDWG
 40
0.0000000116
  9
$TDUSRTIMER
 40
0.0000000116
  9
$USRTIMER
 70
     1
  9
$ANGBASE
 50
0.0
  9
$ANGDIR
 70
     0
  9
$PDMODE
 70
     0
  9
$PDSIZE
 40
-1.0
  9
$PLINEWID
 40
0.0
  9
$SPLFRAME
 70
     0
  9
$SPLINETYPE
 70
     6
  9
$SPLINESEGS
 70
     8
  9
$HANDSEED
  5
380
  9
$SURFTAB1
 70
     6
  9
$SURFTAB2
 70
     6
  9
$SURFTYPE
 70
     6
  9
$SURFU
 70
     6
  9
$SURFV
 70
     6
  9
$UCSBASE
  2

  9
$UCSNAME
  2

  9
$UCSORG
 10
0.0
 20
0.0
 30
0.0
  9
$UCSXDIR
 10
1.0
 20
0.0
 30
0.0
  9
$UCSYDIR
 10
0.0
 20
1.0
 30
0.0
  9
$UCSORTHOREF
  2

  9
$UCSORTHOVIEW
 70
     0
  9
$UCSORGTOP
 10
0.0
 20
0.0
 30
0.0
  9
$UCSORGBOTTOM
 10
0.0
 20
0.0
 30
0.0
  9
$UCSORGLEFT
 10
0.0
 20
0.0
 30
0.0
  9
$UCSORGRIGHT
 10
0.0
 20
0.0
 30
0.0
  9
$UCSORGFRONT
 10
0.0
 20
0.0
 30
0.0
  9
$UCSORGBACK
 10
0.0
 20
0.0
 30
0.0
  9
$PUCSBASE
  2

  9
$PUCSNAME
  2

  9
$PUCSORG
 10
0.0
 20
0.0
 30
0.0
  9
$PUCSXDIR
 10
1.0
 20
0.0
 30
0.0
  9
$PUCSYDIR
 10
0.0
 20
1.0
 30
0.0
  9
$PUCSORTHOREF
  2

  9
$PUCSORTHOVIEW
 70
     0
  9
$PUCSORGTOP
 10
0.0
 20
0.0
 30
0.0
  9
$PUCSORGBOTTOM
 10
0.0
 20
0.0
 30
0.0
  9
$PUCSORGLEFT
 10
0.0
 20
0.0
 30
0.0
  9
$PUCSORGRIGHT
 10
0.0
 20
0.0
 30
0.0
  9
$PUCSORGFRONT
 10
0.0
 20
0.0
 30
0.0
  9
$PUCSORGBACK
 10
0.0
 20
0.0
 30
0.0
  9
$USERI1
 70
     0
  9
$USERI2
 70
     0
  9
$USERI3
 70
     0
  9
$USERI4
 70
     0
  9
$USERI5
 70
     0
  9
$USERR1
 40
0.0
  9
$USERR2
 40
0.0
  9
$USERR3
 40
0.0
  9
$USERR4
 40
0.0
  9
$USERR5
 40
0.0
  9
$WORLDVIEW
 70
     1
  9
$SHADEDGE
 70
     3
  9
$SHADEDIF
 70
    70
  9
$TILEMODE
 70
     1
  9
$MAXACTVP
 70
    64
  9
$PINSBASE
 10
0.0
 20
0.0
 30
0.0
  9
$PLIMCHECK
 70
     0
  9
$PEXTMIN
 10
-365.0
 20
-50.0
 30
0.0
  9
$PEXTMAX
 10
365.0
 20
120.0
 30
0.0
  9
$PLIMMIN
 10
-421.8093385214
 20
-71.3035019455
  9
$PLIMMAX
 10
421.8093385214
 20
525.1945525292
  9
$UNITMODE
 70
     0
  9
$VISRETAIN
 70
     1
  9
$PLINEGEN
 70
     0
  9
$PSLTSCALE
 70
     1
  9
$TREEDEPTH
 70
  3020
  9
$CMLSTYLE
  2
Standard
  9
$CMLJUST
 70
     0
  9
$CMLSCALE
 40
20.0
  9
$PROXYGRAPHICS
 70
     1
  9
$MEASUREMENT
 70
     1
  9
$CELWEIGHT
370
    -1
  9
$ENDCAPS
280
     0
  9
$JOINSTYLE
280
     0
  9
$LWDISPLAY
290
     1
  9
$INSUNITS
 70
     4
  9
$HYPERLINKBASE
  1

  9
$STYLESHEET
  1

  9
$XEDIT
290
     1
  9
$CEPSNTYPE
380
     0
  9
$PSTYLEMODE
290
     1
  9
$FINGERPRINTGUID
  2
{ca3b1011-5185-4d62-a58c-fa33d9d76f32}
  9
$VERSIONGUID
  2
{FAEB1C32-E019-11D5-929B-00C0DF256EC4}
  9
$EXTNAMES
290
     1
  9
$PSVPSCALE
 40
0.0
  9
$OLESTARTUP
290
     0
  0
ENDSEC
  0
SECTION
  2
CLASSES
  0
CLASS
  1
ACDBDICTIONARYWDFLT
  2
AcDbDictionaryWithDefault
  3
ObjectDBX Classes
 90
        0
280
     0
281
     0
  0
CLASS
  1
VISUALSTYLE
  2
AcDbVisualStyle
  3
ObjectDBX Classes
 90
     4095
280
     0
281
     0
  0
CLASS
  1
MATERIAL
  2
AcDbMaterial
  3
ObjectDBX Classes
 90
     1153
280
     0
281
     0
  0
CLASS
  1
SCALE
  2
AcDbScale
  3
ObjectDBX Classes
 90
     1153
280
     0
281
     0
  0
CLASS
  1
TABLESTYLE
  2
AcDbTableStyle
  3
ObjectDBX Classes
 90
     4095
280
     0
281
     0
  0
CLASS
  1
MLEADERSTYLE
  2
AcDbMLeaderStyle
  3
ACDB_MLEADERSTYLE_CLASS
 90
     4095
280
     0
281
     0
  0
CLASS
  1
SUN
  2
AcDbSun
  3
SCENEOE
 90
     1153
280
     0
281
     0
  0
CLASS
  1
ACDBPLACEHOLDER
  2
AcDbPlaceHolder
  3
ObjectDBX Classes
 90
        0
280
     0
281
     0
  0
CLASS
  1
LAYOUT
  2
AcDbLayout
  3
ObjectDBX Classes
 90
        0
280
     0
281
     0
  0
ENDSEC
  0
SECTION
  2
TABLES
  0
TABLE
  2
VPORT
  5
8
330
0
100
AcDbSymbolTable
 70
     1
  0
VPORT
  5
29
330
8
100
AcDbSymbolTableRecord
100
AcDbViewportTableRecord
  2
*Active
 70
     0
 10
0.0
 20
0.0
 11
1.0
 21
1.0
 12
0.0
 22
0.0
 13
0.0
 23
0.0
 14
10.0
 24
10.0
 15
10.0
 25
10.0
 16
0.0
 26
0.0
 36
1.0
 17
0.0
 27
0.0
 37
0.0
 40
464.1
 41
1.6043956044
 42
50.0
 43
0.0
 44
0.0
 50
0.0
 51
0.0
 71
     0
 72
   100
 73
     1
 74
     3
 75
     0
 76
     0
 77
     0
 78
     0
281
     0
 65
     1
110
0.0
120
0.0
130
0.0
111
1.0
121
0.0
131
0.0
112
0.0
122
1.0
132
0.0
 79
     0
146
0.0
  0
ENDTAB
  0
TABLE
  2
LTYPE
  5
5
330
0
100
AcDbSymbolTable
 70
     6
  0
LTYPE
  5
14
330
5
100
AcDbSymbolTableRecord
100
AcDbLinetypeTableRecord
  2
ByBlock
 70
     0
  3

 72
    65
 73
     0
 40
0.0
  0
LTYPE
  5
15
330
5
100
AcDbSymbolTableRecord
100
AcDbLinetypeTableRecord
  2
ByLayer
 70
     0
  3

 72
    65
 73
     0
 40
0.0
  0
LTYPE
  5
16
330
5
100
AcDbSymbolTableRecord
100
AcDbLinetypeTableRecord
  2
Continuous
 70
     0
  3
Solid line
 72
    65
 73
     0
 40
0.0
  0
LTYPE
  5
6E
330
5
100
AcDbSymbolTableRecord
100
AcDbLinetypeTableRecord
  2
HIDDEN
 70
     0
  3
Hidden __ __ __ __ __ __ __ __ __ __ __ __ __ __
 72
    65
 73
     2
 40
1.905
 49
1.27
 74
     0
 49
-0.635
 74
     0
  0
LTYPE
  5
6F
330
5
100
AcDbSymbolTableRecord
100
AcDbLinetypeTableRecord
  2
PHANTOM
 70
     0
  3
Phantom ______  __  __  ______  __  __  ______
 72
    65
 73
     6
 40
12.7
 49
6.35
 74
     0
 49
-1.27
 74
     0
 49
1.27
 74
     0
 49
-1.27
 74
     0
 49
1.27
 74
     0
 49
-1.27
 74
     0
  0
LTYPE
  5
70
330
5
100
AcDbSymbolTableRecord
100
AcDbLinetypeTableRecord
  2
CENTER
 70
     0
  3
Center ____ _ ____ _ ____ _ ____ _ ____ _ ____
 72
    65
 73
     4
 40
10.16
 49
6.35
 74
     0
 49
-1.27
 74
     0
 49
1.27
 74
     0
 49
-1.27
 74
     0
  0
LTYPE
  5
71
330
5
100
AcDbSymbolTableRecord
100
AcDbLinetypeTableRecord
  2
CENTERX2
 70
     0
  3
Center (2x) ________  __  ________  __  _____
 72
    65
 73
     4
 40
20.32
 49
12.7
 74
     0
 49
-2.54
 74
     0
 49
2.54
 74
     0
 49
-2.54
 74
     0
  0
LTYPE
  5
72
330
5
100
AcDbSymbolTableRecord
100
AcDbLinetypeTableRecord
  2
DOT2
 70
     0
  3
Dot (.5x) ........................................
 72
    65
 73
     2
 40
0.635
 49
0.0
 74
     0
 49
-0.635
 74
     0
  0
ENDTAB
  0
TABLE
  2
LAYER
  5
2
330
0
100
AcDbSymbolTable
 70
     1
  0
LAYER
  5
10
330
2
100
AcDbSymbolTableRecord
100
AcDbLayerTableRecord
  2
0
 70
     0
 62
     7
  6
Continuous
370
    -3
390
F
  0
ENDTAB
  0
TABLE
  2
STYLE
  5
3
330
0
100
AcDbSymbolTable
 70
     1
  0
STYLE
  5
11
330
3
100
AcDbSymbolTableRecord
100
AcDbTextStyleTableRecord
  2
Standard
 70
     0
 40
0.0
 41
1.0
 50
0.0
 71
     0
 42
3.5
  3
txt
  4

  0
ENDTAB
  0
TABLE
  2
VIEW
  5
6
330
0
100
AcDbSymbolTable
 70
     0
  0
ENDTAB
  0
TABLE
  2
UCS
  5
7
330
0
100
AcDbSymbolTable
 70
     0
  0
ENDTAB
  0
TABLE
  2
APPID
  5
9
330
0
100
AcDbSymbolTable
 70
     1
  0
APPID
  5
12
330
9
100
AcDbSymbolTableRecord
100
AcDbRegAppTableRecord
  2
ACAD
 70
     0
  0
ENDTAB
  0
TABLE
  2
DIMSTYLE
  5
A
330
0
100
AcDbSymbolTable
 70
     1
100
AcDbDimStyleTable
  0
DIMSTYLE
105
27
330
A
100
AcDbSymbolTableRecord
100
AcDbDimStyleTableRecord
  2
ISO-25
 70
     0
 41
2.5
 42
0.625
 43
3.75
 44
1.25
 73
     0
 74
     0
 77
     1
 78
     8
140
2.5
141
2.5
143
0.0393700787
147
0.625
171
     3
172
     1
178
     0
271
     2
272
     2
274
     3
278
    44
283
     0
284
     8
340
11
  0
ENDTAB
  0
TABLE
  2
BLOCK_RECORD
  5
1
330
0
100
AcDbSymbolTable
 70
     3
  0
BLOCK_RECORD
  5
1F
330
1
100
AcDbSymbolTableRecord
100
AcDbBlockTableRecord
  2
*Model_Space
340
22
  0
BLOCK_RECORD
  5
1B
330
1
100
AcDbSymbolTableRecord
100
AcDbBlockTableRecord
  2
*Paper_Space
340
1E
  0
BLOCK_RECORD
  5
23
330
1
100
AcDbSymbolTableRecord
100
AcDbBlockTableRecord
  2
*Paper_Space0
340
26
  0
BLOCK_RECORD
  5
226
330
1
100
AcDbSymbolTableRecord
100
AcDbBlockTableRecord
  2
*Paper_Space1
340
227
  0
BLOCK_RECORD
  5
2E7
330
1
100
AcDbSymbolTableRecord
100
AcDbBlockTableRecord
  2
*Paper_Space2
340
2E8
  0
ENDTAB
  0
ENDSEC
  0
SECTION
  2
BLOCKS
  0
BLOCK
  5
20
330
1F
100
AcDbEntity
  8
0
100
AcDbBlockBegin
  2
*Model_Space
 70
     0
 10
0.0
 20
0.0
 30
0.0
  3
*Model_Space
  1

  0
ENDBLK
  5
21
330
1F
100
AcDbEntity
  8
0
100
AcDbBlockEnd
  0
BLOCK
  5
1C
330
1B
100
AcDbEntity
 67
     1
  8
0
100
AcDbBlockBegin
  2
*Paper_Space
 70
     0
 10
0.0
 20
0.0
 30
0.0
  3
*Paper_Space
  1

  0
ENDBLK
  5
1D
330
1B
100
AcDbEntity
 67
     1
  8
0
100
AcDbBlockEnd
  0
BLOCK
  5
24
330
23
100
AcDbEntity
  8
0
100
AcDbBlockBegin
  2
*Paper_Space0
 70
     0
 10
0.0
 20
0.0
 30
0.0
  3
*Paper_Space0
  1

  0
SPLINE
  5
1A1
330
23
100
AcDbEntity
  8
0
  6
Continuous
 62
     7
370
    25
100
AcDbSpline
210
0.0
220
0.0
230
1.0
 70
     8
 71
     3
 72
    28
 73
    24
 74
     0
 42
0.000000001
 43
0.00000001
 40
0.0
 40
0.0
 40
0.0
 40
0.0
 40
0.0352224665756955
 40
0.0870801470422066
 40
0.1349176847494576
 40
0.1785559345893856
 40
0.2180145193852263
 40
0.2543961741258416
 40
0.3283053503658224
 40
0.4043619520309442
 40
0.4563606321676713
 40
0.5094959577398538
 40
0.5638681993546679
 40
0.6192237205579978
 40
0.6722784850779749
 40
0.7172624302342774
 40
0.7890347194650412
 40
0.8578592162567457
 40
0.8800281882240264
 40
0.9025241315774237
 40
0.9275063603004411
 40
0.9599276821690758
 40
1.0
 40
1.0
 40
1.0
 40
1.0
 10
-191.4575073289277
 20
38.6849731583629
 30
0.0
 10
-190.4058256844049
 20
37.14421770817984
 30
0.0
 10
-187.8057638162271
 20
33.335023628325
 30
0.0
 10
-183.243971538119
 20
27.82426003487391
 30
0.0
 10
-178.0851504930715
 20
22.25498422431258
 30
0.0
 10
-173.0553890704083
 20
17.47773650045825
 30
0.0
 10
-168.2370807344035
 20
13.37492526280936
 30
0.0
 10
-161.9479431339377
 20
8.543092103402824
 30
0.0
 10
-153.6926870089589
 20
3.109443939725821
 30
0.0
 10
-144.2000692607706
 20
-1.854391575079682
 30
0.0
 10
-135.3445150910674
 20
-5.560824560680862
 30
0.0
 10
-127.3394236251573
 20
-8.274036403766491
 30
0.0
 10
-118.9884906663162
 20
-10.44807359241448
 30
0.0
 10
-110.5066360121433
 20
-12.03008102319322
 30
0.0
 10
-102.4228281561383
 20
-12.86185659445249
 30
0.0
 10
-93.45706258929106
 20
-13.52192305300753
 30
0.0
 10
-83.6504969122309
 20
-14.14136254755464
 30
0.0
 10
-75.04082206755265
 20
-14.52020001134115
 30
0.0
 10
-69.03544247683092
 20
-14.7177469866039
 30
0.0
 10
-65.34937054136213
 20
-14.8182499298812
 30
0.0
 10
-61.12008227577226
 20
-14.90775811405795
 30
0.0
 10
-55.95974850857007
 20
-14.98307598688067
 30
0.0
 10
-52.12160889195229
 20
-14.99397522619121
 30
0.0
 10
-49.99999999999999
 20
-15.00000000000001
 30
0.0
  0
SPLINE
  5
1BC
330
23
100
AcDbEntity
  8
0
  6
Continuous
 62
     7
370
    25
100
AcDbSpline
210
0.0
220
0.0
230
1.0
 70
    24
 71
     3
 72
    16
 73
    12
 74
     0
 42
0.000000001
 43
0.00000001
 40
0.0
 40
0.0
 40
0.0
 40
0.0
 40
0.1249999999999882
 40
0.1249999999999882
 40
0.1874999999999913
 40
0.1874999999999913
 40
0.2499999999999944
 40
0.2499999999999944
 40
0.4999999999999911
 40
0.4999999999999911
 40
1.0
 40
1.0
 40
1.0
 40
1.0
 10
227.5
 20
40.00000000000001
 30
0.0
 10
227.5000000000001
 20
40.00000000000001
 30
0.0
 10
227.5
 20
39.96063694525327
 30
0.0
 10
227.5
 20
39.8491161413188
 30
0.0
 10
227.5
 20
39.80313055851014
 30
0.0
 10
227.5
 20
39.69402238037021
 30
0.0
 10
227.5
 20
39.63059350038797
 30
0.0
 10
227.5
 20
39.27812766765428
 30
0.0
 10
227.5000000000001
 20
38.88101831419971
 30
0.0
 10
227.5000000000001
 20
37.44297388272116
 30
0.0
 10
227.5000000000001
 20
36.2239554166966
 30
0.0
 10
227.5
 20
35.00000000000001
 30
0.0
  0
SPLINE
  5
1D0
330
23
100
AcDbEntity
  8
0
  6
Continuous
 62
     7
370
    25
100
AcDbSpline
210
0.0
220
0.0
230
1.0
 70
     8
 71
     3
 72
    16
 73
    12
 74
     0
 42
0.000000001
 43
0.00000001
 40
0.0
 40
0.0
 40
0.0
 40
0.0
 40
0.2500000000000015
 40
0.2500000000000015
 40
0.500000000000003
 40
0.500000000000003
 40
0.6250000000000017
 40
0.6250000000000017
 40
0.7500000000000002
 40
0.7500000000000002
 40
1.0
 40
1.0
 40
1.0
 40
1.0
 10
-73.26327609742769
 20
38.0894099169067
 30
0.0
 10
-73.32148454763613
 20
38.22971925860298
 30
0.0
 10
-73.39756617826451
 20
38.36861038137646
 30
0.0
 10
-73.59971427324172
 20
38.64215044394408
 30
0.0
 10
-73.72873857176415
 20
38.7794336123133
 30
0.0
 10
-73.96880646148021
 20
38.96277975046853
 30
0.0
 10
-74.05801632727662
 20
39.02094275503806
 30
0.0
 10
-74.24663410423486
 20
39.12249724374787
 30
0.0
 10
-74.34741127288046
 20
39.16687568264895
 30
0.0
 10
-74.66587614828882
 20
39.27533716602001
 30
0.0
 10
-74.88608090978029
 20
39.30900113979148
 30
0.0
 10
-75.09286965762271
 20
39.30917111402498
 30
0.0
  0
SPLINE
  5
1D3
330
23
100
AcDbEntity
  8
0
  6
Continuous
 62
     7
370
    25
100
AcDbSpline
210
0.0
220
0.0
230
1.0
 70
     8
 71
     3
 72
    16
 73
    12
 74
     0
 42
0.000000001
 43
0.00000001
 40
0.0
 40
0.0
 40
0.0
 40
0.0
 40
0.2499999999999987
 40
0.2499999999999987
 40
0.4999999999999973
 40
0.4999999999999973
 40
0.624999999999998
 40
0.624999999999998
 40
0.7499999999999987
 40
0.7499999999999987
 40
1.0
 40
1.0
 40
1.0
 40
1.0
 10
-61.96450665414437
 20
10.71482305805534
 30
0.0
 10
-62.67110150858662
 20
12.44716519508101
 30
0.0
 10
-63.44259834307866
 20
14.3298836451106
 30
0.0
 10
-65.1033161606646
 20
18.36959626734168
 30
0.0
 10
-65.99320169679334
 20
20.52823399780002
 30
0.0
 10
-67.41494098040368
 20
23.9704844702849
 30
0.0
 10
-67.90376991693691
 20
25.15298609620734
 30
0.0
 10
-68.90691465658183
 20
27.57792744049357
 30
0.0
 10
-69.42145094072531
 20
28.82090158193252
 30
0.0
 10
-71.00319372765361
 20
32.63987730821756
 30
0.0
 10
-72.10847108277754
 20
35.30579463746472
 30
0.0
 10
-73.26327609742626
 20
38.08940991690681
 30
0.0
  0
SPLINE
  5
1D5
330
23
100
AcDbEntity
  8
0
  6
Continuous
 62
     7
370
    25
100
AcDbSpline
210
0.0
220
0.0
230
1.0
 70
    24
 71
     3
 72
    30
 73
    26
 74
     0
 42
0.000000001
 43
0.00000001
 40
0.0
 40
0.0
 40
0.0
 40
0.0
 40
0.043524122249089
 40
0.0870953065614147
 40
0.1306171480688238
 40
0.174142027343572
 40
0.2177124480874728
 40
0.2612342895948466
 40
0.3047591688681094
 40
0.3483295896098999
 40
0.3918514311208513
 40
0.4353763103953156
 40
0.4789467311423524
 40
0.522468572646901
 40
0.565993451921328
 40
0.6095638726664797
 40
0.6530857141729346
 40
0.6966105934479775
 40
0.740181014191085
 40
0.7837028556989506
 40
0.8272277349733979
 40
0.8707981557177886
 40
0.9143199972249777
 40
0.9578448764987455
 40
1.0
 40
1.0
 40
1.0
 40
1.0
 10
-49.99999999999997
 20
-15.00000000000001
 30
0.0
 10
-49.91767941117186
 20
-15.00000000000001
 30
0.0
 10
-49.75294922134128
 20
-15.00000000000001
 30
0.0
 10
-48.42475607891031
 20
-15.0
 30
0.0
 10
-46.32839289768857
 20
-15.00000000000001
 30
0.0
 10
-43.42490469000688
 20
-15.00000000000001
 30
0.0
 10
-39.78170785177941
 20
-15.00000000000001
 30
0.0
 10
-35.45600134508881
 20
-15.00000000000001
 30
0.0
 10
-30.52545738785922
 20
-15.00000000000001
 30
0.0
 10
-25.07165458961953
 20
-15.00000000000001
 30
0.0
 10
-19.1885975029002
 20
-15.00000000000001
 30
0.0
 10
-12.97802332164318
 20
-15.00000000000001
 30
0.0
 10
-6.544873382097943
 20
-15.00000000000001
 30
0.0
 10
0.0001511294773371
 20
-15.00000000000001
 30
0.0
 10
6.545182174824709
 20
-15.00000000000001
 30
0.0
 10
12.97831052958501
 20
-15.00000000000001
 30
0.0
 10
19.18887147517678
 20
-15.00000000000001
 30
0.0
 10
25.07195908095276
 20
-15.00000000000001
 30
0.0
 10
30.52560529880756
 20
-15.00000000000001
 30
0.0
 10
35.45647979022478
 20
-15.00000000000001
 30
0.0
 10
39.78093716416368
 20
-15.00000000000001
 30
0.0
 10
43.42871699634303
 20
-15.00000000000001
 30
0.0
 10
46.31474114298415
 20
-15.00000000000001
 30
0.0
 10
48.45284816953119
 20
-15.00000000000001
 30
0.0
 10
49.17583763212296
 20
-15.00000000000001
 30
0.0
 10
49.5315531911629
 20
-15.00000000000001
 30
0.0
  0
SPLINE
  5
1D6
330
23
100
AcDbEntity
  8
0
  6
Continuous
 62
     7
370
    25
100
AcDbSpline
210
0.0
220
0.0
230
1.0
 70
     8
 71
     3
 72
    22
 73
    18
 74
     0
 42
0.000000001
 43
0.00000001
 40
0.0
 40
0.0
 40
0.0
 40
0.0
 40
0.2500000000000031
 40
0.2500000000000031
 40
0.5000000000000061
 40
0.5000000000000061
 40
0.625000000000004
 40
0.625000000000004
 40
0.7500000000000018
 40
0.7500000000000018
 40
0.8125000000000013
 40
0.8125000000000013
 40
0.8750000000000009
 40
0.8750000000000009
 40
0.9375000000000004
 40
0.9375000000000004
 40
1.0
 40
1.0
 40
1.0
 40
1.0
 10
-61.96450665414437
 20
10.71482305805534
 30
0.0
 10
-61.8358132081388
 20
10.39930833576022
 30
0.0
 10
-61.67649160610406
 20
10.08636214995005
 30
0.0
 10
-61.27860231276578
 20
9.464567456250467
 30
0.0
 10
-61.04133242260964
 20
9.155799056229812
 30
0.0
 10
-60.59060445925703
 20
8.693625366887233
 30
0.0
 10
-60.424774437539
 20
8.540341925301897
 30
0.0
 10
-60.05135457436884
 20
8.237464807354794
 30
0.0
 10
-59.84241428896278
 20
8.086723575860647
 30
0.0
 10
-59.48615173515873
 20
7.868620628950433
 30
0.0
 10
-59.3600601403219
 20
7.797138799970307
 30
0.0
 10
-59.08814543085513
 20
7.657206446747174
 30
0.0
 10
-58.94121504100402
 20
7.588243704267445
 30
0.0
 10
-58.62421987654745
 20
7.456781339397381
 30
0.0
 10
-58.45622431967568
 20
7.395036464910132
 30
0.0
 10
-58.09427892437861
 20
7.282107935061091
 30
0.0
 10
-57.9017457188377
 20
7.231658687283795
 30
0.0
 10
-57.70274801128285
 20
7.1905650684327
 30
0.0
  0
SPLINE
  5
1D7
330
23
100
AcDbEntity
  8
0
  6
Continuous
 62
     7
370
    25
100
AcDbSpline
210
0.0
220
0.0
230
1.0
 70
     8
 71
     3
 72
    24
 73
    20
 74
     0
 42
0.000000001
 43
0.00000001
 40
0.0
 40
0.0
 40
0.0
 40
0.0
 40
0.1249999999999996
 40
0.1249999999999996
 40
0.2499999999999991
 40
0.2499999999999991
 40
0.3749999999999987
 40
0.3749999999999987
 40
0.4999999999999982
 40
0.4999999999999982
 40
0.5312499999999983
 40
0.5312499999999983
 40
0.5624999999999984
 40
0.5624999999999984
 40
0.6249999999999987
 40
0.6249999999999987
 40
0.749999999999999
 40
0.749999999999999
 40
1.0
 40
1.0
 40
1.0
 40
1.0
 10
-26.17983426592377
 20
0.6330572393059286
 30
0.0
 10
-27.40081660115761
 20
0.8891626136199315
 30
0.0
 10
-28.64237961876636
 20
1.149518510638894
 30
0.0
 10
-31.15233393160563
 20
1.675667648196016
 30
0.0
 10
-32.42155312232408
 20
1.9416314900913
 30
0.0
 10
-34.98945266119065
 20
2.47952949861538
 30
0.0
 10
-36.28815513559069
 20
2.75147134204868
 30
0.0
 10
-38.91602086409632
 20
3.301510706602596
 30
0.0
 10
-40.24795474866643
 20
3.580187485095323
 30
0.0
 10
-41.91987535481523
 20
3.929866573823372
 30
0.0
 10
-42.25467678415932
 20
3.99988321055671
 30
0.0
 10
-42.92510738851703
 20
4.140077164019988
 30
0.0
 10
-43.26101919162445
 20
4.210231321051031
 30
0.0
 10
-44.26838101653291
 20
4.419325908174621
 30
0.0
 10
-44.93851495350543
 20
4.558529957538145
 30
0.0
 10
-46.95049393847086
 20
4.972585072008626
 30
0.0
 10
-48.29080814924561
 20
5.248737790136716
 30
0.0
 10
-52.31579228123118
 20
6.078533217166511
 30
0.0
 10
-55.00412628890222
 20
6.633291651339627
 30
0.0
 10
-57.70274801128286
 20
7.190565068432672
 30
0.0
  0
LWPOLYLINE
  5
1D8
330
23
100
AcDbEntity
  8
0
  6
Continuous
 62
     7
370
    25
100
AcDbPolyline
 90
        9
 70
   128
 43
0.0
 10
-57.7027480113
 20
7.1905650684
 10
-57.6840196374
 20
7.2249736044
 10
-57.6661495281
 20
7.2545849159
 10
-57.6491679483
 20
7.2793488531
 10
-57.633103658
 20
7.2992234756
 10
-57.6179838638
 20
7.3141751238
 10
-57.6038341727
 20
7.3241784754
 10
-57.5906785486
 20
7.3292165888
 10
-57.578539272
 20
7.3292809313
  0
SPLINE
  5
1DA
330
23
100
AcDbEntity
  8
0
  6
Continuous
 62
     7
370
    25
100
AcDbSpline
210
0.0
220
0.0
230
1.0
 70
    24
 71
     3
 72
    14
 73
    10
 74
     0
 42
0.000000001
 43
0.00000001
 40
0.0
 40
0.0
 40
0.0
 40
0.0
 40
0.2499999999999996
 40
0.2499999999999996
 40
0.4999999999999992
 40
0.4999999999999992
 40
0.7499999999999996
 40
0.7499999999999996
 40
1.0
 40
1.0
 40
1.0
 40
1.0
 10
49.99999999999999
 20
-15.00000000000001
 30
0.0
 10
50.0
 20
-15.00000000000001
 30
0.0
 10
49.99999999999999
 20
-15.07460983029433
 30
0.0
 10
49.99999999999999
 20
-15.36228704230497
 30
0.0
 10
50.0
 20
-15.57525093268101
 30
0.0
 10
50.0
 20
-16.10871026528712
 30
0.0
 10
50.0
 20
-16.42901379651757
 30
0.0
 10
50.00000000000001
 20
-17.13056634502765
 30
0.0
 10
50.0
 20
-17.51156298008684
 30
0.0
 10
49.99999999999999
 20
-17.89530150989251
 30
0.0
  0
LWPOLYLINE
  5
1DC
330
23
100
AcDbEntity
  8
0
  6
Continuous
 62
     7
370
    25
100
AcDbPolyline
 90
        3
 70
   128
 43
0.0
 10
32.317693478
 20
-17.8953015099
 10
32.6985217414
 20
-27.427843757
 10
33.0748854387
 20
-37.1046984901
  0
LWPOLYLINE
  5
1DE
330
23
100
AcDbEntity
  8
0
  6
Continuous
 62
     7
370
    25
100
AcDbPolyline
 90
        9
 70
   128
 43
0.0
 10
32.317693478
 20
-15.0
 10
31.9354546507
 20
-15.0576441588
 10
31.5679050472
 20
-15.2283614025
 10
31.2291693926
 20
-15.5055911631
 10
30.9322651081
 20
-15.8786796564
 10
30.688602059
 20
-16.3332893009
 10
30.5075440794
 20
-16.8519497029
 10
30.3960491261
 20
-17.414729034
 10
30.3584018876
 20
-18.0
  0
LWPOLYLINE
  5
1DF
330
23
100
AcDbEntity
  8
0
  6
Continuous
 62
     7
370
    25
100
AcDbPolyline
 90
        3
 70
   128
 43
0.0
 10
31.0558155356
 20
-37.2093969802
 10
30.7091647618
 20
-27.5325422471
 10
30.3584018876
 20
-18.0
  0
SPLINE
  5
1E0
330
23
100
AcDbEntity
  8
0
  6
Continuous
 62
     7
370
    25
100
AcDbSpline
210
0.0
220
0.0
230
1.0
 70
     8
 71
     3
 72
    24
 73
    20
 74
     0
 42
0.000000001
 43
0.00000001
 40
0.0
 40
0.0
 40
0.0
 40
0.0
 40
0.062499999999999
 40
0.062499999999999
 40
0.1249999999999981
 40
0.1249999999999981
 40
0.2499999999999982
 40
0.2499999999999982
 40
0.3749999999999984
 40
0.3749999999999984
 40
0.4999999999999986
 40
0.4999999999999986
 40
0.6249999999999987
 40
0.6249999999999987
 40
0.6874999999999994
 40
0.6874999999999994
 40
0.7500000000000001
 40
0.7500000000000001
 40
1.0
 40
1.0
 40
1.0
 40
1.0
 10
31.05581553564448
 20
-37.20939698021501
 30
0.0
 10
31.06347014228594
 20
-37.4259555268758
 30
0.0
 10
31.08289806320958
 20
-37.64006845547902
 30
0.0
 10
31.14411278796173
 20
-38.06362091183095
 30
0.0
 10
31.18617906372348
 20
-38.27364653033371
 30
0.0
 10
31.3405154841768
 20
-38.88269287830715
 30
0.0
 10
31.48170145775948
 20
-39.26726797786487
 30
0.0
 10
31.82266890122061
 20
-39.99127373325786
 30
0.0
 10
32.01762796679722
 20
-40.32148227256624
 30
0.0
 10
32.44356757213585
 20
-40.93029494204102
 30
0.0
 10
32.67644613523665
 20
-41.20997322428821
 30
0.0
 10
33.15454845399798
 20
-41.70407324913059
 30
0.0
 10
33.40147935547039
 20
-41.92131261195464
 30
0.0
 10
33.78064150287774
 20
-42.20595576061694
 30
0.0
 10
33.90851518299524
 20
-42.29390342623147
 30
0.0
 10
34.16698364653567
 20
-42.45581167545983
 30
0.0
 10
34.29815392738229
 20
-42.53002883225365
 30
0.0
 10
34.95033758292892
 20
-42.85989978867541
 30
0.0
 10
35.46356745259943
 20
-43.00000000000001
 30
0.0
 10
35.96604704932422
 20
-43.00000000000001
 30
0.0
  0
SPLINE
  5
1E7
330
23
100
AcDbEntity
  8
0
  6
Continuous
 62
     7
370
    25
100
AcDbSpline
210
0.0
220
0.0
230
1.0
 70
     8
 71
     3
 72
    22
 73
    18
 74
     0
 42
0.000000001
 43
0.00000001
 40
0.0
 40
0.0
 40
0.0
 40
0.0
 40
0.2499999999999988
 40
0.2499999999999988
 40
0.3749999999999994
 40
0.3749999999999994
 40
0.5000000000000001
 40
0.5000000000000001
 40
0.6250000000000008
 40
0.6250000000000008
 40
0.7500000000000013
 40
0.7500000000000013
 40
0.875000000000002
 40
0.875000000000002
 40
0.9375000000000011
 40
0.9375000000000011
 40
1.0
 40
1.0
 40
1.0
 40
1.0
 10
38.4059939392663
 20
-40.00000000000001
 30
0.0
 10
37.91195488549078
 20
-40.00000000000002
 30
0.0
 10
37.41239965871963
 20
-39.94228074473127
 30
0.0
 10
36.65639724148086
 20
-39.78297409373621
 30
0.0
 10
36.40277742073513
 20
-39.71719643108455
 30
0.0
 10
35.90062586201172
 20
-39.56147258381955
 30
0.0
 10
35.65132857585949
 20
-39.47146361509937
 30
0.0
 10
35.15783539422239
 20
-39.2637412750848
 30
0.0
 10
34.91329547752287
 20
-39.14603218375596
 30
0.0
 10
34.43383056006811
 20
-38.87435054245296
 30
0.0
 10
34.20209289453522
 20
-38.72264277257531
 30
0.0
 10
33.76569621732772
 20
-38.37011113757782
 30
0.0
 10
33.55822143411566
 20
-38.16758027568856
 30
0.0
 10
33.30747098745332
 20
-37.80904389748929
 30
0.0
 10
33.23365416058878
 20
-37.67892563637362
 30
0.0
 10
33.12276715208905
 20
-37.40120839787142
 30
0.0
 10
33.08654484336851
 20
-37.25660741084288
 30
0.0
 10
33.07488543869971
 20
-37.10469849010753
 30
0.0
  0
SPLINE
  5
1EA
330
23
100
AcDbEntity
  8
0
  6
Continuous
 62
     8
370
    25
100
AcDbSpline
210
0.0
220
0.0
230
1.0
 70
     8
 71
     3
 72
    29
 73
    25
 74
     0
 42
0.000000001
 43
0.00000001
 40
0.0
 40
0.0
 40
0.0
 40
0.0
 40
0.0364388755246308
 40
0.0730528625200041
 40
0.1140857977976545
 40
0.1554004066429117
 40
0.1976293108834618
 40
0.2401836452396383
 40
0.2811513827608662
 40
0.3224131282843548
 40
0.3645760371621897
 40
0.4070371642003782
 40
0.4381174920313104
 40
0.4691985262523063
 40
0.5006956632310997
 40
0.5322007755030133
 40
0.5955690166118921
 40
0.6589498156532868
 40
0.7194723074639985
 40
0.7799975915574977
 40
0.8405613537865888
 40
0.9011731387908763
 40
0.9614065669708128
 40
1.0
 40
1.0
 40
1.0
 40
1.0
 10
-75.09286965762254
 20
39.30917111402486
 30
0.0
 10
-78.7120279622453
 20
39.31159794644412
 30
0.0
 10
-85.96773687914154
 20
39.3164632737225
 30
0.0
 10
-96.82034378086819
 20
39.31701715065134
 30
0.0
 10
-107.6529139564855
 20
39.31274917074014
 30
0.0
 10
-118.3322941746256
 20
39.3026136185416
 30
0.0
 10
-128.3797734337341
 20
39.28692940656541
 30
0.0
 10
-137.5414570164818
 20
39.26583973059861
 30
0.0
 10
-145.7240891432417
 20
39.23957972026685
 30
0.0
 10
-152.9386581743726
 20
39.20802001387788
 30
0.0
 10
-159.2360182260674
 20
39.17028835493854
 30
0.0
 10
-164.0696423385556
 20
39.13058526683827
 30
0.0
 10
-167.6825100636811
 20
39.088720141048
 30
0.0
 10
-170.3541020614333
 20
39.05227451607614
 30
0.0
 10
-172.4404931055141
 20
38.99348810761601
 30
0.0
 10
-174.4003087324858
 20
38.94307857368909
 30
0.0
 10
-176.7038388648285
 20
38.9296636802392
 30
0.0
 10
-179.8842176243548
 20
38.88070957758733
 30
0.0
 10
-182.995114843453
 20
38.8347804632131
 30
0.0
 10
-185.903191824232
 20
38.78914595731725
 30
0.0
 10
-188.4422829842378
 20
38.74878697871223
 30
0.0
 10
-190.348057065162
 20
38.71766725433379
 30
0.0
 10
-191.4611543778137
 20
38.69860474332069
 30
0.0
 10
-191.4446609364992
 20
38.69886144446112
 30
0.0
 10
-191.4382199900298
 20
38.69896169026627
 30
0.0
  0
SPLINE
  5
1EB
330
23
100
AcDbEntity
  8
0
  6
Continuous
 62
     8
370
    25
100
AcDbSpline
210
0.0
220
0.0
230
1.0
 70
     8
 71
     3
 72
    10
 73
     6
 74
     0
 42
0.000000001
 43
0.00000001
 40
0.0
 40
0.0
 40
0.0
 40
0.0
 40
0.0687917328946604
 40
0.6738741502992229
 40
1.0
 40
1.0
 40
1.0
 40
1.0
 10
-22.81066527004012
 20
0.0812092685635174
 30
0.0
 10
-22.891062449491
 20
0.089745700963588
 30
0.0
 10
-23.67862192370692
 20
0.1733673933985297
 30
0.0
 10
-24.80884319096176
 20
0.3673213413756815
 30
0.0
 10
-25.82422820761531
 20
0.5641309735265193
 30
0.0
 10
-26.17983426592377
 20
0.6330572393059286
 30
0.0
  0
SPLINE
  5
1EC
330
23
100
AcDbEntity
  8
0
  6
Continuous
 62
     8
370
    25
100
AcDbSpline
210
0.0
220
0.0
230
1.0
 70
     8
 71
     3
 72
     9
 73
     5
 74
     0
 42
0.000000001
 43
0.00000001
 40
0.0
 40
0.0
 40
0.0
 40
0.0
 40
0.2317713383765638
 40
1.0
 40
1.0
 40
1.0
 40
1.0
 10
59.53913750261134
 20
-17.08628483455604
 30
0.0
 10
58.81071212368165
 20
-17.22258242126028
 30
0.0
 10
55.66784992151322
 20
-17.81065162627469
 30
0.0
 10
52.46246701797548
 20
-17.85852432817972
 30
0.0
 10
50.00000000000002
 20
-17.89530150989251
 30
0.0
  0
LINE
  5
1F1
330
23
100
AcDbEntity
  8
0
  6
Continuous
 62
     7
370
    25
100
AcDbLine
 10
-27.5
 20
-18.0
 30
0.0
 11
-27.5
 21
-47.0
 31
0.0
  0
LINE
  5
1F2
330
23
100
AcDbEntity
  8
0
  6
Continuous
 62
     7
370
    25
100
AcDbLine
 10
42.5
 20
-47.0
 30
0.0
 11
42.5
 21
-43.0
 31
0.0
  0
LINE
  5
1F3
330
23
100
AcDbEntity
  8
0
  6
Continuous
 62
     7
370
    25
100
AcDbLine
 10
227.5
 20
115.0
 30
0.0
 11
-227.5
 21
115.0
 31
0.0
  0
LINE
  5
1F4
330
23
100
AcDbEntity
  8
0
  6
Continuous
 62
     7
370
    25
100
AcDbLine
 10
-222.5
 20
120.0
 30
0.0
 11
-222.5
 21
40.0
 31
0.0
  0
LINE
  5
1F5
330
23
100
AcDbEntity
  8
0
  6
Continuous
 62
     7
370
    25
100
AcDbLine
 10
-222.5
 20
120.0
 30
0.0
 11
227.5
 21
120.0
 31
0.0
  0
LINE
  5
1F6
330
23
100
AcDbEntity
  8
0
  6
Continuous
 62
     7
370
    25
100
AcDbLine
 10
227.5
 20
120.0
 30
0.0
 11
227.5
 21
40.0
 31
0.0
  0
LINE
  5
1F7
330
23
100
AcDbEntity
  8
0
  6
Continuous
 62
     7
370
    25
100
AcDbLine
 10
-227.5
 20
45.0
 30
0.0
 11
227.5
 21
45.0
 31
0.0
  0
LINE
  5
1F8
330
23
100
AcDbEntity
  8
0
  6
Continuous
 62
     7
370
    25
100
AcDbLine
 10
-227.5
 20
45.0
 30
0.0
 11
-227.5
 21
115.0
 31
0.0
  0
LINE
  5
1F9
330
23
100
AcDbEntity
  8
0
  6
Continuous
 62
     7
370
    25
100
AcDbLine
 10
227.5
 20
40.0
 30
0.0
 11
-222.5
 21
40.0
 31
0.0
  0
LINE
  5
1FA
330
23
100
AcDbEntity
  8
0
  6
Continuous
 62
     7
370
    25
100
AcDbLine
 10
-65.0236038274
 20
35.0
 30
0.0
 11
-65.0236038274
 21
40.0
 31
0.0
  0
LINE
  5
1FB
330
23
100
AcDbEntity
  8
0
  6
Continuous
 62
     7
370
    25
100
AcDbLine
 10
-65.0236038274
 20
35.0
 30
0.0
 11
-71.222893097
 21
36.9096314323
 31
0.0
  0
LINE
  5
1FC
330
23
100
AcDbEntity
  8
0
  6
Continuous
 62
     7
370
    25
100
AcDbLine
 10
227.5
 20
35.0
 30
0.0
 11
-65.0236038274
 21
35.0
 31
0.0
  0
LINE
  5
1FD
330
23
100
AcDbEntity
  8
0
  6
Continuous
 62
     7
370
    25
100
AcDbLine
 10
97.1971314217
 20
-24.9368608745
 30
0.0
 11
98.015633173
 21
-20.0
 31
0.0
  0
LINE
  5
1FE
330
23
100
AcDbEntity
  8
0
  6
Continuous
 62
     7
370
    25
100
AcDbLine
 10
98.015633173
 20
-20.0
 30
0.0
 11
97.8093799038
 21
-25.0
 31
0.0
  0
LINE
  5
1FF
330
23
100
AcDbEntity
  8
0
  6
Continuous
 62
     7
370
    25
100
AcDbLine
 10
-59.7388691577
 20
9.1203629464
 30
0.0
 11
-55.5220980007
 21
12.0080680923
 31
0.0
  0
LINE
  5
200
330
23
100
AcDbEntity
  8
0
  6
Continuous
 62
     7
370
    25
100
AcDbLine
 10
-55.5220980007
 20
12.0080680923
 30
0.0
 11
-57.578539272
 21
7.3292809313
 31
0.0
  0
LINE
  5
201
330
23
100
AcDbEntity
  8
0
  6
Continuous
 62
     7
370
    25
100
AcDbLine
 10
-55.5220980007
 20
12.0080680923
 30
0.0
 11
98.015633173
 21
-20.0
 31
0.0
  0
LINE
  5
202
330
23
100
AcDbEntity
  8
0
  6
Continuous
 62
     7
370
    25
100
AcDbLine
 10
97.1971314217
 20
-24.9368608745
 30
0.0
 11
-57.578539272
 21
7.3292809313
 31
0.0
  0
LINE
  5
203
330
23
100
AcDbEntity
  8
0
  6
Continuous
 62
     7
370
    25
100
AcDbLine
 10
-65.0236038274
 20
35.0
 30
0.0
 11
-55.5220980007
 21
12.0080680923
 31
0.0
  0
LINE
  5
204
330
23
100
AcDbEntity
  8
0
  6
Continuous
 62
     7
370
    25
100
AcDbLine
 10
-59.7388691577
 20
9.1203629464
 30
0.0
 11
-71.222893097
 21
36.9096314323
 31
0.0
  0
LINE
  5
205
330
23
100
AcDbEntity
  8
0
  6
Continuous
 62
     7
370
    25
100
AcDbLine
 10
224.5
 20
-25.0
 30
0.0
 11
224.5
 21
40.0
 31
0.0
  0
LINE
  5
206
330
23
100
AcDbEntity
  8
0
  6
Continuous
 62
     7
370
    25
100
AcDbLine
 10
224.5
 20
-25.0
 30
0.0
 11
97.8093799038
 21
-25.0
 31
0.0
  0
LINE
  5
207
330
23
100
AcDbEntity
  8
0
  6
Continuous
 62
     7
370
    25
100
AcDbLine
 10
98.015633173
 20
-20.0
 30
0.0
 11
227.5
 21
-20.0
 31
0.0
  0
LINE
  5
208
330
23
100
AcDbEntity
  8
0
  6
Continuous
 62
     7
370
    25
100
AcDbLine
 10
227.5
 20
35.0
 30
0.0
 11
227.5
 21
-22.0
 31
0.0
  0
LINE
  5
209
330
23
100
AcDbEntity
  8
0
  6
Continuous
 62
     7
370
    25
100
AcDbLine
 10
33.0748854387
 20
-37.1046984901
 30
0.0
 11
61.7903766024
 21
-37.1046984901
 31
0.0
  0
LINE
  5
20A
330
23
100
AcDbEntity
  8
0
  6
Continuous
 62
     7
370
    25
100
AcDbLine
 10
50.0
 20
-17.8953015099
 30
0.0
 11
32.317693478
 21
-17.8953015099
 31
0.0
  0
LINE
  5
20B
330
23
100
AcDbEntity
  8
0
  6
Continuous
 62
     7
370
    25
100
AcDbLine
 10
-24.5
 20
-50.0
 30
0.0
 11
39.5
 21
-50.0
 31
0.0
  0
LINE
  5
20C
330
23
100
AcDbEntity
  8
0
  6
Continuous
 62
     7
370
    25
100
AcDbLine
 10
32.317693478
 20
-15.0
 30
0.0
 11
32.317693478
 21
-17.8953015099
 31
0.0
  0
LINE
  5
20D
330
23
100
AcDbEntity
  8
0
  6
Continuous
 62
     7
370
    25
100
AcDbLine
 10
61.7903766024
 20
-37.1046984901
 30
0.0
 11
61.7903766024
 21
-40.0
 31
0.0
  0
LINE
  5
20E
330
23
100
AcDbEntity
  8
0
  6
Continuous
 62
     7
370
    25
100
AcDbLine
 10
61.7903766024
 20
-40.0
 30
0.0
 11
38.4059939393
 21
-40.0
 31
0.0
  0
LINE
  5
20F
330
23
100
AcDbEntity
  8
0
  6
Continuous
 62
     8
370
    25
100
AcDbLine
 10
30.3584018876
 20
-18.0
 30
0.0
 11
-27.5
 21
-18.0
 31
0.0
  0
LINE
  5
210
330
23
100
AcDbEntity
  8
0
  6
Continuous
 62
     8
370
    25
100
AcDbLine
 10
42.5
 20
-43.0
 30
0.0
 11
35.9660470493
 21
-43.0
 31
0.0
  0
LINE
  5
211
330
23
100
AcDbEntity
  8
0
  6
Continuous
 62
     8
370
    25
100
AcDbLine
 10
-27.5
 20
-47.0
 30
0.0
 11
42.5
 21
-47.0
 31
0.0
  0
ARC
  5
212
330
23
100
AcDbEntity
  8
0
  6
Continuous
 62
     7
370
    25
100
AcDbCircle
 10
-194.0320374533
 20
37.0000001331
 30
0.0
 40
2.999999866938104
100
AcDbArc
 50
33.1032526083
 51
89.9956812062
  0
ARC
  5
213
330
23
100
AcDbEntity
  8
0
  6
Continuous
 62
     7
370
    25
100
AcDbCircle
 10
-30.5
 20
-18.0
 30
0.0
 40
2.999999999999996
100
AcDbArc
 50
0.0
 51
90.0
  0
ARC
  5
214
330
23
100
AcDbEntity
  8
0
  6
Continuous
 62
     7
370
    25
100
AcDbCircle
 10
-24.5
 20
-47.0
 30
0.0
 40
3.000000000000007
100
AcDbArc
 50
180.0
 51
270.0
  0
ARC
  5
215
330
23
100
AcDbEntity
  8
0
  6
Continuous
 62
     7
370
    25
100
AcDbCircle
 10
39.5
 20
-47.0
 30
0.0
 40
2.999999999999993
100
AcDbArc
 50
270.0
 51
0.0
  0
ARC
  5
216
330
23
100
AcDbEntity
  8
0
  6
Continuous
 62
     7
370
    25
100
AcDbCircle
 10
45.5
 20
-43.0
 30
0.0
 40
3.000000000000014
100
AcDbArc
 50
90.0
 51
180.0
  0
ARC
  5
217
330
23
100
AcDbEntity
  8
0
  6
Continuous
 62
     7
370
    25
100
AcDbCircle
 10
-222.5
 20
115.0
 30
0.0
 40
4.999999999999986
100
AcDbArc
 50
90.0
 51
180.0
  0
ARC
  5
218
330
23
100
AcDbEntity
  8
0
  6
Continuous
 62
     7
370
    25
100
AcDbCircle
 10
-222.5
 20
45.0
 30
0.0
 40
5.000000000000028
100
AcDbArc
 50
180.0
 51
270.0
  0
ARC
  5
219
330
23
100
AcDbEntity
  8
0
  6
Continuous
 62
     7
370
    25
100
AcDbCircle
 10
-75.8438570433
 20
35.0
 30
0.0
 40
5.000000000000028
100
AcDbArc
 50
22.4530524192
 51
90.0
  0
ARC
  5
21A
330
23
100
AcDbEntity
  8
0
  6
Continuous
 62
     7
370
    25
100
AcDbCircle
 10
97.8093799038
 20
-22.0
 30
0.0
 40
2.999999999998447
100
AcDbArc
 50
258.2241860914
 51
270.0
  0
ARC
  5
21B
330
23
100
AcDbEntity
  8
0
  6
Continuous
 62
     7
370
    25
100
AcDbCircle
 10
-56.96629079
 20
10.2661418058
 30
0.0
 40
2.999999999999962
100
AcDbArc
 50
202.4530524192
 51
258.2241860914
  0
ARC
  5
21C
330
23
100
AcDbEntity
  8
0
  6
Continuous
 62
     7
370
    25
100
AcDbCircle
 10
224.5
 20
-22.0
 30
0.0
 40
3.0
100
AcDbArc
 50
270.0
 51
0.0
  0
ARC
  5
21D
330
23
100
AcDbEntity
  8
0
  6
Continuous
 62
     7
370
    25
100
AcDbCircle
 10
-76.0400464558
 20
39.0331193598
 30
0.0
 40
0.9865842376331124
100
AcDbArc
 50
16.2486002148
 51
78.5298588607
  0
ARC
  5
21E
330
23
100
AcDbEntity
  8
0
  6
Continuous
 62
     7
370
    25
100
AcDbCircle
 10
-73.1509392542
 20
35.9294198182
 30
0.0
 40
2.16290933529042
100
AcDbArc
 50
26.9486171879
 51
92.9771586658
  0
ARC
  5
21F
330
23
100
AcDbEntity
  8
0
  6
Continuous
 62
     7
370
    25
100
AcDbCircle
 10
-62.1902260002
 20
8.049185915
 30
0.0
 40
2.675176742110336
100
AcDbArc
 50
23.6040343847
 51
85.1598859787
  0
ARC
  5
220
330
23
100
AcDbEntity
  8
0
  6
Continuous
 62
     7
370
    25
100
AcDbCircle
 10
-25.8770126832
 20
0.04516011
 30
0.0
 40
0.661304729754421
100
AcDbArc
 50
79.7202521544
 51
117.2526700506
  0
ARC
  5
221
330
23
100
AcDbEntity
  8
0
  6
Continuous
 62
     7
370
    25
100
AcDbCircle
 10
34.9718685403
 20
-85.9497264269
 30
0.0
 40
68.10616268773002
100
AcDbArc
 50
92.2334476496
 51
93.8841527623
  0
ARC
  5
222
330
23
100
AcDbEntity
  8
0
  6
Continuous
 62
     7
370
    25
100
AcDbCircle
 10
61.7903766024
 20
37.2122307441
 30
0.0
 40
77.21223074412875
100
AcDbArc
 50
270.0
 51
306.3191604917
  0
ARC
  5
223
330
23
100
AcDbEntity
  8
0
  6
Continuous
 62
     7
370
    25
100
AcDbCircle
 10
35.5264655919
 20
-103.9033143885
 30
0.0
 40
66.84358855705906
100
AcDbArc
 50
92.1018725849
 51
93.8349337659
  0
ARC
  5
224
330
23
100
AcDbEntity
  8
0
  6
Continuous
 62
     7
370
    25
100
AcDbCircle
 10
38.7181584362
 20
-42.7461117355
 30
0.0
 40
2.763797448603639
100
AcDbArc
 50
96.4852642183
 51
185.2707419753
  0
ARC
  5
225
330
23
100
AcDbEntity
  8
0
  6
Continuous
 62
     8
370
    25
100
AcDbCircle
 10
61.7903766024
 20
37.107532254
 30
0.0
 40
74.21223074412843
100
AcDbArc
 50
270.0
 51
303.1867636709
  0
VIEWPORT
  5
37A
330
23
100
AcDbEntity
  8
0
100
AcDbViewport
 10
0.0
 20
0.0
 30
0.0
 40
205.6
 41
156.0
 68
     1
 69
     1
 12
0.0
 22
0.0
 13
0.0
 23
0.0
 14
10.0
 24
10.0
 15
10.0
 25
10.0
 16
0.0
 26
0.0
 36
1.0
 17
0.0
 27
0.0
 37
0.0
 42
50.0
 43
0.0
 44
0.0
 45
564.9688715953
 50
0.0
 51
0.0
 72
   100
 90
   557152
  1

281
     0
 71
     1
 74
     0
110
0.0
120
0.0
130
0.0
111
1.0
121
0.0
131
0.0
112
0.0
122
1.0
132
0.0
 79
     0
146
0.0
  0
ENDBLK
  5
25
330
23
100
AcDbEntity
  8
0
100
AcDbBlockEnd
  0
BLOCK
  5
228
330
226
100
AcDbEntity
  8
0
100
AcDbBlockBegin
  2
*Paper_Space1
 70
     0
 10
0.0
 20
0.0
 30
0.0
  3
*Paper_Space1
  1

  0
SPLINE
  5
22A
330
226
100
AcDbEntity
  8
0
  6
Continuous
 62
     7
370
    25
100
AcDbSpline
210
0.0
220
0.0
230
1.0
 70
     8
 71
     3
 72
    25
 73
    21
 74
     0
 42
0.000000001
 43
0.00000001
 40
0.0
 40
0.0
 40
0.0
 40
0.0
 40
0.0497592980898688
 40
0.1032180385263475
 40
0.1563004396329107
 40
0.206409683356691
 40
0.2550961914918627
 40
0.3046277727309035
 40
0.356396621301538
 40
0.4315851853862904
 40
0.5051342402614744
 40
0.5710014622502598
 40
0.6292759078725024
 40
0.681924385403842
 40
0.7440888519429787
 40
0.8023116591261351
 40
0.8346686065384717
 40
0.8775918115180201
 40
0.9324171091635574
 40
1.0
 40
1.0
 40
1.0
 40
1.0
 10
-207.0840443540282
 20
-4.685215797440856
 30
0.0
 10
-205.7081402416852
 20
-5.016889493670199
 30
0.0
 10
-202.8540380109848
 20
-5.704895749179387
 30
0.0
 10
-198.5528301372256
 20
-6.64742209846654
 30
0.0
 10
-194.2707153109629
 20
-7.537636830818303
 30
0.0
 10
-189.995866841653
 20
-8.38069738617217
 30
0.0
 10
-185.8904190457888
 20
-9.15299966596156
 30
0.0
 10
-182.116347917737
 20
-9.828080034328737
 30
0.0
 10
-177.4144853197015
 20
-10.61083524237876
 30
0.0
 10
-171.8246247413094
 20
-11.46194730859564
 30
0.0
 10
-165.8145878194514
 20
-12.27572814771028
 30
0.0
 10
-160.2824378801998
 20
-12.93622224548951
 30
0.0
 10
-155.3389086592861
 20
-13.4542330511148
 30
0.0
 10
-150.5142343674437
 20
-13.89565568440745
 30
0.0
 10
-145.6744196976653
 20
-14.26920713312288
 30
0.0
 10
-141.4700888759753
 20
-14.5299649900632
 30
0.0
 10
-137.6527103072723
 20
-14.71983511400178
 30
0.0
 10
-133.9939494142341
 20
-14.86057631936544
 30
0.0
 10
-129.4743262164634
 20
-14.97609015403371
 30
0.0
 10
-126.1929277535474
 20
-14.99149488220367
 30
0.0
 10
-124.3812320094936
 20
-15.00000000000001
 30
0.0
  0
SPLINE
  5
22B
330
226
100
AcDbEntity
  8
0
  6
Continuous
 62
     7
370
    25
100
AcDbSpline
210
0.0
220
0.0
230
1.0
 70
     8
 71
     3
 72
    38
 73
    34
 74
     0
 42
0.000000001
 43
0.00000001
 40
0.0
 40
0.0
 40
0.0
 40
0.0
 40
0.0445614655429208
 40
0.0803184368594314
 40
0.1096878813513481
 40
0.1231934505312256
 40
0.1366237090173866
 40
0.1653147276556969
 40
0.1929952454418792
 40
0.2142935657060853
 40
0.2307860237942014
 40
0.2380679620998495
 40
0.2452487826434136
 40
0.2527758862320235
 40
0.2610358272250184
 40
0.2807956493003483
 40
0.3018588022758554
 40
0.3387760904454187
 40
0.3699066661550134
 40
0.3975365310209047
 40
0.4252672828618939
 40
0.4564356312673806
 40
0.4916230538201237
 40
0.5308691775127842
 40
0.6007755055924299
 40
0.6708467860458037
 40
0.7169231529362541
 40
0.7604435318765904
 40
0.8032383078509319
 40
0.8470954550253198
 40
0.8934847231675173
 40
0.9642494907384876
 40
1.0
 40
1.0
 40
1.0
 40
1.0
 10
124.3812320094941
 20
-15.00000000000001
 30
0.0
 10
125.6057704519799
 20
-14.99638836368572
 30
0.0
 10
127.8129019360198
 20
-14.98987868139106
 30
0.0
 10
131.0610956151322
 20
-14.93441655244202
 30
0.0
 10
133.4995784202314
 20
-14.86774343028129
 30
0.0
 10
135.0954716100356
 20
-14.81228237517761
 30
0.0
 10
136.5056891445618
 20
-14.75670344643525
 30
0.0
 10
137.7035390595521
 20
-14.69849904341745
 30
0.0
 10
138.7176491297401
 20
-14.63869741181802
 30
0.0
 10
139.9227943072894
 20
-14.56528997431447
 30
0.0
 10
141.038547221775
 20
-14.49638432955618
 30
0.0
 10
141.9483555144795
 20
-14.44133656901955
 30
0.0
 10
142.6206067684511
 20
-14.40125952748935
 30
0.0
 10
143.3025291722124
 20
-14.36122707543422
 30
0.0
 10
144.2820875019306
 20
-14.3043505847911
 30
0.0
 10
145.3784564116346
 20
-14.24230027463889
 30
0.0
 10
147.0112315811897
 20
-14.14297312787997
 30
0.0
 10
149.0836783589626
 20
-13.99786267987501
 30
0.0
 10
151.616541729531
 20
-13.79198043950448
 30
0.0
 10
154.2308820825546
 20
-13.55438527109014
 30
0.0
 10
156.817821729188
 20
-13.29887568258606
 30
0.0
 10
159.5908061075411
 20
-13.00462949638475
 30
0.0
 10
162.7300612311582
 20
-12.64556721353684
 30
0.0
 10
167.0198152168693
 20
-12.11547109383295
 30
0.0
 10
172.3643978932926
 20
-11.38390420785539
 30
0.0
 10
177.863446678216
 20
-10.53856110290641
 30
0.0
 10
182.367433145858
 20
-9.78372630753173
 30
0.0
 10
185.9203319157062
 20
-9.146714408134839
 30
0.0
 10
189.7449056062441
 20
-8.428225096171332
 30
0.0
 10
193.7259273090569
 20
-7.646361311131812
 30
0.0
 10
198.4284859698918
 20
-6.677297588388684
 30
0.0
 10
202.8999030769616
 20
-5.700792259549385
 30
0.0
 10
206.0332707099526
 20
-4.941189346916842
 30
0.0
 10
207.0849460368557
 20
-4.686238209664947
 30
0.0
  0
SPLINE
  5
23E
330
226
100
AcDbEntity
  8
0
  6
Continuous
 62
     7
370
    25
100
AcDbSpline
210
0.0
220
0.0
230
1.0
 70
     8
 71
     3
 72
    16
 73
    12
 74
     0
 42
0.000000001
 43
0.00000001
 40
0.0
 40
0.0
 40
0.0
 40
0.0
 40
0.1249999999999882
 40
0.1249999999999882
 40
0.1874999999999913
 40
0.1874999999999913
 40
0.2499999999999944
 40
0.2499999999999944
 40
0.4999999999999911
 40
0.4999999999999911
 40
1.0
 40
1.0
 40
1.0
 40
1.0
 10
-299.4161984870956
 20
40.00000000000001
 30
0.0
 10
-299.0236447408163
 20
40.00000000000001
 30
0.0
 10
-298.6377533996671
 20
39.96063694525327
 30
0.0
 10
-298.0677982659296
 20
39.8491161413188
 30
0.0
 10
-297.8793046958083
 20
39.80313055851014
 30
0.0
 10
-297.5052180855391
 20
39.69402238037021
 30
0.0
 10
-297.3190140065728
 20
39.63059350038797
 30
0.0
 10
-296.4114109790253
 20
39.27812766765428
 30
0.0
 10
-295.7462852145871
 20
38.88101831419971
 30
0.0
 10
-293.8972215026432
 20
37.44297388272116
 30
0.0
 10
-292.9480733690966
 20
36.2239554166966
 30
0.0
 10
-292.0
 20
35.00000000000001
 30
0.0
  0
CIRCLE
  5
246
330
226
100
AcDbEntity
  8
0
  6
Continuous
 62
     7
370
    25
100
AcDbCircle
 10
-140.0
 20
60.362217653
 30
0.0
 40
18.49999999999996
  0
CIRCLE
  5
247
330
226
100
AcDbEntity
  8
0
  6
Continuous
 62
     7
370
    25
100
AcDbCircle
 10
140.0
 20
60.362217653
 30
0.0
 40
18.49999999999996
  0
LWPOLYLINE
  5
260
330
226
100
AcDbEntity
  8
0
  6
Continuous
 62
     7
370
    25
100
AcDbPolyline
 90
       10
 70
   128
 43
0.0
 10
360.0
 20
43.0
 10
360.8682408883
 20
43.030384494
 10
361.7101007166
 20
43.1206147584
 10
362.5
 20
43.2679491924
 10
363.2139380484
 20
43.4679111138
 10
363.8302222156
 20
43.7144247806
 10
364.3301270189
 20
44.0
 10
364.6984631039
 20
44.3159597133
 10
364.9240387651
 20
44.6527036447
 10
365.0
 20
45.0
  0
SPLINE
  5
276
330
226
100
AcDbEntity
  8
0
  6
Continuous
 62
     7
370
    25
100
AcDbSpline
210
0.0
220
0.0
230
1.0
 70
     8
 71
     3
 72
    14
 73
    10
 74
     0
 42
0.000000001
 43
0.00000001
 40
0.0
 40
0.0
 40
0.0
 40
0.0
 40
0.2499999999999996
 40
0.2499999999999996
 40
0.4999999999999992
 40
0.4999999999999992
 40
0.7499999999999996
 40
0.7499999999999996
 40
1.0
 40
1.0
 40
1.0
 40
1.0
 10
-28.77641552439501
 20
-15.00000000000001
 30
0.0
 10
-28.39244308895626
 20
-15.00000000000001
 30
0.0
 10
-28.00860878688477
 20
-15.07460983029433
 30
0.0
 10
-27.29658270140978
 20
-15.36228704230497
 30
0.0
 10
-26.96864706806208
 20
-15.57525093268101
 30
0.0
 10
-26.41623375797396
 20
-16.10871026528712
 30
0.0
 10
-26.1919548108912
 20
-16.42901379651757
 30
0.0
 10
-25.87960349204321
 20
-17.13056634502765
 30
0.0
 10
-25.79164348808217
 20
-17.51156298008684
 30
0.0
 10
-25.77824304333772
 20
-17.89530150989251
 30
0.0
  0
SPLINE
  5
277
330
226
100
AcDbEntity
  8
0
  6
Continuous
 62
     7
370
    25
100
AcDbSpline
210
0.0
220
0.0
230
1.0
 70
     8
 71
     3
 72
    14
 73
    10
 74
     0
 42
0.000000001
 43
0.00000001
 40
0.0
 40
0.0
 40
0.0
 40
0.0
 40
0.2499999999999996
 40
0.2499999999999996
 40
0.4999999999999992
 40
0.4999999999999992
 40
0.7499999999999996
 40
0.7499999999999996
 40
1.0
 40
1.0
 40
1.0
 40
1.0
 10
25.77824304333769
 20
-17.89530150989251
 30
0.0
 10
25.79164348808214
 20
-17.51156298008683
 30
0.0
 10
25.87960349204318
 20
-17.13056634502765
 30
0.0
 10
26.19195481089116
 20
-16.42901379651757
 30
0.0
 10
26.41623375797392
 20
-16.10871026528711
 30
0.0
 10
26.96864706806204
 20
-15.575250932681
 30
0.0
 10
27.29658270140973
 20
-15.36228704230497
 30
0.0
 10
28.00860878688473
 20
-15.07460983029433
 30
0.0
 10
28.39244308895621
 20
-15.00000000000001
 30
0.0
 10
28.77641552439495
 20
-15.00000000000001
 30
0.0
  0
SPLINE
  5
279
330
226
100
AcDbEntity
  8
0
  6
Continuous
 62
     7
370
    25
100
AcDbSpline
210
0.0
220
0.0
230
1.0
 70
    24
 71
     3
 72
    21
 73
    17
 74
     0
 42
0.000000001
 43
0.00000001
 40
0.0
 40
0.0
 40
0.0
 40
0.0
 40
0.0153934186553224
 40
0.0911047584531607
 40
0.1668213828074316
 40
0.242617231883032
 40
0.3183285716841864
 40
0.3940451960395289
 40
0.4698410451115731
 40
0.5455523849151817
 40
0.621269009269488
 40
0.6970648583437643
 40
0.772776198146196
 40
0.8484928224993205
 40
0.9242873433982391
 40
1.0
 40
1.0
 40
1.0
 40
1.0
 10
-124.3137154898408
 20
-15.00000000000001
 30
0.0
 10
-124.4044561751945
 20
-15.00000000000001
 30
0.0
 10
-124.9414979075172
 20
-15.00000000000001
 30
0.0
 10
-125.0969044474632
 20
-15.00000000000001
 30
0.0
 10
-124.726933057439
 20
-15.00000000000001
 30
0.0
 10
-123.4317077313148
 20
-15.00000000000001
 30
0.0
 10
-121.3265277192788
 20
-15.00000000000001
 30
0.0
 10
-118.425405078544
 20
-15.00000000000001
 30
0.0
 10
-114.7815738803978
 20
-15.00000000000001
 30
0.0
 10
-110.4560372292554
 20
-15.00000000000001
 30
0.0
 10
-105.5254477533846
 20
-15.00000000000001
 30
0.0
 10
-100.0716571962459
 20
-15.00000000000001
 30
0.0
 10
-94.18859670233489
 20
-15.00000000000001
 30
0.0
 10
-87.97806022047827
 20
-15.00000000000001
 30
0.0
 10
-81.54491037227073
 20
-15.00000000000001
 30
0.0
 10
-77.18085077591256
 20
-15.00000000000001
 30
0.0
 10
-74.99999999999997
 20
-15.00000000000001
 30
0.0
  0
SPLINE
  5
27A
330
226
100
AcDbEntity
  8
0
  6
Continuous
 62
     7
370
    25
100
AcDbSpline
210
0.0
220
0.0
230
1.0
 70
    24
 71
     3
 72
    21
 73
    17
 74
     0
 42
0.000000001
 43
0.00000001
 40
0.0
 40
0.0
 40
0.0
 40
0.0
 40
0.0757153048107895
 40
0.1515124795874118
 40
0.2272238167799525
 40
0.3029404385240782
 40
0.3787362849857984
 40
0.4544476221779519
 40
0.5301642439221166
 40
0.6059600903821187
 40
0.6816714275759364
 40
0.757388049319672
 40
0.833183895781904
 40
0.9088952329739404
 40
0.9846118547188183
 40
0.9999999999999999
 40
0.9999999999999999
 40
0.9999999999999999
 40
0.9999999999999999
 10
75.00000000000001
 20
-15.00000000000001
 30
0.0
 10
77.18092907298727
 20
-15.00000000000001
 30
0.0
 10
81.5451454289582
 20
-15.00000000000001
 30
0.0
 10
87.97827263553138
 20
-15.00000000000001
 30
0.0
 10
94.18887598888102
 20
-15.00000000000001
 30
0.0
 10
100.0719426030902
 20
-15.00000000000001
 30
0.0
 10
105.5256667365483
 20
-15.00000000000001
 30
0.0
 10
110.4562508143639
 20
-15.00000000000001
 30
0.0
 10
114.7817921805202
 20
-15.00000000000001
 30
0.0
 10
118.4255238215281
 20
-15.00000000000001
 30
0.0
 10
121.326643379091
 20
-15.00000000000001
 30
0.0
 10
123.4318249411632
 20
-15.00000000000001
 30
0.0
 10
124.7269346550408
 20
-15.00000000000001
 30
0.0
 10
125.096901050215
 20
-15.00000000000001
 30
0.0
 10
124.9415269493261
 20
-15.00000000000001
 30
0.0
 10
124.4044562283795
 20
-15.00000000000001
 30
0.0
 10
124.3137417405434
 20
-15.00000000000001
 30
0.0
  0
LWPOLYLINE
  5
27C
330
226
100
AcDbEntity
  8
0
  6
Continuous
 62
     7
370
    25
100
AcDbPolyline
 90
        9
 70
   128
 43
0.0
 10
22.1092636383
 20
-40.0
 10
21.7687396886
 20
-40.0576441588
 10
21.4413018833
 20
-40.2283614025
 10
21.1395334737
 20
-40.5055911631
 10
20.8750312504
 20
-40.8786796564
 10
20.6579598857
 20
-41.3332893009
 10
20.4966613103
 20
-41.8519497029
 10
20.397334138
 20
-42.414729034
 10
20.3637954563
 20
-43.0
  0
LWPOLYLINE
  5
27E
330
226
100
AcDbEntity
  8
0
  6
Continuous
 62
     7
370
    25
100
AcDbPolyline
 90
        9
 70
   128
 43
0.0
 10
-20.3637954563
 20
-43.0
 10
-20.397334138
 20
-42.414729034
 10
-20.4966613103
 20
-41.8519497029
 10
-20.6579598857
 20
-41.3332893009
 10
-20.8750312504
 20
-40.8786796564
 10
-21.1395334737
 20
-40.5055911631
 10
-21.4413018833
 20
-40.2283614025
 10
-21.7687396886
 20
-40.0576441588
 10
-22.1092636383
 20
-40.0
  0
SPLINE
  5
280
330
226
100
AcDbEntity
  8
0
  6
Continuous
 62
     7
370
    25
100
AcDbSpline
210
0.0
220
0.0
230
1.0
 70
     8
 71
     3
 72
    24
 73
    20
 74
     0
 42
0.000000001
 43
0.00000001
 40
0.0
 40
0.0
 40
0.0
 40
0.0
 40
0.062499999999999
 40
0.062499999999999
 40
0.1249999999999981
 40
0.1249999999999981
 40
0.2499999999999982
 40
0.2499999999999982
 40
0.3749999999999984
 40
0.3749999999999984
 40
0.4999999999999986
 40
0.4999999999999986
 40
0.6249999999999987
 40
0.6249999999999987
 40
0.6874999999999994
 40
0.6874999999999994
 40
0.7500000000000001
 40
0.7500000000000001
 40
1.0
 40
1.0
 40
1.0
 40
1.0
 10
-25.88674476350186
 20
-37.20939698021501
 30
0.0
 10
-25.87977940328793
 20
-37.4259555268758
 30
0.0
 10
-25.86210815908614
 20
-37.64006845547902
 30
0.0
 10
-25.80615527276678
 20
-38.06362091183095
 30
0.0
 10
-25.76761188689814
 20
-38.27364653033371
 30
0.0
 10
-25.62517171491873
 20
-38.88269287830715
 30
0.0
 10
-25.4937930070693
 20
-39.26726797786487
 30
0.0
 10
-25.16869611676366
 20
-39.99127373325786
 30
0.0
 10
-24.97952158116007
 20
-40.32148227256624
 30
0.0
 10
-24.5542056747151
 20
-40.93029494204102
 30
0.0
 10
-24.31599170584341
 20
-41.20997322428821
 30
0.0
 10
-23.81102761874394
 20
-41.70407324913059
 30
0.0
 10
-23.54268588091642
 20
-41.92131261195464
 30
0.0
 10
-23.11631577521732
 20
-42.20595576061694
 30
0.0
 10
-22.9701896851986
 20
-42.29390342623147
 30
0.0
 10
-22.66961119075252
 20
-42.45581167545983
 30
0.0
 10
-22.51445407231422
 20
-42.53002883225365
 30
0.0
 10
-21.72892321362407
 20
-42.85989978867541
 30
0.0
 10
-21.06619928235555
 20
-43.00000000000001
 30
0.0
 10
-20.36379545629106
 20
-43.00000000000001
 30
0.0
  0
SPLINE
  5
281
330
226
100
AcDbEntity
  8
0
  6
Continuous
 62
     7
370
    25
100
AcDbSpline
210
0.0
220
0.0
230
1.0
 70
     8
 71
     3
 72
    24
 73
    20
 74
     0
 42
0.000000001
 43
0.00000001
 40
0.0
 40
0.0
 40
0.0
 40
0.0
 40
0.1249999999999994
 40
0.1249999999999994
 40
0.2499999999999989
 40
0.2499999999999989
 40
0.3749999999999983
 40
0.3749999999999983
 40
0.4999999999999978
 40
0.4999999999999978
 40
0.6249999999999972
 40
0.6249999999999972
 40
0.7499999999999967
 40
0.7499999999999967
 40
0.8124999999999968
 40
0.8124999999999968
 40
0.874999999999997
 40
0.874999999999997
 40
1.0
 40
1.0
 40
1.0
 40
1.0
 10
20.36379545629103
 20
-43.00000000000001
 30
0.0
 10
20.71462190057092
 20
-43.00000000000001
 30
0.0
 10
21.05744569532097
 20
-42.96407060156091
 30
0.0
 10
21.72809971482598
 20
-42.82608111112263
 30
0.0
 10
22.05590424627343
 20
-42.72332842784292
 30
0.0
 10
22.67868846457723
 20
-42.46029824960134
 30
0.0
 10
22.97632283383652
 20
-42.29963391216597
 30
0.0
 10
23.54542512374436
 20
-41.9192626509391
 30
0.0
 10
23.81917248861942
 20
-41.69713880817532
 30
0.0
 10
24.32516833794435
 20
-41.19992280766743
 30
0.0
 10
24.55802547179767
 20
-40.92540615363868
 30
0.0
 10
24.98187371422162
 20
-40.31752784757683
 30
0.0
 10
25.1740681206451
 20
-39.98066812181911
 30
0.0
 10
25.41529512593952
 20
-39.44138403997285
 30
0.0
 10
25.48827841675434
 20
-39.2554620664653
 30
0.0
 10
25.61827597619444
 20
-38.86993533467361
 30
0.0
 10
25.67541456303914
 20
-38.66931227977366
 30
0.0
 10
25.81667255317285
 20
-38.06086500876858
 30
0.0
 10
25.87281724452302
 20
-37.64241453795925
 30
0.0
 10
25.88674476350183
 20
-37.209396980215
 30
0.0
  0
SPLINE
  5
28C
330
226
100
AcDbEntity
  8
0
  6
Continuous
 62
     8
370
    25
100
AcDbSpline
210
0.0
220
0.0
230
1.0
 70
     8
 71
     3
 72
    21
 73
    17
 74
     0
 42
0.000000001
 43
0.00000001
 40
0.0
 40
0.0
 40
0.0
 40
0.0
 40
0.074079965583713
 40
0.148697407465898
 40
0.224977303306606
 40
0.3018169832662095
 40
0.376008583698734
 40
0.4506963805342681
 40
0.5269297687701343
 40
0.6036899949827672
 40
0.6797757163610493
 40
0.7563802395880994
 40
0.8346195096018127
 40
0.9134239433357985
 40
0.9864147161958701
 40
1.0
 40
1.0
 40
1.0
 40
1.0
 10
-28.77641552439502
 20
-15.00000000000001
 30
0.0
 10
-28.77743990947419
 20
-14.95729369623912
 30
0.0
 10
-28.77949611190785
 20
-14.8715712394094
 30
0.0
 10
-28.79773541544121
 20
-14.1785054066254
 30
0.0
 10
-28.8290112633076
 20
-13.06489338566089
 30
0.0
 10
-28.8748647444803
 20
-11.50716854178978
 30
0.0
 10
-28.93476682221694
 20
-9.549633370253469
 30
0.0
 10
-29.00873886867966
 20
-7.206688717174129
 30
0.0
 10
-29.09794376427145
 20
-4.455534319966752
 30
0.0
 10
-29.20201215426725
 20
-1.318750024476345
 30
0.0
 10
-29.31999118027658
 20
2.169170564502033
 30
0.0
 10
-29.45201749102964
 20
6.004714382039245
 30
0.0
 10
-29.59809021932308
 20
10.1863140157032
 30
0.0
 10
-29.7542858168749
 20
14.59696922771941
 30
0.0
 10
-29.87185632507575
 20
17.89245062251626
 30
0.0
 10
-29.93758416489555
 20
19.71414463613946
 30
0.0
 10
-29.94789800214096
 20
20.0
 30
0.0
  0
SPLINE
  5
28D
330
226
100
AcDbEntity
  8
0
  6
Continuous
 62
     8
370
    25
100
AcDbSpline
210
0.0
220
0.0
230
1.0
 70
     8
 71
     3
 72
    21
 73
    17
 74
     0
 42
0.000000001
 43
0.00000001
 40
0.0
 40
0.0
 40
0.0
 40
0.0
 40
0.0107903492658317
 40
0.0866040950301105
 40
0.1626866712774612
 40
0.2392890221595791
 40
0.3175267824114338
 40
0.3963285948109962
 40
0.4705298396079913
 40
0.5452154098050994
 40
0.621436039783381
 40
0.6981923417451015
 40
0.7722986405625182
 40
0.8474610681703281
 40
0.9231664312578486
 40
1.0
 40
1.0
 40
1.0
 40
1.0
 10
29.94788324629361
 20
19.99999999999999
 30
0.0
 10
29.93967684695346
 20
19.7726216006244
 30
0.0
 10
29.87381171406484
 20
17.9476667245415
 30
0.0
 10
29.75818140166712
 20
14.70632570281674
 30
0.0
 10
29.60281546857976
 20
10.32015039965438
 30
0.0
 10
29.45790992193788
 20
6.174486861102026
 30
0.0
 10
29.32371658337116
 20
2.278931852846798
 30
0.0
 10
29.20456342152658
 20
-1.242626774882877
 30
0.0
 10
29.10089831382528
 20
-4.366110054072308
 30
0.0
 10
29.01208064258574
 20
-7.102326260298803
 30
0.0
 10
28.93662439064504
 20
-9.489284525401764
 30
0.0
 10
28.87610973991476
 20
-11.46582786719898
 30
0.0
 10
28.83025468846443
 20
-13.02219077742748
 30
0.0
 10
28.79875380976742
 20
-14.14108351806639
 30
0.0
 10
28.77970094779087
 20
-14.86306966194047
 30
0.0
 10
28.77751605215528
 20
-14.95413204932608
 30
0.0
 10
28.77641552439495
 20
-15.00000000000001
 30
0.0
  0
LINE
  5
291
330
226
100
AcDbEntity
  8
0
  6
Continuous
 62
     7
370
    25
100
AcDbLine
 10
-35.0
 20
-18.0
 30
0.0
 11
-35.0
 21
-47.0
 31
0.0
  0
LINE
  5
292
330
226
100
AcDbEntity
  8
0
  6
Continuous
 62
     7
370
    25
100
AcDbLine
 10
35.0
 20
-47.0
 30
0.0
 11
35.0
 21
-18.0
 31
0.0
  0
LINE
  5
293
330
226
100
AcDbEntity
  8
0
  6
Continuous
 62
     7
370
    25
100
AcDbLine
 10
295.0
 20
35.0
 30
0.0
 11
292.0
 21
43.0
 31
0.0
  0
LINE
  5
294
330
226
100
AcDbEntity
  8
0
  6
Continuous
 62
     7
370
    25
100
AcDbLine
 10
292.0
 20
43.0
 30
0.0
 11
300.0
 21
40.0
 31
0.0
  0
LINE
  5
295
330
226
100
AcDbEntity
  8
0
  6
Continuous
 62
     7
370
    25
100
AcDbLine
 10
292.0
 20
-20.0
 30
0.0
 11
292.0
 21
43.0
 31
0.0
  0
LINE
  5
296
330
226
100
AcDbEntity
  8
0
  6
Continuous
 62
     7
370
    25
100
AcDbLine
 10
226.3542486889
 20
-22.0
 30
0.0
 11
290.0
 21
-22.0
 31
0.0
  0
LINE
  5
297
330
226
100
AcDbEntity
  8
0
  6
Continuous
 62
     7
370
    25
100
AcDbLine
 10
186.667979023
 20
23.0
 30
0.0
 11
226.3542486889
 21
-22.0
 31
0.0
  0
LINE
  5
298
330
226
100
AcDbEntity
  8
0
  6
Continuous
 62
     7
370
    25
100
AcDbLine
 10
-186.667979023
 20
23.0
 30
0.0
 11
186.667979023
 21
23.0
 31
0.0
  0
LINE
  5
299
330
226
100
AcDbEntity
  8
0
  6
Continuous
 62
     7
370
    25
100
AcDbLine
 10
-226.3542486889
 20
-22.0
 30
0.0
 11
-186.667979023
 21
23.0
 31
0.0
  0
LINE
  5
29A
330
226
100
AcDbEntity
  8
0
  6
Continuous
 62
     7
370
    25
100
AcDbLine
 10
-290.0
 20
-22.0
 30
0.0
 11
-226.3542486889
 21
-22.0
 31
0.0
  0
LINE
  5
29B
330
226
100
AcDbEntity
  8
0
  6
Continuous
 62
     7
370
    25
100
AcDbLine
 10
-292.0
 20
35.0
 30
0.0
 11
-292.0
 21
-20.0
 31
0.0
  0
LINE
  5
29C
330
226
100
AcDbEntity
  8
0
  6
Continuous
 62
     7
370
    25
100
AcDbLine
 10
-360.0
 20
40.0
 30
0.0
 11
-299.4161984871
 21
40.0
 31
0.0
  0
LINE
  5
29D
330
226
100
AcDbEntity
  8
0
  6
Continuous
 62
     7
370
    25
100
AcDbLine
 10
-365.0
 20
115.0
 30
0.0
 11
-365.0
 21
45.0
 31
0.0
  0
LINE
  5
29E
330
226
100
AcDbEntity
  8
0
  6
Continuous
 62
     7
370
    25
100
AcDbLine
 10
-360.0
 20
120.0
 30
0.0
 11
360.0
 21
120.0
 31
0.0
  0
LINE
  5
29F
330
226
100
AcDbEntity
  8
0
  6
Continuous
 62
     7
370
    25
100
AcDbLine
 10
360.0
 20
40.0
 30
0.0
 11
360.0
 21
120.0
 31
0.0
  0
LINE
  5
2A0
330
226
100
AcDbEntity
  8
0
  6
Continuous
 62
     7
370
    25
100
AcDbLine
 10
292.0
 20
43.0
 30
0.0
 11
360.0
 21
43.0
 31
0.0
  0
LINE
  5
2A1
330
226
100
AcDbEntity
  8
0
  6
Continuous
 62
     7
370
    25
100
AcDbLine
 10
-295.0
 20
-20.0
 30
0.0
 11
-292.0
 21
-20.0
 31
0.0
  0
LINE
  5
2A2
330
226
100
AcDbEntity
  8
0
  6
Continuous
 62
     7
370
    25
100
AcDbLine
 10
-290.0
 20
-22.0
 30
0.0
 11
-290.0
 21
-25.0
 31
0.0
  0
LINE
  5
2A3
330
226
100
AcDbEntity
  8
0
  6
Continuous
 62
     7
370
    25
100
AcDbLine
 10
171.7712434447
 20
20.0
 30
0.0
 11
186.667979023
 21
23.0
 31
0.0
  0
LINE
  5
2A4
330
226
100
AcDbEntity
  8
0
  6
Continuous
 62
     7
370
    25
100
AcDbLine
 10
186.667979023
 20
23.0
 30
0.0
 11
194.2712434447
 21
9.843134833
 31
0.0
  0
LINE
  5
2A5
330
226
100
AcDbEntity
  8
0
  6
Continuous
 62
     7
370
    25
100
AcDbLine
 10
360.0
 20
40.0
 30
0.0
 11
300.0
 21
40.0
 31
0.0
  0
LINE
  5
2A6
330
226
100
AcDbEntity
  8
0
  6
Continuous
 62
     7
370
    25
100
AcDbLine
 10
290.0
 20
-25.0
 30
0.0
 11
290.0
 21
-22.0
 31
0.0
  0
LINE
  5
2A7
330
226
100
AcDbEntity
  8
0
  6
Continuous
 62
     7
370
    25
100
AcDbLine
 10
292.0
 20
-20.0
 30
0.0
 11
295.0
 21
-20.0
 31
0.0
  0
LINE
  5
2A8
330
226
100
AcDbEntity
  8
0
  6
Continuous
 62
     7
370
    25
100
AcDbLine
 10
-292.0
 20
35.0
 30
0.0
 11
-295.0
 21
35.0
 31
0.0
  0
LINE
  5
2A9
330
226
100
AcDbEntity
  8
0
  6
Continuous
 62
     7
370
    25
100
AcDbLine
 10
224.1042486889
 20
-23.9843134833
 30
0.0
 11
226.3542486889
 21
-22.0
 31
0.0
  0
LINE
  5
2AA
330
226
100
AcDbEntity
  8
0
  6
Continuous
 62
     7
370
    25
100
AcDbLine
 10
224.1042486889
 20
-23.9843134833
 30
0.0
 11
194.2712434447
 21
9.843134833
 31
0.0
  0
LINE
  5
2AB
330
226
100
AcDbEntity
  8
0
  6
Continuous
 62
     7
370
    25
100
AcDbLine
 10
-186.667979023
 20
23.0
 30
0.0
 11
-171.7712434447
 21
20.0
 31
0.0
  0
LINE
  5
2AC
330
226
100
AcDbEntity
  8
0
  6
Continuous
 62
     7
370
    25
100
AcDbLine
 10
171.7712434447
 20
20.0
 30
0.0
 11
-171.7712434447
 21
20.0
 31
0.0
  0
LINE
  5
2AD
330
226
100
AcDbEntity
  8
0
  6
Continuous
 62
     7
370
    25
100
AcDbLine
 10
-194.2712434447
 20
9.843134833
 30
0.0
 11
-186.667979023
 21
23.0
 31
0.0
  0
LINE
  5
2AE
330
226
100
AcDbEntity
  8
0
  6
Continuous
 62
     7
370
    25
100
AcDbLine
 10
-194.2712434447
 20
9.843134833
 30
0.0
 11
-224.1042486889
 21
-23.9843134833
 31
0.0
  0
LINE
  5
2AF
330
226
100
AcDbEntity
  8
0
  6
Continuous
 62
     7
370
    25
100
AcDbLine
 10
-226.3542486889
 20
-22.0
 30
0.0
 11
-224.1042486889
 21
-23.9843134833
 31
0.0
  0
LINE
  5
2B0
330
226
100
AcDbEntity
  8
0
  6
Continuous
 62
     7
370
    25
100
AcDbLine
 10
-226.3542486889
 20
-25.0
 30
0.0
 11
-226.3542486889
 21
-22.0
 31
0.0
  0
LINE
  5
2B1
330
226
100
AcDbEntity
  8
0
  6
Continuous
 62
     7
370
    25
100
AcDbLine
 10
-226.3542486889
 20
-25.0
 30
0.0
 11
-290.0
 21
-25.0
 31
0.0
  0
LINE
  5
2B2
330
226
100
AcDbEntity
  8
0
  6
Continuous
 62
     7
370
    25
100
AcDbLine
 10
-295.0
 20
-20.0
 30
0.0
 11
-295.0
 21
35.0
 31
0.0
  0
LINE
  5
2B3
330
226
100
AcDbEntity
  8
0
  6
Continuous
 62
     7
370
    25
100
AcDbLine
 10
365.0
 20
115.0
 30
0.0
 11
365.0
 21
45.0
 31
0.0
  0
LINE
  5
2B4
330
226
100
AcDbEntity
  8
0
  6
Continuous
 62
     7
370
    25
100
AcDbLine
 10
290.0
 20
-25.0
 30
0.0
 11
226.3542486889
 21
-25.0
 31
0.0
  0
LINE
  5
2B5
330
226
100
AcDbEntity
  8
0
  6
Continuous
 62
     7
370
    25
100
AcDbLine
 10
226.3542486889
 20
-22.0
 30
0.0
 11
226.3542486889
 21
-25.0
 31
0.0
  0
LINE
  5
2B6
330
226
100
AcDbEntity
  8
0
  6
Continuous
 62
     7
370
    25
100
AcDbLine
 10
295.0
 20
35.0
 30
0.0
 11
295.0
 21
-20.0
 31
0.0
  0
LINE
  5
2B7
330
226
100
AcDbEntity
  8
0
  6
Continuous
 62
     7
370
    25
100
AcDbLine
 10
145.75
 20
50.0
 30
0.0
 11
134.25
 21
50.0
 31
0.0
  0
LINE
  5
2B8
330
226
100
AcDbEntity
  8
0
  6
Continuous
 62
     7
370
    25
100
AcDbLine
 10
134.25
 20
70.0
 30
0.0
 11
145.75
 21
70.0
 31
0.0
  0
LINE
  5
2B9
330
226
100
AcDbEntity
  8
0
  6
Continuous
 62
     7
370
    25
100
AcDbLine
 10
-145.75
 20
70.0
 30
0.0
 11
-134.25
 21
70.0
 31
0.0
  0
LINE
  5
2BA
330
226
100
AcDbEntity
  8
0
  6
Continuous
 62
     7
370
    25
100
AcDbLine
 10
-134.25
 20
50.0
 30
0.0
 11
-145.75
 21
50.0
 31
0.0
  0
LINE
  5
2BB
330
226
100
AcDbEntity
  8
0
  6
Continuous
 62
     7
370
    25
100
AcDbLine
 10
27.1015761322
 20
20.0
 30
0.0
 11
25.1074361193
 21
-37.1046984901
 31
0.0
  0
LINE
  5
2BC
330
226
100
AcDbEntity
  8
0
  6
Continuous
 62
     7
370
    25
100
AcDbLine
 10
22.1092636383
 20
-40.0
 30
0.0
 11
-22.1092636383
 21
-40.0
 31
0.0
  0
LINE
  5
2BD
330
226
100
AcDbEntity
  8
0
  6
Continuous
 62
     7
370
    25
100
AcDbLine
 10
-25.1074361193
 20
-37.1046984901
 30
0.0
 11
-27.1015761322
 21
20.0
 31
0.0
  0
LINE
  5
2BE
330
226
100
AcDbEntity
  8
0
  6
Continuous
 62
     7
370
    25
100
AcDbLine
 10
-75.0
 20
-15.0
 30
0.0
 11
-28.7764155244
 21
-15.0
 31
0.0
  0
LINE
  5
2BF
330
226
100
AcDbEntity
  8
0
  6
Continuous
 62
     7
370
    25
100
AcDbLine
 10
28.7764155244
 20
-15.0
 30
0.0
 11
75.0
 21
-15.0
 31
0.0
  0
LINE
  5
2C0
330
226
100
AcDbEntity
  8
0
  6
Continuous
 62
     7
370
    25
100
AcDbLine
 10
20.3637954563
 20
-43.0
 30
0.0
 11
-20.3637954563
 21
-43.0
 31
0.0
  0
LINE
  5
2C1
330
226
100
AcDbEntity
  8
0
  6
Continuous
 62
     7
370
    25
100
AcDbLine
 10
-25.8867447635
 20
-37.2093969802
 30
0.0
 11
-26.5045932462
 21
-18.0
 31
0.0
  0
LINE
  5
2C2
330
226
100
AcDbEntity
  8
0
  6
Continuous
 62
     7
370
    25
100
AcDbLine
 10
26.5045932462
 20
-18.0
 30
0.0
 11
25.8867447635
 21
-37.2093969802
 31
0.0
  0
LINE
  5
2C3
330
226
100
AcDbEntity
  8
0
  6
Continuous
 62
     7
370
    25
100
AcDbLine
 10
32.0
 20
-50.0
 30
0.0
 11
-32.0
 21
-50.0
 31
0.0
  0
LINE
  5
2C4
330
226
100
AcDbEntity
  8
0
  6
Continuous
 62
     8
370
    25
100
AcDbLine
 10
22.1092636383
 20
-40.0
 30
0.0
 11
24.123101222
 21
20.0
 31
0.0
  0
LINE
  5
2C5
330
226
100
AcDbEntity
  8
0
  6
Continuous
 62
     8
370
    25
100
AcDbLine
 10
-24.123101222
 20
20.0
 30
0.0
 11
-22.1092636383
 21
-40.0
 31
0.0
  0
LINE
  5
2C6
330
226
100
AcDbEntity
  8
0
  6
Continuous
 62
     8
370
    25
100
AcDbLine
 10
-26.5045932462
 20
-18.0
 30
0.0
 11
-35.0
 21
-18.0
 31
0.0
  0
LINE
  5
2C7
330
226
100
AcDbEntity
  8
0
  6
Continuous
 62
     8
370
    25
100
AcDbLine
 10
35.0
 20
-18.0
 30
0.0
 11
26.5045932462
 21
-18.0
 31
0.0
  0
LINE
  5
2C8
330
226
100
AcDbEntity
  8
0
  6
Continuous
 62
     8
370
    25
100
AcDbLine
 10
-35.0
 20
-47.0
 30
0.0
 11
35.0
 21
-47.0
 31
0.0
  0
ARC
  5
2C9
330
226
100
AcDbEntity
  8
0
  6
Continuous
 62
     7
370
    25
100
AcDbCircle
 10
-32.0
 20
-47.0
 30
0.0
 40
2.999999999999986
100
AcDbArc
 50
180.0
 51
270.0
  0
ARC
  5
2CA
330
226
100
AcDbEntity
  8
0
  6
Continuous
 62
     7
370
    25
100
AcDbCircle
 10
32.0
 20
-47.0
 30
0.0
 40
2.999999999999986
100
AcDbArc
 50
270.0
 51
0.0
  0
ARC
  5
2CB
330
226
100
AcDbEntity
  8
0
  6
Continuous
 62
     7
370
    25
100
AcDbCircle
 10
-38.0
 20
-18.0
 30
0.0
 40
3.000000000000014
100
AcDbArc
 50
0.0
 51
90.0
  0
ARC
  5
2CC
330
226
100
AcDbEntity
  8
0
  6
Continuous
 62
     7
370
    25
100
AcDbCircle
 10
38.0
 20
-18.0
 30
0.0
 40
3.0
100
AcDbArc
 50
90.0
 51
180.0
  0
ARC
  5
2CD
330
226
100
AcDbEntity
  8
0
  6
Continuous
 62
     7
370
    25
100
AcDbCircle
 10
300.0
 20
35.0
 30
0.0
 40
5.0
100
AcDbArc
 50
90.0
 51
180.0
  0
ARC
  5
2CE
330
226
100
AcDbEntity
  8
0
  6
Continuous
 62
     7
370
    25
100
AcDbCircle
 10
290.0
 20
-20.0
 30
0.0
 40
2.000000000000174
100
AcDbArc
 50
270.0
 51
360.0
  0
ARC
  5
2CF
330
226
100
AcDbEntity
  8
0
  6
Continuous
 62
     7
370
    25
100
AcDbCircle
 10
-290.0
 20
-20.0
 30
0.0
 40
2.000000000000117
100
AcDbArc
 50
180.0
 51
270.0
  0
ARC
  5
2D0
330
226
100
AcDbEntity
  8
0
  6
Continuous
 62
     7
370
    25
100
AcDbCircle
 10
-360.0
 20
45.0
 30
0.0
 40
5.000000000000021
100
AcDbArc
 50
180.0
 51
270.0
  0
ARC
  5
2D1
330
226
100
AcDbEntity
  8
0
  6
Continuous
 62
     7
370
    25
100
AcDbCircle
 10
-360.0
 20
115.0
 30
0.0
 40
5.000000000000114
100
AcDbArc
 50
90.0
 51
180.0
  0
ARC
  5
2D2
330
226
100
AcDbEntity
  8
0
  6
Continuous
 62
     7
370
    25
100
AcDbCircle
 10
-290.0
 20
-20.0
 30
0.0
 40
5.0
100
AcDbArc
 50
180.0
 51
270.0
  0
ARC
  5
2D3
330
226
100
AcDbEntity
  8
0
  6
Continuous
 62
     7
370
    25
100
AcDbCircle
 10
171.7712434447
 20
-10.0
 30
0.0
 40
29.99999999999993
100
AcDbArc
 50
41.4096221093
 51
90.0
  0
ARC
  5
2D4
330
226
100
AcDbEntity
  8
0
  6
Continuous
 62
     7
370
    25
100
AcDbCircle
 10
290.0
 20
-20.0
 30
0.0
 40
5.000000000000018
100
AcDbArc
 50
270.0
 51
0.0
  0
ARC
  5
2D5
330
226
100
AcDbEntity
  8
0
  6
Continuous
 62
     7
370
    25
100
AcDbCircle
 10
-300.0
 20
35.0
 30
0.0
 40
5.0
100
AcDbArc
 50
0.0
 51
90.0
  0
ARC
  5
2D6
330
226
100
AcDbEntity
  8
0
  6
Continuous
 62
     7
370
    25
100
AcDbCircle
 10
360.0
 20
115.0
 30
0.0
 40
5.0
100
AcDbArc
 50
0.0
 51
90.0
  0
ARC
  5
2D7
330
226
100
AcDbEntity
  8
0
  6
Continuous
 62
     7
370
    25
100
AcDbCircle
 10
226.3542486889
 20
-22.0
 30
0.0
 40
2.999999999999979
100
AcDbArc
 50
221.4096221093
 51
270.0
  0
ARC
  5
2D8
330
226
100
AcDbEntity
  8
0
  6
Continuous
 62
     7
370
    25
100
AcDbCircle
 10
360.0
 20
45.0
 30
0.0
 40
5.000000000000014
100
AcDbArc
 50
270.0
 51
0.0
  0
ARC
  5
2D9
330
226
100
AcDbEntity
  8
0
  6
Continuous
 62
     7
370
    25
100
AcDbCircle
 10
-226.3542486889
 20
-22.0
 30
0.0
 40
2.999999999999954
100
AcDbArc
 50
270.0
 51
318.5903778907
  0
ARC
  5
2DA
330
226
100
AcDbEntity
  8
0
  6
Continuous
 62
     7
370
    25
100
AcDbCircle
 10
-171.7712434447
 20
-10.0
 30
0.0
 40
29.99999999999994
100
AcDbArc
 50
90.0
 51
138.5903778907
  0
ARC
  5
2DB
330
226
100
AcDbEntity
  8
0
  6
Continuous
 62
     7
370
    25
100
AcDbCircle
 10
134.25
 20
60.0
 30
0.0
 40
9.999999999999929
100
AcDbArc
 50
90.0
 51
270.0
  0
ARC
  5
2DC
330
226
100
AcDbEntity
  8
0
  6
Continuous
 62
     7
370
    25
100
AcDbCircle
 10
145.75
 20
60.0
 30
0.0
 40
9.999999999999915
100
AcDbArc
 50
270.0
 51
90.0
  0
ARC
  5
2DD
330
226
100
AcDbEntity
  8
0
  6
Continuous
 62
     7
370
    25
100
AcDbCircle
 10
-145.75
 20
60.0
 30
0.0
 40
9.999999999999929
100
AcDbArc
 50
90.0
 51
270.0
  0
ARC
  5
2DE
330
226
100
AcDbEntity
  8
0
  6
Continuous
 62
     7
370
    25
100
AcDbCircle
 10
-134.25
 20
60.0
 30
0.0
 40
9.999999999999915
100
AcDbArc
 50
270.0
 51
90.0
  0
ARC
  5
2DF
330
226
100
AcDbEntity
  8
0
  6
Continuous
 62
     7
370
    25
100
AcDbCircle
 10
22.1092636383
 20
-37.0
 30
0.0
 40
3.000000000000007
100
AcDbArc
 50
270.0
 51
358.0
  0
ARC
  5
2E0
330
226
100
AcDbEntity
  8
0
  6
Continuous
 62
     7
370
    25
100
AcDbCircle
 10
-22.1092636383
 20
-37.0
 30
0.0
 40
3.000000000000021
100
AcDbArc
 50
182.0
 51
270.0
  0
ARC
  5
2E1
330
226
100
AcDbEntity
  8
0
  6
Continuous
 62
     7
370
    25
100
AcDbCircle
 10
-25.8832228907
 20
-34.2829245721
 30
0.0
 40
2.926474527355229
100
AcDbArc
 50
269.9310472405
 51
285.3724557875
  0
ARC
  5
2E2
330
226
100
AcDbEntity
  8
0
  6
Continuous
 62
     7
370
    25
100
AcDbCircle
 10
25.8832228907
 20
-34.2829245721
 30
0.0
 40
2.926474527355828
100
AcDbArc
 50
254.6275442125
 51
270.0689527595
  0
ARC
  5
2E3
330
226
100
AcDbEntity
  8
0
  6
Continuous
 62
     7
370
    25
100
AcDbCircle
 10
26.4962942108
 20
-15.4856830393
 30
0.0
 40
2.514330656986812
100
AcDbArc
 50
253.4062739873
 51
270.1891161628
  0
ARC
  5
2E4
330
226
100
AcDbEntity
  8
0
  6
Continuous
 62
     7
370
    25
100
AcDbCircle
 10
-26.4962942108
 20
-15.4856830393
 30
0.0
 40
2.514330656986212
100
AcDbArc
 50
269.8108838372
 51
286.5937260127
  0
ARC
  5
2E5
330
226
100
AcDbEntity
  8
0
  6
Continuous
 62
     7
370
    25
100
AcDbCircle
 10
-29.1988543275
 20
-17.6800980387
 30
0.0
 40
2.713186325922188
100
AcDbArc
 50
353.2287111787
 51
81.0426958912
  0
ARC
  5
2E6
330
226
100
AcDbEntity
  8
0
  6
Continuous
 62
     7
370
    25
100
AcDbCircle
 10
29.1988543275
 20
-17.6800980387
 30
0.0
 40
2.71318632592218
100
AcDbArc
 50
98.9573041088
 51
186.7712888213
  0
VIEWPORT
  5
37C
330
226
100
AcDbEntity
  8
0
100
AcDbViewport
 10
0.0
 20
0.0
 30
0.0
 40
205.6
 41
156.0
 68
     1
 69
     1
 12
0.0
 22
0.0
 13
0.0
 23
0.0
 14
10.0
 24
10.0
 15
10.0
 25
10.0
 16
0.0
 26
0.0
 36
1.0
 17
0.0
 27
0.0
 37
0.0
 42
50.0
 43
0.0
 44
0.0
 45
564.9688715953
 50
0.0
 51
0.0
 72
   100
 90
   557152
  1

281
     0
 71
     1
 74
     0
110
0.0
120
0.0
130
0.0
111
1.0
121
0.0
131
0.0
112
0.0
122
1.0
132
0.0
 79
     0
146
0.0
  0
ENDBLK
  5
229
330
226
100
AcDbEntity
  8
0
100
AcDbBlockEnd
  0
BLOCK
  5
2E9
330
2E7
100
AcDbEntity
  8
0
100
AcDbBlockBegin
  2
*Paper_Space2
 70
     0
 10
0.0
 20
0.0
 30
0.0
  3
*Paper_Space2
  1

  0
SPLINE
  5
2EB
330
2E7
100
AcDbEntity
  8
0
  6
Continuous
 62
     7
370
    25
100
AcDbSpline
210
0.0
220
0.0
230
1.0
 70
     8
 71
     3
 72
    55
 73
    51
 74
     0
 42
0.000000001
 43
0.00000001
 40
0.0
 40
0.0
 40
0.0
 40
0.0
 40
0.0065714601518954
 40
0.0281928292113751
 40
0.0496395439195417
 40
0.0707549644291419
 40
0.091782534595763
 40
0.1128390328734891
 40
0.1339331952066953
 40
0.1550691807594977
 40
0.1762461832585638
 40
0.1974586877108088
 40
0.218697085989867
 40
0.2399484984039292
 40
0.2611933724385738
 40
0.2824135777598195
 40
0.3035920449164005
 40
0.3247125378862862
 40
0.3456870214993641
 40
0.3666688919765817
 40
0.3878306925555401
 40
0.409143269328781
 40
0.4305743169127251
 40
0.4520882468177164
 40
0.473647181791279
 40
0.4952083785825056
 40
0.5167232618674975
 40
0.5381542944281924
 40
0.5594665484589783
 40
0.5806286788852821
 40
0.6016188875636123
 40
0.6225303528610345
 40
0.6435577754053384
 40
0.664741184583624
 40
0.6860561978920013
 40
0.7074752988246319
 40
0.7289682519641123
 40
0.7505029033762727
 40
0.7720435721696259
 40
0.7935483910318984
 40
0.8149853936271275
 40
0.8363247898153191
 40
0.8575398150276783
 40
0.8785984706842442
 40
0.8989640759877855
 40
0.9193400386083578
 40
0.9403566820828257
 40
0.9621495582626896
 40
0.9848828074901219
 40
1.0
 40
1.0
 40
1.0
 40
1.0
 10
241.6002714532374
 20
-12.21921466744883
 30
0.0
 10
241.4734240022449
 20
-12.59565730895766
 30
0.0
 10
240.9292240163863
 20
-14.21066871504159
 30
0.0
 10
239.6550109314677
 20
-17.03299686758236
 30
0.0
 10
237.7854028734944
 20
-20.65417996841462
 30
0.0
 10
235.6027060460363
 20
-24.2044832475169
 30
0.0
 10
233.1423828184433
 20
-27.69047538886992
 30
0.0
 10
230.390697760569
 20
-31.12310156477636
 30
0.0
 10
227.3500931445204
 20
-34.50056079370908
 30
0.0
 10
224.0253760869993
 20
-37.81433205725064
 30
0.0
 10
220.4232147770754
 20
-41.05535826279637
 30
0.0
 10
216.5513989432364
 20
-44.21408794474867
 30
0.0
 10
212.4191505240277
 20
-47.28068467312163
 30
0.0
 10
208.0373565442713
 20
-50.2450165822019
 30
0.0
 10
203.4183733866943
 20
-53.09703734216576
 30
0.0
 10
198.5758849248541
 20
-55.8270179464278
 30
0.0
 10
193.5239846772
 20
-58.42606189108501
 30
0.0
 10
188.2844044095679
 20
-60.8826619346769
 30
0.0
 10
182.8619119644964
 20
-63.19225622773777
 30
0.0
 10
177.2530565284239
 20
-65.36186737255434
 30
0.0
 10
171.4441225441101
 20
-67.39686032650826
 30
0.0
 10
165.435882625484
 20
-69.29487075119403
 30
0.0
 10
159.248443669935
 20
-71.04711628496483
 30
0.0
 10
152.9035984430928
 20
-72.6454210279928
 30
0.0
 10
146.4249874652633
 20
-74.08223585002415
 30
0.0
 10
139.8383866216512
 20
-75.35073044511495
 30
0.0
 10
133.1703571234625
 20
-76.445213628822
 30
0.0
 10
126.4473610797291
 20
-77.36128874187304
 30
0.0
 10
119.694615728006
 20
-78.09580475446704
 30
0.0
 10
112.9361617753049
 20
-78.64701668329282
 30
0.0
 10
106.1825337300141
 20
-79.0139668126957
 30
0.0
 10
99.42067514107633
 20
-79.19968396643466
 30
0.0
 10
92.63026002500776
 20
-79.20787771922086
 30
0.0
 10
85.8029432945104
 20
-79.03788010358255
 30
0.0
 10
78.95434683009013
 20
-78.68865763393066
 30
0.0
 10
72.107652039829
 20
-78.15995426605791
 30
0.0
 10
65.28682955559323
 20
-77.45245121005343
 30
0.0
 10
58.51659612461657
 20
-76.56782404688963
 30
0.0
 10
51.82268048437694
 20
-75.50889584329227
 30
0.0
 10
45.23043173097804
 20
-74.27959765417623
 30
0.0
 10
38.76422481970207
 20
-72.88475563486702
 30
0.0
 10
32.44618722009482
 20
-71.33010763114599
 30
0.0
 10
26.2988486636041
 20
-69.62139247545232
 30
0.0
 10
20.38847217942183
 20
-67.78366779290876
 30
0.0
 10
14.72379512251057
 20
-65.81210727147973
 30
0.0
 10
9.230288035693535
 20
-63.6946374790022
 30
0.0
 10
3.781859402806814
 20
-61.3909225678789
 30
0.0
 10
-1.67997123316857
 20
-58.86305624930152
 30
0.0
 10
-6.508181570443305
 20
-56.46493559618185
 30
0.0
 10
-9.439704817204298
 20
-54.8604536685372
 30
0.0
 10
-10.61053398680906
 20
-54.2196351981172
 30
0.0
  0
SPLINE
  5
2EF
330
2E7
100
AcDbEntity
  8
0
  6
Continuous
 62
     7
370
    25
100
AcDbSpline
210
0.0
220
0.0
230
1.0
 70
     8
 71
     3
 72
    20
 73
    16
 74
     0
 42
0.000000001
 43
0.00000001
 40
0.0
 40
0.0
 40
0.0
 40
0.0
 40
0.0039127791937157
 40
0.0265568553854412
 40
0.0595773593236731
 40
0.2482963180434287
 40
0.3738398160628824
 40
0.4823967665895797
 40
0.6009670580989799
 40
0.714775510577547
 40
0.8701722459038357
 40
0.9313620859806006
 40
0.9772565035418836
 40
0.998385148593474
 40
1.0
 40
1.0
 40
1.0
 40
1.0
 10
-10.61494988994099
 20
-54.21889330919806
 30
0.0
 10
-10.95404539514588
 20
-54.03995870186462
 30
0.0
 10
-13.25555791290911
 20
-52.82549188553183
 30
0.0
 10
-18.20218260905061
 20
-49.93508640776864
 30
0.0
 10
-38.89632954385194
 20
-38.25518221283838
 30
0.0
 10
-68.20172360301319
 20
-21.62777735152055
 30
0.0
 10
-103.9561781448725
 20
-1.420161879305645
 30
0.0
 10
-133.6122807215098
 20
15.52356182225799
 30
0.0
 10
-162.0388024878706
 20
32.04239638169746
 30
0.0
 10
-194.1877603786361
 20
50.94075982414045
 30
0.0
 10
-221.5110506357441
 20
67.09359088835369
 30
0.0
 10
-243.3030899038727
 20
79.86758957486082
 30
0.0
 10
-253.9097649205427
 20
86.14727913051343
 30
0.0
 10
-259.6691474810971
 20
89.43585517982872
 30
0.0
 10
-261.4591523192903
 20
90.57384588423052
 30
0.0
 10
-261.5862476335912
 20
90.6546463844087
 30
0.0
  0
SPLINE
  5
2F0
330
2E7
100
AcDbEntity
  8
0
  6
Continuous
 62
     7
370
    25
100
AcDbSpline
210
0.0
220
0.0
230
1.0
 70
     8
 71
     3
 72
    16
 73
    12
 74
     0
 42
0.000000001
 43
0.00000001
 40
0.0
 40
0.0
 40
0.0
 40
0.0
 40
0.096481085043495
 40
0.2039184679836336
 40
0.3205730751419676
 40
0.4413685326461451
 40
0.5684326666861833
 40
0.6957744623112654
 40
0.8219787324754081
 40
0.9490101924581212
 40
1.0
 40
1.0
 40
1.0
 40
1.0
 10
-261.6136006331552
 20
90.65465334869086
 30
0.0
 10
-262.8042092496676
 20
91.37236547891321
 30
0.0
 10
-265.3206308357005
 20
92.88929242871106
 30
0.0
 10
-269.0882214910132
 20
95.33552595556434
 30
0.0
 10
-272.913573445584
 20
98.06119848274258
 30
0.0
 10
-276.7488170946567
 20
101.0379866005001
 30
0.0
 10
-280.4437604412456
 20
104.1882951373117
 30
0.0
 10
-283.9331565852429
 20
107.4659650529306
 30
0.0
 10
-287.1257451962961
 20
110.8218814812381
 30
0.0
 10
-289.5087469948532
 20
113.5488716120763
 30
0.0
 10
-290.7292981411263
 20
115.1794883071502
 30
0.0
 10
-291.0788949556467
 20
115.6465382984941
 30
0.0
  0
SPLINE
  5
2F1
330
2E7
100
AcDbEntity
  8
0
  6
Continuous
 62
     7
370
    25
100
AcDbSpline
210
0.0
220
0.0
230
1.0
 70
     8
 71
     3
 72
    31
 73
    27
 74
     0
 42
0.000000001
 43
0.00000001
 40
0.0
 40
0.0
 40
0.0
 40
0.0
 40
0.0164431909290172
 40
0.0619479243049232
 40
0.1065905622604358
 40
0.1501485579312799
 40
0.1930337689888281
 40
0.2356356655342353
 40
0.2781740663034346
 40
0.3207250712165559
 40
0.3633377358141124
 40
0.4060191841148311
 40
0.4487574864858299
 40
0.4915328290725851
 40
0.5343224198245966
 40
0.5770989792530109
 40
0.6198335432986194
 40
0.6625019440387113
 40
0.7050820345960125
 40
0.7475585084118812
 40
0.7899338624140748
 40
0.8322506173840271
 40
0.8745874413527226
 40
0.9171458317471003
 40
0.9602931614961582
 40
1.0
 40
1.0
 40
1.0
 40
1.0
 10
206.6039484757652
 20
124.3781608383447
 30
0.0
 10
206.6030991168315
 20
124.2244129561779
 30
0.0
 10
206.5998992498977
 20
123.6451846173702
 30
0.0
 10
206.2724422364075
 20
122.6475094997689
 30
0.0
 10
205.6190341266687
 20
121.4045351700669
 30
0.0
 10
204.6503827818328
 20
120.2192418885162
 30
0.0
 10
203.4145133921839
 20
119.1145763905438
 30
0.0
 10
201.9253910716673
 20
118.1077160330254
 30
0.0
 10
200.2079436443903
 20
117.2161251525339
 30
0.0
 10
198.2900050213656
 20
116.4570413582207
 30
0.0
 10
196.2050036488095
 20
115.8460186879907
 30
0.0
 10
193.9898734958277
 20
115.3958467320029
 30
0.0
 10
191.6848512440514
 20
115.1161533549998
 30
0.0
 10
189.3323015119632
 20
115.0130118803084
 30
0.0
 10
186.9757849654798
 20
115.0887614637397
 30
0.0
 10
184.6591568298604
 20
115.3419059361106
 30
0.0
 10
182.4255884573424
 20
115.7670724828653
 30
0.0
 10
180.316624921903
 20
116.3550453180091
 30
0.0
 10
178.3712393165789
 20
117.0928452092653
 30
0.0
 10
176.6249644948112
 20
117.9638462558521
 30
0.0
 10
175.1084297150311
 20
118.9481112580627
 30
0.0
 10
173.8474279224718
 20
120.0228477467607
 30
0.0
 10
172.8575010537826
 20
121.1639582061978
 30
0.0
 10
172.1568991204313
 20
122.3493593172845
 30
0.0
 10
171.730790605123
 20
123.5224681125875
 30
0.0
 10
171.6862586090773
 20
124.2972360232596
 30
0.0
 10
171.6649171990732
 20
124.6685339911919
 30
0.0
  0
SPLINE
  5
2F2
330
2E7
100
AcDbEntity
  8
0
  6
Continuous
 62
     7
370
    25
100
AcDbSpline
210
0.0
220
0.0
230
1.0
 70
     8
 71
     3
 72
    11
 73
     7
 74
     0
 42
0.000000001
 43
0.00000001
 40
0.0
 40
0.0
 40
0.0
 40
0.0
 40
0.2236295936184232
 40
0.5470554933133988
 40
0.8620436555380795
 40
1.0
 40
1.0
 40
1.0
 40
1.0
 10
71.06958895842268
 20
128.0693664090669
 30
0.0
 10
71.2715684634062
 20
128.1901853829684
 30
0.0
 10
71.76566227250417
 20
128.4857396622561
 30
0.0
 10
72.68343851208863
 20
128.6337184525181
 30
0.0
 10
73.61788259982714
 20
128.5682603871876
 30
0.0
 10
74.20145508455018
 20
128.4021638506149
 30
0.0
 10
74.3791976678743
 20
128.3515747151356
 30
0.0
  0
SPLINE
  5
2F3
330
2E7
100
AcDbEntity
  8
0
  6
Continuous
 62
     7
370
    25
100
AcDbSpline
210
0.0
220
0.0
230
1.0
 70
     8
 71
     3
 72
    23
 73
    19
 74
     0
 42
0.000000001
 43
0.00000001
 40
0.0
 40
0.0
 40
0.0
 40
0.0
 40
0.0334359835690977
 40
0.0987401775708423
 40
0.1647574428511538
 40
0.2306526986613838
 40
0.2968363420191849
 40
0.3630381675288385
 40
0.4294434930378478
 40
0.4956487001951317
 40
0.5619013312892133
 40
0.6279398041344977
 40
0.6939313432684748
 40
0.7598292909228269
 40
0.8258430545294586
 40
0.89225419841838
 40
0.9600422892637904
 40
1.0
 40
1.0
 40
1.0
 40
1.0
 10
74.37919766787428
 20
128.3515747151356
 30
0.0
 10
74.57496752337666
 20
128.2829641925623
 30
0.0
 10
75.15309767634119
 20
128.0803496898929
 30
0.0
 10
76.1590961431485
 20
127.5407267585397
 30
0.0
 10
77.35546587636136
 20
126.6519222090133
 30
0.0
 10
78.51267716941057
 20
125.5231122412163
 30
0.0
 10
79.5797269636707
 20
124.1960661227655
 30
0.0
 10
80.522778717305
 20
122.7078996130873
 30
0.0
 10
81.30368532809743
 20
121.1065065750658
 30
0.0
 10
81.89846299522313
 20
119.4418312234629
 30
0.0
 10
82.28303845976414
 20
117.7691055723502
 30
0.0
 10
82.45090655241711
 20
116.138373812945
 30
0.0
 10
82.39575900814224
 20
114.6063181033996
 30
0.0
 10
82.1292171409657
 20
113.2146196458781
 30
0.0
 10
81.66639042147824
 20
112.0114932859284
 30
0.0
 10
81.02408489165241
 20
111.0289422067106
 30
0.0
 10
80.36228474844283
 20
110.3604200041352
 30
0.0
 10
79.87208291511831
 20
110.1231578604815
 30
0.0
 10
79.69029074529996
 20
110.035168797654
 30
0.0
  0
SPLINE
  5
2F4
330
2E7
100
AcDbEntity
  8
0
  6
Continuous
 62
     7
370
    25
100
AcDbSpline
210
0.0
220
0.0
230
1.0
 70
     8
 71
     3
 72
    12
 73
     8
 74
     0
 42
0.000000001
 43
0.00000001
 40
0.0
 40
0.0
 40
0.0
 40
0.0
 40
0.0325226183417105
 40
0.302803841404823
 40
0.5735299363676363
 40
0.8442697078596104
 40
1.0
 40
1.0
 40
1.0
 40
1.0
 10
81.83982494638819
 20
119.5066214590604
 30
0.0
 10
81.79435413433634
 20
119.5573783633101
 30
0.0
 10
81.37099533780786
 20
120.0299536468604
 30
0.0
 10
80.65947993307324
 20
121.0816836854279
 30
0.0
 10
79.76600688962102
 20
122.6171996678644
 30
0.0
 10
79.12030487816122
 20
124.0077877083591
 30
0.0
 10
78.85449048340021
 20
124.856663542978
 30
0.0
 10
78.75742539752132
 20
125.1666400055466
 30
0.0
  0
SPLINE
  5
2F5
330
2E7
100
AcDbEntity
  8
0
  6
Continuous
 62
     7
370
    25
100
AcDbSpline
210
0.0
220
0.0
230
1.0
 70
     8
 71
     3
 72
    31
 73
    27
 74
     0
 42
0.000000001
 43
0.00000001
 40
0.0
 40
0.0
 40
0.0
 40
0.0
 40
0.0164431909290167
 40
0.0619479243049203
 40
0.1065905622604327
 40
0.150148557931277
 40
0.1930337689888254
 40
0.2356356655342335
 40
0.2781740663034337
 40
0.3207250712165563
 40
0.3633377358141129
 40
0.4060191841148335
 40
0.4487574864858308
 40
0.4915328290725868
 40
0.5343224198245964
 40
0.5770989792530125
 40
0.6198335432986232
 40
0.6625019440387165
 40
0.7050820345960191
 40
0.7475585084118852
 40
0.7899338624140837
 40
0.8322506173840295
 40
0.8745874413527224
 40
0.9171458317471015
 40
0.9602931614961611
 40
1.0
 40
1.0
 40
1.0
 40
1.0
 10
135.8932703571106
 20
165.1985664294803
 30
0.0
 10
135.8924209981769
 20
165.0448185473136
 30
0.0
 10
135.8892211312432
 20
164.4655902085059
 30
0.0
 10
135.5617641177528
 20
163.4679150909044
 30
0.0
 10
134.9083560080143
 20
162.2249407612028
 30
0.0
 10
133.9397046631783
 20
161.0396474796519
 30
0.0
 10
132.7038352735295
 20
159.9349819816794
 30
0.0
 10
131.2147129530129
 20
158.9281216241611
 30
0.0
 10
129.4972655257359
 20
158.0365307436694
 30
0.0
 10
127.5793269027112
 20
157.2774469493564
 30
0.0
 10
125.4943255301552
 20
156.6664242791262
 30
0.0
 10
123.2791953771733
 20
156.2162523231385
 30
0.0
 10
120.974173125397
 20
155.9365589461353
 30
0.0
 10
118.6216233933089
 20
155.8334174714439
 30
0.0
 10
116.2651068468255
 20
155.9091670548752
 30
0.0
 10
113.9484787112061
 20
156.1623115272462
 30
0.0
 10
111.714910338688
 20
156.5874780740007
 30
0.0
 10
109.6059468032486
 20
157.1754509091446
 30
0.0
 10
107.6605611979244
 20
157.9132508004006
 30
0.0
 10
105.9142863761567
 20
158.7842518469876
 30
0.0
 10
104.3977515963766
 20
159.7685168491981
 30
0.0
 10
103.1367498038174
 20
160.8432533378961
 30
0.0
 10
102.1468229351281
 20
161.9843637973331
 30
0.0
 10
101.4462210017768
 20
163.1697649084198
 30
0.0
 10
101.0201124864685
 20
164.3428737037228
 30
0.0
 10
100.9755804904227
 20
165.1176416143949
 30
0.0
 10
100.9542390804185
 20
165.4889395823271
 30
0.0
  0
SPLINE
  5
2F9
330
2E7
100
AcDbEntity
  8
0
  6
Continuous
 62
     7
370
    25
100
AcDbSpline
210
0.0
220
0.0
230
1.0
 70
     8
 71
     3
 72
    21
 73
    17
 74
     0
 42
0.000000001
 43
0.00000001
 40
0.0
 40
0.0
 40
0.0
 40
0.0
 40
0.0360501886283195
 40
0.1122059777302132
 40
0.1883843318206597
 40
0.2646730742152968
 40
0.3410849589259825
 40
0.4175986285300196
 40
0.4941786106142772
 40
0.5707841009510473
 40
0.6473662615266214
 40
0.723873238469093
 40
0.8002617643497046
 40
0.8764921899836086
 40
0.9525371122942664
 40
1.0
 40
1.0
 40
1.0
 40
1.0
 10
105.0052025406485
 20
159.4173450987023
 30
0.0
 10
105.2334164308609
 20
159.5774382727458
 30
0.0
 10
105.9437306804454
 20
160.0757272361322
 30
0.0
 10
107.3919479915995
 20
160.7969720208895
 30
0.0
 10
109.2991790544199
 20
161.5604407115403
 30
0.0
 10
111.3870545478619
 20
162.1702862231591
 30
0.0
 10
113.6014135468986
 20
162.6207746419585
 30
0.0
 10
115.9066400480623
 20
162.9003818795921
 30
0.0
 10
118.2591454211825
 20
163.0035508510062
 30
0.0
 10
120.6156348688883
 20
162.9277775263637
 30
0.0
 10
122.9324156987683
 20
162.6747004700694
 30
0.0
 10
125.1654012695335
 20
162.249288364782
 30
0.0
 10
127.2765383484738
 20
161.6622282654522
 30
0.0
 10
129.2138365419592
 20
160.921033046765
 30
0.0
 10
130.7690493087805
 20
160.1695171643921
 30
0.0
 10
131.5683900437425
 20
159.6277938483805
 30
0.0
 10
131.8755691568454
 20
159.4196146821235
 30
0.0
  0
SPLINE
  5
2FB
330
2E7
100
AcDbEntity
  8
0
  6
Continuous
 62
     7
370
    25
100
AcDbSpline
210
0.0
220
0.0
230
1.0
 70
     8
 71
     3
 72
    31
 73
    27
 74
     0
 42
0.000000001
 43
0.00000001
 40
0.0
 40
0.0
 40
0.0
 40
0.0
 40
0.0164431909290172
 40
0.0619479243049231
 40
0.1065905622604358
 40
0.1501485579312798
 40
0.1930337689888281
 40
0.2356356655342352
 40
0.2781740663034345
 40
0.3207250712165558
 40
0.3633377358141123
 40
0.406019184114831
 40
0.4487574864858298
 40
0.4915328290725849
 40
0.5343224198245965
 40
0.5770989792530108
 40
0.6198335432986193
 40
0.6625019440387112
 40
0.7050820345960124
 40
0.7475585084118811
 40
0.7899338624140747
 40
0.8322506173840268
 40
0.8745874413527225
 40
0.9171458317471002
 40
0.960293161496158
 40
0.9999999999999999
 40
0.9999999999999999
 40
0.9999999999999999
 40
0.9999999999999999
 10
65.18259223845598
 20
206.0189720206158
 30
0.0
 10
65.1817428795222
 20
205.865224138449
 30
0.0
 10
65.17854301258855
 20
205.2859957996413
 30
0.0
 10
64.85108599909806
 20
204.2883206820398
 30
0.0
 10
64.19767788935957
 20
203.0453463523381
 30
0.0
 10
63.22902654452348
 20
201.8600530707872
 30
0.0
 10
61.99315715487468
 20
200.7553875728148
 30
0.0
 10
60.50403483435802
 20
199.7485272152964
 30
0.0
 10
58.78658740708097
 20
198.8569363348049
 30
0.0
 10
56.86864878405634
 20
198.0978525404918
 30
0.0
 10
54.78364741150028
 20
197.4868298702617
 30
0.0
 10
52.56851725851835
 20
197.0366579142739
 30
0.0
 10
50.26349500674203
 20
196.7569645372708
 30
0.0
 10
47.9109452746539
 20
196.6538230625794
 30
0.0
 10
45.55442872817052
 20
196.7295726460107
 30
0.0
 10
43.2378005925511
 20
196.9827171183817
 30
0.0
 10
41.00423222003307
 20
197.4078836651364
 30
0.0
 10
38.89526868459377
 20
197.9958565002801
 30
0.0
 10
36.94988307926965
 20
198.7336563915363
 30
0.0
 10
35.20360825750193
 20
199.6046574381231
 30
0.0
 10
33.68707347772185
 20
200.5889224403337
 30
0.0
 10
32.42607168516254
 20
201.6636589290318
 30
0.0
 10
31.43614481647323
 20
202.8047693884688
 30
0.0
 10
30.73554288312206
 20
203.9901704995556
 30
0.0
 10
30.30943436781376
 20
205.1632792948586
 30
0.0
 10
30.26490237176806
 20
205.9380472055307
 30
0.0
 10
30.24356096176387
 20
206.3093451734629
 30
0.0
  0
SPLINE
  5
30E
330
2E7
100
AcDbEntity
  8
0
  6
Continuous
 62
     7
370
    25
100
AcDbSpline
210
0.0
220
0.0
230
1.0
 70
     8
 71
     3
 72
    36
 73
    32
 74
     0
 42
0.000000001
 43
0.00000001
 40
0.0
 40
0.0
 40
0.0
 40
0.0
 40
0.0078125
 40
0.0078125
 40
0.015625
 40
0.03125
 40
0.03125
 40
0.0625000000000001
 40
0.0625000000000001
 40
0.1249999999999999
 40
0.1249999999999999
 40
0.2499999999999998
 40
0.2499999999999998
 40
0.3749999999999998
 40
0.3749999999999998
 40
0.4999999999999998
 40
0.4999999999999998
 40
0.6249999999999998
 40
0.6249999999999998
 40
0.7499999999999998
 40
0.7499999999999998
 40
0.8749999999999998
 40
0.8749999999999998
 40
0.9374999999999999
 40
0.9374999999999999
 40
0.96875
 40
0.96875
 40
0.9843749999999999
 40
0.9921875
 40
0.9921875
 40
1.0
 40
1.0
 40
1.0
 40
1.0
 10
-13.09997792882547
 20
-54.53686961628028
 30
0.0
 10
-13.76181102721793
 20
-54.16396812958896
 30
0.0
 10
-14.41823626413428
 20
-53.78788553635598
 30
0.0
 10
-15.7350199882936
 20
-53.03803403495766
 30
0.0
 10
-17.71037192975096
 20
-51.91336052160077
 30
0.0
 10
-19.68626172924706
 20
-50.78900339647466
 30
0.0
 10
-23.63877589981146
 20
-48.54072124871701
 30
0.0
 10
-26.27476848501908
 20
-47.04244480221352
 30
0.0
 10
-34.18572787020062
 20
-42.5493693688146
 30
0.0
 10
-39.46378048600814
 20
-39.55638557429756
 30
0.0
 10
-55.3075744475761
 20
-30.58310251377538
 30
0.0
 10
-65.88297992839776
 20
-24.60848805375089
 30
0.0
 10
-87.02950946021126
 20
-12.65674063641822
 30
0.0
 10
-97.59979898539699
 20
-6.679100805890025
 30
0.0
 10
-118.6810339157469
 20
5.310696403639612
 30
0.0
 10
-129.189931371206
 20
11.32405759876606
 30
0.0
 10
-150.1157877880036
 20
23.4042926698351
 30
0.0
 10
-160.5328649062754
 20
29.47123752165286
 30
0.0
 10
-181.3024924264631
 20
41.6414294878907
 30
0.0
 10
-191.6572498724124
 20
47.74356271972291
 30
0.0
 10
-212.3606746712889
 20
59.95128131757103
 30
0.0
 10
-222.710207984644
 20
66.05637806995054
 30
0.0
 10
-238.2541769609698
 20
75.20286623375479
 30
0.0
 10
-243.4387697179717
 20
78.2498394376214
 30
0.0
 10
-251.2218883784281
 20
82.8167628592013
 30
0.0
 10
-253.8172730040239
 20
84.33849632130853
 30
0.0
 10
-257.7118511506197
 20
86.62024430679129
 30
0.0
 10
-259.6595141099267
 20
87.76090605147344
 30
0.0
 10
-261.6077245920877
 20
88.90125697772257
 30
0.0
 10
-262.9066512628965
 20
89.66142298693563
 30
0.0
 10
-263.5581165784229
 20
90.04036950505811
 30
0.0
 10
-264.2040768394596
 20
90.42244113913596
 30
0.0
  0
SPLINE
  5
30F
330
2E7
100
AcDbEntity
  8
0
  6
Continuous
 62
     7
370
    25
100
AcDbSpline
210
0.0
220
0.0
230
1.0
 70
     8
 71
     3
 72
   106
 73
   102
 74
     0
 42
0.000000001
 43
0.00000001
 40
0.0
 40
0.0
 40
0.0
 40
0.0
 40
0.0156250000000004
 40
0.0156250000000004
 40
0.0234375000000006
 40
0.0234375000000006
 40
0.0312500000000008
 40
0.0312500000000008
 40
0.0625000000000016
 40
0.0625000000000016
 40
0.0937500000000024
 40
0.0937500000000024
 40
0.1250000000000032
 40
0.1250000000000032
 40
0.1328125000000034
 40
0.1328125000000034
 40
0.1406250000000036
 40
0.1406250000000036
 40
0.1562500000000039
 40
0.1562500000000039
 40
0.1875000000000043
 40
0.1875000000000043
 40
0.2187500000000047
 40
0.2187500000000047
 40
0.2343750000000051
 40
0.2343750000000051
 40
0.2421875000000052
 40
0.2421875000000052
 40
0.2500000000000053
 40
0.2500000000000053
 40
0.2812500000000053
 40
0.2812500000000053
 40
0.3125000000000052
 40
0.3125000000000052
 40
0.3437500000000051
 40
0.3437500000000051
 40
0.3515625000000051
 40
0.3515625000000051
 40
0.3593750000000052
 40
0.3593750000000052
 40
0.3750000000000053
 40
0.3750000000000053
 40
0.4062500000000054
 40
0.4062500000000054
 40
0.4375000000000056
 40
0.4375000000000056
 40
0.4531250000000056
 40
0.4531250000000056
 40
0.4609375000000057
 40
0.4609375000000057
 40
0.4687500000000057
 40
0.4687500000000057
 40
0.5000000000000057
 40
0.5000000000000057
 40
0.5312500000000057
 40
0.5312500000000057
 40
0.5625000000000057
 40
0.5625000000000057
 40
0.5703125000000057
 40
0.5703125000000057
 40
0.5781250000000056
 40
0.5781250000000056
 40
0.5937500000000057
 40
0.5937500000000057
 40
0.6250000000000058
 40
0.6250000000000058
 40
0.6562500000000059
 40
0.6562500000000059
 40
0.671875000000006
 40
0.671875000000006
 40
0.6796875000000061
 40
0.6796875000000061
 40
0.6875000000000061
 40
0.6875000000000061
 40
0.7187500000000057
 40
0.7187500000000057
 40
0.7500000000000051
 40
0.7500000000000051
 40
0.7812500000000047
 40
0.7812500000000047
 40
0.7890625000000047
 40
0.7890625000000047
 40
0.7968750000000047
 40
0.7968750000000047
 40
0.8125000000000043
 40
0.8125000000000043
 40
0.8437500000000037
 40
0.8437500000000037
 40
0.875000000000003
 40
0.875000000000003
 40
0.8906250000000027
 40
0.8906250000000027
 40
0.8984375000000024
 40
0.8984375000000024
 40
0.9062500000000023
 40
0.9062500000000023
 40
0.9375000000000016
 40
0.9375000000000016
 40
0.9687500000000008
 40
0.9687500000000008
 40
1.0
 40
1.0
 40
1.0
 40
1.0
 10
204.7026826789756
 20
71.20866293887445
 30
0.0
 10
206.4795642973297
 20
70.16442358193692
 30
0.0
 10
208.2110801923448
 20
69.0966617543824
 30
0.0
 10
210.7401633093537
 20
67.45966160619787
 30
0.0
 10
211.5718272412411
 20
66.90810268749495
 30
0.0
 10
213.2124219554967
 20
65.79319754015015
 30
0.0
 10
214.0220135351348
 20
65.22937453376596
 30
0.0
 10
218.0039769293148
 20
62.38740598791124
 30
0.0
 10
220.9757704042719
 20
60.04292143534725
 30
0.0
 10
226.5042747667306
 20
55.2162698141104
 30
0.0
 10
229.06096346666
 20
52.73409538584
 30
0.0
 10
233.7584235431519
 20
47.63178713204897
 30
0.0
 10
235.8992070545191
 20
45.01165733163191
 30
0.0
 10
238.3091599832132
 20
41.64825434651423
 30
0.0
 10
238.77781343997
 20
40.97114983595788
 30
0.0
 10
239.6880657713137
 20
39.60796683458664
 30
0.0
 10
240.1301086847521
 20
38.9211214736451
 30
0.0
 10
241.4087388111153
 20
36.85738162681517
 30
0.0
 10
242.1996774910795
 20
35.47475383817815
 30
0.0
 10
244.3909901723305
 20
31.30679212453615
 30
0.0
 10
245.6103491088617
 20
28.50143386807053
 30
0.0
 10
247.5749511254539
 20
22.83826949355588
 30
0.0
 10
248.3193579106178
 20
19.98037086250957
 30
0.0
 10
249.0718057507618
 20
15.65323838291778
 30
0.0
 10
249.261876521605
 20
14.20414110903298
 30
0.0
 10
249.45442240688
 20
12.02025595348386
 30
0.0
 10
249.503182916065
 20
11.29058827597256
 30
0.0
 10
249.5695010962697
 20
9.827801186284686
 30
0.0
 10
249.586945321025
 20
9.096193273550538
 30
0.0
 10
249.5957520753519
 20
5.448166420900815
 30
0.0
 10
249.3529109937423
 20
2.550834508385367
 30
0.0
 10
248.3792226589778
 20
-3.202643255226119
 30
0.0
 10
247.648643463604
 20
-6.058811729487283
 30
0.0
 10
245.6984504501799
 20
-11.7298758188117
 30
0.0
 10
244.478829597889
 20
-14.54477084020923
 30
0.0
 10
242.6382779687157
 20
-18.03671813401131
 30
0.0
 10
242.2537517177267
 20
-18.73473536201107
 30
0.0
 10
241.4556684857363
 20
-20.12286569637043
 30
0.0
 10
241.0423954757489
 20
-20.81259028268375
 30
0.0
 10
239.760471549261
 20
-22.8689220313227
 30
0.0
 10
238.8496521862355
 20
-24.22266780057226
 30
0.0
 10
235.950933717928
 20
-28.23319562607837
 30
0.0
 10
233.7979325163219
 20
-30.83962147684259
 30
0.0
 10
229.0555366310128
 20
-35.91937299158207
 30
0.0
 10
226.4662721469366
 20
-38.39273836649552
 30
0.0
 10
222.2504115831849
 20
-42.0015373254549
 30
0.0
 10
220.7894756870486
 20
-43.18749733181734
 30
0.0
 10
218.5137470374557
 20
-44.94071824195012
 30
0.0
 10
217.740052305942
 20
-45.52163692488949
 30
0.0
 10
216.1718531235887
 20
-46.66943822118698
 30
0.0
 10
215.3769942241872
 20
-47.23658035260327
 30
0.0
 10
211.3490329835543
 20
-50.03857995901458
 30
0.0
 10
207.9535634975744
 20
-52.17144564777053
 30
0.0
 10
200.838322007965
 20
-56.23346467258845
 30
0.0
 10
197.1195993420832
 20
-58.1632771557427
 30
0.0
 10
189.35484430901
 20
-61.81730079093382
 30
0.0
 10
185.3091326707896
 20
-63.54171341058121
 30
0.0
 10
180.0405180277978
 20
-65.56438997841843
 30
0.0
 10
178.9751678919621
 20
-65.96261207458333
 30
0.0
 10
176.8344435015119
 20
-66.74154642589228
 30
0.0
 10
175.7578997467677
 20
-67.12273843874536
 30
0.0
 10
172.5098642787848
 20
-68.24167704046002
 30
0.0
 10
170.3199641671082
 20
-68.9547805771098
 30
0.0
 10
163.6776815604874
 20
-70.99692636772222
 30
0.0
 10
159.1530807051566
 20
-72.22929096492567
 30
0.0
 10
149.9123556767695
 20
-74.43763071109116
 30
0.0
 10
145.1962858349199
 20
-75.41367859244018
 30
0.0
 10
137.9759236949022
 20
-76.68195781490928
 30
0.0
 10
135.5446528335966
 20
-77.07194187945424
 30
0.0
 10
131.8602970391045
 20
-77.60678487809044
 30
0.0
 10
130.6262034240526
 20
-77.77665199778323
 30
0.0
 10
128.1592416040635
 20
-78.0978527747992
 30
0.0
 10
126.9246705465097
 20
-78.24944059907654
 30
0.0
 10
120.7464126988141
 20
-78.96271519963317
 30
0.0
 10
115.7864734666578
 20
-79.39003835114062
 30
0.0
 10
105.832918968738
 20
-79.96627517333546
 30
0.0
 10
100.8392688321882
 20
-80.11490055717715
 30
0.0
 10
90.81790798632188
 20
-80.13056274791144
 30
0.0
 10
85.79036997305961
 20
-79.99902728288687
 30
0.0
 10
79.48383524341725
 20
-79.65179990981271
 30
0.0
 10
78.2234279198158
 20
-79.57333258017155
 30
0.0
 10
75.71375301233604
 20
-79.39917218469479
 30
0.0
 10
74.46307857563812
 20
-79.30340399876532
 30
0.0
 10
70.7234053126802
 20
-78.99032557010617
 30
0.0
 10
68.24672954056095
 20
-78.74729778940589
 30
0.0
 10
60.86588933783102
 20
-77.91556363948013
 30
0.0
 10
56.01057601406875
 20
-77.22490769014681
 30
0.0
 10
46.4282035801335
 20
-75.57593628351717
 30
0.0
 10
41.7016699035149
 20
-74.61652427521676
 30
0.0
 10
34.70996260232728
 20
-72.97269110690898
 30
0.0
 10
32.39580362755673
 20
-72.39049968552328
 30
0.0
 10
28.94974165475831
 20
-71.46467060129305
 30
0.0
 10
27.80705515308299
 20
-71.14777185265804
 30
0.0
 10
25.54198747981851
 20
-70.499875982032
 30
0.0
 10
24.41833948342159
 20
-70.16854127545648
 30
0.0
 10
18.84403420820638
 20
-68.47534495792249
 30
0.0
 10
14.52486747341522
 20
-67.00417566798207
 30
0.0
 10
6.160710481483117
 20
-63.83391503769667
 30
0.0
 10
2.115454170003417
 20
-62.13504486749348
 30
0.0
 10
-5.700138576893221
 20
-58.50876449190169
 30
0.0
 10
-9.470842704312865
 20
-56.58165994772758
 30
0.0
 10
-13.09997792882553
 20
-54.53686961628031
 30
0.0
  0
SPLINE
  5
310
330
2E7
100
AcDbEntity
  8
0
  6
Continuous
 62
     7
370
    25
100
AcDbSpline
210
0.0
220
0.0
230
1.0
 70
     8
 71
     3
 72
    30
 73
    26
 74
     0
 42
0.000000001
 43
0.00000001
 40
0.0
 40
0.0
 40
0.0
 40
0.0
 40
0.0078125000000001
 40
0.0078125000000001
 40
0.0156250000000002
 40
0.0312500000000001
 40
0.0625000000000001
 40
0.0625000000000001
 40
0.1250000000000001
 40
0.1250000000000001
 40
0.2500000000000001
 40
0.2500000000000001
 40
0.5000000000000002
 40
0.5000000000000002
 40
0.7500000000000002
 40
0.7500000000000002
 40
0.8750000000000003
 40
0.8750000000000003
 40
0.9375000000000003
 40
0.9375000000000003
 40
0.9687500000000002
 40
0.9843750000000001
 40
0.9921875000000001
 40
0.9921875000000001
 40
1.0
 40
1.0
 40
1.0
 40
1.0
 10
-46.38282424315641
 20
216.1572407677915
 30
0.0
 10
-45.72313313173687
 20
215.7831442235648
 30
0.0
 10
-45.06874393503554
 20
215.4059672780832
 30
0.0
 10
-43.75618803737105
 20
214.6538081091189
 30
0.0
 10
-41.78734153917163
 20
213.5255767062848
 30
0.0
 10
-37.19328577513453
 20
210.8930835956825
 30
0.0
 10
-33.25541367995069
 20
208.6367248460304
 30
0.0
 10
-25.37960934053248
 20
204.1240422931981
 30
0.0
 10
-20.12898807384508
 20
201.1156366662744
 30
0.0
 10
-4.377728023177332
 20
192.0900690083799
 30
0.0
 10
6.122411346305478
 20
186.0726168186405
 30
0.0
 10
37.61141737884954
 20
168.0136298574224
 30
0.0
 10
58.58986610258756
 20
155.9659348685874
 30
0.0
 10
100.437617618875
 20
131.8077408581348
 30
0.0
 10
121.3068834407259
 20
119.6972643325494
 30
0.0
 10
152.5891915593679
 20
101.5191433199237
 30
0.0
 10
163.0128025494098
 20
95.45757173000705
 30
0.0
 10
178.6471622321917
 20
86.3646070939441
 30
0.0
 10
183.8584130986244
 20
83.33350260278758
 30
0.0
 10
191.6754176669722
 20
78.78691957077622
 30
0.0
 10
195.5839501926508
 20
76.51364543189959
 30
0.0
 10
200.1440338639821
 20
73.86156642816485
 30
0.0
 10
202.0983901722503
 20
72.72498109990339
 30
0.0
 10
203.401302858938
 20
71.96726242111359
 30
0.0
 10
204.0546584304796
 20
71.5894944008805
 30
0.0
 10
204.7026826789756
 20
71.20866293887445
 30
0.0
  0
SPLINE
  5
311
330
2E7
100
AcDbEntity
  8
0
  6
Continuous
 62
     7
370
    25
100
AcDbSpline
210
0.0
220
0.0
230
1.0
 70
     8
 71
     3
 72
    96
 73
    92
 74
     0
 42
0.000000001
 43
0.00000001
 40
0.0
 40
0.0
 40
0.0
 40
0.0
 40
0.0156250000000005
 40
0.0156250000000005
 40
0.0234375000000007
 40
0.0234375000000007
 40
0.031250000000001
 40
0.031250000000001
 40
0.0625000000000016
 40
0.0625000000000016
 40
0.0937500000000022
 40
0.0937500000000022
 40
0.1250000000000028
 40
0.1250000000000028
 40
0.132812500000003
 40
0.132812500000003
 40
0.1406250000000031
 40
0.1406250000000031
 40
0.1562500000000033
 40
0.1562500000000033
 40
0.1875000000000036
 40
0.1875000000000036
 40
0.2187500000000039
 40
0.2187500000000039
 40
0.234375000000004
 40
0.234375000000004
 40
0.2500000000000041
 40
0.2500000000000041
 40
0.2812500000000041
 40
0.2812500000000041
 40
0.3125000000000039
 40
0.3125000000000039
 40
0.3437500000000038
 40
0.3437500000000038
 40
0.3593750000000037
 40
0.3593750000000037
 40
0.3750000000000036
 40
0.3750000000000036
 40
0.4062500000000033
 40
0.4062500000000033
 40
0.4375000000000031
 40
0.4375000000000031
 40
0.4531250000000029
 40
0.4531250000000029
 40
0.4609375000000029
 40
0.4609375000000029
 40
0.4687500000000028
 40
0.4687500000000028
 40
0.5000000000000026
 40
0.5000000000000026
 40
0.5312500000000024
 40
0.5312500000000024
 40
0.5625000000000022
 40
0.5625000000000022
 40
0.5703125000000022
 40
0.5703125000000022
 40
0.5781250000000022
 40
0.5781250000000022
 40
0.5937500000000022
 40
0.5937500000000022
 40
0.625000000000002
 40
0.625000000000002
 40
0.6562500000000019
 40
0.6562500000000019
 40
0.6718750000000018
 40
0.6718750000000018
 40
0.6875000000000017
 40
0.6875000000000017
 40
0.7187500000000018
 40
0.7187500000000018
 40
0.7500000000000018
 40
0.7500000000000018
 40
0.7656250000000019
 40
0.7656250000000019
 40
0.7734375000000019
 40
0.7734375000000019
 40
0.7812500000000019
 40
0.7812500000000019
 40
0.8125000000000018
 40
0.8125000000000018
 40
0.8750000000000011
 40
0.8750000000000011
 40
0.890625000000001
 40
0.890625000000001
 40
0.9062500000000009
 40
0.9062500000000009
 40
0.9375000000000007
 40
0.9375000000000007
 40
0.9687500000000003
 40
0.9687500000000003
 40
1.0
 40
1.0
 40
1.0
 40
1.0
 10
-264.2040768394597
 20
90.42244113913596
 30
0.0
 10
-265.975210217143
 20
91.47002852894713
 30
0.0
 10
-267.700828720106
 20
92.54127963842271
 30
0.0
 10
-270.2207802869808
 20
94.18375787940191
 30
0.0
 10
-271.0493567501483
 20
94.73718146414564
 30
0.0
 10
-272.6837143660402
 20
95.85588018412777
 30
0.0
 10
-273.4894022598583
 20
96.42110690925401
 30
0.0
 10
-277.4474246999991
 20
99.26733644600162
 30
0.0
 10
-280.3998269857863
 20
101.6160341606643
 30
0.0
 10
-285.888420816964
 20
106.4528968216987
 30
0.0
 10
-288.424162179173
 20
108.94121261906
 30
0.0
 10
-293.0786796282049
 20
114.0575642811257
 30
0.0
 10
-295.1973225306288
 20
116.6856447743259
 30
0.0
 10
-297.5769722985529
 20
120.0607680801045
 30
0.0
 10
-298.0394696520623
 20
120.7402938445847
 30
0.0
 10
-298.9372925780539
 20
122.108450311771
 30
0.0
 10
-299.3717646519254
 20
122.7958372781526
 30
0.0
 10
-300.6277877302696
 20
124.8610388628927
 30
0.0
 10
-301.4036956008223
 20
126.244653018453
 30
0.0
 10
-303.5499243015146
 20
130.4156212295189
 30
0.0
 10
-304.7410523141382
 20
133.2228457531372
 30
0.0
 10
-306.6463892726647
 20
138.8901797610489
 30
0.0
 10
-307.3611225854993
 20
141.7502310989471
 30
0.0
 10
-308.0731707550131
 20
146.0802338009464
 30
0.0
 10
-308.2497259575391
 20
147.5303094265776
 30
0.0
 10
-308.4797402110517
 20
150.4441106566051
 30
0.0
 10
-308.5331905441821
 20
151.9108607490753
 30
0.0
 10
-308.5072819931702
 20
156.2859337921418
 30
0.0
 10
-308.2420974516196
 20
159.1812787047789
 30
0.0
 10
-307.2318367670222
 20
164.9306010610149
 30
0.0
 10
-306.4870714605474
 20
167.7846052992529
 30
0.0
 10
-304.5154365768148
 20
173.4510555708496
 30
0.0
 10
-303.2901284501903
 20
176.2636362038981
 30
0.0
 10
-301.0806822148419
 20
180.4504845994216
 30
0.0
 10
-300.2806727415015
 20
181.8428457411733
 30
0.0
 10
-298.5737236510262
 20
184.5869998865988
 30
0.0
 10
-297.6651228329296
 20
185.9422963779681
 30
0.0
 10
-294.7765130995235
 20
189.9586268913682
 30
0.0
 10
-292.6341533269828
 20
192.5702408887051
 30
0.0
 10
-287.9228809577386
 20
197.663625090356
 30
0.0
 10
-285.3535475019996
 20
200.1452671840811
 30
0.0
 10
-281.1751315638693
 20
203.768977322233
 30
0.0
 10
-279.728000358389
 20
204.9603437580614
 30
0.0
 10
-277.4746220744698
 20
206.7222249547939
 30
0.0
 10
-276.7086721651211
 20
207.3061147658624
 30
0.0
 10
-275.1550535807945
 20
208.4608516069582
 30
0.0
 10
-274.3675369066226
 20
209.031628919668
 30
0.0
 10
-270.3769593748291
 20
211.852894042305
 30
0.0
 10
-267.0153315431342
 20
214.0057733028358
 30
0.0
 10
-259.9661236206668
 20
218.1108864665215
 30
0.0
 10
-256.2771306759949
 20
220.0622506638599
 30
0.0
 10
-248.5562436656101
 20
223.7539005460862
 30
0.0
 10
-244.527708718136
 20
225.4962539923121
 30
0.0
 10
-239.2727716035936
 20
227.5392214554983
 30
0.0
 10
-238.2116080305705
 20
227.9406721623848
 30
0.0
 10
-236.0791298539532
 20
228.7255976289046
 30
0.0
 10
-235.0064245400303
 20
229.109624221339
 30
0.0
 10
-231.7692002220875
 20
230.2367743160165
 30
0.0
 10
-229.5855180019576
 20
230.9548965888844
 30
0.0
 10
-222.9585074875108
 20
233.0101574052086
 30
0.0
 10
-218.4396809906949
 20
234.2487974572192
 30
0.0
 10
-209.2022613448123
 20
236.4654526293017
 30
0.0
 10
-204.4834975564395
 20
237.4432451253419
 30
0.0
 10
-197.25223561459
 20
238.7101712253038
 30
0.0
 10
-194.8145997160609
 20
239.0992828578188
 30
0.0
 10
-189.8937189317819
 20
239.8084716771597
 30
0.0
 10
-187.4284616132125
 20
240.1260199178411
 30
0.0
 10
-180.0185342065976
 20
240.9697974537126
 30
0.0
 10
-175.0597752201241
 20
241.3876714066257
 30
0.0
 10
-165.1055167495998
 20
241.9408543404076
 30
0.0
 10
-160.1099955561572
 20
242.0759963580061
 30
0.0
 10
-152.5890374072457
 20
242.0658551757903
 30
0.0
 10
-150.0774343157339
 20
242.0269658911416
 30
0.0
 10
-146.303029663571
 20
241.9147960298834
 30
0.0
 10
-145.0437258835752
 20
241.8684162945312
 30
0.0
 10
-142.5227539203377
 20
241.757472597128
 30
0.0
 10
-141.2595988155871
 20
241.6928188883029
 30
0.0
 10
-134.9557517773938
 20
241.3245992005058
 30
0.0
 10
-129.9799590174771
 20
240.8884633359364
 30
0.0
 10
-115.2458358176527
 20
239.1734678874799
 30
0.0
 10
-105.6788521591754
 20
237.4920353031612
 30
0.0
 10
-94.0431317269526
 20
234.7106681616178
 30
0.0
 10
-91.73033935171452
 20
234.1198029380296
 30
0.0
 10
-87.14564326175245
 20
232.8703870503909
 30
0.0
 10
-84.88900112725264
 20
232.2160491729123
 30
0.0
 10
-78.22378654196442
 20
230.1661422450788
 30
0.0
 10
-73.9198218849593
 20
228.6837662222022
 30
0.0
 10
-65.58357015559967
 20
225.4935672209911
 30
0.0
 10
-61.55134069130504
 20
223.7856964376026
 30
0.0
 10
-53.75993667626981
 20
220.1433649627447
 30
0.0
 10
-50.00076876432637
 20
218.2088987621843
 30
0.0
 10
-46.38282424315631
 20
216.1572407677914
 30
0.0
  0
LWPOLYLINE
  5
312
330
2E7
100
AcDbEntity
  8
0
  6
Continuous
 62
     7
370
    25
100
AcDbPolyline
 90
       46
 70
   128
 43
0.0
 10
131.5218613007
 20
173.9108518258
 10
133.2151427846
 20
172.786354521
 10
134.6208504308
 20
171.5367575661
 10
135.7116237389
 20
170.1863829445
 10
136.4662320473
 20
168.7615141621
 10
136.8699877634
 20
167.289884669
 10
136.9150322417
 20
165.8001380593
 10
136.6004887425
 20
164.3212705563
 10
135.9324794973
 20
162.8820666337
 10
134.9240065462
 20
161.5105387587
 10
133.5946986681
 20
160.2333821615
 10
131.9704293287
 20
159.0754552423
 10
130.0828130832
 20
158.0592957316
 10
127.9685902346
 20
157.2046820183
 10
125.6689117258
 20
156.5282481864
 10
123.2285381831
 20
156.0431602508
 10
120.6949687017
 20
155.7588598966
 10
118.1175163297
 20
155.6808807066
 10
115.5463482455
 20
155.8107404571
 10
113.0315093114
 20
156.1459115759
 10
110.6219480065
 20
156.6798703382
 10
108.364563701
 20
157.4022238442
 10
106.3032938124
 20
158.2989123046
 10
104.4782586146
 20
159.3524826984
 10
102.9249803418
 20
160.5424284764
 10
101.6736917886
 20
161.8455886974
 10
100.7487478634
 20
163.2365988302
 10
100.1681515477
 20
164.6883844448
 10
99.9432034884
 20
166.1726881855
 10
100.0782820434
 20
167.6606197684
 10
100.5707580624
 20
169.1232182977
 10
101.4110460599
 20
170.5320159568
 10
102.5827907858
 20
171.8595921016
 10
104.0631855618
 20
173.0801069727
 10
105.8234161876
 20
174.1698046364
 10
107.8292217763
 20
175.1074753672
 10
110.0415616036
 20
175.8748684708
 10
112.4173749913
 20
176.4570475134
 10
114.9104194343
 20
176.8426810422
 10
117.4721706583
 20
177.0242631392
 10
120.0527670896
 20
176.9982595154
 10
122.6019803541
 20
176.7651763018
 10
125.0701929153
 20
176.329550198
 10
127.4093638233
 20
175.6998601705
 10
129.5739637771
 20
174.8883624196
 10
131.5218613007
 20
173.9108518258
  0
LWPOLYLINE
  5
313
330
2E7
100
AcDbEntity
  8
0
  6
Continuous
 62
     7
370
    25
100
AcDbPolyline
 90
       46
 70
   128
 43
0.0
 10
202.2325394194
 20
133.0904462347
 10
203.9258209033
 20
131.9659489299
 10
205.3315285495
 20
130.716351975
 10
206.4223018576
 20
129.3659773533
 10
207.1769101659
 20
127.9411085709
 10
207.5806658821
 20
126.4694790778
 10
207.6257103604
 20
124.9797324682
 10
207.3111668612
 20
123.5008649652
 10
206.643157616
 20
122.0616610425
 10
205.6346846649
 20
120.6901331676
 10
204.3053767867
 20
119.4129765703
 10
202.6811074474
 20
118.2550496512
 10
200.7934912018
 20
117.2388901405
 10
198.6792683532
 20
116.3842764272
 10
196.3795898445
 20
115.7078425953
 10
193.9392163018
 20
115.2227546597
 10
191.4056468204
 20
114.9384543054
 10
188.8281944483
 20
114.8604751154
 10
186.2570263642
 20
114.990334866
 10
183.74218743
 20
115.3255059847
 10
181.3326261252
 20
115.8594647471
 10
179.0752418196
 20
116.5818182531
 10
177.0139719311
 20
117.4785067135
 10
175.1889367333
 20
118.5320771073
 10
173.6356584604
 20
119.7220228852
 10
172.3843699072
 20
121.0251831063
 10
171.4594259821
 20
122.4161932391
 10
170.8788296664
 20
123.8679788536
 10
170.653881607
 20
125.3522825943
 10
170.788960162
 20
126.8402141772
 10
171.2814361811
 20
128.3028127065
 10
172.1217241785
 20
129.7116103656
 10
173.2934689044
 20
131.0391865105
 10
174.7738636804
 20
132.2597013816
 10
176.5340943062
 20
133.3493990453
 10
178.5398998949
 20
134.287069776
 10
180.7522397222
 20
135.0544628796
 10
183.1280531099
 20
135.6366419223
 10
185.6210975529
 20
136.0222754511
 10
188.1828487769
 20
136.2038575481
 10
190.7634452082
 20
136.1778539243
 10
193.3126584728
 20
135.9447707107
 10
195.780871034
 20
135.5091446068
 10
198.120041942
 20
134.8794545794
 10
200.2846418957
 20
134.0679568284
 10
202.2325394194
 20
133.0904462347
  0
LWPOLYLINE
  5
314
330
2E7
100
AcDbEntity
  8
0
  6
Continuous
 62
     7
370
    25
100
AcDbPolyline
 90
       46
 70
   128
 43
0.0
 10
60.811183182
 20
214.7312574169
 10
62.504464666
 20
213.6067601121
 10
63.9101723122
 20
212.3571631573
 10
65.0009456203
 20
211.0067885356
 10
65.7555539286
 20
209.5819197532
 10
66.1593096448
 20
208.1102902601
 10
66.2043541231
 20
206.6205436505
 10
65.8898106239
 20
205.1416761474
 10
65.2218013787
 20
203.7024722248
 10
64.2133284276
 20
202.3309443499
 10
62.8840205494
 20
201.0537877526
 10
61.25975121
 20
199.8958608334
 10
59.3721349645
 20
198.8797013227
 10
57.2579121159
 20
198.0250876095
 10
54.9582336071
 20
197.3486537775
 10
52.5178600645
 20
196.863565842
 10
49.9842905831
 20
196.5792654877
 10
47.406838211
 20
196.5012862977
 10
44.8356701268
 20
196.6311460483
 10
42.3208311927
 20
196.966317167
 10
39.9112698879
 20
197.5002759293
 10
37.6538855823
 20
198.2226294354
 10
35.5926156938
 20
199.1193178957
 10
33.767580496
 20
200.1728882896
 10
32.2143022231
 20
201.3628340675
 10
30.9630136699
 20
202.6659942886
 10
30.0380697448
 20
204.0570044214
 10
29.4574734291
 20
205.5087900359
 10
29.2325253697
 20
206.9930937766
 10
29.3676039247
 20
208.4810253595
 10
29.8600799437
 20
209.9436238888
 10
30.7003679412
 20
211.3524215479
 10
31.8721126671
 20
212.6799976928
 10
33.3525074431
 20
213.9005125639
 10
35.1127380689
 20
214.9902102275
 10
37.1185436576
 20
215.9278809583
 10
39.3308834849
 20
216.6952740619
 10
41.7066968726
 20
217.2774531046
 10
44.1997413156
 20
217.6630866334
 10
46.7614925396
 20
217.8446687304
 10
49.3420889709
 20
217.8186651066
 10
51.8913022355
 20
217.5855818929
 10
54.3595147967
 20
217.1499557891
 10
56.6986857046
 20
216.5202657616
 10
58.8632856584
 20
215.7087680107
 10
60.811183182
 20
214.7312574169
  0
SPLINE
  5
315
330
2E7
100
AcDbEntity
  8
0
  6
Continuous
 62
     7
370
    25
100
AcDbSpline
210
0.0
220
0.0
230
1.0
 70
     8
 71
     3
 72
     9
 73
     5
 74
     0
 42
0.000000001
 43
0.00000001
 40
0.0
 40
0.0
 40
0.0
 40
0.0
 40
0.5504133177227624
 40
1.0
 40
1.0
 40
1.0
 40
1.0
 10
241.455480599829
 20
-12.46325600386953
 30
0.0
 10
242.0748675475373
 20
-10.80122417233292
 30
0.0
 10
243.2001799768783
 20
-7.781617309597501
 30
0.0
 10
243.659005433214
 20
-4.697494188837473
 30
0.0
 10
243.8652872478724
 20
-3.310913507240453
 30
0.0
  0
LWPOLYLINE
  5
317
330
2E7
100
AcDbEntity
  8
0
  6
Continuous
 62
     7
370
    25
100
AcDbPolyline
 90
       38
 70
   128
 43
0.0
 10
-17.6776695297
 20
55.1082110483
 10
-20.8033797578
 20
56.7655891757
 10
-24.1613052002
 20
58.2639698769
 10
-27.7272519271
 20
59.5925572845
 10
-31.4755272106
 20
60.741778896
 10
-35.3791246414
 20
61.7033545431
 10
-39.4099187106
 20
62.4703560514
 10
-43.5388674546
 20
63.0372571574
 10
-47.736221703
 20
63.3999733257
 10
-51.9717394223
 20
63.5558911779
 10
-56.2149036103
 20
63.5038873223
 10
-60.4351421717
 20
63.244336448
 10
-64.602048191
 20
62.7791086248
 10
-68.6855990149
 20
62.1115558301
 10
-72.6563725661
 20
61.2464877968
 10
-76.4857593302
 20
60.1901373601
 10
-80.1461684877
 20
58.950115549
 10
-83.6112267069
 20
57.5353567491
 10
-86.8559681639
 20
55.95605433
 10
-89.8570144221
 20
54.2235872017
 10
-92.5927428744
 20
52.3504378297
 10
-95.0434425347
 20
50.3501022981
 10
-97.1914560557
 20
48.2369930703
 10
-99.0213069509
 20
46.0263351465
 10
-100.5198111025
 20
43.734056368
 10
-101.6761717539
 20
41.3766726557
 10
-102.4820573
 20
38.9711690133
 10
-102.931661317
 20
36.5348771497
 10
-103.0217443977
 20
34.0853506036
 10
-102.7516574914
 20
31.64023827
 10
-102.1233465805
 20
29.2171572391
 10
-101.1413386594
 20
26.8335658654
 10
-99.8127091178
 20
24.5066379793
 10
-98.1470307619
 20
22.2531391495
 10
-96.1563048425
 20
20.0893058868
 10
-93.8548745854
 20
18.0307286594
 10
-91.2593218483
 20
16.0922395634
 10
-88.3883476483
 20
14.2878054572
  0
LWPOLYLINE
  5
319
330
2E7
100
AcDbEntity
  8
0
  6
Continuous
 62
     7
370
    25
100
AcDbPolyline
 90
       38
 70
   128
 43
0.0
 10
17.6776695297
 20
-46.9428029295
 10
20.8033797578
 20
-48.6001810569
 10
24.1613052002
 20
-50.098561758
 10
27.7272519271
 20
-51.4271491657
 10
31.4755272106
 20
-52.5763707771
 10
35.3791246414
 20
-53.5379464243
 10
39.4099187106
 20
-54.3049479325
 10
43.5388674546
 20
-54.8718490385
 10
47.736221703
 20
-55.2345652068
 10
51.9717394223
 20
-55.390483059
 10
56.2149036103
 20
-55.3384792034
 10
60.4351421717
 20
-55.0789283291
 10
64.602048191
 20
-54.613700506
 10
68.6855990149
 20
-53.9461477112
 10
72.6563725661
 20
-53.081079678
 10
76.4857593302
 20
-52.0247292412
 10
80.1461684877
 20
-50.7847074301
 10
83.6112267069
 20
-49.3699486303
 10
86.8559681639
 20
-47.7906462111
 10
89.8570144221
 20
-46.0581790829
 10
92.5927428744
 20
-44.1850297109
 10
95.0434425347
 20
-42.1846941793
 10
97.1914560557
 20
-40.0715849514
 10
99.0213069509
 20
-37.8609270277
 10
100.5198111025
 20
-35.5686482491
 10
101.6761717539
 20
-33.2112645368
 10
102.4820573
 20
-30.8057608944
 10
102.931661317
 20
-28.3694690309
 10
103.0217443977
 20
-25.9199424848
 10
102.7516574914
 20
-23.4748301511
 10
102.1233465805
 20
-21.0517491202
 10
101.1413386594
 20
-18.6681577465
 10
99.8127091178
 20
-16.3412298604
 10
98.1470307619
 20
-14.0877310307
 10
96.1563048425
 20
-11.923897768
 10
93.8548745854
 20
-9.8653205406
 10
91.2593218483
 20
-7.9268314446
 10
88.3883476483
 20
-6.1223973384
  0
SPLINE
  5
31B
330
2E7
100
AcDbEntity
  8
0
  6
Continuous
 62
     7
370
    25
100
AcDbSpline
210
0.0
220
0.0
230
1.0
 70
     8
 71
     3
 72
     9
 73
     5
 74
     0
 42
0.000000001
 43
0.00000001
 40
0.0
 40
0.0
 40
0.0
 40
0.0
 40
0.4574428402092962
 40
1.0
 40
1.0
 40
1.0
 40
1.0
 10
-296.9612162951648
 20
124.7225472425366
 30
0.0
 10
-296.1957595349787
 20
123.2771490485141
 30
0.0
 10
-294.5224209385411
 20
120.1174139581993
 30
0.0
 10
-292.1739685030216
 20
117.0946998629741
 30
0.0
 10
-290.8997988197025
 20
115.4547046886094
 30
0.0
  0
SPLINE
  5
31C
330
2E7
100
AcDbEntity
  8
0
  6
Continuous
 62
     7
370
    25
100
AcDbSpline
210
0.0
220
0.0
230
1.0
 70
     8
 71
     3
 72
    32
 73
    28
 74
     0
 42
0.000000001
 43
0.00000001
 40
0.0
 40
0.0
 40
0.0
 40
0.0
 40
0.0039062500000001
 40
0.0039062500000001
 40
0.0078125000000001
 40
0.0156250000000003
 40
0.0312500000000003
 40
0.0625000000000002
 40
0.0625000000000002
 40
0.1250000000000002
 40
0.1250000000000002
 40
0.2500000000000001
 40
0.2500000000000001
 40
0.5000000000000001
 40
0.5000000000000001
 40
0.7500000000000001
 40
0.7500000000000001
 40
0.8750000000000001
 40
0.8750000000000001
 40
0.9375000000000002
 40
0.9375000000000002
 40
0.9687500000000002
 40
0.984375
 40
0.9921874999999999
 40
0.9960937499999999
 40
0.9960937499999999
 40
1.0
 40
1.0
 40
1.0
 40
1.0
 10
201.1629937743338
 20
65.62232707016139
 30
0.0
 10
200.8386640346582
 20
65.80871072183136
 30
0.0
 10
200.5124566791344
 20
65.99456740139706
 30
0.0
 10
199.8608493521601
 20
66.37020206688008
 30
0.0
 10
198.8834435697444
 20
66.93365484890032
 30
0.0
 10
196.6028657282185
 20
68.24838426214461
 30
0.0
 10
192.0418458969415
 20
70.8778743379242
 30
0.0
 10
188.132609186467
 20
73.13179815749609
 30
0.0
 10
180.3143369099001
 20
77.63980695615172
 30
0.0
 10
175.1024293345771
 20
80.6453596901773
 30
0.0
 10
159.4667141164558
 20
89.66319134594058
 30
0.0
 10
149.0430343098377
 20
95.6766149589836
 30
0.0
 10
117.7628289970892
 20
113.7261711318331
 30
0.0
 10
96.89797663969662
 20
125.7705762966044
 30
0.0
 10
55.06050790855082
 20
149.9228328291433
 30
0.0
 10
34.08796331482006
 20
162.030642788664
 30
0.0
 10
2.612560388905338
 20
180.2091280514626
 30
0.0
 10
-7.882256613552907
 20
186.2716955955302
 30
0.0
 10
-23.62427685609271
 20
195.3678450907327
 30
0.0
 10
-28.87161253718903
 20
198.4002849860059
 30
0.0
 10
-36.742206820006
 20
202.9492661093267
 30
0.0
 10
-40.67740378842656
 20
205.2238374839953
 30
0.0
 10
-45.26822474347505
 20
207.8775926688057
 30
0.0
 10
-47.56356775494741
 20
209.2044861524388
 30
0.0
 10
-48.54727101705321
 20
209.7731575313876
 30
0.0
 10
-49.20306974461841
 20
210.152272320953
 30
0.0
 10
-49.53055897584709
 20
210.343786649801
 30
0.0
 10
-49.85991354680271
 20
210.5347669186419
 30
0.0
  0
SPLINE
  5
31D
330
2E7
100
AcDbEntity
  8
0
  6
Continuous
 62
     7
370
    25
100
AcDbSpline
210
0.0
220
0.0
230
1.0
 70
    11
 71
     3
 72
    95
 73
    91
 74
     0
 42
0.000000001
 43
0.00000001
 40
0.0
 40
0.0
 40
0.0
 40
0.0
 40
0.0156249999999998
 40
0.0156249999999998
 40
0.0312499999999996
 40
0.0312499999999996
 40
0.0624999999999993
 40
0.0624999999999993
 40
0.0781249999999991
 40
0.0781249999999991
 40
0.093749999999999
 40
0.093749999999999
 40
0.1249999999999987
 40
0.1249999999999987
 40
0.1406249999999985
 40
0.1406249999999985
 40
0.1562499999999984
 40
0.1718749999999982
 40
0.1718749999999982
 40
0.1874999999999981
 40
0.1874999999999981
 40
0.2187499999999978
 40
0.2187499999999978
 40
0.2499999999999974
 40
0.2499999999999974
 40
0.2812499999999971
 40
0.2812499999999971
 40
0.2968749999999969
 40
0.2968749999999969
 40
0.3124999999999967
 40
0.3281249999999965
 40
0.3281249999999965
 40
0.3437499999999963
 40
0.3437499999999963
 40
0.3749999999999964
 40
0.3749999999999964
 40
0.3906249999999964
 40
0.3906249999999964
 40
0.4062499999999964
 40
0.4062499999999964
 40
0.4374999999999962
 40
0.4374999999999962
 40
0.4531249999999959
 40
0.4531249999999959
 40
0.4687499999999957
 40
0.4687499999999957
 40
0.4999999999999954
 40
0.4999999999999954
 40
0.5312499999999951
 40
0.5312499999999951
 40
0.546874999999995
 40
0.546874999999995
 40
0.5624999999999949
 40
0.5781249999999949
 40
0.5781249999999949
 40
0.5937499999999948
 40
0.5937499999999948
 40
0.6249999999999946
 40
0.6249999999999946
 40
0.6406249999999947
 40
0.6406249999999947
 40
0.6562499999999948
 40
0.6562499999999948
 40
0.687499999999995
 40
0.687499999999995
 40
0.7031249999999952
 40
0.7031249999999952
 40
0.7187499999999953
 40
0.7187499999999953
 40
0.7499999999999963
 40
0.7499999999999963
 40
0.7812499999999973
 40
0.7812499999999973
 40
0.7968749999999976
 40
0.7968749999999976
 40
0.8124999999999978
 40
0.8124999999999978
 40
0.8437499999999983
 40
0.8437499999999983
 40
0.8749999999999988
 40
0.8749999999999988
 40
0.9062499999999992
 40
0.9062499999999992
 40
0.9218749999999993
 40
0.9218749999999993
 40
0.9374999999999994
 40
0.9374999999999994
 40
0.9687499999999998
 40
0.9687499999999998
 40
1.0
 40
1.0
 40
1.0
 40
1.0
 10
75.61567969727278
 20
128.219894643162
 30
0.0
 10
75.87281960560537
 20
128.0714509337949
 30
0.0
 10
76.12826345136268
 20
127.9083190577657
 30
0.0
 10
76.63575543863662
 20
127.5527841996264
 30
0.0
 10
76.88736804241923
 20
127.3605447833776
 30
0.0
 10
77.6258435190556
 20
126.7490888541662
 30
0.0
 10
78.1002842398389
 20
126.2929235871227
 30
0.0
 10
78.78451413224836
 20
125.5354560108733
 30
0.0
 10
79.00917761475944
 20
125.2691022392422
 30
0.0
 10
79.441892379063
 20
124.7195357518003
 30
0.0
 10
79.64983717556757
 20
124.4367234356253
 30
0.0
 10
80.24885519568825
 20
123.5647039724316
 30
0.0
 10
80.61536038249325
 20
122.952146542382
 30
0.0
 10
81.11309326734832
 20
121.9843245363931
 30
0.0
 10
81.26857070626414
 20
121.6566232787968
 30
0.0
 10
81.55594859618884
 20
120.997787962562
 30
0.0
 10
81.82081414459688
 20
120.3334551823609
 30
0.0
 10
82.0407950566431
 20
119.6580937583835
 30
0.0
 10
82.23776532581928
 20
118.977047008206
 30
0.0
 10
82.32501018195632
 20
118.6320474909282
 30
0.0
 10
82.54631687906499
 20
117.6091405854097
 30
0.0
 10
82.64220502925411
 20
116.9382996364364
 30
0.0
 10
82.73180229578469
 20
115.6181467139455
 30
0.0
 10
82.72413888256166
 20
114.9643041210177
 30
0.0
 10
82.60496150235352
 20
113.732449588068
 30
0.0
 10
82.49462589224791
 20
113.1480216237301
 30
0.0
 10
82.25206244252385
 20
112.3194631998651
 30
0.0
 10
82.15789528347044
 20
112.0508911406481
 30
0.0
 10
81.94768205132205
 20
111.5416563374341
 30
0.0
 10
81.71486000170478
 20
111.0572668979804
 30
0.0
 10
81.437849209142
 20
110.621744376176
 30
0.0
 10
81.13863625695379
 20
110.2109599693888
 30
0.0
 10
80.97734413105276
 20
110.0173322573607
 30
0.0
 10
80.46295052318445
 20
109.4791671140708
 30
0.0
 10
80.08620824782656
 20
109.1831131298021
 30
0.0
 10
79.47283912306776
 20
108.8304995334146
 30
0.0
 10
79.26028038834332
 20
108.728317297988
 30
0.0
 10
78.81865238745686
 20
108.5555826168573
 30
0.0
 10
78.58933506410891
 20
108.4852281955923
 30
0.0
 10
77.89194373422633
 20
108.3267066313986
 30
0.0
 10
77.40965114223498
 20
108.2883729782955
 30
0.0
 10
76.66085928435196
 20
108.3321764673907
 30
0.0
 10
76.40603310737666
 20
108.3639794842157
 30
0.0
 10
75.89221894405937
 20
108.4621938882164
 30
0.0
 10
75.63452636464223
 20
108.5282187305994
 30
0.0
 10
74.85921196612159
 20
108.7765850268124
 30
0.0
 10
74.33614663712402
 20
109.0115831154898
 30
0.0
 10
73.32001250808149
 20
109.5992090268167
 30
0.0
 10
72.82293169617948
 20
109.9523401086932
 30
0.0
 10
72.09394937998212
 20
110.5726280332932
 30
0.0
 10
71.85360636155711
 20
110.7949867438599
 30
0.0
 10
71.38908459287315
 20
111.2603563500283
 30
0.0
 10
70.93793920901894
 20
111.748601973159
 30
0.0
 10
70.51289438611396
 20
112.2817071840534
 30
0.0
 10
70.10093018823568
 20
112.8374360605483
 30
0.0
 10
69.90050862647986
 20
113.1281817496222
 30
0.0
 10
69.32707265334149
 20
114.0235077915205
 30
0.0
 10
68.98373286588027
 20
114.6465816572795
 30
0.0
 10
68.52452867865907
 20
115.6189351859082
 30
0.0
 10
68.38082945984527
 20
115.9493893508701
 30
0.0
 10
68.11255322474392
 20
116.6232705651539
 30
0.0
 10
67.98902828482733
 20
116.9643244679268
 30
0.0
 10
67.65418047311083
 20
117.9859413624185
 30
0.0
 10
67.47603695748856
 20
118.6704263382648
 30
0.0
 10
67.27607127574909
 20
119.7019688824084
 30
0.0
 10
67.2205345778203
 20
120.0484571569641
 30
0.0
 10
67.13438399401025
 20
120.7303142526153
 30
0.0
 10
67.10349583510559
 20
121.0663884988398
 30
0.0
 10
67.04644326162811
 20
122.0603277074558
 30
0.0
 10
67.05552935940517
 20
122.7040436506049
 30
0.0
 10
67.17155314585717
 20
123.9519379909195
 30
0.0
 10
67.2770208488874
 20
124.5378824424776
 30
0.0
 10
67.50295655560066
 20
125.3561470682746
 30
0.0
 10
67.58967619949021
 20
125.6190661919438
 30
0.0
 10
67.78649347079002
 20
126.124835116601
 30
0.0
 10
67.89725774828288
 20
126.3687188378408
 30
0.0
 10
68.25860357043588
 20
127.0550387655176
 30
0.0
 10
68.53892758528124
 20
127.4566262529385
 30
0.0
 10
69.17834986020193
 20
128.149906769546
 30
0.0
 10
69.54138509780697
 20
128.4425559862273
 30
0.0
 10
70.31950762181243
 20
128.8915198917093
 30
0.0
 10
70.73686414492944
 20
129.0518717401002
 30
0.0
 10
71.40698683983777
 20
129.1951404756785
 30
0.0
 10
71.63851780217205
 20
129.2264349453171
 30
0.0
 10
72.10663753698861
 20
129.2548060131498
 30
0.0
 10
72.3443436717389
 20
129.2522329367482
 30
0.0
 10
73.06838275151543
 20
129.1952985018407
 30
0.0
 10
73.56721927244641
 20
129.0916435626158
 30
0.0
 10
74.58891380173641
 20
128.7504433849855
 30
0.0
 10
75.10139988060756
 20
128.5167820618964
 30
0.0
 10
75.61567969727277
 20
128.219894643162
 30
0.0
  0
LWPOLYLINE
  5
320
330
2E7
100
AcDbEntity
  8
0
  6
Continuous
 62
     7
370
    25
100
AcDbPolyline
 90
       61
 70
   128
 43
0.0
 10
-17.6776695297
 20
-6.1223973384
 10
-19.9539428885
 20
-4.6629807046
 10
-21.9534925993
 20
-3.0742017504
 10
-23.6544111772
 20
-1.3734674706
 10
-25.0380630023
 20
0.4205885342
 10
-26.0892884955
 20
2.288310211
 10
-26.7965702104
 20
4.2092344103
 10
-27.1521590206
 20
6.1623150845
 10
-27.1521590206
 20
8.126153873
 10
-26.7965702104
 20
10.0792345472
 10
-26.0892884955
 20
12.0001587465
 10
-25.0380630023
 20
13.8678804233
 10
-23.6544111772
 20
15.6619364281
 10
-21.9534925993
 20
17.3626707079
 10
-19.9539428885
 20
18.9514496621
 10
-17.6776695297
 20
20.4108662959
 10
-15.1496118502
 20
21.7249309353
 10
-12.3974677791
 20
22.8792464131
 10
-9.4513903826
 20
23.8611658073
 10
-6.3436575013
 20
24.6599310037
 10
-3.1083181069
 20
25.2667905636
 10
0.2191807451
 20
25.6750956066
 10
3.602382281
 20
25.8803726573
 10
7.0042194368
 20
25.8803726573
 10
10.3874209727
 20
25.6750956066
 10
13.7149198247
 20
25.2667905636
 10
16.9502592191
 20
24.6599310037
 10
20.0579921004
 20
23.8611658073
 10
23.0040694969
 20
22.8792464131
 10
25.756213568
 20
21.7249309353
 10
28.2842712475
 20
20.4108662959
 10
30.5605446063
 20
18.9514496621
 10
32.5600943171
 20
17.3626707079
 10
34.261012895
 20
15.6619364281
 10
35.6446647201
 20
13.8678804233
 10
36.6958902133
 20
12.0001587465
 10
37.4031719282
 20
10.0792345472
 10
37.7587607384
 20
8.126153873
 10
37.7587607384
 20
6.1623150845
 10
37.4031719282
 20
4.2092344103
 10
36.6958902133
 20
2.288310211
 10
35.6446647201
 20
0.4205885342
 10
34.261012895
 20
-1.3734674706
 10
32.5600943171
 20
-3.0742017504
 10
30.5605446063
 20
-4.6629807046
 10
28.2842712475
 20
-6.1223973384
 10
25.756213568
 20
-7.4364619777
 10
23.0040694969
 20
-8.5907774555
 10
20.0579921004
 20
-9.5726968498
 10
16.9502592191
 20
-10.3714620462
 10
13.7149198247
 20
-10.9783216061
 10
10.3874209727
 20
-11.3866266491
 10
7.0042194368
 20
-11.5919036998
 10
3.602382281
 20
-11.5919036998
 10
0.2191807451
 20
-11.3866266491
 10
-3.1083181069
 20
-10.9783216061
 10
-6.3436575013
 20
-10.3714620462
 10
-9.4513903826
 20
-9.5726968498
 10
-12.3974677791
 20
-8.5907774555
 10
-15.1496118502
 20
-7.4364619777
 10
-17.6776695297
 20
-6.1223973384
  0
LWPOLYLINE
  5
321
330
2E7
100
AcDbEntity
  8
0
  6
Continuous
 62
     7
370
    25
100
AcDbPolyline
 90
        8
 70
   128
 43
0.0
 10
36.7500724951
 20
198.8944664779
 10
37.1310289139
 20
200.0866115929
 10
37.7844657262
 20
201.1210818362
 10
38.6638437383
 20
201.8507854763
 10
39.7353689463
 20
202.2476804113
 10
40.9578632375
 20
202.2965141917
 10
42.2843468419
 20
201.9954101625
 10
43.6638437383
 20
201.3559395827
  0
LWPOLYLINE
  5
324
330
2E7
100
AcDbEntity
  8
0
  6
Continuous
 62
     7
370
    25
100
AcDbPolyline
 90
       14
 70
   128
 43
0.0
 10
202.2484491919
 20
118.3577089855
 10
201.5254326382
 20
118.8010483767
 10
199.6384231314
 20
119.7449732728
 10
197.537921235
 20
120.5242600753
 10
195.2666871104
 20
121.1230447522
 10
192.8709565346
 20
121.5291377742
 10
190.3994996734
 20
121.7342722585
 10
187.9026282614
 20
121.7342722585
 10
185.4311714002
 20
121.5291377742
 10
183.0354408244
 20
121.1230447522
 10
180.7642066998
 20
120.5242600753
 10
178.6637048035
 20
119.7449732728
 10
176.7766952966
 20
118.8010483767
 10
176.0663179629
 20
118.3659337527
  0
LWPOLYLINE
  5
328
330
2E7
100
AcDbEntity
  8
0
  6
Continuous
 62
     7
370
    25
100
AcDbPolyline
 90
       51
 70
   128
 43
0.0
 10
-10.6066017178
 20
-2.7547374227
 10
-8.4871078483
 20
-3.8334486987
 10
-6.1501309955
 20
-4.7503015627
 10
-3.6325266804
 20
-5.4908366973
 10
-0.973999027
 20
-6.0433754212
 10
1.7835253955
 20
-6.3992038686
 10
4.5965587796
 20
-6.5527104123
 10
7.4207379086
 20
-6.5014741624
 10
10.2115237903
 20
-6.2463031451
 10
12.9249040644
 20
-5.7912215599
 10
15.518087103
 20
-5.1434063152
 10
17.9501768606
 20
-4.3130738444
 10
20.1828178287
 20
-3.3133189866
 10
22.1807999256
 20
-2.1599084731
 10
23.9126137801
 20
-0.8710322767
 10
25.3509476531
 20
0.532983255
 10
26.4731181604
 20
2.0299959584
 10
27.2614280025
 20
3.5963970488
 10
27.7034450625
 20
5.2074834454
 10
27.7921984671
 20
6.8378473533
 10
27.5262885223
 20
8.4617769596
 10
26.9099087866
 20
10.0536619245
 10
25.9527799368
 20
11.588397271
 10
24.6699964665
 20
13.041779306
 10
23.0817886374
 20
14.3908873266
 10
21.2132034356
 20
15.6144450933
 10
19.0937095661
 20
16.6931563693
 10
16.7567327133
 20
17.6100092333
 10
14.2391283982
 20
18.3505443679
 10
11.5806007448
 20
18.9030830918
 10
8.8230763223
 20
19.2589115392
 10
6.0100429382
 20
19.4124180829
 10
3.1858638092
 20
19.361181833
 10
0.3950779275
 20
19.1060108157
 10
-2.3183023466
 20
18.6509292305
 10
-4.9114853852
 20
18.0031139858
 10
-7.3435751428
 20
17.1727815151
 10
-9.5762161109
 20
16.1730266572
 10
-11.5741982078
 20
15.0196161437
 10
-13.3060120623
 20
13.7307399473
 10
-14.7443459353
 20
12.3267244156
 10
-15.8665164426
 20
10.8297117122
 10
-16.6548262847
 20
9.2633106218
 10
-17.0968433447
 20
7.6522242252
 10
-17.1855967493
 20
6.0218603173
 10
-16.9196868045
 20
4.397930711
 10
-16.3033070688
 20
2.8060457461
 10
-15.346178219
 20
1.2713103996
 10
-14.0633947487
 20
-0.1820716354
 10
-12.4751869196
 20
-1.531179656
 10
-10.6066017178
 20
-2.7547374227
  0
LWPOLYLINE
  5
32D
330
2E7
100
AcDbEntity
  8
0
  6
Continuous
 62
     7
370
    25
100
AcDbPolyline
 90
        6
 70
   128
 43
0.0
 10
-97.2267760928
 20
337.4546368044
 10
-97.2271824131
 20
337.4544022217
 10
-96.2517308031
 20
337.9066767495
 10
-95.3137652513
 20
338.1197041609
 10
-94.4493312481
 20
338.0852979317
 10
-93.6916485072
 20
337.8047802742
  0
LWPOLYLINE
  5
32F
330
2E7
100
AcDbEntity
  8
0
  6
Continuous
 62
     7
370
    25
100
AcDbPolyline
 90
       14
 70
   128
 43
0.0
 10
34.6387304284
 20
200.0026922729
 10
35.3553390593
 20
200.441859559
 10
37.2423485661
 20
201.3857844551
 10
39.3428504625
 20
202.1650712576
 10
41.6140845871
 20
202.7638559345
 10
44.0098151629
 20
203.1699489565
 10
46.4812720241
 20
203.3750834408
 10
48.9781434361
 20
203.3750834408
 10
51.4496002973
 20
203.1699489565
 10
53.8453308731
 20
202.7638559345
 10
56.1165649977
 20
202.1650712576
 10
58.217066894
 20
201.3857844551
 10
60.1040764009
 20
200.441859559
 10
60.834594275
 20
199.9936302677
  0
SPLINE
  5
332
330
2E7
100
AcDbEntity
  8
0
  6
Continuous
 62
     8
370
    25
100
AcDbSpline
210
0.0
220
0.0
230
1.0
 70
     8
 71
     3
 72
    19
 73
    15
 74
     0
 42
0.000000001
 43
0.00000001
 40
0.0
 40
0.0
 40
0.0
 40
0.0
 40
0.0394045943345598
 40
0.1352439883727524
 40
0.2283857482469067
 40
0.3221664042838993
 40
0.4169288543886147
 40
0.5130308019028511
 40
0.607496110713547
 40
0.702609197085813
 40
0.7987205718278173
 40
0.8961924412174233
 40
0.971964885515273
 40
1.0
 40
1.0
 40
1.0
 40
1.0
 10
243.8652872478724
 20
-3.310913507240453
 30
0.0
 10
244.0634961621136
 20
-2.323011210482742
 30
0.0
 10
244.743786482207
 20
1.067655512329745
 30
0.0
 10
244.7888718296522
 20
6.854991636171249
 30
0.0
 10
244.0443944544015
 20
13.99579364587038
 30
0.0
 10
242.2229996155951
 20
21.0536565583721
 30
0.0
 10
239.3829079576242
 20
28.071022180917
 30
0.0
 10
235.5198655755077
 20
34.93750661661463
 30
0.0
 10
230.6732858788399
 20
41.59240460926273
 30
0.0
 10
224.8889859455075
 20
47.98083775448659
 30
0.0
 10
218.1316257060475
 20
54.11826034136074
 30
0.0
 10
211.0057547234299
 20
59.49843287792876
 30
0.0
 10
205.1883983617788
 20
63.27336494338531
 30
0.0
 10
202.0189585060832
 20
65.1228421878203
 30
0.0
 10
201.1629937743338
 20
65.62232707016139
 30
0.0
  0
SPLINE
  5
334
330
2E7
100
AcDbEntity
  8
0
  6
Continuous
 62
     8
370
    25
100
AcDbSpline
210
0.0
220
0.0
230
1.0
 70
     8
 71
     3
 72
    39
 73
    35
 74
     0
 42
0.000000001
 43
0.00000001
 40
0.0
 40
0.0
 40
0.0
 40
0.0
 40
0.0318230664974455
 40
0.0638670237138708
 40
0.096611784085768
 40
0.1296007844439797
 40
0.1613604683875758
 40
0.193345860823658
 40
0.2260485548962027
 40
0.2590009074227334
 40
0.2902981112777716
 40
0.3218167896649916
 40
0.3540388855028697
 40
0.3865055861052651
 40
0.4173458544365017
 40
0.4486277846938487
 40
0.4801336775210358
 40
0.5120991984726502
 40
0.54277454794987
 40
0.573873759812342
 40
0.6051875867008712
 40
0.6369372519298074
 40
0.6681518653495645
 40
0.6998106510737616
 40
0.7316955286660134
 40
0.7640455855973732
 40
0.7954766548530814
 40
0.8271304999182
 40
0.8594888294403478
 40
0.8920908298495155
 40
0.9234036644616731
 40
0.9549370709655932
 40
0.9871660162737959
 40
0.9999999999999999
 40
0.9999999999999999
 40
0.9999999999999999
 40
0.9999999999999999
 10
-49.85991354680274
 20
210.5347669186417
 30
0.0
 10
-52.93226133478498
 20
212.2321644102597
 30
0.0
 10
-59.09828273464195
 20
215.6387413929564
 30
0.0
 10
-69.30600882554582
 20
220.1777991208207
 30
0.0
 10
-80.21177659220474
 20
224.2675306157796
 30
0.0
 10
-91.66014807530719
 20
227.7623009804765
 30
0.0
 10
-103.4784659183836
 20
230.6485803348087
 30
0.0
 10
-115.6375847371673
 20
232.9334875107416
 30
0.0
 10
-128.2436037524831
 20
234.6237250800593
 30
0.0
 10
-140.9659866219433
 20
235.665109070726
 30
0.0
 10
-153.637000481693
 20
236.0702673576938
 30
0.0
 10
-166.2249617801401
 20
235.8692859554578
 30
0.0
 10
-178.8897607817249
 20
235.0475039773843
 30
0.0
 10
-191.2920763544732
 20
233.6182513837834
 30
0.0
 10
-203.3118760575409
 20
231.6207376734829
 30
0.0
 10
-214.8749147267339
 20
229.0933006645959
 30
0.0
 10
-226.1517813966531
 20
225.9929740032525
 30
0.0
 10
-236.849326420424
 20
222.3896644134861
 30
0.0
 10
-246.926740652462
 20
218.313991648862
 30
0.0
 10
-256.3085164214746
 20
213.8170613503665
 30
0.0
 10
-265.0951766020088
 20
208.8315072345788
 30
0.0
 10
-273.1316504366345
 20
203.4106658877228
 30
0.0
 10
-280.3703939524297
 20
197.5877995716031
 30
0.0
 10
-286.7420961531081
 20
191.413328171966
 30
0.0
 10
-292.2449810749779
 20
184.8594576627335
 30
0.0
 10
-296.7405642133206
 20
178.0608840402857
 30
0.0
 10
-300.2063874657636
 20
171.0716752178015
 30
0.0
 10
-302.6402640779179
 20
163.9267242883062
 30
0.0
 10
-304.0259275535004
 20
156.5869001782052
 30
0.0
 10
-304.2992826699278
 20
149.2204011002782
 30
0.0
 10
-303.5122705665165
 20
141.9163246369023
 30
0.0
 10
-301.6157082440599
 20
134.7043395985362
 30
0.0
 10
-299.4356099641505
 20
128.943725832412
 30
0.0
 10
-297.5097140745074
 20
125.6582540832772
 30
0.0
 10
-296.9612162951648
 20
124.7225472425366
 30
0.0
  0
LWPOLYLINE
  5
339
330
2E7
100
AcDbEntity
  8
0
  6
Continuous
 62
     8
370
    25
100
AcDbPolyline
 90
       18
 70
   128
 43
0.0
 10
201.5254326382
 20
131.8657013669
 10
199.6384231314
 20
132.809626263
 10
197.537921235
 20
133.5889130655
 10
195.2666871104
 20
134.1876977424
 10
192.8709565346
 20
134.5937907644
 10
190.3994996734
 20
134.7989252487
 10
187.9026282614
 20
134.7989252487
 10
185.4311714002
 20
134.5937907644
 10
183.0354408244
 20
134.1876977424
 10
180.7642066998
 20
133.5889130655
 10
178.6637048035
 20
132.809626263
 10
176.7766952966
 20
131.8657013669
 10
175.1415922512
 20
130.776353966
 10
173.79168165
 20
129.563760032
 10
172.7544437799
 20
128.2526044806
 10
172.0509938129
 20
126.8695786577
 10
171.6956519617
 20
125.4428369808
 10
171.6513650741
 20
124.6628672506
  0
LWPOLYLINE
  5
33A
330
2E7
100
AcDbEntity
  8
0
  6
Continuous
 62
     8
370
    25
100
AcDbPolyline
 90
        7
 70
   128
 43
0.0
 10
206.6510639674
 20
124.7221303884
 10
206.6064759731
 20
125.4428369808
 10
206.2511341219
 20
126.8695786577
 10
205.5476841549
 20
128.2526044806
 10
204.5104462848
 20
129.563760032
 10
203.1605356836
 20
130.776353966
 10
201.5254326382
 20
131.8657013669
  0
SPLINE
  5
33B
330
2E7
100
AcDbEntity
  8
0
  6
Continuous
 62
     8
370
    25
100
AcDbSpline
210
0.0
220
0.0
230
1.0
 70
     8
 71
     3
 72
    18
 73
    14
 74
     0
 42
0.000000001
 43
0.00000001
 40
0.0
 40
0.0
 40
0.0
 40
0.0
 40
0.0263885016838628
 40
0.1362154619177568
 40
0.246604004634878
 40
0.3569120598006233
 40
0.4663273869028429
 40
0.5745276353709915
 40
0.6821691428532415
 40
0.7897876810321167
 40
0.8584581103288985
 40
0.96812749700103
 40
1.0
 40
1.0
 40
1.0
 40
1.0
 10
71.08468846524511
 20
127.9902958735818
 30
0.0
 10
70.92508295221315
 20
127.9286354718723
 30
0.0
 10
70.10121129239974
 20
127.6103491136122
 30
0.0
 10
69.1285465353261
 20
126.0141672421306
 30
0.0
 10
68.38947345421377
 20
123.3910226972034
 30
0.0
 10
68.47264020909589
 20
120.1903303039178
 30
0.0
 10
69.3137432901943
 20
116.9011735540273
 30
0.0
 10
70.8361220943146
 20
113.8661461046344
 30
0.0
 10
72.8801156916704
 20
111.4296518859463
 30
0.0
 10
74.96860558924082
 20
110.0292164153701
 30
0.0
 10
77.07208936502164
 20
109.4272936773527
 30
0.0
 10
78.65117294386512
 20
109.3827372745483
 30
0.0
 10
79.44524329712888
 20
109.9623725788593
 30
0.0
 10
79.6240526218779
 20
110.0928952673573
 30
0.0
  0
LWPOLYLINE
  5
33D
330
2E7
100
AcDbEntity
  8
0
  6
Continuous
 62
     8
370
    25
100
AcDbPolyline
 90
       18
 70
   128
 43
0.0
 10
130.8147545195
 20
172.686106958
 10
128.9277450127
 20
173.6300318541
 10
126.8272431163
 20
174.4093186566
 10
124.5560089917
 20
175.0081033335
 10
122.1602784159
 20
175.4141963555
 10
119.6888215547
 20
175.6193308398
 10
117.1919501428
 20
175.6193308398
 10
114.7204932816
 20
175.4141963555
 10
112.3247627058
 20
175.0081033335
 10
110.0535285811
 20
174.4093186566
 10
107.9530266848
 20
173.6300318541
 10
106.066017178
 20
172.686106958
 10
104.4309141326
 20
171.5967595571
 10
103.0810035313
 20
170.3841656232
 10
102.0437656613
 20
169.0730100717
 10
101.3403156943
 20
167.6899842489
 10
100.9849738431
 20
166.263242572
 10
100.9406869554
 20
165.4832728417
  0
LWPOLYLINE
  5
33E
330
2E7
100
AcDbEntity
  8
0
  6
Continuous
 62
     8
370
    25
100
AcDbPolyline
 90
        7
 70
   128
 43
0.0
 10
135.9403858487
 20
165.5425359796
 10
135.8957978544
 20
166.263242572
 10
135.5404560032
 20
167.6899842489
 10
134.8370060362
 20
169.0730100717
 10
133.7997681662
 20
170.3841656232
 10
132.4498575649
 20
171.5967595571
 10
130.8147545195
 20
172.686106958
  0
LWPOLYLINE
  5
341
330
2E7
100
AcDbEntity
  8
0
  6
Continuous
 62
     8
370
    25
100
AcDbPolyline
 90
       14
 70
   128
 43
0.0
 10
104.7409976536
 20
159.5806804614
 10
106.066017178
 20
160.4379947797
 10
107.9530266848
 20
161.3819196758
 10
110.0535285811
 20
162.1612064783
 10
112.3247627058
 20
162.7599911552
 10
114.7204932816
 20
163.1660841773
 10
117.1919501428
 20
163.3712186615
 10
119.6888215547
 20
163.3712186615
 10
122.1602784159
 20
163.1660841773
 10
124.5560089917
 20
162.7599911552
 10
126.8272431163
 20
162.1612064783
 10
128.9277450127
 20
161.3819196758
 10
130.8147545195
 20
160.4379947797
 10
132.1485424257
 20
159.5743070447
  0
LWPOLYLINE
  5
343
330
2E7
100
AcDbEntity
  8
0
  6
Continuous
 62
     8
370
    25
100
AcDbPolyline
 90
       18
 70
   128
 43
0.0
 10
60.1040764009
 20
213.5065125491
 10
58.217066894
 20
214.4504374453
 10
56.1165649977
 20
215.2297242478
 10
53.8453308731
 20
215.8285089247
 10
51.4496002973
 20
216.2346019467
 10
48.9781434361
 20
216.439736431
 10
46.4812720241
 20
216.439736431
 10
44.0098151629
 20
216.2346019467
 10
41.6140845871
 20
215.8285089247
 10
39.3428504625
 20
215.2297242478
 10
37.2423485661
 20
214.4504374453
 10
35.3553390593
 20
213.5065125491
 10
33.7202360139
 20
212.4171651483
 10
32.3703254127
 20
211.2045712143
 10
31.3330875426
 20
209.8934156629
 10
30.6296375756
 20
208.51038984
 10
30.2742957244
 20
207.0836481631
 10
30.2300088367
 20
206.3036784328
  0
LWPOLYLINE
  5
344
330
2E7
100
AcDbEntity
  8
0
  6
Continuous
 62
     8
370
    25
100
AcDbPolyline
 90
        7
 70
   128
 43
0.0
 10
65.2297077301
 20
206.3629415707
 10
65.1851197358
 20
207.0836481631
 10
64.8297778846
 20
208.51038984
 10
64.1263279176
 20
209.8934156629
 10
63.0890900475
 20
211.2045712143
 10
61.7391794463
 20
212.4171651483
 10
60.1040764009
 20
213.5065125491
  0
LINE
  5
345
330
2E7
100
AcDbEntity
  8
0
  6
Continuous
 62
     7
370
    25
100
AcDbLine
 10
99.7269792447
 20
-205.3647703454
 30
0.0
 11
417.9250307787
 21
-21.6729451853
 31
0.0
  0
LINE
  5
346
330
2E7
100
AcDbEntity
  8
0
  6
Continuous
 62
     7
370
    25
100
AcDbLine
 10
-414.3894968728
 20
88.5421499108
 30
0.0
 11
94.7273855816
 21
-205.3647703454
 31
0.0
  0
LINE
  5
347
330
2E7
100
AcDbEntity
  8
0
  6
Continuous
 62
     7
370
    25
100
AcDbLine
 10
-416.8897000412
 20
150.0302510547
 30
0.0
 11
-416.8897000412
 21
92.8723942227
 31
0.0
  0
LINE
  5
348
330
2E7
100
AcDbEntity
  8
0
  6
Continuous
 62
     7
370
    25
100
AcDbLine
 10
-97.2267760928
 20
337.4546368044
 30
0.0
 11
-414.3894968728
 21
154.3604953666
 31
0.0
  0
LINE
  5
349
330
2E7
100
AcDbEntity
  8
0
  6
Continuous
 62
     7
370
    25
100
AcDbLine
 10
100.7627163191
 20
-145.9176894811
 30
0.0
 11
100.7627163191
 21
-203.0755463131
 31
0.0
  0
LINE
  5
34A
330
2E7
100
AcDbEntity
  8
0
  6
Continuous
 62
     7
370
    25
100
AcDbLine
 10
93.6916485072
 20
-203.0755463131
 30
0.0
 11
93.6916485072
 21
-145.9176894811
 31
0.0
  0
LINE
  5
34B
330
2E7
100
AcDbEntity
  8
0
  6
Continuous
 62
     7
370
    25
100
AcDbLine
 10
93.6916485072
 20
-145.9176894811
 30
0.0
 11
-415.4252339471
 21
147.9892307751
 31
0.0
  0
LINE
  5
34C
330
2E7
100
AcDbEntity
  8
0
  6
Continuous
 62
     7
370
    25
100
AcDbLine
 10
-411.8897000412
 20
154.1129551141
 30
0.0
 11
97.2271824131
 21
-139.7939651421
 31
0.0
  0
LINE
  5
34D
330
2E7
100
AcDbEntity
  8
0
  6
Continuous
 62
     7
370
    25
100
AcDbLine
 10
418.960767853
 20
37.774135679
 30
0.0
 11
100.7627163191
 21
-145.9176894811
 31
0.0
  0
LINE
  5
34E
330
2E7
100
AcDbEntity
  8
0
  6
Continuous
 62
     7
370
    25
100
AcDbLine
 10
97.2271824131
 20
-139.7939651421
 30
0.0
 11
415.4252339471
 21
43.897860018
 31
0.0
  0
LINE
  5
34F
330
2E7
100
AcDbEntity
  8
0
  6
Continuous
 62
     7
370
    25
100
AcDbLine
 10
418.960767853
 20
37.774135679
 30
0.0
 11
418.960767853
 21
-19.383721153
 31
0.0
  0
LINE
  5
350
330
2E7
100
AcDbEntity
  8
0
  6
Continuous
 62
     7
370
    25
100
AcDbLine
 10
100.7627163191
 20
-203.0755463131
 30
0.0
 11
418.960767853
 21
-19.383721153
 31
0.0
  0
LINE
  5
351
330
2E7
100
AcDbEntity
  8
0
  6
Continuous
 62
     7
370
    25
100
AcDbLine
 10
-415.4252339471
 20
90.8313739431
 30
0.0
 11
93.6916485072
 21
-203.0755463131
 31
0.0
  0
LINE
  5
352
330
2E7
100
AcDbEntity
  8
0
  6
Continuous
 62
     7
370
    25
100
AcDbLine
 10
-415.4252339471
 20
147.9892307751
 30
0.0
 11
-415.4252339471
 21
90.8313739431
 31
0.0
  0
LINE
  5
353
330
2E7
100
AcDbEntity
  8
0
  6
Continuous
 62
     7
370
    25
100
AcDbLine
 10
-93.6916485072
 20
337.8047802742
 30
0.0
 11
-411.8897000412
 21
154.1129551141
 31
0.0
  0
LINE
  5
354
330
2E7
100
AcDbEntity
  8
0
  6
Continuous
 62
     7
370
    25
100
AcDbLine
 10
415.4252339471
 20
43.897860018
 30
0.0
 11
-93.6916485072
 21
337.8047802742
 31
0.0
  0
LINE
  5
355
330
2E7
100
AcDbEntity
  8
0
  6
Continuous
 62
     7
370
    25
100
AcDbLine
 10
-88.3883476483
 20
14.2878054572
 30
0.0
 11
17.6776695297
 21
-46.9428029295
 31
0.0
  0
LINE
  5
356
330
2E7
100
AcDbEntity
  8
0
  6
Continuous
 62
     7
370
    25
100
AcDbLine
 10
88.3883476483
 20
-6.1223973384
 30
0.0
 11
-17.6776695297
 21
55.1082110483
 31
0.0
  0
LINE
  5
357
330
2E7
100
AcDbEntity
  8
0
  6
Continuous
 62
     7
370
    25
100
AcDbLine
 10
43.6638437383
 20
201.3559395827
 30
0.0
 11
51.349555229
 21
196.9190727805
 31
0.0
  0
LINE
  5
358
330
2E7
100
AcDbEntity
  8
0
  6
Continuous
 62
     7
370
    25
100
AcDbLine
 10
206.6380833012
 20
124.3330903705
 30
0.0
 11
206.6510639674
 21
124.7221303884
 31
0.0
  0
LINE
  5
359
330
2E7
100
AcDbEntity
  8
0
  6
Continuous
 62
     7
370
    25
100
AcDbLine
 10
81.3191235088
 20
120.1962847218
 30
0.0
 11
81.3191235088
 21
120.9659925697
 31
0.0
  0
LINE
  5
35A
330
2E7
100
AcDbEntity
  8
0
  6
Continuous
 62
     7
370
    25
100
AcDbLine
 10
12.4333334865
 20
-5.8896963494
 30
0.0
 11
16.396500592
 21
-3.6018086785
 31
0.0
  0
LINE
  5
35B
330
2E7
100
AcDbEntity
  8
0
  6
Continuous
 62
     7
370
    25
100
AcDbLine
 10
-1.5501448963
 20
-2.5306152256
 30
0.0
 11
-1.5501448963
 21
-5.9418983812
 31
0.0
  0
LINE
  5
35C
330
2E7
100
AcDbEntity
  8
0
  6
Continuous
 62
     7
370
    25
100
AcDbLine
 10
71.1924011462
 20
128.0377305476
 30
0.0
 11
71.0846884652
 21
127.9902958736
 31
0.0
  0
LINE
  5
35D
330
2E7
100
AcDbEntity
  8
0
  6
Continuous
 62
     7
370
    25
100
AcDbLine
 10
79.6240526219
 20
110.0928952674
 30
0.0
 11
79.8119657929
 21
110.2160998082
 31
0.0
  0
LINE
  5
35E
330
2E7
100
AcDbEntity
  8
0
  6
Continuous
 62
     7
370
    25
100
AcDbLine
 10
135.9274051826
 20
165.1534959617
 30
0.0
 11
135.9403858487
 21
165.5425359796
 31
0.0
  0
LINE
  5
35F
330
2E7
100
AcDbEntity
  8
0
  6
Continuous
 62
     7
370
    25
100
AcDbLine
 10
65.2167270639
 20
205.9739015528
 30
0.0
 11
65.2297077301
 21
206.3629415707
 31
0.0
  0
LINE
  5
360
330
2E7
100
AcDbEntity
  8
0
  6
Continuous
 62
     7
370
    25
100
AcDbLine
 10
51.0334441329
 20
197.1015598319
 30
0.0
 11
51.1288509169
 21
196.8857099826
 31
0.0
  0
ARC
  5
361
330
2E7
100
AcDbEntity
  8
0
  6
Continuous
 62
     7
370
    25
100
AcDbCircle
 10
97.2271824131
 20
-201.0345260335
 30
0.0
 40
5.000000000000126
100
AcDbArc
 50
240.0026882664
 51
299.9973117337
  0
ARC
  5
362
330
2E7
100
AcDbEntity
  8
0
  6
Continuous
 62
     7
370
    25
100
AcDbCircle
 10
-411.8897000412
 20
150.0302510547
 30
0.0
 40
5.000000000000398
100
AcDbArc
 50
119.9973117337
 51
180.0
  0
ARC
  5
363
330
2E7
100
AcDbEntity
  8
0
  6
Continuous
 62
     7
370
    25
100
AcDbCircle
 10
-411.8897000412
 20
92.8723942227
 30
0.0
 40
5.000000000000057
100
AcDbArc
 50
180.0
 51
240.0026882664
  0
ARC
  5
364
330
2E7
100
AcDbEntity
  8
0
  6
Continuous
 62
     7
370
    25
100
AcDbCircle
 10
101.3677290141
 20
-146.2669937424
 30
0.0
 40
7.684024037860516
100
AcDbArc
 50
122.60547834
 51
177.3945215143
  0
ARC
  5
365
330
2E7
100
AcDbEntity
  8
0
  6
Continuous
 62
     7
370
    25
100
AcDbCircle
 10
93.0866358122
 20
-146.2669937424
 30
0.0
 40
7.684024037860197
100
AcDbArc
 50
2.6054784857
 51
57.39452166
  0
ARC
  5
366
330
2E7
100
AcDbEntity
  8
0
  6
Continuous
 62
     7
370
    25
100
AcDbCircle
 10
97.2271824131
 20
-139.0941340563
 30
0.0
 40
7.685109539558426
100
AcDbArc
 50
242.6096722366
 51
297.3903277634
  0
ARC
  5
367
330
2E7
100
AcDbEntity
  8
0
  6
Continuous
 62
     7
370
    25
100
AcDbCircle
 10
97.2271824131
 20
-196.2519908883
 30
0.0
 40
7.685109539558224
100
AcDbArc
 50
242.6096722366
 51
297.3903277634
  0
ARC
  5
368
330
2E7
100
AcDbEntity
  8
0
  6
Continuous
 62
     7
370
    25
100
AcDbCircle
 10
-407.7491534403
 20
147.6399265138
 30
0.0
 40
7.684024037860235
100
AcDbArc
 50
122.60547834
 51
177.3945215143
  0
ARC
  5
369
330
2E7
100
AcDbEntity
  8
0
  6
Continuous
 62
     7
370
    25
100
AcDbCircle
 10
411.2846873462
 20
37.4248314177
 30
0.0
 40
7.684024037860524
100
AcDbArc
 50
2.6054784857
 51
57.39452166
  0
ARC
  5
36A
330
2E7
100
AcDbEntity
  8
0
  6
Continuous
 62
     7
370
    25
100
AcDbCircle
 10
208.8420034197
 20
64.6712506624
 30
0.0
 40
7.737682822827638
100
AcDbArc
 50
122.3409352785
 51
172.9396409875
  0
ARC
  5
36B
330
2E7
100
AcDbEntity
  8
0
  6
Continuous
 62
     7
370
    25
100
AcDbCircle
 10
416.5823400735
 20
-19.686541296
 30
0.0
 40
2.397627731995969
100
AcDbArc
 50
304.0563508304
 51
7.255829563
  0
ARC
  5
36C
330
2E7
100
AcDbEntity
  8
0
  6
Continuous
 62
     7
370
    25
100
AcDbCircle
 10
-42.0632876852
 20
209.599523212
 30
0.0
 40
7.852519061878057
100
AcDbArc
 50
123.3727013158
 51
173.1597722848
  0
ARC
  5
36D
330
2E7
100
AcDbEntity
  8
0
  6
Continuous
 62
     7
370
    25
100
AcDbCircle
 10
5.2806136558
 20
-38.2096745681
 30
0.0
 40
36.3270496732744
100
AcDbArc
 50
69.2620879128
 51
100.8381340413
  0
ARC
  5
36E
330
2E7
100
AcDbEntity
  8
0
  6
Continuous
 62
     7
370
    25
100
AcDbCircle
 10
51.1555754712
 20
199.9507917393
 30
0.0
 40
9.614783892273513
100
AcDbArc
 50
166.8105866139
 51
196.2574767617
  0
ARC
  5
36F
330
2E7
100
AcDbEntity
  8
0
  6
Continuous
 62
     8
370
    25
100
AcDbCircle
 10
-11.6450990464
 20
-56.4561060317
 30
0.0
 40
2.408348185160699
100
AcDbArc
 50
65.115316903
 51
127.1639792707
  0
ARC
  5
370
330
2E7
100
AcDbEntity
  8
0
  6
Continuous
 62
     8
370
    25
100
AcDbCircle
 10
96.1416580193
 20
-203.3459799997
 30
0.0
 40
2.464889650307928
100
AcDbArc
 50
173.7011524857
 51
234.986667121
  0
ARC
  5
371
330
2E7
100
AcDbEntity
  8
0
  6
Continuous
 62
     8
370
    25
100
AcDbCircle
 10
98.3127068073
 20
-203.3459799998
 30
0.0
 40
2.46488965002108
100
AcDbArc
 50
305.0133328751
 51
6.2988475183
  0
ARC
  5
372
330
2E7
100
AcDbEntity
  8
0
  6
Continuous
 62
     8
370
    25
100
AcDbCircle
 10
-412.9752244351
 20
90.5609402564
 30
0.0
 40
2.464889650173067
100
AcDbArc
 50
173.7011524838
 51
234.9866671228
  0
ARC
  5
373
330
2E7
100
AcDbEntity
  8
0
  6
Continuous
 62
     8
370
    25
100
AcDbCircle
 10
-262.7507414716
 20
88.4046256572
 30
0.0
 40
2.486717316124982
100
AcDbArc
 50
62.8724143412
 51
125.7633901421
  0
ARC
  5
374
330
2E7
100
AcDbEntity
  8
0
  6
Continuous
 62
     8
370
    25
100
AcDbCircle
 10
94.2336706254
 20
129.9213213882
 30
0.0
 40
16.60533519879958
100
AcDbArc
 50
194.386734434
 51
222.3888679015
  0
ARC
  5
375
330
2E7
100
AcDbEntity
  8
0
  6
Continuous
 62
     8
370
    25
100
AcDbCircle
 10
-413.3543003154
 20
152.0685484685
 30
0.0
 40
2.514886179509229
100
AcDbArc
 50
54.3824225248
 51
114.3071190461
  0
ARC
  5
376
330
2E7
100
AcDbEntity
  8
0
  6
Continuous
 62
     8
370
    25
100
AcDbCircle
 10
-414.3874147287
 20
150.2797829392
 30
0.0
 40
2.514696392469155
100
AcDbArc
 50
185.6947992512
 51
245.6253417064
  0
ARC
  5
377
330
2E7
100
AcDbEntity
  8
0
  6
Continuous
 62
     8
370
    25
100
AcDbCircle
 10
-414.3874147287
 20
93.1219261072
 30
0.0
 40
2.514696392469213
100
AcDbArc
 50
185.6947992512
 51
245.6253417064
  0
VIEWPORT
  5
37E
330
2E7
100
AcDbEntity
  8
0
100
AcDbViewport
 10
0.0
 20
0.0
 30
0.0
 40
205.6
 41
156.0
 68
     1
 69
     1
 12
0.0
 22
0.0
 13
0.0
 23
0.0
 14
10.0
 24
10.0
 15
10.0
 25
10.0
 16
0.0
 26
0.0
 36
1.0
 17
0.0
 27
0.0
 37
0.0
 42
50.0
 43
0.0
 44
0.0
 45
564.9688715953
 50
0.0
 51
0.0
 72
   100
 90
   557152
  1

281
     0
 71
     1
 74
     0
110
0.0
120
0.0
130
0.0
111
1.0
121
0.0
131
0.0
112
0.0
122
1.0
132
0.0
 79
     0
146
0.0
  0
ENDBLK
  5
2EA
330
2E7
100
AcDbEntity
  8
0
100
AcDbBlockEnd
  0
ENDSEC
  0
SECTION
  2
ENTITIES
  0
SPLINE
  5
73
330
1F
100
AcDbEntity
  8
0
  6
Continuous
 62
     7
370
    25
100
AcDbSpline
210
0.0
220
0.0
230
1.0
 70
     8
 71
     3
 72
     9
 73
     5
 74
     0
 42
0.000000001
 43
0.00000001
 40
0.0
 40
0.0
 40
0.0
 40
0.0
 40
0.3289636696121164
 40
0.9999999999999999
 40
0.9999999999999999
 40
0.9999999999999999
 40
0.9999999999999999
 10
-10.25526495662898
 20
106.2869917516416
 30
0.0
 10
-10.24114099260138
 20
106.2935843931013
 30
0.0
 10
-10.19820626961435
 20
106.3136250300124
 30
0.0
 10
-10.02747623574772
 20
106.3566618118906
 30
0.0
 10
-9.912910180334867
 20
106.385541056074
 30
0.0
  0
SPLINE
  5
74
330
1F
100
AcDbEntity
  8
0
  6
Continuous
 62
     7
370
    25
100
AcDbSpline
210
0.0
220
0.0
230
1.0
 70
     8
 71
     3
 72
     9
 73
     5
 74
     0
 42
0.000000001
 43
0.00000001
 40
0.0
 40
0.0
 40
0.0
 40
0.0
 40
0.0386426698632975
 40
1.0
 40
1.0
 40
1.0
 40
1.0
 10
-8.226748202422074
 20
106.6381526077004
 30
0.0
 10
-8.218473310192513
 20
106.6391609813211
 30
0.0
 10
-8.004334580678385
 20
106.6652558040707
 30
0.0
 10
-7.716663708085374
 20
106.6847694599642
 30
0.0
 10
-7.44010920605126
 20
106.7035290560952
 30
0.0
  0
SPLINE
  5
76
330
1F
100
AcDbEntity
  8
0
  6
Continuous
 62
     7
370
    25
100
AcDbSpline
210
0.0
220
0.0
230
1.0
 70
     8
 71
     3
 72
    96
 73
    92
 74
     0
 42
0.000000001
 43
0.00000001
 40
0.0
 40
0.0
 40
0.0
 40
0.0
 40
0.0156250000000005
 40
0.0156250000000005
 40
0.0234375000000007
 40
0.0234375000000007
 40
0.031250000000001
 40
0.031250000000001
 40
0.0625000000000016
 40
0.0625000000000016
 40
0.0937500000000022
 40
0.0937500000000022
 40
0.1250000000000028
 40
0.1250000000000028
 40
0.132812500000003
 40
0.132812500000003
 40
0.1406250000000031
 40
0.1406250000000031
 40
0.1562500000000033
 40
0.1562500000000033
 40
0.1875000000000036
 40
0.1875000000000036
 40
0.2187500000000039
 40
0.2187500000000039
 40
0.234375000000004
 40
0.234375000000004
 40
0.2500000000000041
 40
0.2500000000000041
 40
0.2812500000000041
 40
0.2812500000000041
 40
0.3125000000000039
 40
0.3125000000000039
 40
0.3437500000000038
 40
0.3437500000000038
 40
0.3593750000000037
 40
0.3593750000000037
 40
0.3750000000000036
 40
0.3750000000000036
 40
0.4062500000000033
 40
0.4062500000000033
 40
0.4375000000000031
 40
0.4375000000000031
 40
0.4531250000000029
 40
0.4531250000000029
 40
0.4609375000000029
 40
0.4609375000000029
 40
0.4687500000000028
 40
0.4687500000000028
 40
0.5000000000000026
 40
0.5000000000000026
 40
0.5312500000000024
 40
0.5312500000000024
 40
0.5625000000000022
 40
0.5625000000000022
 40
0.5703125000000022
 40
0.5703125000000022
 40
0.5781250000000022
 40
0.5781250000000022
 40
0.5937500000000022
 40
0.5937500000000022
 40
0.625000000000002
 40
0.625000000000002
 40
0.6562500000000019
 40
0.6562500000000019
 40
0.6718750000000018
 40
0.6718750000000018
 40
0.6875000000000017
 40
0.6875000000000017
 40
0.7187500000000018
 40
0.7187500000000018
 40
0.7500000000000018
 40
0.7500000000000018
 40
0.7656250000000019
 40
0.7656250000000019
 40
0.7734375000000019
 40
0.7734375000000019
 40
0.7812500000000019
 40
0.7812500000000019
 40
0.8125000000000018
 40
0.8125000000000018
 40
0.8750000000000011
 40
0.8750000000000011
 40
0.890625000000001
 40
0.890625000000001
 40
0.9062500000000009
 40
0.9062500000000009
 40
0.9375000000000007
 40
0.9375000000000007
 40
0.9687500000000003
 40
0.9687500000000003
 40
1.0
 40
1.0
 40
1.0
 40
1.0
 10
-177.5574111231388
 20
-196.0835775774882
 30
0.0
 10
-180.0929578616331
 20
-196.0527916824854
 30
0.0
 10
-182.6253058834672
 20
-195.9608367510235
 30
0.0
 10
-186.419015513167
 20
-195.7308768037215
 30
0.0
 10
-187.6827836954185
 20
-195.6388926931445
 30
0.0
 10
-190.208718039929
 20
-195.4242890547961
 30
0.0
 10
-191.4707589617214
 20
-195.3016628794811
 30
0.0
 10
-197.7557862431678
 20
-194.6141246130591
 30
0.0
 10
-202.7203171152728
 20
-193.8249210950955
 30
0.0
 10
-212.5259037091261
 20
-191.781378335651
 30
0.0
 10
-217.3668258772903
 20
-190.5265359925933
 30
0.0
 10
-226.9249712191559
 20
-187.5508723534508
 30
0.0
 10
-231.6421548817101
 20
-185.82990221733
 30
0.0
 10
-237.4589342682672
 20
-183.3784558062692
 30
0.0
 10
-238.6183051635661
 20
-182.873154940865
 30
0.0
 10
-240.9289860383288
 20
-181.8321874246491
 30
0.0
 10
-242.0781690783864
 20
-181.2974406839329
 30
0.0
 10
-245.4959306532126
 20
-179.6559639811548
 30
0.0
 10
-247.7393383416195
 20
-178.5098557264355
 30
0.0
 10
-254.3658766978133
 20
-174.9185431067151
 30
0.0
 10
-258.6466378002773
 20
-172.322291394226
 30
0.0
 10
-266.9357049021988
 20
-166.7277776599433
 30
0.0
 10
-270.9443104628531
 20
-163.7299576437795
 30
0.0
 10
-276.7515278238955
 20
-158.9297284611266
 30
0.0
 10
-278.6525363416688
 20
-157.278406705273
 30
0.0
 10
-282.3842308068096
 20
-153.8720015169888
 30
0.0
 10
-284.2186152173829
 20
-152.1132072924419
 30
0.0
 10
-289.5592240278407
 20
-146.7359582577618
 30
0.0
 10
-292.9181533374021
 20
-143.0020013730079
 30
0.0
 10
-299.2460072651159
 20
-135.2454230836041
 30
0.0
 10
-302.2151844980692
 20
-131.2229886534491
 30
0.0
 10
-307.7617360510528
 20
-122.888124307843
 30
0.0
 10
-310.3403793515581
 20
-118.5766336365794
 30
0.0
 10
-313.9064417058913
 20
-111.8859424508823
 30
0.0
 10
-315.0462215412027
 20
-109.6147783683459
 30
0.0
 10
-317.2004791788589
 20
-105.0465301766593
 30
0.0
 10
-318.2180736783016
 20
-102.743980077481
 30
0.0
 10
-321.0950313852138
 20
-95.78191130918293
 30
0.0
 10
-322.7790617198872
 20
-91.06812672870001
 30
0.0
 10
-325.6864612425338
 20
-81.49798192543463
 30
0.0
 10
-326.9093759184397
 20
-76.64148103016372
 30
0.0
 10
-328.3933910127802
 20
-69.24829344688352
 30
0.0
 10
-328.829392772163
 20
-66.76573911017712
 30
0.0
 10
-329.39410250014
 20
-63.01427125192456
 30
0.0
 10
-329.5676876694642
 20
-61.75746933270098
 30
0.0
 10
-329.8835247114562
 20
-59.24448381799952
 30
0.0
 10
-330.0257986697447
 20
-57.9884930985021
 30
0.0
 10
-330.6597386587196
 20
-51.71102424236349
 30
0.0
 10
-330.9197223820743
 20
-46.69698084777502
 30
0.0
 10
-330.9634407743739
 20
-36.68417700753425
 30
0.0
 10
-330.7451111215817
 20
-31.68548280647273
 30
0.0
 10
-329.807438768522
 20
-21.70417203589598
 30
0.0
 10
-329.0930040780636
 20
-16.72139796714258
 30
0.0
 10
-327.879587471252
 20
-10.50321123715053
 30
0.0
 10
-327.6209594869447
 20
-9.261127304592229
 30
0.0
 10
-327.0745073208388
 20
-6.791799911861295
 30
0.0
 10
-326.7863756859671
 20
-5.562897143353656
 30
0.0
 10
-325.8779333094213
 20
-1.893212985020625
 30
0.0
 10
-325.213448682117
 20
0.5304953992957
 30
0.0
 10
-323.044887522705
 20
7.733942387403437
 30
0.0
 10
-321.3667771048786
 20
12.44641768738489
 30
0.0
 10
-317.5500662763858
 20
21.69339100343092
 30
0.0
 10
-315.4110725183218
 20
26.22773699251871
 30
0.0
 10
-311.8496275500102
 20
32.89284073544322
 30
0.0
 10
-310.6025727945503
 20
35.09312372781075
 30
0.0
 10
-307.9916541140607
 20
39.44138139126957
 30
0.0
 10
-306.637411670304
 20
41.57353928217324
 30
0.0
 10
-302.4313259471395
 20
47.84667339364371
 30
0.0
 10
-299.4367982816639
 20
51.86488993937833
 30
0.0
 10
-293.0756559939167
 20
59.58119498401391
 30
0.0
 10
-289.7088215112191
 20
63.27909432420496
 30
0.0
 10
-284.3782792962772
 20
68.58479312549423
 30
0.0
 10
-282.5546731053847
 20
70.31313008991592
 30
0.0
 10
-279.7483716316337
 20
72.84464286513781
 30
0.0
 10
-278.8010998907884
 20
73.6782956091102
 30
0.0
 10
-276.8826110717644
 20
75.32499953085903
 30
0.0
 10
-275.9102326524915
 20
76.13899219210529
 30
0.0
 10
-271.0017156206529
 20
80.14546113680512
 30
0.0
 10
-266.9490857718795
 20
83.12966489266375
 30
0.0
 10
-254.4298278516579
 20
91.44760383130988
 30
0.0
 10
-245.6053997405793
 20
96.15293376105161
 30
0.0
 10
-233.9708686393119
 20
100.9737963030154
 30
0.0
 10
-231.6117398965581
 20
101.8854499042765
 30
0.0
 10
-226.8394886810208
 20
103.5969380785224
 30
0.0
 10
-224.4423179229664
 20
104.3911412325002
 30
0.0
 10
-217.2184144353264
 20
106.5932746075018
 30
0.0
 10
-212.3593226708418
 20
107.8209080329283
 30
0.0
 10
-202.5570992809301
 20
109.8079248980331
 30
0.0
 10
-197.6139498352132
 20
110.5672090473221
 30
0.0
 10
-187.643185024391
 20
111.6151534644909
 30
0.0
 10
-182.6155676056619
 20
111.9038022900701
 30
0.0
 10
-177.5442646022804
 20
111.9490454964406
 30
0.0
  0
SPLINE
  5
78
330
1F
100
AcDbEntity
  8
0
  6
Continuous
 62
     7
370
    25
100
AcDbSpline
210
0.0
220
0.0
230
1.0
 70
     8
 71
     3
 72
    94
 73
    90
 74
     0
 42
0.000000001
 43
0.00000001
 40
0.0
 40
0.0
 40
0.0
 40
0.0
 40
0.0312499999999996
 40
0.0312499999999996
 40
0.0624999999999992
 40
0.0624999999999992
 40
0.0937499999999988
 40
0.0937499999999988
 40
0.1093749999999987
 40
0.1093749999999987
 40
0.1249999999999986
 40
0.1249999999999986
 40
0.1874999999999988
 40
0.1874999999999988
 40
0.2187499999999989
 40
0.2187499999999989
 40
0.226562499999999
 40
0.226562499999999
 40
0.2343749999999992
 40
0.2343749999999992
 40
0.2499999999999994
 40
0.2499999999999994
 40
0.2812499999999994
 40
0.2812499999999994
 40
0.3124999999999995
 40
0.3124999999999995
 40
0.3281249999999996
 40
0.3281249999999996
 40
0.3437499999999998
 40
0.3437499999999998
 40
0.375
 40
0.375
 40
0.4062500000000003
 40
0.4062500000000003
 40
0.4218750000000004
 40
0.4218750000000004
 40
0.4296875000000005
 40
0.4296875000000005
 40
0.4375000000000006
 40
0.4375000000000006
 40
0.4687500000000007
 40
0.4687500000000007
 40
0.5000000000000008
 40
0.5000000000000008
 40
0.5312500000000008
 40
0.5312500000000008
 40
0.5390625000000009
 40
0.5390625000000009
 40
0.5468750000000009
 40
0.5468750000000009
 40
0.5625000000000009
 40
0.5625000000000009
 40
0.5937500000000009
 40
0.5937500000000009
 40
0.625000000000001
 40
0.625000000000001
 40
0.640625000000001
 40
0.640625000000001
 40
0.656250000000001
 40
0.656250000000001
 40
0.6875000000000012
 40
0.6875000000000012
 40
0.7187500000000012
 40
0.7187500000000012
 40
0.7500000000000012
 40
0.7500000000000012
 40
0.7656250000000011
 40
0.7656250000000011
 40
0.7812500000000009
 40
0.7812500000000009
 40
0.8125000000000007
 40
0.8125000000000007
 40
0.8437500000000006
 40
0.8437500000000006
 40
0.8593750000000004
 40
0.8593750000000004
 40
0.8671875000000004
 40
0.8671875000000004
 40
0.8750000000000004
 40
0.8750000000000004
 40
0.9062500000000003
 40
0.9062500000000003
 40
0.9375000000000001
 40
0.9375000000000001
 40
0.96875
 40
0.96875
 40
0.984375
 40
0.984375
 40
1.0
 40
1.0
 40
1.0
 40
1.0
 10
-177.4999999999177
 20
106.9874340432788
 30
0.0
 10
-182.4178391888037
 20
106.9496320752588
 30
0.0
 10
-187.2935394357982
 20
106.6755290189515
 30
0.0
 10
-196.9633017909647
 20
105.6694994970977
 30
0.0
 10
-201.7573727012355
 20
104.9376359591391
 30
0.0
 10
-211.2641689676307
 20
103.0177750061574
 30
0.0
 10
-215.9769159284814
 20
101.8299073695829
 30
0.0
 10
-222.9833633098484
 20
99.69672975557084
 30
0.0
 10
-225.3083933377414
 20
98.92707001418411
 30
0.0
 10
-229.9370644082964
 20
97.26784388230489
 30
0.0
 10
-232.2245590358153
 20
96.38399534172233
 30
0.0
 10
-243.5066313675852
 20
91.70871701383008
 30
0.0
 10
-252.0621763423469
 20
87.14234216538296
 30
0.0
 10
-264.1985980214237
 20
79.0681268489978
 30
0.0
 10
-268.1270325042545
 20
76.17104858183828
 30
0.0
 10
-272.8848549561808
 20
72.281328952544
 30
0.0
 10
-273.8269292868279
 20
71.4914123257101
 30
0.0
 10
-275.6858879340239
 20
69.89318081672423
 30
0.0
 10
-276.6037555564272
 20
69.08406612379821
 30
0.0
 10
-279.3229254123262
 20
66.62707165613034
 30
0.0
 10
-281.0898837501439
 20
64.94961823904876
 30
0.0
 10
-286.2547395774785
 20
59.80013236579259
 30
0.0
 10
-289.5168077768791
 20
56.21113793895027
 30
0.0
 10
-295.6799872199114
 20
48.72233678823292
 30
0.0
 10
-298.5813401424916
 20
44.82273826848931
 30
0.0
 10
-302.6567434047224
 20
38.73514760171824
 30
0.0
 10
-303.9689479059342
 20
36.66611509230275
 30
0.0
 10
-306.498973970319
 20
32.44678096155784
 30
0.0
 10
-307.7062497313254
 20
30.31393774783488
 30
0.0
 10
-311.1565032344463
 20
23.84982822540492
 30
0.0
 10
-313.229561816386
 20
19.45216074852208
 30
0.0
 10
-316.9306839597156
 20
10.48389435410248
 30
0.0
 10
-318.5592480072767
 20
5.913490786998621
 30
0.0
 10
-320.6661121284296
 20
-1.072682903877472
 30
0.0
 10
-321.3121576484063
 20
-3.423264280455139
 30
0.0
 10
-322.1962824477551
 20
-6.982147261605642
 30
0.0
 10
-322.4768560620204
 20
-8.173934662584237
 30
0.0
 10
-323.0092857582292
 20
-10.56867003502923
 30
0.0
 10
-323.2614578003285
 20
-11.77331480074577
 30
0.0
 10
-324.4446779489757
 20
-17.79930217926726
 30
0.0
 10
-325.1451669940886
 20
-22.62898804078768
 30
0.0
 10
-326.0736358515348
 20
-32.30546419868622
 30
0.0
 10
-326.2975648703887
 20
-37.15237793626472
 30
0.0
 10
-326.2806656824428
 20
-46.86316878475019
 30
0.0
 10
-326.0395330401607
 20
-51.72709964425091
 30
0.0
 10
-325.4372344227068
 20
-57.81799310423454
 30
0.0
 10
-325.3016792851498
 20
-59.03672311851709
 30
0.0
 10
-325.0000702296796
 20
-61.47529670770098
 30
0.0
 10
-324.8341396538198
 20
-62.69389683560106
 30
0.0
 10
-324.2934634900627
 20
-66.33187659841768
 30
0.0
 10
-323.8749961769516
 20
-68.73944277709357
 30
0.0
 10
-322.4480709589517
 20
-75.90965175941709
 30
0.0
 10
-321.2691884784257
 20
-80.62014112762476
 30
0.0
 10
-318.4611245913619
 20
-89.90331311840413
 30
0.0
 10
-316.8324338648894
 20
-94.47614602671959
 30
0.0
 10
-314.0467281493617
 20
-101.2305230239969
 30
0.0
 10
-313.0609328050451
 20
-103.464468067217
 30
0.0
 10
-310.97303685601
 20
-107.896762909839
 30
0.0
 10
-309.8680996784248
 20
-110.0999825085193
 30
0.0
 10
-306.4114385706986
 20
-116.5876344376451
 30
0.0
 10
-303.9107334750755
 20
-120.767691720758
 30
0.0
 10
-298.5297993217077
 20
-128.8473282679288
 30
0.0
 10
-295.6482217782293
 20
-132.7459110707967
 30
0.0
 10
-289.5053483429092
 20
-140.2624543368299
 30
0.0
 10
-286.2435877276056
 20
-143.8800716887939
 30
0.0
 10
-281.0561249879457
 20
-149.0886160749468
 30
0.0
 10
-279.2743945896681
 20
-150.7917514342003
 30
0.0
 10
-275.6504049460452
 20
-154.08889284997
 30
0.0
 10
-273.8041828674305
 20
-155.6867684914322
 30
0.0
 10
-268.1643108426487
 20
-160.3304985755648
 30
0.0
 10
-264.2712194300535
 20
-163.2290692651771
 30
0.0
 10
-256.2204377194131
 20
-168.6343011373403
 30
0.0
 10
-252.0627059081243
 20
-171.1409044280057
 30
0.0
 10
-245.6262521241121
 20
-174.6047912441585
 30
0.0
 10
-243.4471231932401
 20
-175.7095875090494
 30
0.0
 10
-240.1272320961646
 20
-177.2909504249966
 30
0.0
 10
-239.0108559947261
 20
-177.805982705423
 30
0.0
 10
-236.7666226619845
 20
-178.8079915467818
 30
0.0
 10
-235.640637138487
 20
-179.2941730767685
 30
0.0
 10
-229.9915812899104
 20
-181.6517910579435
 30
0.0
 10
-225.4111172429489
 20
-183.3033228482216
 30
0.0
 10
-216.1314547557465
 20
-186.1514150748733
 30
0.0
 10
-211.4322773348044
 20
-187.3480512070342
 30
0.0
 10
-201.9152735297909
 20
-189.2866112350251
 30
0.0
 10
-197.0975752705852
 20
-190.0290254933114
 30
0.0
 10
-189.7798058119523
 20
-190.792989490906
 30
0.0
 10
-187.3250890601402
 20
-190.9892380576418
 30
0.0
 10
-182.4170515515287
 20
-191.2616239836617
 30
0.0
 10
-179.9589473668653
 20
-191.3381180386583
 30
0.0
 10
-177.4999999999514
 20
-191.3551593802138
 30
0.0
  0
SPLINE
  5
7A
330
1F
100
AcDbEntity
  8
0
  6
Continuous
 62
     7
370
    25
100
AcDbSpline
210
0.0
220
0.0
230
1.0
 70
     8
 71
     3
 72
   102
 73
    98
 74
     0
 42
0.000000001
 43
0.00000001
 40
0.0
 40
0.0
 40
0.0
 40
0.0
 40
0.0312499999999993
 40
0.0312499999999993
 40
0.0624999999999987
 40
0.0624999999999987
 40
0.093749999999998
 40
0.093749999999998
 40
0.101562499999998
 40
0.101562499999998
 40
0.1093749999999979
 40
0.1093749999999979
 40
0.1249999999999978
 40
0.1249999999999978
 40
0.1562499999999978
 40
0.1562499999999978
 40
0.187499999999998
 40
0.187499999999998
 40
0.2031249999999982
 40
0.2031249999999982
 40
0.2109374999999983
 40
0.2109374999999983
 40
0.2187499999999984
 40
0.2187499999999984
 40
0.2499999999999984
 40
0.2499999999999984
 40
0.2812499999999985
 40
0.2812499999999985
 40
0.3124999999999986
 40
0.3124999999999986
 40
0.3203124999999986
 40
0.3203124999999986
 40
0.3281249999999986
 40
0.3281249999999986
 40
0.3437499999999985
 40
0.3437499999999985
 40
0.3749999999999985
 40
0.3749999999999985
 40
0.4062499999999986
 40
0.4062499999999986
 40
0.4218749999999985
 40
0.4218749999999985
 40
0.4296874999999985
 40
0.4296874999999985
 40
0.4374999999999985
 40
0.4374999999999985
 40
0.4687499999999985
 40
0.4687499999999985
 40
0.4999999999999984
 40
0.4999999999999984
 40
0.5312499999999984
 40
0.5312499999999984
 40
0.5390624999999986
 40
0.5390624999999986
 40
0.5468749999999986
 40
0.5468749999999986
 40
0.5624999999999986
 40
0.5624999999999986
 40
0.5937499999999986
 40
0.5937499999999986
 40
0.6249999999999986
 40
0.6249999999999986
 40
0.6406249999999986
 40
0.6406249999999986
 40
0.6484374999999986
 40
0.6484374999999986
 40
0.6562499999999984
 40
0.6562499999999984
 40
0.6874999999999983
 40
0.6874999999999983
 40
0.7187499999999982
 40
0.7187499999999982
 40
0.7499999999999981
 40
0.7499999999999981
 40
0.7656249999999983
 40
0.7656249999999983
 40
0.7812499999999984
 40
0.7812499999999984
 40
0.8124999999999984
 40
0.8124999999999984
 40
0.8437499999999984
 40
0.8437499999999984
 40
0.8593749999999984
 40
0.8593749999999984
 40
0.8671874999999984
 40
0.8671874999999984
 40
0.8749999999999986
 40
0.8749999999999986
 40
0.9062499999999989
 40
0.9062499999999989
 40
0.9374999999999992
 40
0.9374999999999992
 40
0.9687499999999996
 40
0.9687499999999996
 40
0.9843749999999998
 40
0.9843749999999998
 40
1.0
 40
1.0
 40
1.0
 40
1.0
 10
177.5000000005427
 20
-191.3551593802096
 30
0.0
 10
182.4174925161782
 20
-191.3210794845885
 30
0.0
 10
187.293356359988
 20
-191.0496143527225
 30
0.0
 10
196.9642521893619
 20
-190.0458462166043
 30
0.0
 10
201.7591785135424
 20
-189.3129468070226
 30
0.0
 10
211.2682510722227
 20
-187.3867417417021
 30
0.0
 10
215.9823192141715
 20
-186.1929927710727
 30
0.0
 10
221.823086369524
 20
-184.4055370322963
 30
0.0
 10
222.988643470444
 20
-184.0332517124886
 30
0.0
 10
225.3145056265718
 20
-183.2587561813994
 30
0.0
 10
226.47604325724
 20
-182.8560975837941
 30
0.0
 10
229.9440141767586
 20
-181.6057618246603
 30
0.0
 10
232.2258439482887
 20
-180.7186989479894
 30
0.0
 10
238.9828796052068
 20
-177.9005411946022
 30
0.0
 10
243.3701526155868
 20
-175.8134037257587
 30
0.0
 10
251.9125152199714
 20
-171.2271110371544
 30
0.0
 10
256.0685288670314
 20
-168.7295943233913
 30
0.0
 10
262.1270204992375
 20
-164.6718470954087
 30
0.0
 10
264.1170544235873
 20
-163.2669813443782
 30
0.0
 10
267.0578404330013
 20
-161.0811349468296
 30
0.0
 10
268.0307131688887
 20
-160.3394072813248
 30
0.0
 10
269.9615195581804
 20
-158.8294428771836
 30
0.0
 10
270.9203726416564
 20
-158.0604466728455
 30
0.0
 10
275.6661603828736
 20
-154.1566706423188
 30
0.0
 10
279.2757537280778
 20
-150.8710788367571
 30
0.0
 10
286.1387854599865
 20
-143.990328059356
 30
0.0
 10
289.3905100940813
 20
-140.393679436745
 30
0.0
 10
295.5374044349876
 20
-132.8904674353391
 30
0.0
 10
298.4331530171328
 20
-128.9844071384363
 30
0.0
 10
301.8239713823143
 20
-123.9029020709138
 30
0.0
 10
302.4907237535268
 20
-122.876682444011
 30
0.0
 10
303.8012079759648
 20
-120.8042339368894
 30
0.0
 10
304.4457617215027
 20
-119.756617815175
 30
0.0
 10
306.3380651041159
 20
-116.5940713091512
 30
0.0
 10
307.542373402781
 20
-114.4631383880142
 30
0.0
 10
310.9868803014233
 20
-108.0039219015674
 30
0.0
 10
313.0597181482058
 20
-103.609637341459
 30
0.0
 10
316.7670704186876
 20
-94.64821297628131
 30
0.0
 10
318.401410465045
 20
-90.0810044021486
 30
0.0
 10
320.5219780625104
 20
-83.0996858405757
 30
0.0
 10
321.1734688161548
 20
-80.75074666490266
 30
0.0
 10
322.0664660612615
 20
-77.19411908787627
 30
0.0
 10
322.3500926759387
 20
-76.00304036156517
 30
0.0
 10
322.8890684099424
 20
-73.60973202542658
 30
0.0
 10
323.1447170559344
 20
-72.40585607476143
 30
0.0
 10
324.3457664086911
 20
-66.38615850264672
 30
0.0
 10
325.0628652993263
 20
-61.56120052396628
 30
0.0
 10
326.0271837229313
 20
-51.89356595188005
 30
0.0
 10
326.2740971024368
 20
-47.05087126092597
 30
0.0
 10
326.3032245043613
 20
-37.34802736722219
 30
0.0
 10
326.086033508183
 20
-32.48786595500142
 30
0.0
 10
325.5082736878713
 20
-26.40099344912349
 30
0.0
 10
325.3774796395618
 20
-25.18303963132404
 30
0.0
 10
325.0853329627831
 20
-22.74597007529912
 30
0.0
 10
324.9238318911034
 20
-21.52565922313567
 30
0.0
 10
324.3961025582505
 20
-17.88241817382878
 30
0.0
 10
323.9859016262215
 20
-15.47175876290543
 30
0.0
 10
322.5816523618345
 20
-8.293815816569769
 30
0.0
 10
321.4152456740664
 20
-3.580166596962731
 30
0.0
 10
318.6286205286029
 20
5.705926474883917
 30
0.0
 10
317.008096537613
 20
10.2782745503061
 30
0.0
 10
314.2328199676259
 20
17.02960861896937
 30
0.0
 10
313.2499915863707
 20
19.26208852538017
 30
0.0
 10
311.6878613254729
 20
22.58346107948588
 30
0.0
 10
311.152524060767
 20
23.68603385998377
 30
0.0
 10
310.0521954716077
 20
25.88195224414814
 30
0.0
 10
309.4871001993358
 20
26.97535885592551
 30
0.0
 10
306.603383220889
 20
32.38820137172701
 30
0.0
 10
304.0982689918239
 20
36.5707004457067
 30
0.0
 10
298.7044499643248
 20
44.64960871258352
 30
0.0
 10
295.815712288775
 20
48.54599314356593
 30
0.0
 10
289.6556230495402
 20
56.05339341006355
 30
0.0
 10
286.3840295349963
 20
59.66422865638072
 30
0.0
 10
281.1822284196573
 20
64.86089164989308
 30
0.0
 10
279.3959989005868
 20
66.55892528275984
 30
0.0
 10
275.7634233518035
 20
69.84541450238262
 30
0.0
 10
273.9129045764161
 20
71.43818143236615
 30
0.0
 10
268.2602007979174
 20
76.06732754567197
 30
0.0
 10
264.3569797294822
 20
78.9547163205773
 30
0.0
 10
256.2862800291945
 20
84.33980913940445
 30
0.0
 10
252.1192994192337
 20
86.83824770723362
 30
0.0
 10
245.6674886124504
 20
90.28899900715632
 30
0.0
 10
243.4832587821471
 20
91.3896624192084
 30
0.0
 10
240.1556352747224
 20
92.96503879390468
 30
0.0
 10
239.0367003175782
 20
93.47804801694247
 30
0.0
 10
236.793181453966
 20
94.47359620983701
 30
0.0
 10
235.6674720327601
 20
94.95670270815583
 30
0.0
 10
230.0194543950299
 20
97.29993346472621
 30
0.0
 10
225.4389040698387
 20
98.94378057993005
 30
0.0
 10
216.156354185135
 20
101.7804434115296
 30
0.0
 10
211.4543502366081
 20
102.9732422184666
 30
0.0
 10
201.9291779218993
 20
104.908838521673
 30
0.0
 10
197.106009921458
 20
105.6516334515921
 30
0.0
 10
189.7777544762681
 20
106.4185416736767
 30
0.0
 10
187.3249708785228
 20
106.6155909927338
 30
0.0
 10
182.4172112324261
 20
106.8904509946379
 30
0.0
 10
179.9588507567397
 20
106.9685335884026
 30
0.0
 10
177.4999999999588
 20
106.9874340432785
 30
0.0
  0
SPLINE
  5
7C
330
1F
100
AcDbEntity
  8
0
  6
Continuous
 62
     7
370
    25
100
AcDbSpline
210
0.0
220
0.0
230
1.0
 70
     8
 71
     3
 72
   106
 73
   102
 74
     0
 42
0.000000001
 43
0.00000001
 40
0.0
 40
0.0
 40
0.0
 40
0.0
 40
0.0156250000000004
 40
0.0156250000000004
 40
0.0234375000000006
 40
0.0234375000000006
 40
0.0312500000000008
 40
0.0312500000000008
 40
0.0625000000000016
 40
0.0625000000000016
 40
0.0937500000000024
 40
0.0937500000000024
 40
0.1250000000000032
 40
0.1250000000000032
 40
0.1328125000000034
 40
0.1328125000000034
 40
0.1406250000000036
 40
0.1406250000000036
 40
0.1562500000000039
 40
0.1562500000000039
 40
0.1875000000000043
 40
0.1875000000000043
 40
0.2187500000000047
 40
0.2187500000000047
 40
0.2343750000000051
 40
0.2343750000000051
 40
0.2421875000000052
 40
0.2421875000000052
 40
0.2500000000000053
 40
0.2500000000000053
 40
0.2812500000000053
 40
0.2812500000000053
 40
0.3125000000000052
 40
0.3125000000000052
 40
0.3437500000000051
 40
0.3437500000000051
 40
0.3515625000000051
 40
0.3515625000000051
 40
0.3593750000000052
 40
0.3593750000000052
 40
0.3750000000000053
 40
0.3750000000000053
 40
0.4062500000000054
 40
0.4062500000000054
 40
0.4375000000000056
 40
0.4375000000000056
 40
0.4531250000000056
 40
0.4531250000000056
 40
0.4609375000000057
 40
0.4609375000000057
 40
0.4687500000000057
 40
0.4687500000000057
 40
0.5000000000000057
 40
0.5000000000000057
 40
0.5312500000000057
 40
0.5312500000000057
 40
0.5625000000000057
 40
0.5625000000000057
 40
0.5703125000000057
 40
0.5703125000000057
 40
0.5781250000000056
 40
0.5781250000000056
 40
0.5937500000000057
 40
0.5937500000000057
 40
0.6250000000000058
 40
0.6250000000000058
 40
0.6562500000000059
 40
0.6562500000000059
 40
0.671875000000006
 40
0.671875000000006
 40
0.6796875000000061
 40
0.6796875000000061
 40
0.6875000000000061
 40
0.6875000000000061
 40
0.7187500000000057
 40
0.7187500000000057
 40
0.7500000000000051
 40
0.7500000000000051
 40
0.7812500000000047
 40
0.7812500000000047
 40
0.7890625000000047
 40
0.7890625000000047
 40
0.7968750000000047
 40
0.7968750000000047
 40
0.8125000000000043
 40
0.8125000000000043
 40
0.8437500000000037
 40
0.8437500000000037
 40
0.875000000000003
 40
0.875000000000003
 40
0.8906250000000027
 40
0.8906250000000027
 40
0.8984375000000024
 40
0.8984375000000024
 40
0.9062500000000023
 40
0.9062500000000023
 40
0.9375000000000016
 40
0.9375000000000016
 40
0.9687500000000008
 40
0.9687500000000008
 40
1.0
 40
1.0
 40
1.0
 40
1.0
 10
177.5442646023231
 20
111.9490454964403
 30
0.0
 10
180.07977503034
 20
111.9264251518313
 30
0.0
 10
182.6120191948571
 20
111.842914249509
 30
0.0
 10
186.4054758124823
 20
111.6261212763267
 30
0.0
 10
187.6691431771573
 20
111.5386043234634
 30
0.0
 10
190.1948411541084
 20
111.3330576417702
 30
0.0
 10
191.4579230149867
 20
111.2149111727991
 30
0.0
 10
197.7546599151287
 20
110.5495209095798
 30
0.0
 10
202.7277418207558
 20
109.7791896408088
 30
0.0
 10
212.5490421481058
 20
107.7763751624867
 30
0.0
 10
217.397253895452
 20
106.5438672493468
 30
0.0
 10
226.9685628043217
 20
103.615770089358
 30
0.0
 10
231.6916636161888
 20
101.9201943533712
 30
0.0
 10
237.5155146150993
 20
99.50453147090069
 30
0.0
 10
238.6762727930806
 20
99.00654936751789
 30
0.0
 10
240.9896506978353
 20
97.98046265493122
 30
0.0
 10
242.143523729524
 20
97.45173270657803
 30
0.0
 10
245.5754804512993
 20
95.8280320507643
 30
0.0
 10
247.8283083482285
 20
94.69376036204604
 30
0.0
 10
254.4830433014809
 20
91.1380095220189
 30
0.0
 10
258.781480732868
 20
88.56400603607507
 30
0.0
 10
267.107347268731
 20
83.01650631674228
 30
0.0
 10
271.1342983405112
 20
80.0423054164634
 30
0.0
 10
276.9665669115103
 20
75.27415878597446
 30
0.0
 10
278.8759340181636
 20
73.63359234125821
 30
0.0
 10
281.6870765042509
 20
71.09475085750606
 30
0.0
 10
282.6153089768642
 20
70.2354761582904
 30
0.0
 10
284.4539381360682
 20
68.49063506896373
 30
0.0
 10
285.3624032022424
 20
67.60683986202355
 30
0.0
 10
289.8370168553945
 20
63.14468084028115
 30
0.0
 10
293.2141792086165
 20
59.42408933594553
 30
0.0
 10
299.5729835582703
 20
51.68828173774322
 30
0.0
 10
302.5548428107851
 20
47.67322747874316
 30
0.0
 10
308.1222074176017
 20
39.34787346309716
 30
0.0
 10
310.7077070707761
 20
35.03756945965984
 30
0.0
 10
313.6834485163104
 20
29.45889493790076
 30
0.0
 10
314.2665330563046
 20
28.3320081586694
 30
0.0
 10
315.4024927287768
 20
26.06738835561381
 30
0.0
 10
315.9550927695869
 20
24.93033201911676
 30
0.0
 10
317.5673903435421
 20
21.50512024239191
 30
0.0
 10
318.5815166500495
 20
19.20290083982189
 30
0.0
 10
321.4442188196039
 20
12.24079169888552
 30
0.0
 10
323.114369683156
 20
7.525837336216628
 30
0.0
 10
325.9830631838571
 20
-2.049616743630982
 30
0.0
 10
327.1817465270836
 20
-6.910073036808961
 30
0.0
 10
328.6210199035032
 20
-14.3114735995602
 30
0.0
 10
329.0406380582191
 20
-16.79716711234963
 30
0.0
 10
329.5789359000922
 20
-20.55383127475802
 30
0.0
 10
329.7434053848839
 20
-21.812470341993
 30
0.0
 10
330.0404371937435
 20
-24.32727070303903
 30
0.0
 10
330.1730667626833
 20
-25.5840005076854
 30
0.0
 10
330.7569745785584
 20
-31.86430573877661
 30
0.0
 10
330.9685144631301
 20
-36.87776462104512
 30
0.0
 10
330.9127550273827
 20
-46.88447619946315
 30
0.0
 10
330.6470050754023
 20
-51.87779427627689
 30
0.0
 10
329.6322257992547
 20
-61.84403687640635
 30
0.0
 10
328.8836700378792
 20
-66.81698138325275
 30
0.0
 10
327.6357280949687
 20
-73.01998572337874
 30
0.0
 10
327.3701851107891
 20
-74.26107534997394
 30
0.0
 10
326.8105636082054
 20
-76.72889531366775
 30
0.0
 10
326.5162457727951
 20
-77.95704025670474
 30
0.0
 10
325.5901006850377
 20
-81.62431097883763
 30
0.0
 10
324.9150720069351
 20
-84.04626873891036
 30
0.0
 10
322.7196475465048
 20
-91.24445042587814
 30
0.0
 10
321.0297673766586
 20
-95.95332214996573
 30
0.0
 10
317.2005339109302
 20
-105.1924473455428
 30
0.0
 10
315.0613081212833
 20
-109.7227514873384
 30
0.0
 10
311.5092278861956
 20
-116.3818053159089
 30
0.0
 10
310.2677425141608
 20
-118.578656169735
 30
0.0
 10
308.3176267504642
 20
-121.839006339217
 30
0.0
 10
307.6530572147347
 20
-122.9197087311319
 30
0.0
 10
306.3020834163661
 20
-125.0575457964487
 30
0.0
 10
305.614786378501
 20
-126.1161958918894
 30
0.0
 10
302.1197724318075
 20
-131.358557985245
 30
0.0
 10
299.1359843182023
 20
-135.3891832023016
 30
0.0
 10
292.8035780055238
 20
-143.133228654401
 30
0.0
 10
289.4545820329845
 20
-146.8463204307166
 30
0.0
 10
282.3875940885869
 20
-153.9516769079779
 30
0.0
 10
278.6714730234121
 20
-157.345568286505
 30
0.0
 10
273.7867685225786
 20
-161.3796507319086
 30
0.0
 10
272.7994130834231
 20
-162.1747804239046
 30
0.0
 10
270.8114797723848
 20
-163.7360634041717
 30
0.0
 10
269.8098150924138
 20
-164.5031194746921
 30
0.0
 10
266.7819840177559
 20
-166.7639850473534
 30
0.0
 10
264.7330305023012
 20
-168.2175799984306
 30
0.0
 10
258.4952158234894
 20
-172.4178496360281
 30
0.0
 10
254.2160218531272
 20
-175.0051056177013
 30
0.0
 10
245.4204732036461
 20
-179.7610780240014
 30
0.0
 10
240.903146921406
 20
-181.9280797702486
 30
0.0
 10
233.9457688680439
 20
-184.8584690063689
 30
0.0
 10
231.5962981394265
 20
-185.7817132853596
 30
0.0
 10
228.0255370531561
 20
-187.0844197777988
 30
0.0
 10
226.8293735037298
 20
-187.5042589765825
 30
0.0
 10
224.4341356599044
 20
-188.3123105559806
 30
0.0
 10
223.233752085301
 20
-188.701005217215
 30
0.0
 10
217.2181648009406
 20
-190.5686760538719
 30
0.0
 10
212.3620504201897
 20
-191.8207858476133
 30
0.0
 10
202.5645170935988
 20
-193.8519567768306
 30
0.0
 10
197.6231809252816
 20
-194.6314769474834
 30
0.0
 10
187.6549727299087
 20
-195.7161860127565
 30
0.0
 10
182.6282151029158
 20
-196.0220093024567
 30
0.0
 10
177.5574111237483
 20
-196.0835775774809
 30
0.0
  0
SPLINE
  5
7E
330
1F
100
AcDbEntity
  8
0
  6
Continuous
 62
     7
370
    25
100
AcDbSpline
210
0.0
220
0.0
230
1.0
 70
     8
 71
     3
 72
    38
 73
    34
 74
     0
 42
0.000000001
 43
0.00000001
 40
0.0
 40
0.0
 40
0.0
 40
0.0
 40
0.0039062499999999
 40
0.0039062499999999
 40
0.0078124999999998
 40
0.0156249999999998
 40
0.0312499999999998
 40
0.0312499999999998
 40
0.0624999999999998
 40
0.0624999999999998
 40
0.1249999999999998
 40
0.1249999999999998
 40
0.2499999999999997
 40
0.2499999999999997
 40
0.3749999999999996
 40
0.3749999999999996
 40
0.4999999999999994
 40
0.4999999999999994
 40
0.6249999999999993
 40
0.6249999999999993
 40
0.7499999999999993
 40
0.7499999999999993
 40
0.8749999999999992
 40
0.8749999999999992
 40
0.9374999999999993
 40
0.9374999999999993
 40
0.9687499999999992
 40
0.9687499999999992
 40
0.9843749999999993
 40
0.9921874999999996
 40
0.9960937499999998
 40
0.9960937499999998
 40
1.0
 40
1.0
 40
1.0
 40
1.0
 10
-177.4999999999514
 20
-191.3551593802138
 30
0.0
 10
-177.0377809288036
 20
-191.3583627155804
 30
0.0
 10
-176.5755419908618
 20
-191.3590111784056
 30
0.0
 10
-175.6510240417655
 20
-191.3626024646171
 30
0.0
 10
-174.2642481632878
 20
-191.3680430507265
 30
0.0
 10
-171.0284451626179
 20
-191.3811200265807
 30
0.0
 10
-168.2549126109431
 20
-191.3930072049574
 30
0.0
 10
-162.7078651325355
 20
-191.4177449637168
 30
0.0
 10
-159.0098570694403
 20
-191.4355243096702
 30
0.0
 10
-147.9159047148067
 20
-191.493125074556
 30
0.0
 10
-140.5200347859638
 20
-191.5373346288262
 30
0.0
 10
-118.3326592937489
 20
-191.6876511324225
 30
0.0
 10
-103.541418539143
 20
-191.8125023241994
 30
0.0
 10
-73.95889250357217
 20
-192.0800562463635
 30
0.0
 10
-59.16756924454505
 20
-192.2216679101376
 30
0.0
 10
-29.58337557066904
 20
-192.4337824563918
 30
0.0
 10
-14.79010799996786
 20
-192.5000063327043
 30
0.0
 10
14.79464300220008
 20
-192.4999936663251
 30
0.0
 10
29.58646939965965
 20
-192.4337642771575
 30
0.0
 10
59.16937437224947
 20
-192.2216509638721
 30
0.0
 10
73.96050861737388
 20
-192.080041240343
 30
0.0
 10
103.5425500505467
 20
-191.8124924798463
 30
0.0
 10
118.3335173563322
 20
-191.687644693997
 30
0.0
 10
140.5205138402754
 20
-191.5373316958994
 30
0.0
 10
147.9162698974833
 20
-191.4931230429497
 30
0.0
 10
159.0100724522952
 20
-191.4355232591605
 30
0.0
 10
162.7080339996557
 20
-191.4177441815549
 30
0.0
 10
168.2550165788418
 20
-191.3930067558391
 30
0.0
 10
171.0285178956358
 20
-191.3811197266625
 30
0.0
 10
174.2642864954107
 20
-191.3680428987246
 30
0.0
 10
175.6510480572641
 20
-191.3626023708313
 30
0.0
 10
176.5755565555743
 20
-191.3590111223266
 30
0.0
 10
177.0377903473625
 20
-191.3583626503083
 30
0.0
 10
177.5000000005427
 20
-191.3551593802097
 30
0.0
  0
SPLINE
  5
7F
330
1F
100
AcDbEntity
  8
0
  6
Continuous
 62
     7
370
    25
100
AcDbSpline
210
0.0
220
0.0
230
1.0
 70
     8
 71
     3
 72
    36
 73
    32
 74
     0
 42
0.000000001
 43
0.00000001
 40
0.0
 40
0.0
 40
0.0
 40
0.0
 40
0.0078125
 40
0.0078125
 40
0.015625
 40
0.03125
 40
0.03125
 40
0.0625000000000001
 40
0.0625000000000001
 40
0.1249999999999999
 40
0.1249999999999999
 40
0.2499999999999998
 40
0.2499999999999998
 40
0.3749999999999998
 40
0.3749999999999998
 40
0.4999999999999998
 40
0.4999999999999998
 40
0.6249999999999998
 40
0.6249999999999998
 40
0.7499999999999998
 40
0.7499999999999998
 40
0.8749999999999998
 40
0.8749999999999998
 40
0.9374999999999999
 40
0.9374999999999999
 40
0.96875
 40
0.96875
 40
0.9843749999999999
 40
0.9921875
 40
0.9921875
 40
1.0
 40
1.0
 40
1.0
 40
1.0
 10
177.5574111237482
 20
-196.0835775774808
 30
0.0
 10
176.6326657777482
 20
-196.0948055752548
 30
0.0
 10
175.7078479011571
 20
-196.0983131713947
 30
0.0
 10
173.8582649009851
 20
-196.1109435726411
 30
0.0
 10
171.0838927660149
 20
-196.1301409437398
 30
0.0
 10
168.3095278448317
 20
-196.1501061747587
 30
0.0
 10
162.7608078545872
 20
-196.1910853299982
 30
0.0
 10
159.0616743803374
 20
-196.2198083200639
 30
0.0
 10
147.964313947398
 20
-196.3102339410311
 30
0.0
 10
140.5661283758719
 20
-196.3763419616987
 30
0.0
 10
118.3717009014847
 20
-196.588422787206
 30
0.0
 10
103.5755886146336
 20
-196.7481923589276
 30
0.0
 10
73.98330661811535
 20
-197.0616192234232
 30
0.0
 10
59.18710614965691
 20
-197.2140655596927
 30
0.0
 10
29.59438807086385
 20
-197.434715830974
 30
0.0
 10
14.79784405225994
 20
-197.4999971194684
 30
0.0
 10
-14.7957801357851
 20
-197.5000028803306
 30
0.0
 10
-29.5930307915539
 20
-197.4347239655083
 30
0.0
 10
-59.18637065229573
 20
-197.2140730292535
 30
0.0
 10
-73.98265610325188
 20
-197.0616259934426
 30
0.0
 10
-103.5751491008878
 20
-196.7481971339494
 30
0.0
 10
-118.3713704821652
 20
-196.588426128651
 30
0.0
 10
-140.5659447257034
 20
-196.3763436245394
 30
0.0
 10
-147.9641746148782
 20
-196.310235127698
 30
0.0
 10
-159.0615927501998
 20
-196.2198089595529
 30
0.0
 10
-162.7607440335659
 20
-196.191085813279
 30
0.0
 10
-168.3094886230282
 20
-196.1501064584544
 30
0.0
 10
-171.0838653172006
 20
-196.1301411362657
 30
0.0
 10
-173.8582484539631
 20
-196.1109436857327
 30
0.0
 10
-175.7078386200871
 20
-196.0983132339947
 30
0.0
 10
-176.6326572600441
 20
-196.0948056786708
 30
0.0
 10
-177.5574111231388
 20
-196.0835775774882
 30
0.0
  0
SPLINE
  5
80
330
1F
100
AcDbEntity
  8
0
  6
Continuous
 62
     7
370
    25
100
AcDbSpline
210
0.0
220
0.0
230
1.0
 70
     8
 71
     3
 72
    32
 73
    28
 74
     0
 42
0.000000001
 43
0.00000001
 40
0.0
 40
0.0
 40
0.0
 40
0.0
 40
0.0039062500000001
 40
0.0039062500000001
 40
0.0078125000000001
 40
0.0156250000000003
 40
0.0312500000000003
 40
0.0625000000000002
 40
0.0625000000000002
 40
0.1250000000000002
 40
0.1250000000000002
 40
0.2500000000000001
 40
0.2500000000000001
 40
0.5000000000000001
 40
0.5000000000000001
 40
0.7500000000000001
 40
0.7500000000000001
 40
0.8750000000000001
 40
0.8750000000000001
 40
0.9375000000000002
 40
0.9375000000000002
 40
0.9687500000000002
 40
0.984375
 40
0.9921874999999999
 40
0.9960937499999999
 40
0.9960937499999999
 40
1.0
 40
1.0
 40
1.0
 40
1.0
 10
177.4999999999589
 20
106.9874340432785
 30
0.0
 10
177.0377755011019
 20
106.9909870256054
 30
0.0
 10
176.5755437072422
 20
106.9918919531375
 30
0.0
 10
175.6510724667841
 20
106.9948512744468
 30
0.0
 10
174.2643656283113
 20
106.9992975994855
 30
0.0
 10
171.0287164880062
 20
107.009722626257
 30
0.0
 10
164.5574187553025
 20
107.0307642553162
 30
0.0
 10
159.0105928903663
 20
107.0490945457725
 30
0.0
 10
147.9169416362169
 20
107.0860391120755
 30
0.0
 10
140.5211747987261
 20
107.1110555707094
 30
0.0
 10
118.3338708947473
 20
107.1861189558176
 30
0.0
 10
103.5423310868758
 20
107.2363494113351
 30
0.0
 10
59.16764142313585
 20
107.3741484879713
 30
0.0
 10
29.58442823217858
 20
107.4500044981916
 30
0.0
 10
-29.58269044567701
 20
107.4500074811004
 30
0.0
 10
-59.1664916803505
 20
107.3741517138453
 30
0.0
 10
-103.5416334155768
 20
107.2363517500851
 30
0.0
 10
-118.3333150410251
 20
107.1861208360332
 30
0.0
 10
-140.5208294703226
 20
107.111056739179
 30
0.0
 10
-147.9166660544769
 20
107.0860400368026
 30
0.0
 10
-159.0104223067414
 20
107.0490951103713
 30
0.0
 10
-164.5573007608627
 20
107.0307646411426
 30
0.0
 10
-171.0286601849724
 20
107.0097228081962
 30
0.0
 10
-174.264340274791
 20
106.9992976808923
 30
0.0
 10
-175.6510604016148
 20
106.9948513130954
 30
0.0
 10
-176.5755405065853
 20
106.9918919633561
 30
0.0
 10
-177.0377752828468
 20
106.9909870272829
 30
0.0
 10
-177.4999999999177
 20
106.9874340432788
 30
0.0
  0
SPLINE
  5
81
330
1F
100
AcDbEntity
  8
0
  6
Continuous
 62
     7
370
    25
100
AcDbSpline
210
0.0
220
0.0
230
1.0
 70
     8
 71
     3
 72
    30
 73
    26
 74
     0
 42
0.000000001
 43
0.00000001
 40
0.0
 40
0.0
 40
0.0
 40
0.0
 40
0.0078125000000001
 40
0.0078125000000001
 40
0.0156250000000002
 40
0.0312500000000001
 40
0.0625000000000001
 40
0.0625000000000001
 40
0.1250000000000001
 40
0.1250000000000001
 40
0.2500000000000001
 40
0.2500000000000001
 40
0.5000000000000002
 40
0.5000000000000002
 40
0.7500000000000002
 40
0.7500000000000002
 40
0.8750000000000003
 40
0.8750000000000003
 40
0.9375000000000003
 40
0.9375000000000003
 40
0.9687500000000002
 40
0.9843750000000001
 40
0.9921875000000001
 40
0.9921875000000001
 40
1.0
 40
1.0
 40
1.0
 40
1.0
 10
-177.5442646022805
 20
111.9490454964406
 30
0.0
 10
-176.619570070601
 20
111.9572950815076
 30
0.0
 10
-175.6948514443084
 20
111.9580225322605
 30
0.0
 10
-173.8454313586353
 20
111.9648367984373
 30
0.0
 10
-171.0713012876213
 20
111.9750761474077
 30
0.0
 10
-164.5983314882173
 20
111.9990823158032
 30
0.0
 10
-159.0500721601057
 20
112.0198151115913
 30
0.0
 10
-147.9535537772313
 20
112.061366040119
 30
0.0
 10
-140.5558752417822
 20
112.0891873109038
 30
0.0
 10
-118.3628368916886
 20
112.1717945489301
 30
0.0
 10
-103.567474807449
 20
112.2258719678208
 30
0.0
 10
-59.1813366924194
 20
112.3719132496632
 30
0.0
 10
-29.59038174498509
 20
112.4489650048878
 30
0.0
 10
29.59127757408213
 20
112.4489634349736
 30
0.0
 10
59.18192824859769
 20
112.371911522489
 30
0.0
 10
103.5678334967571
 20
112.2258706780471
 30
0.0
 10
118.3631227094771
 20
112.1717934963457
 30
0.0
 10
140.5560530648693
 20
112.0891866433629
 30
0.0
 10
147.9536958534246
 20
112.0613655070452
 30
0.0
 10
159.0501604566602
 20
112.0198147814995
 30
0.0
 10
164.5983928573949
 20
111.9990820875559
 30
0.0
 10
171.0713310812425
 20
111.9750760372611
 30
0.0
 10
173.8454475767353
 20
111.9648367386306
 30
0.0
 10
175.6948586015278
 20
111.9580225059399
 30
0.0
 10
176.6195703386775
 20
111.9572950791163
 30
0.0
 10
177.5442646023231
 20
111.9490454964403
 30
0.0
  0
CIRCLE
  5
8B
330
1F
100
AcDbEntity
  8
0
  6
Continuous
 62
     7
370
    25
100
AcDbCircle
 10
0.0
 20
167.5
 30
0.0
 40
18.50000000000011
  0
CIRCLE
  5
8C
330
1F
100
AcDbEntity
  8
0
  6
Continuous
 62
     7
370
    25
100
AcDbCircle
 10
100.0
 20
167.5
 30
0.0
 40
18.50000000000011
  0
CIRCLE
  5
8D
330
1F
100
AcDbEntity
  8
0
  6
Continuous
 62
     7
370
    25
100
AcDbCircle
 10
-100.0
 20
167.5
 30
0.0
 40
18.50000000000006
  0
CIRCLE
  5
93
330
1F
100
AcDbEntity
  8
0
  6
Continuous
 62
     7
370
    25
100
AcDbCircle
 10
0.0
 20
167.5
 30
0.0
 40
17.50000000000003
  0
CIRCLE
  5
95
330
1F
100
AcDbEntity
  8
0
  6
Continuous
 62
     7
370
    25
100
AcDbCircle
 10
100.0
 20
167.5
 30
0.0
 40
17.5
  0
CIRCLE
  5
96
330
1F
100
AcDbEntity
  8
0
  6
Continuous
 62
     7
370
    25
100
AcDbCircle
 10
-100.0
 20
167.5
 30
0.0
 40
17.50000000000003
  0
SPLINE
  5
9B
330
1F
100
AcDbEntity
  8
0
  6
Continuous
 62
     7
370
    25
100
AcDbSpline
210
0.0
220
0.0
230
1.0
 70
    11
 71
     3
 72
    95
 73
    91
 74
     0
 42
0.000000001
 43
0.00000001
 40
0.0
 40
0.0
 40
0.0
 40
0.0
 40
0.0156249999999998
 40
0.0156249999999998
 40
0.0312499999999996
 40
0.0312499999999996
 40
0.0624999999999993
 40
0.0624999999999993
 40
0.0781249999999991
 40
0.0781249999999991
 40
0.093749999999999
 40
0.093749999999999
 40
0.1249999999999987
 40
0.1249999999999987
 40
0.1406249999999985
 40
0.1406249999999985
 40
0.1562499999999984
 40
0.1718749999999982
 40
0.1718749999999982
 40
0.1874999999999981
 40
0.1874999999999981
 40
0.2187499999999978
 40
0.2187499999999978
 40
0.2499999999999974
 40
0.2499999999999974
 40
0.2812499999999971
 40
0.2812499999999971
 40
0.2968749999999969
 40
0.2968749999999969
 40
0.3124999999999967
 40
0.3281249999999965
 40
0.3281249999999965
 40
0.3437499999999963
 40
0.3437499999999963
 40
0.3749999999999964
 40
0.3749999999999964
 40
0.3906249999999964
 40
0.3906249999999964
 40
0.4062499999999964
 40
0.4062499999999964
 40
0.4374999999999962
 40
0.4374999999999962
 40
0.4531249999999959
 40
0.4531249999999959
 40
0.4687499999999957
 40
0.4687499999999957
 40
0.4999999999999954
 40
0.4999999999999954
 40
0.5312499999999951
 40
0.5312499999999951
 40
0.546874999999995
 40
0.546874999999995
 40
0.5624999999999949
 40
0.5781249999999949
 40
0.5781249999999949
 40
0.5937499999999948
 40
0.5937499999999948
 40
0.6249999999999946
 40
0.6249999999999946
 40
0.6406249999999947
 40
0.6406249999999947
 40
0.6562499999999948
 40
0.6562499999999948
 40
0.687499999999995
 40
0.687499999999995
 40
0.7031249999999952
 40
0.7031249999999952
 40
0.7187499999999953
 40
0.7187499999999953
 40
0.7499999999999963
 40
0.7499999999999963
 40
0.7812499999999973
 40
0.7812499999999973
 40
0.7968749999999976
 40
0.7968749999999976
 40
0.8124999999999978
 40
0.8124999999999978
 40
0.8437499999999983
 40
0.8437499999999983
 40
0.8749999999999988
 40
0.8749999999999988
 40
0.9062499999999992
 40
0.9062499999999992
 40
0.9218749999999993
 40
0.9218749999999993
 40
0.9374999999999994
 40
0.9374999999999994
 40
0.9687499999999998
 40
0.9687499999999998
 40
1.0
 40
1.0
 40
1.0
 40
1.0
 10
-0.0000000000000001
 20
106.9367197559428
 30
0.0
 10
0.3636507457913161
 20
106.9367197559429
 30
0.0
 10
0.7261716189683824
 20
106.9354510338605
 30
0.0
 10
1.448962350118099
 20
106.9303623539093
 30
0.0
 10
1.808623717574817
 20
106.926534943186
 30
0.0
 10
2.868176581331729
 20
106.9113441139681
 30
0.0
 10
3.554183311879369
 20
106.8962978852943
 30
0.0
 10
4.552587083915812
 20
106.8655413068844
 30
0.0
 10
4.882017001133358
 20
106.853833533604
 30
0.0
 10
5.520024719988164
 20
106.8277769030664
 30
0.0
 10
5.828421172493011
 20
106.8134588020032
 30
0.0
 10
6.722594782340667
 20
106.7664246003161
 30
0.0
 10
7.277656485985935
 20
106.7296795025306
 30
0.0
 10
8.046441876623696
 20
106.6647947080939
 30
0.0
 10
8.289388252297366
 20
106.641726635178
 30
0.0
 10
8.744504707056398
 20
106.5930238898766
 30
0.0
 10
9.170489167700365
 20
106.5416158799967
 30
0.0
 10
9.538776346181182
 20
106.4844286907949
 30
0.0
 10
9.87766232738659
 20
106.4241007356427
 30
0.0
 10
10.03294714040154
 20
106.392198781424
 30
0.0
 10
10.44473203343952
 20
106.2933888208812
 30
0.0
 10
10.65072295214704
 20
106.223004224642
 30
0.0
 10
10.92796474615925
 20
106.0724721001089
 30
0.0
 10
10.99799626602505
 20
105.991602877329
 30
0.0
 10
10.99472671122437
 20
105.8263301647112
 30
0.0
 10
10.9237312391889
 20
105.7412875205226
 30
0.0
 10
10.71158895358076
 20
105.610393285795
 30
0.0
 10
10.62270341419691
 20
105.5661063517153
 30
0.0
 10
10.41307542744645
 20
105.4784479345713
 30
0.0
 10
10.17102171191676
 20
105.3912415499127
 30
0.0
 10
9.865303328986094
 20
105.3052075130774
 30
0.0
 10
9.527422744871496
 20
105.2199370821697
 30
0.0
 10
9.341715795254771
 20
105.1775425198332
 30
0.0
 10
8.739008016698062
 20
105.0527878817445
 30
0.0
 10
8.28466212681978
 20
104.9743397362924
 30
0.0
 10
7.526821458268191
 20
104.8647454698691
 30
0.0
 10
7.261394597457573
 20
104.8295688852316
 30
0.0
 10
6.704198275334345
 20
104.7622088989775
 30
0.0
 10
6.412072128983722
 20
104.7300313765623
 30
0.0
 10
5.515383746468737
 20
104.640459482076
 30
0.0
 10
4.884598150322173
 20
104.5891803535963
 30
0.0
 10
3.888928235898843
 20
104.5258986672069
 30
0.0
 10
3.547417533646064
 20
104.5070307339335
 30
0.0
 10
2.85332359698933
 20
104.4744817122876
 30
0.0
 10
2.502512181078888
 20
104.4608607874634
 30
0.0
 10
1.438895762247818
 20
104.4280170688034
 30
0.0
 10
0.7102721864841738
 20
104.4169145622916
 30
0.0
 10
-0.7269279470910508
 20
104.4170840293847
 30
0.0
 10
-1.440878408926909
 20
104.4280560654333
 30
0.0
 10
-2.504698483632045
 20
104.4609394618419
 30
0.0
 10
-2.858359044186978
 20
104.4747036661186
 30
0.0
 10
-3.547644342396701
 20
104.5070559790379
 30
0.0
 10
-4.222937280245037
 20
104.5443329964375
 30
0.0
 10
-4.870749632091517
 20
104.5910411951154
 30
0.0
 10
-5.504676526754623
 20
104.6423627339269
 30
0.0
 10
-5.816243076198305
 20
104.6704903925435
 30
0.0
 10
-6.717277953067971
 20
104.7605643390482
 30
0.0
 10
-7.269922449182617
 20
104.8276530512329
 30
0.0
 10
-8.029024042024782
 20
104.9373418546083
 30
0.0
 10
-8.270329020548226
 20
104.9754254489829
 30
0.0
 10
-8.728811864277969
 20
105.0545084025699
 30
0.0
 10
-8.944228310531056
 20
105.0952342035016
 30
0.0
 10
-9.541501891464781
 20
105.2189614677749
 30
0.0
 10
-9.878604224806274
 20
105.3041308252746
 30
0.0
 10
-10.2921101317718
 20
105.434842553115
 30
0.0
 10
-10.41495868183764
 20
105.4791503517605
 30
0.0
 10
-10.62465105474794
 20
105.5670074006403
 30
0.0
 10
-10.71196768971959
 20
105.6106415823722
 30
0.0
 10
-10.92252424355838
 20
105.7405136130309
 30
0.0
 10
-10.99487435101256
 20
105.8257134031904
 30
0.0
 10
-10.99785918700346
 20
105.9927806515396
 30
0.0
 10
-10.92813440095448
 20
106.0722097215083
 30
0.0
 10
-10.72121650296551
 20
106.1848131641776
 30
0.0
 10
-10.63506409747358
 20
106.2213008551984
 30
0.0
 10
-10.42765249420746
 20
106.2922309063138
 30
0.0
 10
-10.30560246120799
 20
106.3268252167712
 30
0.0
 10
-9.893348989734642
 20
106.4255919076934
 30
0.0
 10
-9.55665357960571
 20
106.4853345212177
 30
0.0
 10
-8.761256287643397
 20
106.5942168825317
 30
0.0
 10
-8.297260079570929
 20
106.6436300310996
 30
0.0
 10
-7.282467890201696
 20
106.7292692683669
 30
0.0
 10
-6.729033076083845
 20
106.766065709586
 30
0.0
 10
-5.828723707914507
 20
106.81345294501
 30
0.0
 10
-5.515797731368757
 20
106.8279611955067
 30
0.0
 10
-4.879730398315111
 20
106.8539151402451
 30
0.0
 10
-4.55509891611709
 20
106.8654508976702
 30
0.0
 10
-3.561791456534316
 20
106.8960893243956
 30
0.0
 10
-2.871549115809017
 20
106.9113083569778
 30
0.0
 10
-1.447052653681721
 20
106.9317061547749
 30
0.0
 10
-0.7273014915826473
 20
106.9367197559428
 30
0.0
 10
0.0000000000000001
 20
106.9367197559428
 30
0.0
  0
CIRCLE
  5
9C
330
1F
100
AcDbEntity
  8
0
  6
Continuous
 62
     7
370
    25
100
AcDbCircle
 10
0.0
 20
7.5
 30
0.0
 40
32.50000000000053
  0
CIRCLE
  5
9D
330
1F
100
AcDbEntity
  8
0
  6
Continuous
 62
     7
370
    25
100
AcDbCircle
 10
0.0
 20
7.5
 30
0.0
 40
22.5
  0
SPLINE
  5
9E
330
1F
100
AcDbEntity
  8
0
  6
Continuous
 62
     8
370
    25
100
AcDbSpline
210
0.0
220
0.0
230
1.0
 70
     8
 71
     3
 72
    16
 73
    12
 74
     0
 42
0.000000001
 43
0.00000001
 40
0.0
 40
0.0
 40
0.0
 40
0.0
 40
0.0032967453419802
 40
0.138836308115959
 40
0.2728706775028713
 40
0.4062128997204766
 40
0.5395266684350938
 40
0.6245929951453525
 40
0.7604472772912547
 40
0.8972083185987714
 40
1.0
 40
1.0
 40
1.0
 40
1.0
 10
-9.459032924691778
 20
106.4728988477681
 30
0.0
 10
-9.454671844074575
 20
106.4692872946702
 30
0.0
 10
-9.271013032282788
 20
106.3171934425015
 30
0.0
 10
-7.906040958833684
 20
106.0114859599787
 30
0.0
 10
-5.488834363986562
 20
105.6440709491082
 30
0.0
 10
-2.342595326805915
 20
105.4191235577041
 30
0.0
 10
0.6265013945439704
 20
105.3857564458874
 30
0.0
 10
3.529805243081988
 20
105.4906566795593
 30
0.0
 10
6.182763505794668
 20
105.7283734958643
 30
0.0
 10
8.424188967163392
 20
106.0976774897794
 30
0.0
 10
9.09803500108146
 20
106.3656919289217
 30
0.0
 10
9.387181231809983
 20
106.4806964862806
 30
0.0
  0
LINE
  5
9F
330
1F
100
AcDbEntity
  8
0
  6
Continuous
 62
     7
370
    25
100
AcDbLine
 10
10.2874714403
 20
106.2764495972
 30
0.0
 11
10.2931984158
 21
106.2744570214
 31
0.0
  0
LINE
  5
A0
330
1F
100
AcDbEntity
  8
0
  6
Continuous
 62
     7
370
    25
100
AcDbLine
 10
-177.5442646023
 20
111.9490454964
 30
0.0
 11
-177.4999999999
 21
106.9874340433
 31
0.0
  0
LINE
  5
A1
330
1F
100
AcDbEntity
  8
0
  6
Continuous
 62
     7
370
    25
100
AcDbLine
 10
-177.5574111231
 20
-196.0835775775
 30
0.0
 11
-177.5
 21
-191.3551593802
 31
0.0
  0
LINE
  5
A2
330
1F
100
AcDbEntity
  8
0
  6
Continuous
 62
     7
370
    25
100
AcDbLine
 10
177.5
 20
106.9874340433
 30
0.0
 11
177.5442646023
 21
111.9490454964
 31
0.0
  0
LINE
  5
A3
330
1F
100
AcDbEntity
  8
0
  6
Continuous
 62
     7
370
    25
100
AcDbLine
 10
177.5000000005
 20
-191.3551593802
 30
0.0
 11
177.5574111237
 21
-196.0835775775
 31
0.0
  0
LINE
  5
A4
330
1F
100
AcDbEntity
  8
0
  6
Continuous
 62
     7
370
    25
100
AcDbLine
 10
360.0
 20
-227.5
 30
0.0
 11
-360.0
 21
-227.5
 31
0.0
  0
LINE
  5
A5
330
1F
100
AcDbEntity
  8
0
  6
Continuous
 62
     7
370
    25
100
AcDbLine
 10
-360.0
 20
227.5
 30
0.0
 11
-360.0
 21
-227.5
 31
0.0
  0
LINE
  5
A6
330
1F
100
AcDbEntity
  8
0
  6
Continuous
 62
     7
370
    25
100
AcDbLine
 10
-365.0
 20
-222.5
 30
0.0
 11
365.0
 21
-222.5
 31
0.0
  0
LINE
  5
A7
330
1F
100
AcDbEntity
  8
0
  6
Continuous
 62
     7
370
    25
100
AcDbLine
 10
360.0
 20
-227.5
 30
0.0
 11
360.0
 21
227.5
 31
0.0
  0
LINE
  5
A8
330
1F
100
AcDbEntity
  8
0
  6
Continuous
 62
     7
370
    25
100
AcDbLine
 10
365.0
 20
227.5
 30
0.0
 11
-360.0
 21
227.5
 31
0.0
  0
LINE
  5
A9
330
1F
100
AcDbEntity
  8
0
  6
Continuous
 62
     7
370
    25
100
AcDbLine
 10
365.0
 20
227.5
 30
0.0
 11
365.0
 21
-222.5
 31
0.0
  0
LINE
  5
AA
330
1F
100
AcDbEntity
  8
0
  6
Continuous
 62
     7
370
    25
100
AcDbLine
 10
-365.0
 20
-222.5
 30
0.0
 11
-365.0
 21
222.5
 31
0.0
  0
LINE
  5
AB
330
1F
100
AcDbEntity
  8
0
  6
Continuous
 62
     7
370
    25
100
AcDbLine
 10
-75.0
 20
-50.0
 30
0.0
 11
75.0
 21
-50.0
 31
0.0
  0
LINE
  5
AC
330
1F
100
AcDbEntity
  8
0
  6
Continuous
 62
     7
370
    25
100
AcDbLine
 10
75.0
 20
50.0
 30
0.0
 11
-75.0
 21
50.0
 31
0.0
  0
ARC
  5
AD
330
1F
100
AcDbEntity
  8
0
  6
Continuous
 62
     7
370
    25
100
AcDbCircle
 10
360.0
 20
-222.5
 30
0.0
 40
5.0
100
AcDbArc
 50
270.0
 51
0.0
  0
ARC
  5
AE
330
1F
100
AcDbEntity
  8
0
  6
Continuous
 62
     7
370
    25
100
AcDbCircle
 10
-360.0
 20
222.5
 30
0.0
 40
5.0
100
AcDbArc
 50
90.0
 51
180.0
  0
ARC
  5
AF
330
1F
100
AcDbEntity
  8
0
  6
Continuous
 62
     7
370
    25
100
AcDbCircle
 10
-360.0
 20
-222.5
 30
0.0
 40
4.999999999999972
100
AcDbArc
 50
180.0
 51
270.0
  0
ARC
  5
B0
330
1F
100
AcDbEntity
  8
0
  6
Continuous
 62
     7
370
    25
100
AcDbCircle
 10
-75.0
 20
0.0
 30
0.0
 40
49.99999999999999
100
AcDbArc
 50
90.0
 51
270.0
  0
ARC
  5
B1
330
1F
100
AcDbEntity
  8
0
  6
Continuous
 62
     7
370
    25
100
AcDbCircle
 10
75.0
 20
0.0
 30
0.0
 40
50.0
100
AcDbArc
 50
270.0
 51
90.0
  0
SPLINE
  5
B2
330
1B
100
AcDbEntity
 67
     1
  8
0
  6
Continuous
 62
     7
370
    25
100
AcDbSpline
210
0.0
220
0.0
230
1.0
 70
     8
 71
     3
 72
    43
 73
    39
 74
     0
 42
0.000000001
 43
0.00000001
 40
0.0
 40
0.0
 40
0.0
 40
0.0
 40
0.0238774981461221
 40
0.0747794450156008
 40
0.1310962722762905
 40
0.1918601232557382
 40
0.2468490125989631
 40
0.2840974990287474
 40
0.3161035705146785
 40
0.3428650308421585
 40
0.3661586961433102
 40
0.3904284554401449
 40
0.4158885930482409
 40
0.4449819463680567
 40
0.4683821217304497
 40
0.4954742063993844
 40
0.5265105789800388
 40
0.5616857827745219
 40
0.5998731817150883
 40
0.6335619409550155
 40
0.6552047943892707
 40
0.6739524960876064
 40
0.690147711862882
 40
0.704351723273165
 40
0.7174180117279831
 40
0.7304565411599193
 40
0.7446089402797723
 40
0.7598932226324737
 40
0.7877231380032514
 40
0.8114503052691036
 40
0.8309977618335468
 40
0.8466104006430075
 40
0.8549078322692488
 40
0.8723682700972629
 40
0.8969018783343736
 40
0.9250415632789799
 40
0.9593507724954098
 40
0.9999999999999999
 40
0.9999999999999999
 40
0.9999999999999999
 40
0.9999999999999999
 10
-222.1552920232391
 20
-0.7600628158858092
 30
0.0
 10
-221.3315535400788
 20
-0.9938626022387917
 30
0.0
 10
-218.75177293527
 20
-1.7260757579576
 30
0.0
 10
-214.2057381375962
 20
-2.933459019095606
 30
0.0
 10
-208.3603725345868
 20
-4.409190851724247
 30
0.0
 10
-202.3462124539667
 20
-5.820314903041537
 30
0.0
 10
-196.9767269856119
 20
-6.990941992275513
 30
0.0
 10
-192.6029636683243
 20
-7.885635784544723
 30
0.0
 10
-189.2154515636652
 20
-8.544550697863494
 30
0.0
 10
-186.3144298000632
 20
-9.083908980980562
 30
0.0
 10
-183.6837348973137
 20
-9.554060995159597
 30
0.0
 10
-181.0985488197881
 20
-9.998788235375144
 30
0.0
 10
-178.3270763379034
 20
-10.45634742044051
 30
0.0
 10
-175.534276686555
 20
-10.89598366132678
 30
0.0
 10
-172.7554561640629
 20
-11.31051558464608
 30
0.0
 10
-169.9697264187762
 20
-11.70276050176163
 30
0.0
 10
-166.8464196288595
 20
-12.11148693536888
 30
0.0
 10
-163.3994030042857
 20
-12.5238092161592
 30
0.0
 10
-159.9125547015173
 20
-12.89794361285086
 30
0.0
 10
-156.7220975419327
 20
-13.21257586910159
 30
0.0
 10
-154.1192294433857
 20
-13.4542103413105
 30
0.0
 10
-152.0919955139997
 20
-13.63551832095551
 30
0.0
 10
-150.3256640931526
 20
-13.7898024220333
 30
0.0
 10
-148.8149954396654
 20
-13.92077019330587
 30
0.0
 10
-147.5677639354662
 20
-14.03031244036407
 30
0.0
 10
-146.5990441264804
 20
-14.11871748489666
 30
0.0
 10
-145.9332686081248
 20
-14.18447094813237
 30
0.0
 10
-145.3361932180601
 20
-14.2476260292877
 30
0.0
 10
-144.370936292103
 20
-14.32984408661207
 30
0.0
 10
-143.1279253431345
 20
-14.41921184700157
 30
0.0
 10
-141.8224534550643
 20
-14.50102622313002
 30
0.0
 10
-140.6758774419602
 20
-14.56616006141243
 30
0.0
 10
-139.2295306262384
 20
-14.64137194698522
 30
0.0
 10
-137.3987225340543
 20
-14.72758868151764
 30
0.0
 10
-134.9170683513997
 20
-14.82538635605285
 30
0.0
 10
-131.8846016153469
 20
-14.91565017044644
 30
0.0
 10
-128.3342840559209
 20
-14.98547945692417
 30
0.0
 10
-125.7711788875756
 20
-14.99489437951253
 30
0.0
 10
-124.3812320094941
 20
-15.00000000000001
 30
0.0
  0
SPLINE
  5
B3
330
1B
100
AcDbEntity
 67
     1
  8
0
  6
Continuous
 62
     7
370
    25
100
AcDbSpline
210
0.0
220
0.0
230
1.0
 70
     8
 71
     3
 72
    27
 73
    23
 74
     0
 42
0.000000001
 43
0.00000001
 40
0.0
 40
0.0
 40
0.0
 40
0.0
 40
0.0571636384408351
 40
0.1035365214772427
 40
0.1398422571420707
 40
0.1722530329360819
 40
0.2019483428435298
 40
0.2328651222754472
 40
0.2650151886906179
 40
0.2984098428441059
 40
0.3336863628187153
 40
0.3798654073092969
 40
0.4311942954277454
 40
0.487715771975781
 40
0.544343430174335
 40
0.6177500765674729
 40
0.6879795745743109
 40
0.7632085130149298
 40
0.8402191121136081
 40
0.9176009927208353
 40
0.9941478434943933
 40
1.0
 40
1.0
 40
1.0
 40
1.0
 10
124.3812320094936
 20
-15.00000000000001
 30
0.0
 10
126.1929749902507
 20
-14.99149231181797
 30
0.0
 10
129.4744590097215
 20
-14.97608292808721
 30
0.0
 10
133.993569861205
 20
-14.86059697274745
 30
0.0
 10
137.8213942053264
 20
-14.71332975722806
 30
0.0
 10
141.14826290621
 20
-14.54495681214411
 30
0.0
 10
144.1854301992667
 20
-14.36135021177076
 30
0.0
 10
147.2466277940115
 20
-14.14826899517183
 30
0.0
 10
150.424751101787
 20
-13.89686843706243
 30
0.0
 10
153.7506347127363
 20
-13.60192327759962
 30
0.0
 10
157.5413498910681
 20
-13.22838598218379
 30
0.0
 10
161.9331622300429
 20
-12.74532052021306
 30
0.0
 10
167.0312405358122
 20
-12.11584130759858
 30
0.0
 10
172.467962551208
 20
-11.3656653319468
 30
0.0
 10
178.6504197951502
 20
-10.41801292977865
 30
0.0
 10
184.6206247778552
 20
-9.398305095468865
 30
0.0
 10
191.8325329919642
 20
-8.034973368895075
 30
0.0
 10
199.1144993179723
 20
-6.546519994850453
 30
0.0
 10
206.5821889195694
 20
-4.850635827540104
 30
0.0
 10
214.1461257245737
 20
-2.954071082517003
 30
0.0
 10
219.3301331862223
 20
-1.585301166809681
 30
0.0
 10
221.985425044433
 20
-0.8128564013946404
 30
0.0
 10
222.1740096407214
 20
-0.7579956960486328
 30
0.0
  0
SPLINE
  5
BA
330
1B
100
AcDbEntity
 67
     1
  8
0
  6
Continuous
 62
     7
370
    25
100
AcDbSpline
210
0.0
220
0.0
230
1.0
 70
     8
 71
     3
 72
    14
 73
    10
 74
     0
 42
0.000000001
 43
0.00000001
 40
0.0
 40
0.0
 40
0.0
 40
0.0
 40
0.1239820620113196
 40
0.3036953579952998
 40
0.4620348314613961
 40
0.611178836243479
 40
0.7742222651530684
 40
0.9331383477600306
 40
1.0
 40
1.0
 40
1.0
 40
1.0
 10
221.8302581296402
 20
-0.8367309986490462
 30
0.0
 10
221.8238476013724
 20
-0.8368973691804948
 30
0.0
 10
221.8081449453133
 20
-0.8373048955378354
 30
0.0
 10
221.9929305792037
 20
-0.8475455260036485
 30
0.0
 10
222.3821837759837
 20
-0.9551968490225173
 30
0.0
 10
222.9568987199603
 20
-1.277825096885184
 30
0.0
 10
223.5402359240367
 20
-1.919021884463086
 30
0.0
 10
223.8278248128948
 20
-2.664912583691247
 30
0.0
 10
223.8273012944117
 20
-2.973614592941674
 30
0.0
 10
223.8271462600334
 20
-3.065033378776671
 30
0.0
  0
SPLINE
  5
BB
330
1B
100
AcDbEntity
 67
     1
  8
0
  6
Continuous
 62
     7
370
    25
100
AcDbSpline
210
0.0
220
0.0
230
1.0
 70
     8
 71
     3
 72
    15
 73
    11
 74
     0
 42
0.000000001
 43
0.00000001
 40
0.0
 40
0.0
 40
0.0
 40
0.0
 40
0.0006754191803004
 40
0.0935422113562993
 40
0.1882983832251915
 40
0.3475023476720059
 40
0.5045154857585973
 40
0.658519821660254
 40
0.8226336626755615
 40
1.0
 40
1.0
 40
1.0
 40
1.0
 10
-223.8370790822016
 20
-2.938117530487415
 30
0.0
 10
-223.8370653915377
 20
-2.937404029539743
 30
0.0
 10
-223.8351693023871
 20
-2.838587682008689
 30
0.0
 10
-223.7968175194574
 20
-2.662649750141098
 30
0.0
 10
-223.5764195970111
 20
-2.007635229934905
 30
0.0
 10
-223.1071922738046
 20
-1.405664888770336
 30
0.0
 10
-222.505258532181
 20
-1.005195058509045
 30
0.0
 10
-222.070861855648
 20
-0.8636033296376202
 30
0.0
 10
-221.8297162323562
 20
-0.8350845915165855
 30
0.0
 10
-221.8136759568521
 20
-0.836996596448182
 30
0.0
 10
-221.8053445657603
 20
-0.8379897003914714
 30
0.0
  0
SPLINE
  5
D1
330
1B
100
AcDbEntity
 67
     1
  8
0
  6
Continuous
 62
     7
370
    25
100
AcDbSpline
210
0.0
220
0.0
230
1.0
 70
     8
 71
     3
 72
   106
 73
   102
 74
     0
 42
0.000000001
 43
0.00000001
 40
0.0
 40
0.0
 40
0.0
 40
0.0
 40
0.0312499999999996
 40
0.0312499999999996
 40
0.0390624999999995
 40
0.0390624999999995
 40
0.0468749999999994
 40
0.0468749999999994
 40
0.0624999999999992
 40
0.0624999999999992
 40
0.0937499999999989
 40
0.0937499999999989
 40
0.1093749999999988
 40
0.1093749999999988
 40
0.1171874999999988
 40
0.1171874999999988
 40
0.1249999999999988
 40
0.1249999999999988
 40
0.1562499999999984
 40
0.1562499999999984
 40
0.187499999999998
 40
0.187499999999998
 40
0.195312499999998
 40
0.195312499999998
 40
0.203124999999998
 40
0.203124999999998
 40
0.2187499999999979
 40
0.2187499999999979
 40
0.2499999999999976
 40
0.2499999999999976
 40
0.2578124999999976
 40
0.2578124999999976
 40
0.2617187499999977
 40
0.2617187499999977
 40
0.2636718749999977
 40
0.2636718749999977
 40
0.2656249999999978
 40
0.2656249999999978
 40
0.2812499999999979
 40
0.2812499999999979
 40
0.3124999999999984
 40
0.3124999999999984
 40
0.3749999999999991
 40
0.3749999999999991
 40
0.4374999999999998
 40
0.4374999999999998
 40
0.4531250000000001
 40
0.4531250000000001
 40
0.4687500000000002
 40
0.4687500000000002
 40
0.5000000000000007
 40
0.5000000000000007
 40
0.5312500000000011
 40
0.5312500000000011
 40
0.5625000000000014
 40
0.5625000000000014
 40
0.5781250000000017
 40
0.5781250000000017
 40
0.5937500000000018
 40
0.5937500000000018
 40
0.6250000000000021
 40
0.6250000000000021
 40
0.6562500000000024
 40
0.6562500000000024
 40
0.6875000000000027
 40
0.6875000000000027
 40
0.718750000000003
 40
0.718750000000003
 40
0.726562500000003
 40
0.726562500000003
 40
0.730468750000003
 40
0.730468750000003
 40
0.734375000000003
 40
0.734375000000003
 40
0.7421875000000029
 40
0.7421875000000029
 40
0.7500000000000028
 40
0.7500000000000028
 40
0.7812500000000026
 40
0.7812500000000026
 40
0.8125000000000022
 40
0.8125000000000022
 40
0.8281250000000022
 40
0.8281250000000022
 40
0.8359375000000021
 40
0.8359375000000021
 40
0.843750000000002
 40
0.843750000000002
 40
0.8750000000000017
 40
0.8750000000000017
 40
0.9062500000000013
 40
0.9062500000000013
 40
0.9140625000000012
 40
0.9140625000000012
 40
0.9218750000000011
 40
0.9218750000000011
 40
0.9375000000000009
 40
0.9375000000000009
 40
0.9687500000000004
 40
0.9687500000000004
 40
1.0
 40
1.0
 40
1.0
 40
1.0
 10
284.3719689197814
 20
39.30917111402472
 30
0.0
 10
281.6744558214058
 20
39.31438581348706
 30
0.0
 10
278.619781841203
 20
39.31660441732614
 30
0.0
 10
274.3275796022477
 20
39.31648257439485
 30
0.0
 10
273.4443009611365
 20
39.31631041129764
 30
0.0
 10
271.636976217301
 20
39.31567955427874
 30
0.0
 10
270.7127148379592
 20
39.31522123551322
 30
0.0
 10
267.8782138469954
 20
39.31342815260956
 30
0.0
 10
265.9062776230869
 20
39.31170397161663
 30
0.0
 10
259.74516039058
 20
39.30499133749113
 30
0.0
 10
255.3100995498003
 20
39.29851932933396
 30
0.0
 10
248.1565541941308
 20
39.28555320459944
 30
0.0
 10
245.6879527714758
 20
39.28078962629119
 30
0.0
 10
241.8578086357811
 20
39.2728437364423
 30
0.0
 10
240.559811902424
 20
39.27005583404318
 30
0.0
 10
237.9201484075747
 20
39.26414713453057
 30
0.0
 10
236.57935792112
 20
39.26106090985132
 30
0.0
 10
229.817559787065
 20
39.24517801745308
 30
0.0
 10
224.1845167459916
 20
39.23048663418361
 30
0.0
 10
212.4924031958505
 20
39.19716484386326
 30
0.0
 10
206.4332503489452
 20
39.17837587489446
 30
0.0
 10
198.5978427869965
 20
39.15191445430878
 30
0.0
 10
197.0176315923148
 20
39.14647440883667
 30
0.0
 10
193.8309620509766
 20
39.13528605069011
 30
0.0
 10
192.223196430359
 20
39.12953299219134
 30
0.0
 10
187.3689447978834
 20
39.1118181001293
 30
0.0
 10
184.1127584796791
 20
39.09946128874869
 30
0.0
 10
174.2865556538966
 20
39.06057278243648
 30
0.0
 10
167.6593894337679
 20
39.03251177371148
 30
0.0
 10
159.2843312077619
 20
38.99349416041453
 30
0.0
 10
157.6046889605162
 20
38.98546457334223
 30
0.0
 10
155.0782049556278
 20
38.97314798815093
 30
0.0
 10
154.2348744401455
 20
38.96899726710431
 30
0.0
 10
152.9681246959181
 20
38.96271333104045
 30
0.0
 10
152.545488522808
 20
38.9607242927294
 30
0.0
 10
151.700790936208
 20
38.95949137720353
 30
0.0
 10
151.2784904251141
 20
38.95886897083128
 30
0.0
 10
147.4782166788184
 20
38.95321349934598
 30
0.0
 10
144.1032783219018
 20
38.94780198666999
 30
0.0
 10
133.9867086841919
 20
38.93040023321335
 30
0.0
 10
127.2536254466347
 20
38.91720289961273
 30
0.0
 10
107.0704735806544
 20
38.87382273847181
 30
0.0
 10
93.63035793880213
 20
38.84040061655519
 30
0.0
 10
66.69518864232042
 20
38.7788247283972
 30
0.0
 10
53.20092286251752
 20
38.75048903363739
 30
0.0
 10
36.24911163621276
 20
38.72463860189283
 30
0.0
 10
32.85282652705935
 20
38.71994441827903
 30
0.0
 10
26.05966105120731
 20
38.71170956239256
 30
0.0
 10
22.66371896250879
 20
38.7081705208336
 30
0.0
 10
12.47802843177607
 20
38.69956807163836
 30
0.0
 10
5.69043159408639
 20
38.69652761154556
 30
0.0
 10
-7.87820142226962
 20
38.69724697262969
 30
0.0
 10
-14.65927061942918
 20
38.70093866044444
 30
0.0
 10
-28.2158336187484
 20
38.7135119692696
 30
0.0
 10
-34.99133374631778
 20
38.72238517535406
 30
0.0
 10
-45.15134685096293
 20
38.73847593322495
 30
0.0
 10
-48.5383004387576
 20
38.74430727028904
 30
0.0
 10
-55.30275816145597
 20
38.75672301803852
 30
0.0
 10
-58.6812415741612
 20
38.76330886924816
 30
0.0
 10
-68.80754019888334
 20
38.78396540546875
 30
0.0
 10
-75.54617134888748
 20
38.79896270709613
 30
0.0
 10
-89.01007640983228
 20
38.82997121314686
 30
0.0
 10
-95.73546416775798
 20
38.84595891131957
 30
0.0
 10
-109.1836784601031
 20
38.87744975030155
 30
0.0
 10
-115.9061405336175
 20
38.89303482561679
 30
0.0
 10
-129.3595066877729
 20
38.92142639299331
 30
0.0
 10
-136.0908390036348
 20
38.93429439517553
 30
0.0
 10
-144.5158997868555
 20
38.94837969235811
 30
0.0
 10
-146.2014398592343
 20
38.95109949611053
 30
0.0
 10
-148.7305893977837
 20
38.95503411369398
 30
0.0
 10
-149.5737789714943
 20
38.95632149445145
 30
0.0
 10
-151.2604434941874
 20
38.95884831669314
 30
0.0
 10
-152.1039478000532
 20
38.9584122694154
 30
0.0
 10
-154.6349976903609
 20
38.97100159270749
 30
0.0
 10
-156.3188683886511
 20
38.97925070485034
 30
0.0
 10
-159.6796068874697
 20
38.99535784336381
 30
0.0
 10
-161.3578250239191
 20
39.00322180199078
 30
0.0
 10
-169.7057292596724
 20
39.04124271213998
 30
0.0
 10
-176.2592186190903
 20
39.0687022167168
 30
0.0
 10
-189.1141485655308
 20
39.11882467203204
 30
0.0
 10
-195.4157413855259
 20
39.14140688871804
 30
0.0
 10
-204.6685188319751
 20
39.17225107481729
 30
0.0
 10
-207.7194731080597
 20
39.1819814288401
 30
0.0
 10
-212.2438385971165
 20
39.19590019576472
 30
0.0
 10
-213.7399549895125
 20
39.20042600011882
 30
0.0
 10
-216.6949393903127
 20
39.20913685735028
 30
0.0
 10
-218.15586989401
 20
39.21333471250497
 30
0.0
 10
-225.3785369321072
 20
39.23365670228498
 30
0.0
 10
-230.8935616159486
 20
39.24782296333044
 30
0.0
 10
-241.4005052506339
 20
39.2722451431034
 30
0.0
 10
-246.3913280671632
 20
39.28248670828068
 30
0.0
 10
-252.2927262549607
 20
39.29300620906437
 30
0.0
 10
-253.4560246027175
 20
39.29497085152148
 30
0.0
 10
-255.7485476519676
 20
39.29865017458414
 30
0.0
 10
-256.8735898437317
 20
39.30035800363371
 30
0.0
 10
-260.1764012274778
 20
39.30511645794186
 30
0.0
 10
-262.2856219458936
 20
39.30781611347405
 30
0.0
 10
-268.3448419912158
 20
39.31422550893132
 30
0.0
 10
-272.0275532147752
 20
39.31649648494849
 30
0.0
 10
-278.7090843350641
 20
39.31652331809198
 30
0.0
 10
-281.7075004155573
 20
39.31432193330522
 30
0.0
 10
-284.3719689197766
 20
39.30917111402482
 30
0.0
  0
SPLINE
  5
D3
330
1B
100
AcDbEntity
 67
     1
  8
0
  6
Continuous
 62
     7
370
    25
100
AcDbSpline
210
0.0
220
0.0
230
1.0
 70
    24
 71
     3
 72
    18
 73
    14
 74
     0
 42
0.000000001
 43
0.00000001
 40
0.0
 40
0.0
 40
0.0
 40
0.0
 40
0.0925852120783487
 40
0.185270535333683
 40
0.2778508957816894
 40
0.3704377182171822
 40
0.4631214171974961
 40
0.5557017776454273
 40
0.6482886000777603
 40
0.7409722990535852
 40
0.8335526595091267
 40
0.9261394819440156
 40
1.0
 40
1.0
 40
1.0
 40
1.0
 10
75.00000000000003
 20
-15.00000000000001
 30
0.0
 10
77.18092893454772
 20
-15.00000000000001
 30
0.0
 10
81.54514501353066
 20
-15.00000000000001
 30
0.0
 10
87.97827429838452
 20
-15.00000000000001
 30
0.0
 10
94.18886976102043
 20
-15.00000000000001
 30
0.0
 10
100.0719658666957
 20
-15.00000000000001
 30
0.0
 10
105.5255798532367
 20
-15.00000000000001
 30
0.0
 10
110.4565746636296
 20
-15.00000000000001
 30
0.0
 10
114.7805828877304
 20
-15.00000000000001
 30
0.0
 10
118.4300400916707
 20
-15.00000000000001
 30
0.0
 10
121.3098094378408
 20
-15.00000000000001
 30
0.0
 10
123.3466691629111
 20
-15.00000000000001
 30
0.0
 10
124.0164861644118
 20
-15.00000000000001
 30
0.0
 10
124.3137154898408
 20
-15.00000000000001
 30
0.0
  0
SPLINE
  5
D5
330
1B
100
AcDbEntity
 67
     1
  8
0
  6
Continuous
 62
     7
370
    25
100
AcDbSpline
210
0.0
220
0.0
230
1.0
 70
    24
 71
     3
 72
    18
 73
    14
 74
     0
 42
0.000000001
 43
0.00000001
 40
0.0
 40
0.0
 40
0.0
 40
0.0
 40
0.073866968833558
 40
0.1664473331837653
 40
0.2590341595198574
 40
0.3517178624072659
 40
0.4442982267598805
 40
0.5368850530947427
 40
0.6295687559836288
 40
0.7221491203360084
 40
0.8147359466721016
 40
0.9074180254583015
 40
1.0
 40
1.0
 40
1.0
 40
1.0
 10
-124.3137417405434
 20
-15.00000000000001
 30
0.0
 10
-124.0164627786784
 20
-15.00000000000001
 30
0.0
 10
-123.3465924537493
 20
-15.00000000000001
 30
0.0
 10
-121.3096945936328
 20
-15.00000000000001
 30
0.0
 10
-118.4299210546295
 20
-15.00000000000001
 30
0.0
 10
-114.7803648016087
 20
-15.00000000000001
 30
0.0
 10
-110.4563610629543
 20
-15.00000000000001
 30
0.0
 10
-105.525360875811
 20
-15.00000000000001
 30
0.0
 10
-100.0716804558701
 20
-15.00000000000001
 30
0.0
 10
-94.18859047481206
 20
-15.00000000000001
 30
0.0
 10
-87.97806188318654
 20
-15.00000000000001
 30
0.0
 10
-81.54490995694462
 20
-15.00000000000001
 30
0.0
 10
-77.18085063751907
 20
-15.00000000000001
 30
0.0
 10
-75.0
 20
-15.00000000000001
 30
0.0
  0
SPLINE
  5
D6
330
1B
100
AcDbEntity
 67
     1
  8
0
  6
Continuous
 62
     7
370
    25
100
AcDbSpline
210
0.0
220
0.0
230
1.0
 70
     8
 71
     3
 72
    22
 73
    18
 74
     0
 42
0.000000001
 43
0.00000001
 40
0.0
 40
0.0
 40
0.0
 40
0.0
 40
0.2500000000000013
 40
0.2500000000000013
 40
0.3750000000000017
 40
0.3750000000000017
 40
0.4375000000000015
 40
0.4375000000000015
 40
0.4687500000000017
 40
0.4687500000000017
 40
0.5000000000000019
 40
0.5000000000000019
 40
0.6250000000000016
 40
0.6250000000000016
 40
0.7500000000000011
 40
0.7500000000000011
 40
1.0
 40
1.0
 40
1.0
 40
1.0
 10
-232.6877473017776
 20
7.190565068432638
 30
0.0
 10
-232.4365394843556
 20
6.632727110982277
 30
0.0
 10
-232.1041894889676
 20
6.077412823069076
 30
0.0
 10
-231.5456818634862
 20
5.246788948292641
 30
0.0
 10
-231.3487257032159
 20
4.970361840136235
 30
0.0
 10
-231.064447397504
 20
4.555891629320852
 30
0.0
 10
-230.967585206401
 20
4.416524892053551
 30
0.0
 10
-230.8391077827031
 20
4.207214596216788
 30
0.0
 10
-230.7977192349363
 20
4.136972054796913
 30
0.0
 10
-230.704397518097
 20
3.996642241847353
 30
0.0
 10
-230.6545046095285
 20
3.926557982466036
 30
0.0
 10
-230.3887474424365
 20
3.576542321897795
 30
0.0
 10
-230.1233398789753
 20
3.297535751121294
 30
0.0
 10
-229.4927928083069
 20
2.747415877990877
 30
0.0
 10
-229.1273087023876
 20
2.475659475628881
 30
0.0
 10
-227.8856352783992
 20
1.669978148281362
 30
0.0
 10
-226.8640574157651
 20
1.145617086045311
 30
0.0
 10
-225.6650348406163
 20
0.6330572393058245
 30
0.0
  0
SPLINE
  5
D7
330
1B
100
AcDbEntity
 67
     1
  8
0
  6
Continuous
 62
     7
370
    25
100
AcDbSpline
210
0.0
220
0.0
230
1.0
 70
     8
 71
     3
 72
    22
 73
    18
 74
     0
 42
0.000000001
 43
0.00000001
 40
0.0
 40
0.0
 40
0.0
 40
0.0
 40
0.0624999999999977
 40
0.0624999999999977
 40
0.1249999999999954
 40
0.1249999999999954
 40
0.1874999999999932
 40
0.1874999999999932
 40
0.2499999999999909
 40
0.2499999999999909
 40
0.3749999999999925
 40
0.3749999999999925
 40
0.4999999999999941
 40
0.4999999999999941
 40
0.7499999999999971
 40
0.7499999999999971
 40
1.0
 40
1.0
 40
1.0
 40
1.0
 10
-232.6877473017776
 20
7.190565068432638
 30
0.0
 10
-232.7063093019686
 20
7.231784280394518
 30
0.0
 10
-232.7550837936343
 20
7.28244830973528
 30
0.0
 10
-232.8967558465796
 20
7.395135319274972
 30
0.0
 10
-232.99099011411
 20
7.458282306245855
 30
0.0
 10
-233.2057196407708
 20
7.589498961539352
 30
0.0
 10
-233.3264311186892
 20
7.657890169782435
 30
0.0
 10
-233.5868944147007
 20
7.798888196800815
 30
0.0
 10
-233.7273204522005
 20
7.871799394343744
 30
0.0
 10
-234.1638136799492
 20
8.0923112023168
 30
0.0
 10
-234.4760986029988
 20
8.24248927560335
 30
0.0
 10
-235.1264030210232
 20
8.547810631652382
 30
0.0
 10
-235.4595465879053
 20
8.700565652385785
 30
0.0
 10
-236.4733775879849
 20
9.159610572595504
 30
0.0
 10
-237.1688368219559
 20
9.467018561026205
 30
0.0
 10
-238.5823505311554
 20
10.08695666912147
 30
0.0
 10
-239.3008263743026
 20
10.39942467658495
 30
0.0
 10
-240.0280037129343
 20
10.71482305805534
 30
0.0
  0
SPLINE
  5
D8
330
1B
100
AcDbEntity
 67
     1
  8
0
  6
Continuous
 62
     7
370
    25
100
AcDbSpline
210
0.0
220
0.0
230
1.0
 70
     8
 71
     3
 72
    16
 73
    12
 74
     0
 42
0.000000001
 43
0.00000001
 40
0.0
 40
0.0
 40
0.0
 40
0.0
 40
0.2499999999999991
 40
0.2499999999999991
 40
0.4999999999999982
 40
0.4999999999999982
 40
0.6249999999999977
 40
0.6249999999999977
 40
0.7499999999999971
 40
0.7499999999999971
 40
1.0
 40
1.0
 40
1.0
 40
1.0
 10
-283.5343834212408
 20
38.08940991690679
 30
0.0
 10
-280.3147386023924
 20
35.30570526510473
 30
0.0
 10
-276.9820288223708
 20
32.63320868796664
 30
0.0
 10
-270.1189470092152
 20
27.54132505084163
 30
0.0
 10
-266.58564495472
 20
25.1191304099506
 30
0.0
 10
-261.1286574450141
 20
21.67658866987101
 30
0.0
 10
-259.2818904057781
 20
20.56004398348225
 30
0.0
 10
-255.5474284456241
 20
18.39890549165696
 30
0.0
 10
-253.6588232256078
 20
17.35365815999212
 30
0.0
 10
-247.9284473709619
 20
14.32453883113319
 30
0.0
 10
-244.022165930099
 20
12.44720968742203
 30
0.0
 10
-240.0280037129344
 20
10.71482305805532
 30
0.0
  0
SPLINE
  5
D9
330
1B
100
AcDbEntity
 67
     1
  8
0
  6
Continuous
 62
     7
370
    25
100
AcDbSpline
210
0.0
220
0.0
230
1.0
 70
     8
 71
     3
 72
    18
 73
    14
 74
     0
 42
0.000000001
 43
0.00000001
 40
0.0
 40
0.0
 40
0.0
 40
0.0
 40
0.1249999999999983
 40
0.1249999999999983
 40
0.2499999999999966
 40
0.2499999999999966
 40
0.3749999999999948
 40
0.3749999999999948
 40
0.4999999999999931
 40
0.4999999999999931
 40
0.7499999999999966
 40
0.7499999999999966
 40
1.0
 40
1.0
 40
1.0
 40
1.0
 10
-284.3719689197762
 20
39.30917111402469
 30
0.0
 10
-284.4157957845595
 20
39.30908639008831
 30
0.0
 10
-284.4499614484228
 20
39.30106534928355
 30
0.0
 10
-284.4956056093864
 20
39.2663445912793
 30
0.0
 10
-284.5064384174003
 20
39.23941541372221
 30
0.0
 10
-284.5018611188777
 20
39.16851082388213
 30
0.0
 10
-284.4862721539146
 20
39.12350968348302
 30
0.0
 10
-284.4324372290396
 20
39.02169557282795
 30
0.0
 10
-284.3938321146338
 20
38.96388777119754
 30
0.0
 10
-284.2538808675559
 20
38.78070697968466
 30
0.0
 10
-284.1282555843166
 20
38.64455329293731
 30
0.0
 10
-283.8495776359898
 20
38.36913049320174
 30
0.0
 10
-283.6967480201426
 20
38.22979033607766
 30
0.0
 10
-283.5343834212408
 20
38.08940991690691
 30
0.0
  0
SPLINE
  5
DA
330
1B
100
AcDbEntity
 67
     1
  8
0
  6
Continuous
 62
     7
370
    25
100
AcDbSpline
210
0.0
220
0.0
230
1.0
 70
     8
 71
     3
 72
    16
 73
    12
 74
     0
 42
0.000000001
 43
0.00000001
 40
0.0
 40
0.0
 40
0.0
 40
0.0
 40
0.2500000000000015
 40
0.2500000000000015
 40
0.500000000000003
 40
0.500000000000003
 40
0.6250000000000017
 40
0.6250000000000017
 40
0.7500000000000002
 40
0.7500000000000002
 40
1.0
 40
1.0
 40
1.0
 40
1.0
 10
283.5343834212453
 20
38.0894099169067
 30
0.0
 10
283.6966658116333
 20
38.22971925860298
 30
0.0
 10
283.8489653011159
 20
38.36861038137646
 30
0.0
 10
284.1259094975009
 20
38.64215044394408
 30
0.0
 10
284.2527691802393
 20
38.7794336123133
 30
0.0
 10
284.3930540067184
 20
38.96277975046853
 30
0.0
 10
284.4319476340041
 20
39.02094275503806
 30
0.0
 10
284.4858267778831
 20
39.12249724374787
 30
0.0
 10
284.5015354065634
 20
39.16687568264895
 30
0.0
 10
284.5091892451681
 20
39.27533716602001
 30
0.0
 10
284.4598949305831
 20
39.30900113979148
 30
0.0
 10
284.3719689197816
 20
39.30917111402498
 30
0.0
  0
SPLINE
  5
DB
330
1B
100
AcDbEntity
 67
     1
  8
0
  6
Continuous
 62
     7
370
    25
100
AcDbSpline
210
0.0
220
0.0
230
1.0
 70
     8
 71
     3
 72
    16
 73
    12
 74
     0
 42
0.000000001
 43
0.00000001
 40
0.0
 40
0.0
 40
0.0
 40
0.0
 40
0.2499999999999987
 40
0.2499999999999987
 40
0.4999999999999973
 40
0.4999999999999973
 40
0.624999999999998
 40
0.624999999999998
 40
0.7499999999999987
 40
0.7499999999999987
 40
1.0
 40
1.0
 40
1.0
 40
1.0
 10
240.0280037129387
 20
10.71482305805534
 30
0.0
 10
244.0220633492913
 20
12.44716519508101
 30
0.0
 10
247.9392360849303
 20
14.3298836451106
 30
0.0
 10
255.5800578052572
 20
18.36959626734168
 30
0.0
 10
259.3082366491282
 20
20.52823399780002
 30
0.0
 10
264.7649007516465
 20
23.9704844702849
 30
0.0
 10
266.5625588059643
 20
25.15298609620734
 30
0.0
 10
270.1015473758134
 20
27.57792744049357
 30
0.0
 10
271.8438535359452
 20
28.82090158193252
 30
0.0
 10
276.9905498752809
 20
32.63987730821756
 30
0.0
 10
280.3148419708543
 20
35.30579463746472
 30
0.0
 10
283.5343834212453
 20
38.08940991690681
 30
0.0
  0
SPLINE
  5
DC
330
1B
100
AcDbEntity
 67
     1
  8
0
  6
Continuous
 62
     7
370
    25
100
AcDbSpline
210
0.0
220
0.0
230
1.0
 70
     8
 71
     3
 72
    22
 73
    18
 74
     0
 42
0.000000001
 43
0.00000001
 40
0.0
 40
0.0
 40
0.0
 40
0.0
 40
0.2500000000000031
 40
0.2500000000000031
 40
0.5000000000000061
 40
0.5000000000000061
 40
0.625000000000004
 40
0.625000000000004
 40
0.7500000000000018
 40
0.7500000000000018
 40
0.8125000000000013
 40
0.8125000000000013
 40
0.8750000000000009
 40
0.8750000000000009
 40
0.9375000000000004
 40
0.9375000000000004
 40
1.0
 40
1.0
 40
1.0
 40
1.0
 10
240.0280037129387
 20
10.71482305805534
 30
0.0
 10
239.3005581408084
 20
10.39930833576022
 30
0.0
 10
238.5809741222536
 20
10.08636214995005
 30
0.0
 10
237.1632690412946
 20
9.464567456250467
 30
0.0
 10
236.4647316430277
 20
9.155799056229812
 30
0.0
 10
235.4443357891405
 20
8.693625366887233
 30
0.0
 10
235.11028125267
 20
8.540341925301897
 30
0.0
 10
234.4656201458783
 20
8.237464807354794
 30
0.0
 10
234.1524769685158
 20
8.086723575860647
 30
0.0
 10
233.7211721016366
 20
7.868620628950433
 30
0.0
 10
233.5835976708933
 20
7.797138799970307
 30
0.0
 10
233.325234342408
 20
7.657206446747174
 30
0.0
 10
233.2035410673305
 20
7.588243704267445
 30
0.0
 10
232.9886608977971
 20
7.456781339397381
 30
0.0
 10
232.8965935552139
 20
7.395036464910132
 30
0.0
 10
232.7546940267751
 20
7.282107935061091
 30
0.0
 10
232.7062527443808
 20
7.231658687283795
 30
0.0
 10
232.6877473017811
 20
7.1905650684327
 30
0.0
  0
SPLINE
  5
DD
330
1B
100
AcDbEntity
 67
     1
  8
0
  6
Continuous
 62
     7
370
    25
100
AcDbSpline
210
0.0
220
0.0
230
1.0
 70
     8
 71
     3
 72
    24
 73
    20
 74
     0
 42
0.000000001
 43
0.00000001
 40
0.0
 40
0.0
 40
0.0
 40
0.0
 40
0.1249999999999996
 40
0.1249999999999996
 40
0.2499999999999991
 40
0.2499999999999991
 40
0.3749999999999987
 40
0.3749999999999987
 40
0.4999999999999982
 40
0.4999999999999982
 40
0.5312499999999983
 40
0.5312499999999983
 40
0.5624999999999984
 40
0.5624999999999984
 40
0.6249999999999987
 40
0.6249999999999987
 40
0.749999999999999
 40
0.749999999999999
 40
1.0
 40
1.0
 40
1.0
 40
1.0
 10
225.6650348406164
 20
0.6330572393059286
 30
0.0
 10
226.2641378085387
 20
0.8891626136199315
 30
0.0
 10
226.8218950254951
 20
1.149518510638894
 30
0.0
 10
227.8419217168938
 20
1.675667648196016
 30
0.0
 10
228.304751069409
 20
1.9416314900913
 30
0.0
 10
229.1328089722504
 20
2.47952949861538
 30
0.0
 10
229.4979620960096
 20
2.75147134204868
 30
0.0
 10
230.1273673919191
 20
3.301510706602596
 30
0.0
 10
230.3919390165856
 20
3.580187485095323
 30
0.0
 10
230.6569075384873
 20
3.929866573823372
 30
0.0
 10
230.7066495213232
 20
3.99988321055671
 30
0.0
 10
230.7996830026892
 20
4.140077164019988
 30
0.0
 10
230.8408929596155
 20
4.210231321051031
 30
0.0
 10
230.9694418737217
 20
4.419325908174621
 30
0.0
 10
231.0662322858613
 20
4.558529957538145
 30
0.0
 10
231.3503006547627
 20
4.972585072008626
 30
0.0
 10
231.5470300728846
 20
5.248737790136716
 30
0.0
 10
232.1048668583273
 20
6.078533217166511
 30
0.0
 10
232.4367937104278
 20
6.633291651339627
 30
0.0
 10
232.6877473017811
 20
7.190565068432672
 30
0.0
  0
SPLINE
  5
DF
330
1B
100
AcDbEntity
 67
     1
  8
0
  6
Continuous
 62
     7
370
    25
100
AcDbSpline
210
0.0
220
0.0
230
1.0
 70
     8
 71
     3
 72
    10
 73
     6
 74
     0
 42
0.000000001
 43
0.00000001
 40
0.0
 40
0.0
 40
0.0
 40
0.0
 40
0.5
 40
0.5
 40
1.0
 40
1.0
 40
1.0
 40
1.0
 10
285.2824317569306
 20
36.90963143230793
 30
0.0
 10
278.7001161342159
 20
31.22186597365603
 30
0.0
 10
271.7342118085356
 20
26.05477838587419
 30
0.0
 10
257.0250070546303
 20
16.77582966605872
 30
0.0
 10
249.2813688098606
 20
12.66442708141699
 30
0.0
 10
241.1197665374033
 20
9.120362946406724
 30
0.0
  0
SPLINE
  5
E1
330
1B
100
AcDbEntity
 67
     1
  8
0
  6
Continuous
 62
     7
370
    25
100
AcDbSpline
210
0.0
220
0.0
230
1.0
 70
     8
 71
     3
 72
    10
 73
     6
 74
     0
 42
0.000000001
 43
0.00000001
 40
0.0
 40
0.0
 40
0.0
 40
0.0
 40
0.5
 40
0.5
 40
1.0
 40
1.0
 40
1.0
 40
1.0
 10
-241.119766537399
 20
9.120362946406772
 30
0.0
 10
-249.2813688098562
 20
12.66442708141723
 30
0.0
 10
-257.0250070546258
 20
16.77582966605904
 30
0.0
 10
-271.7342118085308
 20
26.05477838587463
 30
0.0
 10
-278.7001161342112
 20
31.22186597365635
 30
0.0
 10
-285.282431756926
 20
36.90963143230803
 30
0.0
  0
SPLINE
  5
E5
330
1B
100
AcDbEntity
 67
     1
  8
0
  6
Continuous
 62
     7
370
    25
100
AcDbSpline
210
0.0
220
0.0
230
1.0
 70
     8
 71
     3
 72
    20
 73
    16
 74
     0
 42
0.000000001
 43
0.00000001
 40
0.0
 40
0.0
 40
0.0
 40
0.0
 40
0.249999999999992
 40
0.249999999999992
 40
0.3749999999999933
 40
0.3749999999999933
 40
0.4999999999999947
 40
0.4999999999999947
 40
0.624999999999996
 40
0.624999999999996
 40
0.7499999999999973
 40
0.7499999999999973
 40
0.8749999999999987
 40
0.8749999999999987
 40
1.0
 40
1.0
 40
1.0
 40
1.0
 10
-285.2824317569259
 20
36.90963143230794
 30
0.0
 10
-285.4814903241945
 20
37.33964668379949
 30
0.0
 10
-285.6562401361436
 20
37.74398865996955
 30
0.0
 10
-285.878668507343
 20
38.30777751465483
 30
0.0
 10
-285.9458307314048
 20
38.48800530710226
 30
0.0
 10
-286.0616177619011
 20
38.82158420265813
 30
0.0
 10
-286.1108897123398
 20
38.9765622086916
 30
0.0
 10
-286.1907508484047
 20
39.26031258736089
 30
0.0
 10
-286.2206081785396
 20
39.38645663665285
 30
0.0
 10
-286.2598507751223
 20
39.6066755830733
 30
0.0
 10
-286.2690077203749
 20
39.70008247503242
 30
0.0
 10
-286.2660527447892
 20
39.84943883319951
 30
0.0
 10
-286.2538826711466
 20
39.90628387940047
 30
0.0
 10
-286.2089267563464
 20
39.98137787260053
 30
0.0
 10
-286.1763165784726
 20
40.00000000000001
 30
0.0
 10
-286.1337142795671
 20
40.00000000000001
 30
0.0
  0
LWPOLYLINE
  5
E7
330
1B
100
AcDbEntity
 67
     1
  8
0
  6
Continuous
 62
     7
370
    25
100
AcDbPolyline
 90
        9
 70
   128
 43
0.0
 10
-290.0
 20
36.9096314323
 10
-290.9754516101
 20
36.8729383998
 10
-291.9134171618
 20
36.7642693949
 10
-292.7778511651
 20
36.5878005067
 10
-293.5355339059
 20
36.3503133354
 10
-294.1573480615
 20
36.0609343798
 10
-294.6193976626
 20
35.7307843111
 10
-294.903926402
 20
35.3725506111
 10
-295.0
 20
35.0
  0
SPLINE
  5
E9
330
1B
100
AcDbEntity
 67
     1
  8
0
  6
Continuous
 62
     7
370
    25
100
AcDbSpline
210
0.0
220
0.0
230
1.0
 70
     8
 71
     3
 72
    18
 73
    14
 74
     0
 42
0.000000001
 43
0.00000001
 40
0.0
 40
0.0
 40
0.0
 40
0.0
 40
0.2500000000000029
 40
0.2500000000000029
 40
0.3750000000000046
 40
0.3750000000000046
 40
0.5000000000000061
 40
0.5000000000000061
 40
0.6250000000000077
 40
0.6250000000000077
 40
0.7500000000000093
 40
0.7500000000000093
 40
1.0
 40
1.0
 40
1.0
 40
1.0
 10
286.1337142795722
 20
40.00000000000001
 30
0.0
 10
286.2190547778607
 20
40.00000000000001
 30
0.0
 10
286.2647687815272
 20
39.92413820170977
 30
0.0
 10
286.2689395390654
 20
39.69857839001689
 30
0.0
 10
286.2595748843771
 20
39.60470447075153
 30
0.0
 10
286.2202776477967
 20
39.38503126856847
 30
0.0
 10
286.190150136633
 20
39.2579565223417
 30
0.0
 10
286.1101597949951
 20
38.97419420994849
 30
0.0
 10
286.0607710328126
 20
38.81894651825512
 30
0.0
 10
285.944027830503
 20
38.48301404585462
 30
0.0
 10
285.8766704969299
 20
38.30258159341913
 30
0.0
 10
285.6556951834725
 20
37.74287460440916
 30
0.0
 10
285.4816614255433
 20
37.34001630460232
 30
0.0
 10
285.2824317569306
 20
36.90963143230793
 30
0.0
  0
LWPOLYLINE
  5
EB
330
1B
100
AcDbEntity
 67
     1
  8
0
  6
Continuous
 62
     7
370
    25
100
AcDbPolyline
 90
        9
 70
   128
 43
0.0
 10
295.0
 20
35.0
 10
294.903926402
 20
35.3725506111
 10
294.6193976626
 20
35.7307843111
 10
294.1573480615
 20
36.0609343798
 10
293.5355339059
 20
36.3503133354
 10
292.7778511651
 20
36.5878005067
 10
291.9134171618
 20
36.7642693949
 10
290.9754516101
 20
36.8729383998
 10
290.0
 20
36.9096314323
  0
LWPOLYLINE
  5
F2
330
1B
100
AcDbEntity
 67
     1
  8
0
  6
Continuous
 62
     7
370
    25
100
AcDbPolyline
 90
        9
 70
   128
 43
0.0
 10
-295.0
 20
12.0080680923
 10
-294.903926402
 20
11.4447047655
 10
-294.6193976626
 20
10.9029911754
 10
-294.1573480615
 20
10.4037450715
 10
-293.5355339059
 20
9.9661522016
 10
-292.7778511651
 20
9.6070290142
 10
-291.9134171618
 20
9.3401764121
 10
-290.9754516101
 20
9.1758493911
 10
-290.0
 20
9.1203629464
  0
LWPOLYLINE
  5
F5
330
1B
100
AcDbEntity
 67
     1
  8
0
  6
Continuous
 62
     7
370
    25
100
AcDbPolyline
 90
        9
 70
   128
 43
0.0
 10
290.0
 20
9.1203629464
 10
290.9754516101
 20
9.1758493911
 10
291.9134171618
 20
9.3401764121
 10
292.7778511651
 20
9.6070290142
 10
293.5355339059
 20
9.9661522016
 10
294.1573480615
 20
10.4037450715
 10
294.6193976626
 20
10.9029911754
 10
294.903926402
 20
11.4447047655
 10
295.0
 20
12.0080680923
  0
SPLINE
  5
F6
330
1B
100
AcDbEntity
 67
     1
  8
0
  6
Continuous
 62
     7
370
    25
100
AcDbSpline
210
0.0
220
0.0
230
1.0
 70
     8
 71
     3
 72
    22
 73
    18
 74
     0
 42
0.000000001
 43
0.00000001
 40
0.0
 40
0.0
 40
0.0
 40
0.0
 40
0.2500000000000001
 40
0.2500000000000001
 40
0.5000000000000002
 40
0.5000000000000002
 40
0.6250000000000002
 40
0.6250000000000002
 40
0.7500000000000003
 40
0.7500000000000003
 40
0.8750000000000006
 40
0.8750000000000006
 40
0.9375000000000011
 40
0.9375000000000011
 40
0.9687500000000006
 40
0.9687500000000006
 40
1.0
 40
1.0
 40
1.0
 40
1.0
 10
-241.119766537399
 20
9.120362946406761
 30
0.0
 10
-240.45598010661
 20
8.976242857964996
 30
0.0
 10
-239.7942849464818
 20
8.832246194886443
 30
0.0
 10
-238.4766174908123
 20
8.543522876326394
 30
0.0
 10
-237.8205453887082
 20
8.398865883629265
 30
0.0
 10
-236.8436055643845
 20
8.17941105574034
 30
0.0
 10
-236.5191701663125
 20
8.105836603745281
 30
0.0
 10
-235.8740092343746
 20
7.956957247042182
 30
0.0
 10
-235.5528061930963
 20
7.881598854261325
 30
0.0
 10
-234.9240375511225
 20
7.728728897233788
 30
0.0
 10
-234.6126142216055
 20
7.65068529448806
 30
0.0
 10
-234.1807862475301
 20
7.530843136565966
 30
0.0
 10
-234.0416684626812
 20
7.490214728811579
 30
0.0
 10
-233.8570183754157
 20
7.427987178153399
 30
0.0
 10
-233.8006011426926
 20
7.407368688904806
 30
0.0
 10
-233.706256598864
 20
7.366500810956057
 30
0.0
 10
-233.6697281289499
 20
7.346680638946148
 30
0.0
 10
-233.6532532329783
 20
7.329280931281934
 30
0.0
  0
SPLINE
  5
F8
330
1B
100
AcDbEntity
 67
     1
  8
0
  6
Continuous
 62
     7
370
    25
100
AcDbSpline
210
0.0
220
0.0
230
1.0
 70
     8
 71
     3
 72
    22
 73
    18
 74
     0
 42
0.000000001
 43
0.00000001
 40
0.0
 40
0.0
 40
0.0
 40
0.0
 40
0.0312500000000042
 40
0.0312500000000042
 40
0.0625000000000084
 40
0.0625000000000084
 40
0.1250000000000079
 40
0.1250000000000079
 40
0.2500000000000067
 40
0.2500000000000067
 40
0.3750000000000056
 40
0.3750000000000056
 40
0.5000000000000043
 40
0.5000000000000043
 40
0.7500000000000022
 40
0.7500000000000022
 40
1.0
 40
1.0
 40
1.0
 40
1.0
 10
233.6532532329818
 20
7.32928093128193
 30
0.0
 10
233.6698919370357
 20
7.346853642329624
 30
0.0
 10
233.7057403819519
 20
7.366258533127098
 30
0.0
 10
233.8004601654752
 20
7.407326156452037
 30
0.0
 10
233.8565801872766
 20
7.427815625524737
 30
0.0
 10
234.0386536562114
 20
7.489245738941552
 30
0.0
 10
234.1794210579633
 20
7.530451653307416
 30
0.0
 10
234.6118611481347
 20
7.650501371371309
 30
0.0
 10
234.9194286271589
 20
7.727579007069139
 30
0.0
 10
235.5478636491736
 20
7.88042609274453
 30
0.0
 10
235.8678785521902
 20
7.955525054113021
 30
0.0
 10
236.5128020052094
 20
8.10438418962315
 30
0.0
 10
236.838344528618
 20
8.17822235512794
 30
0.0
 10
237.8173719758761
 20
8.398166656947456
 30
0.0
 10
238.4744325922112
 20
8.543042582865853
 30
0.0
 10
239.7935602917593
 20
8.83208895239291
 30
0.0
 10
240.455720842826
 20
8.976186567088353
 30
0.0
 10
241.1197665374033
 20
9.120362946406752
 30
0.0
  0
SPLINE
  5
100
330
1B
100
AcDbEntity
 67
     1
  8
0
  6
Continuous
 62
     7
370
    25
100
AcDbSpline
210
0.0
220
0.0
230
1.0
 70
     8
 71
     3
 72
    24
 73
    20
 74
     0
 42
0.000000001
 43
0.00000001
 40
0.0
 40
0.0
 40
0.0
 40
0.0
 40
0.2499999999999997
 40
0.2499999999999997
 40
0.3749999999999995
 40
0.3749999999999995
 40
0.4374999999999994
 40
0.4374999999999994
 40
0.4687499999999998
 40
0.4687499999999998
 40
0.5000000000000001
 40
0.5000000000000001
 40
0.6250000000000001
 40
0.6250000000000001
 40
0.75
 40
0.75
 40
0.875
 40
0.875
 40
1.0
 40
1.0
 40
1.0
 40
1.0
 10
233.6532532329818
 20
7.32928093128193
 30
0.0
 10
233.384584858178
 20
6.761780998260421
 30
0.0
 10
233.0324686119084
 20
6.196587793549459
 30
0.0
 10
232.4404249681973
 20
5.350563508606382
 30
0.0
 10
232.2315065939798
 20
5.068875253823323
 30
0.0
 10
231.9280873212942
 20
4.646067597205723
 30
0.0
 10
231.8293921370176
 20
4.505064136948254
 30
0.0
 10
231.6982497022361
 20
4.293091774711891
 30
0.0
 10
231.6563284903826
 20
4.222384759039629
 30
0.0
 10
231.5623452568116
 20
4.081251047525901
 30
0.0
 10
231.5121342628726
 20
4.010773184193812
 30
0.0
 10
231.2448628702607
 20
3.658832133992096
 30
0.0
 10
230.9786735361229
 20
3.378565450313259
 30
0.0
 10
230.3463294444048
 20
2.825422483763842
 30
0.0
 10
229.9798460101368
 20
2.551981150792103
 30
0.0
 10
229.1492638930513
 20
2.011171670452922
 30
0.0
 10
228.685245573695
 20
1.743798523229194
 30
0.0
 10
227.6628655947895
 20
1.21492185083405
 30
0.0
 10
227.1039516714926
 20
0.9532515055031693
 30
0.0
 10
226.5035402622772
 20
0.6958496933690411
 30
0.0
  0
SPLINE
  5
102
330
1B
100
AcDbEntity
 67
     1
  8
0
  6
Continuous
 62
     7
370
    25
100
AcDbSpline
210
0.0
220
0.0
230
1.0
 70
     8
 71
     3
 72
    22
 73
    18
 74
     0
 42
0.000000001
 43
0.00000001
 40
0.0
 40
0.0
 40
0.0
 40
0.0
 40
0.2500000000000013
 40
0.2500000000000013
 40
0.375000000000002
 40
0.375000000000002
 40
0.5000000000000027
 40
0.5000000000000027
 40
0.5312500000000024
 40
0.5312500000000024
 40
0.5625000000000023
 40
0.5625000000000023
 40
0.6250000000000022
 40
0.6250000000000022
 40
0.7500000000000016
 40
0.7500000000000016
 40
1.0
 40
1.0
 40
1.0
 40
1.0
 10
-226.5035402622771
 20
0.6958496933689649
 30
0.0
 10
-227.7051926684467
 20
1.211008969418573
 30
0.0
 10
-228.7289336796743
 20
1.738081652487837
 30
0.0
 10
-229.9743713972676
 20
2.548121464973629
 30
0.0
 10
-230.3411736087716
 20
2.821371954575963
 30
0.0
 10
-230.974633873343
 20
3.374578845565836
 30
0.0
 10
-231.2416523379034
 20
3.655168989562897
 30
0.0
 10
-231.5097127014786
 20
4.007447596093596
 30
0.0
 10
-231.5600747288113
 20
4.077993282747064
 30
0.0
 10
-231.6543464994764
 20
4.219263263397218
 30
0.0
 10
-231.6964335446996
 20
4.290038011971934
 30
0.0
 10
-231.8274965653149
 20
4.50222933547631
 30
0.0
 10
-231.9261807548433
 20
4.643377174818067
 30
0.0
 10
-232.2298335304803
 20
5.06661030954484
 30
0.0
 10
-232.4389962121266
 20
5.348579507085917
 30
0.0
 10
-233.0317517267335
 20
6.195448539869905
 30
0.0
 10
-233.384313283715
 20
6.761207359893894
 30
0.0
 10
-233.6532532329783
 20
7.329280931281938
 30
0.0
  0
SPLINE
  5
104
330
1B
100
AcDbEntity
 67
     1
  8
0
  6
Continuous
 62
     7
370
    25
100
AcDbSpline
210
0.0
220
0.0
230
1.0
 70
     8
 71
     3
 72
    30
 73
    26
 74
     0
 42
0.000000001
 43
0.00000001
 40
0.0
 40
0.0
 40
0.0
 40
0.0
 40
0.03381449894868
 40
0.0675312178918127
 40
0.1011544970615678
 40
0.134688712971014
 40
0.1681382770921301
 40
0.2015076344701328
 40
0.2348012622755603
 40
0.2680236682957278
 40
0.3011793893674901
 40
0.3342729897534436
 40
0.3673090594639724
 40
0.40029221252777
 40
0.4332270852136906
 40
0.4661183342070466
 40
0.4989706347436156
 40
0.6238793425041393
 40
0.7486661187765458
 40
0.8102477715696244
 40
0.8743056752450957
 40
0.9039324600324776
 40
0.937153001395129
 40
0.9628116462427063
 40
1.0
 40
1.0
 40
1.0
 40
1.0
 10
240.0000000000001
 20
-0.4116969265117731
 30
0.0
 10
240.1200696235735
 20
-0.3583853749961619
 30
0.0
 10
240.3598616702938
 20
-0.251916430801094
 30
0.0
 10
240.7078229392595
 20
-0.0914003902799873
 30
0.0
 10
241.0465024229599
 20
0.0694081888506712
 30
0.0
 10
241.3751047017043
 20
0.2305845567836112
 30
0.0
 10
241.6938419816968
 20
0.392108626932286
 30
0.0
 10
242.0026575726894
 20
0.5539857539729396
 30
0.0
 10
242.3015665567889
 20
0.7162145013641097
 30
0.0
 10
242.5905648580894
 20
0.8787952453443506
 30
0.0
 10
242.8696535126187
 20
1.041727876364383
 30
0.0
 10
243.1388322108799
 20
1.205012418604094
 30
0.0
 10
243.3981009368767
 20
1.368648843198046
 30
0.0
 10
243.6474598497462
 20
1.532637197546968
 30
0.0
 10
243.8869081266846
 20
1.696977275151563
 30
0.0
 10
244.1164486996826
 20
1.861669804831143
 30
0.0
 10
244.5412733213258
 20
2.180918632255925
 30
0.0
 10
245.1043484225308
 20
2.657714764422899
 30
0.0
 10
245.6065819679653
 20
3.188205356804474
 30
0.0
 10
245.9391369137831
 20
3.617437747800524
 30
0.0
 10
246.1117928778685
 20
3.884549566601572
 30
0.0
 10
246.2474395692252
 20
4.102999956536873
 30
0.0
 10
246.3497000689848
 20
4.255148142026675
 30
0.0
 10
246.4640683147303
 20
4.420196141361476
 30
0.0
 10
246.5399995591187
 20
4.528137813303468
 30
0.0
 10
246.5849302326628
 20
4.592009965839662
 30
0.0
  0
SPLINE
  5
113
330
1B
100
AcDbEntity
 67
     1
  8
0
  6
Continuous
 62
     7
370
    25
100
AcDbSpline
210
0.0
220
0.0
230
1.0
 70
     8
 71
     3
 72
    14
 73
    10
 74
     0
 42
0.000000001
 43
0.00000001
 40
0.0
 40
0.0
 40
0.0
 40
0.0
 40
0.1250000000000002
 40
0.1250000000000002
 40
0.2500000000000003
 40
0.2500000000000003
 40
0.5000000000000001
 40
0.5000000000000001
 40
1.0
 40
1.0
 40
1.0
 40
1.0
 10
-246.5849302326628
 20
4.592009965839646
 30
0.0
 10
-246.4328712148998
 20
4.376130964566093
 30
0.0
 10
-246.2803411058053
 20
4.160265177784186
 30
0.0
 10
-246.0160423060215
 20
3.72739021358686
 30
0.0
 10
-245.8630506666499
 20
3.511275850223844
 30
0.0
 10
-245.3280165163985
 20
2.867662644048572
 30
0.0
 10
-244.8770590343769
 20
2.444425130491208
 30
0.0
 10
-243.2494907540488
 20
1.191724319199096
 30
0.0
 10
-241.7968660511233
 20
0.3793543780604217
 30
0.0
 10
-240.0000000000001
 20
-0.4116969265117801
 30
0.0
  0
SPLINE
  5
11C
330
1B
100
AcDbEntity
 67
     1
  8
0
  6
Continuous
 62
     7
370
    25
100
AcDbSpline
210
0.0
220
0.0
230
1.0
 70
     8
 71
     3
 72
    18
 73
    14
 74
     0
 42
0.000000001
 43
0.00000001
 40
0.0
 40
0.0
 40
0.0
 40
0.0
 40
0.2500000000000002
 40
0.2500000000000002
 40
0.5000000000000003
 40
0.5000000000000003
 40
0.7500000000000004
 40
0.7500000000000004
 40
0.8750000000000002
 40
0.8750000000000002
 40
0.9375000000000002
 40
0.9375000000000002
 40
1.0
 40
1.0
 40
1.0
 40
1.0
 10
223.8525176434774
 20
-3.104732308437073
 30
0.0
 10
223.8451655095311
 20
-2.964445235661348
 30
0.0
 10
223.9178883155968
 20
-2.771586567787587
 30
0.0
 10
224.1581811117095
 20
-2.305252088741175
 30
0.0
 10
224.3274423440973
 20
-2.031093207143147
 30
0.0
 10
224.7468549518087
 20
-1.405916033080629
 30
0.0
 10
224.9955965501424
 20
-1.055091704920144
 30
0.0
 10
225.4493746286666
 20
-0.4625956379184504
 30
0.0
 10
225.6138074833568
 20
-0.2541649652319372
 30
0.0
 10
225.8986853886633
 20
0.0803703022507762
 30
0.0
 10
226.0000674234057
 20
0.1955566952967572
 30
0.0
 10
226.226321037283
 20
0.4360416221069613
 30
0.0
 10
226.3492497876323
 20
0.560886014551988
 30
0.0
 10
226.5035402622771
 20
0.6958496933690411
 30
0.0
  0
SPLINE
  5
11D
330
1B
100
AcDbEntity
 67
     1
  8
0
  6
Continuous
 62
     7
370
    25
100
AcDbSpline
210
0.0
220
0.0
230
1.0
 70
     8
 71
     3
 72
    18
 73
    14
 74
     0
 42
0.000000001
 43
0.00000001
 40
0.0
 40
0.0
 40
0.0
 40
0.0
 40
0.0625000000000001
 40
0.0625000000000001
 40
0.1250000000000001
 40
0.1250000000000001
 40
0.2499999999999999
 40
0.2499999999999999
 40
0.4999999999999999
 40
0.4999999999999999
 40
0.7499999999999999
 40
0.7499999999999999
 40
1.0
 40
1.0
 40
1.0
 40
1.0
 10
-226.5035402622771
 20
0.6958496933689579
 30
0.0
 10
-226.3487575403455
 20
0.5604554273439533
 30
0.0
 10
-226.2260087712094
 20
0.4357207761297444
 30
0.0
 10
-225.9999018060163
 20
0.1953695756199691
 30
0.0
 10
-225.8986462273842
 20
0.0803232213493557
 30
0.0
 10
-225.6139958992012
 20
-0.2539415203032386
 30
0.0
 10
-225.4495964378384
 20
-0.4623134771778725
 30
0.0
 10
-224.9958219566507
 20
-1.054782500029605
 30
0.0
 10
-224.7469947858316
 20
-1.405718860434585
 30
0.0
 10
-224.3276065705942
 20
-2.03083715480537
 30
0.0
 10
-224.1583858153503
 20
-2.304888752549298
 30
0.0
 10
-223.9179005511222
 20
-2.771528922319979
 30
0.0
 10
-223.845165390033
 20
-2.964442955522631
 30
0.0
 10
-223.8525176434763
 20
-3.104732308436706
 30
0.0
  0
SPLINE
  5
130
330
1B
100
AcDbEntity
 67
     1
  8
0
  6
Continuous
 62
     7
370
    25
100
AcDbSpline
210
0.0
220
0.0
230
1.0
 70
     8
 71
     3
 72
    14
 73
    10
 74
     0
 42
0.000000001
 43
0.00000001
 40
0.0
 40
0.0
 40
0.0
 40
0.0
 40
0.1250000000000037
 40
0.1250000000000037
 40
0.2500000000000073
 40
0.2500000000000073
 40
0.4999999999999982
 40
0.4999999999999982
 40
1.0
 40
1.0
 40
1.0
 40
1.0
 10
224.1961977947457
 20
-23.90322199421549
 30
0.0
 10
224.2007233619548
 20
-23.83202760687957
 30
0.0
 10
224.213106636631
 20
-23.75124431954685
 30
0.0
 10
224.2552169888578
 20
-23.58659828022447
 30
0.0
 10
224.2846370156763
 20
-23.50246137741308
 30
0.0
 10
224.3887834471504
 20
-23.2538143013521
 30
0.0
 10
224.4782875535767
 20
-23.09338000697803
 30
0.0
 10
224.727263668065
 20
-22.64295976485668
 30
0.0
 10
224.8629197751498
 20
-22.3843534924494
 30
0.0
 10
224.8510050958809
 20
-22.15700786872884
 30
0.0
  0
SPLINE
  5
132
330
1B
100
AcDbEntity
 67
     1
  8
0
  6
Continuous
 62
     7
370
    25
100
AcDbSpline
210
0.0
220
0.0
230
1.0
 70
     8
 71
     3
 72
    14
 73
    10
 74
     0
 42
0.000000001
 43
0.00000001
 40
0.0
 40
0.0
 40
0.0
 40
0.0
 40
0.4999999999999936
 40
0.4999999999999936
 40
0.7499999999999899
 40
0.7499999999999899
 40
0.8749999999999949
 40
0.8749999999999949
 40
1.0
 40
1.0
 40
1.0
 40
1.0
 10
-224.8510050958809
 20
-22.15700786872883
 30
0.0
 10
-224.8629336088848
 20
-22.38461745583767
 30
0.0
 10
-224.7270978700865
 20
-22.6432608307543
 30
0.0
 10
-224.4782397374485
 20
-23.0934659490236
 30
0.0
 10
-224.3886864769806
 20
-23.25400708207253
 30
0.0
 10
-224.284572372062
 20
-23.5026351106519
 30
0.0
 10
-224.2551694779876
 20
-23.58675410726914
 30
0.0
 10
-224.2130908974542
 20
-23.75133583703905
 30
0.0
 10
-224.2007206021207
 20
-23.83207102346957
 30
0.0
 10
-224.1961977947457
 20
-23.9032219942155
 30
0.0
  0
SPLINE
  5
134
330
1B
100
AcDbEntity
 67
     1
  8
0
  6
Continuous
 62
     7
370
    25
100
AcDbSpline
210
0.0
220
0.0
230
1.0
 70
    24
 71
     3
 72
    18
 73
    14
 74
     0
 42
0.000000001
 43
0.00000001
 40
0.0
 40
0.0
 40
0.0
 40
0.0
 40
0.2499999999999981
 40
0.2499999999999981
 40
0.4999999999999962
 40
0.4999999999999962
 40
0.7499999999999943
 40
0.7499999999999943
 40
0.8749999999999971
 40
0.8749999999999971
 40
0.9374999999999986
 40
0.9374999999999986
 40
1.0
 40
1.0
 40
1.0
 40
1.0
 10
227.8468937001446
 20
-24.99999999999999
 30
0.0
 10
227.8468937001446
 20
-25.00000000000001
 30
0.0
 10
227.8076216976169
 20
-24.99999999999999
 30
0.0
 10
227.6611194872223
 20
-24.99999999999999
 30
0.0
 10
227.5544085035532
 20
-25.00000000000001
 30
0.0
 10
227.2836762550341
 20
-24.99999999999999
 30
0.0
 10
227.1189799597588
 20
-25.0
 30
0.0
 10
226.8397968908042
 20
-24.99999999999999
 30
0.0
 10
226.7412875267389
 20
-24.99999999999999
 30
0.0
 10
226.5911841557735
 20
-24.99999999999999
 30
0.0
 10
226.5407546402063
 20
-25.00000000000001
 30
0.0
 10
226.4424765065874
 20
-25.0
 30
0.0
 10
226.3927493951294
 20
-25.00000000000001
 30
0.0
 10
226.3542486889354
 20
-24.99999999999999
 30
0.0
  0
SPLINE
  5
136
330
1B
100
AcDbEntity
 67
     1
  8
0
  6
Continuous
 62
     7
370
    25
100
AcDbSpline
210
0.0
220
0.0
230
1.0
 70
    24
 71
     3
 72
    18
 73
    14
 74
     0
 42
0.000000001
 43
0.00000001
 40
0.0
 40
0.0
 40
0.0
 40
0.0
 40
0.062499999999998
 40
0.062499999999998
 40
0.124999999999996
 40
0.124999999999996
 40
0.2499999999999996
 40
0.2499999999999996
 40
0.4999999999999997
 40
0.4999999999999997
 40
0.7499999999999998
 40
0.7499999999999998
 40
1.0
 40
1.0
 40
1.0
 40
1.0
 10
-226.3542486889354
 20
-24.99999999999999
 30
0.0
 10
-226.3927580901147
 20
-25.00000000000001
 30
0.0
 10
-226.4424677173802
 20
-24.99999999999999
 30
0.0
 10
-226.5407071359629
 20
-24.99999999999999
 30
0.0
 10
-226.5911132218694
 20
-25.0
 30
0.0
 10
-226.7411524542945
 20
-25.0
 30
0.0
 10
-226.8396277579184
 20
-25.0
 30
0.0
 10
-227.1187657459503
 20
-24.99999999999999
 30
0.0
 10
-227.2835079120595
 20
-24.99999999999999
 30
0.0
 10
-227.5543986285874
 20
-25.0
 30
0.0
 10
-227.6612208844221
 20
-25.00000000000001
 30
0.0
 10
-227.8078307003666
 20
-24.99999999999999
 30
0.0
 10
-227.8468937001446
 20
-24.99999999999999
 30
0.0
 10
-227.8468937001446
 20
-24.99999999999999
 30
0.0
  0
SPLINE
  5
13D
330
1B
100
AcDbEntity
 67
     1
  8
0
  6
Continuous
 62
     8
370
    25
100
AcDbSpline
210
0.0
220
0.0
230
1.0
 70
     8
 71
     3
 72
    11
 73
     7
 74
     0
 42
0.000000001
 43
0.00000001
 40
0.0
 40
0.0
 40
0.0
 40
0.0
 40
0.176235333199078
 40
0.3542769485848719
 40
0.7149492377695613
 40
1.0
 40
1.0
 40
1.0
 40
1.0
 10
-225.6650348406164
 20
0.6330572393058731
 30
0.0
 10
-225.3589951836361
 20
0.4987340676451055
 30
0.0
 10
-224.7437791889041
 20
0.228711010881226
 30
0.0
 10
-223.8361946766393
 20
-0.1744434466570619
 30
0.0
 10
-222.9288886688118
 20
-0.5467079513432407
 30
0.0
 10
-222.3905847365595
 20
-0.6889638379634979
 30
0.0
 10
-222.1529535324948
 20
-0.7517618886510244
 30
0.0
  0
SPLINE
  5
13E
330
1B
100
AcDbEntity
 67
     1
  8
0
  6
Continuous
 62
     8
370
    25
100
AcDbSpline
210
0.0
220
0.0
230
1.0
 70
     8
 71
     3
 72
    11
 73
     7
 74
     0
 42
0.000000001
 43
0.00000001
 40
0.0
 40
0.0
 40
0.0
 40
0.0
 40
0.3049052674175996
 40
0.7467330192830186
 40
0.9113013573813854
 40
0.9999999999999999
 40
0.9999999999999999
 40
0.9999999999999999
 40
0.9999999999999999
 10
222.1703436509208
 20
-0.7453621067656582
 30
0.0
 10
222.4248963047244
 20
-0.6771732985670977
 30
0.0
 10
223.0483124672302
 20
-0.5101744301687916
 30
0.0
 10
224.0717836695152
 20
-0.0738983434055845
 30
0.0
 10
225.0442861351619
 20
0.3635331480348475
 30
0.0
 10
225.504025768874
 20
0.5631483963772985
 30
0.0
 10
225.6650348406164
 20
0.6330572393059286
 30
0.0
  0
LINE
  5
146
330
1B
100
AcDbEntity
 67
     1
  8
0
  6
Continuous
 62
     7
370
    25
100
AcDbLine
 10
-35.0
 20
-18.0
 30
0.0
 11
-35.0
 21
-47.0
 31
0.0
  0
LINE
  5
147
330
1B
100
AcDbEntity
 67
     1
  8
0
  6
Continuous
 62
     7
370
    25
100
AcDbLine
 10
35.0
 20
-47.0
 30
0.0
 11
35.0
 21
-18.0
 31
0.0
  0
LINE
  5
148
330
1B
100
AcDbEntity
 67
     1
  8
0
  6
Continuous
 62
     7
370
    25
100
AcDbLine
 10
365.0
 20
115.0
 30
0.0
 11
-365.0
 21
115.0
 31
0.0
  0
LINE
  5
149
330
1B
100
AcDbEntity
 67
     1
  8
0
  6
Continuous
 62
     7
370
    25
100
AcDbLine
 10
360.0
 20
40.0
 30
0.0
 11
360.0
 21
120.0
 31
0.0
  0
LINE
  5
14A
330
1B
100
AcDbEntity
 67
     1
  8
0
  6
Continuous
 62
     7
370
    25
100
AcDbLine
 10
-365.0
 20
45.0
 30
0.0
 11
365.0
 21
45.0
 31
0.0
  0
LINE
  5
14B
330
1B
100
AcDbEntity
 67
     1
  8
0
  6
Continuous
 62
     7
370
    25
100
AcDbLine
 10
-360.0
 20
120.0
 30
0.0
 11
-360.0
 21
40.0
 31
0.0
  0
LINE
  5
14C
330
1B
100
AcDbEntity
 67
     1
  8
0
  6
Continuous
 62
     7
370
    25
100
AcDbLine
 10
360.0
 20
40.0
 30
0.0
 11
-360.0
 21
40.0
 31
0.0
  0
LINE
  5
14D
330
1B
100
AcDbEntity
 67
     1
  8
0
  6
Continuous
 62
     7
370
    25
100
AcDbLine
 10
-360.0
 20
120.0
 30
0.0
 11
360.0
 21
120.0
 31
0.0
  0
LINE
  5
14E
330
1B
100
AcDbEntity
 67
     1
  8
0
  6
Continuous
 62
     7
370
    25
100
AcDbLine
 10
365.0
 20
115.0
 30
0.0
 11
365.0
 21
45.0
 31
0.0
  0
LINE
  5
14F
330
1B
100
AcDbEntity
 67
     1
  8
0
  6
Continuous
 62
     7
370
    25
100
AcDbLine
 10
-365.0
 20
45.0
 30
0.0
 11
-365.0
 21
115.0
 31
0.0
  0
LINE
  5
150
330
1B
100
AcDbEntity
 67
     1
  8
0
  6
Continuous
 62
     7
370
    25
100
AcDbLine
 10
-75.0
 20
-15.0
 30
0.0
 11
75.0
 21
-15.0
 31
0.0
  0
LINE
  5
151
330
1B
100
AcDbEntity
 67
     1
  8
0
  6
Continuous
 62
     7
370
    25
100
AcDbLine
 10
-290.0
 20
40.0
 30
0.0
 11
-290.0
 21
-25.0
 31
0.0
  0
LINE
  5
152
330
1B
100
AcDbEntity
 67
     1
  8
0
  6
Continuous
 62
     7
370
    25
100
AcDbLine
 10
-285.2824317569
 20
36.9096314323
 30
0.0
 11
-290.0
 21
36.9096314323
 31
0.0
  0
LINE
  5
153
330
1B
100
AcDbEntity
 67
     1
  8
0
  6
Continuous
 62
     7
370
    25
100
AcDbLine
 10
290.0
 20
-25.0
 30
0.0
 11
290.0
 21
40.0
 31
0.0
  0
LINE
  5
154
330
1B
100
AcDbEntity
 67
     1
  8
0
  6
Continuous
 62
     7
370
    25
100
AcDbLine
 10
290.0
 20
36.9096314323
 30
0.0
 11
285.2824317569
 21
36.9096314323
 31
0.0
  0
LINE
  5
155
330
1B
100
AcDbEntity
 67
     1
  8
0
  6
Continuous
 62
     7
370
    25
100
AcDbLine
 10
241.1197665374
 20
9.1203629464
 30
0.0
 11
290.0
 21
9.1203629464
 31
0.0
  0
LINE
  5
156
330
1B
100
AcDbEntity
 67
     1
  8
0
  6
Continuous
 62
     7
370
    25
100
AcDbLine
 10
-290.0
 20
9.1203629464
 30
0.0
 11
-241.1197665374
 21
9.1203629464
 31
0.0
  0
LINE
  5
157
330
1B
100
AcDbEntity
 67
     1
  8
0
  6
Continuous
 62
     7
370
    25
100
AcDbLine
 10
-295.0
 20
-20.0
 30
0.0
 11
-295.0
 21
35.0
 31
0.0
  0
LINE
  5
158
330
1B
100
AcDbEntity
 67
     1
  8
0
  6
Continuous
 62
     7
370
    25
100
AcDbLine
 10
295.0
 20
35.0
 30
0.0
 11
295.0
 21
-20.0
 31
0.0
  0
LINE
  5
159
330
1B
100
AcDbEntity
 67
     1
  8
0
  6
Continuous
 62
     7
370
    25
100
AcDbLine
 10
-233.653253233
 20
7.3292809313
 30
0.0
 11
-290.0
 21
7.3292809313
 31
0.0
  0
LINE
  5
15A
330
1B
100
AcDbEntity
 67
     1
  8
0
  6
Continuous
 62
     7
370
    25
100
AcDbLine
 10
290.0
 20
7.3292809313
 30
0.0
 11
233.653253233
 21
7.3292809313
 31
0.0
  0
LINE
  5
15B
330
1B
100
AcDbEntity
 67
     1
  8
0
  6
Continuous
 62
     7
370
    25
100
AcDbLine
 10
240.0
 20
-22.9591717265
 30
0.0
 11
240.0
 21
-0.4116969265
 31
0.0
  0
LINE
  5
15C
330
1B
100
AcDbEntity
 67
     1
  8
0
  6
Continuous
 62
     7
370
    25
100
AcDbLine
 10
280.0
 20
-22.9591717265
 30
0.0
 11
240.0
 21
-22.9591717265
 31
0.0
  0
LINE
  5
15D
330
1B
100
AcDbEntity
 67
     1
  8
0
  6
Continuous
 62
     7
370
    25
100
AcDbLine
 10
280.0
 20
4.5920099658
 30
0.0
 11
280.0
 21
-22.9591717265
 31
0.0
  0
LINE
  5
15E
330
1B
100
AcDbEntity
 67
     1
  8
0
  6
Continuous
 62
     7
370
    25
100
AcDbLine
 10
246.5849302327
 20
4.5920099658
 30
0.0
 11
280.0
 21
4.5920099658
 31
0.0
  0
LINE
  5
15F
330
1B
100
AcDbEntity
 67
     1
  8
0
  6
Continuous
 62
     7
370
    25
100
AcDbLine
 10
227.8468937001
 20
-24.9368608745
 30
0.0
 11
290.0
 21
-24.9368608745
 31
0.0
  0
LINE
  5
160
330
1B
100
AcDbEntity
 67
     1
  8
0
  6
Continuous
 62
     7
370
    25
100
AcDbLine
 10
226.5035402623
 20
0.6958496934
 30
0.0
 11
227.8468937001
 21
-24.9368608745
 31
0.0
  0
LINE
  5
161
330
1B
100
AcDbEntity
 67
     1
  8
0
  6
Continuous
 62
     7
370
    25
100
AcDbLine
 10
-227.8468937001
 20
-24.9368608745
 30
0.0
 11
-226.5035402623
 21
0.6958496934
 31
0.0
  0
LINE
  5
162
330
1B
100
AcDbEntity
 67
     1
  8
0
  6
Continuous
 62
     7
370
    25
100
AcDbLine
 10
-290.0
 20
-24.9368608745
 30
0.0
 11
-227.8468937001
 21
-24.9368608745
 31
0.0
  0
LINE
  5
163
330
1B
100
AcDbEntity
 67
     1
  8
0
  6
Continuous
 62
     7
370
    25
100
AcDbLine
 10
-280.0
 20
-22.9591717265
 30
0.0
 11
-240.0
 21
-22.9591717265
 31
0.0
  0
LINE
  5
164
330
1B
100
AcDbEntity
 67
     1
  8
0
  6
Continuous
 62
     7
370
    25
100
AcDbLine
 10
-240.0
 20
-22.9591717265
 30
0.0
 11
-240.0
 21
-0.4116969265
 31
0.0
  0
LINE
  5
165
330
1B
100
AcDbEntity
 67
     1
  8
0
  6
Continuous
 62
     7
370
    25
100
AcDbLine
 10
-246.5849302327
 20
4.5920099658
 30
0.0
 11
-280.0
 21
4.5920099658
 31
0.0
  0
LINE
  5
166
330
1B
100
AcDbEntity
 67
     1
  8
0
  6
Continuous
 62
     7
370
    25
100
AcDbLine
 10
-280.0
 20
4.5920099658
 30
0.0
 11
-280.0
 21
-22.9591717265
 31
0.0
  0
LINE
  5
167
330
1B
100
AcDbEntity
 67
     1
  8
0
  6
Continuous
 62
     7
370
    25
100
AcDbLine
 10
280.0
 20
-18.0644036023
 30
0.0
 11
240.0
 21
-18.0644036023
 31
0.0
  0
LINE
  5
168
330
1B
100
AcDbEntity
 67
     1
  8
0
  6
Continuous
 62
     7
370
    25
100
AcDbLine
 10
-280.0
 20
-18.0644036023
 30
0.0
 11
-240.0
 21
-18.0644036023
 31
0.0
  0
LINE
  5
169
330
1B
100
AcDbEntity
 67
     1
  8
0
  6
Continuous
 62
     7
370
    25
100
AcDbLine
 10
32.0
 20
-50.0
 30
0.0
 11
-32.0
 21
-50.0
 31
0.0
  0
LINE
  5
16A
330
1B
100
AcDbEntity
 67
     1
  8
0
  6
Continuous
 62
     7
370
    25
100
AcDbLine
 10
224.8510050959
 20
-22.1570078687
 30
0.0
 11
223.8525176435
 21
-3.1047323084
 31
0.0
  0
LINE
  5
16B
330
1B
100
AcDbEntity
 67
     1
  8
0
  6
Continuous
 62
     7
370
    25
100
AcDbLine
 10
-223.8437170957
 20
-2.9368078535
 30
0.0
 11
-224.8510050959
 21
-22.1570078687
 31
0.0
  0
LINE
  5
16C
330
1B
100
AcDbEntity
 67
     1
  8
0
  6
Continuous
 62
     7
370
    25
100
AcDbLine
 10
227.8468937001
 20
-25.0
 30
0.0
 11
227.8468937001
 21
-24.9368608745
 31
0.0
  0
LINE
  5
16D
330
1B
100
AcDbEntity
 67
     1
  8
0
  6
Continuous
 62
     7
370
    25
100
AcDbLine
 10
290.0
 20
-25.0
 30
0.0
 11
227.8468937001
 21
-25.0
 31
0.0
  0
LINE
  5
16E
330
1B
100
AcDbEntity
 67
     1
  8
0
  6
Continuous
 62
     7
370
    25
100
AcDbLine
 10
-227.8468937001
 20
-24.9368608745
 30
0.0
 11
-227.8468937001
 21
-25.0
 31
0.0
  0
LINE
  5
16F
330
1B
100
AcDbEntity
 67
     1
  8
0
  6
Continuous
 62
     7
370
    25
100
AcDbLine
 10
-227.8468937001
 20
-25.0
 30
0.0
 11
-290.0
 21
-25.0
 31
0.0
  0
LINE
  5
170
330
1B
100
AcDbEntity
 67
     1
  8
0
  6
Continuous
 62
     7
370
    25
100
AcDbLine
 10
-221.5533680812
 20
-16.5563130734
 30
0.0
 11
-224.5492566855
 21
-16.3993052046
 31
0.0
  0
LINE
  5
171
330
1B
100
AcDbEntity
 67
     1
  8
0
  6
Continuous
 62
     7
370
    25
100
AcDbLine
 10
224.1961977947
 20
-23.9032219942
 30
0.0
 11
221.5533680812
 21
-16.5563130734
 31
0.0
  0
LINE
  5
172
330
1B
100
AcDbEntity
 67
     1
  8
0
  6
Continuous
 62
     7
370
    25
100
AcDbLine
 10
221.5533680812
 20
-16.5563130734
 30
0.0
 11
224.5492566855
 21
-16.3993052046
 31
0.0
  0
LINE
  5
173
330
1B
100
AcDbEntity
 67
     1
  8
0
  6
Continuous
 62
     7
370
    25
100
AcDbLine
 10
-221.5533680812
 20
-16.5563130734
 30
0.0
 11
-224.1961977947
 21
-23.9032219942
 31
0.0
  0
LINE
  5
174
330
1B
100
AcDbEntity
 67
     1
  8
0
  6
Continuous
 62
     7
370
    25
100
AcDbLine
 10
-207.0870366505
 20
-4.6886087427
 30
0.0
 11
-224.1042486889
 21
-23.9843134833
 31
0.0
  0
LINE
  5
175
330
1B
100
AcDbEntity
 67
     1
  8
0
  6
Continuous
 62
     7
370
    25
100
AcDbLine
 10
-224.1961977947
 20
-23.9032219942
 30
0.0
 11
-224.1042486889
 21
-23.9843134833
 31
0.0
  0
LINE
  5
176
330
1B
100
AcDbEntity
 67
     1
  8
0
  6
Continuous
 62
     7
370
    25
100
AcDbLine
 10
224.1042486889
 20
-23.9843134833
 30
0.0
 11
224.1961977947
 21
-23.9032219942
 31
0.0
  0
LINE
  5
177
330
1B
100
AcDbEntity
 67
     1
  8
0
  6
Continuous
 62
     7
370
    25
100
AcDbLine
 10
224.1042486889
 20
-23.9843134833
 30
0.0
 11
207.091734265
 21
-4.6939353369
 31
0.0
  0
LINE
  5
178
330
1B
100
AcDbEntity
 67
     1
  8
0
  6
Continuous
 62
     8
370
    25
100
AcDbLine
 10
35.0
 20
-18.0
 30
0.0
 11
-35.0
 21
-18.0
 31
0.0
  0
LINE
  5
179
330
1B
100
AcDbEntity
 67
     1
  8
0
  6
Continuous
 62
     8
370
    25
100
AcDbLine
 10
-35.0
 20
-47.0
 30
0.0
 11
35.0
 21
-47.0
 31
0.0
  0
LINE
  5
17A
330
1B
100
AcDbEntity
 67
     1
  8
0
  6
Continuous
 62
     8
370
    25
100
AcDbLine
 10
-220.7463356061
 20
-1.1572161043
 30
0.0
 11
-221.5533680812
 21
-16.5563130734
 31
0.0
  0
LINE
  5
17B
330
1B
100
AcDbEntity
 67
     1
  8
0
  6
Continuous
 62
     8
370
    25
100
AcDbLine
 10
221.5533680812
 20
-16.5563130734
 30
0.0
 11
220.7462212933
 21
-1.1550348856
 31
0.0
  0
LINE
  5
17C
330
1B
100
AcDbEntity
 67
     1
  8
0
  6
Continuous
 62
     8
370
    25
100
AcDbLine
 10
-221.5533680812
 20
-16.5563130734
 30
0.0
 11
-210.3775554974
 21
-3.8841327323
 31
0.0
  0
LINE
  5
17D
330
1B
100
AcDbEntity
 67
     1
  8
0
  6
Continuous
 62
     8
370
    25
100
AcDbLine
 10
210.3714607219
 20
-3.8772219064
 30
0.0
 11
221.5533680812
 21
-16.5563130734
 31
0.0
  0
ARC
  5
17E
330
1B
100
AcDbEntity
 67
     1
  8
0
  6
Continuous
 62
     7
370
    25
100
AcDbCircle
 10
-38.0
 20
-18.0
 30
0.0
 40
3.000000000000014
100
AcDbArc
 50
0.0
 51
90.0
  0
ARC
  5
17F
330
1B
100
AcDbEntity
 67
     1
  8
0
  6
Continuous
 62
     7
370
    25
100
AcDbCircle
 10
38.0
 20
-18.0
 30
0.0
 40
3.0
100
AcDbArc
 50
90.0
 51
180.0
  0
ARC
  5
180
330
1B
100
AcDbEntity
 67
     1
  8
0
  6
Continuous
 62
     7
370
    25
100
AcDbCircle
 10
-32.0
 20
-47.0
 30
0.0
 40
2.999999999999986
100
AcDbArc
 50
180.0
 51
270.0
  0
ARC
  5
181
330
1B
100
AcDbEntity
 67
     1
  8
0
  6
Continuous
 62
     7
370
    25
100
AcDbCircle
 10
32.0
 20
-47.0
 30
0.0
 40
2.999999999999986
100
AcDbArc
 50
270.0
 51
0.0
  0
ARC
  5
182
330
1B
100
AcDbEntity
 67
     1
  8
0
  6
Continuous
 62
     7
370
    25
100
AcDbCircle
 10
360.0
 20
45.0
 30
0.0
 40
5.0
100
AcDbArc
 50
270.0
 51
0.0
  0
ARC
  5
183
330
1B
100
AcDbEntity
 67
     1
  8
0
  6
Continuous
 62
     7
370
    25
100
AcDbCircle
 10
360.0
 20
115.0
 30
0.0
 40
5.0
100
AcDbArc
 50
0.0
 51
90.0
  0
ARC
  5
184
330
1B
100
AcDbEntity
 67
     1
  8
0
  6
Continuous
 62
     7
370
    25
100
AcDbCircle
 10
-360.0
 20
45.0
 30
0.0
 40
5.0
100
AcDbArc
 50
180.0
 51
270.0
  0
ARC
  5
185
330
1B
100
AcDbEntity
 67
     1
  8
0
  6
Continuous
 62
     7
370
    25
100
AcDbCircle
 10
-360.0
 20
115.0
 30
0.0
 40
5.0
100
AcDbArc
 50
90.0
 51
180.0
  0
ARC
  5
186
330
1B
100
AcDbEntity
 67
     1
  8
0
  6
Continuous
 62
     7
370
    25
100
AcDbCircle
 10
286.1489107974
 20
37.3694382749
 30
0.0
 40
2.630605619159876
100
AcDbArc
 50
90.330988869
 51
132.4920384547
  0
ARC
  5
187
330
1B
100
AcDbEntity
 67
     1
  8
0
  6
Continuous
 62
     7
370
    25
100
AcDbCircle
 10
-286.1489107974
 20
37.3694382749
 30
0.0
 40
2.630605619160162
100
AcDbArc
 50
47.5079615453
 51
89.669011131
  0
ARC
  5
188
330
1B
100
AcDbEntity
 67
     1
  8
0
  6
Continuous
 62
     7
370
    25
100
AcDbCircle
 10
282.3337116425
 20
34.4254954709
 30
0.0
 40
3.855629882110935
100
AcDbArc
 50
40.1123111031
 51
71.8559309778
  0
ARC
  5
189
330
1B
100
AcDbEntity
 67
     1
  8
0
  6
Continuous
 62
     7
370
    25
100
AcDbCircle
 10
236.9221738394
 20
7.4171838679
 30
0.0
 40
4.52996726604708
100
AcDbArc
 50
22.0849228791
 51
46.7157230125
  0
ARC
  5
18A
330
1B
100
AcDbEntity
 67
     1
  8
0
  6
Continuous
 62
     7
370
    25
100
AcDbCircle
 10
-282.3337116425
 20
34.4254954709
 30
0.0
 40
3.855629882110554
100
AcDbArc
 50
108.1440690222
 51
139.8876888969
  0
ARC
  5
18B
330
1B
100
AcDbEntity
 67
     1
  8
0
  6
Continuous
 62
     7
370
    25
100
AcDbCircle
 10
-236.9221738394
 20
7.4171838679
 30
0.0
 40
4.529967266047342
100
AcDbArc
 50
133.2842769875
 51
157.9150771209
  0
ARC
  5
18C
330
1B
100
AcDbEntity
 67
     1
  8
0
  6
Continuous
 62
     7
370
    25
100
AcDbCircle
 10
-300.0
 20
35.0
 30
0.0
 40
5.0
100
AcDbArc
 50
0.0
 51
90.0
  0
ARC
  5
18D
330
1B
100
AcDbEntity
 67
     1
  8
0
  6
Continuous
 62
     7
370
    25
100
AcDbCircle
 10
300.0
 20
35.0
 30
0.0
 40
5.0
100
AcDbArc
 50
90.0
 51
180.0
  0
ARC
  5
18E
330
1B
100
AcDbEntity
 67
     1
  8
0
  6
Continuous
 62
     7
370
    25
100
AcDbCircle
 10
-233.5921656316
 20
4.3249997559
 30
0.0
 40
3.004902174075205
100
AcDbArc
 50
72.4834688489
 51
91.1648641666
  0
ARC
  5
18F
330
1B
100
AcDbEntity
 67
     1
  8
0
  6
Continuous
 62
     7
370
    25
100
AcDbCircle
 10
233.5921656316
 20
4.3249997559
 30
0.0
 40
3.004902174073969
100
AcDbArc
 50
88.8351358334
 51
107.5165311511
  0
ARC
  5
190
330
1B
100
AcDbEntity
 67
     1
  8
0
  6
Continuous
 62
     7
370
    25
100
AcDbCircle
 10
-290.1554475351
 20
12.1741875691
 30
0.0
 40
4.847399742708015
100
AcDbArc
 50
181.9639001158
 51
271.8376893607
  0
ARC
  5
191
330
1B
100
AcDbEntity
 67
     1
  8
0
  6
Continuous
 62
     7
370
    25
100
AcDbCircle
 10
290.1554475351
 20
12.1741875691
 30
0.0
 40
4.847399742708014
100
AcDbArc
 50
268.1623106393
 51
358.0360998842
  0
ARC
  5
192
330
1B
100
AcDbEntity
 67
     1
  8
0
  6
Continuous
 62
     7
370
    25
100
AcDbCircle
 10
226.2630877154
 20
-1.7231727075
 30
0.0
 40
2.43094360349273
100
AcDbArc
 50
84.3234056308
 51
104.2419291755
  0
ARC
  5
193
330
1B
100
AcDbEntity
 67
     1
  8
0
  6
Continuous
 62
     7
370
    25
100
AcDbCircle
 10
-226.2630877154
 20
-1.7231727075
 30
0.0
 40
2.430943603492302
100
AcDbArc
 50
75.7580708245
 51
95.6765943692
  0
ARC
  5
194
330
1B
100
AcDbEntity
 67
     1
  8
0
  6
Continuous
 62
     7
370
    25
100
AcDbCircle
 10
290.0313702353
 20
-19.9682285605
 30
0.0
 40
4.968731343427624
100
AcDbArc
 50
269.6382589637
 51
359.6336324768
  0
ARC
  5
195
330
1B
100
AcDbEntity
 67
     1
  8
0
  6
Continuous
 62
     7
370
    25
100
AcDbCircle
 10
-290.0313702353
 20
-19.9682285605
 30
0.0
 40
4.968731343427586
100
AcDbArc
 50
180.3663675232
 51
270.3617410363
  0
ARC
  5
196
330
1B
100
AcDbEntity
 67
     1
  8
0
  6
Continuous
 62
     7
370
    25
100
AcDbCircle
 10
227.8102418117
 20
-21.9720779743
 30
0.0
 40
2.965009444539128
100
AcDbArc
 50
183.5759023545
 51
270.7082783523
  0
ARC
  5
197
330
1B
100
AcDbEntity
 67
     1
  8
0
  6
Continuous
 62
     7
370
    25
100
AcDbCircle
 10
-227.8102418117
 20
-21.9720779743
 30
0.0
 40
2.965009444539199
100
AcDbArc
 50
269.2917216478
 51
356.4240976455
  0
ARC
  5
198
330
1B
100
AcDbEntity
 67
     1
  8
0
  6
Continuous
 62
     7
370
    25
100
AcDbCircle
 10
290.0
 20
-20.0
 30
0.0
 40
5.000000000000057
100
AcDbArc
 50
270.0
 51
0.0
  0
ARC
  5
199
330
1B
100
AcDbEntity
 67
     1
  8
0
  6
Continuous
 62
     7
370
    25
100
AcDbCircle
 10
-290.0
 20
-20.0
 30
0.0
 40
5.000000000000018
100
AcDbArc
 50
180.0
 51
270.0
  0
ARC
  5
19A
330
1B
100
AcDbEntity
 67
     1
  8
0
  6
Continuous
 62
     7
370
    25
100
AcDbCircle
 10
227.8468937001
 20
-22.0
 30
0.0
 40
2.999999999999996
100
AcDbArc
 50
183.0
 51
270.0
  0
ARC
  5
19B
330
1B
100
AcDbEntity
 67
     1
  8
0
  6
Continuous
 62
     7
370
    25
100
AcDbCircle
 10
-227.8468937001
 20
-22.0
 30
0.0
 40
3.000000000000017
100
AcDbArc
 50
270.0
 51
357.0
  0
ARC
  5
19C
330
1B
100
AcDbEntity
 67
     1
  8
0
  6
Continuous
 62
     7
370
    25
100
AcDbCircle
 10
226.3800908347
 20
-22.2776428066
 30
0.0
 40
2.722479844742687
100
AcDbArc
 50
216.6621266589
 51
269.4561325691
  0
ARC
  5
19D
330
1B
100
AcDbEntity
 67
     1
  8
0
  6
Continuous
 62
     7
370
    25
100
AcDbCircle
 10
-226.3800908347
 20
-22.2776428066
 30
0.0
 40
2.722479844742704
100
AcDbArc
 50
270.5438674309
 51
323.3378733411
  0
ARC
  5
19E
330
1B
100
AcDbEntity
 67
     1
  8
0
  6
Continuous
 62
     7
370
    25
100
AcDbCircle
 10
226.3542486889
 20
-22.0
 30
0.0
 40
2.999999999999954
100
AcDbArc
 50
221.4096221093
 51
270.0
  0
ARC
  5
19F
330
1B
100
AcDbEntity
 67
     1
  8
0
  6
Continuous
 62
     7
370
    25
100
AcDbCircle
 10
-226.3542486889
 20
-22.0
 30
0.0
 40
2.999999999999979
100
AcDbArc
 50
270.0
 51
318.5903778907
  0
VIEWPORT
  5
378
330
1B
100
AcDbEntity
 67
     1
  8
0
100
AcDbViewport
 10
0.0
 20
0.0
 30
0.0
 40
205.6
 41
156.0
 68
     1
 69
     1
 12
0.0
 22
0.0
 13
0.0
 23
0.0
 14
10.0
 24
10.0
 15
10.0
 25
10.0
 16
0.0
 26
0.0
 36
1.0
 17
0.0
 27
0.0
 37
0.0
 42
50.0
 43
0.0
 44
0.0
 45
564.9688715953
 50
0.0
 51
0.0
 72
   100
 90
   557152
  1

281
     0
 71
     1
 74
     0
110
0.0
120
0.0
130
0.0
111
1.0
121
0.0
131
0.0
112
0.0
122
1.0
132
0.0
 79
     0
146
0.0
  0
ENDSEC
  0
SECTION
  2
OBJECTS
  0
DICTIONARY
  5
C
330
0
100
AcDbDictionary
281
     1
  3
ACAD_GROUP
350
D
  3
ACAD_LAYOUT
350
1A
  3
ACAD_MLINESTYLE
350
17
  3
ACAD_PLOTSETTINGS
350
19
  3
ACAD_PLOTSTYLENAME
350
E
  3
ACAD_SCALELIST
350
47
  0
DICTIONARY
  5
D
102
{ACAD_REACTORS
330
C
102
}
330
C
100
AcDbDictionary
281
     1
  0
DICTIONARY
  5
1A
102
{ACAD_REACTORS
330
C
102
}
330
C
100
AcDbDictionary
281
     1
  3
_Back
350
227
  3
_Front
350
1E
  3
_Isometric
350
2E8
  3
_Right
350
26
  3
Model
350
22
  0
DICTIONARY
  5
17
102
{ACAD_REACTORS
330
C
102
}
330
C
100
AcDbDictionary
281
     1
  3
Standard
350
18
  0
DICTIONARY
  5
19
102
{ACAD_REACTORS
330
C
102
}
330
C
100
AcDbDictionary
281
     1
  0
ACDBDICTIONARYWDFLT
  5
E
102
{ACAD_REACTORS
330
C
102
}
330
C
100
AcDbDictionary
281
     1
  3
Normal
350
F
100
AcDbDictionaryWithDefault
340
F
  0
DICTIONARY
  5
47
102
{ACAD_REACTORS
330
C
102
}
330
C
100
AcDbDictionary
281
     1
  3
A0
350
48
  3
A1
350
49
  3
A2
350
4A
  3
A3
350
4B
  3
A4
350
4C
  3
A5
350
4D
  3
A6
350
4E
  3
A7
350
4F
  3
A8
350
50
  3
A9
350
51
  3
B0
350
52
  3
B1
350
53
  3
B2
350
54
  3
B3
350
55
  3
B4
350
56
  3
B5
350
57
  3
B6
350
58
  3
B7
350
59
  3
B8
350
5A
  3
B9
350
5B
  3
C0
350
5C
  3
C1
350
5D
  3
C2
350
5E
  3
C3
350
5F
  3
C4
350
60
  3
C5
350
61
  3
C6
350
62
  3
C7
350
63
  3
C8
350
64
  3
C9
350
65
  3
D0
350
66
  3
D1
350
67
  3
D2
350
68
  0
LAYOUT
  5
227
102
{ACAD_REACTORS
330
1A
102
}
330
1A
100
AcDbPlotSettings
  1

  2
none_device
  4
ISO_A4_(210.00_x_297.00_MM)
  6

 40
7.5
 41
20.0
 42
7.5
 43
20.0
 44
210.0
 45
297.0
 46
0.0
 47
0.0
 48
0.0
 49
0.0
140
0.0
141
0.0
142
1.0
143
2.8404669261
 70
   688
 72
     1
 73
     1
 74
     1
  7

 75
     0
147
0.3520547945
148
365.0
149
50.0
100
AcDbLayout
  1
_Back
 70
     1
 71
     3
 10
0.0
 20
0.0
 11
0.0
 21
0.0
 12
0.0
 22
0.0
 32
0.0
 14
0.0
 24
0.0
 34
0.0
 15
0.0
 25
0.0
 35
0.0
146
0.0
 13
0.0
 23
0.0
 33
0.0
 16
1.0
 26
0.0
 36
0.0
 17
0.0
 27
1.0
 37
0.0
 76
     0
330
226
331
37C
  0
LAYOUT
  5
1E
102
{ACAD_REACTORS
330
1A
102
}
330
1A
100
AcDbPlotSettings
  1

  2
none_device
  4
ISO_A4_(210.00_x_297.00_MM)
  6

 40
7.5
 41
20.0
 42
7.5
 43
20.0
 44
210.0
 45
297.0
 46
0.0
 47
0.0
 48
0.0
 49
0.0
140
0.0
141
0.0
142
1.0
143
2.8404669261
 70
   688
 72
     1
 73
     1
 74
     1
  7

 75
     0
147
0.3520547945
148
365.0
149
50.0
100
AcDbLayout
  1
_Front
 70
     1
 71
     1
 10
-421.8093385214
 20
-71.3035019455
 11
421.8093385214
 21
525.1945525292
 12
0.0
 22
0.0
 32
0.0
 14
-365.0
 24
-50.0
 34
0.0
 15
365.0
 25
120.0
 35
0.0
146
0.0
 13
0.0
 23
0.0
 33
0.0
 16
1.0
 26
0.0
 36
0.0
 17
0.0
 27
1.0
 37
0.0
 76
     0
330
1B
331
378
  0
LAYOUT
  5
2E8
102
{ACAD_REACTORS
330
1A
102
}
330
1A
100
AcDbPlotSettings
  1

  2
none_device
  4
ISO_A4_(210.00_x_297.00_MM)
  6

 40
7.5
 41
20.0
 42
7.5
 43
20.0
 44
210.0
 45
297.0
 46
0.0
 47
0.0
 48
0.0
 49
0.0
140
0.0
141
0.0
142
1.0
143
2.8404669261
 70
   688
 72
     1
 73
     1
 74
     1
  7

 75
     0
147
0.3520547945
148
365.0
149
50.0
100
AcDbLayout
  1
_Isometric
 70
     1
 71
     4
 10
0.0
 20
0.0
 11
0.0
 21
0.0
 12
0.0
 22
0.0
 32
0.0
 14
0.0
 24
0.0
 34
0.0
 15
0.0
 25
0.0
 35
0.0
146
0.0
 13
0.0
 23
0.0
 33
0.0
 16
1.0
 26
0.0
 36
0.0
 17
0.0
 27
1.0
 37
0.0
 76
     0
330
2E7
331
37E
  0
LAYOUT
  5
26
102
{ACAD_REACTORS
330
1A
102
}
330
1A
100
AcDbPlotSettings
  1

  2
none_device
  4
ISO_A4_(210.00_x_297.00_MM)
  6

 40
7.5
 41
20.0
 42
7.5
 43
20.0
 44
210.0
 45
297.0
 46
0.0
 47
0.0
 48
0.0
 49
0.0
140
0.0
141
0.0
142
1.0
143
2.8404669261
 70
   688
 72
     1
 73
     1
 74
     1
  7

 75
     0
147
0.3520547945
148
365.0
149
50.0
100
AcDbLayout
  1
_Right
 70
     1
 71
     2
 10
0.0
 20
0.0
 11
0.0
 21
0.0
 12
0.0
 22
0.0
 32
0.0
 14
0.0
 24
0.0
 34
0.0
 15
0.0
 25
0.0
 35
0.0
146
0.0
 13
0.0
 23
0.0
 33
0.0
 16
1.0
 26
0.0
 36
0.0
 17
0.0
 27
1.0
 37
0.0
 76
     0
330
23
331
37A
  0
LAYOUT
  5
22
102
{ACAD_REACTORS
330
1A
102
}
330
1A
100
AcDbPlotSettings
  1

  2
none_device
  4
ANSI_A_(11.00_x_8.50_Inches)
  6

 40
6.35
 41
19.05
 42
6.35000508
 43
19.05000254
 44
279.4
 45
215.9
 46
133.34999746
 47
88.89999873
 48
0.0
 49
0.0
140
0.0
141
0.0
142
0.0149178082
143
1.0
 70
  1696
 72
     0
 73
     0
 74
     0
  7

 75
     0
147
0.0179189148
148
-1300.4909072572
149
0.0
100
AcDbLayout
  1
Model
 70
     1
 71
     0
 10
0.0
 20
0.0
 11
420.0
 21
297.0
 12
0.0
 22
0.0
 32
0.0
 14
-365.0
 24
-227.5
 34
0.0
 15
365.0
 25
227.5
 35
0.0
146
0.0
 13
0.0
 23
0.0
 33
0.0
 16
1.0
 26
0.0
 36
0.0
 17
0.0
 27
1.0
 37
0.0
 76
     0
330
1F
331
29
  0
MLINESTYLE
  5
18
102
{ACAD_REACTORS
330
17
102
}
330
17
100
AcDbMlineStyle
  2
Standard
 70
     0
  3

 62
   256
 51
90.0
 52
90.0
 71
     2
 49
0.5
 62
   256
  6
BYLAYER
 49
-0.5
 62
   256
  6
BYLAYER
  0
ACDBPLACEHOLDER
  5
F
102
{ACAD_REACTORS
330
E
102
}
330
E
  0
SCALE
  5
48
102
{ACAD_REACTORS
330
47
102
}
330
47
100
AcDbScale
 70
     0
300
1:1
140
1.0
141
1.0
290
     1
  0
SCALE
  5
49
102
{ACAD_REACTORS
330
47
102
}
330
47
100
AcDbScale
 70
     0
300
1:2
140
1.0
141
2.0
290
     0
  0
SCALE
  5
4A
102
{ACAD_REACTORS
330
47
102
}
330
47
100
AcDbScale
 70
     0
300
1:4
140
1.0
141
4.0
290
     0
  0
SCALE
  5
4B
102
{ACAD_REACTORS
330
47
102
}
330
47
100
AcDbScale
 70
     0
300
1:5
140
1.0
141
5.0
290
     0
  0
SCALE
  5
4C
102
{ACAD_REACTORS
330
47
102
}
330
47
100
AcDbScale
 70
     0
300
1:8
140
1.0
141
8.0
290
     0
  0
SCALE
  5
4D
102
{ACAD_REACTORS
330
47
102
}
330
47
100
AcDbScale
 70
     0
300
1:10
140
1.0
141
10.0
290
     0
  0
SCALE
  5
4E
102
{ACAD_REACTORS
330
47
102
}
330
47
100
AcDbScale
 70
     0
300
1:16
140
1.0
141
16.0
290
     0
  0
SCALE
  5
4F
102
{ACAD_REACTORS
330
47
102
}
330
47
100
AcDbScale
 70
     0
300
1:20
140
1.0
141
20.0
290
     0
  0
SCALE
  5
50
102
{ACAD_REACTORS
330
47
102
}
330
47
100
AcDbScale
 70
     0
300
1:30
140
1.0
141
30.0
290
     0
  0
SCALE
  5
51
102
{ACAD_REACTORS
330
47
102
}
330
47
100
AcDbScale
 70
     0
300
1:40
140
1.0
141
40.0
290
     0
  0
SCALE
  5
52
102
{ACAD_REACTORS
330
47
102
}
330
47
100
AcDbScale
 70
     0
300
1:50
140
1.0
141
50.0
290
     0
  0
SCALE
  5
53
102
{ACAD_REACTORS
330
47
102
}
330
47
100
AcDbScale
 70
     0
300
1:100
140
1.0
141
100.0
290
     0
  0
SCALE
  5
54
102
{ACAD_REACTORS
330
47
102
}
330
47
100
AcDbScale
 70
     0
300
2:1
140
2.0
141
1.0
290
     0
  0
SCALE
  5
55
102
{ACAD_REACTORS
330
47
102
}
330
47
100
AcDbScale
 70
     0
300
4:1
140
4.0
141
1.0
290
     0
  0
SCALE
  5
56
102
{ACAD_REACTORS
330
47
102
}
330
47
100
AcDbScale
 70
     0
300
8:1
140
8.0
141
1.0
290
     0
  0
SCALE
  5
57
102
{ACAD_REACTORS
330
47
102
}
330
47
100
AcDbScale
 70
     0
300
10:1
140
10.0
141
1.0
290
     0
  0
SCALE
  5
58
102
{ACAD_REACTORS
330
47
102
}
330
47
100
AcDbScale
 70
     0
300
100:1
140
100.0
141
1.0
290
     0
  0
SCALE
  5
59
102
{ACAD_REACTORS
330
47
102
}
330
47
100
AcDbScale
 70
     0
300
1/128" = 1'-0"
140
0.0078125
141
12.0
290
     0
  0
SCALE
  5
5A
102
{ACAD_REACTORS
330
47
102
}
330
47
100
AcDbScale
 70
     0
300
1/64" = 1'-0"
140
0.015625
141
12.0
290
     0
  0
SCALE
  5
5B
102
{ACAD_REACTORS
330
47
102
}
330
47
100
AcDbScale
 70
     0
300
1/32" = 1'-0"
140
0.03125
141
12.0
290
     0
  0
SCALE
  5
5C
102
{ACAD_REACTORS
330
47
102
}
330
47
100
AcDbScale
 70
     0
300
1/16" = 1'-0"
140
0.0625
141
12.0
290
     0
  0
SCALE
  5
5D
102
{ACAD_REACTORS
330
47
102
}
330
47
100
AcDbScale
 70
     0
300
3/32" = 1'-0"
140
0.09375
141
12.0
290
     0
  0
SCALE
  5
5E
102
{ACAD_REACTORS
330
47
102
}
330
47
100
AcDbScale
 70
     0
300
1/8" = 1'-0"
140
0.125
141
12.0
290
     0
  0
SCALE
  5
5F
102
{ACAD_REACTORS
330
47
102
}
330
47
100
AcDbScale
 70
     0
300
3/16" = 1'-0"
140
0.1875
141
12.0
290
     0
  0
SCALE
  5
60
102
{ACAD_REACTORS
330
47
102
}
330
47
100
AcDbScale
 70
     0
300
1/4" = 1'-0"
140
0.25
141
12.0
290
     0
  0
SCALE
  5
61
102
{ACAD_REACTORS
330
47
102
}
330
47
100
AcDbScale
 70
     0
300
3/8" = 1'-0"
140
0.375
141
12.0
290
     0
  0
SCALE
  5
62
102
{ACAD_REACTORS
330
47
102
}
330
47
100
AcDbScale
 70
     0
300
1/2" = 1'-0"
140
0.5
141
12.0
290
     0
  0
SCALE
  5
63
102
{ACAD_REACTORS
330
47
102
}
330
47
100
AcDbScale
 70
     0
300
3/4" = 1'-0"
140
0.75
141
12.0
290
     0
  0
SCALE
  5
64
102
{ACAD_REACTORS
330
47
102
}
330
47
100
AcDbScale
 70
     0
300
1" = 1'-0"
140
1.0
141
12.0
290
     0
  0
SCALE
  5
65
102
{ACAD_REACTORS
330
47
102
}
330
47
100
AcDbScale
 70
     0
300
1-1/2" = 1'-0"
140
1.5
141
12.0
290
     0
  0
SCALE
  5
66
102
{ACAD_REACTORS
330
47
102
}
330
47
100
AcDbScale
 70
     0
300
3" = 1'-0"
140
3.0
141
12.0
290
     0
  0
SCALE
  5
67
102
{ACAD_REACTORS
330
47
102
}
330
47
100
AcDbScale
 70
     0
300
6" = 1'-0"
140
6.0
141
12.0
290
     0
  0
SCALE
  5
68
102
{ACAD_REACTORS
330
47
102
}
330
47
100
AcDbScale
 70
     0
300
1'-0" = 1'-0"
140
12.0
141
12.0
290
     0
  0
ENDSEC
  0
EOF
