  0
SECTION
  2
HEADER
  9
$ACADVER
  1
AC1015
  9
$ACADMAINTVER
 70
     6
  9
$DWGCODEPAGE
  3
ANSI_1252
  9
$INSBASE
 10
0.0
 20
0.0
 30
0.0
  9
$EXTMIN
 10
-310.0
 20
-227.5
 30
0.0
  9
$EXTMAX
 10
310.0
 20
227.5
 30
0.0
  9
$LIMMIN
 10
0.0
 20
0.0
  9
$LIMMAX
 10
420.0
 20
297.0
  9
$ORTHOMODE
 70
     0
  9
$REGENMODE
 70
     1
  9
$FILLMODE
 70
     1
  9
$QTEXTMODE
 70
     0
  9
$MIRRTEXT
 70
     1
  9
$LTSCALE
 40
1.0
  9
$ATTMODE
 70
     1
  9
$TEXTSIZE
 40
3.5
  9
$TRACEWID
 40
1.0
  9
$TEXTSTYLE
  7
Standard
  9
$CLAYER
  8
0
  9
$CELTYPE
  6
ByLayer
  9
$CECOLOR
 62
   256
  9
$CELTSCALE
 40
1.0
  9
$DISPSILH
 70
     0
  9
$DIMSCALE
 40
1.0
  9
$DIMASZ
 40
3.302
  9
$DIMEXO
 40
1.0
  9
$DIMDLI
 40
3.75
  9
$DIMRND
 40
0.0
  9
$DIMDLE
 40
0.0
  9
$DIMEXE
 40
1.0
  9
$DIMTP
 40
0.0
  9
$DIMTM
 40
0.0
  9
$DIMTXT
 40
3.5
  9
$DIMCEN
 40
2.5
  9
$DIMTSZ
 40
0.0
  9
$DIMTOL
 70
     0
  9
$DIMLIM
 70
     0
  9
$DIMTIH
 70
     1
  9
$DIMTOH
 70
     1
  9
$DIMSE1
 70
     0
  9
$DIMSE2
 70
     0
  9
$DIMTAD
 70
     1
  9
$DIMZIN
 70
     1
  9
$DIMBLK
  1

  9
$DIMASO
 70
     1
  9
$DIMSHO
 70
     1
  9
$DIMPOST
  1

  9
$DIMAPOST
  1

  9
$DIMALT
 70
     0
  9
$DIMALTD
 70
     3
  9
$DIMALTF
 40
0.0393700787
  9
$DIMLFAC
 40
1.0
  9
$DIMTOFL
 70
     1
  9
$DIMTVP
 40
0.0
  9
$DIMTIX
 70
     0
  9
$DIMSOXD
 70
     0
  9
$DIMSAH
 70
     0
  9
$DIMBLK1
  1

  9
$DIMBLK2
  1

  9
$DIMSTYLE
  2
ISO-25
  9
$DIMCLRD
 70
     0
  9
$DIMCLRE
 70
     0
  9
$DIMCLRT
 70
     0
  9
$DIMTFAC
 40
1.0
  9
$DIMGAP
 40
1.524
  9
$DIMJUST
 70
     0
  9
$DIMSD1
 70
     0
  9
$DIMSD2
 70
     0
  9
$DIMTOLJ
 70
     0
  9
$DIMTZIN
 70
     1
  9
$DIMALTZ
 70
     0
  9
$DIMALTTZ
 70
     0
  9
$DIMUPT
 70
     0
  9
$DIMDEC
 70
     2
  9
$DIMTDEC
 70
     2
  9
$DIMALTU
 70
     2
  9
$DIMALTTD
 70
     3
  9
$DIMTXSTY
  7
Standard
  9
$DIMAUNIT
 70
     0
  9
$DIMADEC
 70
     2
  9
$DIMALTRND
 40
0.0
  9
$DIMAZIN
 70
     0
  9
$DIMDSEP
 70
    44
  9
$DIMATFIT
 70
     3
  9
$DIMFRAC
 70
     0
  9
$DIMLDRBLK
  1

  9
$DIMLUNIT
 70
     2
  9
$DIMLWD
 70
    -2
  9
$DIMLWE
 70
    -2
  9
$DIMTMOVE
 70
     0
  9
$LUNITS
 70
     2
  9
$LUPREC
 70
     2
  9
$SKETCHINC
 40
1.0
  9
$FILLETRAD
 40
10.0
  9
$AUNITS
 70
     0
  9
$AUPREC
 70
     2
  9
$MENU
  1
.
  9
$ELEVATION
 40
0.0
  9
$PELEVATION
 40
0.0
  9
$THICKNESS
 40
0.0
  9
$LIMCHECK
 70
     0
  9
$CHAMFERA
 40
0.0
  9
$CHAMFERB
 40
0.0
  9
$CHAMFERC
 40
0.0
  9
$CHAMFERD
 40
0.0
  9
$SKPOLY
 70
     0
  9
$TDCREATE
 40
2460409.642364445
  9
$TDUCREATE
 40
2460409.600697778
  9
$TDUPDATE
 40
2460409.642400104
  9
$TDUUPDATE
 40
2460409.600733438
  9
$TDINDWG
 40
0.0000000116
  9
$TDUSRTIMER
 40
0.0000000116
  9
$USRTIMER
 70
     1
  9
$ANGBASE
 50
0.0
  9
$ANGDIR
 70
     0
  9
$PDMODE
 70
     0
  9
$PDSIZE
 40
-1.0
  9
$PLINEWID
 40
0.0
  9
$SPLFRAME
 70
     0
  9
$SPLINETYPE
 70
     6
  9
$SPLINESEGS
 70
     8
  9
$HANDSEED
  5
382
  9
$SURFTAB1
 70
     6
  9
$SURFTAB2
 70
     6
  9
$SURFTYPE
 70
     6
  9
$SURFU
 70
     6
  9
$SURFV
 70
     6
  9
$UCSBASE
  2

  9
$UCSNAME
  2

  9
$UCSORG
 10
0.0
 20
0.0
 30
0.0
  9
$UCSXDIR
 10
1.0
 20
0.0
 30
0.0
  9
$UCSYDIR
 10
0.0
 20
1.0
 30
0.0
  9
$UCSORTHOREF
  2

  9
$UCSORTHOVIEW
 70
     0
  9
$UCSORGTOP
 10
0.0
 20
0.0
 30
0.0
  9
$UCSORGBOTTOM
 10
0.0
 20
0.0
 30
0.0
  9
$UCSORGLEFT
 10
0.0
 20
0.0
 30
0.0
  9
$UCSORGRIGHT
 10
0.0
 20
0.0
 30
0.0
  9
$UCSORGFRONT
 10
0.0
 20
0.0
 30
0.0
  9
$UCSORGBACK
 10
0.0
 20
0.0
 30
0.0
  9
$PUCSBASE
  2

  9
$PUCSNAME
  2

  9
$PUCSORG
 10
0.0
 20
0.0
 30
0.0
  9
$PUCSXDIR
 10
1.0
 20
0.0
 30
0.0
  9
$PUCSYDIR
 10
0.0
 20
1.0
 30
0.0
  9
$PUCSORTHOREF
  2

  9
$PUCSORTHOVIEW
 70
     0
  9
$PUCSORGTOP
 10
0.0
 20
0.0
 30
0.0
  9
$PUCSORGBOTTOM
 10
0.0
 20
0.0
 30
0.0
  9
$PUCSORGLEFT
 10
0.0
 20
0.0
 30
0.0
  9
$PUCSORGRIGHT
 10
0.0
 20
0.0
 30
0.0
  9
$PUCSORGFRONT
 10
0.0
 20
0.0
 30
0.0
  9
$PUCSORGBACK
 10
0.0
 20
0.0
 30
0.0
  9
$USERI1
 70
     0
  9
$USERI2
 70
     0
  9
$USERI3
 70
     0
  9
$USERI4
 70
     0
  9
$USERI5
 70
     0
  9
$USERR1
 40
0.0
  9
$USERR2
 40
0.0
  9
$USERR3
 40
0.0
  9
$USERR4
 40
0.0
  9
$USERR5
 40
0.0
  9
$WORLDVIEW
 70
     1
  9
$SHADEDGE
 70
     3
  9
$SHADEDIF
 70
    70
  9
$TILEMODE
 70
     1
  9
$MAXACTVP
 70
    64
  9
$PINSBASE
 10
0.0
 20
0.0
 30
0.0
  9
$PLIMCHECK
 70
     0
  9
$PEXTMIN
 10
-310.0
 20
-50.0
 30
0.0
  9
$PEXTMAX
 10
310.0
 20
120.0
 30
0.0
  9
$PLIMMIN
 10
-358.2490272374
 20
-68.093385214
  9
$PLIMMAX
 10
358.2490272374
 20
438.5214007782
  9
$UNITMODE
 70
     0
  9
$VISRETAIN
 70
     1
  9
$PLINEGEN
 70
     0
  9
$PSLTSCALE
 70
     1
  9
$TREEDEPTH
 70
  3020
  9
$CMLSTYLE
  2
Standard
  9
$CMLJUST
 70
     0
  9
$CMLSCALE
 40
20.0
  9
$PROXYGRAPHICS
 70
     1
  9
$MEASUREMENT
 70
     1
  9
$CELWEIGHT
370
    -1
  9
$ENDCAPS
280
     0
  9
$JOINSTYLE
280
     0
  9
$LWDISPLAY
290
     1
  9
$INSUNITS
 70
     4
  9
$HYPERLINKBASE
  1

  9
$STYLESHEET
  1

  9
$XEDIT
290
     1
  9
$CEPSNTYPE
380
     0
  9
$PSTYLEMODE
290
     1
  9
$FINGERPRINTGUID
  2
{88df5d77-0e77-41c1-a8a6-e7b0fb1b1b28}
  9
$VERSIONGUID
  2
{FAEB1C32-E019-11D5-929B-00C0DF256EC4}
  9
$EXTNAMES
290
     1
  9
$PSVPSCALE
 40
0.0
  9
$OLESTARTUP
290
     0
  0
ENDSEC
  0
SECTION
  2
CLASSES
  0
CLASS
  1
ACDBDICTIONARYWDFLT
  2
AcDbDictionaryWithDefault
  3
ObjectDBX Classes
 90
        0
280
     0
281
     0
  0
CLASS
  1
VISUALSTYLE
  2
AcDbVisualStyle
  3
ObjectDBX Classes
 90
     4095
280
     0
281
     0
  0
CLASS
  1
MATERIAL
  2
AcDbMaterial
  3
ObjectDBX Classes
 90
     1153
280
     0
281
     0
  0
CLASS
  1
SCALE
  2
AcDbScale
  3
ObjectDBX Classes
 90
     1153
280
     0
281
     0
  0
CLASS
  1
TABLESTYLE
  2
AcDbTableStyle
  3
ObjectDBX Classes
 90
     4095
280
     0
281
     0
  0
CLASS
  1
MLEADERSTYLE
  2
AcDbMLeaderStyle
  3
ACDB_MLEADERSTYLE_CLASS
 90
     4095
280
     0
281
     0
  0
CLASS
  1
SUN
  2
AcDbSun
  3
SCENEOE
 90
     1153
280
     0
281
     0
  0
CLASS
  1
ACDBPLACEHOLDER
  2
AcDbPlaceHolder
  3
ObjectDBX Classes
 90
        0
280
     0
281
     0
  0
CLASS
  1
LAYOUT
  2
AcDbLayout
  3
ObjectDBX Classes
 90
        0
280
     0
281
     0
  0
ENDSEC
  0
SECTION
  2
TABLES
  0
TABLE
  2
VPORT
  5
8
330
0
100
AcDbSymbolTable
 70
     1
  0
VPORT
  5
29
330
8
100
AcDbSymbolTableRecord
100
AcDbViewportTableRecord
  2
*Active
 70
     0
 10
0.0
 20
0.0
 11
1.0
 21
1.0
 12
0.0
 22
0.0
 13
0.0
 23
0.0
 14
10.0
 24
10.0
 15
10.0
 25
10.0
 16
0.0
 26
0.0
 36
1.0
 17
0.0
 27
0.0
 37
0.0
 40
464.1
 41
1.3626373626
 42
50.0
 43
0.0
 44
0.0
 50
0.0
 51
0.0
 71
     0
 72
   100
 73
     1
 74
     3
 75
     0
 76
     0
 77
     0
 78
     0
281
     0
 65
     1
110
0.0
120
0.0
130
0.0
111
1.0
121
0.0
131
0.0
112
0.0
122
1.0
132
0.0
 79
     0
146
0.0
  0
ENDTAB
  0
TABLE
  2
LTYPE
  5
5
330
0
100
AcDbSymbolTable
 70
     6
  0
LTYPE
  5
14
330
5
100
AcDbSymbolTableRecord
100
AcDbLinetypeTableRecord
  2
ByBlock
 70
     0
  3

 72
    65
 73
     0
 40
0.0
  0
LTYPE
  5
15
330
5
100
AcDbSymbolTableRecord
100
AcDbLinetypeTableRecord
  2
ByLayer
 70
     0
  3

 72
    65
 73
     0
 40
0.0
  0
LTYPE
  5
16
330
5
100
AcDbSymbolTableRecord
100
AcDbLinetypeTableRecord
  2
Continuous
 70
     0
  3
Solid line
 72
    65
 73
     0
 40
0.0
  0
LTYPE
  5
6E
330
5
100
AcDbSymbolTableRecord
100
AcDbLinetypeTableRecord
  2
HIDDEN
 70
     0
  3
Hidden __ __ __ __ __ __ __ __ __ __ __ __ __ __
 72
    65
 73
     2
 40
1.905
 49
1.27
 74
     0
 49
-0.635
 74
     0
  0
LTYPE
  5
6F
330
5
100
AcDbSymbolTableRecord
100
AcDbLinetypeTableRecord
  2
PHANTOM
 70
     0
  3
Phantom ______  __  __  ______  __  __  ______
 72
    65
 73
     6
 40
12.7
 49
6.35
 74
     0
 49
-1.27
 74
     0
 49
1.27
 74
     0
 49
-1.27
 74
     0
 49
1.27
 74
     0
 49
-1.27
 74
     0
  0
LTYPE
  5
70
330
5
100
AcDbSymbolTableRecord
100
AcDbLinetypeTableRecord
  2
CENTER
 70
     0
  3
Center ____ _ ____ _ ____ _ ____ _ ____ _ ____
 72
    65
 73
     4
 40
10.16
 49
6.35
 74
     0
 49
-1.27
 74
     0
 49
1.27
 74
     0
 49
-1.27
 74
     0
  0
LTYPE
  5
71
330
5
100
AcDbSymbolTableRecord
100
AcDbLinetypeTableRecord
  2
CENTERX2
 70
     0
  3
Center (2x) ________  __  ________  __  _____
 72
    65
 73
     4
 40
20.32
 49
12.7
 74
     0
 49
-2.54
 74
     0
 49
2.54
 74
     0
 49
-2.54
 74
     0
  0
LTYPE
  5
72
330
5
100
AcDbSymbolTableRecord
100
AcDbLinetypeTableRecord
  2
DOT2
 70
     0
  3
Dot (.5x) ........................................
 72
    65
 73
     2
 40
0.635
 49
0.0
 74
     0
 49
-0.635
 74
     0
  0
ENDTAB
  0
TABLE
  2
LAYER
  5
2
330
0
100
AcDbSymbolTable
 70
     1
  0
LAYER
  5
10
330
2
100
AcDbSymbolTableRecord
100
AcDbLayerTableRecord
  2
0
 70
     0
 62
     7
  6
Continuous
370
    -3
390
F
  0
ENDTAB
  0
TABLE
  2
STYLE
  5
3
330
0
100
AcDbSymbolTable
 70
     1
  0
STYLE
  5
11
330
3
100
AcDbSymbolTableRecord
100
AcDbTextStyleTableRecord
  2
Standard
 70
     0
 40
0.0
 41
1.0
 50
0.0
 71
     0
 42
3.5
  3
txt
  4

  0
ENDTAB
  0
TABLE
  2
VIEW
  5
6
330
0
100
AcDbSymbolTable
 70
     0
  0
ENDTAB
  0
TABLE
  2
UCS
  5
7
330
0
100
AcDbSymbolTable
 70
     0
  0
ENDTAB
  0
TABLE
  2
APPID
  5
9
330
0
100
AcDbSymbolTable
 70
     1
  0
APPID
  5
12
330
9
100
AcDbSymbolTableRecord
100
AcDbRegAppTableRecord
  2
ACAD
 70
     0
  0
ENDTAB
  0
TABLE
  2
DIMSTYLE
  5
A
330
0
100
AcDbSymbolTable
 70
     1
100
AcDbDimStyleTable
  0
DIMSTYLE
105
27
330
A
100
AcDbSymbolTableRecord
100
AcDbDimStyleTableRecord
  2
ISO-25
 70
     0
 41
2.5
 42
0.625
 43
3.75
 44
1.25
 73
     0
 74
     0
 77
     1
 78
     8
140
2.5
141
2.5
143
0.0393700787
147
0.625
171
     3
172
     1
178
     0
271
     2
272
     2
274
     3
278
    44
283
     0
284
     8
340
11
  0
ENDTAB
  0
TABLE
  2
BLOCK_RECORD
  5
1
330
0
100
AcDbSymbolTable
 70
     3
  0
BLOCK_RECORD
  5
1F
330
1
100
AcDbSymbolTableRecord
100
AcDbBlockTableRecord
  2
*Model_Space
340
22
  0
BLOCK_RECORD
  5
1B
330
1
100
AcDbSymbolTableRecord
100
AcDbBlockTableRecord
  2
*Paper_Space
340
1E
  0
BLOCK_RECORD
  5
23
330
1
100
AcDbSymbolTableRecord
100
AcDbBlockTableRecord
  2
*Paper_Space0
340
26
  0
BLOCK_RECORD
  5
228
330
1
100
AcDbSymbolTableRecord
100
AcDbBlockTableRecord
  2
*Paper_Space1
340
229
  0
BLOCK_RECORD
  5
2E9
330
1
100
AcDbSymbolTableRecord
100
AcDbBlockTableRecord
  2
*Paper_Space2
340
2EA
  0
ENDTAB
  0
ENDSEC
  0
SECTION
  2
BLOCKS
  0
BLOCK
  5
20
330
1F
100
AcDbEntity
  8
0
100
AcDbBlockBegin
  2
*Model_Space
 70
     0
 10
0.0
 20
0.0
 30
0.0
  3
*Model_Space
  1

  0
ENDBLK
  5
21
330
1F
100
AcDbEntity
  8
0
100
AcDbBlockEnd
  0
BLOCK
  5
1C
330
1B
100
AcDbEntity
 67
     1
  8
0
100
AcDbBlockBegin
  2
*Paper_Space
 70
     0
 10
0.0
 20
0.0
 30
0.0
  3
*Paper_Space
  1

  0
ENDBLK
  5
1D
330
1B
100
AcDbEntity
 67
     1
  8
0
100
AcDbBlockEnd
  0
BLOCK
  5
24
330
23
100
AcDbEntity
  8
0
100
AcDbBlockBegin
  2
*Paper_Space0
 70
     0
 10
0.0
 20
0.0
 30
0.0
  3
*Paper_Space0
  1

  0
SPLINE
  5
1A2
330
23
100
AcDbEntity
  8
0
  6
Continuous
 62
     7
370
    25
100
AcDbSpline
210
0.0
220
0.0
230
1.0
 70
     8
 71
     3
 72
    27
 73
    23
 74
     0
 42
0.000000001
 43
0.00000001
 40
0.0
 40
0.0
 40
0.0
 40
0.0
 40
0.0508809169356263
 40
0.1019720153014659
 40
0.1490538724234634
 40
0.1919972603565483
 40
0.2308389693718262
 40
0.2666391803467276
 40
0.3393388639237496
 40
0.4141967583130466
 40
0.4757689707588121
 40
0.5390162119165145
 40
0.6040735698094868
 40
0.6682551814294578
 40
0.7216249623739899
 40
0.792316573978431
 40
0.8600967788900175
 40
0.881921340169475
 40
0.904063337172378
 40
0.9286539037590001
 40
0.9605639313709516
 40
0.9999999999999999
 40
0.9999999999999999
 40
0.9999999999999999
 40
0.9999999999999999
 10
-191.4977412948691
 20
38.64787144245651
 30
0.0
 10
-189.9368771857307
 20
36.45111484164957
 30
0.0
 10
-186.8087012721176
 20
32.04852716826915
 30
0.0
 10
-181.6718053735398
 20
26.0454780395625
 30
0.0
 10
-176.4807161780769
 20
20.6679778503646
 30
0.0
 10
-171.447061336509
 20
16.05685828287093
 30
0.0
 10
-166.6356588961717
 20
12.10269297538001
 30
0.0
 10
-160.3701519828253
 20
7.452238654941934
 30
0.0
 10
-152.1656461241986
 20
2.233762882922152
 30
0.0
 10
-142.2671335922273
 20
-2.767128081291856
 30
0.0
 10
-132.427839909802
 20
-6.663931955124768
 30
0.0
 10
-122.7954189164589
 20
-9.576075196999184
 30
0.0
 10
-112.8160692707016
 20
-11.71319918899657
 30
0.0
 10
-103.2028308040602
 20
-12.82480773174532
 30
0.0
 10
-93.2626168114299
 20
-13.53239406226536
 30
0.0
 10
-83.1258530224092
 20
-14.16957625624729
 30
0.0
 10
-74.64698582822733
 20
-14.53509372059889
 30
0.0
 10
-68.73412648974103
 20
-14.72664209152356
 30
0.0
 10
-65.10594308435289
 20
-14.82397140378604
 30
0.0
 10
-60.94343621580256
 20
-14.91067066599295
 30
0.0
 10
-55.86491299132199
 20
-14.98361008166756
 30
0.0
 10
-52.08778291614432
 20
-14.99416554149362
 30
0.0
 10
-49.99999999999998
 20
-15.00000000000001
 30
0.0
  0
SPLINE
  5
1BD
330
23
100
AcDbEntity
  8
0
  6
Continuous
 62
     7
370
    25
100
AcDbSpline
210
0.0
220
0.0
230
1.0
 70
    24
 71
     3
 72
    16
 73
    12
 74
     0
 42
0.000000001
 43
0.00000001
 40
0.0
 40
0.0
 40
0.0
 40
0.0
 40
0.1250000000000014
 40
0.1250000000000014
 40
0.1875000000000023
 40
0.1875000000000023
 40
0.2500000000000032
 40
0.2500000000000032
 40
0.4999999999999993
 40
0.4999999999999993
 40
1.0
 40
1.0
 40
1.0
 40
1.0
 10
227.5
 20
40.00000000000001
 30
0.0
 10
227.5000000000001
 20
40.00000000000001
 30
0.0
 10
227.5
 20
39.96063694525327
 30
0.0
 10
227.5
 20
39.8491161413188
 30
0.0
 10
227.5
 20
39.80313055851013
 30
0.0
 10
227.5
 20
39.69402238037019
 30
0.0
 10
227.5
 20
39.63059350038798
 30
0.0
 10
227.5000000000001
 20
39.27812766765426
 30
0.0
 10
227.5000000000001
 20
38.88101831419971
 30
0.0
 10
227.5000000000001
 20
37.44297388272116
 30
0.0
 10
227.5
 20
36.22395541668487
 30
0.0
 10
227.5
 20
35.00000000000001
 30
0.0
  0
SPLINE
  5
1D1
330
23
100
AcDbEntity
  8
0
  6
Continuous
 62
     7
370
    25
100
AcDbSpline
210
0.0
220
0.0
230
1.0
 70
     8
 71
     3
 72
    18
 73
    14
 74
     0
 42
0.000000001
 43
0.00000001
 40
0.0
 40
0.0
 40
0.0
 40
0.0
 40
0.2500000000000081
 40
0.2500000000000081
 40
0.5000000000000162
 40
0.5000000000000162
 40
0.6250000000000121
 40
0.6250000000000121
 40
0.7500000000000081
 40
0.7500000000000081
 40
0.875000000000004
 40
0.875000000000004
 40
1.0
 40
1.0
 40
1.0
 40
1.0
 10
-73.21122444967412
 20
38.01389727933076
 30
0.0
 10
-73.27125685949918
 20
38.15831936737496
 30
0.0
 10
-73.35009618074766
 20
38.3012189856071
 30
0.0
 10
-73.56103512262479
 20
38.58247295852229
 30
0.0
 10
-73.69311229212049
 20
38.71992367234173
 30
0.0
 10
-73.93887096396747
 20
38.90325711042563
 30
0.0
 10
-74.02760920812439
 20
38.95957736320143
 30
0.0
 10
-74.2168582862762
 20
39.05887615865812
 30
0.0
 10
-74.31891761994193
 20
39.10232399896593
 30
0.0
 10
-74.52460206881905
 20
39.17039037380212
 30
0.0
 10
-74.6308352502792
 20
39.19603098185654
 30
0.0
 10
-74.84087751769911
 20
39.22928268785232
 30
0.0
 10
-74.94361289000307
 20
39.23699864888851
 30
0.0
 10
-75.04439356485037
 20
39.23712166394748
 30
0.0
  0
SPLINE
  5
1D4
330
23
100
AcDbEntity
  8
0
  6
Continuous
 62
     7
370
    25
100
AcDbSpline
210
0.0
220
0.0
230
1.0
 70
     8
 71
     3
 72
    14
 73
    10
 74
     0
 42
0.000000001
 43
0.00000001
 40
0.0
 40
0.0
 40
0.0
 40
0.0
 40
0.25
 40
0.25
 40
0.5
 40
0.5
 40
0.75
 40
0.75
 40
1.0
 40
1.0
 40
1.0
 40
1.0
 10
-61.82292767296573
 20
10.57104278848163
 30
0.0
 10
-62.62246150464258
 20
12.50375831659444
 30
0.0
 10
-63.46310197275867
 20
14.53345017003641
 30
0.0
 10
-65.21947170844925
 20
18.77115059828516
 30
0.0
 10
-66.1356810714748
 20
20.97993210602014
 30
0.0
 10
-68.04098908750413
 20
25.57043465740574
 30
0.0
 10
-69.03101326509866
 20
27.95438116722313
 30
0.0
 10
-71.07384459194762
 20
32.87150196416037
 30
0.0
 10
-72.12710136419717
 20
35.40578409250546
 30
0.0
 10
-73.21122444967445
 20
38.01389727933068
 30
0.0
  0
SPLINE
  5
1D6
330
23
100
AcDbEntity
  8
0
  6
Continuous
 62
     7
370
    25
100
AcDbSpline
210
0.0
220
0.0
230
1.0
 70
    24
 71
     3
 72
    30
 73
    26
 74
     0
 42
0.000000001
 43
0.00000001
 40
0.0
 40
0.0
 40
0.0
 40
0.0
 40
0.0435241131952037
 40
0.087095288431236
 40
0.1306171491422196
 40
0.1741420099822588
 40
0.2177124311119299
 40
0.2612342918227284
 40
0.3047591526610257
 40
0.3483295737871443
 40
0.3918514345032068
 40
0.4353762953405354
 40
0.4789467164762791
 40
0.5224685771837677
 40
0.5659934380286207
 40
0.6095638591547717
 40
0.6530857198642464
 40
0.6966105807054299
 40
0.740181001835379
 40
0.7837028625447576
 40
0.827227723384615
 40
0.8707981445130876
 40
0.9143200052252561
 40
0.9578448660641415
 40
1.0
 40
1.0
 40
1.0
 40
1.0
 10
-49.99999999999997
 20
-15.00000000000001
 30
0.0
 10
-49.91767933618439
 20
-15.00000000000001
 30
0.0
 10
-49.75294899632171
 20
-15.00000000000001
 30
0.0
 10
-48.42475669276956
 20
-15.00000000000001
 30
0.0
 10
-46.32839360209898
 20
-15.00000000000001
 30
0.0
 10
-43.42490542887035
 20
-15.00000000000001
 30
0.0
 10
-39.7817092034374
 20
-15.00000000000001
 30
0.0
 10
-35.45600266850196
 20
-15.00000000000001
 30
0.0
 10
-30.52545874439899
 20
-15.00000000000001
 30
0.0
 10
-25.07165635822703
 20
-15.00000000000001
 30
0.0
 10
-19.18859923191878
 20
-15.00000000000001
 30
0.0
 10
-12.97802509248586
 20
-15.00000000000001
 30
0.0
 10
-6.544875297625759
 20
-15.00000000000001
 30
0.0
 10
0.0001492584721721
 20
-15.00000000000001
 30
0.0
 10
6.545180259696426
 20
-15.00000000000001
 30
0.0
 10
12.97830875910131
 20
-15.00000000000001
 30
0.0
 10
19.18886974636926
 20
-15.00000000000001
 30
0.0
 10
25.0719573126639
 20
-15.00000000000001
 30
0.0
 10
30.52560394239978
 20
-15.00000000000001
 30
0.0
 10
35.45647846714645
 20
-15.00000000000001
 30
0.0
 10
39.78093581222285
 20
-15.00000000000001
 30
0.0
 10
43.4287162612127
 20
-15.00000000000001
 30
0.0
 10
46.31474042353189
 20
-15.00000000000001
 30
0.0
 10
48.45284758565317
 20
-15.00000000000001
 30
0.0
 10
49.17583735830631
 20
-15.00000000000001
 30
0.0
 10
49.53155319116291
 20
-15.00000000000001
 30
0.0
  0
SPLINE
  5
1D7
330
23
100
AcDbEntity
  8
0
  6
Continuous
 62
     7
370
    25
100
AcDbSpline
210
0.0
220
0.0
230
1.0
 70
     8
 71
     3
 72
    22
 73
    18
 74
     0
 42
0.000000001
 43
0.00000001
 40
0.0
 40
0.0
 40
0.0
 40
0.0
 40
0.2500000000000026
 40
0.2500000000000026
 40
0.5000000000000051
 40
0.5000000000000051
 40
0.6250000000000064
 40
0.6250000000000064
 40
0.7500000000000077
 40
0.7500000000000077
 40
0.8125000000000058
 40
0.8125000000000058
 40
0.8750000000000038
 40
0.8750000000000038
 40
0.9375000000000019
 40
0.9375000000000019
 40
1.0
 40
1.0
 40
1.0
 40
1.0
 10
-61.82292767296573
 20
10.57104278848163
 30
0.0
 10
-61.6886255175944
 20
10.24639378569854
 30
0.0
 10
-61.52072900079449
 20
9.921229966038837
 30
0.0
 10
-61.09386910819754
 20
9.270031757964793
 30
0.0
 10
-60.83857552925214
 20
8.947751629710561
 30
0.0
 10
-60.35373177054755
 20
8.469568536374032
 30
0.0
 10
-60.17312949657016
 20
8.309751306850833
 30
0.0
 10
-59.77019278449445
 20
7.999088437508202
 30
0.0
 10
-59.54913637371883
 20
7.848720035064889
 30
0.0
 10
-59.17427378145491
 20
7.633522971297026
 30
0.0
 10
-59.04128303817882
 20
7.56327205167873
 30
0.0
 10
-58.76501159714806
 20
7.431022113554012
 30
0.0
 10
-58.62104584112106
 20
7.368568385913755
 30
0.0
 10
-58.31935827498675
 20
7.25223167985399
 30
0.0
 10
-58.16274877204867
 20
7.19893607053294
 30
0.0
 10
-57.84661481617208
 20
7.105764534074479
 30
0.0
 10
-57.68583403944243
 20
7.065384446808636
 30
0.0
 10
-57.5222302173464
 20
7.031446807485384
 30
0.0
  0
SPLINE
  5
1D8
330
23
100
AcDbEntity
  8
0
  6
Continuous
 62
     7
370
    25
100
AcDbSpline
210
0.0
220
0.0
230
1.0
 70
     8
 71
     3
 72
    42
 73
    38
 74
     0
 42
0.000000001
 43
0.00000001
 40
0.0
 40
0.0
 40
0.0
 40
0.0
 40
0.1250000000000003
 40
0.1250000000000003
 40
0.2500000000000006
 40
0.2500000000000006
 40
0.3125000000000005
 40
0.3125000000000005
 40
0.3437500000000007
 40
0.3437500000000007
 40
0.3750000000000008
 40
0.3750000000000008
 40
0.5000000000000022
 40
0.5000000000000022
 40
0.5625000000000029
 40
0.5625000000000029
 40
0.5937500000000033
 40
0.5937500000000033
 40
0.6250000000000038
 40
0.6250000000000038
 40
0.6875000000000042
 40
0.6875000000000042
 40
0.7500000000000048
 40
0.7500000000000048
 40
0.8125000000000052
 40
0.8125000000000052
 40
0.8281250000000052
 40
0.8281250000000052
 40
0.835937500000005
 40
0.835937500000005
 40
0.8437500000000049
 40
0.8437500000000049
 40
0.8750000000000039
 40
0.8750000000000039
 40
0.937500000000002
 40
0.937500000000002
 40
1.0
 40
1.0
 40
1.0
 40
1.0
 10
9.242863671746749
 20
-6.87825206512005
 30
0.0
 10
6.967137945202274
 20
-6.404221598003815
 30
0.0
 10
4.625117684709846
 20
-5.915726489000406
 30
0.0
 10
-0.2122073617972838
 20
-4.907334501008366
 30
0.0
 10
-2.706743554393035
 20
-4.38693348571001
 30
0.0
 10
-6.583070809799833
 20
-3.577863827967806
 30
0.0
 10
-7.897718001217997
 20
-3.303406044916343
 30
0.0
 10
-9.907406420277763
 20
-2.88378442814536
 30
0.0
 10
-10.58463495962437
 20
-2.742368878887874
 30
0.0
 10
-11.94557026792987
 20
-2.458174161174102
 30
0.0
 10
-12.62952839921761
 20
-2.31534255439151
 30
0.0
 10
-16.06742524318325
 20
-1.597405002906199
 30
0.0
 10
-18.87539690970725
 20
-1.011018944173624
 30
0.0
 10
-23.1893231774809
 20
-0.1107238041193406
 30
0.0
 10
-24.64435864191888
 20
0.1928375093564957
 30
0.0
 10
-26.85497898371377
 20
0.6538096741971964
 30
0.0
 10
-27.5965307877498
 20
0.8084058861138055
 30
0.0
 10
-29.08947951307482
 20
1.119567714881802
 30
0.0
 10
-29.84012833231266
 20
1.275976382866764
 30
0.0
 10
-32.09048229620088
 20
1.744727058749319
 30
0.0
 10
-33.59383443499762
 20
2.057683602572455
 30
0.0
 10
-36.60698353426085
 20
2.684514560765308
 30
0.0
 10
-38.11734241511515
 20
2.998506349384068
 30
0.0
 10
-41.11379876722277
 20
3.62104763898552
 30
0.0
 10
-42.60373592757642
 20
3.930395693558686
 30
0.0
 10
-44.45594767000987
 20
4.314779688350628
 30
0.0
 10
-44.82588380756941
 20
4.391542523060052
 30
0.0
 10
-45.37990264893953
 20
4.506491581350383
 30
0.0
 10
-45.56437117872828
 20
4.545063113549512
 30
0.0
 10
-45.93397231779733
 20
4.622691112981403
 30
0.0
 10
-46.11898694601524
 20
4.661494158859327
 30
0.0
 10
-47.04500420472913
 20
4.855467229183737
 30
0.0
 10
-47.78873585948004
 20
5.010519901858374
 30
0.0
 10
-50.02474202444652
 20
5.475964960226062
 30
0.0
 10
-51.52182653295326
 20
5.786538722746672
 30
0.0
 10
-54.51999488939984
 20
6.408693508256118
 30
0.0
 10
-56.02118110574124
 20
6.720072276600229
 30
0.0
 10
-57.52223021734675
 20
7.031446807485409
 30
0.0
  0
SPLINE
  5
1DB
330
23
100
AcDbEntity
  8
0
  6
Continuous
 62
     7
370
    25
100
AcDbSpline
210
0.0
220
0.0
230
1.0
 70
    24
 71
     3
 72
    14
 73
    10
 74
     0
 42
0.000000001
 43
0.00000001
 40
0.0
 40
0.0
 40
0.0
 40
0.0
 40
0.2499999999999996
 40
0.2499999999999996
 40
0.4999999999999992
 40
0.4999999999999992
 40
0.7499999999999996
 40
0.7499999999999996
 40
1.0
 40
1.0
 40
1.0
 40
1.0
 10
49.99999999999998
 20
-15.00000000000001
 30
0.0
 10
49.99999999999998
 20
-15.00000000000001
 30
0.0
 10
49.99999999999998
 20
-15.07460983029433
 30
0.0
 10
49.99999999999998
 20
-15.36228704230497
 30
0.0
 10
49.99999999999999
 20
-15.57525093268101
 30
0.0
 10
49.99999999999998
 20
-16.10871026528712
 30
0.0
 10
49.99999999999998
 20
-16.42901379651757
 30
0.0
 10
49.99999999999999
 20
-17.13056634502765
 30
0.0
 10
49.99999999999998
 20
-17.51156298008684
 30
0.0
 10
49.99999999999998
 20
-17.89530150989251
 30
0.0
  0
LWPOLYLINE
  5
1DD
330
23
100
AcDbEntity
  8
0
  6
Continuous
 62
     7
370
    25
100
AcDbPolyline
 90
        3
 70
   128
 43
0.0
 10
32.317693478
 20
-17.8953015099
 10
32.6985217414
 20
-27.427843757
 10
33.0748854387
 20
-37.1046984901
  0
LWPOLYLINE
  5
1DF
330
23
100
AcDbEntity
  8
0
  6
Continuous
 62
     7
370
    25
100
AcDbPolyline
 90
        9
 70
   128
 43
0.0
 10
32.317693478
 20
-15.0
 10
31.9354546507
 20
-15.0576441588
 10
31.5679050472
 20
-15.2283614025
 10
31.2291693926
 20
-15.5055911631
 10
30.9322651081
 20
-15.8786796564
 10
30.688602059
 20
-16.3332893009
 10
30.5075440794
 20
-16.8519497029
 10
30.3960491261
 20
-17.414729034
 10
30.3584018876
 20
-18.0
  0
LWPOLYLINE
  5
1E0
330
23
100
AcDbEntity
  8
0
  6
Continuous
 62
     7
370
    25
100
AcDbPolyline
 90
        3
 70
   128
 43
0.0
 10
31.0558155356
 20
-37.2093969802
 10
30.7091647618
 20
-27.5325422471
 10
30.3584018876
 20
-18.0
  0
SPLINE
  5
1E1
330
23
100
AcDbEntity
  8
0
  6
Continuous
 62
     7
370
    25
100
AcDbSpline
210
0.0
220
0.0
230
1.0
 70
     8
 71
     3
 72
    24
 73
    20
 74
     0
 42
0.000000001
 43
0.00000001
 40
0.0
 40
0.0
 40
0.0
 40
0.0
 40
0.0624999999999997
 40
0.0624999999999997
 40
0.1249999999999994
 40
0.1249999999999994
 40
0.2500000000000004
 40
0.2500000000000004
 40
0.3750000000000014
 40
0.3750000000000014
 40
0.5000000000000024
 40
0.5000000000000024
 40
0.6250000000000034
 40
0.6250000000000034
 40
0.6875000000000033
 40
0.6875000000000033
 40
0.7500000000000032
 40
0.7500000000000032
 40
1.0
 40
1.0
 40
1.0
 40
1.0
 10
31.05581553564451
 20
-37.20939698021501
 30
0.0
 10
31.06347014228596
 20
-37.4259555268758
 30
0.0
 10
31.08289806320962
 20
-37.64006845547902
 30
0.0
 10
31.14411278796177
 20
-38.06362091183095
 30
0.0
 10
31.18617906372351
 20
-38.27364653033371
 30
0.0
 10
31.34051548417684
 20
-38.88269287830713
 30
0.0
 10
31.4817014577595
 20
-39.26726797786484
 30
0.0
 10
31.82266890122063
 20
-39.99127373325783
 30
0.0
 10
32.01762796679724
 20
-40.32148227256623
 30
0.0
 10
32.4435675721359
 20
-40.93029494204104
 30
0.0
 10
32.67644613523667
 20
-41.20997322428821
 30
0.0
 10
33.15454845399801
 20
-41.7040732491306
 30
0.0
 10
33.40147935547041
 20
-41.92131261195464
 30
0.0
 10
33.78064150287776
 20
-42.20595576061694
 30
0.0
 10
33.90851518299526
 20
-42.29390342623146
 30
0.0
 10
34.1669836465357
 20
-42.45581167545983
 30
0.0
 10
34.29815392738232
 20
-42.53002883225364
 30
0.0
 10
34.95033758292896
 20
-42.85989978867541
 30
0.0
 10
35.46356745259945
 20
-43.00000000000002
 30
0.0
 10
35.96604704932424
 20
-43.00000000000001
 30
0.0
  0
SPLINE
  5
1E8
330
23
100
AcDbEntity
  8
0
  6
Continuous
 62
     7
370
    25
100
AcDbSpline
210
0.0
220
0.0
230
1.0
 70
     8
 71
     3
 72
    22
 73
    18
 74
     0
 42
0.000000001
 43
0.00000001
 40
0.0
 40
0.0
 40
0.0
 40
0.0
 40
0.2500000000000025
 40
0.2500000000000025
 40
0.3750000000000025
 40
0.3750000000000025
 40
0.5000000000000026
 40
0.5000000000000026
 40
0.6250000000000026
 40
0.6250000000000026
 40
0.7500000000000026
 40
0.7500000000000026
 40
0.8750000000000027
 40
0.8750000000000027
 40
0.9375000000000013
 40
0.9375000000000013
 40
1.0
 40
1.0
 40
1.0
 40
1.0
 10
38.40599393926632
 20
-40.00000000000001
 30
0.0
 10
37.91195488549081
 20
-40.00000000000001
 30
0.0
 10
37.41239965871964
 20
-39.94228074473127
 30
0.0
 10
36.6563972414809
 20
-39.78297409373623
 30
0.0
 10
36.40277742073516
 20
-39.71719643108457
 30
0.0
 10
35.90062586201173
 20
-39.56147258381955
 30
0.0
 10
35.65132857585952
 20
-39.47146361509936
 30
0.0
 10
35.15783539422242
 20
-39.2637412750848
 30
0.0
 10
34.9132954775229
 20
-39.14603218375598
 30
0.0
 10
34.43383056006812
 20
-38.87435054245296
 30
0.0
 10
34.20209289453523
 20
-38.72264277257531
 30
0.0
 10
33.76569621732777
 20
-38.37011113757782
 30
0.0
 10
33.55822143411569
 20
-38.16758027568856
 30
0.0
 10
33.30747098745337
 20
-37.80904389748929
 30
0.0
 10
33.23365416058881
 20
-37.67892563637362
 30
0.0
 10
33.12276715208906
 20
-37.40120839787142
 30
0.0
 10
33.08654484336856
 20
-37.25660741084288
 30
0.0
 10
33.07488543869974
 20
-37.10469849010753
 30
0.0
  0
SPLINE
  5
1EB
330
23
100
AcDbEntity
  8
0
  6
Continuous
 62
     8
370
    25
100
AcDbSpline
210
0.0
220
0.0
230
1.0
 70
     8
 71
     3
 72
    31
 73
    27
 74
     0
 42
0.000000001
 43
0.00000001
 40
0.0
 40
0.0
 40
0.0
 40
0.0
 40
0.0414975363161986
 40
0.0831497434894265
 40
0.1253326149477437
 40
0.1677189319141846
 40
0.1950340669439274
 40
0.2223489443658185
 40
0.2499073726105651
 40
0.2774657179471558
 40
0.3057976698301452
 40
0.334129727014945
 40
0.3627255106528281
 40
0.3913215436568711
 40
0.4456452019217052
 40
0.5003884608751394
 40
0.5563717638698157
 40
0.5845373789174055
 40
0.6127098684550202
 40
0.6704344024878387
 40
0.728163869127868
 40
0.7858724327448631
 40
0.8436411265309816
 40
0.9018905444454705
 40
0.9603273826650239
 40
1.0
 40
1.0
 40
1.0
 40
1.0
 10
-75.04439356485038
 20
39.23712166394736
 30
0.0
 10
-78.48120817060952
 20
39.24063746420208
 30
0.0
 10
-85.36764718019569
 20
39.24768216890727
 30
0.0
 10
-95.35983400056269
 20
39.25088801144722
 30
0.0
 10
-105.053252408995
 20
39.25023207482948
 30
0.0
 10
-113.2392663698317
 20
39.24612630301567
 30
0.0
 10
-120.0113583452503
 20
39.24037801942534
 30
0.0
 10
-125.5185800504655
 20
39.23406686971271
 30
0.0
 10
-130.795822552109
 20
39.22632109410991
 30
0.0
 10
-135.8770610203109
 20
39.2170308020489
 30
0.0
 10
-140.7256688777729
 20
39.2061445165369
 30
0.0
 10
-145.3391320373065
 20
39.19353795542059
 30
0.0
 10
-149.6604051149158
 20
39.17921782940576
 30
0.0
 10
-154.8870977636502
 20
39.15824573691824
 30
0.0
 10
-160.601927386024
 20
39.12790563164295
 30
0.0
 10
-166.2489716321994
 20
39.0840022436371
 30
0.0
 10
-170.0082945286505
 20
39.03879714077379
 30
0.0
 10
-172.2760622852207
 20
39.00011556893134
 30
0.0
 10
-174.4219998219278
 20
38.9624775154523
 30
0.0
 10
-177.582510129593
 20
38.90853888407083
 30
0.0
 10
-181.4148858209398
 20
38.84608908852213
 30
0.0
 10
-184.9172875195334
 20
38.79227787553686
 30
0.0
 10
-187.9014991290156
 20
38.74954049459551
 30
0.0
 10
-190.1148304727564
 20
38.71839728458719
 30
0.0
 10
-191.4204519030749
 20
38.69904553143012
 30
0.0
 10
-191.425168159871
 20
38.69890898915542
 30
0.0
 10
-191.4270752772845
 20
38.69885377542109
 30
0.0
  0
SPLINE
  5
1EC
330
23
100
AcDbEntity
  8
0
  6
Continuous
 62
     8
370
    25
100
AcDbSpline
210
0.0
220
0.0
230
1.0
 70
     8
 71
     3
 72
     9
 73
     5
 74
     0
 42
0.000000001
 43
0.00000001
 40
0.0
 40
0.0
 40
0.0
 40
0.0
 40
0.5564752585247053
 40
1.0
 40
1.0
 40
1.0
 40
1.0
 10
12.0540932014657
 20
-7.187059935659039
 30
0.0
 10
11.49682870388453
 20
-7.153866772374077
 30
0.0
 10
10.49541042150024
 20
-7.094217825225992
 30
0.0
 10
9.627710191801802
 20
-6.944607808922962
 30
0.0
 10
9.242863671746749
 20
-6.87825206512005
 30
0.0
  0
SPLINE
  5
1ED
330
23
100
AcDbEntity
  8
0
  6
Continuous
 62
     8
370
    25
100
AcDbSpline
210
0.0
220
0.0
230
1.0
 70
     8
 71
     3
 72
     9
 73
     5
 74
     0
 42
0.000000001
 43
0.00000001
 40
0.0
 40
0.0
 40
0.0
 40
0.0
 40
0.2381921983026311
 40
1.0
 40
1.0
 40
1.0
 40
1.0
 10
59.54232698067492
 20
-17.08694974623773
 30
0.0
 10
58.79329879917199
 20
-17.22618839552648
 30
0.0
 10
55.64866103672414
 20
-17.81075266875191
 30
0.0
 10
52.44248779167319
 20
-17.85874248980909
 30
0.0
 10
50.00000000000001
 20
-17.89530150989251
 30
0.0
  0
LINE
  5
1F2
330
23
100
AcDbEntity
  8
0
  6
Continuous
 62
     7
370
    25
100
AcDbLine
 10
-27.5
 20
-18.0
 30
0.0
 11
-27.5
 21
-47.0
 31
0.0
  0
LINE
  5
1F3
330
23
100
AcDbEntity
  8
0
  6
Continuous
 62
     7
370
    25
100
AcDbLine
 10
42.5
 20
-47.0
 30
0.0
 11
42.5
 21
-43.0
 31
0.0
  0
LINE
  5
1F4
330
23
100
AcDbEntity
  8
0
  6
Continuous
 62
     7
370
    25
100
AcDbLine
 10
227.5
 20
115.0
 30
0.0
 11
-227.5
 21
115.0
 31
0.0
  0
LINE
  5
1F5
330
23
100
AcDbEntity
  8
0
  6
Continuous
 62
     7
370
    25
100
AcDbLine
 10
-222.5
 20
120.0
 30
0.0
 11
-222.5
 21
40.0
 31
0.0
  0
LINE
  5
1F6
330
23
100
AcDbEntity
  8
0
  6
Continuous
 62
     7
370
    25
100
AcDbLine
 10
-222.5
 20
120.0
 30
0.0
 11
227.5
 21
120.0
 31
0.0
  0
LINE
  5
1F7
330
23
100
AcDbEntity
  8
0
  6
Continuous
 62
     7
370
    25
100
AcDbLine
 10
227.5
 20
120.0
 30
0.0
 11
227.5
 21
40.0
 31
0.0
  0
LINE
  5
1F8
330
23
100
AcDbEntity
  8
0
  6
Continuous
 62
     7
370
    25
100
AcDbLine
 10
-227.5
 20
45.0
 30
0.0
 11
227.5
 21
45.0
 31
0.0
  0
LINE
  5
1F9
330
23
100
AcDbEntity
  8
0
  6
Continuous
 62
     7
370
    25
100
AcDbLine
 10
-227.5
 20
45.0
 30
0.0
 11
-227.5
 21
115.0
 31
0.0
  0
LINE
  5
1FA
330
23
100
AcDbEntity
  8
0
  6
Continuous
 62
     7
370
    25
100
AcDbLine
 10
227.5
 20
40.0
 30
0.0
 11
-222.5
 21
40.0
 31
0.0
  0
LINE
  5
1FB
330
23
100
AcDbEntity
  8
0
  6
Continuous
 62
     7
370
    25
100
AcDbLine
 10
-65.0236038274
 20
35.0
 30
0.0
 11
-65.0236038274
 21
40.0
 31
0.0
  0
LINE
  5
1FC
330
23
100
AcDbEntity
  8
0
  6
Continuous
 62
     7
370
    25
100
AcDbLine
 10
-65.0236038274
 20
35.0
 30
0.0
 11
-71.222893097
 21
36.9096314323
 31
0.0
  0
LINE
  5
1FD
330
23
100
AcDbEntity
  8
0
  6
Continuous
 62
     7
370
    25
100
AcDbLine
 10
227.5
 20
35.0
 30
0.0
 11
-65.0236038274
 21
35.0
 31
0.0
  0
LINE
  5
1FE
330
23
100
AcDbEntity
  8
0
  6
Continuous
 62
     7
370
    25
100
AcDbLine
 10
97.1971314217
 20
-24.9368608745
 30
0.0
 11
98.015633173
 21
-20.0
 31
0.0
  0
LINE
  5
1FF
330
23
100
AcDbEntity
  8
0
  6
Continuous
 62
     7
370
    25
100
AcDbLine
 10
98.015633173
 20
-20.0
 30
0.0
 11
97.8093799038
 21
-25.0
 31
0.0
  0
LINE
  5
200
330
23
100
AcDbEntity
  8
0
  6
Continuous
 62
     7
370
    25
100
AcDbLine
 10
-59.7388691577
 20
9.1203629464
 30
0.0
 11
-55.5220980007
 21
12.0080680923
 31
0.0
  0
LINE
  5
201
330
23
100
AcDbEntity
  8
0
  6
Continuous
 62
     7
370
    25
100
AcDbLine
 10
-55.5220980007
 20
12.0080680923
 30
0.0
 11
-57.578539272
 21
7.3292809313
 31
0.0
  0
LINE
  5
202
330
23
100
AcDbEntity
  8
0
  6
Continuous
 62
     7
370
    25
100
AcDbLine
 10
-55.5220980007
 20
12.0080680923
 30
0.0
 11
98.015633173
 21
-20.0
 31
0.0
  0
LINE
  5
203
330
23
100
AcDbEntity
  8
0
  6
Continuous
 62
     7
370
    25
100
AcDbLine
 10
97.1971314217
 20
-24.9368608745
 30
0.0
 11
-57.578539272
 21
7.3292809313
 31
0.0
  0
LINE
  5
204
330
23
100
AcDbEntity
  8
0
  6
Continuous
 62
     7
370
    25
100
AcDbLine
 10
-65.0236038274
 20
35.0
 30
0.0
 11
-55.5220980007
 21
12.0080680923
 31
0.0
  0
LINE
  5
205
330
23
100
AcDbEntity
  8
0
  6
Continuous
 62
     7
370
    25
100
AcDbLine
 10
-59.7388691577
 20
9.1203629464
 30
0.0
 11
-71.222893097
 21
36.9096314323
 31
0.0
  0
LINE
  5
206
330
23
100
AcDbEntity
  8
0
  6
Continuous
 62
     7
370
    25
100
AcDbLine
 10
224.5
 20
-25.0
 30
0.0
 11
224.5
 21
40.0
 31
0.0
  0
LINE
  5
207
330
23
100
AcDbEntity
  8
0
  6
Continuous
 62
     7
370
    25
100
AcDbLine
 10
224.5
 20
-25.0
 30
0.0
 11
97.8093799038
 21
-25.0
 31
0.0
  0
LINE
  5
208
330
23
100
AcDbEntity
  8
0
  6
Continuous
 62
     7
370
    25
100
AcDbLine
 10
98.015633173
 20
-20.0
 30
0.0
 11
227.5
 21
-20.0
 31
0.0
  0
LINE
  5
209
330
23
100
AcDbEntity
  8
0
  6
Continuous
 62
     7
370
    25
100
AcDbLine
 10
227.5
 20
35.0
 30
0.0
 11
227.5
 21
-22.0
 31
0.0
  0
LINE
  5
20A
330
23
100
AcDbEntity
  8
0
  6
Continuous
 62
     7
370
    25
100
AcDbLine
 10
33.0748854387
 20
-37.1046984901
 30
0.0
 11
61.7903766024
 21
-37.1046984901
 31
0.0
  0
LINE
  5
20B
330
23
100
AcDbEntity
  8
0
  6
Continuous
 62
     7
370
    25
100
AcDbLine
 10
50.0
 20
-17.8953015099
 30
0.0
 11
32.317693478
 21
-17.8953015099
 31
0.0
  0
LINE
  5
20C
330
23
100
AcDbEntity
  8
0
  6
Continuous
 62
     7
370
    25
100
AcDbLine
 10
-24.5
 20
-50.0
 30
0.0
 11
39.5
 21
-50.0
 31
0.0
  0
LINE
  5
20D
330
23
100
AcDbEntity
  8
0
  6
Continuous
 62
     7
370
    25
100
AcDbLine
 10
32.317693478
 20
-15.0
 30
0.0
 11
32.317693478
 21
-17.8953015099
 31
0.0
  0
LINE
  5
20E
330
23
100
AcDbEntity
  8
0
  6
Continuous
 62
     7
370
    25
100
AcDbLine
 10
61.7903766024
 20
-37.1046984901
 30
0.0
 11
61.7903766024
 21
-40.0
 31
0.0
  0
LINE
  5
20F
330
23
100
AcDbEntity
  8
0
  6
Continuous
 62
     7
370
    25
100
AcDbLine
 10
61.7903766024
 20
-40.0
 30
0.0
 11
38.4059939393
 21
-40.0
 31
0.0
  0
LINE
  5
210
330
23
100
AcDbEntity
  8
0
  6
Continuous
 62
     8
370
    25
100
AcDbLine
 10
30.3584018876
 20
-18.0
 30
0.0
 11
-27.5
 21
-18.0
 31
0.0
  0
LINE
  5
211
330
23
100
AcDbEntity
  8
0
  6
Continuous
 62
     8
370
    25
100
AcDbLine
 10
42.5
 20
-43.0
 30
0.0
 11
35.9660470493
 21
-43.0
 31
0.0
  0
LINE
  5
212
330
23
100
AcDbEntity
  8
0
  6
Continuous
 62
     8
370
    25
100
AcDbLine
 10
-27.5
 20
-47.0
 30
0.0
 11
42.5
 21
-47.0
 31
0.0
  0
ARC
  5
213
330
23
100
AcDbEntity
  8
0
  6
Continuous
 62
     7
370
    25
100
AcDbCircle
 10
-194.0319361008
 20
37.0000003413
 30
0.0
 40
2.999999658685972
100
AcDbArc
 50
32.9758121477
 51
89.9920576159
  0
ARC
  5
214
330
23
100
AcDbEntity
  8
0
  6
Continuous
 62
     7
370
    25
100
AcDbCircle
 10
-30.5
 20
-18.0
 30
0.0
 40
2.999999999999996
100
AcDbArc
 50
0.0
 51
90.0
  0
ARC
  5
215
330
23
100
AcDbEntity
  8
0
  6
Continuous
 62
     7
370
    25
100
AcDbCircle
 10
-24.5
 20
-47.0
 30
0.0
 40
3.000000000000007
100
AcDbArc
 50
180.0
 51
270.0
  0
ARC
  5
216
330
23
100
AcDbEntity
  8
0
  6
Continuous
 62
     7
370
    25
100
AcDbCircle
 10
39.5
 20
-47.0
 30
0.0
 40
2.999999999999993
100
AcDbArc
 50
270.0
 51
0.0
  0
ARC
  5
217
330
23
100
AcDbEntity
  8
0
  6
Continuous
 62
     7
370
    25
100
AcDbCircle
 10
45.5
 20
-43.0
 30
0.0
 40
3.000000000000014
100
AcDbArc
 50
90.0
 51
180.0
  0
ARC
  5
218
330
23
100
AcDbEntity
  8
0
  6
Continuous
 62
     7
370
    25
100
AcDbCircle
 10
-222.5
 20
115.0
 30
0.0
 40
4.999999999999986
100
AcDbArc
 50
90.0
 51
180.0
  0
ARC
  5
219
330
23
100
AcDbEntity
  8
0
  6
Continuous
 62
     7
370
    25
100
AcDbCircle
 10
-222.5
 20
45.0
 30
0.0
 40
5.000000000000028
100
AcDbArc
 50
180.0
 51
270.0
  0
ARC
  5
21A
330
23
100
AcDbEntity
  8
0
  6
Continuous
 62
     7
370
    25
100
AcDbCircle
 10
-75.8438570433
 20
35.0
 30
0.0
 40
5.000000000000028
100
AcDbArc
 50
22.4530524192
 51
90.0
  0
ARC
  5
21B
330
23
100
AcDbEntity
  8
0
  6
Continuous
 62
     7
370
    25
100
AcDbCircle
 10
97.8093799038
 20
-22.0
 30
0.0
 40
2.999999999998447
100
AcDbArc
 50
258.2241860914
 51
270.0
  0
ARC
  5
21C
330
23
100
AcDbEntity
  8
0
  6
Continuous
 62
     7
370
    25
100
AcDbCircle
 10
-56.96629079
 20
10.2661418058
 30
0.0
 40
2.999999999999962
100
AcDbArc
 50
202.4530524192
 51
258.2241860914
  0
ARC
  5
21D
330
23
100
AcDbEntity
  8
0
  6
Continuous
 62
     7
370
    25
100
AcDbCircle
 10
224.5
 20
-22.0
 30
0.0
 40
3.0
100
AcDbArc
 50
270.0
 51
0.0
  0
ARC
  5
21E
330
23
100
AcDbEntity
  8
0
  6
Continuous
 62
     7
370
    25
100
AcDbCircle
 10
-76.0649271223
 20
38.9679873951
 30
0.0
 40
1.055425031221604
100
AcDbArc
 50
14.7736348878
 51
77.9092495004
  0
ARC
  5
21F
330
23
100
AcDbEntity
  8
0
  6
Continuous
 62
     7
370
    25
100
AcDbCircle
 10
-73.0599405144
 20
35.9440789209
 30
0.0
 40
2.075339698932274
100
AcDbArc
 50
27.7264251644
 51
94.1803402423
  0
ARC
  5
220
330
23
100
AcDbEntity
  8
0
  6
Continuous
 62
     7
370
    25
100
AcDbCircle
 10
-61.9976418874
 20
8.0977192529
 30
0.0
 40
2.479486714681519
100
AcDbArc
 50
24.3583105798
 51
85.9593695461
  0
ARC
  5
221
330
23
100
AcDbEntity
  8
0
  6
Continuous
 62
     7
370
    25
100
AcDbCircle
 10
-57.8856258032
 20
7.1169825924
 30
0.0
 40
0.3733265626008099
100
AcDbArc
 50
346.7548576617
 51
34.6572944388
  0
ARC
  5
222
330
23
100
AcDbEntity
  8
0
  6
Continuous
 62
     7
370
    25
100
AcDbCircle
 10
9.8254490299
 20
-8.16739445
 30
0.0
 40
1.414670911603615
100
AcDbArc
 50
79.0327987414
 51
114.3190194425
  0
ARC
  5
223
330
23
100
AcDbEntity
  8
0
  6
Continuous
 62
     7
370
    25
100
AcDbCircle
 10
34.9718685403
 20
-85.9497264269
 30
0.0
 40
68.1061626877269
100
AcDbArc
 50
92.2334476496
 51
93.8841527623
  0
ARC
  5
224
330
23
100
AcDbEntity
  8
0
  6
Continuous
 62
     7
370
    25
100
AcDbCircle
 10
61.7903766024
 20
37.2122307441
 30
0.0
 40
77.21223074412875
100
AcDbArc
 50
270.0
 51
306.3191604917
  0
ARC
  5
225
330
23
100
AcDbEntity
  8
0
  6
Continuous
 62
     7
370
    25
100
AcDbCircle
 10
35.5264655919
 20
-103.9033143885
 30
0.0
 40
66.84358855706039
100
AcDbArc
 50
92.1018725849
 51
93.8349337659
  0
ARC
  5
226
330
23
100
AcDbEntity
  8
0
  6
Continuous
 62
     7
370
    25
100
AcDbCircle
 10
38.7181584362
 20
-42.7461117355
 30
0.0
 40
2.763797448603646
100
AcDbArc
 50
96.4852642183
 51
185.2707419753
  0
ARC
  5
227
330
23
100
AcDbEntity
  8
0
  6
Continuous
 62
     8
370
    25
100
AcDbCircle
 10
61.7903766024
 20
37.107532254
 30
0.0
 40
74.21223074412843
100
AcDbArc
 50
270.0
 51
303.1867636709
  0
VIEWPORT
  5
37C
330
23
100
AcDbEntity
  8
0
100
AcDbViewport
 10
0.0
 20
0.0
 30
0.0
 40
205.6
 41
156.0
 68
     1
 69
     1
 12
0.0
 22
0.0
 13
0.0
 23
0.0
 14
10.0
 24
10.0
 15
10.0
 25
10.0
 16
0.0
 26
0.0
 36
1.0
 17
0.0
 27
0.0
 37
0.0
 42
50.0
 43
0.0
 44
0.0
 45
479.8365758755
 50
0.0
 51
0.0
 72
   100
 90
   557152
  1

281
     0
 71
     1
 74
     0
110
0.0
120
0.0
130
0.0
111
1.0
121
0.0
131
0.0
112
0.0
122
1.0
132
0.0
 79
     0
146
0.0
  0
ENDBLK
  5
25
330
23
100
AcDbEntity
  8
0
100
AcDbBlockEnd
  0
BLOCK
  5
22A
330
228
100
AcDbEntity
  8
0
100
AcDbBlockBegin
  2
*Paper_Space1
 70
     0
 10
0.0
 20
0.0
 30
0.0
  3
*Paper_Space1
  1

  0
SPLINE
  5
22C
330
228
100
AcDbEntity
  8
0
  6
Continuous
 62
     7
370
    25
100
AcDbSpline
210
0.0
220
0.0
230
1.0
 70
     8
 71
     3
 72
    19
 73
    15
 74
     0
 42
0.000000001
 43
0.00000001
 40
0.0
 40
0.0
 40
0.0
 40
0.0
 40
0.0730363988202658
 40
0.2510966550311161
 40
0.3760923964331184
 40
0.4824312233408245
 40
0.5697896947014255
 40
0.5976777953850567
 40
0.6267237079638355
 40
0.6637055911977604
 40
0.7099099281249358
 40
0.7871593827867193
 40
0.8834995906486477
 40
1.0
 40
1.0
 40
1.0
 40
1.0
 10
-157.7495896974453
 20
-11.10934037754439
 30
0.0
 10
-156.873561862545
 20
-11.31287324455558
 30
0.0
 10
-153.8618079616043
 20
-12.01261231878308
 30
0.0
 10
-149.331183616525
 20
-12.8491199413702
 30
0.0
 10
-144.3826172802447
 20
-13.61944515122843
 30
0.0
 10
-140.510558982207
 20
-14.10644880010406
 30
0.0
 10
-137.8172824771051
 20
-14.38067393525338
 30
0.0
 10
-136.0525745081631
 20
-14.53378327298908
 30
0.0
 10
-134.9253561699328
 20
-14.62327211408809
 30
0.0
 10
-133.7189076353694
 20
-14.70923308070531
 30
0.0
 10
-132.1192185172197
 20
-14.80776920544921
 30
0.0
 10
-130.078804871034
 20
-14.90430753080796
 30
0.0
 10
-127.4937653440489
 20
-14.98378740207407
 30
0.0
 10
-125.606497783301
 20
-14.99426498934943
 30
0.0
 10
-124.5734832851222
 20
-15.00000000000001
 30
0.0
  0
SPLINE
  5
22D
330
228
100
AcDbEntity
  8
0
  6
Continuous
 62
     7
370
    25
100
AcDbSpline
210
0.0
220
0.0
230
1.0
 70
     8
 71
     3
 72
    20
 73
    16
 74
     0
 42
0.000000001
 43
0.00000001
 40
0.0
 40
0.0
 40
0.0
 40
0.0
 40
0.1350306208316164
 40
0.2361845067221249
 40
0.3050007712985349
 40
0.3278063239311305
 40
0.343303107566454
 40
0.3658305001641541
 40
0.3974506957287076
 40
0.4677224239683465
 40
0.5518062419477433
 40
0.6580399717468656
 40
0.7729034615743582
 40
0.9068183486779839
 40
0.9999999999999999
 40
0.9999999999999999
 40
0.9999999999999999
 40
0.9999999999999999
 10
124.5734832851241
 20
-15.00000000000001
 30
0.0
 10
125.7634917401006
 20
-14.99237455096755
 30
0.0
 10
127.8449571010893
 20
-14.97903673983128
 30
0.0
 10
130.4711999332369
 20
-14.88841444881695
 30
0.0
 10
132.1757244076602
 20
-14.80302725820891
 30
0.0
 10
133.2054661335895
 20
-14.74049202405432
 30
0.0
 10
133.8529177319498
 20
-14.69839371875312
 30
0.0
 10
134.74269167321
 20
-14.63659613539527
 30
0.0
 10
136.2574525593111
 20
-14.51980208283217
 30
0.0
 10
138.5514310402937
 20
-14.3127472827894
 30
0.0
 10
141.7398104147146
 20
-13.96074250823249
 30
0.0
 10
145.4669380640506
 20
-13.46136936176234
 30
0.0
 10
149.7799009110755
 20
-12.76238356652427
 30
0.0
 10
153.9146348357125
 20
-11.98728553231526
 30
0.0
 10
156.6371431175898
 20
-11.36850474206139
 30
0.0
 10
157.7542355189179
 20
-11.11460824393808
 30
0.0
  0
SPLINE
  5
240
330
228
100
AcDbEntity
  8
0
  6
Continuous
 62
     7
370
    25
100
AcDbSpline
210
0.0
220
0.0
230
1.0
 70
     8
 71
     3
 72
    16
 73
    12
 74
     0
 42
0.000000001
 43
0.00000001
 40
0.0
 40
0.0
 40
0.0
 40
0.0
 40
0.1250000000000014
 40
0.1250000000000014
 40
0.1875000000000023
 40
0.1875000000000023
 40
0.2500000000000032
 40
0.2500000000000032
 40
0.4999999999999993
 40
0.4999999999999993
 40
1.0
 40
1.0
 40
1.0
 40
1.0
 10
-244.4161984870956
 20
40.00000000000001
 30
0.0
 10
-244.0236447408164
 20
40.00000000000001
 30
0.0
 10
-243.6377533996672
 20
39.96063694525327
 30
0.0
 10
-243.0677982659298
 20
39.8491161413188
 30
0.0
 10
-242.8793046958083
 20
39.80313055851013
 30
0.0
 10
-242.505218085539
 20
39.69402238037019
 30
0.0
 10
-242.3190140065729
 20
39.63059350038798
 30
0.0
 10
-241.4114109790253
 20
39.27812766765426
 30
0.0
 10
-240.7462852145871
 20
38.88101831419971
 30
0.0
 10
-238.8972215026431
 20
37.44297388272116
 30
0.0
 10
-237.9480733691117
 20
36.22395541668487
 30
0.0
 10
-237.0
 20
35.00000000000001
 30
0.0
  0
CIRCLE
  5
248
330
228
100
AcDbEntity
  8
0
  6
Continuous
 62
     7
370
    25
100
AcDbCircle
 10
-140.0
 20
60.362217653
 30
0.0
 40
18.49999999999996
  0
CIRCLE
  5
249
330
228
100
AcDbEntity
  8
0
  6
Continuous
 62
     7
370
    25
100
AcDbCircle
 10
140.0
 20
60.362217653
 30
0.0
 40
18.49999999999996
  0
LWPOLYLINE
  5
262
330
228
100
AcDbEntity
  8
0
  6
Continuous
 62
     7
370
    25
100
AcDbPolyline
 90
       10
 70
   128
 43
0.0
 10
305.0
 20
43.0
 10
305.8682408883
 20
43.030384494
 10
306.7101007166
 20
43.1206147584
 10
307.5
 20
43.2679491924
 10
308.2139380484
 20
43.4679111138
 10
308.8302222156
 20
43.7144247806
 10
309.3301270189
 20
44.0
 10
309.6984631039
 20
44.3159597133
 10
309.9240387651
 20
44.6527036447
 10
310.0
 20
45.0
  0
SPLINE
  5
278
330
228
100
AcDbEntity
  8
0
  6
Continuous
 62
     7
370
    25
100
AcDbSpline
210
0.0
220
0.0
230
1.0
 70
     8
 71
     3
 72
    14
 73
    10
 74
     0
 42
0.000000001
 43
0.00000001
 40
0.0
 40
0.0
 40
0.0
 40
0.0
 40
0.2499999999999996
 40
0.2499999999999996
 40
0.4999999999999992
 40
0.4999999999999992
 40
0.7499999999999996
 40
0.7499999999999996
 40
1.0
 40
1.0
 40
1.0
 40
1.0
 10
25.77824304333769
 20
-17.89530150989251
 30
0.0
 10
25.79164348808214
 20
-17.51156298008683
 30
0.0
 10
25.87960349204319
 20
-17.13056634502765
 30
0.0
 10
26.19195481089117
 20
-16.42901379651757
 30
0.0
 10
26.41623375797394
 20
-16.10871026528711
 30
0.0
 10
26.96864706806206
 20
-15.575250932681
 30
0.0
 10
27.29658270140975
 20
-15.36228704230497
 30
0.0
 10
28.00860878688477
 20
-15.07460983029433
 30
0.0
 10
28.39244308895626
 20
-15.00000000000001
 30
0.0
 10
28.77641552439501
 20
-15.00000000000001
 30
0.0
  0
SPLINE
  5
279
330
228
100
AcDbEntity
  8
0
  6
Continuous
 62
     7
370
    25
100
AcDbSpline
210
0.0
220
0.0
230
1.0
 70
     8
 71
     3
 72
    14
 73
    10
 74
     0
 42
0.000000001
 43
0.00000001
 40
0.0
 40
0.0
 40
0.0
 40
0.0
 40
0.2499999999999996
 40
0.2499999999999996
 40
0.4999999999999992
 40
0.4999999999999992
 40
0.7499999999999996
 40
0.7499999999999996
 40
1.0
 40
1.0
 40
1.0
 40
1.0
 10
-28.77641552439498
 20
-15.00000000000001
 30
0.0
 10
-28.39244308895623
 20
-15.00000000000001
 30
0.0
 10
-28.00860878688474
 20
-15.07460983029433
 30
0.0
 10
-27.29658270140974
 20
-15.36228704230497
 30
0.0
 10
-26.96864706806204
 20
-15.57525093268101
 30
0.0
 10
-26.41623375797393
 20
-16.10871026528712
 30
0.0
 10
-26.19195481089117
 20
-16.42901379651757
 30
0.0
 10
-25.87960349204318
 20
-17.13056634502765
 30
0.0
 10
-25.79164348808214
 20
-17.51156298008684
 30
0.0
 10
-25.77824304333769
 20
-17.89530150989251
 30
0.0
  0
SPLINE
  5
27B
330
228
100
AcDbEntity
  8
0
  6
Continuous
 62
     7
370
    25
100
AcDbSpline
210
0.0
220
0.0
230
1.0
 70
    24
 71
     3
 72
    34
 73
    30
 74
     0
 42
0.000000001
 43
0.00000001
 40
0.0
 40
0.0
 40
0.0
 40
0.0
 40
0.1249999999999999
 40
0.1249999999999999
 40
0.2499999999999999
 40
0.2499999999999999
 40
0.3124999999999999
 40
0.3124999999999999
 40
0.3749999999999999
 40
0.3749999999999999
 40
0.4374999999999999
 40
0.4374999999999999
 40
0.5
 40
0.5
 40
0.5625000000000001
 40
0.5625000000000001
 40
0.6250000000000001
 40
0.6250000000000001
 40
0.6875000000000001
 40
0.6875000000000001
 40
0.7500000000000001
 40
0.7500000000000001
 40
0.8125000000000001
 40
0.8125000000000001
 40
0.875
 40
0.875
 40
0.9375
 40
0.9375
 40
1.0
 40
1.0
 40
1.0
 40
1.0
 10
-114.8017554010202
 20
-15.00000000000001
 30
0.0
 10
-117.1431890422933
 20
-15.00000000000001
 30
0.0
 10
-119.2107258345022
 20
-15.0
 30
0.0
 10
-122.5102193682528
 20
-15.0
 30
0.0
 10
-123.7419473791556
 20
-15.00000000000001
 30
0.0
 10
-124.7526778451633
 20
-15.00000000000003
 30
0.0
 10
-124.949393965686
 20
-15.00000000000001
 30
0.0
 10
-125.0336336429045
 20
-15.0
 30
0.0
 10
-124.9213192753078
 20
-15.00000000000001
 30
0.0
 10
-124.3663116247362
 20
-15.00000000000001
 30
0.0
 10
-123.9238360134825
 20
-15.00000000000001
 30
0.0
 10
-122.6953718568329
 20
-15.00000000000002
 30
0.0
 10
-121.9104868928277
 20
-15.00000000000001
 30
0.0
 10
-120.0003450775233
 20
-15.00000000000001
 30
0.0
 10
-118.8757216175084
 20
-15.00000000000001
 30
0.0
 10
-116.3046924823213
 20
-15.00000000000002
 30
0.0
 10
-114.8577681114829
 20
-15.00000000000001
 30
0.0
 10
-111.6765835584079
 20
-15.00000000000001
 30
0.0
 10
-109.9413513720563
 20
-15.00000000000001
 30
0.0
 10
-106.2304859798647
 20
-15.00000000000002
 30
0.0
 10
-104.2543788327554
 20
-15.00000000000001
 30
0.0
 10
-100.1186334489443
 20
-15.0
 30
0.0
 10
-97.95924281769543
 20
-15.0
 30
0.0
 10
-93.52017484074922
 20
-15.00000000000001
 30
0.0
 10
-91.24081465314437
 20
-15.00000000000002
 30
0.0
 10
-86.6266334907766
 20
-15.00000000000001
 30
0.0
 10
-84.29171987346727
 20
-15.00000000000001
 30
0.0
 10
-79.62814407695014
 20
-15.00000000000001
 30
0.0
 10
-77.2990530946265
 20
-15.00000000000001
 30
0.0
 10
-74.99999999999999
 20
-15.00000000000001
 30
0.0
  0
SPLINE
  5
27C
330
228
100
AcDbEntity
  8
0
  6
Continuous
 62
     7
370
    25
100
AcDbSpline
210
0.0
220
0.0
230
1.0
 70
    24
 71
     3
 72
    34
 73
    30
 74
     0
 42
0.000000001
 43
0.00000001
 40
0.0
 40
0.0
 40
0.0
 40
0.0
 40
0.0624999999999999
 40
0.0624999999999999
 40
0.1249999999999999
 40
0.1249999999999999
 40
0.1874999999999998
 40
0.1874999999999998
 40
0.2499999999999998
 40
0.2499999999999998
 40
0.3124999999999997
 40
0.3124999999999997
 40
0.3749999999999997
 40
0.3749999999999997
 40
0.4374999999999996
 40
0.4374999999999996
 40
0.4999999999999996
 40
0.4999999999999996
 40
0.5624999999999996
 40
0.5624999999999996
 40
0.6249999999999997
 40
0.6249999999999997
 40
0.6874999999999997
 40
0.6874999999999997
 40
0.7499999999999998
 40
0.7499999999999998
 40
0.8749999999999999
 40
0.8749999999999999
 40
1.0
 40
1.0
 40
1.0
 40
1.0
 10
75.00000000000001
 20
-15.00000000000001
 30
0.0
 10
77.2990530945794
 20
-15.00000000000001
 30
0.0
 10
79.62814407685438
 20
-15.00000000000001
 30
0.0
 10
84.29171987327582
 20
-15.00000000000001
 30
0.0
 10
86.62663349053818
 20
-15.00000000000001
 30
0.0
 10
91.2408146528162
 20
-15.0
 30
0.0
 10
93.52017484037808
 20
-15.00000000000001
 30
0.0
 10
97.95924281724768
 20
-15.00000000000001
 30
0.0
 10
100.1186334484632
 20
-15.00000000000001
 30
0.0
 10
104.2543788322199
 20
-15.00000000000001
 30
0.0
 10
106.2304859793082
 20
-15.00000000000001
 30
0.0
 10
109.9413513714724
 20
-15.00000000000001
 30
0.0
 10
111.6765835578181
 20
-15.00000000000001
 30
0.0
 10
114.8577681108989
 20
-15.00000000000001
 30
0.0
 10
116.3046924817487
 20
-15.00000000000001
 30
0.0
 10
118.8757216169756
 20
-15.00000000000001
 30
0.0
 10
120.0003450770178
 20
-15.00000000000001
 30
0.0
 10
121.910486892394
 20
-15.00000000000001
 30
0.0
 10
122.6953718564427
 20
-15.00000000000001
 30
0.0
 10
123.9238360131931
 20
-15.00000000000001
 30
0.0
 10
124.3663116245039
 20
-15.0
 30
0.0
 10
124.921319275199
 20
-15.00000000000001
 30
0.0
 10
125.0336336428627
 20
-15.00000000000001
 30
0.0
 10
124.9493939657849
 20
-15.00000000000001
 30
0.0
 10
124.7526778453365
 20
-15.00000000000001
 30
0.0
 10
123.7419473795551
 20
-15.00000000000001
 30
0.0
 10
122.5102193688088
 20
-15.00000000000001
 30
0.0
 10
119.2107258353657
 20
-15.00000000000001
 30
0.0
 10
117.1431890433072
 20
-15.00000000000001
 30
0.0
 10
114.8017554021719
 20
-15.0
 30
0.0
  0
LWPOLYLINE
  5
27E
330
228
100
AcDbEntity
  8
0
  6
Continuous
 62
     7
370
    25
100
AcDbPolyline
 90
        9
 70
   128
 43
0.0
 10
22.1092636383
 20
-40.0
 10
21.7687396886
 20
-40.0576441588
 10
21.4413018833
 20
-40.2283614025
 10
21.1395334737
 20
-40.5055911631
 10
20.8750312504
 20
-40.8786796564
 10
20.6579598857
 20
-41.3332893009
 10
20.4966613103
 20
-41.8519497029
 10
20.397334138
 20
-42.414729034
 10
20.3637954563
 20
-43.0
  0
LWPOLYLINE
  5
280
330
228
100
AcDbEntity
  8
0
  6
Continuous
 62
     7
370
    25
100
AcDbPolyline
 90
        9
 70
   128
 43
0.0
 10
-20.3637954563
 20
-43.0
 10
-20.397334138
 20
-42.414729034
 10
-20.4966613103
 20
-41.8519497029
 10
-20.6579598857
 20
-41.3332893009
 10
-20.8750312504
 20
-40.8786796564
 10
-21.1395334737
 20
-40.5055911631
 10
-21.4413018833
 20
-40.2283614025
 10
-21.7687396886
 20
-40.0576441588
 10
-22.1092636383
 20
-40.0
  0
SPLINE
  5
282
330
228
100
AcDbEntity
  8
0
  6
Continuous
 62
     7
370
    25
100
AcDbSpline
210
0.0
220
0.0
230
1.0
 70
     8
 71
     3
 72
    24
 73
    20
 74
     0
 42
0.000000001
 43
0.00000001
 40
0.0
 40
0.0
 40
0.0
 40
0.0
 40
0.0624999999999997
 40
0.0624999999999997
 40
0.1249999999999994
 40
0.1249999999999994
 40
0.2500000000000004
 40
0.2500000000000004
 40
0.3750000000000014
 40
0.3750000000000014
 40
0.5000000000000024
 40
0.5000000000000024
 40
0.6250000000000034
 40
0.6250000000000034
 40
0.6875000000000033
 40
0.6875000000000033
 40
0.7500000000000032
 40
0.7500000000000032
 40
1.0
 40
1.0
 40
1.0
 40
1.0
 10
-25.88674476350183
 20
-37.20939698021501
 30
0.0
 10
-25.87977940328791
 20
-37.4259555268758
 30
0.0
 10
-25.86210815908612
 20
-37.64006845547902
 30
0.0
 10
-25.80615527276676
 20
-38.06362091183095
 30
0.0
 10
-25.76761188689813
 20
-38.27364653033371
 30
0.0
 10
-25.6251717149187
 20
-38.88269287830713
 30
0.0
 10
-25.49379300706926
 20
-39.26726797786484
 30
0.0
 10
-25.16869611676363
 20
-39.99127373325783
 30
0.0
 10
-24.97952158116005
 20
-40.32148227256623
 30
0.0
 10
-24.55420567471508
 20
-40.93029494204104
 30
0.0
 10
-24.31599170584338
 20
-41.20997322428821
 30
0.0
 10
-23.81102761874391
 20
-41.7040732491306
 30
0.0
 10
-23.5426858809164
 20
-41.92131261195464
 30
0.0
 10
-23.11631577521729
 20
-42.20595576061694
 30
0.0
 10
-22.97018968519857
 20
-42.29390342623146
 30
0.0
 10
-22.66961119075249
 20
-42.45581167545983
 30
0.0
 10
-22.51445407231419
 20
-42.53002883225364
 30
0.0
 10
-21.72892321362406
 20
-42.85989978867541
 30
0.0
 10
-21.06619928235553
 20
-43.00000000000002
 30
0.0
 10
-20.36379545629103
 20
-43.00000000000001
 30
0.0
  0
SPLINE
  5
283
330
228
100
AcDbEntity
  8
0
  6
Continuous
 62
     7
370
    25
100
AcDbSpline
210
0.0
220
0.0
230
1.0
 70
     8
 71
     3
 72
    24
 73
    20
 74
     0
 42
0.000000001
 43
0.00000001
 40
0.0
 40
0.0
 40
0.0
 40
0.0
 40
0.1249999999999994
 40
0.1249999999999994
 40
0.2499999999999989
 40
0.2499999999999989
 40
0.3749999999999983
 40
0.3749999999999983
 40
0.4999999999999978
 40
0.4999999999999978
 40
0.6249999999999972
 40
0.6249999999999972
 40
0.7499999999999967
 40
0.7499999999999967
 40
0.8124999999999968
 40
0.8124999999999968
 40
0.874999999999997
 40
0.874999999999997
 40
1.0
 40
1.0
 40
1.0
 40
1.0
 10
20.36379545629103
 20
-43.00000000000001
 30
0.0
 10
20.71462190057092
 20
-43.00000000000001
 30
0.0
 10
21.05744569532097
 20
-42.96407060156091
 30
0.0
 10
21.72809971482598
 20
-42.82608111112263
 30
0.0
 10
22.05590424627343
 20
-42.72332842784292
 30
0.0
 10
22.67868846457723
 20
-42.46029824960134
 30
0.0
 10
22.97632283383652
 20
-42.29963391216597
 30
0.0
 10
23.54542512374436
 20
-41.9192626509391
 30
0.0
 10
23.81917248861942
 20
-41.69713880817532
 30
0.0
 10
24.32516833794435
 20
-41.19992280766743
 30
0.0
 10
24.55802547179767
 20
-40.92540615363868
 30
0.0
 10
24.98187371422162
 20
-40.31752784757683
 30
0.0
 10
25.1740681206451
 20
-39.98066812181911
 30
0.0
 10
25.41529512593952
 20
-39.44138403997285
 30
0.0
 10
25.48827841675434
 20
-39.2554620664653
 30
0.0
 10
25.61827597619444
 20
-38.86993533467361
 30
0.0
 10
25.67541456303914
 20
-38.66931227977366
 30
0.0
 10
25.81667255317285
 20
-38.06086500876858
 30
0.0
 10
25.87281724452302
 20
-37.64241453795925
 30
0.0
 10
25.88674476350183
 20
-37.209396980215
 30
0.0
  0
SPLINE
  5
28E
330
228
100
AcDbEntity
  8
0
  6
Continuous
 62
     8
370
    25
100
AcDbSpline
210
0.0
220
0.0
230
1.0
 70
     8
 71
     3
 72
    21
 73
    17
 74
     0
 42
0.000000001
 43
0.00000001
 40
0.0
 40
0.0
 40
0.0
 40
0.0
 40
0.0176368087872695
 40
0.0921841244288064
 40
0.1678337232503658
 40
0.243989958927161
 40
0.3217446795005034
 40
0.4000531839894232
 40
0.473801600855947
 40
0.5480296514732359
 40
0.6237819320628227
 40
0.7000677543465551
 40
0.7737192187257387
 40
0.8484180503586259
 40
0.9236540930118095
 40
1.0
 40
1.0
 40
1.0
 40
1.0
 10
29.91847859848142
 20
20.0
 30
0.0
 10
29.90529595741603
 20
19.62991715135526
 30
0.0
 10
29.83639289003402
 20
17.69556702146902
 30
0.0
 10
29.719741613575
 20
14.36201640863334
 30
0.0
 10
29.57005044715405
 20
10.0391207228213
 30
0.0
 10
29.43047512421317
 20
5.935372610386347
 30
0.0
 10
29.30173458826912
 20
2.079805466811385
 30
0.0
 10
29.18775329318961
 20
-1.406029666753773
 30
0.0
 10
29.08877657055233
 20
-4.497952706236486
 30
0.0
 10
29.00402811164671
 20
-7.206156467826776
 30
0.0
 10
28.93195387533545
 20
-9.56748976213241
 30
0.0
 10
28.87394444950855
 20
-11.52095353915244
 30
0.0
 10
28.82966761443542
 20
-13.05673329485493
 30
0.0
 10
28.79888714912547
 20
-14.15833559564841
 30
0.0
 10
28.77984145762251
 20
-14.86647977579389
 30
0.0
 10
28.77756306284601
 20
-14.95527653894957
 30
0.0
 10
28.77641552439501
 20
-15.00000000000001
 30
0.0
  0
SPLINE
  5
28F
330
228
100
AcDbEntity
  8
0
  6
Continuous
 62
     8
370
    25
100
AcDbSpline
210
0.0
220
0.0
230
1.0
 70
     8
 71
     3
 72
    21
 73
    17
 74
     0
 42
0.000000001
 43
0.00000001
 40
0.0
 40
0.0
 40
0.0
 40
0.0
 40
0.0736352129765487
 40
0.1477943081361475
 40
0.2235878670445841
 40
0.2999371311267824
 40
0.3736718717460111
 40
0.4484159177613577
 40
0.5236676342555648
 40
0.5999565984239834
 40
0.675603071673253
 40
0.7517603917459891
 40
0.829520041642182
 40
0.9078306271947687
 40
0.9795804535397304
 40
1.0
 40
1.0
 40
1.0
 40
1.0
 10
-28.77641552439498
 20
-15.00000000000001
 30
0.0
 10
-28.7774846638752
 20
-14.95833120866184
 30
0.0
 10
-28.77963054929325
 20
-14.87469717084549
 30
0.0
 10
-28.79788971442661
 20
-14.19480039517582
 30
0.0
 10
-28.82847339856899
 20
-13.09852638293463
 30
0.0
 10
-28.87275168878086
 20
-11.56163716439018
 30
0.0
 10
-28.93030645073667
 20
-9.622718799828483
 30
0.0
 10
-29.0010182739907
 20
-7.303613890577154
 30
0.0
 10
-29.08618223745209
 20
-4.57943322672029
 30
0.0
 10
-29.18533235707475
 20
-1.480834057450302
 30
0.0
 10
-29.29822309158764
 20
1.972754260519939
 30
0.0
 10
-29.42489826679606
 20
5.76989810470838
 30
0.0
 10
-29.56555725156765
 20
9.90875302386124
 30
0.0
 10
-29.71600223441984
 20
14.25491946706777
 30
0.0
 10
-29.83450855709366
 20
17.64112854437476
 30
0.0
 10
-29.90325920684195
 20
19.57218627200464
 30
0.0
 10
-29.91849048209078
 20
20.0
 30
0.0
  0
LINE
  5
293
330
228
100
AcDbEntity
  8
0
  6
Continuous
 62
     7
370
    25
100
AcDbLine
 10
-35.0
 20
-18.0
 30
0.0
 11
-35.0
 21
-47.0
 31
0.0
  0
LINE
  5
294
330
228
100
AcDbEntity
  8
0
  6
Continuous
 62
     7
370
    25
100
AcDbLine
 10
35.0
 20
-47.0
 30
0.0
 11
35.0
 21
-18.0
 31
0.0
  0
LINE
  5
295
330
228
100
AcDbEntity
  8
0
  6
Continuous
 62
     7
370
    25
100
AcDbLine
 10
240.0
 20
35.0
 30
0.0
 11
237.0
 21
43.0
 31
0.0
  0
LINE
  5
296
330
228
100
AcDbEntity
  8
0
  6
Continuous
 62
     7
370
    25
100
AcDbLine
 10
237.0
 20
43.0
 30
0.0
 11
245.0
 21
40.0
 31
0.0
  0
LINE
  5
297
330
228
100
AcDbEntity
  8
0
  6
Continuous
 62
     7
370
    25
100
AcDbLine
 10
237.0
 20
-20.0
 30
0.0
 11
237.0
 21
43.0
 31
0.0
  0
LINE
  5
298
330
228
100
AcDbEntity
  8
0
  6
Continuous
 62
     7
370
    25
100
AcDbLine
 10
171.3542486889
 20
-22.0
 30
0.0
 11
235.0
 21
-22.0
 31
0.0
  0
LINE
  5
299
330
228
100
AcDbEntity
  8
0
  6
Continuous
 62
     7
370
    25
100
AcDbLine
 10
131.667979023
 20
23.0
 30
0.0
 11
171.3542486889
 21
-22.0
 31
0.0
  0
LINE
  5
29A
330
228
100
AcDbEntity
  8
0
  6
Continuous
 62
     7
370
    25
100
AcDbLine
 10
-131.667979023
 20
23.0
 30
0.0
 11
131.667979023
 21
23.0
 31
0.0
  0
LINE
  5
29B
330
228
100
AcDbEntity
  8
0
  6
Continuous
 62
     7
370
    25
100
AcDbLine
 10
-171.3542486889
 20
-22.0
 30
0.0
 11
-131.667979023
 21
23.0
 31
0.0
  0
LINE
  5
29C
330
228
100
AcDbEntity
  8
0
  6
Continuous
 62
     7
370
    25
100
AcDbLine
 10
-235.0
 20
-22.0
 30
0.0
 11
-171.3542486889
 21
-22.0
 31
0.0
  0
LINE
  5
29D
330
228
100
AcDbEntity
  8
0
  6
Continuous
 62
     7
370
    25
100
AcDbLine
 10
-237.0
 20
35.0
 30
0.0
 11
-237.0
 21
-20.0
 31
0.0
  0
LINE
  5
29E
330
228
100
AcDbEntity
  8
0
  6
Continuous
 62
     7
370
    25
100
AcDbLine
 10
-305.0
 20
40.0
 30
0.0
 11
-244.4161984871
 21
40.0
 31
0.0
  0
LINE
  5
29F
330
228
100
AcDbEntity
  8
0
  6
Continuous
 62
     7
370
    25
100
AcDbLine
 10
-310.0
 20
115.0
 30
0.0
 11
-310.0
 21
45.0
 31
0.0
  0
LINE
  5
2A0
330
228
100
AcDbEntity
  8
0
  6
Continuous
 62
     7
370
    25
100
AcDbLine
 10
-305.0
 20
120.0
 30
0.0
 11
305.0
 21
120.0
 31
0.0
  0
LINE
  5
2A1
330
228
100
AcDbEntity
  8
0
  6
Continuous
 62
     7
370
    25
100
AcDbLine
 10
305.0
 20
40.0
 30
0.0
 11
305.0
 21
120.0
 31
0.0
  0
LINE
  5
2A2
330
228
100
AcDbEntity
  8
0
  6
Continuous
 62
     7
370
    25
100
AcDbLine
 10
237.0
 20
43.0
 30
0.0
 11
305.0
 21
43.0
 31
0.0
  0
LINE
  5
2A3
330
228
100
AcDbEntity
  8
0
  6
Continuous
 62
     7
370
    25
100
AcDbLine
 10
-240.0
 20
-20.0
 30
0.0
 11
-237.0
 21
-20.0
 31
0.0
  0
LINE
  5
2A4
330
228
100
AcDbEntity
  8
0
  6
Continuous
 62
     7
370
    25
100
AcDbLine
 10
-235.0
 20
-22.0
 30
0.0
 11
-235.0
 21
-25.0
 31
0.0
  0
LINE
  5
2A5
330
228
100
AcDbEntity
  8
0
  6
Continuous
 62
     7
370
    25
100
AcDbLine
 10
116.7712434447
 20
20.0
 30
0.0
 11
131.667979023
 21
23.0
 31
0.0
  0
LINE
  5
2A6
330
228
100
AcDbEntity
  8
0
  6
Continuous
 62
     7
370
    25
100
AcDbLine
 10
131.667979023
 20
23.0
 30
0.0
 11
139.2712434447
 21
9.843134833
 31
0.0
  0
LINE
  5
2A7
330
228
100
AcDbEntity
  8
0
  6
Continuous
 62
     7
370
    25
100
AcDbLine
 10
305.0
 20
40.0
 30
0.0
 11
245.0
 21
40.0
 31
0.0
  0
LINE
  5
2A8
330
228
100
AcDbEntity
  8
0
  6
Continuous
 62
     7
370
    25
100
AcDbLine
 10
235.0
 20
-25.0
 30
0.0
 11
235.0
 21
-22.0
 31
0.0
  0
LINE
  5
2A9
330
228
100
AcDbEntity
  8
0
  6
Continuous
 62
     7
370
    25
100
AcDbLine
 10
237.0
 20
-20.0
 30
0.0
 11
240.0
 21
-20.0
 31
0.0
  0
LINE
  5
2AA
330
228
100
AcDbEntity
  8
0
  6
Continuous
 62
     7
370
    25
100
AcDbLine
 10
-237.0
 20
35.0
 30
0.0
 11
-240.0
 21
35.0
 31
0.0
  0
LINE
  5
2AB
330
228
100
AcDbEntity
  8
0
  6
Continuous
 62
     7
370
    25
100
AcDbLine
 10
169.1042486889
 20
-23.9843134833
 30
0.0
 11
171.3542486889
 21
-22.0
 31
0.0
  0
LINE
  5
2AC
330
228
100
AcDbEntity
  8
0
  6
Continuous
 62
     7
370
    25
100
AcDbLine
 10
169.1042486889
 20
-23.9843134833
 30
0.0
 11
139.2712434447
 21
9.843134833
 31
0.0
  0
LINE
  5
2AD
330
228
100
AcDbEntity
  8
0
  6
Continuous
 62
     7
370
    25
100
AcDbLine
 10
-131.667979023
 20
23.0
 30
0.0
 11
-116.7712434447
 21
20.0
 31
0.0
  0
LINE
  5
2AE
330
228
100
AcDbEntity
  8
0
  6
Continuous
 62
     7
370
    25
100
AcDbLine
 10
116.7712434447
 20
20.0
 30
0.0
 11
-116.7712434447
 21
20.0
 31
0.0
  0
LINE
  5
2AF
330
228
100
AcDbEntity
  8
0
  6
Continuous
 62
     7
370
    25
100
AcDbLine
 10
-139.2712434447
 20
9.843134833
 30
0.0
 11
-131.667979023
 21
23.0
 31
0.0
  0
LINE
  5
2B0
330
228
100
AcDbEntity
  8
0
  6
Continuous
 62
     7
370
    25
100
AcDbLine
 10
-139.2712434447
 20
9.843134833
 30
0.0
 11
-169.1042486889
 21
-23.9843134833
 31
0.0
  0
LINE
  5
2B1
330
228
100
AcDbEntity
  8
0
  6
Continuous
 62
     7
370
    25
100
AcDbLine
 10
-171.3542486889
 20
-22.0
 30
0.0
 11
-169.1042486889
 21
-23.9843134833
 31
0.0
  0
LINE
  5
2B2
330
228
100
AcDbEntity
  8
0
  6
Continuous
 62
     7
370
    25
100
AcDbLine
 10
-171.3542486889
 20
-25.0
 30
0.0
 11
-171.3542486889
 21
-22.0
 31
0.0
  0
LINE
  5
2B3
330
228
100
AcDbEntity
  8
0
  6
Continuous
 62
     7
370
    25
100
AcDbLine
 10
-171.3542486889
 20
-25.0
 30
0.0
 11
-235.0
 21
-25.0
 31
0.0
  0
LINE
  5
2B4
330
228
100
AcDbEntity
  8
0
  6
Continuous
 62
     7
370
    25
100
AcDbLine
 10
-240.0
 20
-20.0
 30
0.0
 11
-240.0
 21
35.0
 31
0.0
  0
LINE
  5
2B5
330
228
100
AcDbEntity
  8
0
  6
Continuous
 62
     7
370
    25
100
AcDbLine
 10
310.0
 20
115.0
 30
0.0
 11
310.0
 21
45.0
 31
0.0
  0
LINE
  5
2B6
330
228
100
AcDbEntity
  8
0
  6
Continuous
 62
     7
370
    25
100
AcDbLine
 10
235.0
 20
-25.0
 30
0.0
 11
171.3542486889
 21
-25.0
 31
0.0
  0
LINE
  5
2B7
330
228
100
AcDbEntity
  8
0
  6
Continuous
 62
     7
370
    25
100
AcDbLine
 10
171.3542486889
 20
-22.0
 30
0.0
 11
171.3542486889
 21
-25.0
 31
0.0
  0
LINE
  5
2B8
330
228
100
AcDbEntity
  8
0
  6
Continuous
 62
     7
370
    25
100
AcDbLine
 10
240.0
 20
35.0
 30
0.0
 11
240.0
 21
-20.0
 31
0.0
  0
LINE
  5
2B9
330
228
100
AcDbEntity
  8
0
  6
Continuous
 62
     7
370
    25
100
AcDbLine
 10
145.75
 20
50.0
 30
0.0
 11
134.25
 21
50.0
 31
0.0
  0
LINE
  5
2BA
330
228
100
AcDbEntity
  8
0
  6
Continuous
 62
     7
370
    25
100
AcDbLine
 10
134.25
 20
70.0
 30
0.0
 11
145.75
 21
70.0
 31
0.0
  0
LINE
  5
2BB
330
228
100
AcDbEntity
  8
0
  6
Continuous
 62
     7
370
    25
100
AcDbLine
 10
-134.25
 20
50.0
 30
0.0
 11
-145.75
 21
50.0
 31
0.0
  0
LINE
  5
2BC
330
228
100
AcDbEntity
  8
0
  6
Continuous
 62
     7
370
    25
100
AcDbLine
 10
-145.75
 20
70.0
 30
0.0
 11
-134.25
 21
70.0
 31
0.0
  0
LINE
  5
2BD
330
228
100
AcDbEntity
  8
0
  6
Continuous
 62
     7
370
    25
100
AcDbLine
 10
27.1015761322
 20
20.0
 30
0.0
 11
25.1074361193
 21
-37.1046984901
 31
0.0
  0
LINE
  5
2BE
330
228
100
AcDbEntity
  8
0
  6
Continuous
 62
     7
370
    25
100
AcDbLine
 10
22.1092636383
 20
-40.0
 30
0.0
 11
-22.1092636383
 21
-40.0
 31
0.0
  0
LINE
  5
2BF
330
228
100
AcDbEntity
  8
0
  6
Continuous
 62
     7
370
    25
100
AcDbLine
 10
-25.1074361193
 20
-37.1046984901
 30
0.0
 11
-27.1015761322
 21
20.0
 31
0.0
  0
LINE
  5
2C0
330
228
100
AcDbEntity
  8
0
  6
Continuous
 62
     7
370
    25
100
AcDbLine
 10
-75.0
 20
-15.0
 30
0.0
 11
-28.7764155244
 21
-15.0
 31
0.0
  0
LINE
  5
2C1
330
228
100
AcDbEntity
  8
0
  6
Continuous
 62
     7
370
    25
100
AcDbLine
 10
28.7764155244
 20
-15.0
 30
0.0
 11
75.0
 21
-15.0
 31
0.0
  0
LINE
  5
2C2
330
228
100
AcDbEntity
  8
0
  6
Continuous
 62
     7
370
    25
100
AcDbLine
 10
20.3637954563
 20
-43.0
 30
0.0
 11
-20.3637954563
 21
-43.0
 31
0.0
  0
LINE
  5
2C3
330
228
100
AcDbEntity
  8
0
  6
Continuous
 62
     7
370
    25
100
AcDbLine
 10
-25.8867447635
 20
-37.2093969802
 30
0.0
 11
-26.5045932462
 21
-18.0
 31
0.0
  0
LINE
  5
2C4
330
228
100
AcDbEntity
  8
0
  6
Continuous
 62
     7
370
    25
100
AcDbLine
 10
26.5045932462
 20
-18.0
 30
0.0
 11
25.8867447635
 21
-37.2093969802
 31
0.0
  0
LINE
  5
2C5
330
228
100
AcDbEntity
  8
0
  6
Continuous
 62
     7
370
    25
100
AcDbLine
 10
32.0
 20
-50.0
 30
0.0
 11
-32.0
 21
-50.0
 31
0.0
  0
LINE
  5
2C6
330
228
100
AcDbEntity
  8
0
  6
Continuous
 62
     8
370
    25
100
AcDbLine
 10
22.1092636383
 20
-40.0
 30
0.0
 11
24.123101222
 21
20.0
 31
0.0
  0
LINE
  5
2C7
330
228
100
AcDbEntity
  8
0
  6
Continuous
 62
     8
370
    25
100
AcDbLine
 10
-24.123101222
 20
20.0
 30
0.0
 11
-22.1092636383
 21
-40.0
 31
0.0
  0
LINE
  5
2C8
330
228
100
AcDbEntity
  8
0
  6
Continuous
 62
     8
370
    25
100
AcDbLine
 10
-26.5045932462
 20
-18.0
 30
0.0
 11
-35.0
 21
-18.0
 31
0.0
  0
LINE
  5
2C9
330
228
100
AcDbEntity
  8
0
  6
Continuous
 62
     8
370
    25
100
AcDbLine
 10
35.0
 20
-18.0
 30
0.0
 11
26.5045932462
 21
-18.0
 31
0.0
  0
LINE
  5
2CA
330
228
100
AcDbEntity
  8
0
  6
Continuous
 62
     8
370
    25
100
AcDbLine
 10
-35.0
 20
-47.0
 30
0.0
 11
35.0
 21
-47.0
 31
0.0
  0
ARC
  5
2CB
330
228
100
AcDbEntity
  8
0
  6
Continuous
 62
     7
370
    25
100
AcDbCircle
 10
-32.0
 20
-47.0
 30
0.0
 40
2.999999999999986
100
AcDbArc
 50
180.0
 51
270.0
  0
ARC
  5
2CC
330
228
100
AcDbEntity
  8
0
  6
Continuous
 62
     7
370
    25
100
AcDbCircle
 10
32.0
 20
-47.0
 30
0.0
 40
2.999999999999986
100
AcDbArc
 50
270.0
 51
0.0
  0
ARC
  5
2CD
330
228
100
AcDbEntity
  8
0
  6
Continuous
 62
     7
370
    25
100
AcDbCircle
 10
-38.0
 20
-18.0
 30
0.0
 40
3.000000000000014
100
AcDbArc
 50
0.0
 51
90.0
  0
ARC
  5
2CE
330
228
100
AcDbEntity
  8
0
  6
Continuous
 62
     7
370
    25
100
AcDbCircle
 10
38.0
 20
-18.0
 30
0.0
 40
3.0
100
AcDbArc
 50
90.0
 51
180.0
  0
ARC
  5
2CF
330
228
100
AcDbEntity
  8
0
  6
Continuous
 62
     7
370
    25
100
AcDbCircle
 10
245.0
 20
35.0
 30
0.0
 40
5.000000000000014
100
AcDbArc
 50
90.0
 51
180.0
  0
ARC
  5
2D0
330
228
100
AcDbEntity
  8
0
  6
Continuous
 62
     7
370
    25
100
AcDbCircle
 10
235.0
 20
-20.0
 30
0.0
 40
2.000000000000057
100
AcDbArc
 50
270.0
 51
0.0
  0
ARC
  5
2D1
330
228
100
AcDbEntity
  8
0
  6
Continuous
 62
     7
370
    25
100
AcDbCircle
 10
-235.0
 20
-20.0
 30
0.0
 40
2.000000000000057
100
AcDbArc
 50
180.0
 51
270.0
  0
ARC
  5
2D2
330
228
100
AcDbEntity
  8
0
  6
Continuous
 62
     7
370
    25
100
AcDbCircle
 10
-305.0
 20
45.0
 30
0.0
 40
5.000000000000021
100
AcDbArc
 50
180.0
 51
270.0
  0
ARC
  5
2D3
330
228
100
AcDbEntity
  8
0
  6
Continuous
 62
     7
370
    25
100
AcDbCircle
 10
-305.0
 20
115.0
 30
0.0
 40
5.0
100
AcDbArc
 50
90.0
 51
180.0
  0
ARC
  5
2D4
330
228
100
AcDbEntity
  8
0
  6
Continuous
 62
     7
370
    25
100
AcDbCircle
 10
-235.0
 20
-20.0
 30
0.0
 40
4.999999999999972
100
AcDbArc
 50
180.0
 51
270.0
  0
ARC
  5
2D5
330
228
100
AcDbEntity
  8
0
  6
Continuous
 62
     7
370
    25
100
AcDbCircle
 10
116.7712434447
 20
-10.0
 30
0.0
 40
29.99999999999986
100
AcDbArc
 50
41.4096221093
 51
90.0
  0
ARC
  5
2D6
330
228
100
AcDbEntity
  8
0
  6
Continuous
 62
     7
370
    25
100
AcDbCircle
 10
235.0
 20
-20.0
 30
0.0
 40
5.000000000000028
100
AcDbArc
 50
270.0
 51
0.0
  0
ARC
  5
2D7
330
228
100
AcDbEntity
  8
0
  6
Continuous
 62
     7
370
    25
100
AcDbCircle
 10
-245.0
 20
35.0
 30
0.0
 40
5.0
100
AcDbArc
 50
0.0
 51
90.0
  0
ARC
  5
2D8
330
228
100
AcDbEntity
  8
0
  6
Continuous
 62
     7
370
    25
100
AcDbCircle
 10
305.0
 20
115.0
 30
0.0
 40
5.0
100
AcDbArc
 50
0.0
 51
90.0
  0
ARC
  5
2D9
330
228
100
AcDbEntity
  8
0
  6
Continuous
 62
     7
370
    25
100
AcDbCircle
 10
171.3542486889
 20
-22.0
 30
0.0
 40
2.999999999999432
100
AcDbArc
 50
221.4096221093
 51
270.0
  0
ARC
  5
2DA
330
228
100
AcDbEntity
  8
0
  6
Continuous
 62
     7
370
    25
100
AcDbCircle
 10
305.0
 20
45.0
 30
0.0
 40
5.000000000000014
100
AcDbArc
 50
270.0
 51
0.0
  0
ARC
  5
2DB
330
228
100
AcDbEntity
  8
0
  6
Continuous
 62
     7
370
    25
100
AcDbCircle
 10
-171.3542486889
 20
-22.0
 30
0.0
 40
2.999999999999954
100
AcDbArc
 50
270.0
 51
318.5903778907
  0
ARC
  5
2DC
330
228
100
AcDbEntity
  8
0
  6
Continuous
 62
     7
370
    25
100
AcDbCircle
 10
-116.7712434447
 20
-10.0
 30
0.0
 40
29.99999999999986
100
AcDbArc
 50
90.0
 51
138.5903778907
  0
ARC
  5
2DD
330
228
100
AcDbEntity
  8
0
  6
Continuous
 62
     7
370
    25
100
AcDbCircle
 10
134.25
 20
60.0
 30
0.0
 40
9.999999999999929
100
AcDbArc
 50
90.0
 51
270.0
  0
ARC
  5
2DE
330
228
100
AcDbEntity
  8
0
  6
Continuous
 62
     7
370
    25
100
AcDbCircle
 10
145.75
 20
60.0
 30
0.0
 40
9.999999999999915
100
AcDbArc
 50
270.0
 51
90.0
  0
ARC
  5
2DF
330
228
100
AcDbEntity
  8
0
  6
Continuous
 62
     7
370
    25
100
AcDbCircle
 10
-134.25
 20
60.0
 30
0.0
 40
9.999999999999915
100
AcDbArc
 50
270.0
 51
90.0
  0
ARC
  5
2E0
330
228
100
AcDbEntity
  8
0
  6
Continuous
 62
     7
370
    25
100
AcDbCircle
 10
-145.75
 20
60.0
 30
0.0
 40
9.999999999999929
100
AcDbArc
 50
90.0
 51
270.0
  0
ARC
  5
2E1
330
228
100
AcDbEntity
  8
0
  6
Continuous
 62
     7
370
    25
100
AcDbCircle
 10
22.1092636383
 20
-37.0
 30
0.0
 40
3.000000000000007
100
AcDbArc
 50
270.0
 51
358.0
  0
ARC
  5
2E2
330
228
100
AcDbEntity
  8
0
  6
Continuous
 62
     7
370
    25
100
AcDbCircle
 10
-22.1092636383
 20
-37.0
 30
0.0
 40
3.000000000000017
100
AcDbArc
 50
182.0
 51
270.0
  0
ARC
  5
2E3
330
228
100
AcDbEntity
  8
0
  6
Continuous
 62
     7
370
    25
100
AcDbCircle
 10
-25.8832228907
 20
-34.2829245721
 30
0.0
 40
2.926474527355296
100
AcDbArc
 50
269.9310472405
 51
285.3724557875
  0
ARC
  5
2E4
330
228
100
AcDbEntity
  8
0
  6
Continuous
 62
     7
370
    25
100
AcDbCircle
 10
25.8832228907
 20
-34.2829245721
 30
0.0
 40
2.926474527355828
100
AcDbArc
 50
254.6275442125
 51
270.0689527595
  0
ARC
  5
2E5
330
228
100
AcDbEntity
  8
0
  6
Continuous
 62
     7
370
    25
100
AcDbCircle
 10
-26.4962942108
 20
-15.4856830393
 30
0.0
 40
2.514330656986262
100
AcDbArc
 50
269.8108838372
 51
286.5937260127
  0
ARC
  5
2E6
330
228
100
AcDbEntity
  8
0
  6
Continuous
 62
     7
370
    25
100
AcDbCircle
 10
26.4962942108
 20
-15.4856830393
 30
0.0
 40
2.514330656986812
100
AcDbArc
 50
253.4062739873
 51
270.1891161628
  0
ARC
  5
2E7
330
228
100
AcDbEntity
  8
0
  6
Continuous
 62
     7
370
    25
100
AcDbCircle
 10
-29.1988543275
 20
-17.6800980387
 30
0.0
 40
2.713186325922188
100
AcDbArc
 50
353.2287111787
 51
81.0426958912
  0
ARC
  5
2E8
330
228
100
AcDbEntity
  8
0
  6
Continuous
 62
     7
370
    25
100
AcDbCircle
 10
29.1988543275
 20
-17.6800980387
 30
0.0
 40
2.71318632592218
100
AcDbArc
 50
98.9573041088
 51
186.7712888213
  0
VIEWPORT
  5
37E
330
228
100
AcDbEntity
  8
0
100
AcDbViewport
 10
0.0
 20
0.0
 30
0.0
 40
205.6
 41
156.0
 68
     1
 69
     1
 12
0.0
 22
0.0
 13
0.0
 23
0.0
 14
10.0
 24
10.0
 15
10.0
 25
10.0
 16
0.0
 26
0.0
 36
1.0
 17
0.0
 27
0.0
 37
0.0
 42
50.0
 43
0.0
 44
0.0
 45
479.8365758755
 50
0.0
 51
0.0
 72
   100
 90
   557152
  1

281
     0
 71
     1
 74
     0
110
0.0
120
0.0
130
0.0
111
1.0
121
0.0
131
0.0
112
0.0
122
1.0
132
0.0
 79
     0
146
0.0
  0
ENDBLK
  5
22B
330
228
100
AcDbEntity
  8
0
100
AcDbBlockEnd
  0
BLOCK
  5
2EB
330
2E9
100
AcDbEntity
  8
0
100
AcDbBlockBegin
  2
*Paper_Space2
 70
     0
 10
0.0
 20
0.0
 30
0.0
  3
*Paper_Space2
  1

  0
SPLINE
  5
2ED
330
2E9
100
AcDbEntity
  8
0
  6
Continuous
 62
     7
370
    25
100
AcDbSpline
210
0.0
220
0.0
230
1.0
 70
     8
 71
     3
 72
    55
 73
    51
 74
     0
 42
0.000000001
 43
0.00000001
 40
0.0
 40
0.0
 40
0.0
 40
0.0
 40
0.0120305558062129
 40
0.0333999414835844
 40
0.0546057524257366
 40
0.0755452265515129
 40
0.0963808915321729
 40
0.1171832987886715
 40
0.1379732049531757
 40
0.1587685139752625
 40
0.1795788990613854
 40
0.2004161718751636
 40
0.2212885730005894
 40
0.2422010992086471
 40
0.263156028427428
 40
0.284153506847751
 40
0.3051921499880695
 40
0.3262696281233272
 40
0.3473832178239268
 40
0.3685271670641875
 40
0.3896096779983325
 40
0.4105686947154428
 40
0.4315605402683109
 40
0.4525842004422939
 40
0.4736372549074109
 40
0.494715873498699
 40
0.5158151381483549
 40
0.5369293853552728
 40
0.5580516654179488
 40
0.5791747497359634
 40
0.6002930560964447
 40
0.6214018184315909
 40
0.6424974143016219
 40
0.663577662288522
 40
0.6846419496757958
 40
0.705614440083012
 40
0.7265421378838861
 40
0.7474968464193167
 40
0.7684821035900007
 40
0.7894999023231349
 40
0.8105507294279863
 40
0.8316337738291975
 40
0.8527471707645601
 40
0.8738882794372017
 40
0.8950539901759317
 40
0.9162410562081524
 40
0.9374464445432464
 40
0.9586677002638068
 40
0.9799033187313952
 40
1.0
 40
1.0
 40
1.0
 40
1.0
 10
203.5365621526944
 20
12.29596269850674
 30
0.0
 10
203.3217380317789
 20
11.59730860591846
 30
0.0
 10
202.7253305853219
 20
9.657663739497217
 30
0.0
 10
201.4042720533408
 20
6.508627594945686
 30
0.0
 10
199.6118891621859
 20
2.870923716956336
 30
0.0
 10
197.5142303110545
 20
-0.7015075475842458
 30
0.0
 10
195.135544848318
 20
-4.209487978183317
 30
0.0
 10
192.468755619845
 20
-7.65876975402454
 30
0.0
 10
189.5169020862662
 20
-11.04680096536891
 30
0.0
 10
186.283842348024
 20
-14.36741196309392
 30
0.0
 10
182.7745318265114
 20
-17.61398129390332
 30
0.0
 10
178.9945890928404
 20
-20.77947777961699
 30
0.0
 10
174.95020483478
 20
-23.85679105358117
 30
0.0
 10
170.6484757130773
 20
-26.83854369096949
 30
0.0
 10
166.0974339049263
 20
-29.7172259755491
 30
0.0
 10
161.3060172039525
 20
-32.48533401434787
 30
0.0
 10
156.283989445282
 20
-35.13548440460205
 30
0.0
 10
151.0418877871089
 20
-37.66056399261565
 30
0.0
 10
145.591002272187
 20
-40.05355650253034
 30
0.0
 10
139.9516408463948
 20
-42.3051289240227
 30
0.0
 10
134.1495079138486
 20
-44.40345580501636
 30
0.0
 10
128.19766636683
 20
-46.34513236219745
 30
0.0
 10
122.1013061252538
 20
-48.12974806976117
 30
0.0
 10
115.8583454023241
 20
-49.75748363606508
 30
0.0
 10
109.4822600091461
 20
-51.22400437453229
 30
0.0
 10
102.9872187617746
 20
-52.52528174737311
 30
0.0
 10
96.38804362760813
 20
-53.65765244482558
 30
0.0
 10
89.70017892855927
 20
-54.61785540414371
 30
0.0
 10
82.93959352053072
 20
-55.40308577306555
 30
0.0
 10
76.12249826104043
 20
-56.01105753688726
 30
0.0
 10
69.26507722697413
 20
-56.4400242993183
 30
0.0
 10
62.38328762373034
 20
-56.68877000001032
 30
0.0
 10
55.4928390611062
 20
-56.75657705148232
 30
0.0
 10
48.60906952273896
 20
-56.64322470861232
 30
0.0
 10
41.75520636896599
 20
-56.34923507276443
 30
0.0
 10
34.94897535440855
 20
-55.87643782034639
 30
0.0
 10
28.19980257725832
 20
-55.227268329874
 30
0.0
 10
21.50857089239809
 20
-54.40254079266114
 30
0.0
 10
14.88117094490345
 20
-53.4029389413081
 30
0.0
 10
8.331048482342258
 20
-52.23022578226188
 30
0.0
 10
1.871975225865879
 20
-50.88660558219811
 30
0.0
 10
-4.482040886153935
 20
-49.37474450304405
 30
0.0
 10
-10.71688880986543
 20
-47.69779439424246
 30
0.0
 10
-16.81843182240644
 20
-45.85936818039114
 30
0.0
 10
-22.77283239176164
 20
-43.86363706903611
 30
0.0
 10
-28.56597403509244
 20
-41.71491594678442
 30
0.0
 10
-34.18626159855659
 20
-39.4191016891367
 30
0.0
 10
-39.61478032627944
 20
-36.97812721853835
 30
0.0
 10
-44.76766271104743
 20
-34.45692819650784
 30
0.0
 10
-47.9944617510866
 20
-32.68585480895949
 30
0.0
 10
-49.56340304492713
 20
-31.82471962896609
 30
0.0
  0
SPLINE
  5
2F1
330
2E9
100
AcDbEntity
  8
0
  6
Continuous
 62
     7
370
    25
100
AcDbSpline
210
0.0
220
0.0
230
1.0
 70
     8
 71
     3
 72
    17
 73
    13
 74
     0
 42
0.000000001
 43
0.00000001
 40
0.0
 40
0.0
 40
0.0
 40
0.0
 40
0.0163517161419539
 40
0.0587439497671204
 40
0.1487197201679902
 40
0.3469774214420765
 40
0.4639741519183893
 40
0.5781385836497472
 40
0.6978849803861533
 40
0.8471997638600945
 40
0.9849784531643726
 40
1.0
 40
1.0
 40
1.0
 40
1.0
 10
-49.56060515092695
 20
-31.81116170585447
 30
0.0
 10
-50.5197679152154
 20
-31.28114365776882
 30
0.0
 10
-53.96558416806044
 20
-29.37704054577039
 30
0.0
 10
-62.61891673120653
 20
-24.4291574898768
 30
0.0
 10
-82.0160985646527
 20
-13.59463209027738
 30
0.0
 10
-105.7753696581436
 20
-0.2846172959982546
 30
0.0
 10
-130.7784995555807
 20
13.90220707320434
 30
0.0
 10
-150.9837477323371
 20
25.62074543294633
 30
0.0
 10
-172.8835991019118
 20
38.53033381343867
 30
0.0
 10
-195.9210019815183
 20
52.32132891378819
 30
0.0
 10
-213.3507669306654
 20
62.49772543694007
 30
0.0
 10
-221.9198422664925
 20
67.66935141553239
 30
0.0
 10
-222.7622543579062
 20
68.17776569430775
 30
0.0
  0
SPLINE
  5
2F2
330
2E9
100
AcDbEntity
  8
0
  6
Continuous
 62
     7
370
    25
100
AcDbSpline
210
0.0
220
0.0
230
1.0
 70
     8
 71
     3
 72
    16
 73
    12
 74
     0
 42
0.000000001
 43
0.00000001
 40
0.0
 40
0.0
 40
0.0
 40
0.0
 40
0.0689297168262562
 40
0.191551198768973
 40
0.3211061888895136
 40
0.4510099343356065
 40
0.5812429808186477
 40
0.7117622336175694
 40
0.8425239976179626
 40
0.9734882753247968
 40
1.0
 40
1.0
 40
1.0
 40
1.0
 10
-222.7662490725919
 20
68.17688002040518
 30
0.0
 10
-223.6084762014488
 20
68.67646006697696
 30
0.0
 10
-225.9489706006196
 20
70.0647605157238
 30
0.0
 10
-229.6275829393336
 20
72.48406398693615
 30
0.0
 10
-233.8152857718488
 20
75.45586663629244
 30
0.0
 10
-237.8250088695913
 20
78.58861520588187
 30
0.0
 10
-241.5873991877657
 20
81.82039249472521
 30
0.0
 10
-245.097336215039
 20
85.14184546509426
 30
0.0
 10
-248.3149708911778
 20
88.54967173382967
 30
0.0
 10
-250.5423051065566
 20
91.08991372043745
 30
0.0
 10
-251.6056766308606
 20
92.50786780469008
 30
0.0
 10
-251.7846995464373
 20
92.74658613456349
 30
0.0
  0
SPLINE
  5
2F3
330
2E9
100
AcDbEntity
  8
0
  6
Continuous
 62
     7
370
    25
100
AcDbSpline
210
0.0
220
0.0
230
1.0
 70
     8
 71
     3
 72
    31
 73
    27
 74
     0
 42
0.000000001
 43
0.00000001
 40
0.0
 40
0.0
 40
0.0
 40
0.0
 40
0.0164431909290172
 40
0.0619479243049232
 40
0.1065905622604358
 40
0.1501485579312799
 40
0.1930337689888281
 40
0.2356356655342353
 40
0.2781740663034346
 40
0.3207250712165559
 40
0.3633377358141124
 40
0.4060191841148311
 40
0.4487574864858299
 40
0.4915328290725851
 40
0.5343224198245966
 40
0.5770989792530109
 40
0.6198335432986194
 40
0.6625019440387113
 40
0.7050820345960125
 40
0.7475585084118812
 40
0.7899338624140748
 40
0.8322506173840271
 40
0.8745874413527226
 40
0.9171458317471003
 40
0.9602931614961582
 40
1.0
 40
1.0
 40
1.0
 40
1.0
 10
206.6039484757652
 20
124.3781608383447
 30
0.0
 10
206.6030991168315
 20
124.2244129561779
 30
0.0
 10
206.5998992498977
 20
123.6451846173702
 30
0.0
 10
206.2724422364075
 20
122.6475094997689
 30
0.0
 10
205.6190341266687
 20
121.4045351700669
 30
0.0
 10
204.6503827818328
 20
120.2192418885162
 30
0.0
 10
203.4145133921839
 20
119.1145763905438
 30
0.0
 10
201.9253910716673
 20
118.1077160330254
 30
0.0
 10
200.2079436443903
 20
117.2161251525339
 30
0.0
 10
198.2900050213656
 20
116.4570413582207
 30
0.0
 10
196.2050036488095
 20
115.8460186879907
 30
0.0
 10
193.9898734958277
 20
115.3958467320029
 30
0.0
 10
191.6848512440514
 20
115.1161533549998
 30
0.0
 10
189.3323015119632
 20
115.0130118803084
 30
0.0
 10
186.9757849654798
 20
115.0887614637397
 30
0.0
 10
184.6591568298604
 20
115.3419059361106
 30
0.0
 10
182.4255884573424
 20
115.7670724828653
 30
0.0
 10
180.316624921903
 20
116.3550453180091
 30
0.0
 10
178.3712393165789
 20
117.0928452092653
 30
0.0
 10
176.6249644948112
 20
117.9638462558521
 30
0.0
 10
175.1084297150311
 20
118.9481112580627
 30
0.0
 10
173.8474279224718
 20
120.0228477467607
 30
0.0
 10
172.8575010537826
 20
121.1639582061978
 30
0.0
 10
172.1568991204313
 20
122.3493593172845
 30
0.0
 10
171.730790605123
 20
123.5224681125875
 30
0.0
 10
171.6862586090773
 20
124.2972360232596
 30
0.0
 10
171.6649171990732
 20
124.6685339911919
 30
0.0
  0
SPLINE
  5
2F7
330
2E9
100
AcDbEntity
  8
0
  6
Continuous
 62
     7
370
    25
100
AcDbSpline
210
0.0
220
0.0
230
1.0
 70
     8
 71
     3
 72
    11
 73
     7
 74
     0
 42
0.000000001
 43
0.00000001
 40
0.0
 40
0.0
 40
0.0
 40
0.0
 40
0.2240161120349289
 40
0.5471950393724713
 40
0.8620805598090725
 40
1.0
 40
1.0
 40
1.0
 40
1.0
 10
71.06580361552665
 20
128.0672729198454
 30
0.0
 10
71.26871193644939
 20
128.1885248819957
 30
0.0
 10
71.76434783356291
 20
128.484702114964
 30
0.0
 10
72.68396926755382
 20
128.6330311184313
 30
0.0
 10
73.61908093960274
 20
128.5676048239795
 30
0.0
 10
74.20292187037707
 20
128.4014491928813
 30
0.0
 10
74.38075343437175
 20
128.3508400043382
 30
0.0
  0
SPLINE
  5
2F8
330
2E9
100
AcDbEntity
  8
0
  6
Continuous
 62
     7
370
    25
100
AcDbSpline
210
0.0
220
0.0
230
1.0
 70
     8
 71
     3
 72
    23
 73
    19
 74
     0
 42
0.000000001
 43
0.00000001
 40
0.0
 40
0.0
 40
0.0
 40
0.0
 40
0.0334339060465021
 40
0.0987496813460702
 40
0.1647741929760363
 40
0.2306719992401449
 40
0.2968574910893302
 40
0.3630605566787509
 40
0.4294706808463646
 40
0.4956841232737868
 40
0.5619530778272225
 40
0.6280122551987595
 40
0.6940262923826365
 40
0.7599433347954044
 40
0.8259565135266548
 40
0.8923526221050628
 40
0.9601076788221197
 40
1.0
 40
1.0
 40
1.0
 40
1.0
 10
74.38075343437175
 20
128.3508400043382
 30
0.0
 10
74.57655745527995
 20
128.2822124320948
 30
0.0
 10
75.15488009111168
 20
128.0795154788532
 30
0.0
 10
76.16090402993704
 20
127.5396294074738
 30
0.0
 10
77.35693910232499
 20
126.6503168725868
 30
0.0
 10
78.51335572463083
 20
125.5208917516516
 30
0.0
 10
79.57917599693378
 20
124.1931452264155
 30
0.0
 10
80.52065885283297
 20
122.70419683766
 30
0.0
 10
81.29973284379564
 20
121.1019478820266
 30
0.0
 10
81.89259376398932
 20
119.4363406465287
 30
0.0
 10
82.27530783235886
 20
117.7626539864049
 30
0.0
 10
82.4415496787965
 20
116.1310140703465
 30
0.0
 10
82.38515809437038
 20
114.5982654839243
 30
0.0
 10
82.1179075021417
 20
113.2063517048098
 30
0.0
 10
81.65509706033649
 20
112.0036736097554
 30
0.0
 10
81.01374714557495
 20
111.0223413484856
 30
0.0
 10
80.3538536918349
 20
110.3555329880306
 30
0.0
 10
79.86544559360864
 20
110.1192842668186
 30
0.0
 10
79.68444970591189
 20
110.0317344346839
 30
0.0
  0
SPLINE
  5
2F9
330
2E9
100
AcDbEntity
  8
0
  6
Continuous
 62
     7
370
    25
100
AcDbSpline
210
0.0
220
0.0
230
1.0
 70
     8
 71
     3
 72
    12
 73
     8
 74
     0
 42
0.000000001
 43
0.00000001
 40
0.0
 40
0.0
 40
0.0
 40
0.0
 40
0.0295465132714566
 40
0.3008207440235492
 40
0.5725414811256089
 40
0.8442759450041181
 40
1.0
 40
1.0
 40
1.0
 40
1.0
 10
81.82694055039413
 20
119.5211524261533
 30
0.0
 10
81.7857959299566
 20
119.5671200812967
 30
0.0
 10
81.36689183731883
 20
120.0351287459461
 30
0.0
 10
80.65959364276328
 20
121.081890997485
 30
0.0
 10
79.76599511475132
 20
122.6171430662862
 30
0.0
 10
79.12077971070156
 20
124.0066465014228
 30
0.0
 10
78.85528644287395
 20
124.8543703787147
 30
0.0
 10
78.75856667612537
 20
125.1631980049283
 30
0.0
  0
SPLINE
  5
2FA
330
2E9
100
AcDbEntity
  8
0
  6
Continuous
 62
     7
370
    25
100
AcDbSpline
210
0.0
220
0.0
230
1.0
 70
     8
 71
     3
 72
    31
 73
    27
 74
     0
 42
0.000000001
 43
0.00000001
 40
0.0
 40
0.0
 40
0.0
 40
0.0
 40
0.0164431909290167
 40
0.0619479243049203
 40
0.1065905622604327
 40
0.150148557931277
 40
0.1930337689888254
 40
0.2356356655342335
 40
0.2781740663034337
 40
0.3207250712165563
 40
0.3633377358141129
 40
0.4060191841148335
 40
0.4487574864858308
 40
0.4915328290725868
 40
0.5343224198245964
 40
0.5770989792530125
 40
0.6198335432986232
 40
0.6625019440387165
 40
0.7050820345960191
 40
0.7475585084118852
 40
0.7899338624140837
 40
0.8322506173840295
 40
0.8745874413527224
 40
0.9171458317471015
 40
0.9602931614961611
 40
1.0
 40
1.0
 40
1.0
 40
1.0
 10
135.8932703571106
 20
165.1985664294803
 30
0.0
 10
135.8924209981769
 20
165.0448185473136
 30
0.0
 10
135.8892211312432
 20
164.4655902085059
 30
0.0
 10
135.5617641177528
 20
163.4679150909044
 30
0.0
 10
134.9083560080143
 20
162.2249407612028
 30
0.0
 10
133.9397046631783
 20
161.0396474796519
 30
0.0
 10
132.7038352735295
 20
159.9349819816794
 30
0.0
 10
131.2147129530129
 20
158.9281216241611
 30
0.0
 10
129.4972655257359
 20
158.0365307436694
 30
0.0
 10
127.5793269027112
 20
157.2774469493564
 30
0.0
 10
125.4943255301552
 20
156.6664242791262
 30
0.0
 10
123.2791953771733
 20
156.2162523231385
 30
0.0
 10
120.974173125397
 20
155.9365589461353
 30
0.0
 10
118.6216233933089
 20
155.8334174714439
 30
0.0
 10
116.2651068468255
 20
155.9091670548752
 30
0.0
 10
113.9484787112061
 20
156.1623115272462
 30
0.0
 10
111.714910338688
 20
156.5874780740007
 30
0.0
 10
109.6059468032486
 20
157.1754509091446
 30
0.0
 10
107.6605611979244
 20
157.9132508004006
 30
0.0
 10
105.9142863761567
 20
158.7842518469876
 30
0.0
 10
104.3977515963766
 20
159.7685168491981
 30
0.0
 10
103.1367498038174
 20
160.8432533378961
 30
0.0
 10
102.1468229351281
 20
161.9843637973331
 30
0.0
 10
101.4462210017768
 20
163.1697649084198
 30
0.0
 10
101.0201124864685
 20
164.3428737037228
 30
0.0
 10
100.9755804904227
 20
165.1176416143949
 30
0.0
 10
100.9542390804185
 20
165.4889395823271
 30
0.0
  0
SPLINE
  5
2FB
330
2E9
100
AcDbEntity
  8
0
  6
Continuous
 62
     7
370
    25
100
AcDbSpline
210
0.0
220
0.0
230
1.0
 70
     8
 71
     3
 72
    21
 73
    17
 74
     0
 42
0.000000001
 43
0.00000001
 40
0.0
 40
0.0
 40
0.0
 40
0.0
 40
0.0360501886283195
 40
0.1122059777302132
 40
0.1883843318206597
 40
0.2646730742152968
 40
0.3410849589259825
 40
0.4175986285300196
 40
0.4941786106142772
 40
0.5707841009510473
 40
0.6473662615266214
 40
0.723873238469093
 40
0.8002617643497046
 40
0.8764921899836086
 40
0.9525371122942664
 40
1.0
 40
1.0
 40
1.0
 40
1.0
 10
105.0052025406485
 20
159.4173450987023
 30
0.0
 10
105.2334164308609
 20
159.5774382727458
 30
0.0
 10
105.9437306804454
 20
160.0757272361322
 30
0.0
 10
107.3919479915995
 20
160.7969720208895
 30
0.0
 10
109.2991790544199
 20
161.5604407115403
 30
0.0
 10
111.3870545478619
 20
162.1702862231591
 30
0.0
 10
113.6014135468986
 20
162.6207746419585
 30
0.0
 10
115.9066400480623
 20
162.9003818795921
 30
0.0
 10
118.2591454211825
 20
163.0035508510062
 30
0.0
 10
120.6156348688883
 20
162.9277775263637
 30
0.0
 10
122.9324156987683
 20
162.6747004700694
 30
0.0
 10
125.1654012695335
 20
162.249288364782
 30
0.0
 10
127.2765383484738
 20
161.6622282654522
 30
0.0
 10
129.2138365419592
 20
160.921033046765
 30
0.0
 10
130.7690493087805
 20
160.1695171643921
 30
0.0
 10
131.5683900437425
 20
159.6277938483805
 30
0.0
 10
131.8755691568454
 20
159.4196146821235
 30
0.0
  0
SPLINE
  5
2FD
330
2E9
100
AcDbEntity
  8
0
  6
Continuous
 62
     7
370
    25
100
AcDbSpline
210
0.0
220
0.0
230
1.0
 70
     8
 71
     3
 72
    31
 73
    27
 74
     0
 42
0.000000001
 43
0.00000001
 40
0.0
 40
0.0
 40
0.0
 40
0.0
 40
0.0164431909290172
 40
0.0619479243049231
 40
0.1065905622604358
 40
0.1501485579312798
 40
0.1930337689888281
 40
0.2356356655342352
 40
0.2781740663034345
 40
0.3207250712165558
 40
0.3633377358141123
 40
0.406019184114831
 40
0.4487574864858298
 40
0.4915328290725849
 40
0.5343224198245965
 40
0.5770989792530108
 40
0.6198335432986193
 40
0.6625019440387112
 40
0.7050820345960124
 40
0.7475585084118811
 40
0.7899338624140747
 40
0.8322506173840268
 40
0.8745874413527225
 40
0.9171458317471002
 40
0.960293161496158
 40
0.9999999999999999
 40
0.9999999999999999
 40
0.9999999999999999
 40
0.9999999999999999
 10
65.18259223845598
 20
206.0189720206158
 30
0.0
 10
65.1817428795222
 20
205.865224138449
 30
0.0
 10
65.17854301258855
 20
205.2859957996413
 30
0.0
 10
64.85108599909806
 20
204.2883206820398
 30
0.0
 10
64.19767788935957
 20
203.0453463523381
 30
0.0
 10
63.22902654452348
 20
201.8600530707872
 30
0.0
 10
61.99315715487468
 20
200.7553875728148
 30
0.0
 10
60.50403483435802
 20
199.7485272152964
 30
0.0
 10
58.78658740708097
 20
198.8569363348049
 30
0.0
 10
56.86864878405634
 20
198.0978525404918
 30
0.0
 10
54.78364741150028
 20
197.4868298702617
 30
0.0
 10
52.56851725851835
 20
197.0366579142739
 30
0.0
 10
50.26349500674203
 20
196.7569645372708
 30
0.0
 10
47.9109452746539
 20
196.6538230625794
 30
0.0
 10
45.55442872817052
 20
196.7295726460107
 30
0.0
 10
43.2378005925511
 20
196.9827171183817
 30
0.0
 10
41.00423222003307
 20
197.4078836651364
 30
0.0
 10
38.89526868459377
 20
197.9958565002801
 30
0.0
 10
36.94988307926965
 20
198.7336563915363
 30
0.0
 10
35.20360825750193
 20
199.6046574381231
 30
0.0
 10
33.68707347772185
 20
200.5889224403337
 30
0.0
 10
32.42607168516254
 20
201.6636589290318
 30
0.0
 10
31.43614481647323
 20
202.8047693884688
 30
0.0
 10
30.73554288312206
 20
203.9901704995556
 30
0.0
 10
30.30943436781376
 20
205.1632792948586
 30
0.0
 10
30.26490237176806
 20
205.9380472055307
 30
0.0
 10
30.24356096176387
 20
206.3093451734629
 30
0.0
  0
SPLINE
  5
310
330
2E9
100
AcDbEntity
  8
0
  6
Continuous
 62
     7
370
    25
100
AcDbSpline
210
0.0
220
0.0
230
1.0
 70
     8
 71
     3
 72
    36
 73
    32
 74
     0
 42
0.000000001
 43
0.00000001
 40
0.0
 40
0.0
 40
0.0
 40
0.0
 40
0.0078125000000001
 40
0.0078125000000001
 40
0.0156250000000002
 40
0.0312500000000002
 40
0.0312500000000002
 40
0.0625000000000002
 40
0.0625000000000002
 40
0.1250000000000003
 40
0.1250000000000003
 40
0.2500000000000003
 40
0.2500000000000003
 40
0.3750000000000003
 40
0.3750000000000003
 40
0.5000000000000002
 40
0.5000000000000002
 40
0.6250000000000003
 40
0.6250000000000003
 40
0.7500000000000002
 40
0.7500000000000002
 40
0.8750000000000002
 40
0.8750000000000002
 40
0.9375000000000001
 40
0.9375000000000001
 40
0.9687500000000001
 40
0.9687500000000001
 40
0.9843750000000001
 40
0.9921875000000001
 40
0.9921875000000001
 40
1.0
 40
1.0
 40
1.0
 40
1.0
 10
-52.01905411617017
 20
-32.10460349158196
 30
0.0
 10
-52.47621334973769
 20
-31.84735168016056
 30
0.0
 10
-52.93129802585753
 20
-31.58887268853289
 30
0.0
 10
-53.84327396575247
 20
-31.07298337108575
 30
0.0
 10
-55.21142383786903
 20
-30.29925939872451
 30
0.0
 10
-56.58014666419974
 20
-29.52587435073058
 30
0.0
 10
-59.31838965156862
 20
-27.97957590876803
 30
0.0
 10
-61.14495405209647
 20
-26.9493426799757
 30
0.0
 10
-66.6279689774138
 20
-23.86060792044165
 30
0.0
 10
-70.28796486207727
 20
-21.8042072557748
 30
0.0
 10
-81.27730014290037
 20
-15.64051211780358
 30
0.0
 10
-88.61325523516378
 20
-11.53698086151286
 30
0.0
 10
-103.2709521729205
 20
-3.321741084701055
 30
0.0
 10
-110.5923644949559
 20
0.7901570195535251
 30
0.0
 10
-125.1743326091835
 20
9.04896563112094
 30
0.0
 10
-132.4336343076466
 20
13.19659765238203
 30
0.0
 10
-146.8774840323519
 20
21.53486949880994
 30
0.0
 10
-154.0620312510041
 20
25.72550978860519
 30
0.0
 10
-168.3677732554913
 20
34.14323873155514
 30
0.0
 10
-175.490222690223
 20
38.36960555135877
 30
0.0
 10
-189.7202581386217
 20
46.83089051800506
 30
0.0
 10
-196.8281723063761
 20
51.06561986895034
 30
0.0
 10
-207.5046410897829
 20
57.40931554160891
 30
0.0
 10
-211.0666177187099
 20
59.52206635650893
 30
0.0
 10
-216.4166644269426
 20
62.68711824853382
 30
0.0
 10
-218.2011361287827
 20
63.74148956927088
 30
0.0
 10
-220.8794697514035
 20
65.32211102852722
 30
0.0
 10
-222.2190408134932
 20
66.11218918177867
 30
0.0
 10
-223.5591928446585
 20
66.90193308785072
 30
0.0
 10
-224.452753240396
 20
67.42835670186
 30
0.0
 10
-224.9004494339692
 20
67.6910415118292
 30
0.0
 10
-225.346041834209
 20
67.95493669084739
 30
0.0
  0
SPLINE
  5
311
330
2E9
100
AcDbEntity
  8
0
  6
Continuous
 62
     7
370
    25
100
AcDbSpline
210
0.0
220
0.0
230
1.0
 70
     8
 71
     3
 72
   102
 73
    98
 74
     0
 42
0.000000001
 43
0.00000001
 40
0.0
 40
0.0
 40
0.0
 40
0.0
 40
0.0156249999999996
 40
0.0156249999999996
 40
0.0312499999999991
 40
0.0312499999999991
 40
0.0624999999999985
 40
0.0624999999999985
 40
0.0937499999999978
 40
0.0937499999999978
 40
0.1249999999999971
 40
0.1249999999999971
 40
0.1328124999999969
 40
0.1328124999999969
 40
0.1406249999999968
 40
0.1406249999999968
 40
0.1562499999999967
 40
0.1562499999999967
 40
0.1874999999999965
 40
0.1874999999999965
 40
0.2187499999999964
 40
0.2187499999999964
 40
0.2343749999999963
 40
0.2343749999999963
 40
0.2421874999999962
 40
0.2421874999999962
 40
0.2499999999999962
 40
0.2499999999999962
 40
0.2812499999999962
 40
0.2812499999999962
 40
0.3124999999999961
 40
0.3124999999999961
 40
0.3281249999999962
 40
0.3281249999999962
 40
0.3437499999999963
 40
0.3437499999999963
 40
0.3749999999999963
 40
0.3749999999999963
 40
0.4062499999999963
 40
0.4062499999999963
 40
0.4374999999999964
 40
0.4374999999999964
 40
0.4453124999999964
 40
0.4453124999999964
 40
0.4531249999999964
 40
0.4531249999999964
 40
0.4687499999999964
 40
0.4687499999999964
 40
0.4999999999999966
 40
0.4999999999999966
 40
0.5312499999999966
 40
0.5312499999999966
 40
0.5468749999999966
 40
0.5468749999999966
 40
0.5546874999999967
 40
0.5546874999999967
 40
0.5624999999999967
 40
0.5624999999999967
 40
0.5937499999999969
 40
0.5937499999999969
 40
0.6249999999999971
 40
0.6249999999999971
 40
0.6562499999999974
 40
0.6562499999999974
 40
0.6640624999999974
 40
0.6640624999999974
 40
0.6718749999999974
 40
0.6718749999999974
 40
0.6874999999999973
 40
0.6874999999999973
 40
0.7187499999999972
 40
0.7187499999999972
 40
0.749999999999997
 40
0.749999999999997
 40
0.765624999999997
 40
0.765624999999997
 40
0.7734374999999969
 40
0.7734374999999969
 40
0.7812499999999968
 40
0.7812499999999968
 40
0.812499999999997
 40
0.812499999999997
 40
0.8437499999999972
 40
0.8437499999999972
 40
0.8749999999999976
 40
0.8749999999999976
 40
0.8828124999999976
 40
0.8828124999999976
 40
0.8906249999999976
 40
0.8906249999999976
 40
0.9062499999999979
 40
0.9062499999999979
 40
0.9374999999999986
 40
0.9374999999999986
 40
0.9687499999999993
 40
0.9687499999999993
 40
1.0
 40
1.0
 40
1.0
 40
1.0
 10
165.8165902337457
 20
93.67703168727486
 30
0.0
 10
167.6009279331299
 20
92.63584099811969
 30
0.0
 10
169.3399236282521
 20
91.5705626746028
 30
0.0
 10
172.7271103264215
 20
89.39176664652142
 30
0.0
 10
174.3770471673264
 20
88.27686229010604
 30
0.0
 10
179.1604428317174
 20
84.88102769525176
 30
0.0
 10
182.1372255775378
 20
82.54355455929819
 30
0.0
 10
187.6793651241954
 20
77.72590524237822
 30
0.0
 10
190.2444864668028
 20
75.24564739275009
 30
0.0
 10
194.9603773263397
 20
70.14141380707534
 30
0.0
 10
197.1112916256196
 20
67.5174882887714
 30
0.0
 10
199.5334489127447
 20
64.14515089355177
 30
0.0
 10
200.0050650011904
 20
63.46521104009005
 30
0.0
 10
200.9184268682496
 20
62.1001128268428
 30
0.0
 10
201.3597291396298
 20
61.41568803201388
 30
0.0
 10
202.6379367334386
 20
59.35683985393282
 30
0.0
 10
203.4291605523977
 20
57.97684483795813
 30
0.0
 10
205.6227589446972
 20
53.81489683122409
 30
0.0
 10
206.8456288648399
 20
51.01105020904552
 30
0.0
 10
208.8166007806803
 20
45.3454509786196
 30
0.0
 10
209.5642933502075
 20
42.48364843391927
 30
0.0
 10
210.3211790484831
 20
38.14646899102056
 30
0.0
 10
210.5126198301615
 20
36.69332027949673
 30
0.0
 10
210.7067244325392
 20
34.50224738806199
 30
0.0
 10
210.7558804546847
 20
33.76972808615638
 30
0.0
 10
210.8225202437284
 20
32.30897873181181
 30
0.0
 10
210.8401096136684
 20
31.57975164313646
 30
0.0
 10
210.850012041595
 20
27.93930977216493
 30
0.0
 10
210.6085548150748
 20
25.04514922655552
 30
0.0
 10
209.6362658880477
 20
19.29252945693728
 30
0.0
 10
208.9061328750995
 20
16.43401926159554
 30
0.0
 10
207.4409694068232
 20
12.17324393765725
 30
0.0
 10
206.8907098166958
 20
10.75749922556853
 30
0.0
 10
205.6644998659696
 20
7.935179316471138
 30
0.0
 10
204.9880227829889
 20
6.527666828476823
 30
0.0
 10
202.7686128055504
 20
2.325035779096579
 30
0.0
 10
201.058586220376
 20
-0.4096155397520784
 30
0.0
 10
197.1933292709156
 20
-5.74926627870382
 30
0.0
 10
195.0381863525627
 20
-8.354291164743593
 30
0.0
 10
190.2853185987209
 20
-13.43545257468616
 30
0.0
 10
187.6877614401785
 20
-15.91163792933903
 30
0.0
 10
184.1587819875154
 20
-18.92473619015524
 30
0.0
 10
183.4388181441105
 20
-19.52322986208796
 30
0.0
 10
181.9703013406717
 20
-20.7118915056148
 30
0.0
 10
181.2209264018546
 20
-21.30268724832787
 30
0.0
 10
178.9353081159429
 20
-23.05809915032725
 30
0.0
 10
177.367460350617
 20
-24.20161763892518
 30
0.0
 10
172.5337942156185
 20
-27.5532296941135
 30
0.0
 10
169.1357815756794
 20
-29.68112314644415
 30
0.0
 10
162.0104462918922
 20
-33.73712302639311
 30
0.0
 10
158.285594676571
 20
-35.6667285868391
 30
0.0
 10
152.4486432731957
 20
-38.40966378336286
 30
0.0
 10
150.4612828724385
 20
-39.29867077742094
 30
0.0
 10
147.4168405126619
 20
-40.59371645246843
 30
0.0
 10
146.391456866007
 20
-41.01898598414734
 30
0.0
 10
144.3192459355832
 20
-41.85651554154662
 30
0.0
 10
143.2710136169886
 20
-42.2693082152602
 30
0.0
 10
137.9942732274523
 20
-44.29317655412513
 30
0.0
 10
133.6699425425859
 20
-45.78104664508656
 30
0.0
 10
124.821314830005
 20
-48.50187217705558
 30
0.0
 10
120.2970458592432
 20
-49.73486338472405
 30
0.0
 10
111.0491299115516
 20
-51.94668115451697
 30
0.0
 10
106.3253088542264
 20
-52.92528580108083
 30
0.0
 10
100.2929192704287
 20
-53.98586178234738
 30
0.0
 10
99.0800409440289
 20
-54.18981781461468
 30
0.0
 10
96.64131223629752
 20
-54.58119326206132
 30
0.0
 10
95.41386483053358
 20
-54.76882658105801
 30
0.0
 10
91.72977748654839
 20
-55.30399705017927
 30
0.0
 10
89.26817770785311
 20
-55.62454510785832
 30
0.0
 10
81.86716823232489
 20
-56.48020269346266
 30
0.0
 10
76.91149656848496
 20
-56.90898677032968
 30
0.0
 10
66.95745804329663
 20
-57.48740135480487
 30
0.0
 10
61.95926977393959
 20
-57.63819954858576
 30
0.0
 10
54.42945032132389
 20
-57.65166019030553
 30
0.0
 10
51.91411916567243
 20
-57.62089694053363
 30
0.0
 10
48.13295371187229
 20
-57.52134260608807
 30
0.0
 10
46.87120153714255
 20
-57.47924162683751
 30
0.0
 10
44.34492802540633
 20
-57.3769340832004
 30
0.0
 10
43.07944259858
 20
-57.31665038548872
 30
0.0
 10
36.7797302869231
 20
-56.97110648282136
 30
0.0
 10
31.80254999772005
 20
-56.55385530231298
 30
0.0
 10
21.96838978984741
 20
-55.44892217999227
 30
0.0
 10
17.1120256518548
 20
-54.75985483448611
 30
0.0
 10
7.519083681534145
 20
-53.11222095897911
 30
0.0
 10
2.782818615587518
 20
-52.15295075684938
 30
0.0
 10
-3.06059816029422
 20
-50.78081809599455
 30
0.0
 10
-4.2254310924488
 20
-50.49772875501102
 30
0.0
 10
-6.547310491859512
 20
-49.91403182729321
 30
0.0
 10
-7.705099491048085
 20
-49.61319381998835
 30
0.0
 10
-11.14739377893334
 20
-48.68936620372853
 30
0.0
 10
-13.40704569892924
 20
-48.04358473112701
 30
0.0
 10
-20.08269619222988
 20
-46.01852736980126
 30
0.0
 10
-24.39578213133366
 20
-44.55187190827489
 30
0.0
 10
-32.75250862303608
 20
-41.38978418877631
 30
0.0
 10
-36.79642695548429
 20
-39.69458778410602
 30
0.0
 10
-44.61311344577684
 20
-36.07397070146786
 30
0.0
 10
-48.38623979467177
 20
-34.14885415118299
 30
0.0
 10
-52.01905411617025
 20
-32.10460349158191
 30
0.0
  0
SPLINE
  5
312
330
2E9
100
AcDbEntity
  8
0
  6
Continuous
 62
     7
370
    25
100
AcDbSpline
210
0.0
220
0.0
230
1.0
 70
     8
 71
     3
 72
    18
 73
    14
 74
     0
 42
0.000000001
 43
0.00000001
 40
0.0
 40
0.0
 40
0.0
 40
0.0
 40
0.125
 40
0.125
 40
0.2500000000000001
 40
0.2500000000000001
 40
0.5000000000000001
 40
0.5000000000000001
 40
0.7500000000000002
 40
0.7500000000000002
 40
0.8750000000000001
 40
0.8750000000000001
 40
1.0
 40
1.0
 40
1.0
 40
1.0
 10
-7.462250882557989
 20
193.7087774281405
 30
0.0
 10
-0.2035460319095572
 20
189.5631474129133
 30
0.0
 10
7.054376621290298
 20
185.4170615433884
 30
0.0
 10
21.57076661772361
 20
177.1252072424652
 30
0.0
 10
28.82807022606253
 20
172.9787606018067
 30
0.0
 10
50.5868437209734
 20
160.5317644181056
 30
0.0
 10
65.07394647394197
 20
152.2227554890099
 30
0.0
 10
93.95389218023008
 20
135.5507153393895
 30
0.0
 10
108.3467785315167
 20
127.1876606476687
 30
0.0
 10
129.9076668224956
 20
114.6267491337396
 30
0.0
 10
137.0902177803513
 20
110.4372455999886
 30
0.0
 10
151.4535236194333
 20
102.0572073188332
 30
0.0
 10
158.6354509692131
 20
97.86734574180514
 30
0.0
 10
165.8165902337457
 20
93.67703168727486
 30
0.0
  0
SPLINE
  5
313
330
2E9
100
AcDbEntity
  8
0
  6
Continuous
 62
     7
370
    25
100
AcDbSpline
210
0.0
220
0.0
230
1.0
 70
     8
 71
     3
 72
    98
 73
    94
 74
     0
 42
0.000000001
 43
0.00000001
 40
0.0
 40
0.0
 40
0.0
 40
0.0
 40
0.0156249999999995
 40
0.0156249999999995
 40
0.0234374999999993
 40
0.0234374999999993
 40
0.0312499999999991
 40
0.0312499999999991
 40
0.0624999999999985
 40
0.0624999999999985
 40
0.0937499999999978
 40
0.0937499999999978
 40
0.1249999999999972
 40
0.1249999999999972
 40
0.1328124999999971
 40
0.1328124999999971
 40
0.1406249999999971
 40
0.1406249999999971
 40
0.1562499999999969
 40
0.1562499999999969
 40
0.1874999999999965
 40
0.1874999999999965
 40
0.2187499999999962
 40
0.2187499999999962
 40
0.2343749999999961
 40
0.2343749999999961
 40
0.2421874999999961
 40
0.2421874999999961
 40
0.2499999999999961
 40
0.2499999999999961
 40
0.2812499999999957
 40
0.2812499999999957
 40
0.3124999999999953
 40
0.3124999999999953
 40
0.3437499999999948
 40
0.3437499999999948
 40
0.3515624999999948
 40
0.3515624999999948
 40
0.3593749999999947
 40
0.3593749999999947
 40
0.3749999999999946
 40
0.3749999999999946
 40
0.4062499999999946
 40
0.4062499999999946
 40
0.4374999999999944
 40
0.4374999999999944
 40
0.4531249999999944
 40
0.4531249999999944
 40
0.4687499999999946
 40
0.4687499999999946
 40
0.4999999999999947
 40
0.4999999999999947
 40
0.5312499999999948
 40
0.5312499999999948
 40
0.5624999999999949
 40
0.5624999999999949
 40
0.570312499999995
 40
0.570312499999995
 40
0.578124999999995
 40
0.578124999999995
 40
0.5937499999999953
 40
0.5937499999999953
 40
0.6249999999999956
 40
0.6249999999999956
 40
0.6562499999999959
 40
0.6562499999999959
 40
0.671874999999996
 40
0.671874999999996
 40
0.6796874999999961
 40
0.6796874999999961
 40
0.6874999999999961
 40
0.6874999999999961
 40
0.7187499999999966
 40
0.7187499999999966
 40
0.749999999999997
 40
0.749999999999997
 40
0.7812499999999976
 40
0.7812499999999976
 40
0.812499999999998
 40
0.812499999999998
 40
0.8437499999999984
 40
0.8437499999999984
 40
0.8749999999999989
 40
0.8749999999999989
 40
0.890624999999999
 40
0.890624999999999
 40
0.9062499999999991
 40
0.9062499999999991
 40
0.9374999999999994
 40
0.9374999999999994
 40
0.9687499999999997
 40
0.9687499999999997
 40
1.0
 40
1.0
 40
1.0
 40
1.0
 10
-225.3460418342088
 20
67.95493669084735
 30
0.0
 10
-227.1165074060993
 20
69.00346743057314
 30
0.0
 10
-228.8411522572162
 20
70.07565329199556
 30
0.0
 10
-231.3592409222829
 20
71.71949092983016
 30
0.0
 10
-232.1871314325379
 20
72.27335946801772
 30
0.0
 10
-233.8200173842893
 20
73.39291621087972
 30
0.0
 10
-234.6255966401147
 20
73.95902520564701
 30
0.0
 10
-238.5837663556379
 20
76.810432256744
 30
0.0
 10
-241.5346119878227
 20
79.16274267831498
 30
0.0
 10
-247.0179826205581
 20
84.00542297280796
 30
0.0
 10
-249.5500496638204
 20
86.4959439865707
 30
0.0
 10
-254.1961325261539
 20
91.61495655220415
 30
0.0
 10
-256.3097505875248
 20
94.24357937708834
 30
0.0
 10
-258.6832395833993
 20
97.61798274769804
 30
0.0
 10
-259.1444883263192
 20
98.29730204900538
 30
0.0
 10
-260.0397607251867
 20
99.66492581822686
 30
0.0
 10
-260.473944407958
 20
100.3535764728254
 30
0.0
 10
-261.7283768652791
 20
102.4217448794564
 30
0.0
 10
-262.5028737674627
 20
103.8071302368489
 30
0.0
 10
-264.6452712455287
 20
107.9826478675742
 30
0.0
 10
-265.8330409040415
 20
110.7920388140891
 30
0.0
 10
-267.7304874280725
 20
116.4619359347847
 30
0.0
 10
-268.4426046217381
 20
119.3221812016048
 30
0.0
 10
-269.1481290900052
 20
123.6513219199381
 30
0.0
 10
-269.3225168582302
 20
125.1008678659365
 30
0.0
 10
-269.4926202146924
 20
127.2849671748263
 30
0.0
 10
-269.5340495611583
 20
128.014633057309
 30
0.0
 10
-269.5860023884719
 20
129.4772691188052
 30
0.0
 10
-269.5964552137267
 20
130.2095973043526
 30
0.0
 10
-269.5708970268254
 20
133.8595040758206
 30
0.0
 10
-269.3011652587184
 20
136.7569002973654
 30
0.0
 10
-268.2846195625659
 20
142.5085763560434
 30
0.0
 10
-267.5356177215224
 20
145.3626584601532
 30
0.0
 10
-265.5586477575289
 20
151.0275360061061
 30
0.0
 10
-264.3310491606942
 20
153.8383648439369
 30
0.0
 10
-262.4884792231625
 20
157.3240588577312
 30
0.0
 10
-262.1045798942006
 20
158.0198072075405
 30
0.0
 10
-261.3056937443145
 20
159.4084943695859
 30
0.0
 10
-260.8913235919554
 20
160.1002933457695
 30
0.0
 10
-259.6081891177409
 20
162.1606455077038
 30
0.0
 10
-258.6976468060633
 20
163.5171395440554
 30
0.0
 10
-255.8037861173393
 20
167.5363672181576
 30
0.0
 10
-253.6588745303889
 20
170.1490448393821
 30
0.0
 10
-248.9447333821645
 20
175.2429609728008
 30
0.0
 10
-246.3754349982474
 20
177.7241781661082
 30
0.0
 10
-242.2000278275936
 20
181.3464268339968
 30
0.0
 10
-240.7544226933848
 20
182.537176817717
 30
0.0
 10
-237.7543623976917
 20
184.8849587918867
 30
0.0
 10
-236.1965614265345
 20
186.0441444515876
 30
0.0
 10
-231.405970359793
 20
189.4356099425723
 30
0.0
 10
-228.0446172250832
 20
191.5922070203963
 30
0.0
 10
-221.0012046589128
 20
195.7056985945844
 30
0.0
 10
-217.3161882126646
 20
197.6607517691769
 30
0.0
 10
-209.6050872110824
 20
201.3584763144232
 30
0.0
 10
-205.5819441425713
 20
203.1029793376446
 30
0.0
 10
-200.3350505296364
 20
205.1478822854845
 30
0.0
 10
-199.2735216062773
 20
205.5504818402711
 30
0.0
 10
-197.1397131950598
 20
206.3378035450107
 30
0.0
 10
-196.0663933573271
 20
206.7229616099667
 30
0.0
 10
-192.8274450420696
 20
207.8532695010263
 30
0.0
 10
-190.6427906507913
 20
208.5732038383247
 30
0.0
 10
-184.0135946182856
 20
210.6332989817753
 30
0.0
 10
-179.4941592522248
 20
211.8742013814946
 30
0.0
 10
-170.2574839978255
 20
214.0938512178804
 30
0.0
 10
-165.5402070820077
 20
215.0725495811621
 30
0.0
 10
-158.3132089629365
 20
216.3403636275407
 30
0.0
 10
-155.8789293171077
 20
216.7294637724255
 30
0.0
 10
-152.1888250202545
 20
217.2618440816279
 30
0.0
 10
-150.9544941368092
 20
217.4304268477749
 30
0.0
 10
-148.4863359300645
 20
217.7487519203548
 30
0.0
 10
-147.25115289596
 20
217.8986913925794
 30
0.0
 10
-141.0697818383152
 20
218.6028061867974
 30
0.0
 10
-136.1072935583513
 20
219.020796959444
 30
0.0
 10
-126.1484642779138
 20
219.573947525454
 30
0.0
 10
-121.1520730695769
 20
219.7086878447287
 30
0.0
 10
-111.1252586302649
 20
219.6938394797367
 30
0.0
 10
-106.0948803747117
 20
219.5446265538272
 30
0.0
 10
-95.99909054683145
 20
218.9535061373942
 30
0.0
 10
-91.01730857370849
 20
218.5161646349432
 30
0.0
 10
-81.18777224644987
 20
217.3697566189342
 30
0.0
 10
-76.33870117971192
 20
216.6608263520858
 30
0.0
 10
-66.77073473388297
 20
214.9740306612395
 30
0.0
 10
-62.05190046817118
 20
213.9960389806681
 30
0.0
 10
-55.07296474582674
 20
212.3238712339542
 30
0.0
 10
-52.76321698950071
 20
211.7322614430607
 30
0.0
 10
-48.17753760445807
 20
210.479179771376
 30
0.0
 10
-45.92036179151715
 20
209.8228075509082
 30
0.0
 10
-39.25540366043186
 20
207.7665985575779
 30
0.0
 10
-34.95317797997119
 20
206.2795931596707
 30
0.0
 10
-26.62360652026315
 20
203.0791793368839
 30
0.0
 10
-22.59615043299962
 20
201.3658617664782
 30
0.0
 10
-14.81881219871134
 20
197.7106046711278
 30
0.0
 10
-11.06894581112271
 20
195.7686521660272
 30
0.0
 10
-7.462250882557892
 20
193.7087774281404
 30
0.0
  0
LWPOLYLINE
  5
314
330
2E9
100
AcDbEntity
  8
0
  6
Continuous
 62
     7
370
    25
100
AcDbPolyline
 90
       46
 70
   128
 43
0.0
 10
131.5218613007
 20
173.9108518258
 10
133.2151427846
 20
172.786354521
 10
134.6208504308
 20
171.5367575661
 10
135.7116237389
 20
170.1863829445
 10
136.4662320473
 20
168.7615141621
 10
136.8699877634
 20
167.289884669
 10
136.9150322417
 20
165.8001380593
 10
136.6004887425
 20
164.3212705563
 10
135.9324794973
 20
162.8820666337
 10
134.9240065462
 20
161.5105387587
 10
133.5946986681
 20
160.2333821615
 10
131.9704293287
 20
159.0754552423
 10
130.0828130832
 20
158.0592957316
 10
127.9685902346
 20
157.2046820183
 10
125.6689117258
 20
156.5282481864
 10
123.2285381831
 20
156.0431602508
 10
120.6949687017
 20
155.7588598966
 10
118.1175163297
 20
155.6808807066
 10
115.5463482455
 20
155.8107404571
 10
113.0315093114
 20
156.1459115759
 10
110.6219480065
 20
156.6798703382
 10
108.364563701
 20
157.4022238442
 10
106.3032938124
 20
158.2989123046
 10
104.4782586146
 20
159.3524826984
 10
102.9249803418
 20
160.5424284764
 10
101.6736917886
 20
161.8455886974
 10
100.7487478634
 20
163.2365988302
 10
100.1681515477
 20
164.6883844448
 10
99.9432034884
 20
166.1726881855
 10
100.0782820434
 20
167.6606197684
 10
100.5707580624
 20
169.1232182977
 10
101.4110460599
 20
170.5320159568
 10
102.5827907858
 20
171.8595921016
 10
104.0631855618
 20
173.0801069727
 10
105.8234161876
 20
174.1698046364
 10
107.8292217763
 20
175.1074753672
 10
110.0415616036
 20
175.8748684708
 10
112.4173749913
 20
176.4570475134
 10
114.9104194343
 20
176.8426810422
 10
117.4721706583
 20
177.0242631392
 10
120.0527670896
 20
176.9982595154
 10
122.6019803541
 20
176.7651763018
 10
125.0701929153
 20
176.329550198
 10
127.4093638233
 20
175.6998601705
 10
129.5739637771
 20
174.8883624196
 10
131.5218613007
 20
173.9108518258
  0
LWPOLYLINE
  5
315
330
2E9
100
AcDbEntity
  8
0
  6
Continuous
 62
     7
370
    25
100
AcDbPolyline
 90
       46
 70
   128
 43
0.0
 10
202.2325394194
 20
133.0904462347
 10
203.9258209033
 20
131.9659489299
 10
205.3315285495
 20
130.716351975
 10
206.4223018576
 20
129.3659773533
 10
207.1769101659
 20
127.9411085709
 10
207.5806658821
 20
126.4694790778
 10
207.6257103604
 20
124.9797324682
 10
207.3111668612
 20
123.5008649652
 10
206.643157616
 20
122.0616610425
 10
205.6346846649
 20
120.6901331676
 10
204.3053767867
 20
119.4129765703
 10
202.6811074474
 20
118.2550496512
 10
200.7934912018
 20
117.2388901405
 10
198.6792683532
 20
116.3842764272
 10
196.3795898445
 20
115.7078425953
 10
193.9392163018
 20
115.2227546597
 10
191.4056468204
 20
114.9384543054
 10
188.8281944483
 20
114.8604751154
 10
186.2570263642
 20
114.990334866
 10
183.74218743
 20
115.3255059847
 10
181.3326261252
 20
115.8594647471
 10
179.0752418196
 20
116.5818182531
 10
177.0139719311
 20
117.4785067135
 10
175.1889367333
 20
118.5320771073
 10
173.6356584604
 20
119.7220228852
 10
172.3843699072
 20
121.0251831063
 10
171.4594259821
 20
122.4161932391
 10
170.8788296664
 20
123.8679788536
 10
170.653881607
 20
125.3522825943
 10
170.788960162
 20
126.8402141772
 10
171.2814361811
 20
128.3028127065
 10
172.1217241785
 20
129.7116103656
 10
173.2934689044
 20
131.0391865105
 10
174.7738636804
 20
132.2597013816
 10
176.5340943062
 20
133.3493990453
 10
178.5398998949
 20
134.287069776
 10
180.7522397222
 20
135.0544628796
 10
183.1280531099
 20
135.6366419223
 10
185.6210975529
 20
136.0222754511
 10
188.1828487769
 20
136.2038575481
 10
190.7634452082
 20
136.1778539243
 10
193.3126584728
 20
135.9447707107
 10
195.780871034
 20
135.5091446068
 10
198.120041942
 20
134.8794545794
 10
200.2846418957
 20
134.0679568284
 10
202.2325394194
 20
133.0904462347
  0
LWPOLYLINE
  5
316
330
2E9
100
AcDbEntity
  8
0
  6
Continuous
 62
     7
370
    25
100
AcDbPolyline
 90
       46
 70
   128
 43
0.0
 10
60.811183182
 20
214.7312574169
 10
62.504464666
 20
213.6067601121
 10
63.9101723122
 20
212.3571631573
 10
65.0009456203
 20
211.0067885356
 10
65.7555539286
 20
209.5819197532
 10
66.1593096448
 20
208.1102902601
 10
66.2043541231
 20
206.6205436505
 10
65.8898106239
 20
205.1416761474
 10
65.2218013787
 20
203.7024722248
 10
64.2133284276
 20
202.3309443499
 10
62.8840205494
 20
201.0537877526
 10
61.25975121
 20
199.8958608334
 10
59.3721349645
 20
198.8797013227
 10
57.2579121159
 20
198.0250876095
 10
54.9582336071
 20
197.3486537775
 10
52.5178600645
 20
196.863565842
 10
49.9842905831
 20
196.5792654877
 10
47.406838211
 20
196.5012862977
 10
44.8356701268
 20
196.6311460483
 10
42.3208311927
 20
196.966317167
 10
39.9112698879
 20
197.5002759293
 10
37.6538855823
 20
198.2226294354
 10
35.5926156938
 20
199.1193178957
 10
33.767580496
 20
200.1728882896
 10
32.2143022231
 20
201.3628340675
 10
30.9630136699
 20
202.6659942886
 10
30.0380697448
 20
204.0570044214
 10
29.4574734291
 20
205.5087900359
 10
29.2325253697
 20
206.9930937766
 10
29.3676039247
 20
208.4810253595
 10
29.8600799437
 20
209.9436238888
 10
30.7003679412
 20
211.3524215479
 10
31.8721126671
 20
212.6799976928
 10
33.3525074431
 20
213.9005125639
 10
35.1127380689
 20
214.9902102275
 10
37.1185436576
 20
215.9278809583
 10
39.3308834849
 20
216.6952740619
 10
41.7066968726
 20
217.2774531046
 10
44.1997413156
 20
217.6630866334
 10
46.7614925396
 20
217.8446687304
 10
49.3420889709
 20
217.8186651066
 10
51.8913022355
 20
217.5855818929
 10
54.3595147967
 20
217.1499557891
 10
56.6986857046
 20
216.5202657616
 10
58.8632856584
 20
215.7087680107
 10
60.811183182
 20
214.7312574169
  0
SPLINE
  5
317
330
2E9
100
AcDbEntity
  8
0
  6
Continuous
 62
     7
370
    25
100
AcDbSpline
210
0.0
220
0.0
230
1.0
 70
     8
 71
     3
 72
     9
 73
     5
 74
     0
 42
0.000000001
 43
0.00000001
 40
0.0
 40
0.0
 40
0.0
 40
0.0
 40
0.4998199625590231
 40
1.0
 40
1.0
 40
1.0
 40
1.0
 10
203.3984966523118
 20
12.04681432256209
 30
0.0
 10
203.8957492210274
 20
13.53822022924576
 30
0.0
 10
204.8906125837664
 20
16.52210646509725
 30
0.0
 10
205.2295691846743
 20
19.56284551651192
 30
0.0
 10
205.3991085100073
 20
21.08376248909676
 30
0.0
  0
LWPOLYLINE
  5
319
330
2E9
100
AcDbEntity
  8
0
  6
Continuous
 62
     7
370
    25
100
AcDbPolyline
 90
       38
 70
   128
 43
0.0
 10
-17.6776695297
 20
55.1082110483
 10
-20.8033797578
 20
56.7655891757
 10
-24.1613052002
 20
58.2639698769
 10
-27.7272519271
 20
59.5925572845
 10
-31.4755272106
 20
60.741778896
 10
-35.3791246414
 20
61.7033545431
 10
-39.4099187106
 20
62.4703560514
 10
-43.5388674546
 20
63.0372571574
 10
-47.736221703
 20
63.3999733257
 10
-51.9717394223
 20
63.5558911779
 10
-56.2149036103
 20
63.5038873223
 10
-60.4351421717
 20
63.244336448
 10
-64.602048191
 20
62.7791086248
 10
-68.6855990149
 20
62.1115558301
 10
-72.6563725661
 20
61.2464877968
 10
-76.4857593302
 20
60.1901373601
 10
-80.1461684877
 20
58.950115549
 10
-83.6112267069
 20
57.5353567491
 10
-86.8559681639
 20
55.95605433
 10
-89.8570144221
 20
54.2235872017
 10
-92.5927428744
 20
52.3504378297
 10
-95.0434425347
 20
50.3501022981
 10
-97.1914560557
 20
48.2369930703
 10
-99.0213069509
 20
46.0263351465
 10
-100.5198111025
 20
43.734056368
 10
-101.6761717539
 20
41.3766726557
 10
-102.4820573
 20
38.9711690133
 10
-102.931661317
 20
36.5348771497
 10
-103.0217443977
 20
34.0853506036
 10
-102.7516574914
 20
31.64023827
 10
-102.1233465805
 20
29.2171572391
 10
-101.1413386594
 20
26.8335658654
 10
-99.8127091178
 20
24.5066379793
 10
-98.1470307619
 20
22.2531391495
 10
-96.1563048425
 20
20.0893058868
 10
-93.8548745854
 20
18.0307286594
 10
-91.2593218483
 20
16.0922395634
 10
-88.3883476483
 20
14.2878054572
  0
LWPOLYLINE
  5
31B
330
2E9
100
AcDbEntity
  8
0
  6
Continuous
 62
     7
370
    25
100
AcDbPolyline
 90
       38
 70
   128
 43
0.0
 10
17.6776695297
 20
-46.9428029295
 10
20.8033797578
 20
-48.6001810569
 10
24.1613052002
 20
-50.098561758
 10
27.7272519271
 20
-51.4271491657
 10
31.4755272106
 20
-52.5763707771
 10
35.3791246414
 20
-53.5379464243
 10
39.4099187106
 20
-54.3049479325
 10
43.5388674546
 20
-54.8718490385
 10
47.736221703
 20
-55.2345652068
 10
51.9717394223
 20
-55.390483059
 10
56.2149036103
 20
-55.3384792034
 10
60.4351421717
 20
-55.0789283291
 10
64.602048191
 20
-54.613700506
 10
68.6855990149
 20
-53.9461477112
 10
72.6563725661
 20
-53.081079678
 10
76.4857593302
 20
-52.0247292412
 10
80.1461684877
 20
-50.7847074301
 10
83.6112267069
 20
-49.3699486303
 10
86.8559681639
 20
-47.7906462111
 10
89.8570144221
 20
-46.0581790829
 10
92.5927428744
 20
-44.1850297109
 10
95.0434425347
 20
-42.1846941793
 10
97.1914560557
 20
-40.0715849514
 10
99.0213069509
 20
-37.8609270277
 10
100.5198111025
 20
-35.5686482491
 10
101.6761717539
 20
-33.2112645368
 10
102.4820573
 20
-30.8057608944
 10
102.931661317
 20
-28.3694690309
 10
103.0217443977
 20
-25.9199424848
 10
102.7516574914
 20
-23.4748301511
 10
102.1233465805
 20
-21.0517491202
 10
101.1413386594
 20
-18.6681577465
 10
99.8127091178
 20
-16.3412298604
 10
98.1470307619
 20
-14.0877310307
 10
96.1563048425
 20
-11.923897768
 10
93.8548745854
 20
-9.8653205406
 10
91.2593218483
 20
-7.9268314446
 10
88.3883476483
 20
-6.1223973384
  0
SPLINE
  5
31D
330
2E9
100
AcDbEntity
  8
0
  6
Continuous
 62
     7
370
    25
100
AcDbSpline
210
0.0
220
0.0
230
1.0
 70
     8
 71
     3
 72
     9
 73
     5
 74
     0
 42
0.000000001
 43
0.00000001
 40
0.0
 40
0.0
 40
0.0
 40
0.0
 40
0.3721120597948356
 40
1.0
 40
1.0
 40
1.0
 40
1.0
 10
-257.9484196775613
 20
102.0890015854507
 30
0.0
 10
-257.3110616748941
 20
100.8726557702342
 30
0.0
 10
-255.5982496713848
 20
97.60389362399515
 30
0.0
 10
-253.1863754436511
 20
94.47344434213208
 30
0.0
 10
-251.6719887027654
 20
92.50787299062635
 30
0.0
  0
SPLINE
  5
31E
330
2E9
100
AcDbEntity
  8
0
  6
Continuous
 62
     7
370
    25
100
AcDbSpline
210
0.0
220
0.0
230
1.0
 70
     8
 71
     3
 72
    26
 73
    22
 74
     0
 42
0.000000001
 43
0.00000001
 40
0.0
 40
0.0
 40
0.0
 40
0.0
 40
0.03125
 40
0.03125
 40
0.0625
 40
0.0625
 40
0.125
 40
0.125
 40
0.25
 40
0.25
 40
0.5000000000000002
 40
0.5000000000000002
 40
0.7500000000000004
 40
0.7500000000000004
 40
0.8750000000000004
 40
0.8750000000000004
 40
0.9375000000000003
 40
0.9375000000000003
 40
0.9687500000000002
 40
0.9687500000000002
 40
1.0
 40
1.0
 40
1.0
 40
1.0
 10
162.2867943016602
 20
88.05844304899402
 30
0.0
 10
160.4906381828944
 20
89.0925750535957
 30
0.0
 10
158.6942156478182
 20
90.12829674208054
 30
0.0
 10
155.101961559765
 20
92.19823588887509
 30
0.0
 10
153.3059346809714
 20
93.23323882983611
 30
0.0
 10
147.9180624928563
 20
96.3384208851231
 30
0.0
 10
144.3264321031011
 20
98.40877240331639
 30
0.0
 10
133.5514286443459
 20
104.6211430706267
 30
0.0
 10
126.3680227776243
 20
108.7644802856616
 30
0.0
 10
104.8067836337279
 20
121.2048232082551
 30
0.0
 10
90.41647179751077
 20
129.5122694084693
 30
0.0
 10
61.54268263583474
 20
146.1807530008449
 30
0.0
 10
47.05912344145127
 20
154.5418376554518
 30
0.0
 10
25.31016478081945
 20
167.1039395582425
 30
0.0
 10
18.05689967473342
 20
171.2947150689333
 30
0.0
 10
7.176915119451441
 20
177.5835029521693
 30
0.0
 10
3.550219451047915
 20
179.680202408424
 30
0.0
 10
-1.889399715351903
 20
182.8255981516049
 30
0.0
 10
-3.70253698076331
 20
183.8741213555251
 30
0.0
 10
-7.328612872888191
 20
185.9712354839718
 30
0.0
 10
-9.141363443195397
 20
187.0190451102417
 30
0.0
 10
-10.95436708897043
 20
188.0684367472336
 30
0.0
  0
SPLINE
  5
31F
330
2E9
100
AcDbEntity
  8
0
  6
Continuous
 62
     7
370
    25
100
AcDbSpline
210
0.0
220
0.0
230
1.0
 70
    11
 71
     3
 72
    95
 73
    91
 74
     0
 42
0.000000001
 43
0.00000001
 40
0.0
 40
0.0
 40
0.0
 40
0.0
 40
0.015625
 40
0.015625
 40
0.03125
 40
0.03125
 40
0.0625000000000001
 40
0.0625000000000001
 40
0.0781250000000001
 40
0.0781250000000001
 40
0.0937500000000001
 40
0.0937500000000001
 40
0.1250000000000001
 40
0.1250000000000001
 40
0.140625
 40
0.140625
 40
0.15625
 40
0.1718749999999999
 40
0.1718749999999999
 40
0.1874999999999999
 40
0.1874999999999999
 40
0.2187499999999999
 40
0.2187499999999999
 40
0.2499999999999999
 40
0.2499999999999999
 40
0.2812499999999999
 40
0.2812499999999999
 40
0.2968749999999998
 40
0.2968749999999998
 40
0.3124999999999998
 40
0.3281249999999998
 40
0.3281249999999998
 40
0.3437499999999997
 40
0.3437499999999997
 40
0.3749999999999991
 40
0.3749999999999991
 40
0.3906249999999988
 40
0.3906249999999988
 40
0.4062499999999986
 40
0.4062499999999986
 40
0.4374999999999983
 40
0.4374999999999983
 40
0.4531249999999982
 40
0.4531249999999982
 40
0.468749999999998
 40
0.468749999999998
 40
0.4999999999999978
 40
0.4999999999999978
 40
0.5312499999999976
 40
0.5312499999999976
 40
0.5468749999999974
 40
0.5468749999999974
 40
0.5624999999999972
 40
0.578124999999997
 40
0.578124999999997
 40
0.5937499999999968
 40
0.5937499999999968
 40
0.6249999999999968
 40
0.6249999999999968
 40
0.6406249999999971
 40
0.6406249999999971
 40
0.6562499999999973
 40
0.6562499999999973
 40
0.6874999999999973
 40
0.6874999999999973
 40
0.7031249999999973
 40
0.7031249999999973
 40
0.7187499999999974
 40
0.7187499999999974
 40
0.749999999999998
 40
0.749999999999998
 40
0.7812499999999986
 40
0.7812499999999986
 40
0.7968749999999987
 40
0.7968749999999987
 40
0.8124999999999987
 40
0.8124999999999987
 40
0.8437499999999988
 40
0.8437499999999988
 40
0.8749999999999989
 40
0.8749999999999989
 40
0.9062499999999991
 40
0.9062499999999991
 40
0.9218749999999993
 40
0.9218749999999993
 40
0.9374999999999996
 40
0.9374999999999996
 40
0.9687499999999999
 40
0.9687499999999999
 40
1.0
 40
1.0
 40
1.0
 40
1.0
 10
75.61567969727277
 20
128.2198946431619
 30
0.0
 10
75.87278852245785
 20
128.0714688777139
 30
0.0
 10
76.12817983216361
 20
127.9083451686928
 30
0.0
 10
76.6355240206705
 20
127.5528079976933
 30
0.0
 10
76.88705536740231
 20
127.3605473365906
 30
0.0
 10
77.62521121443324
 20
126.7490083804884
 30
0.0
 10
78.09934981140238
 20
126.2927553198911
 30
0.0
 10
78.78299129260647
 20
125.5351122897027
 30
0.0
 10
79.00743413864544
 20
125.2686933319942
 30
0.0
 10
79.43969098910279
 20
124.7189532573985
 30
0.0
 10
79.64738588070634
 20
124.436048704606
 30
0.0
 10
80.24559565042635
 20
123.5637390330483
 30
0.0
 10
80.61148350472008
 20
122.950969680194
 30
0.0
 10
81.1081925688416
 20
121.982818027518
 30
0.0
 10
81.26332579956026
 20
121.654985109517
 30
0.0
 10
81.54999235998623
 20
120.9959086130636
 30
0.0
 10
81.81413266537758
 20
120.3313395900889
 30
0.0
 10
82.03337566021402
 20
119.6557585730909
 30
0.0
 10
82.22961316078161
 20
118.974505667649
 30
0.0
 10
82.31649401638859
 20
118.6294049846375
 30
0.0
 10
82.53676188236031
 20
117.6061982438922
 30
0.0
 10
82.63201480266996
 20
116.9351924721883
 30
0.0
 10
82.72055824286392
 20
115.6148101790806
 30
0.0
 10
82.71247906142938
 20
114.9608846614108
 30
0.0
 10
82.59280034912251
 20
113.7289299412811
 30
0.0
 10
82.48237338716032
 20
113.1445044736123
 30
0.0
 10
82.23995403310761
 20
112.3160390736879
 30
0.0
 10
82.14587530941496
 20
112.0474897763361
 30
0.0
 10
81.93591759364051
 20
111.538314472082
 30
0.0
 10
81.70343483806867
 20
111.0540138975696
 30
0.0
 10
81.42692676155953
 20
110.6186345930015
 30
0.0
 10
81.12829379409587
 20
110.2080187933896
 30
0.0
 10
80.96734828177402
 20
110.0145050894089
 30
0.0
 10
80.45396611721303
 20
109.4765837065685
 30
0.0
 10
80.07800591377462
 20
109.1807472677271
 30
0.0
 10
79.4658989462144
 20
108.8285026046614
 30
0.0
 10
79.253775725705
 20
108.7264503782464
 30
0.0
 10
78.81303518499911
 20
108.5539816468525
 30
0.0
 10
78.5841417182884
 20
108.483753682945
 30
0.0
 10
77.88798456271019
 20
108.3256132530761
 30
0.0
 10
77.40648398758307
 20
108.2875351557679
 30
0.0
 10
76.65874786221991
 20
108.3316639260451
 30
0.0
 10
76.40426040232026
 20
108.363564119577
 30
0.0
 10
75.89101026959699
 20
108.4619527457137
 30
0.0
 10
75.63356426775923
 20
108.5280513588545
 30
0.0
 10
74.85886872869013
 20
108.7765900728663
 30
0.0
 10
74.33605990190124
 20
109.0116327879438
 30
0.0
 10
73.32005829910567
 20
109.5991830171518
 30
0.0
 10
72.82285443822649
 20
109.9521988991541
 30
0.0
 10
72.09342971105765
 20
110.5722133027294
 30
0.0
 10
71.8528966323111
 20
110.7944632561623
 30
0.0
 10
71.38793393561686
 20
111.2595862436138
 30
0.0
 10
70.93628390670405
 20
111.7475566733611
 30
0.0
 10
70.51063579468288
 20
112.2803416386048
 30
0.0
 10
70.09803385423506
 20
112.835733914034
 30
0.0
 10
69.897275218186
 20
113.1263005632786
 30
0.0
 10
69.3227960635203
 20
114.0211109664776
 30
0.0
 10
68.97875839125304
 20
114.6438215669902
 30
0.0
 10
68.51858901337482
 20
115.6156329050101
 30
0.0
 10
68.37458152087788
 20
115.9459066883321
 30
0.0
 10
68.10572839914177
 20
116.6194319388412
 30
0.0
 10
67.98192753400404
 20
116.9603378834066
 30
0.0
 10
67.64635516527842
 20
117.9815069008203
 30
0.0
 10
67.46784691779531
 20
118.6657215876853
 30
0.0
 10
67.2675335794705
 20
119.696916010337
 30
0.0
 10
67.21191360477974
 20
120.0432974881793
 30
0.0
 10
67.12566278075644
 20
120.7249924306503
 30
0.0
 10
67.0947584023795
 20
121.0610022962068
 30
0.0
 10
67.03775210173664
 20
122.0547976773093
 30
0.0
 10
67.04699608837946
 20
122.6984835571721
 30
0.0
 10
67.16354307317685
 20
123.9464423503043
 30
0.0
 10
67.26937145715821
 20
124.5325111651283
 30
0.0
 10
67.49594020922068
 20
125.3510502741165
 30
0.0
 10
67.58288646596657
 20
125.6140764999336
 30
0.0
 10
67.78017981578598
 20
126.120086053387
 30
0.0
 10
67.89119550438478
 20
126.3641062015382
 30
0.0
 10
68.25331187554262
 20
127.0508736085705
 30
0.0
 10
68.53416600134531
 20
127.4527945262011
 30
0.0
 10
69.17462236031346
 20
128.1467627067618
 30
0.0
 10
69.53817665925058
 20
128.4397803602533
 30
0.0
 10
70.31724664173801
 20
128.8894324594571
 30
0.0
 10
70.73502581677874
 20
129.0501020762746
 30
0.0
 10
71.40568615472509
 20
129.1938018532449
 30
0.0
 10
71.63739389385954
 20
129.2252350837762
 30
0.0
 10
72.10583495481077
 20
129.2538576579488
 30
0.0
 10
72.34368115984906
 20
129.2513983289894
 30
0.0
 10
73.06807898648327
 20
129.1947736894838
 30
0.0
 10
73.56704585321323
 20
129.0912938287839
 30
0.0
 10
74.58895369423252
 20
128.7503327760617
 30
0.0
 10
75.10146204690263
 20
128.5167461740581
 30
0.0
 10
75.61567969727278
 20
128.2198946431619
 30
0.0
  0
LWPOLYLINE
  5
322
330
2E9
100
AcDbEntity
  8
0
  6
Continuous
 62
     7
370
    25
100
AcDbPolyline
 90
       61
 70
   128
 43
0.0
 10
-17.6776695297
 20
-6.1223973384
 10
-19.9539428885
 20
-4.6629807046
 10
-21.9534925993
 20
-3.0742017504
 10
-23.6544111772
 20
-1.3734674706
 10
-25.0380630023
 20
0.4205885342
 10
-26.0892884955
 20
2.288310211
 10
-26.7965702104
 20
4.2092344103
 10
-27.1521590206
 20
6.1623150845
 10
-27.1521590206
 20
8.126153873
 10
-26.7965702104
 20
10.0792345472
 10
-26.0892884955
 20
12.0001587465
 10
-25.0380630023
 20
13.8678804233
 10
-23.6544111772
 20
15.6619364281
 10
-21.9534925993
 20
17.3626707079
 10
-19.9539428885
 20
18.9514496621
 10
-17.6776695297
 20
20.4108662959
 10
-15.1496118502
 20
21.7249309353
 10
-12.3974677791
 20
22.8792464131
 10
-9.4513903826
 20
23.8611658073
 10
-6.3436575013
 20
24.6599310037
 10
-3.1083181069
 20
25.2667905636
 10
0.2191807451
 20
25.6750956066
 10
3.602382281
 20
25.8803726573
 10
7.0042194368
 20
25.8803726573
 10
10.3874209727
 20
25.6750956066
 10
13.7149198247
 20
25.2667905636
 10
16.9502592191
 20
24.6599310037
 10
20.0579921004
 20
23.8611658073
 10
23.0040694969
 20
22.8792464131
 10
25.756213568
 20
21.7249309353
 10
28.2842712475
 20
20.4108662959
 10
30.5605446063
 20
18.9514496621
 10
32.5600943171
 20
17.3626707079
 10
34.261012895
 20
15.6619364281
 10
35.6446647201
 20
13.8678804233
 10
36.6958902133
 20
12.0001587465
 10
37.4031719282
 20
10.0792345472
 10
37.7587607384
 20
8.126153873
 10
37.7587607384
 20
6.1623150845
 10
37.4031719282
 20
4.2092344103
 10
36.6958902133
 20
2.288310211
 10
35.6446647201
 20
0.4205885342
 10
34.261012895
 20
-1.3734674706
 10
32.5600943171
 20
-3.0742017504
 10
30.5605446063
 20
-4.6629807046
 10
28.2842712475
 20
-6.1223973384
 10
25.756213568
 20
-7.4364619777
 10
23.0040694969
 20
-8.5907774555
 10
20.0579921004
 20
-9.5726968498
 10
16.9502592191
 20
-10.3714620462
 10
13.7149198247
 20
-10.9783216061
 10
10.3874209727
 20
-11.3866266491
 10
7.0042194368
 20
-11.5919036998
 10
3.602382281
 20
-11.5919036998
 10
0.2191807451
 20
-11.3866266491
 10
-3.1083181069
 20
-10.9783216061
 10
-6.3436575013
 20
-10.3714620462
 10
-9.4513903826
 20
-9.5726968498
 10
-12.3974677791
 20
-8.5907774555
 10
-15.1496118502
 20
-7.4364619777
 10
-17.6776695297
 20
-6.1223973384
  0
LWPOLYLINE
  5
324
330
2E9
100
AcDbEntity
  8
0
  6
Continuous
 62
     7
370
    25
100
AcDbPolyline
 90
       14
 70
   128
 43
0.0
 10
202.2484491919
 20
118.3577089855
 10
201.5254326382
 20
118.8010483767
 10
199.6384231314
 20
119.7449732728
 10
197.537921235
 20
120.5242600753
 10
195.2666871104
 20
121.1230447522
 10
192.8709565346
 20
121.5291377742
 10
190.3994996734
 20
121.7342722585
 10
187.9026282614
 20
121.7342722585
 10
185.4311714002
 20
121.5291377742
 10
183.0354408244
 20
121.1230447522
 10
180.7642066998
 20
120.5242600753
 10
178.6637048035
 20
119.7449732728
 10
176.7766952966
 20
118.8010483767
 10
176.0663179629
 20
118.3659337527
  0
LWPOLYLINE
  5
328
330
2E9
100
AcDbEntity
  8
0
  6
Continuous
 62
     7
370
    25
100
AcDbPolyline
 90
       51
 70
   128
 43
0.0
 10
-10.6066017178
 20
-2.7547374227
 10
-8.4871078483
 20
-3.8334486987
 10
-6.1501309955
 20
-4.7503015627
 10
-3.6325266804
 20
-5.4908366973
 10
-0.973999027
 20
-6.0433754212
 10
1.7835253955
 20
-6.3992038686
 10
4.5965587796
 20
-6.5527104123
 10
7.4207379086
 20
-6.5014741624
 10
10.2115237903
 20
-6.2463031451
 10
12.9249040644
 20
-5.7912215599
 10
15.518087103
 20
-5.1434063152
 10
17.9501768606
 20
-4.3130738444
 10
20.1828178287
 20
-3.3133189866
 10
22.1807999256
 20
-2.1599084731
 10
23.9126137801
 20
-0.8710322767
 10
25.3509476531
 20
0.532983255
 10
26.4731181604
 20
2.0299959584
 10
27.2614280025
 20
3.5963970488
 10
27.7034450625
 20
5.2074834454
 10
27.7921984671
 20
6.8378473533
 10
27.5262885223
 20
8.4617769596
 10
26.9099087866
 20
10.0536619245
 10
25.9527799368
 20
11.588397271
 10
24.6699964665
 20
13.041779306
 10
23.0817886374
 20
14.3908873266
 10
21.2132034356
 20
15.6144450933
 10
19.0937095661
 20
16.6931563693
 10
16.7567327133
 20
17.6100092333
 10
14.2391283982
 20
18.3505443679
 10
11.5806007448
 20
18.9030830918
 10
8.8230763223
 20
19.2589115392
 10
6.0100429382
 20
19.4124180829
 10
3.1858638092
 20
19.361181833
 10
0.3950779275
 20
19.1060108157
 10
-2.3183023466
 20
18.6509292305
 10
-4.9114853852
 20
18.0031139858
 10
-7.3435751428
 20
17.1727815151
 10
-9.5762161109
 20
16.1730266572
 10
-11.5741982078
 20
15.0196161437
 10
-13.3060120623
 20
13.7307399473
 10
-14.7443459353
 20
12.3267244156
 10
-15.8665164426
 20
10.8297117122
 10
-16.6548262847
 20
9.2633106218
 10
-17.0968433447
 20
7.6522242252
 10
-17.1855967493
 20
6.0218603173
 10
-16.9196868045
 20
4.397930711
 10
-16.3033070688
 20
2.8060457461
 10
-15.346178219
 20
1.2713103996
 10
-14.0633947487
 20
-0.1820716354
 10
-12.4751869196
 20
-1.531179656
 10
-10.6066017178
 20
-2.7547374227
  0
LWPOLYLINE
  5
329
330
2E9
100
AcDbEntity
  8
0
  6
Continuous
 62
     7
370
    25
100
AcDbPolyline
 90
        8
 70
   128
 43
0.0
 10
36.7500724951
 20
198.8944664779
 10
37.1310289139
 20
200.0866115929
 10
37.7844657262
 20
201.1210818362
 10
38.6638437383
 20
201.8507854763
 10
39.7353689463
 20
202.2476804113
 10
40.9578632375
 20
202.2965141917
 10
42.2843468419
 20
201.9954101625
 10
43.6638437383
 20
201.3559395827
  0
LWPOLYLINE
  5
32C
330
2E9
100
AcDbEntity
  8
0
  6
Continuous
 62
     7
370
    25
100
AcDbPolyline
 90
        6
 70
   128
 43
0.0
 10
-58.3359031276
 20
315.0034137293
 10
-58.3363094479
 20
315.0031791465
 10
-57.3608578378
 20
315.4554536744
 10
-56.4228922861
 20
315.6684810857
 10
-55.5584582828
 20
315.6340748566
 10
-54.800775542
 20
315.3535571991
  0
LWPOLYLINE
  5
331
330
2E9
100
AcDbEntity
  8
0
  6
Continuous
 62
     7
370
    25
100
AcDbPolyline
 90
       14
 70
   128
 43
0.0
 10
34.6387304284
 20
200.0026922729
 10
35.3553390593
 20
200.441859559
 10
37.2423485661
 20
201.3857844551
 10
39.3428504625
 20
202.1650712576
 10
41.6140845871
 20
202.7638559345
 10
44.0098151629
 20
203.1699489565
 10
46.4812720241
 20
203.3750834408
 10
48.9781434361
 20
203.3750834408
 10
51.4496002973
 20
203.1699489565
 10
53.8453308731
 20
202.7638559345
 10
56.1165649977
 20
202.1650712576
 10
58.217066894
 20
201.3857844551
 10
60.1040764009
 20
200.441859559
 10
60.834594275
 20
199.9936302677
  0
SPLINE
  5
334
330
2E9
100
AcDbEntity
  8
0
  6
Continuous
 62
     8
370
    25
100
AcDbSpline
210
0.0
220
0.0
230
1.0
 70
     8
 71
     3
 72
    19
 73
    15
 74
     0
 42
0.000000001
 43
0.00000001
 40
0.0
 40
0.0
 40
0.0
 40
0.0
 40
0.0347869059923104
 40
0.1329507518280022
 40
0.2285798130454792
 40
0.3248629385335917
 40
0.4221524717645434
 40
0.5208156623363016
 40
0.6178512598887073
 40
0.7155554580626217
 40
0.8142910646048448
 40
0.9144355535823507
 40
0.9881692662766589
 40
1.0
 40
1.0
 40
1.0
 40
1.0
 10
205.3991085100073
 20
21.08376248909676
 30
0.0
 10
205.5392618443837
 20
21.93393140760688
 30
0.0
 10
206.0749085380183
 20
25.18315963508145
 30
0.0
 10
205.9170039483596
 20
30.81855139139394
 30
0.0
 10
204.9442664399869
 20
37.93621440655441
 30
0.0
 10
202.8940775958849
 20
44.96640549276324
 30
0.0
 10
199.8290743759212
 20
51.94592805694545
 30
0.0
 10
195.7467323385972
 20
58.76713188124766
 30
0.0
 10
190.6879396102302
 20
65.37059212905703
 30
0.0
 10
184.6960490679165
 20
71.70270402828871
 30
0.0
 10
177.7362775477283
 20
77.77833538344284
 30
0.0
 10
170.5401218766262
 20
83.0204284717269
 30
0.0
 10
165.2017608337986
 20
86.36919767701711
 30
0.0
 10
162.6408795120809
 20
87.85324796479877
 30
0.0
 10
162.2867943016602
 20
88.05844304899405
 30
0.0
  0
SPLINE
  5
336
330
2E9
100
AcDbEntity
  8
0
  6
Continuous
 62
     8
370
    25
100
AcDbSpline
210
0.0
220
0.0
230
1.0
 70
     8
 71
     3
 72
    39
 73
    35
 74
     0
 42
0.000000001
 43
0.00000001
 40
0.0
 40
0.0
 40
0.0
 40
0.0
 40
0.0315264035472624
 40
0.0632721949688998
 40
0.0957104722591919
 40
0.1283887042891836
 40
0.1598829999948616
 40
0.1915987785364386
 40
0.2240169950285442
 40
0.2566795951879268
 40
0.2878789889783424
 40
0.3195325217221609
 40
0.3514182630015787
 40
0.3837810483212644
 40
0.4145503046117711
 40
0.4457608614521804
 40
0.4771952073058882
 40
0.5090887202088884
 40
0.5396597254160229
 40
0.5706502111116164
 40
0.6018524087320434
 40
0.6334837261980633
 40
0.664712395439654
 40
0.6961566654015217
 40
0.7282842149862272
 40
0.7606492179893166
 40
0.7921476126150356
 40
0.8238707575264945
 40
0.8563046349800423
 40
0.8889846993867693
 40
0.9202836779066912
 40
0.9518033331976938
 40
0.9840180281202076
 40
1.0
 40
1.0
 40
1.0
 40
1.0
 10
-10.95436708897042
 20
188.0684367472337
 30
0.0
 10
-13.99313378018723
 20
189.7447474378701
 30
0.0
 10
-20.09181351901086
 20
193.10903403299
 30
0.0
 10
-30.19516338008947
 20
197.600443894724
 30
0.0
 10
-40.99072542567701
 20
201.6554745943642
 30
0.0
 10
-52.32855859194295
 20
205.1317130183247
 30
0.0
 10
-64.03884064720295
 20
208.013470707382
 30
0.0
 10
-76.09213507418109
 20
210.3065476988818
 30
0.0
 10
-88.58967879493885
 20
212.0174696092431
 30
0.0
 10
-101.2289680358653
 20
213.091580119842
 30
0.0
 10
-113.877211836841
 20
213.5405477082531
 30
0.0
 10
-126.4426162154964
 20
213.3828759704931
 30
0.0
 10
-139.0898241637644
 20
212.6079402279894
 30
0.0
 10
-151.4556469334311
 20
211.2343217952532
 30
0.0
 10
-163.4791969305932
 20
209.2892195510526
 30
0.0
 10
-175.0560078117147
 20
206.8157256500169
 30
0.0
 10
-186.3525753789103
 20
203.7717178259814
 30
0.0
 10
-197.071697590578
 20
200.2284194957469
 30
0.0
 10
-207.1730170259557
 20
196.2175655667072
 30
0.0
 10
-216.5819871395329
 20
191.7899899008898
 30
0.0
 10
-225.4040266537525
 20
186.8809198253107
 30
0.0
 10
-233.5014664006577
 20
181.5192129128053
 30
0.0
 10
-240.8025881256563
 20
175.7543413776057
 30
0.0
 10
-247.2713630467791
 20
169.6078142656642
 30
0.0
 10
-252.874825736767
 20
163.0731416502952
 30
0.0
 10
-257.4812249900899
 20
156.2649219621611
 30
0.0
 10
-261.0472817361493
 20
149.2708256274586
 30
0.0
 10
-263.5779640682476
 20
142.1094954150806
 30
0.0
 10
-265.0545620491353
 20
134.746030950425
 30
0.0
 10
-265.4132172498527
 20
127.3565187816632
 30
0.0
 10
-264.7030939351442
 20
120.0319972803907
 30
0.0
 10
-262.8895649327518
 20
112.8001144344256
 30
0.0
 10
-260.6582484853199
 20
106.7872715645957
 30
0.0
 10
-258.6232299990948
 20
103.2589799494715
 30
0.0
 10
-257.9484196775613
 20
102.0890015854507
 30
0.0
  0
LWPOLYLINE
  5
33B
330
2E9
100
AcDbEntity
  8
0
  6
Continuous
 62
     8
370
    25
100
AcDbPolyline
 90
       18
 70
   128
 43
0.0
 10
201.5254326382
 20
131.8657013669
 10
199.6384231314
 20
132.809626263
 10
197.537921235
 20
133.5889130655
 10
195.2666871104
 20
134.1876977424
 10
192.8709565346
 20
134.5937907644
 10
190.3994996734
 20
134.7989252487
 10
187.9026282614
 20
134.7989252487
 10
185.4311714002
 20
134.5937907644
 10
183.0354408244
 20
134.1876977424
 10
180.7642066998
 20
133.5889130655
 10
178.6637048035
 20
132.809626263
 10
176.7766952966
 20
131.8657013669
 10
175.1415922512
 20
130.776353966
 10
173.79168165
 20
129.563760032
 10
172.7544437799
 20
128.2526044806
 10
172.0509938129
 20
126.8695786577
 10
171.6956519617
 20
125.4428369808
 10
171.6513650741
 20
124.6628672506
  0
LWPOLYLINE
  5
33C
330
2E9
100
AcDbEntity
  8
0
  6
Continuous
 62
     8
370
    25
100
AcDbPolyline
 90
        7
 70
   128
 43
0.0
 10
206.6510639674
 20
124.7221303884
 10
206.6064759731
 20
125.4428369808
 10
206.2511341219
 20
126.8695786577
 10
205.5476841549
 20
128.2526044806
 10
204.5104462848
 20
129.563760032
 10
203.1605356836
 20
130.776353966
 10
201.5254326382
 20
131.8657013669
  0
SPLINE
  5
340
330
2E9
100
AcDbEntity
  8
0
  6
Continuous
 62
     8
370
    25
100
AcDbSpline
210
0.0
220
0.0
230
1.0
 70
     8
 71
     3
 72
    18
 73
    14
 74
     0
 42
0.000000001
 43
0.00000001
 40
0.0
 40
0.0
 40
0.0
 40
0.0
 40
0.0263426809942763
 40
0.1362046887386203
 40
0.2466026695018803
 40
0.356877912681683
 40
0.4662569629538885
 40
0.5744704196236937
 40
0.6821582649157415
 40
0.7898236388097983
 40
0.8584076655433814
 40
0.9680329554021357
 40
1.0
 40
1.0
 40
1.0
 40
1.0
 10
71.08089407295998
 20
127.9882350503286
 30
0.0
 10
70.92134454143604
 20
127.9266032293071
 30
0.0
 10
70.09639455687191
 20
127.607936234082
 30
0.0
 10
69.12099669415349
 20
126.0104609359344
 30
0.0
 10
68.37909995881319
 20
123.3864378420065
 30
0.0
 10
68.46152270340704
 20
120.1864892572276
 30
0.0
 10
69.30460061305153
 20
116.8989347592823
 30
0.0
 10
70.83122459094723
 20
113.865235016548
 30
0.0
 10
72.87956482606415
 20
111.4295507417829
 30
0.0
 10
74.96868135754478
 20
110.0295674462276
 30
0.0
 10
77.06982383185198
 20
109.4266312495555
 30
0.0
 10
78.6460420190687
 20
109.3802330715412
 30
0.0
 10
79.43908686555721
 20
109.959028336992
 30
0.0
 10
79.61813116250374
 20
110.0897018945311
 30
0.0
  0
LWPOLYLINE
  5
342
330
2E9
100
AcDbEntity
  8
0
  6
Continuous
 62
     8
370
    25
100
AcDbPolyline
 90
       18
 70
   128
 43
0.0
 10
130.8147545195
 20
172.686106958
 10
128.9277450127
 20
173.6300318541
 10
126.8272431163
 20
174.4093186566
 10
124.5560089917
 20
175.0081033335
 10
122.1602784159
 20
175.4141963555
 10
119.6888215547
 20
175.6193308398
 10
117.1919501428
 20
175.6193308398
 10
114.7204932816
 20
175.4141963555
 10
112.3247627058
 20
175.0081033335
 10
110.0535285811
 20
174.4093186566
 10
107.9530266848
 20
173.6300318541
 10
106.066017178
 20
172.686106958
 10
104.4309141326
 20
171.5967595571
 10
103.0810035313
 20
170.3841656232
 10
102.0437656613
 20
169.0730100717
 10
101.3403156943
 20
167.6899842489
 10
100.9849738431
 20
166.263242572
 10
100.9406869554
 20
165.4832728417
  0
LWPOLYLINE
  5
343
330
2E9
100
AcDbEntity
  8
0
  6
Continuous
 62
     8
370
    25
100
AcDbPolyline
 90
        7
 70
   128
 43
0.0
 10
135.9403858487
 20
165.5425359796
 10
135.8957978544
 20
166.263242572
 10
135.5404560032
 20
167.6899842489
 10
134.8370060362
 20
169.0730100717
 10
133.7997681662
 20
170.3841656232
 10
132.4498575649
 20
171.5967595571
 10
130.8147545195
 20
172.686106958
  0
LWPOLYLINE
  5
344
330
2E9
100
AcDbEntity
  8
0
  6
Continuous
 62
     8
370
    25
100
AcDbPolyline
 90
       14
 70
   128
 43
0.0
 10
104.7409976536
 20
159.5806804614
 10
106.066017178
 20
160.4379947797
 10
107.9530266848
 20
161.3819196758
 10
110.0535285811
 20
162.1612064783
 10
112.3247627058
 20
162.7599911552
 10
114.7204932816
 20
163.1660841773
 10
117.1919501428
 20
163.3712186615
 10
119.6888215547
 20
163.3712186615
 10
122.1602784159
 20
163.1660841773
 10
124.5560089917
 20
162.7599911552
 10
126.8272431163
 20
162.1612064783
 10
128.9277450127
 20
161.3819196758
 10
130.8147545195
 20
160.4379947797
 10
132.1485424257
 20
159.5743070447
  0
LWPOLYLINE
  5
345
330
2E9
100
AcDbEntity
  8
0
  6
Continuous
 62
     8
370
    25
100
AcDbPolyline
 90
       18
 70
   128
 43
0.0
 10
60.1040764009
 20
213.5065125491
 10
58.217066894
 20
214.4504374453
 10
56.1165649977
 20
215.2297242478
 10
53.8453308731
 20
215.8285089247
 10
51.4496002973
 20
216.2346019467
 10
48.9781434361
 20
216.439736431
 10
46.4812720241
 20
216.439736431
 10
44.0098151629
 20
216.2346019467
 10
41.6140845871
 20
215.8285089247
 10
39.3428504625
 20
215.2297242478
 10
37.2423485661
 20
214.4504374453
 10
35.3553390593
 20
213.5065125491
 10
33.7202360139
 20
212.4171651483
 10
32.3703254127
 20
211.2045712143
 10
31.3330875426
 20
209.8934156629
 10
30.6296375756
 20
208.51038984
 10
30.2742957244
 20
207.0836481631
 10
30.2300088367
 20
206.3036784328
  0
LWPOLYLINE
  5
346
330
2E9
100
AcDbEntity
  8
0
  6
Continuous
 62
     8
370
    25
100
AcDbPolyline
 90
        7
 70
   128
 43
0.0
 10
65.2297077301
 20
206.3629415707
 10
65.1851197358
 20
207.0836481631
 10
64.8297778846
 20
208.51038984
 10
64.1263279176
 20
209.8934156629
 10
63.0890900475
 20
211.2045712143
 10
61.7391794463
 20
212.4171651483
 10
60.1040764009
 20
213.5065125491
  0
LINE
  5
347
330
2E9
100
AcDbEntity
  8
0
  6
Continuous
 62
     7
370
    25
100
AcDbLine
 10
60.8361062795
 20
-182.9135472703
 30
0.0
 11
379.0341578134
 21
0.7782778898
 31
0.0
  0
LINE
  5
348
330
2E9
100
AcDbEntity
  8
0
  6
Continuous
 62
     7
370
    25
100
AcDbLine
 10
-375.4986239075
 20
66.0909268356
 30
0.0
 11
55.8365126163
 21
-182.9135472703
 31
0.0
  0
LINE
  5
349
330
2E9
100
AcDbEntity
  8
0
  6
Continuous
 62
     7
370
    25
100
AcDbLine
 10
-377.9988270759
 20
127.5790279795
 30
0.0
 11
-377.9988270759
 21
70.4211711475
 31
0.0
  0
LINE
  5
34A
330
2E9
100
AcDbEntity
  8
0
  6
Continuous
 62
     7
370
    25
100
AcDbLine
 10
-58.3359031276
 20
315.0034137293
 30
0.0
 11
-375.4986239075
 21
131.9092722915
 31
0.0
  0
LINE
  5
34B
330
2E9
100
AcDbEntity
  8
0
  6
Continuous
 62
     7
370
    25
100
AcDbLine
 10
61.8718433538
 20
-123.4664664059
 30
0.0
 11
61.8718433538
 21
-180.6243232379
 31
0.0
  0
LINE
  5
34C
330
2E9
100
AcDbEntity
  8
0
  6
Continuous
 62
     7
370
    25
100
AcDbLine
 10
54.800775542
 20
-180.6243232379
 30
0.0
 11
54.800775542
 21
-123.4664664059
 31
0.0
  0
LINE
  5
34D
330
2E9
100
AcDbEntity
  8
0
  6
Continuous
 62
     7
370
    25
100
AcDbLine
 10
54.800775542
 20
-123.4664664059
 30
0.0
 11
-376.5343609818
 21
125.5380077
 31
0.0
  0
LINE
  5
34E
330
2E9
100
AcDbEntity
  8
0
  6
Continuous
 62
     7
370
    25
100
AcDbLine
 10
-372.9988270759
 20
131.661732039
 30
0.0
 11
58.3363094479
 21
-117.3427420669
 31
0.0
  0
LINE
  5
34F
330
2E9
100
AcDbEntity
  8
0
  6
Continuous
 62
     7
370
    25
100
AcDbLine
 10
380.0698948878
 20
60.2253587542
 30
0.0
 11
61.8718433538
 21
-123.4664664059
 31
0.0
  0
LINE
  5
350
330
2E9
100
AcDbEntity
  8
0
  6
Continuous
 62
     7
370
    25
100
AcDbLine
 10
58.3363094479
 20
-117.3427420669
 30
0.0
 11
376.5343609818
 21
66.3490830932
 31
0.0
  0
LINE
  5
351
330
2E9
100
AcDbEntity
  8
0
  6
Continuous
 62
     7
370
    25
100
AcDbLine
 10
380.0698948878
 20
60.2253587542
 30
0.0
 11
380.0698948878
 21
3.0675019222
 31
0.0
  0
LINE
  5
352
330
2E9
100
AcDbEntity
  8
0
  6
Continuous
 62
     7
370
    25
100
AcDbLine
 10
61.8718433538
 20
-180.6243232379
 30
0.0
 11
380.0698948878
 21
3.0675019222
 31
0.0
  0
LINE
  5
353
330
2E9
100
AcDbEntity
  8
0
  6
Continuous
 62
     7
370
    25
100
AcDbLine
 10
-376.5343609818
 20
68.380150868
 30
0.0
 11
54.800775542
 21
-180.6243232379
 31
0.0
  0
LINE
  5
354
330
2E9
100
AcDbEntity
  8
0
  6
Continuous
 62
     7
370
    25
100
AcDbLine
 10
-376.5343609818
 20
125.5380077
 30
0.0
 11
-376.5343609818
 21
68.380150868
 31
0.0
  0
LINE
  5
355
330
2E9
100
AcDbEntity
  8
0
  6
Continuous
 62
     7
370
    25
100
AcDbLine
 10
-54.800775542
 20
315.3535571991
 30
0.0
 11
-372.9988270759
 21
131.661732039
 31
0.0
  0
LINE
  5
356
330
2E9
100
AcDbEntity
  8
0
  6
Continuous
 62
     7
370
    25
100
AcDbLine
 10
376.5343609818
 20
66.3490830932
 30
0.0
 11
-54.800775542
 21
315.3535571991
 31
0.0
  0
LINE
  5
357
330
2E9
100
AcDbEntity
  8
0
  6
Continuous
 62
     7
370
    25
100
AcDbLine
 10
-88.3883476483
 20
14.2878054572
 30
0.0
 11
17.6776695297
 21
-46.9428029295
 31
0.0
  0
LINE
  5
358
330
2E9
100
AcDbEntity
  8
0
  6
Continuous
 62
     7
370
    25
100
AcDbLine
 10
88.3883476483
 20
-6.1223973384
 30
0.0
 11
-17.6776695297
 21
55.1082110483
 31
0.0
  0
LINE
  5
359
330
2E9
100
AcDbEntity
  8
0
  6
Continuous
 62
     7
370
    25
100
AcDbLine
 10
206.6380833012
 20
124.3330903705
 30
0.0
 11
206.6510639674
 21
124.7221303884
 31
0.0
  0
LINE
  5
35A
330
2E9
100
AcDbEntity
  8
0
  6
Continuous
 62
     7
370
    25
100
AcDbLine
 10
81.3191235088
 20
120.1962847218
 30
0.0
 11
81.3191235088
 21
120.9497658321
 31
0.0
  0
LINE
  5
35B
330
2E9
100
AcDbEntity
  8
0
  6
Continuous
 62
     7
370
    25
100
AcDbLine
 10
12.4333334865
 20
-5.8896963494
 30
0.0
 11
16.396500592
 21
-3.6018086785
 31
0.0
  0
LINE
  5
35C
330
2E9
100
AcDbEntity
  8
0
  6
Continuous
 62
     7
370
    25
100
AcDbLine
 10
-1.5501448963
 20
-2.5306152256
 30
0.0
 11
-1.5501448963
 21
-5.9418983812
 31
0.0
  0
LINE
  5
35D
330
2E9
100
AcDbEntity
  8
0
  6
Continuous
 62
     7
370
    25
100
AcDbLine
 10
43.6638437383
 20
201.3559395827
 30
0.0
 11
51.349555229
 21
196.9190727805
 31
0.0
  0
LINE
  5
35E
330
2E9
100
AcDbEntity
  8
0
  6
Continuous
 62
     7
370
    25
100
AcDbLine
 10
71.1885970506
 20
128.035643839
 30
0.0
 11
71.080894073
 21
127.9882350503
 31
0.0
  0
LINE
  5
35F
330
2E9
100
AcDbEntity
  8
0
  6
Continuous
 62
     7
370
    25
100
AcDbLine
 10
79.6181311625
 20
110.0897018945
 30
0.0
 11
79.8054421673
 21
110.2124342435
 31
0.0
  0
LINE
  5
360
330
2E9
100
AcDbEntity
  8
0
  6
Continuous
 62
     7
370
    25
100
AcDbLine
 10
135.9274051826
 20
165.1534959617
 30
0.0
 11
135.9403858487
 21
165.5425359796
 31
0.0
  0
LINE
  5
361
330
2E9
100
AcDbEntity
  8
0
  6
Continuous
 62
     7
370
    25
100
AcDbLine
 10
65.2167270639
 20
205.9739015528
 30
0.0
 11
65.2297077301
 21
206.3629415707
 31
0.0
  0
LINE
  5
362
330
2E9
100
AcDbEntity
  8
0
  6
Continuous
 62
     7
370
    25
100
AcDbLine
 10
51.0334441329
 20
197.1015598319
 30
0.0
 11
51.1288509169
 21
196.8857099826
 31
0.0
  0
ARC
  5
363
330
2E9
100
AcDbEntity
  8
0
  6
Continuous
 62
     7
370
    25
100
AcDbCircle
 10
58.3363094479
 20
-178.5833029584
 30
0.0
 40
5.000000000000092
100
AcDbArc
 50
240.0026882664
 51
299.9973117337
  0
ARC
  5
364
330
2E9
100
AcDbEntity
  8
0
  6
Continuous
 62
     7
370
    25
100
AcDbCircle
 10
-372.9988270759
 20
127.5790279795
 30
0.0
 40
4.99999999999997
100
AcDbArc
 50
119.9973117336
 51
180.0
  0
ARC
  5
365
330
2E9
100
AcDbEntity
  8
0
  6
Continuous
 62
     7
370
    25
100
AcDbCircle
 10
-372.9988270759
 20
70.4211711475
 30
0.0
 40
5.0
100
AcDbArc
 50
180.0
 51
240.0026882664
  0
ARC
  5
366
330
2E9
100
AcDbEntity
  8
0
  6
Continuous
 62
     7
370
    25
100
AcDbCircle
 10
62.4768560488
 20
-123.8157706672
 30
0.0
 40
7.684024037860318
100
AcDbArc
 50
122.60547834
 51
177.3945215143
  0
ARC
  5
367
330
2E9
100
AcDbEntity
  8
0
  6
Continuous
 62
     7
370
    25
100
AcDbCircle
 10
54.195762847
 20
-123.8157706672
 30
0.0
 40
7.684024037860064
100
AcDbArc
 50
2.6054784857
 51
57.39452166
  0
ARC
  5
368
330
2E9
100
AcDbEntity
  8
0
  6
Continuous
 62
     7
370
    25
100
AcDbCircle
 10
58.3363094479
 20
-116.6429109812
 30
0.0
 40
7.685109539558656
100
AcDbArc
 50
242.6096722366
 51
297.3903277634
  0
ARC
  5
369
330
2E9
100
AcDbEntity
  8
0
  6
Continuous
 62
     7
370
    25
100
AcDbCircle
 10
58.3363094479
 20
-173.8007678132
 30
0.0
 40
7.685109539558908
100
AcDbArc
 50
242.6096722366
 51
297.3903277634
  0
ARC
  5
36A
330
2E9
100
AcDbEntity
  8
0
  6
Continuous
 62
     7
370
    25
100
AcDbCircle
 10
-368.858280475
 20
125.1887034387
 30
0.0
 40
7.684024037860167
100
AcDbArc
 50
122.60547834
 51
177.3945215143
  0
ARC
  5
36B
330
2E9
100
AcDbEntity
  8
0
  6
Continuous
 62
     7
370
    25
100
AcDbCircle
 10
372.3938143809
 20
59.8760544929
 30
0.0
 40
7.684024037860049
100
AcDbArc
 50
2.6054784857
 51
57.39452166
  0
ARC
  5
36C
330
2E9
100
AcDbEntity
  8
0
  6
Continuous
 62
     7
370
    25
100
AcDbCircle
 10
169.988388078
 20
87.1380952693
 30
0.0
 40
7.756390057975078
100
AcDbArc
 50
122.5376041118
 51
173.1854157567
  0
ARC
  5
36D
330
2E9
100
AcDbEntity
  8
0
  6
Continuous
 62
     7
370
    25
100
AcDbCircle
 10
377.6914671083
 20
2.7646817792
 30
0.0
 40
2.397627731996117
100
AcDbArc
 50
304.0563508304
 51
7.255829563
  0
ARC
  5
36E
330
2E9
100
AcDbEntity
  8
0
  6
Continuous
 62
     7
370
    25
100
AcDbCircle
 10
-3.1819516614
 20
187.15749557
 30
0.0
 40
7.825615337282382
100
AcDbArc
 50
123.1587109398
 51
173.3153269449
  0
ARC
  5
36F
330
2E9
100
AcDbEntity
  8
0
  6
Continuous
 62
     7
370
    25
100
AcDbCircle
 10
5.2806136558
 20
-38.2096745681
 30
0.0
 40
36.32704967327461
100
AcDbArc
 50
69.2620879128
 51
100.8381340413
  0
ARC
  5
370
330
2E9
100
AcDbEntity
  8
0
  6
Continuous
 62
     7
370
    25
100
AcDbCircle
 10
51.1555754712
 20
199.9507917393
 30
0.0
 40
9.614783892273513
100
AcDbArc
 50
166.8105866139
 51
196.2574767617
  0
ARC
  5
371
330
2E9
100
AcDbEntity
  8
0
  6
Continuous
 62
     8
370
    25
100
AcDbCircle
 10
-50.5504786205
 20
-34.135190985
 30
0.0
 40
2.505992728455302
100
AcDbArc
 50
66.8209163605
 51
125.8754658467
  0
ARC
  5
372
330
2E9
100
AcDbEntity
  8
0
  6
Continuous
 62
     8
370
    25
100
AcDbCircle
 10
57.2507850539
 20
-180.8947569246
 30
0.0
 40
2.464889650180551
100
AcDbArc
 50
173.7011524839
 51
234.9866671227
  0
ARC
  5
373
330
2E9
100
AcDbEntity
  8
0
  6
Continuous
 62
     8
370
    25
100
AcDbCircle
 10
59.4218338421
 20
-180.8947569247
 30
0.0
 40
2.464889649974092
100
AcDbArc
 50
305.0133328744
 51
6.2988475189
  0
ARC
  5
374
330
2E9
100
AcDbEntity
  8
0
  6
Continuous
 62
     8
370
    25
100
AcDbCircle
 10
-374.0843514698
 20
68.1097171813
 30
0.0
 40
2.464889650211606
100
AcDbArc
 50
173.7011524843
 51
234.9866671223
  0
ARC
  5
375
330
2E9
100
AcDbEntity
  8
0
  6
Continuous
 62
     8
370
    25
100
AcDbCircle
 10
-223.8907368238
 20
65.9317840235
 30
0.0
 40
2.492199708853821
100
AcDbArc
 50
63.3780978777
 51
125.7284218386
  0
ARC
  5
376
330
2E9
100
AcDbEntity
  8
0
  6
Continuous
 62
     8
370
    25
100
AcDbCircle
 10
-374.4634273502
 20
129.6173253934
 30
0.0
 40
2.514886179509046
100
AcDbArc
 50
54.3824225248
 51
114.3071190461
  0
ARC
  5
377
330
2E9
100
AcDbEntity
  8
0
  6
Continuous
 62
     8
370
    25
100
AcDbCircle
 10
-375.4965417635
 20
127.828559864
 30
0.0
 40
2.514696392468941
100
AcDbArc
 50
185.6947992512
 51
245.6253417064
  0
ARC
  5
378
330
2E9
100
AcDbEntity
  8
0
  6
Continuous
 62
     8
370
    25
100
AcDbCircle
 10
-375.4965417635
 20
70.670703032
 30
0.0
 40
2.514696392469039
100
AcDbArc
 50
185.6947992512
 51
245.6253417064
  0
ARC
  5
379
330
2E9
100
AcDbEntity
  8
0
  6
Continuous
 62
     8
370
    25
100
AcDbCircle
 10
94.2346675
 20
129.9218636786
 30
0.0
 40
16.60645101096861
100
AcDbArc
 50
194.394557133
 51
222.3369461765
  0
VIEWPORT
  5
380
330
2E9
100
AcDbEntity
  8
0
100
AcDbViewport
 10
0.0
 20
0.0
 30
0.0
 40
205.6
 41
156.0
 68
     1
 69
     1
 12
0.0
 22
0.0
 13
0.0
 23
0.0
 14
10.0
 24
10.0
 15
10.0
 25
10.0
 16
0.0
 26
0.0
 36
1.0
 17
0.0
 27
0.0
 37
0.0
 42
50.0
 43
0.0
 44
0.0
 45
479.8365758755
 50
0.0
 51
0.0
 72
   100
 90
   557152
  1

281
     0
 71
     1
 74
     0
110
0.0
120
0.0
130
0.0
111
1.0
121
0.0
131
0.0
112
0.0
122
1.0
132
0.0
 79
     0
146
0.0
  0
ENDBLK
  5
2EC
330
2E9
100
AcDbEntity
  8
0
100
AcDbBlockEnd
  0
ENDSEC
  0
SECTION
  2
ENTITIES
  0
SPLINE
  5
73
330
1F
100
AcDbEntity
  8
0
  6
Continuous
 62
     7
370
    25
100
AcDbSpline
210
0.0
220
0.0
230
1.0
 70
     8
 71
     3
 72
     9
 73
     5
 74
     0
 42
0.000000001
 43
0.00000001
 40
0.0
 40
0.0
 40
0.0
 40
0.0
 40
0.0740232596567799
 40
1.0
 40
1.0
 40
1.0
 40
1.0
 10
-8.210285046921188
 20
106.6332597436454
 30
0.0
 10
-8.194367714490001
 20
106.6352205657625
 30
0.0
 10
-7.97933621621515
 20
106.6617098358404
 30
0.0
 10
-7.691044688569443
 20
106.6815343335734
 30
0.0
 10
-7.424093439531508
 20
106.6998913573632
 30
0.0
  0
SPLINE
  5
75
330
1F
100
AcDbEntity
  8
0
  6
Continuous
 62
     7
370
    25
100
AcDbSpline
210
0.0
220
0.0
230
1.0
 70
     8
 71
     3
 72
    98
 73
    94
 74
     0
 42
0.000000001
 43
0.00000001
 40
0.0
 40
0.0
 40
0.0
 40
0.0
 40
0.0156249999999995
 40
0.0156249999999995
 40
0.0234374999999993
 40
0.0234374999999993
 40
0.0312499999999991
 40
0.0312499999999991
 40
0.0624999999999985
 40
0.0624999999999985
 40
0.0937499999999978
 40
0.0937499999999978
 40
0.1249999999999972
 40
0.1249999999999972
 40
0.1328124999999971
 40
0.1328124999999971
 40
0.1406249999999971
 40
0.1406249999999971
 40
0.1562499999999969
 40
0.1562499999999969
 40
0.1874999999999965
 40
0.1874999999999965
 40
0.2187499999999962
 40
0.2187499999999962
 40
0.2343749999999961
 40
0.2343749999999961
 40
0.2421874999999961
 40
0.2421874999999961
 40
0.2499999999999961
 40
0.2499999999999961
 40
0.2812499999999957
 40
0.2812499999999957
 40
0.3124999999999953
 40
0.3124999999999953
 40
0.3437499999999948
 40
0.3437499999999948
 40
0.3515624999999948
 40
0.3515624999999948
 40
0.3593749999999947
 40
0.3593749999999947
 40
0.3749999999999946
 40
0.3749999999999946
 40
0.4062499999999946
 40
0.4062499999999946
 40
0.4374999999999944
 40
0.4374999999999944
 40
0.4531249999999944
 40
0.4531249999999944
 40
0.4687499999999946
 40
0.4687499999999946
 40
0.4999999999999947
 40
0.4999999999999947
 40
0.5312499999999948
 40
0.5312499999999948
 40
0.5624999999999949
 40
0.5624999999999949
 40
0.570312499999995
 40
0.570312499999995
 40
0.578124999999995
 40
0.578124999999995
 40
0.5937499999999953
 40
0.5937499999999953
 40
0.6249999999999956
 40
0.6249999999999956
 40
0.6562499999999959
 40
0.6562499999999959
 40
0.671874999999996
 40
0.671874999999996
 40
0.6796874999999961
 40
0.6796874999999961
 40
0.6874999999999961
 40
0.6874999999999961
 40
0.7187499999999966
 40
0.7187499999999966
 40
0.749999999999997
 40
0.749999999999997
 40
0.7812499999999976
 40
0.7812499999999976
 40
0.812499999999998
 40
0.812499999999998
 40
0.8437499999999984
 40
0.8437499999999984
 40
0.8749999999999989
 40
0.8749999999999989
 40
0.890624999999999
 40
0.890624999999999
 40
0.9062499999999991
 40
0.9062499999999991
 40
0.9374999999999994
 40
0.9374999999999994
 40
0.9687499999999997
 40
0.9687499999999997
 40
1.0
 40
1.0
 40
1.0
 40
1.0
 10
-122.5606883782279
 20
-196.1267402108049
 30
0.0
 10
-125.096918394887
 20
-196.094326617628
 30
0.0
 10
-127.6297228976095
 20
-196.0005382536319
 30
0.0
 10
-131.4237803515513
 20
-195.7675959410854
 30
0.0
 10
-132.6876085053486
 20
-195.6745817750508
 30
0.0
 10
-135.2135531991624
 20
-195.4578865400122
 30
0.0
 10
-136.4765979746046
 20
-195.3341028737247
 30
0.0
 10
-142.7680712167679
 20
-194.6403269254288
 30
0.0
 10
-147.7359264922842
 20
-193.8455975634177
 30
0.0
 10
-157.5449456159464
 20
-191.7912355560883
 30
0.0
 10
-162.385970768417
 20
-190.5310939570373
 30
0.0
 10
-171.9414112379794
 20
-187.546206883296
 30
0.0
 10
-176.6557060912764
 20
-185.8210193580665
 30
0.0
 10
-182.4672473216857
 20
-183.3660984557662
 30
0.0
 10
-183.6254824238563
 20
-182.8601675814605
 30
0.0
 10
-185.933707313795
 20
-181.8180490600186
 30
0.0
 10
-187.0842342939268
 20
-181.281550532623
 30
0.0
 10
-190.5045051234873
 20
-179.635315097287
 30
0.0
 10
-192.749084612023
 20
-178.4860396318354
 30
0.0
 10
-199.378486366903
 20
-174.8864454464301
 30
0.0
 10
-203.6595263572569
 20
-172.2851654161202
 30
0.0
 10
-211.9461535788485
 20
-166.6819328026911
 30
0.0
 10
-215.9531468030885
 20
-163.6820253717321
 30
0.0
 10
-221.754695386266
 20
-158.8782390601641
 30
0.0
 10
-223.6535225038353
 20
-157.2260334895305
 30
0.0
 10
-226.4490580372397
 20
-154.6710604298401
 30
0.0
 10
-227.3721043962903
 20
-153.8066040144419
 30
0.0
 10
-229.2003907260035
 20
-152.0517900777191
 30
0.0
 10
-230.104794372208
 20
-151.1621689587551
 30
0.0
 10
-234.557411012813
 20
-146.6734075836046
 30
0.0
 10
-237.9156375499507
 20
-142.9337227218071
 30
0.0
 10
-244.2419303007476
 20
-135.1698172607394
 30
0.0
 10
-247.2082072275402
 20
-131.1442917721008
 30
0.0
 10
-252.7490599126978
 20
-122.8075813514594
 30
0.0
 10
-255.3239378714818
 20
-118.4966168078816
 30
0.0
 10
-258.2905926549475
 20
-112.9241746291376
 30
0.0
 10
-258.8713413977093
 20
-111.8005102487718
 30
0.0
 10
-260.0074153672465
 20
-109.5346406512736
 30
0.0
 10
-260.5617804849097
 20
-108.3942676443018
 30
0.0
 10
-262.1781465865041
 20
-104.9632753669248
 30
0.0
 10
-263.1958350886812
 20
-102.6578855784586
 30
0.0
 10
-266.0726284766974
 20
-95.6885551568305
 30
0.0
 10
-267.7561572151608
 20
-90.97166336201077
 30
0.0
 10
-270.6621797560382
 20
-81.39883847437332
 30
0.0
 10
-271.8845987804682
 20
-76.54288282962457
 30
0.0
 10
-273.368951272521
 20
-69.15361288840322
 30
0.0
 10
-273.8052770488762
 20
-66.67289272541375
 30
0.0
 10
-274.5596595948498
 20
-61.67578422133386
 30
0.0
 10
-274.8779885009612
 20
-59.15439205433412
 30
0.0
 10
-275.6446591470069
 20
-51.61280254991916
 30
0.0
 10
-275.9093909815466
 20
-46.59439952434763
 30
0.0
 10
-275.9674698368426
 20
-36.57543109258437
 30
0.0
 10
-275.7564705386175
 20
-31.57503015495729
 30
0.0
 10
-274.8331586573396
 20
-21.59319841896893
 30
0.0
 10
-274.1251695697475
 20
-16.61160401570531
 30
0.0
 10
-272.919811309244
 20
-10.39673416846752
 30
0.0
 10
-272.6623321812835
 20
-9.152984696162184
 30
0.0
 10
-272.1178744957656
 20
-6.679781587030623
 30
0.0
 10
-271.8306942422752
 20
-5.449058369235265
 30
0.0
 10
-270.9249007295581
 20
-1.774287246689732
 30
0.0
 10
-270.2619482305537
 20
0.6523281235495137
 30
0.0
 10
-268.0977631354589
 20
7.863241965254231
 30
0.0
 10
-266.4219932810685
 20
12.57891889981553
 30
0.0
 10
-262.6094769140344
 20
21.82903394878888
 30
0.0
 10
-260.4726441101198
 20
26.36343813669337
 30
0.0
 10
-256.9153017454749
 20
33.02661452728383
 30
0.0
 10
-255.6706061481184
 20
35.22451021966714
 30
0.0
 10
-253.7134090863233
 20
38.48590870105316
 30
0.0
 10
-253.0470986006286
 20
39.56520569118269
 30
0.0
 10
-251.6917564431549
 20
41.70036634376972
 30
0.0
 10
-251.0020076430318
 20
42.75743014249029
 30
0.0
 10
-247.493572682964
 20
47.99077396620452
 30
0.0
 10
-244.4965510986458
 20
52.01177061052871
 30
0.0
 10
-238.1321371136553
 20
59.73126805929115
 30
0.0
 10
-234.7641954062516
 20
63.42929056163922
 30
0.0
 10
-227.6559794929964
 20
70.50113161585747
 30
0.0
 10
-223.9161973475619
 20
73.87537862329295
 30
0.0
 10
-216.0533457480906
 20
80.29012992127828
 30
0.0
 10
-211.9950041272229
 20
83.27709193158681
 30
0.0
 10
-203.6402628471471
 20
88.82341423735923
 30
0.0
 10
-199.3430990170704
 20
91.38387247477438
 30
0.0
 10
-190.5114068213957
 20
96.08332819112158
 30
0.0
 10
-185.9767670206353
 20
98.22212780752173
 30
0.0
 10
-178.9937134471839
 20
101.1087797835399
 30
0.0
 10
-176.6358255713029
 20
102.017368510316
 30
0.0
 10
-171.8583889244206
 20
103.7250618424557
 30
0.0
 10
-169.4583489775848
 20
104.5171505429415
 30
0.0
 10
-162.2269075716565
 20
106.7113833186428
 30
0.0
 10
-157.3633750315508
 20
107.9321166842344
 30
0.0
 10
-147.5533633995817
 20
109.9018979793403
 30
0.0
 10
-142.606917593781
 20
110.6511351940098
 30
0.0
 10
-132.6302664890369
 20
111.6733012993591
 30
0.0
 10
-127.6000564345955
 20
111.9462031473325
 30
0.0
 10
-122.526643589467
 20
111.9734271855226
 30
0.0
  0
SPLINE
  5
77
330
1F
100
AcDbEntity
  8
0
  6
Continuous
 62
     7
370
    25
100
AcDbSpline
210
0.0
220
0.0
230
1.0
 70
     8
 71
     3
 72
   102
 73
    98
 74
     0
 42
0.000000001
 43
0.00000001
 40
0.0
 40
0.0
 40
0.0
 40
0.0
 40
0.0312499999999995
 40
0.0312499999999995
 40
0.0624999999999989
 40
0.0624999999999989
 40
0.0937499999999984
 40
0.0937499999999984
 40
0.1093749999999981
 40
0.1093749999999981
 40
0.1249999999999978
 40
0.1249999999999978
 40
0.1562499999999972
 40
0.1562499999999972
 40
0.1874999999999966
 40
0.1874999999999966
 40
0.2031249999999963
 40
0.2031249999999963
 40
0.218749999999996
 40
0.218749999999996
 40
0.2499999999999954
 40
0.2499999999999954
 40
0.2812499999999947
 40
0.2812499999999947
 40
0.312499999999994
 40
0.312499999999994
 40
0.3203124999999939
 40
0.3203124999999939
 40
0.3281249999999938
 40
0.3281249999999938
 40
0.3437499999999936
 40
0.3437499999999936
 40
0.3749999999999934
 40
0.3749999999999934
 40
0.4062499999999932
 40
0.4062499999999932
 40
0.4218749999999931
 40
0.4218749999999931
 40
0.429687499999993
 40
0.429687499999993
 40
0.4374999999999929
 40
0.4374999999999929
 40
0.4687499999999925
 40
0.4687499999999925
 40
0.4843749999999922
 40
0.4843749999999922
 40
0.499999999999992
 40
0.499999999999992
 40
0.5312499999999916
 40
0.5312499999999916
 40
0.5468749999999913
 40
0.5468749999999913
 40
0.5624999999999911
 40
0.5624999999999911
 40
0.5937499999999908
 40
0.5937499999999908
 40
0.6249999999999905
 40
0.6249999999999905
 40
0.6406249999999903
 40
0.6406249999999903
 40
0.6484374999999903
 40
0.6484374999999903
 40
0.6562499999999903
 40
0.6562499999999903
 40
0.6874999999999906
 40
0.6874999999999906
 40
0.7187499999999908
 40
0.7187499999999908
 40
0.749999999999991
 40
0.749999999999991
 40
0.7578124999999912
 40
0.7578124999999912
 40
0.7656249999999915
 40
0.7656249999999915
 40
0.7812499999999918
 40
0.7812499999999918
 40
0.8124999999999927
 40
0.8124999999999927
 40
0.8437499999999936
 40
0.8437499999999936
 40
0.8593749999999941
 40
0.8593749999999941
 40
0.8671874999999944
 40
0.8671874999999944
 40
0.8749999999999947
 40
0.8749999999999947
 40
0.9062499999999961
 40
0.9062499999999961
 40
0.9374999999999974
 40
0.9374999999999974
 40
0.9687499999999988
 40
0.9687499999999988
 40
0.9765624999999991
 40
0.9765624999999991
 40
0.9843749999999993
 40
0.9843749999999993
 40
1.0
 40
1.0
 40
1.0
 40
1.0
 10
-122.499999999931
 20
107.0081854954952
 30
0.0
 10
-127.4197245053476
 20
106.9852723333329
 30
0.0
 10
-132.2976182314799
 20
106.72367636279
 30
0.0
 10
-141.9722333180196
 20
105.7373104107167
 30
0.0
 10
-146.7689598103005
 20
105.0125697006145
 30
0.0
 10
-156.2820797655426
 20
103.1047140697957
 30
0.0
 10
-160.9984371943239
 20
101.9213920154655
 30
0.0
 10
-168.0110479389736
 20
99.79308233258642
 30
0.0
 10
-170.3388402916946
 20
99.02447222249681
 30
0.0
 10
-174.9709220719121
 20
97.36762316142291
 30
0.0
 10
-177.25699392763
 20
96.48596754292005
 30
0.0
 10
-184.0271356237209
 20
93.68456401249553
 30
0.0
 10
-188.423205447616
 20
91.6085105119495
 30
0.0
 10
-196.9844731185552
 20
87.04633203656758
 30
0.0
 10
-201.1497885892805
 20
84.56041601070301
 30
0.0
 10
-207.223205476208
 20
80.52149996328315
 30
0.0
 10
-209.2184934912683
 20
79.12335830642982
 30
0.0
 10
-213.149668187242
 20
76.22156849510196
 30
0.0
 10
-215.0866585687521
 20
74.71701438781179
 30
0.0
 10
-220.7996322823038
 20
70.04698048910878
 30
0.0
 10
-224.4224445169721
 20
66.77167065650393
 30
0.0
 10
-231.3079779345166
 20
59.90724385107875
 30
0.0
 10
-234.5702149406217
 20
56.31770502279748
 30
0.0
 10
-240.7347414274203
 20
48.82495410906982
 30
0.0
 10
-243.6375993433995
 20
44.92223755922184
 30
0.0
 10
-247.0358279936242
 20
39.84311462081675
 30
0.0
 10
-247.7039136635147
 20
38.81721632389828
 30
0.0
 10
-249.0167037312912
 20
36.74504486014448
 30
0.0
 10
-249.6622445852841
 20
35.69736520937169
 30
0.0
 10
-251.5569041927433
 20
32.53424630761165
 30
0.0
 10
-252.7619793537589
 20
30.40255479049011
 30
0.0
 10
-256.2066620339098
 20
23.94005120572062
 30
0.0
 10
-258.2766588222827
 20
19.54217921457571
 30
0.0
 10
-261.9721149675461
 20
10.57068367147022
 30
0.0
 10
-263.597757106817
 20
5.997133672917776
 30
0.0
 10
-265.6999655214607
 20
-0.9961313568653556
 30
0.0
 10
-266.3444811623439
 20
-3.349446730265503
 30
0.0
 10
-267.2261412107471
 20
-6.913070138828386
 30
0.0
 10
-267.5058585877098
 20
-8.106546620152729
 30
0.0
 10
-268.0365581418592
 20
-10.50486070146986
 30
0.0
 10
-268.2875891381895
 20
-11.71021362040456
 30
0.0
 10
-269.4638397668531
 20
-17.7321018809074
 30
0.0
 10
-270.1593805118993
 20
-22.56006817853163
 30
0.0
 10
-270.848624282639
 20
-29.81712206906955
 30
0.0
 10
-271.0188516651055
 20
-32.23867936489366
 30
0.0
 10
-271.2410726168789
 20
-37.08684282118818
 30
0.0
 10
-271.2927816946614
 20
-39.51344486258919
 30
0.0
 10
-271.2754918946333
 20
-46.8007525441117
 30
0.0
 10
-271.0329198400167
 20
-51.66900607991
 30
0.0
 10
-270.3083553483121
 20
-58.98695899823533
 30
0.0
 10
-270.005616179493
 20
-61.43286943564284
 30
0.0
 10
-269.28550022449
 20
-66.27874407658307
 30
0.0
 10
-268.867690938814
 20
-68.6844953008438
 30
0.0
 10
-267.4429908034183
 20
-75.85077750033615
 30
0.0
 10
-266.265820387891
 20
-80.56063243788924
 30
0.0
 10
-263.4607112562599
 20
-89.84617829347505
 30
0.0
 10
-261.8328994735367
 20
-94.42190721065785
 30
0.0
 10
-259.047382558511
 20
-101.1831668087688
 30
0.0
 10
-258.0613995746513
 20
-103.419811581804
 30
0.0
 10
-256.4945379802416
 20
-106.7486179474634
 30
0.0
 10
-255.9568776082843
 20
-107.8553176295465
 30
0.0
 10
-254.8557850284611
 20
-110.0523360605869
 30
0.0
 10
-254.2928307083897
 20
-111.1418080396466
 30
0.0
 10
-251.4166482764571
 20
-116.54444006103
 30
0.0
 10
-248.918922695682
 20
-120.7232234861477
 30
0.0
 10
-243.5419686997426
 20
-128.8029261311537
 30
0.0
 10
-240.6622982364061
 20
-132.703523438418
 30
0.0
 10
-234.5188195774121
 20
-140.2249341746297
 30
0.0
 10
-231.2566849777801
 20
-143.8469666189243
 30
0.0
 10
-226.9301077581057
 20
-148.1932161590156
 30
0.0
 10
-226.0511609944232
 20
-149.0546110897452
 30
0.0
 10
-224.2751033860211
 20
-150.7527889330109
 30
0.0
 10
-223.3784223681953
 20
-151.5892336158816
 30
0.0
 10
-220.6627209065857
 20
-154.0610706706552
 30
0.0
 10
-218.8180989769035
 20
-155.6590492273489
 30
0.0
 10
-213.1820106912522
 20
-160.3035965291689
 30
0.0
 10
-209.2893152891883
 20
-163.2022309391553
 30
0.0
 10
-201.2388466891651
 20
-168.6121109314305
 30
0.0
 10
-197.0797064418434
 20
-171.1213591239203
 30
0.0
 10
-190.6389605944934
 20
-174.5899704119929
 30
0.0
 10
-188.4582153690687
 20
-175.6967336921981
 30
0.0
 10
-185.1351572857922
 20
-177.2809706630685
 30
0.0
 10
-184.0173336847271
 20
-177.7970656718097
 30
0.0
 10
-181.7750640735878
 20
-178.7990013826031
 30
0.0
 10
-180.6499768237789
 20
-179.2851968369332
 30
0.0
 10
-175.005018690488
 20
-181.6432080536571
 30
0.0
 10
-170.4266777428847
 20
-183.2964812185664
 30
0.0
 10
-161.1485039629713
 20
-186.1488806953501
 30
0.0
 10
-156.4487855465522
 20
-187.3484335377168
 30
0.0
 10
-146.9278845270677
 20
-189.2934383803467
 30
0.0
 10
-142.106842803227
 20
-190.0394189648336
 30
0.0
 10
-136.0025732749082
 20
-190.6803778414805
 30
0.0
 10
-134.7772023469255
 20
-190.7940045335104
 30
0.0
 10
-132.3263653266453
 20
-190.9913168342294
 30
0.0
 10
-131.1000397706643
 20
-191.0750868325669
 30
0.0
 10
-127.4183362504139
 20
-191.2816522550547
 30
0.0
 10
-124.9594649851644
 20
-191.3596457639803
 30
0.0
 10
-122.5000000007744
 20
-191.378124908576
 30
0.0
  0
SPLINE
  5
79
330
1F
100
AcDbEntity
  8
0
  6
Continuous
 62
     7
370
    25
100
AcDbSpline
210
0.0
220
0.0
230
1.0
 70
     8
 71
     3
 72
    36
 73
    32
 74
     0
 42
0.000000001
 43
0.00000001
 40
0.0
 40
0.0
 40
0.0
 40
0.0
 40
0.0078125
 40
0.0078125
 40
0.0156250000000001
 40
0.03125
 40
0.03125
 40
0.0624999999999999
 40
0.0624999999999999
 40
0.125
 40
0.125
 40
0.25
 40
0.25
 40
0.3749999999999999
 40
0.3749999999999999
 40
0.4999999999999999
 40
0.4999999999999999
 40
0.625
 40
0.625
 40
0.75
 40
0.75
 40
0.875
 40
0.875
 40
0.9375
 40
0.9375
 40
0.96875
 40
0.96875
 40
0.984375
 40
0.9921875000000001
 40
0.9921875000000001
 40
1.0
 40
1.0
 40
1.0
 40
1.0
 10
-122.5000000007745
 20
-191.3781249085759
 30
0.0
 10
-121.8620105227264
 20
-191.3829184306997
 30
0.0
 10
-121.2240126189993
 20
-191.3857331674969
 30
0.0
 10
-119.9480227203934
 20
-191.3934640081715
 30
0.0
 10
-118.0340387777458
 20
-191.4052947657888
 30
0.0
 10
-116.1200576251064
 20
-191.4178588845963
 30
0.0
 10
-112.2920992048203
 20
-191.4440427586146
 30
0.0
 10
-109.7401321335205
 20
-191.4629109149982
 30
0.0
 10
-102.0842471256042
 20
-191.5242774920991
 30
0.0
 10
-96.98034649208634
 20
-191.5718079426109
 30
0.0
 10
-81.66869045392086
 20
-191.7326771872607
 30
0.0
 10
-71.46096717129191
 20
-191.8623173478651
 30
0.0
 10
-51.04544748952928
 20
-192.1252206579897
 30
0.0
 10
-40.83764923589424
 20
-192.2576140236313
 30
0.0
 10
-20.42176850254643
 20
-192.4464017499648
 30
0.0
 10
-10.21368135445709
 20
-192.4999822298895
 30
0.0
 10
10.20283551939145
 20
-192.5000177606733
 30
0.0
 10
20.41126523844051
 20
-192.4464747394108
 30
0.0
 10
40.82841834544404
 20
-192.2577234946046
 30
0.0
 10
51.03713707025538
 20
-192.1253278055623
 30
0.0
 10
71.45465142894021
 20
-191.8623985505413
 30
0.0
 10
81.66344519628376
 20
-191.73273868902
 30
0.0
 10
96.97656473556894
 20
-191.5718444802941
 30
0.0
 10
102.08102958493
 20
-191.5243053522786
 30
0.0
 10
109.7379836472464
 20
-191.462927102368
 30
0.0
 10
112.2903403507921
 20
-191.4440552812093
 30
0.0
 10
116.1189313612979
 20
-191.4178663427518
 30
0.0
 10
118.0332407776912
 20
-191.4052997979936
 30
0.0
 10
119.9475701753089
 20
-191.39346677743
 30
0.0
 10
121.2237940959193
 20
-191.3857344640539
 30
0.0
 10
121.8619272139933
 20
-191.3829190566369
 30
0.0
 10
122.5000000004582
 20
-191.3781249085782
 30
0.0
  0
SPLINE
  5
7B
330
1F
100
AcDbEntity
  8
0
  6
Continuous
 62
     7
370
    25
100
AcDbSpline
210
0.0
220
0.0
230
1.0
 70
     8
 71
     3
 72
    36
 73
    32
 74
     0
 42
0.000000001
 43
0.00000001
 40
0.0
 40
0.0
 40
0.0
 40
0.0
 40
0.0078125000000001
 40
0.0078125000000001
 40
0.0156250000000002
 40
0.0312500000000002
 40
0.0312500000000002
 40
0.0625000000000002
 40
0.0625000000000002
 40
0.1250000000000003
 40
0.1250000000000003
 40
0.2500000000000003
 40
0.2500000000000003
 40
0.3750000000000003
 40
0.3750000000000003
 40
0.5000000000000002
 40
0.5000000000000002
 40
0.6250000000000003
 40
0.6250000000000003
 40
0.7500000000000002
 40
0.7500000000000002
 40
0.8750000000000002
 40
0.8750000000000002
 40
0.9375000000000001
 40
0.9375000000000001
 40
0.9687500000000001
 40
0.9687500000000001
 40
0.9843750000000001
 40
0.9921875000000001
 40
0.9921875000000001
 40
1.0
 40
1.0
 40
1.0
 40
1.0
 10
122.5606883779019
 20
-196.1267402108092
 30
0.0
 10
121.9223260051141
 20
-196.1348986262967
 30
0.0
 10
121.2839274204327
 20
-196.1400869626121
 30
0.0
 10
120.007161785487
 20
-196.1530500704237
 30
0.0
 10
118.0920165790842
 20
-196.1727609685272
 30
0.0
 10
116.1768813737334
 20
-196.1932921473029
 30
0.0
 10
112.3466248806988
 20
-196.2354960240784
 30
0.0
 10
109.7931392129784
 20
-196.2651625041324
 30
0.0
 10
102.1327401912946
 20
-196.3589175525265
 30
0.0
 10
97.02589319309611
 20
-196.4280863726489
 30
0.0
 10
81.7054876527177
 20
-196.6489478278756
 30
0.0
 10
71.4918605871447
 20
-196.8099279467415
 30
0.0
 10
51.06464059147389
 20
-197.1118217536009
 30
0.0
 10
40.85104845278136
 20
-197.2522702164562
 30
0.0
 10
20.42401033246962
 20
-197.4472491693772
 30
0.0
 10
10.21056736276501
 20
-197.5000091149972
 30
0.0
 10
-10.21613904327315
 20
-197.4999908825162
 30
0.0
 10
-20.42940247766713
 20
-197.4472115642501
 30
0.0
 10
-40.85577719505584
 20
-197.2522112094177
 30
0.0
 10
-51.06889149129849
 20
-197.1117615010892
 30
0.0
 10
-71.49508438680706
 20
-196.8098777297561
 30
0.0
 10
-81.70816377418973
 20
-196.6489069585956
 30
0.0
 10
-97.02781791366286
 20
-196.4280597708694
 30
0.0
 10
-102.1343768676248
 20
-196.358896474392
 30
0.0
 10
-109.7942323066033
 20
-196.2651496495257
 30
0.0
 10
-112.347520149518
 20
-196.2354858890243
 30
0.0
 10
-116.1774558191673
 20
-196.1932859530452
 30
0.0
 10
-118.0924246248675
 20
-196.1727567111147
 30
0.0
 10
-120.0073948258615
 20
-196.1530476882367
 30
0.0
 10
-121.2840419284335
 20
-196.140085816116
 30
0.0
 10
-121.9223676796355
 20
-196.1348980936881
 30
0.0
 10
-122.560688378228
 20
-196.1267402108049
 30
0.0
  0
SPLINE
  5
7C
330
1F
100
AcDbEntity
  8
0
  6
Continuous
 62
     7
370
    25
100
AcDbSpline
210
0.0
220
0.0
230
1.0
 70
     8
 71
     3
 72
   106
 73
   102
 74
     0
 42
0.000000001
 43
0.00000001
 40
0.0
 40
0.0
 40
0.0
 40
0.0
 40
0.0312499999999998
 40
0.0312499999999998
 40
0.0624999999999995
 40
0.0624999999999995
 40
0.0937499999999993
 40
0.0937499999999993
 40
0.1093749999999991
 40
0.1093749999999991
 40
0.1171874999999989
 40
0.1171874999999989
 40
0.1249999999999987
 40
0.1249999999999987
 40
0.156249999999998
 40
0.156249999999998
 40
0.1874999999999973
 40
0.1874999999999973
 40
0.2187499999999965
 40
0.2187499999999965
 40
0.2265624999999962
 40
0.2265624999999962
 40
0.2343749999999959
 40
0.2343749999999959
 40
0.2499999999999955
 40
0.2499999999999955
 40
0.2812499999999945
 40
0.2812499999999945
 40
0.3124999999999935
 40
0.3124999999999935
 40
0.328124999999993
 40
0.328124999999993
 40
0.3359374999999929
 40
0.3359374999999929
 40
0.3437499999999928
 40
0.3437499999999928
 40
0.3749999999999926
 40
0.3749999999999926
 40
0.4062499999999924
 40
0.4062499999999924
 40
0.4374999999999922
 40
0.4374999999999922
 40
0.4453124999999922
 40
0.4453124999999922
 40
0.4531249999999922
 40
0.4531249999999922
 40
0.4687499999999924
 40
0.4687499999999924
 40
0.4999999999999927
 40
0.4999999999999927
 40
0.5156249999999929
 40
0.5156249999999929
 40
0.5312499999999931
 40
0.5312499999999931
 40
0.5468749999999933
 40
0.5468749999999933
 40
0.5546874999999933
 40
0.5546874999999933
 40
0.5624999999999934
 40
0.5624999999999934
 40
0.5937499999999937
 40
0.5937499999999937
 40
0.6249999999999939
 40
0.6249999999999939
 40
0.6562499999999941
 40
0.6562499999999941
 40
0.6640624999999941
 40
0.6640624999999941
 40
0.6718749999999942
 40
0.6718749999999942
 40
0.6874999999999944
 40
0.6874999999999944
 40
0.7187499999999949
 40
0.7187499999999949
 40
0.7499999999999952
 40
0.7499999999999952
 40
0.7578124999999953
 40
0.7578124999999953
 40
0.7656249999999953
 40
0.7656249999999953
 40
0.7812499999999958
 40
0.7812499999999958
 40
0.8124999999999964
 40
0.8124999999999964
 40
0.8437499999999971
 40
0.8437499999999971
 40
0.8593749999999974
 40
0.8593749999999974
 40
0.8671874999999977
 40
0.8671874999999977
 40
0.8749999999999978
 40
0.8749999999999978
 40
0.9062499999999983
 40
0.9062499999999983
 40
0.9374999999999989
 40
0.9374999999999989
 40
0.9687499999999994
 40
0.9687499999999994
 40
0.9843749999999998
 40
0.9843749999999998
 40
1.0
 40
1.0
 40
1.0
 40
1.0
 10
122.5000000004583
 20
-191.3781249085783
 30
0.0
 10
127.419078812014
 20
-191.3411655010698
 30
0.0
 10
132.2941392951736
 20
-191.0665999404282
 30
0.0
 10
141.9591450378977
 20
-190.0580345199919
 30
0.0
 10
146.7489773795718
 20
-189.3234299308206
 30
0.0
 10
156.2438447521221
 20
-187.396597609244
 30
0.0
 10
160.9487867934231
 20
-186.2038653343596
 30
0.0
 10
167.9411252249894
 20
-184.063645214161
 30
0.0
 10
170.2610285570344
 20
-183.2915549813181
 30
0.0
 10
173.7241899072923
 20
-182.0433551871508
 30
0.0
 10
174.8773515071168
 20
-181.6116386750062
 30
0.0
 10
177.1667752495241
 20
-180.7222559328725
 30
0.0
 10
178.3037419445285
 20
-180.2643903903438
 30
0.0
 10
183.9502835045053
 20
-177.9099306588696
 30
0.0
 10
188.3451509266903
 20
-175.8182274059374
 30
0.0
 10
196.8953650729588
 20
-171.2274219912709
 30
0.0
 10
201.0514044728877
 20
-168.7294992884374
 30
0.0
 10
209.1219755820426
 20
-163.3228856274226
 30
0.0
 10
213.0377230627049
 20
-160.4162617379201
 30
0.0
 10
217.7769109387669
 20
-156.5185117072334
 30
0.0
 10
218.7181554019718
 20
-155.7244918253958
 30
0.0
 10
220.5759906966609
 20
-154.1174649119554
 30
0.0
 10
221.4931221458151
 20
-153.3040784619208
 30
0.0
 10
224.2097170744659
 20
-150.8347685369875
 30
0.0
 10
225.9744594865517
 20
-149.1497601200357
 30
0.0
 10
231.1312309016632
 20
-143.979591666463
 30
0.0
 10
234.384609146921
 20
-140.3782874652873
 30
0.0
 10
240.5314642115686
 20
-132.874198925403
 30
0.0
 10
243.4235064142081
 20
-128.9702128404184
 30
0.0
 10
247.4851821240007
 20
-122.8827109837302
 30
0.0
 10
248.7931422564671
 20
-120.8150678428152
 30
0.0
 10
250.6844339640489
 20
-117.6544227249426
 30
0.0
 10
251.3036550954736
 20
-116.5898360427546
 30
0.0
 10
252.5118564992915
 20
-114.4521573312556
 30
0.0
 10
253.1015575253612
 20
-113.3779441794062
 30
0.0
 10
255.9790450066597
 20
-107.9803756204529
 30
0.0
 10
258.0545254298482
 20
-103.5777904876862
 30
0.0
 10
261.7625924274617
 20
-94.60734463896006
 30
0.0
 10
263.3955537182235
 20
-90.03962363847083
 30
0.0
 10
266.2184348028369
 20
-80.73885909545506
 30
0.0
 10
267.4082388450773
 20
-76.00577217349115
 30
0.0
 10
268.6104557851844
 20
-69.98305726327307
 30
0.0
 10
268.8365891139409
 20
-68.77285973183893
 30
0.0
 10
269.2577488857012
 20
-66.35520897318906
 30
0.0
 10
269.453125243753
 20
-65.14608818483866
 30
0.0
 10
269.9943042708949
 20
-61.51785312207946
 30
0.0
 10
270.2952148939043
 20
-59.09786729797873
 30
0.0
 10
271.0206864483733
 20
-51.83447722357849
 30
0.0
 10
271.2687975724659
 20
-46.98764690006814
 30
0.0
 10
271.2952552556401
 20
-39.71079481947308
 30
0.0
 10
271.246834913136
 20
-37.28408790406841
 30
0.0
 10
271.0305693228301
 20
-32.42827252641758
 30
0.0
 10
270.8629927659833
 20
-29.99918502062571
 30
0.0
 10
270.4070036753306
 20
-25.13860719590203
 30
0.0
 10
270.1187106067075
 20
-22.70711934617409
 30
0.0
 10
269.5944890722149
 20
-19.05805893377143
 30
0.0
 10
269.4044405230252
 20
-17.84213933706829
 30
0.0
 10
268.9956327176027
 20
-15.42330763424181
 30
0.0
 10
268.7766441477798
 20
-14.21873412854276
 30
0.0
 10
267.6093607587464
 20
-8.219884232112772
 30
0.0
 10
266.4450795269108
 20
-3.497316944474105
 30
0.0
 10
263.6642102145371
 20
5.797661391689348
 30
0.0
 10
262.0473109998991
 20
10.3699680834415
 30
0.0
 10
258.3575493855355
 20
19.36321070670478
 30
0.0
 10
256.2844934852707
 20
23.78408099112694
 30
0.0
 10
253.397762225204
 20
29.21209044491378
 30
0.0
 10
252.8066308646529
 20
30.29071325352879
 30
0.0
 10
251.601077103351
 20
32.42665952079239
 30
0.0
 10
250.9860523749907
 20
33.48512283254789
 30
0.0
 10
249.1046304666578
 20
36.6322904365537
 30
0.0
 10
247.8019241469171
 20
38.69280240868207
 30
0.0
 10
243.7506922825674
 20
44.76321639641174
 30
0.0
 10
240.8596661744069
 20
48.66247154855522
 30
0.0
 10
234.7012019049528
 20
56.16870364891018
 30
0.0
 10
231.4331882210069
 20
59.77523350818598
 30
0.0
 10
227.1074963385499
 20
64.09650826661894
 30
0.0
 10
226.2303073420585
 20
64.95140573056787
 30
0.0
 10
224.4516385118493
 20
66.64233828810877
 30
0.0
 10
223.5488810021102
 20
67.47951096893355
 30
0.0
 10
220.8152731610873
 20
69.95224232487497
 30
0.0
 10
218.9592849793316
 20
71.54914236588851
 30
0.0
 10
213.2924557976988
 20
76.18797367260241
 30
0.0
 10
209.3829200475535
 20
79.07829709763905
 30
0.0
 10
201.3061786497759
 20
84.46312678855553
 30
0.0
 10
197.13920696313
 20
86.9579925002744
 30
0.0
 10
190.6940537893845
 20
90.40120952113487
 30
0.0
 10
188.5131410791965
 20
91.49898017543008
 30
0.0
 10
185.1922438641382
 20
93.06955329189762
 30
0.0
 10
184.0770209946442
 20
93.58039343778096
 30
0.0
 10
181.8299016711663
 20
94.57646049623243
 30
0.0
 10
180.6988834717457
 20
95.06124737206702
 30
0.0
 10
175.03269410635
 20
97.4083293599152
 30
0.0
 10
170.4413167943884
 20
99.05122840396416
 30
0.0
 10
161.1450885132541
 20
101.8810485359029
 30
0.0
 10
156.4401955105721
 20
103.0678007641523
 30
0.0
 10
146.9175560943921
 20
104.9878070142734
 30
0.0
 10
142.0998799625262
 20
105.7213443079664
 30
0.0
 10
134.7862042386406
 20
106.4713908859689
 30
0.0
 10
132.3305464738594
 20
106.6629718978984
 30
0.0
 10
127.4192498970498
 20
106.9254218484528
 30
0.0
 10
124.960242551747
 20
106.9967271432056
 30
0.0
 10
122.4999999999655
 20
107.0081854954951
 30
0.0
  0
SPLINE
  5
7E
330
1F
100
AcDbEntity
  8
0
  6
Continuous
 62
     7
370
    25
100
AcDbSpline
210
0.0
220
0.0
230
1.0
 70
     8
 71
     3
 72
   102
 73
    98
 74
     0
 42
0.000000001
 43
0.00000001
 40
0.0
 40
0.0
 40
0.0
 40
0.0
 40
0.0156249999999996
 40
0.0156249999999996
 40
0.0312499999999991
 40
0.0312499999999991
 40
0.0624999999999985
 40
0.0624999999999985
 40
0.0937499999999978
 40
0.0937499999999978
 40
0.1249999999999971
 40
0.1249999999999971
 40
0.1328124999999969
 40
0.1328124999999969
 40
0.1406249999999968
 40
0.1406249999999968
 40
0.1562499999999967
 40
0.1562499999999967
 40
0.1874999999999965
 40
0.1874999999999965
 40
0.2187499999999964
 40
0.2187499999999964
 40
0.2343749999999963
 40
0.2343749999999963
 40
0.2421874999999962
 40
0.2421874999999962
 40
0.2499999999999962
 40
0.2499999999999962
 40
0.2812499999999962
 40
0.2812499999999962
 40
0.3124999999999961
 40
0.3124999999999961
 40
0.3281249999999962
 40
0.3281249999999962
 40
0.3437499999999963
 40
0.3437499999999963
 40
0.3749999999999963
 40
0.3749999999999963
 40
0.4062499999999963
 40
0.4062499999999963
 40
0.4374999999999964
 40
0.4374999999999964
 40
0.4453124999999964
 40
0.4453124999999964
 40
0.4531249999999964
 40
0.4531249999999964
 40
0.4687499999999964
 40
0.4687499999999964
 40
0.4999999999999966
 40
0.4999999999999966
 40
0.5312499999999966
 40
0.5312499999999966
 40
0.5468749999999966
 40
0.5468749999999966
 40
0.5546874999999967
 40
0.5546874999999967
 40
0.5624999999999967
 40
0.5624999999999967
 40
0.5937499999999969
 40
0.5937499999999969
 40
0.6249999999999971
 40
0.6249999999999971
 40
0.6562499999999974
 40
0.6562499999999974
 40
0.6640624999999974
 40
0.6640624999999974
 40
0.6718749999999974
 40
0.6718749999999974
 40
0.6874999999999973
 40
0.6874999999999973
 40
0.7187499999999972
 40
0.7187499999999972
 40
0.749999999999997
 40
0.749999999999997
 40
0.765624999999997
 40
0.765624999999997
 40
0.7734374999999969
 40
0.7734374999999969
 40
0.7812499999999968
 40
0.7812499999999968
 40
0.812499999999997
 40
0.812499999999997
 40
0.8437499999999972
 40
0.8437499999999972
 40
0.8749999999999976
 40
0.8749999999999976
 40
0.8828124999999976
 40
0.8828124999999976
 40
0.8906249999999976
 40
0.8906249999999976
 40
0.9062499999999979
 40
0.9062499999999979
 40
0.9374999999999986
 40
0.9374999999999986
 40
0.9687499999999993
 40
0.9687499999999993
 40
1.0
 40
1.0
 40
1.0
 40
1.0
 10
122.5266435895027
 20
111.9734271855225
 30
0.0
 10
125.0636920181328
 20
111.9598133312152
 30
0.0
 10
127.5981832115887
 20
111.8846334347096
 30
0.0
 10
132.6620443217438
 20
111.6109776913954
 30
0.0
 10
135.1943472110076
 20
111.4120378595984
 30
0.0
 10
142.7362004150428
 20
110.6349276783415
 30
0.0
 10
147.7042221408543
 20
109.8767124839075
 30
0.0
 10
157.5241372786031
 20
107.8945662576061
 30
0.0
 10
162.375964230543
 20
106.6703686975144
 30
0.0
 10
171.9626639669629
 20
103.7529457733229
 30
0.0
 10
176.6975776174373
 20
102.0598842963923
 30
0.0
 10
182.5410019596631
 20
99.64190763981968
 30
0.0
 10
183.7073279825848
 20
99.14254748541114
 30
0.0
 10
186.0252505612363
 20
98.11631364650931
 30
0.0
 10
187.1756349827181
 20
97.59002488231943
 30
0.0
 10
190.6013012334334
 20
95.97201714629676
 30
0.0
 10
192.8511059298474
 20
94.84117190552735
 30
0.0
 10
199.5000910700612
 20
91.29440336210335
 30
0.0
 10
203.7991595748068
 20
88.72473408344167
 30
0.0
 10
212.132512710063
 20
83.17875616262361
 30
0.0
 10
216.1665689985939
 20
80.20209684640352
 30
0.0
 10
222.0142819093682
 20
75.42478195529684
 30
0.0
 10
223.9295802751423
 20
73.78022173936375
 30
0.0
 10
226.7506290372678
 20
71.23367833843982
 30
0.0
 10
227.6826340705917
 20
70.37119041830631
 30
0.0
 10
229.5189946652314
 20
68.62907271712587
 30
0.0
 10
230.4246461465161
 20
67.74829636136398
 30
0.0
 10
234.8907438838267
 20
63.29620277192764
 30
0.0
 10
238.2650002341155
 20
59.58047433716093
 30
0.0
 10
244.6237431768559
 20
51.84670720727365
 30
0.0
 10
247.6087862496616
 20
47.82910012522034
 30
0.0
 10
251.7916874335824
 20
41.57414489336961
 30
0.0
 10
253.1367091161809
 20
39.45093863558711
 30
0.0
 10
255.7266441517177
 20
35.12688085741647
 30
0.0
 10
256.9723331224113
 20
32.92450882133703
 30
0.0
 10
260.5506818661574
 20
26.2074403870312
 30
0.0
 10
262.6911235871324
 20
21.64865587728401
 30
0.0
 10
266.4983927126626
 20
12.37508795177004
 30
0.0
 10
268.1653131434854
 20
7.660335176960449
 30
0.0
 10
271.028328863973
 20
-1.92425058117617
 30
0.0
 10
272.2246025308355
 20
-6.794024810688578
 30
0.0
 10
273.4199137636119
 20
-12.98006664675708
 30
0.0
 10
273.6439039338968
 20
-14.2222394488035
 30
0.0
 10
274.0614707524692
 20
-16.71660264737174
 30
0.0
 10
274.2552351167599
 20
-17.97014321344019
 30
0.0
 10
274.7892236265644
 20
-21.736484101589
 30
0.0
 10
275.081258009616
 20
-24.2457900581008
 30
0.0
 10
275.7686544024284
 20
-31.76902265501149
 30
0.0
 10
275.9723056246231
 20
-36.7781894377233
 30
0.0
 10
275.9020360829073
 20
-46.7846656907948
 30
0.0
 10
275.6316988542288
 20
-51.7820641343309
 30
0.0
 10
274.8641107869248
 20
-59.26917190459299
 30
0.0
 10
274.5477595147555
 20
-61.76337266449776
 30
0.0
 10
273.981286101879
 20
-65.50239092668048
 30
0.0
 10
273.7771334908321
 20
-66.74834977536842
 30
0.0
 10
273.3377302752236
 20
-69.23949536166309
 30
0.0
 10
273.102138589599
 20
-70.4863280375128
 30
0.0
 10
271.8499106498283
 20
-76.69653792174614
 30
0.0
 10
270.6146058288671
 20
-81.57676020350924
 30
0.0
 10
267.6903593879622
 20
-91.16636308212657
 30
0.0
 10
266.0014814170611
 20
-95.87576764950059
 30
0.0
 10
262.1714233567262
 20
-105.1242377460776
 30
0.0
 10
260.0298483544673
 20
-109.6631545493116
 30
0.0
 10
257.0633805243454
 20
-115.2277738821145
 30
0.0
 10
256.455567208147
 20
-116.3352295446192
 30
0.0
 10
255.2105126160662
 20
-118.5390581659607
 30
0.0
 10
254.57240407937
 20
-119.6368223975955
 30
0.0
 10
252.6228792501055
 20
-122.897383855162
 30
0.0
 10
251.274897486209
 20
-125.0306298834309
 30
0.0
 10
247.0896692992692
 20
-131.3120096720349
 30
0.0
 10
244.1106882668925
 20
-135.3414067173287
 30
0.0
 10
237.7806071874624
 20
-143.0884619206042
 30
0.0
 10
234.4310636966416
 20
-146.8074240676022
 30
0.0
 10
229.1231649389686
 20
-152.1482981020391
 30
0.0
 10
227.3068760066541
 20
-153.8892246039065
 30
0.0
 10
224.5112464002908
 20
-156.440970463884
 30
0.0
 10
223.5674843353855
 20
-157.2815954368352
 30
0.0
 10
221.6558249866742
 20
-158.9426263506851
 30
0.0
 10
220.6871515095374
 20
-159.7636195271517
 30
0.0
 10
215.8093332318993
 20
-163.7949398397075
 30
0.0
 10
211.7788536780483
 20
-166.8032561532235
 30
0.0
 10
203.4716444884377
 20
-172.4036497041363
 30
0.0
 10
199.193653325434
 20
-174.993594568904
 30
0.0
 10
190.392269196998
 20
-179.7586790779536
 30
0.0
 10
185.868235478574
 20
-181.9327356507851
 30
0.0
 10
180.0556213050436
 20
-184.3839607323051
 30
0.0
 10
178.8852102501906
 20
-184.8608722080041
 30
0.0
 10
176.5284362959896
 20
-185.7877315906443
 30
0.0
 10
175.3412661102838
 20
-186.2379223099574
 30
0.0
 10
171.7756207328278
 20
-187.5404162001081
 30
0.0
 10
169.3868022836192
 20
-188.3472281424002
 30
0.0
 10
162.185957171778
 20
-190.5871784958474
 30
0.0
 10
157.3396714501596
 20
-191.8405174049903
 30
0.0
 10
147.5574030959318
 20
-193.8764449923706
 30
0.0
 10
142.6215129347312
 20
-194.6595189820475
 30
0.0
 10
132.6594681866074
 20
-195.7519382813139
 30
0.0
 10
127.6334328395466
 20
-196.0619093894076
 30
0.0
 10
122.5606883779018
 20
-196.1267402108091
 30
0.0
  0
SPLINE
  5
7F
330
1F
100
AcDbEntity
  8
0
  6
Continuous
 62
     7
370
    25
100
AcDbSpline
210
0.0
220
0.0
230
1.0
 70
     8
 71
     3
 72
    26
 73
    22
 74
     0
 42
0.000000001
 43
0.00000001
 40
0.0
 40
0.0
 40
0.0
 40
0.0
 40
0.03125
 40
0.03125
 40
0.0625
 40
0.0625
 40
0.125
 40
0.125
 40
0.25
 40
0.25
 40
0.5000000000000002
 40
0.5000000000000002
 40
0.7500000000000004
 40
0.7500000000000004
 40
0.8750000000000004
 40
0.8750000000000004
 40
0.9375000000000003
 40
0.9375000000000003
 40
0.9687500000000002
 40
0.9687500000000002
 40
1.0
 40
1.0
 40
1.0
 40
1.0
 10
122.4999999999655
 20
107.0081854954951
 30
0.0
 10
119.9479657932291
 20
107.0200713589335
 30
0.0
 10
117.3959247031554
 20
107.0315873361497
 30
0.0
 10
112.2918509037685
 20
107.0554466847217
 30
0.0
 10
109.7398144423693
 20
107.0675175757442
 30
0.0
 10
102.0837056167117
 20
107.1040244806367
 30
0.0
 10
96.97963384947522
 20
107.12876383965
 30
0.0
 10
81.66741344566334
 20
107.2028282174732
 30
0.0
 10
71.45926013837169
 20
107.2521115240167
 30
0.0
 10
40.83470428880624
 20
107.3844705547142
 30
0.0
 10
20.41819741791379
 20
107.4500032600502
 30
0.0
 10
-20.41551227068556
 20
107.450008719106
 30
0.0
 10
-40.83282711090697
 20
107.3844777151967
 30
0.0
 10
-71.45813854886603
 20
107.2521168477984
 30
0.0
 10
-81.66652011298683
 20
107.2028325274048
 30
0.0
 10
-96.97907584628707
 20
107.1287665442155
 30
0.0
 10
-102.0832581344193
 20
107.1040266314916
 30
0.0
 10
-109.7395336084961
 20
107.0675189063012
 30
0.0
 10
-112.2916257567785
 20
107.0554477433947
 30
0.0
 10
-117.3958115769794
 20
107.0315878587585
 30
0.0
 10
-119.9479117704876
 20
107.0200716105387
 30
0.0
 10
-122.499999999931
 20
107.0081854954952
 30
0.0
  0
SPLINE
  5
80
330
1F
100
AcDbEntity
  8
0
  6
Continuous
 62
     7
370
    25
100
AcDbSpline
210
0.0
220
0.0
230
1.0
 70
     8
 71
     3
 72
    18
 73
    14
 74
     0
 42
0.000000001
 43
0.00000001
 40
0.0
 40
0.0
 40
0.0
 40
0.0
 40
0.125
 40
0.125
 40
0.2500000000000001
 40
0.2500000000000001
 40
0.5000000000000001
 40
0.5000000000000001
 40
0.7500000000000002
 40
0.7500000000000002
 40
0.8750000000000001
 40
0.8750000000000001
 40
1.0
 40
1.0
 40
1.0
 40
1.0
 10
-122.5266435894671
 20
111.9734271855226
 30
0.0
 10
-112.3160748672242
 20
112.0282173083301
 30
0.0
 10
-102.1055008763883
 20
112.0818959683044
 30
0.0
 10
-81.68435656354724
 20
112.1900272651165
 30
0.0
 10
-71.4737784030538
 20
112.2428262937951
 30
0.0
 10
-40.8419554333715
 20
112.3825559012201
 30
0.0
 10
-20.42050800938321
 20
112.4489656699726
 30
0.0
 10
20.42190578916949
 20
112.4489627698512
 30
0.0
 10
40.8429316000726
 20
112.3825520386322
 30
0.0
 10
71.47436093524679
 20
112.2428233413717
 30
0.0
 10
81.68482041309126
 20
112.1900248405626
 30
0.0
 10
102.1057324613102
 20
112.0818947104861
 30
0.0
 10
112.3161895408416
 20
112.0282166929916
 30
0.0
 10
122.5266435895027
 20
111.9734271855225
 30
0.0
  0
CIRCLE
  5
8A
330
1F
100
AcDbEntity
  8
0
  6
Continuous
 62
     7
370
    25
100
AcDbCircle
 10
0.0
 20
167.5
 30
0.0
 40
18.50000000000011
  0
CIRCLE
  5
8B
330
1F
100
AcDbEntity
  8
0
  6
Continuous
 62
     7
370
    25
100
AcDbCircle
 10
100.0
 20
167.5
 30
0.0
 40
18.50000000000011
  0
CIRCLE
  5
8C
330
1F
100
AcDbEntity
  8
0
  6
Continuous
 62
     7
370
    25
100
AcDbCircle
 10
-100.0
 20
167.5
 30
0.0
 40
18.50000000000006
  0
CIRCLE
  5
92
330
1F
100
AcDbEntity
  8
0
  6
Continuous
 62
     7
370
    25
100
AcDbCircle
 10
0.0
 20
167.5
 30
0.0
 40
17.50000000000003
  0
CIRCLE
  5
94
330
1F
100
AcDbEntity
  8
0
  6
Continuous
 62
     7
370
    25
100
AcDbCircle
 10
100.0
 20
167.5
 30
0.0
 40
17.5
  0
CIRCLE
  5
95
330
1F
100
AcDbEntity
  8
0
  6
Continuous
 62
     7
370
    25
100
AcDbCircle
 10
-100.0
 20
167.5
 30
0.0
 40
17.50000000000003
  0
SPLINE
  5
9A
330
1F
100
AcDbEntity
  8
0
  6
Continuous
 62
     7
370
    25
100
AcDbSpline
210
0.0
220
0.0
230
1.0
 70
    11
 71
     3
 72
    95
 73
    91
 74
     0
 42
0.000000001
 43
0.00000001
 40
0.0
 40
0.0
 40
0.0
 40
0.0
 40
0.015625
 40
0.015625
 40
0.03125
 40
0.03125
 40
0.0625000000000001
 40
0.0625000000000001
 40
0.0781250000000001
 40
0.0781250000000001
 40
0.0937500000000001
 40
0.0937500000000001
 40
0.1250000000000001
 40
0.1250000000000001
 40
0.140625
 40
0.140625
 40
0.15625
 40
0.1718749999999999
 40
0.1718749999999999
 40
0.1874999999999999
 40
0.1874999999999999
 40
0.2187499999999999
 40
0.2187499999999999
 40
0.2499999999999999
 40
0.2499999999999999
 40
0.2812499999999999
 40
0.2812499999999999
 40
0.2968749999999998
 40
0.2968749999999998
 40
0.3124999999999998
 40
0.3281249999999998
 40
0.3281249999999998
 40
0.3437499999999997
 40
0.3437499999999997
 40
0.3749999999999991
 40
0.3749999999999991
 40
0.3906249999999988
 40
0.3906249999999988
 40
0.4062499999999986
 40
0.4062499999999986
 40
0.4374999999999983
 40
0.4374999999999983
 40
0.4531249999999982
 40
0.4531249999999982
 40
0.468749999999998
 40
0.468749999999998
 40
0.4999999999999978
 40
0.4999999999999978
 40
0.5312499999999976
 40
0.5312499999999976
 40
0.5468749999999974
 40
0.5468749999999974
 40
0.5624999999999972
 40
0.578124999999997
 40
0.578124999999997
 40
0.5937499999999968
 40
0.5937499999999968
 40
0.6249999999999968
 40
0.6249999999999968
 40
0.6406249999999971
 40
0.6406249999999971
 40
0.6562499999999973
 40
0.6562499999999973
 40
0.6874999999999973
 40
0.6874999999999973
 40
0.7031249999999973
 40
0.7031249999999973
 40
0.7187499999999974
 40
0.7187499999999974
 40
0.749999999999998
 40
0.749999999999998
 40
0.7812499999999986
 40
0.7812499999999986
 40
0.7968749999999987
 40
0.7968749999999987
 40
0.8124999999999987
 40
0.8124999999999987
 40
0.8437499999999988
 40
0.8437499999999988
 40
0.8749999999999989
 40
0.8749999999999989
 40
0.9062499999999991
 40
0.9062499999999991
 40
0.9218749999999993
 40
0.9218749999999993
 40
0.9374999999999996
 40
0.9374999999999996
 40
0.9687499999999999
 40
0.9687499999999999
 40
1.0
 40
1.0
 40
1.0
 40
1.0
 10
0.0000000000000001
 20
106.9367197559428
 30
0.0
 10
0.363606787582554
 20
106.9367197559428
 30
0.0
 10
0.7260815797044532
 20
106.9354228177191
 30
0.0
 10
1.448775984373622
 20
106.9302214452275
 30
0.0
 10
1.808407292138312
 20
106.9263091793729
 30
0.0
 10
2.867843261162356
 20
106.910783220365
 30
0.0
 10
3.553753550515977
 20
106.8954061652897
 30
0.0
 10
4.551987217823676
 20
106.8639875525017
 30
0.0
 10
4.881355145685307
 20
106.8520297414859
 30
0.0
 10
5.519266003047636
 20
106.8254223844691
 30
0.0
 10
5.827608375139926
 20
106.8108049449181
 30
0.0
 10
6.721605093196297
 20
106.7628045963439
 30
0.0
 10
7.276529271256158
 20
106.7253239841338
 30
0.0
 10
8.045087020832012
 20
106.6592189295923
 30
0.0
 10
8.287970317472348
 20
106.635727151809
 30
0.0
 10
8.74294169963404
 20
106.5861635072806
 30
0.0
 10
9.168777534966452
 20
106.533878474202
 30
0.0
 10
9.536912741926415
 20
106.475799683995
 30
0.0
 10
9.875649310182931
 20
106.4145848504874
 30
0.0
 10
10.03086277877805
 20
106.3822394662023
 30
0.0
 10
10.44245754632856
 20
106.2821505020639
 30
0.0
 10
10.6483386304275
 20
106.2109773897225
 30
0.0
 10
10.92542728307554
 20
106.0591080710559
 30
0.0
 10
10.99542146945692
 20
105.977688196717
 30
0.0
 10
10.99216190523364
 20
105.8116965028686
 30
0.0
 10
10.92121107704164
 20
105.7264800238019
 30
0.0
 10
10.70920600961026
 20
105.5956523529503
 30
0.0
 10
10.62037163802665
 20
105.551439317557
 30
0.0
 10
10.41085222249105
 20
105.4640336839195
 30
0.0
 10
10.16891905894967
 20
105.3771865815133
 30
0.0
 10
9.863347593241912
 20
105.2917165753161
 30
0.0
 10
9.525627170171902
 20
105.2071062056273
 30
0.0
 10
9.340026987731964
 20
105.1650950617386
 30
0.0
 10
8.737507556526287
 20
105.0415824731417
 30
0.0
 10
8.283292284422343
 20
104.9641097266305
 30
0.0
 10
7.525662642677397
 20
104.8560893932287
 30
0.0
 10
7.260308698255557
 20
104.8214558023118
 30
0.0
 10
6.703265600388352
 20
104.7551976500251
 30
0.0
 10
6.411183798222194
 20
104.7235752072304
 30
0.0
 10
5.514622354668264
 20
104.6356217598226
 30
0.0
 10
4.883927433330838
 20
104.5853720375248
 30
0.0
 10
3.888414888264398
 20
104.5234260130263
 30
0.0
 10
3.546970976362366
 20
104.5049703076844
 30
0.0
 10
2.852951887878388
 20
104.4731440975813
 30
0.0
 10
2.502178487089225
 20
104.4598338709928
 30
0.0
 10
1.438678610733876
 20
104.4277488092867
 30
0.0
 10
0.7101477990103064
 20
104.416916287637
 30
0.0
 10
-0.726861446837751
 20
104.4170822874188
 30
0.0
 10
-1.440719761918034
 20
104.4277881591795
 30
0.0
 10
-2.504406190003553
 20
104.4599122453725
 30
0.0
 10
-2.858021637947314
 20
104.4733625511536
 30
0.0
 10
-3.547211420436621
 20
104.5049957819803
 30
0.0
 10
-4.222405424631787
 20
104.5414601898408
 30
0.0
 10
-4.870111340984546
 20
104.5872087733747
 30
0.0
 10
-5.50392754154828
 20
104.6375177138956
 30
0.0
 10
-5.815434945771345
 20
104.6651095322546
 30
0.0
 10
-6.716315273318109
 20
104.7535536479725
 30
0.0
 10
-7.268834672262563
 20
104.8195303048293
 30
0.0
 10
-8.027724918094206
 20
104.9276427754768
 30
0.0
 10
-8.268955489709175
 20
104.9652159981193
 30
0.0
 10
-8.727283514625702
 20
105.0433282919902
 30
0.0
 10
-8.942636830602646
 20
105.0836007454559
 30
0.0
 10
-9.539697763385014
 20
105.2060906832288
 30
0.0
 10
-9.876651526659382
 20
105.2905956619171
 30
0.0
 10
-10.2899506814562
 20
105.4206089769308
 30
0.0
 10
-10.41273327876083
 20
105.4647330516889
 30
0.0
 10
-10.62231375097166
 20
105.5523364388001
 30
0.0
 10
-10.70958117538664
 20
105.5958984721777
 30
0.0
 10
-10.92001382579192
 20
105.7257120390731
 30
0.0
 10
-10.99231263879128
 20
105.8110838233531
 30
0.0
 10
-10.99528145135893
 20
105.978874962475
 30
0.0
 10
-10.92559166036264
 20
106.0588491073891
 30
0.0
 10
-10.71877925963203
 20
106.1724533086352
 30
0.0
 10
-10.6326709368872
 20
106.209305561378
 30
0.0
 10
-10.42536419714364
 20
106.2810137527151
 30
0.0
 10
-10.30337468348899
 20
106.316024131513
 30
0.0
 10
-9.891309834699216
 20
106.416069165972
 30
0.0
 10
-9.554758549680399
 20
106.4767055947118
 30
0.0
 10
-8.759669541255366
 20
106.5873586552476
 30
0.0
 10
-8.295824493608357
 20
106.6376570278165
 30
0.0
 10
-7.281304868066448
 20
106.7249087375461
 30
0.0
 10
-6.728007510732228
 20
106.7624403556316
 30
0.0
 10
-5.827909185148692
 20
106.8107989757174
 30
0.0
 10
-5.515036673208796
 20
106.8256106909683
 30
0.0
 10
-4.879063580496899
 20
106.8521132998261
 30
0.0
 10
-4.554480799162847
 20
106.8638958474161
 30
0.0
 10
-3.561325751041651
 20
106.8951940302747
 30
0.0
 10
-2.871232368574367
 20
106.9107463579117
 30
0.0
 10
-1.446884503011513
 20
106.9315944206137
 30
0.0
 10
-0.7272135751651092
 20
106.9367197559429
 30
0.0
 10
0.0000000000000004
 20
106.9367197559428
 30
0.0
  0
CIRCLE
  5
9B
330
1F
100
AcDbEntity
  8
0
  6
Continuous
 62
     7
370
    25
100
AcDbCircle
 10
0.0
 20
7.5
 30
0.0
 40
32.50000000000053
  0
CIRCLE
  5
9C
330
1F
100
AcDbEntity
  8
0
  6
Continuous
 62
     7
370
    25
100
AcDbCircle
 10
0.0
 20
7.5
 30
0.0
 40
22.5
  0
SPLINE
  5
9D
330
1F
100
AcDbEntity
  8
0
  6
Continuous
 62
     8
370
    25
100
AcDbSpline
210
0.0
220
0.0
230
1.0
 70
     8
 71
     3
 72
    16
 73
    12
 74
     0
 42
0.000000001
 43
0.00000001
 40
0.0
 40
0.0
 40
0.0
 40
0.0
 40
0.0015746861359579
 40
0.1371400024784626
 40
0.2712606722909146
 40
0.4047298949338988
 40
0.5381712663369086
 40
0.6231748868386641
 40
0.759045394599118
 40
0.8958466703893343
 40
1.0
 40
1.0
 40
1.0
 40
1.0
 10
-9.452809076708867
 20
106.4529127021757
 30
0.0
 10
-9.45070581900252
 20
106.451187583988
 30
0.0
 10
-9.267532321456185
 20
106.3009463980608
 30
0.0
 10
-7.905842378459584
 20
106.0004913508186
 30
0.0
 10
-5.490891784240302
 20
105.6386278199638
 30
0.0
 10
-2.342822381222485
 20
105.4187151505435
 30
0.0
 10
0.6261804177361897
 20
105.3862110287773
 30
0.0
 10
3.528572827238573
 20
105.4885193333402
 30
0.0
 10
6.181145016463198
 20
105.7210451520811
 30
0.0
 10
8.429269644867261
 20
106.0859182325307
 30
0.0
 10
9.106415394245465
 20
106.3542936031778
 30
0.0
 10
9.39911361560592
 20
106.4702996383888
 30
0.0
  0
LINE
  5
9E
330
1F
100
AcDbEntity
  8
0
  6
Continuous
 62
     7
370
    25
100
AcDbLine
 10
10.2840051409
 20
106.2656249061
 30
0.0
 11
10.2982002773
 21
106.2606636583
 31
0.0
  0
LINE
  5
9F
330
1F
100
AcDbEntity
  8
0
  6
Continuous
 62
     7
370
    25
100
AcDbLine
 10
-122.5266435895
 20
111.9734271855
 30
0.0
 11
-122.4999999999
 21
107.0081854955
 31
0.0
  0
LINE
  5
A0
330
1F
100
AcDbEntity
  8
0
  6
Continuous
 62
     7
370
    25
100
AcDbLine
 10
-122.5606883782
 20
-196.1267402108
 30
0.0
 11
-122.5000000008
 21
-191.3781249086
 31
0.0
  0
LINE
  5
A1
330
1F
100
AcDbEntity
  8
0
  6
Continuous
 62
     7
370
    25
100
AcDbLine
 10
122.5000000005
 20
-191.3781249086
 30
0.0
 11
122.5606883779
 21
-196.1267402108
 31
0.0
  0
LINE
  5
A2
330
1F
100
AcDbEntity
  8
0
  6
Continuous
 62
     7
370
    25
100
AcDbLine
 10
122.5
 20
107.0081854955
 30
0.0
 11
122.5266435895
 21
111.9734271855
 31
0.0
  0
LINE
  5
A3
330
1F
100
AcDbEntity
  8
0
  6
Continuous
 62
     7
370
    25
100
AcDbLine
 10
305.0
 20
-227.5
 30
0.0
 11
-305.0
 21
-227.5
 31
0.0
  0
LINE
  5
A4
330
1F
100
AcDbEntity
  8
0
  6
Continuous
 62
     7
370
    25
100
AcDbLine
 10
-305.0
 20
227.5
 30
0.0
 11
-305.0
 21
-227.5
 31
0.0
  0
LINE
  5
A5
330
1F
100
AcDbEntity
  8
0
  6
Continuous
 62
     7
370
    25
100
AcDbLine
 10
-310.0
 20
-222.5
 30
0.0
 11
310.0
 21
-222.5
 31
0.0
  0
LINE
  5
A6
330
1F
100
AcDbEntity
  8
0
  6
Continuous
 62
     7
370
    25
100
AcDbLine
 10
305.0
 20
-227.5
 30
0.0
 11
305.0
 21
227.5
 31
0.0
  0
LINE
  5
A7
330
1F
100
AcDbEntity
  8
0
  6
Continuous
 62
     7
370
    25
100
AcDbLine
 10
310.0
 20
227.5
 30
0.0
 11
-305.0
 21
227.5
 31
0.0
  0
LINE
  5
A8
330
1F
100
AcDbEntity
  8
0
  6
Continuous
 62
     7
370
    25
100
AcDbLine
 10
310.0
 20
227.5
 30
0.0
 11
310.0
 21
-222.5
 31
0.0
  0
LINE
  5
A9
330
1F
100
AcDbEntity
  8
0
  6
Continuous
 62
     7
370
    25
100
AcDbLine
 10
-310.0
 20
-222.5
 30
0.0
 11
-310.0
 21
222.5
 31
0.0
  0
LINE
  5
AA
330
1F
100
AcDbEntity
  8
0
  6
Continuous
 62
     7
370
    25
100
AcDbLine
 10
-75.0
 20
-50.0
 30
0.0
 11
75.0
 21
-50.0
 31
0.0
  0
LINE
  5
AB
330
1F
100
AcDbEntity
  8
0
  6
Continuous
 62
     7
370
    25
100
AcDbLine
 10
75.0
 20
50.0
 30
0.0
 11
-75.0
 21
50.0
 31
0.0
  0
ARC
  5
AC
330
1F
100
AcDbEntity
  8
0
  6
Continuous
 62
     7
370
    25
100
AcDbCircle
 10
305.0
 20
-222.5
 30
0.0
 40
5.0
100
AcDbArc
 50
270.0
 51
0.0
  0
ARC
  5
AD
330
1F
100
AcDbEntity
  8
0
  6
Continuous
 62
     7
370
    25
100
AcDbCircle
 10
-305.0
 20
222.5
 30
0.0
 40
5.0
100
AcDbArc
 50
90.0
 51
180.0
  0
ARC
  5
AE
330
1F
100
AcDbEntity
  8
0
  6
Continuous
 62
     7
370
    25
100
AcDbCircle
 10
-305.0
 20
-222.5
 30
0.0
 40
4.999999999999972
100
AcDbArc
 50
180.0
 51
270.0
  0
ARC
  5
AF
330
1F
100
AcDbEntity
  8
0
  6
Continuous
 62
     7
370
    25
100
AcDbCircle
 10
-75.0
 20
0.0
 30
0.0
 40
49.99999999999999
100
AcDbArc
 50
90.0
 51
270.0
  0
ARC
  5
B0
330
1F
100
AcDbEntity
  8
0
  6
Continuous
 62
     7
370
    25
100
AcDbCircle
 10
75.0
 20
0.0
 30
0.0
 40
50.0
100
AcDbArc
 50
270.0
 51
90.0
  0
SPLINE
  5
B1
330
1B
100
AcDbEntity
 67
     1
  8
0
  6
Continuous
 62
     7
370
    25
100
AcDbSpline
210
0.0
220
0.0
230
1.0
 70
     8
 71
     3
 72
    23
 73
    19
 74
     0
 42
0.000000001
 43
0.00000001
 40
0.0
 40
0.0
 40
0.0
 40
0.0
 40
0.0572395589777218
 40
0.190302679531894
 40
0.283534916637059
 40
0.3666763750798057
 40
0.4506520629160697
 40
0.5545561387257646
 40
0.6300378215761174
 40
0.6944849791465528
 40
0.7469760243480974
 40
0.763592162126044
 40
0.7808994567880604
 40
0.8028180377968517
 40
0.8300725798343022
 40
0.8754615185009068
 40
0.9318969184966306
 40
1.0
 40
1.0
 40
1.0
 40
1.0
 10
-182.9277082973488
 20
-3.311926007263294
 30
0.0
 10
-181.8046247389824
 20
-3.764273768631657
 30
0.0
 10
-178.0707418385479
 20
-5.268181076900011
 30
0.0
 10
-172.370277303056
 20
-7.161527654980258
 30
0.0
 10
-166.1000205247175
 20
-9.040656761459195
 30
0.0
 10
-160.7770975809806
 20
-10.44004794894511
 30
0.0
 10
-155.2112696579877
 20
-11.72490992270574
 30
0.0
 10
-149.7863253299756
 20
-12.77531210608648
 30
0.0
 10
-144.743584579793
 20
-13.56863312290071
 30
0.0
 10
-140.7437285361925
 20
-14.08075733063551
 30
0.0
 10
-137.9667696800263
 20
-14.36661359805435
 30
0.0
 10
-136.1582672853851
 20
-14.52502808714305
 30
0.0
 10
-135.0133304662777
 20
-14.61671583423575
 30
0.0
 10
-133.7886357321021
 20
-14.7046594841823
 30
0.0
 10
-132.170245882403
 20
-14.80504200397978
 30
0.0
 10
-130.1109577120728
 20
-14.90309943680493
 30
0.0
 10
-127.5081270817214
 20
-14.98360257299929
 30
0.0
 10
-125.6109452042868
 20
-14.99420314448207
 30
0.0
 10
-124.5734832851241
 20
-15.00000000000001
 30
0.0
  0
SPLINE
  5
B2
330
1B
100
AcDbEntity
 67
     1
  8
0
  6
Continuous
 62
     7
370
    25
100
AcDbSpline
210
0.0
220
0.0
230
1.0
 70
     8
 71
     3
 72
    24
 73
    20
 74
     0
 42
0.000000001
 43
0.00000001
 40
0.0
 40
0.0
 40
0.0
 40
0.0
 40
0.0680612326613044
 40
0.1243445825519815
 40
0.1694748369087539
 40
0.1964680821949374
 40
0.21807343597053
 40
0.2490120792517626
 40
0.2831898951372981
 40
0.3227894329420961
 40
0.3764537057129696
 40
0.4374610572764582
 40
0.5221964322369949
 40
0.5948198322550876
 40
0.6584464356190334
 40
0.7269023420471094
 40
0.8018690121447986
 40
0.961610401300237
 40
1.0
 40
1.0
 40
1.0
 40
1.0
 10
124.5734832851222
 20
-15.00000000000001
 30
0.0
 10
125.6065074750215
 20
-14.99426476972841
 30
0.0
 10
127.4937927420743
 20
-14.98378678121604
 30
0.0
 10
130.0787241338347
 20
-14.90430936036821
 30
0.0
 10
132.1194169955289
 20
-14.80776470779471
 30
0.0
 10
133.7185202651728
 20
-14.70924185877942
 30
0.0
 10
135.1837467531317
 20
-14.60492701708122
 30
0.0
 10
137.023469601915
 20
-14.45364359037267
 30
0.0
 10
139.1962584717322
 20
-14.24259207283361
 30
0.0
 10
141.8523332296213
 20
-13.94254759457453
 30
0.0
 10
145.0547729750018
 20
-13.51669276804075
 30
0.0
 10
149.1804219218083
 20
-12.86965182313404
 30
0.0
 10
153.6825580200498
 20
-12.02992239800256
 30
0.0
 10
158.224836587119
 20
-11.04119008050569
 30
0.0
 10
162.423697503675
 20
-10.01418632847886
 30
0.0
 10
166.6503431285891
 20
-8.874774078588498
 30
0.0
 10
172.7920949564594
 20
-7.028276653997231
 30
0.0
 10
178.2955568753355
 20
-5.227031239324171
 30
0.0
 10
182.167315434888
 20
-3.622836848858266
 30
0.0
 10
182.9175022631707
 20
-3.312010261088946
 30
0.0
  0
SPLINE
  5
D1
330
1B
100
AcDbEntity
 67
     1
  8
0
  6
Continuous
 62
     7
370
    25
100
AcDbSpline
210
0.0
220
0.0
230
1.0
 70
     8
 71
     3
 72
   110
 73
   106
 74
     0
 42
0.000000001
 43
0.00000001
 40
0.0
 40
0.0
 40
0.0
 40
0.0
 40
0.0312500000000003
 40
0.0312500000000003
 40
0.0625000000000006
 40
0.0625000000000006
 40
0.0781250000000008
 40
0.0781250000000008
 40
0.0859375000000009
 40
0.0859375000000009
 40
0.093750000000001
 40
0.093750000000001
 40
0.1250000000000015
 40
0.1250000000000015
 40
0.1562500000000019
 40
0.1562500000000019
 40
0.1875000000000023
 40
0.1875000000000023
 40
0.1953125000000024
 40
0.1953125000000024
 40
0.2031250000000025
 40
0.2031250000000025
 40
0.2187500000000027
 40
0.2187500000000027
 40
0.2500000000000032
 40
0.2500000000000032
 40
0.2812500000000037
 40
0.2812500000000037
 40
0.2890625000000038
 40
0.2890625000000038
 40
0.2929687500000038
 40
0.2929687500000038
 40
0.2968750000000037
 40
0.2968750000000037
 40
0.3125000000000037
 40
0.3125000000000037
 40
0.3281250000000037
 40
0.3281250000000037
 40
0.3437500000000037
 40
0.3437500000000037
 40
0.3593750000000037
 40
0.3593750000000037
 40
0.3750000000000037
 40
0.3750000000000037
 40
0.4062500000000038
 40
0.4062500000000038
 40
0.4375000000000039
 40
0.4375000000000039
 40
0.4687500000000039
 40
0.4687500000000039
 40
0.5000000000000039
 40
0.5000000000000039
 40
0.531250000000004
 40
0.531250000000004
 40
0.539062500000004
 40
0.539062500000004
 40
0.5468750000000039
 40
0.5468750000000039
 40
0.562500000000004
 40
0.562500000000004
 40
0.5937500000000039
 40
0.5937500000000039
 40
0.625000000000004
 40
0.625000000000004
 40
0.6562500000000041
 40
0.6562500000000041
 40
0.6718750000000041
 40
0.6718750000000041
 40
0.6875000000000042
 40
0.6875000000000042
 40
0.7031250000000042
 40
0.7031250000000042
 40
0.7109375000000043
 40
0.7109375000000043
 40
0.7148437500000042
 40
0.7148437500000042
 40
0.7187500000000042
 40
0.7187500000000042
 40
0.734375000000004
 40
0.734375000000004
 40
0.7500000000000038
 40
0.7500000000000038
 40
0.7812500000000033
 40
0.7812500000000033
 40
0.7890625000000032
 40
0.7890625000000032
 40
0.7968750000000031
 40
0.7968750000000031
 40
0.8125000000000028
 40
0.8125000000000028
 40
0.8437500000000022
 40
0.8437500000000022
 40
0.8750000000000017
 40
0.8750000000000017
 40
0.8906250000000013
 40
0.8906250000000013
 40
0.9062500000000012
 40
0.9062500000000012
 40
0.9375000000000007
 40
0.9375000000000007
 40
0.9531250000000006
 40
0.9531250000000006
 40
0.9687500000000003
 40
0.9687500000000003
 40
1.0
 40
1.0
 40
1.0
 40
1.0
 10
230.0647831957847
 20
39.23712166394741
 30
0.0
 10
227.800300610375
 20
39.24347727997167
 30
0.0
 10
225.3266407100822
 20
39.2470681775227
 30
0.0
 10
219.9145093363421
 20
39.25079513849221
 30
0.0
 10
216.9771027320587
 20
39.25089887486835
 30
0.0
 10
212.1972257031373
 20
39.24901971336759
 30
0.0
 10
210.5420571381126
 20
39.24805410487438
 30
0.0
 10
207.9625631242629
 20
39.24608136662319
 30
0.0
 10
207.0854231157879
 20
39.2453342976698
 30
0.0
 10
205.3036338081559
 20
39.24369844814689
 30
0.0
 10
204.4003310787612
 20
39.24280693437556
 30
0.0
 10
199.8225178972586
 20
39.23797375935258
 30
0.0
 10
195.9628845428837
 20
39.2328658360577
 30
0.0
 10
187.8604692438591
 20
39.22041692255853
 30
0.0
 10
183.6166248789397
 20
39.21299622151945
 30
0.0
 10
174.7505734896156
 20
39.19567226982116
 30
0.0
 10
170.1272336108209
 20
39.1857425709218
 30
0.0
 10
164.1098019714372
 20
39.17144575101671
 30
0.0
 10
162.8943342735903
 20
39.16849186667744
 30
0.0
 10
160.4393489516266
 20
39.16238582297801
 30
0.0
 10
159.2003475130238
 20
39.15923467810283
 30
0.0
 10
155.4705921564686
 20
39.14952981625064
 30
0.0
 10
152.9595432718794
 20
39.14270487279504
 30
0.0
 10
145.3551927720016
 20
39.12107258604641
 30
0.0
 10
140.1913334038037
 20
39.10511231732257
 30
0.0
 10
129.6810611086389
 20
39.06960535421342
 30
0.0
 10
124.3351745752006
 20
39.05009933635047
 30
0.0
 10
117.5343689237342
 20
39.02337862536746
 30
0.0
 10
116.1680781099488
 20
39.01792614439775
 30
0.0
 10
114.1088870886552
 20
39.00963417041704
 30
0.0
 10
113.4208658949848
 20
39.00685128123049
 30
0.0
 10
112.0415035280721
 20
39.00125557954894
 30
0.0
 10
111.3496373518434
 20
38.9986608947792
 30
0.0
 10
107.8961805999412
 20
38.98666265692228
 30
0.0
 10
105.1440090406111
 20
38.97641773657349
 30
0.0
 10
99.64930283055695
 20
38.95487775441
 30
0.0
 10
96.90512078830696
 20
38.94357512158428
 30
0.0
 10
91.42068350033955
 20
38.92059336699599
 30
0.0
 10
88.68041270815874
 20
38.90892991823219
 30
0.0
 10
83.19966285796595
 20
38.88613345886727
 30
0.0
 10
80.45891289197006
 20
38.87504887475868
 30
0.0
 10
74.97388989523235
 20
38.85348470107801
 30
0.0
 10
72.22977739491985
 20
38.84303468449477
 30
0.0
 10
63.99022518912773
 20
38.81302561775301
 30
0.0
 10
58.48749616499066
 20
38.79487024283971
 30
0.0
 10
47.45043962440166
 20
38.76312765696007
 30
0.0
 10
41.91630183416609
 20
38.74939912927942
 30
0.0
 10
30.80752921484412
 20
38.72619454487283
 30
0.0
 10
25.23291919870793
 20
38.71669337599374
 30
0.0
 10
14.03383453588791
 20
38.7027094230929
 30
0.0
 10
8.409281880203915
 20
38.69822875567421
 30
0.0
 10
-2.897873949195994
 20
38.69597155986875
 30
0.0
 10
-8.58107131844538
 20
38.69843634290361
 30
0.0
 10
-15.71996727701158
 20
38.70518234563529
 30
0.0
 10
-17.149476609894
 20
38.70671354011363
 30
0.0
 10
-20.0118578254494
 20
38.71012133398653
 30
0.0
 10
-21.44623324363766
 20
38.71200019181132
 30
0.0
 10
-25.74056804279283
 20
38.71811105605612
 30
0.0
 10
-28.59201223153038
 20
38.72281433487966
 30
0.0
 10
-37.11581253367763
 20
38.73861156178474
 30
0.0
 10
-42.75762594379955
 20
38.75137601730913
 30
0.0
 10
-53.97865634625207
 20
38.78117450031847
 30
0.0
 10
-59.55748532430563
 20
38.79830327029114
 30
0.0
 10
-70.6731018564946
 20
38.83673576578117
 30
0.0
 10
-76.21021391912197
 20
38.85797323204592
 30
0.0
 10
-84.50270123744272
 20
38.89147080220286
 30
0.0
 10
-87.26446755686652
 20
38.90302668386762
 30
0.0
 10
-92.79150684212857
 20
38.92632652100054
 30
0.0
 10
-95.55687181206987
 20
38.93802338062366
 30
0.0
 10
-101.0974010956886
 20
38.96065822166668
 30
0.0
 10
-103.8725568295719
 20
38.97158815062604
 30
0.0
 10
-108.0447968179913
 20
38.98703487024172
 30
0.0
 10
-109.4371037286483
 20
38.9920293854158
 30
0.0
 10
-111.5279964119115
 20
38.99927269156652
 30
0.0
 10
-112.2256349550914
 20
39.00200390458589
 30
0.0
 10
-113.6175801719418
 20
39.00764751939609
 30
0.0
 10
-114.3123759992861
 20
39.01045579326485
 30
0.0
 10
-117.7805772406305
 20
39.02440856220701
 30
0.0
 10
-120.536627990955
 20
39.03525737881142
 30
0.0
 10
-126.0156312516924
 20
39.05596291929124
 30
0.0
 10
-128.7382963020468
 20
39.06588341925595
 30
0.0
 10
-136.855599322086
 20
39.09428727394743
 30
0.0
 10
-142.1999079829595
 20
39.11143883420376
 30
0.0
 10
-148.7918071435552
 20
39.13083376585017
 30
0.0
 10
-150.1078021022071
 20
39.13461867928893
 30
0.0
 10
-152.7160523081311
 20
39.14195401095588
 30
0.0
 10
-154.0091317740639
 20
39.14550694652524
 30
0.0
 10
-157.8554047054122
 20
39.1558393984595
 30
0.0
 10
-160.3756742052381
 20
39.16229577451049
 30
0.0
 10
-167.8048641449739
 20
39.1805041637733
 30
0.0
 10
-172.5825863581964
 20
39.19106642027563
 30
0.0
 10
-181.7813709721539
 20
39.20964845192452
 30
0.0
 10
-186.2029400742798
 20
39.21759974754749
 30
0.0
 10
-192.5569541085821
 20
39.22770809249639
 30
0.0
 10
-194.6288222415911
 20
39.23075606617351
 30
0.0
 10
-198.6779246125681
 20
39.23627830372736
 30
0.0
 10
-200.644653592686
 20
39.2387325121539
 30
0.0
 10
-206.3600286207179
 20
39.24502975216991
 30
0.0
 10
-209.9121223735925
 20
39.24795215121954
 30
0.0
 10
-214.8685874750323
 20
39.25013415843939
 30
0.0
 10
-216.4588928507927
 20
39.25051663969553
 30
0.0
 10
-219.5177649270758
 20
39.25044497652227
 30
0.0
 10
-220.986453576522
 20
39.24999576398714
 30
0.0
 10
-225.1944317886023
 20
39.24726752157081
 30
0.0
 10
-227.7428591953569
 20
39.24363849807074
 30
0.0
 10
-230.0647831957856
 20
39.23712166394742
 30
0.0
  0
SPLINE
  5
D3
330
1B
100
AcDbEntity
 67
     1
  8
0
  6
Continuous
 62
     7
370
    25
100
AcDbSpline
210
0.0
220
0.0
230
1.0
 70
    24
 71
     3
 72
    20
 73
    16
 74
     0
 42
0.000000001
 43
0.00000001
 40
0.0
 40
0.0
 40
0.0
 40
0.0
 40
0.0769066354575866
 40
0.1538964290303464
 40
0.2307990843727721
 40
0.3077070409106655
 40
0.3846955019856726
 40
0.4615981573277713
 40
0.5385061138625867
 40
0.6154945749313168
 40
0.6923972302827168
 40
0.7693051868158207
 40
0.846293647901558
 40
0.9231963032378081
 40
0.9999999999999999
 40
0.9999999999999999
 40
0.9999999999999999
 40
0.9999999999999999
 10
75.00000000000003
 20
-15.00000000000001
 30
0.0
 10
77.18092857472058
 20
-15.00000000000001
 30
0.0
 10
81.54514393302784
 20
-15.00000000000001
 30
0.0
 10
87.97827147895823
 20
-15.00000000000001
 30
0.0
 10
94.18887366213497
 20
-15.00000000000001
 30
0.0
 10
100.0719430633273
 20
-15.00000000000001
 30
0.0
 10
105.5256570577971
 20
-15.00000000000001
 30
0.0
 10
110.4562805112547
 20
-15.00000000000001
 30
0.0
 10
114.7816749950671
 20
-15.00000000000001
 30
0.0
 10
118.4259556799836
 20
-15.00000000000001
 30
0.0
 10
121.3250302112737
 20
-15.00000000000001
 30
0.0
 10
123.4378452977095
 20
-15.00000000000002
 30
0.0
 10
124.7044480661567
 20
-15.00000000000001
 30
0.0
 10
125.180502385188
 20
-15.00000000000001
 30
0.0
 10
124.7757892824434
 20
-15.00000000000001
 30
0.0
 10
124.573563011411
 20
-15.00000000000001
 30
0.0
  0
SPLINE
  5
D5
330
1B
100
AcDbEntity
 67
     1
  8
0
  6
Continuous
 62
     7
370
    25
100
AcDbSpline
210
0.0
220
0.0
230
1.0
 70
    24
 71
     3
 72
    20
 73
    16
 74
     0
 42
0.000000001
 43
0.00000001
 40
0.0
 40
0.0
 40
0.0
 40
0.0
 40
0.0768036985135493
 40
0.1537116568088593
 40
0.2307001196389969
 40
0.3076027767384149
 40
0.3845107350309544
 40
0.4614991978638808
 40
0.5384018549633041
 40
0.6153098132565517
 40
0.6922982760893663
 40
0.769200933188192
 40
0.8461088914809463
 40
0.923096021953439
 40
0.9999999999999999
 40
0.9999999999999999
 40
0.9999999999999999
 40
0.9999999999999999
 10
-124.5735777562308
 20
-15.00000000000001
 30
0.0
 10
-124.7757948353532
 20
-15.00000000000001
 30
0.0
 10
-125.1805035000209
 20
-15.00000000000001
 30
0.0
 10
-124.7044503964505
 20
-15.00000000000001
 30
0.0
 10
-123.4377278297531
 20
-15.00000000000001
 30
0.0
 10
-121.3249162383395
 20
-15.00000000000001
 30
0.0
 10
-118.4258383332072
 20
-15.00000000000001
 30
0.0
 10
-114.7814594329081
 20
-15.00000000000001
 30
0.0
 10
-110.4560695676733
 20
-15.00000000000001
 30
0.0
 10
-105.5254407893057
 20
-15.00000000000001
 30
0.0
 10
-100.0716611921165
 20
-15.00000000000001
 30
0.0
 10
-94.18859783607607
 20
-15.00000000000001
 30
0.0
 10
-87.97806169572839
 20
-15.00000000000001
 30
0.0
 10
-81.54491178875011
 20
-15.00000000000001
 30
0.0
 10
-77.18085124778261
 20
-15.00000000000001
 30
0.0
 10
-75.0
 20
-15.00000000000001
 30
0.0
  0
SPLINE
  5
D6
330
1B
100
AcDbEntity
 67
     1
  8
0
  6
Continuous
 62
     7
370
    25
100
AcDbSpline
210
0.0
220
0.0
230
1.0
 70
     8
 71
     3
 72
    11
 73
     7
 74
     0
 42
0.000000001
 43
0.00000001
 40
0.0
 40
0.0
 40
0.0
 40
0.0
 40
0.0204792408072408
 40
0.4829126690856093
 40
0.9454568086419373
 40
1.0
 40
1.0
 40
1.0
 40
1.0
 10
-186.8575985715584
 20
-1.594082714786255
 30
0.0
 10
-186.8309101069572
 20
-1.610440832817764
 30
0.0
 10
-186.2015802506596
 20
-1.99617497766065
 30
0.0
 10
-184.5366066447928
 20
-2.718470879111853
 30
0.0
 10
-182.7611518017082
 20
-3.460339585252672
 30
0.0
 10
-181.6376033487607
 20
-3.830082044334035
 30
0.0
 10
-181.519089676881
 20
-3.869083065038241
 30
0.0
  0
SPLINE
  5
D7
330
1B
100
AcDbEntity
 67
     1
  8
0
  6
Continuous
 62
     7
370
    25
100
AcDbSpline
210
0.0
220
0.0
230
1.0
 70
     8
 71
     3
 72
    22
 73
    18
 74
     0
 42
0.000000001
 43
0.00000001
 40
0.0
 40
0.0
 40
0.0
 40
0.0
 40
0.1250000000000024
 40
0.1250000000000024
 40
0.1875000000000024
 40
0.1875000000000024
 40
0.2500000000000024
 40
0.2500000000000024
 40
0.3750000000000006
 40
0.3750000000000006
 40
0.4999999999999988
 40
0.4999999999999988
 40
0.624999999999997
 40
0.624999999999997
 40
0.7499999999999951
 40
0.7499999999999951
 40
1.0
 40
1.0
 40
1.0
 40
1.0
 10
-187.8164376531514
 20
7.031446807485391
 30
0.0
 10
-187.7849734680425
 20
7.099364053765208
 30
0.0
 10
-187.8152935919562
 20
7.196036619479189
 30
0.0
 10
-187.9391660706925
 20
7.36939805694601
 30
0.0
 10
-187.9936241466593
 20
7.432498756835364
 30
0.0
 10
-188.1233142265561
 20
7.565461349311173
 30
0.0
 10
-188.1976380793165
 20
7.634534549278205
 30
0.0
 10
-188.4432533727473
 20
7.848097349436464
 30
0.0
 10
-188.6381412125387
 20
7.999758125776219
 30
0.0
 10
-189.06462543226
 20
8.311495150110655
 30
0.0
 10
-189.2940531234552
 20
8.470069475815595
 30
0.0
 10
-189.7756429563528
 20
8.791531603933526
 30
0.0
 10
-190.0271136703232
 20
8.953860270459614
 30
0.0
 10
-190.5389601811951
 20
9.276898107487181
 30
0.0
 10
-190.800506137623
 20
9.438355856349148
 30
0.0
 10
-191.5982869844751
 20
9.923007972337889
 30
0.0
 10
-192.1474663558784
 20
10.2465035454024
 30
0.0
 10
-192.7090910764792
 20
10.57104278848168
 30
0.0
  0
SPLINE
  5
D8
330
1B
100
AcDbEntity
 67
     1
  8
0
  6
Continuous
 62
     7
370
    25
100
AcDbSpline
210
0.0
220
0.0
230
1.0
 70
     8
 71
     3
 72
    14
 73
    10
 74
     0
 42
0.000000001
 43
0.00000001
 40
0.0
 40
0.0
 40
0.0
 40
0.0
 40
0.2500000000000001
 40
0.2500000000000001
 40
0.5000000000000001
 40
0.5000000000000001
 40
0.7500000000000001
 40
0.7500000000000001
 40
1.0
 40
1.0
 40
1.0
 40
1.0
 10
-229.3572516680203
 20
38.01389727933084
 30
0.0
 10
-226.6041597605503
 20
35.40582314526106
 30
0.0
 10
-223.7717490260329
 20
32.8683554608356
 30
0.0
 10
-217.9621934550362
 20
27.95399637575901
 30
0.0
 10
-214.983562144798
 20
25.57592533915151
 30
0.0
 10
-208.8720946508949
 20
20.98487980581355
 30
0.0
 10
-205.7361047559636
 20
18.76999600995159
 30
0.0
 10
-199.3278721357131
 20
14.53009667794968
 30
0.0
 10
-196.0536369295686
 20
12.50371480200094
 30
0.0
 10
-192.7090910764794
 20
10.57104278848171
 30
0.0
  0
SPLINE
  5
D9
330
1B
100
AcDbEntity
 67
     1
  8
0
  6
Continuous
 62
     7
370
    25
100
AcDbSpline
210
0.0
220
0.0
230
1.0
 70
     8
 71
     3
 72
    18
 73
    14
 74
     0
 42
0.000000001
 43
0.00000001
 40
0.0
 40
0.0
 40
0.0
 40
0.0
 40
0.1250000000000011
 40
0.1250000000000011
 40
0.2500000000000022
 40
0.2500000000000022
 40
0.3750000000000033
 40
0.3750000000000033
 40
0.5000000000000044
 40
0.5000000000000044
 40
0.7500000000000022
 40
0.7500000000000022
 40
1.0
 40
1.0
 40
1.0
 40
1.0
 10
-230.0647831957857
 20
39.23712166394734
 30
0.0
 10
-230.108593256305
 20
39.23699870432535
 30
0.0
 10
-230.1438302703269
 20
39.2292863048764
 30
0.0
 10
-230.194427255136
 20
39.19622071735227
 30
0.0
 10
-230.2093647234319
 20
39.17049438797955
 30
0.0
 10
-230.2154148021236
 20
39.10252322672362
 30
0.0
 10
-230.2066092777797
 20
39.05929077357125
 30
0.0
 10
-230.1670054590109
 20
38.95976131182019
 30
0.0
 10
-230.1364901553361
 20
38.90351167838165
 30
0.0
 10
-230.0181065894799
 20
38.72005812978286
 30
0.0
 10
-229.9072832869678
 20
38.58347201067546
 30
0.0
 10
-229.6519547990725
 20
38.30144083130655
 30
0.0
 10
-229.5097396545271
 20
38.15835303552446
 30
0.0
 10
-229.3572516680202
 20
38.01389727933061
 30
0.0
  0
SPLINE
  5
DA
330
1B
100
AcDbEntity
 67
     1
  8
0
  6
Continuous
 62
     7
370
    25
100
AcDbSpline
210
0.0
220
0.0
230
1.0
 70
     8
 71
     3
 72
    18
 73
    14
 74
     0
 42
0.000000001
 43
0.00000001
 40
0.0
 40
0.0
 40
0.0
 40
0.0
 40
0.2500000000000081
 40
0.2500000000000081
 40
0.5000000000000162
 40
0.5000000000000162
 40
0.6250000000000121
 40
0.6250000000000121
 40
0.7500000000000081
 40
0.7500000000000081
 40
0.875000000000004
 40
0.875000000000004
 40
1.0
 40
1.0
 40
1.0
 40
1.0
 10
229.3572516680195
 20
38.01389727933076
 30
0.0
 10
229.5097041143133
 20
38.15831936737496
 30
0.0
 10
229.6517162792898
 20
38.3012189856071
 30
0.0
 10
229.9064163401889
 20
38.58247295852229
 30
0.0
 10
230.0179927937635
 20
38.71992367234173
 30
0.0
 10
230.1363393605036
 20
38.90325711042563
 30
0.0
 10
230.1668996699982
 20
38.95957736320143
 30
0.0
 10
230.2064766961286
 20
39.05887615865812
 30
0.0
 10
230.2153959807864
 20
39.10232399896593
 30
0.0
 10
230.2094103736278
 20
39.17039037380212
 30
0.0
 10
230.1946248803964
 20
39.19603098185654
 30
0.0
 10
230.1439279751783
 20
39.22928268785232
 30
0.0
 10
230.1086130083114
 20
39.23699864888851
 30
0.0
 10
230.0647831957849
 20
39.23712166394748
 30
0.0
  0
SPLINE
  5
DB
330
1B
100
AcDbEntity
 67
     1
  8
0
  6
Continuous
 62
     7
370
    25
100
AcDbSpline
210
0.0
220
0.0
230
1.0
 70
     8
 71
     3
 72
    14
 73
    10
 74
     0
 42
0.000000001
 43
0.00000001
 40
0.0
 40
0.0
 40
0.0
 40
0.0
 40
0.25
 40
0.25
 40
0.5
 40
0.5
 40
0.75
 40
0.75
 40
1.0
 40
1.0
 40
1.0
 40
1.0
 10
192.7090910764785
 20
10.57104278848163
 30
0.0
 10
196.0537122328538
 20
12.50375831659444
 30
0.0
 10
199.333090103088
 20
14.53345017003641
 30
0.0
 10
205.7377001941047
 20
18.77115059828516
 30
0.0
 10
208.8652244624196
 20
20.97993210602014
 30
0.0
 10
214.9765364156864
 20
25.57043465740574
 30
0.0
 10
217.9627285916854
 20
27.95438116722313
 30
0.0
 10
223.7753883849005
 20
32.87150196416037
 30
0.0
 10
226.6041185363282
 20
35.40578409250546
 30
0.0
 10
229.3572516680194
 20
38.01389727933068
 30
0.0
  0
SPLINE
  5
DC
330
1B
100
AcDbEntity
 67
     1
  8
0
  6
Continuous
 62
     7
370
    25
100
AcDbSpline
210
0.0
220
0.0
230
1.0
 70
     8
 71
     3
 72
    22
 73
    18
 74
     0
 42
0.000000001
 43
0.00000001
 40
0.0
 40
0.0
 40
0.0
 40
0.0
 40
0.2500000000000026
 40
0.2500000000000026
 40
0.5000000000000051
 40
0.5000000000000051
 40
0.6250000000000064
 40
0.6250000000000064
 40
0.7500000000000077
 40
0.7500000000000077
 40
0.8125000000000058
 40
0.8125000000000058
 40
0.8750000000000038
 40
0.8750000000000038
 40
0.9375000000000019
 40
0.9375000000000019
 40
1.0
 40
1.0
 40
1.0
 40
1.0
 10
192.7090910764785
 20
10.57104278848163
 30
0.0
 10
192.147276413477
 20
10.24639378569854
 30
0.0
 10
191.5952084973283
 20
9.921229966038837
 30
0.0
 10
190.5235833104276
 20
9.270031757964793
 30
0.0
 10
190.0095538770242
 20
8.947751629710561
 30
0.0
 10
189.2933661528828
 20
8.469568536374032
 30
0.0
 10
189.062174360754
 20
8.309751306850833
 30
0.0
 10
188.6372908658222
 20
7.999088437508202
 30
0.0
 10
188.4439240765036
 20
7.848720035064889
 30
0.0
 10
188.1964975087887
 20
7.633522971297026
 30
0.0
 10
188.1210521859603
 20
7.56327205167873
 30
0.0
 10
187.9923140301511
 20
7.431022113554012
 30
0.0
 10
187.9384439692446
 20
7.368568385913755
 30
0.0
 10
187.8555788119326
 20
7.25223167985399
 30
0.0
 10
187.8272199134327
 20
7.19893607053294
 30
0.0
 10
187.7999809883366
 20
7.105764534074479
 30
0.0
 10
187.8007152818197
 20
7.065384446808636
 30
0.0
 10
187.8164376531512
 20
7.031446807485384
 30
0.0
  0
SPLINE
  5
DD
330
1B
100
AcDbEntity
 67
     1
  8
0
  6
Continuous
 62
     7
370
    25
100
AcDbSpline
210
0.0
220
0.0
230
1.0
 70
     8
 71
     3
 72
    10
 73
     6
 74
     0
 42
0.000000001
 43
0.00000001
 40
0.0
 40
0.0
 40
0.0
 40
0.0
 40
0.4447390077468232
 40
0.8247771366430996
 40
0.9999999999999999
 40
0.9999999999999999
 40
0.9999999999999999
 40
0.9999999999999999
 10
181.7375792605435
 20
-3.794063956745551
 30
0.0
 10
182.653975134372
 20
-3.453264324557601
 30
0.0
 10
184.353449099287
 20
-2.821244780715361
 30
0.0
 10
186.1145112421613
 20
-2.022025220042273
 30
0.0
 10
186.8901541309098
 20
-1.563006160289524
 30
0.0
 10
187.1349225727869
 20
-1.418154216595642
 30
0.0
  0
LWPOLYLINE
  5
DF
330
1B
100
AcDbEntity
 67
     1
  8
0
  6
Continuous
 62
     7
370
    25
100
AcDbPolyline
 90
        9
 70
   128
 43
0.0
 10
240.0
 20
35.0
 10
239.903926402
 20
35.3725506111
 10
239.6193976626
 20
35.7307843111
 10
239.1573480615
 20
36.0609343798
 10
238.5355339059
 20
36.3503133354
 10
237.7778511651
 20
36.5878005067
 10
236.9134171618
 20
36.7642693949
 10
235.9754516101
 20
36.8729383998
 10
235.0
 20
36.9096314323
  0
SPLINE
  5
E2
330
1B
100
AcDbEntity
 67
     1
  8
0
  6
Continuous
 62
     7
370
    25
100
AcDbSpline
210
0.0
220
0.0
230
1.0
 70
     8
 71
     3
 72
    18
 73
    14
 74
     0
 42
0.000000001
 43
0.00000001
 40
0.0
 40
0.0
 40
0.0
 40
0.0
 40
0.2500000000000066
 40
0.2500000000000066
 40
0.3750000000000068
 40
0.3750000000000068
 40
0.500000000000007
 40
0.500000000000007
 40
0.7500000000000072
 40
0.7500000000000072
 40
0.8750000000000037
 40
0.8750000000000037
 40
1.0
 40
1.0
 40
1.0
 40
1.0
 10
-231.1799571951107
 20
36.90963143230795
 30
0.0
 10
-231.3632775229018
 20
37.34336375176932
 30
0.0
 10
-231.5228277433604
 20
37.75091538040274
 30
0.0
 10
-231.7231865711739
 20
38.31867689075946
 30
0.0
 10
-231.782284275258
 20
38.49753812474154
 30
0.0
 10
-231.8836515274404
 20
38.83050260347801
 30
0.0
 10
-231.926318461454
 20
38.98601601866388
 30
0.0
 10
-232.0263510655187
 20
39.40812121340783
 30
0.0
 10
-232.0553768674556
 20
39.62955246113265
 30
0.0
 10
-232.0392440660881
 20
39.85118415421709
 30
0.0
 10
-232.0238904048362
 20
39.90740691421747
 30
0.0
 10
-231.9742743867742
 20
39.98158283504592
 30
0.0
 10
-231.9401328074595
 20
40.00000000000001
 30
0.0
 10
-231.8967615819469
 20
40.00000000000001
 30
0.0
  0
LWPOLYLINE
  5
E4
330
1B
100
AcDbEntity
 67
     1
  8
0
  6
Continuous
 62
     7
370
    25
100
AcDbPolyline
 90
        9
 70
   128
 43
0.0
 10
-235.0
 20
36.9096314323
 10
-235.9754516101
 20
36.8729383998
 10
-236.9134171618
 20
36.7642693949
 10
-237.7778511651
 20
36.5878005067
 10
-238.5355339059
 20
36.3503133354
 10
-239.1573480615
 20
36.0609343798
 10
-239.6193976626
 20
35.7307843111
 10
-239.903926402
 20
35.3725506111
 10
-240.0
 20
35.0
  0
SPLINE
  5
E6
330
1B
100
AcDbEntity
 67
     1
  8
0
  6
Continuous
 62
     7
370
    25
100
AcDbSpline
210
0.0
220
0.0
230
1.0
 70
     8
 71
     3
 72
    18
 73
    14
 74
     0
 42
0.000000001
 43
0.00000001
 40
0.0
 40
0.0
 40
0.0
 40
0.0
 40
0.1249999999999986
 40
0.1249999999999986
 40
0.2499999999999972
 40
0.2499999999999972
 40
0.3749999999999958
 40
0.3749999999999958
 40
0.4999999999999943
 40
0.4999999999999943
 40
0.7499999999999971
 40
0.7499999999999971
 40
1.0
 40
1.0
 40
1.0
 40
1.0
 10
231.8967615819461
 20
40.00000000000001
 30
0.0
 10
231.9401426484309
 20
39.99999999999999
 30
0.0
 10
231.9743253476375
 20
39.98157509859302
 30
0.0
 10
232.0239946063416
 20
39.90718246892888
 30
0.0
 10
232.0392809573609
 20
39.85099041585865
 30
0.0
 10
232.049995467284
 20
39.70316785359881
 30
0.0
 10
232.0454956903781
 20
39.61059505533163
 30
0.0
 10
232.0168613075284
 20
39.39219960986326
 30
0.0
 10
231.9929334849579
 20
39.26705823144644
 30
0.0
 10
231.8928024622585
 20
38.84469283040016
 30
0.0
 10
231.7890341087108
 20
38.50513497169988
 30
0.0
 10
231.5225660234023
 20
37.75030998186057
 30
0.0
 10
231.3632930804741
 20
37.3434005606835
 30
0.0
 10
231.17995719511
 20
36.90963143230795
 30
0.0
  0
SPLINE
  5
EA
330
1B
100
AcDbEntity
 67
     1
  8
0
  6
Continuous
 62
     7
370
    25
100
AcDbSpline
210
0.0
220
0.0
230
1.0
 70
     8
 71
     3
 72
    10
 73
     6
 74
     0
 42
0.000000001
 43
0.00000001
 40
0.0
 40
0.0
 40
0.0
 40
0.0
 40
0.5
 40
0.5
 40
1.0
 40
1.0
 40
1.0
 40
1.0
 10
231.17995719511
 20
36.90963143230797
 30
0.0
 10
225.577931777951
 20
31.60791828976043
 30
0.0
 10
219.6937753942166
 20
26.62822531966904
 30
0.0
 10
207.3305661622956
 20
17.34784553184731
 30
0.0
 10
200.8480440159505
 20
13.05111852046115
 30
0.0
 10
194.0448839587382
 20
9.120362946406756
 30
0.0
  0
SPLINE
  5
EC
330
1B
100
AcDbEntity
 67
     1
  8
0
  6
Continuous
 62
     7
370
    25
100
AcDbSpline
210
0.0
220
0.0
230
1.0
 70
     8
 71
     3
 72
    10
 73
     6
 74
     0
 42
0.000000001
 43
0.00000001
 40
0.0
 40
0.0
 40
0.0
 40
0.0
 40
0.5
 40
0.5
 40
1.0
 40
1.0
 40
1.0
 40
1.0
 10
-194.0448839587389
 20
9.120362946406761
 30
0.0
 10
-200.8480440159512
 20
13.05111852046109
 30
0.0
 10
-207.3305661622962
 20
17.34784553184729
 30
0.0
 10
-219.6937753942172
 20
26.62822531966888
 30
0.0
 10
-225.5779317779516
 20
31.60791828976035
 30
0.0
 10
-231.1799571951107
 20
36.9096314323079
 30
0.0
  0
LWPOLYLINE
  5
F1
330
1B
100
AcDbEntity
 67
     1
  8
0
  6
Continuous
 62
     7
370
    25
100
AcDbPolyline
 90
        9
 70
   128
 43
0.0
 10
235.0
 20
9.1203629464
 10
235.9754516101
 20
9.1758493911
 10
236.9134171618
 20
9.3401764121
 10
237.7778511651
 20
9.6070290142
 10
238.5355339059
 20
9.9661522016
 10
239.1573480615
 20
10.4037450715
 10
239.6193976626
 20
10.9029911754
 10
239.903926402
 20
11.4447047655
 10
240.0
 20
12.0080680923
  0
LWPOLYLINE
  5
F4
330
1B
100
AcDbEntity
 67
     1
  8
0
  6
Continuous
 62
     7
370
    25
100
AcDbPolyline
 90
        9
 70
   128
 43
0.0
 10
-240.0
 20
12.0080680923
 10
-239.903926402
 20
11.4447047655
 10
-239.6193976626
 20
10.9029911754
 10
-239.1573480615
 20
10.4037450715
 10
-238.5355339059
 20
9.9661522016
 10
-237.7778511651
 20
9.6070290142
 10
-236.9134171618
 20
9.3401764121
 10
-235.9754516101
 20
9.1758493911
 10
-235.0
 20
9.1203629464
  0
SPLINE
  5
F6
330
1B
100
AcDbEntity
 67
     1
  8
0
  6
Continuous
 62
     7
370
    25
100
AcDbSpline
210
0.0
220
0.0
230
1.0
 70
     8
 71
     3
 72
    22
 73
    18
 74
     0
 42
0.000000001
 43
0.00000001
 40
0.0
 40
0.0
 40
0.0
 40
0.0
 40
0.2499999999999994
 40
0.2499999999999994
 40
0.4999999999999989
 40
0.4999999999999989
 40
0.624999999999999
 40
0.624999999999999
 40
0.7499999999999992
 40
0.7499999999999992
 40
0.8124999999999994
 40
0.8124999999999994
 40
0.8749999999999996
 40
0.8749999999999996
 40
0.9374999999999998
 40
0.9374999999999998
 40
1.0
 40
1.0
 40
1.0
 40
1.0
 10
-194.0448839587389
 20
9.120362946406761
 30
0.0
 10
-193.5641336200258
 20
8.981478071015541
 30
0.0
 10
-193.0862651625135
 20
8.841235829697224
 30
0.0
 10
-192.1388093815588
 20
8.556190345413086
 30
0.0
 10
-191.6690394070458
 20
8.411523133587208
 30
0.0
 10
-190.9753754212367
 20
8.187571606909403
 30
0.0
 10
-190.7460398303963
 20
8.111736046716604
 30
0.0
 10
-190.297954840191
 20
7.957631263210758
 30
0.0
 10
-190.0771928917162
 20
7.878782355862337
 30
0.0
 10
-189.764929544384
 20
7.758345195521366
 30
0.0
 10
-189.6642531243502
 20
7.717922517928251
 30
0.0
 10
-189.473391369248
 20
7.636140246331868
 30
0.0
 10
-189.3829859209801
 20
7.594803576940132
 30
0.0
 10
-189.2212257714071
 20
7.510300776630271
 30
0.0
 10
-189.1518920030809
 20
7.467984977372784
 30
0.0
 10
-189.0665513175056
 20
7.389884674398363
 30
0.0
 10
-189.0535517373161
 20
7.355101829893115
 30
0.0
 10
-189.0768219711733
 20
7.329280931281934
 30
0.0
  0
SPLINE
  5
F8
330
1B
100
AcDbEntity
 67
     1
  8
0
  6
Continuous
 62
     7
370
    25
100
AcDbSpline
210
0.0
220
0.0
230
1.0
 70
     8
 71
     3
 72
    22
 73
    18
 74
     0
 42
0.000000001
 43
0.00000001
 40
0.0
 40
0.0
 40
0.0
 40
0.0
 40
0.0625000000000036
 40
0.0625000000000036
 40
0.1250000000000072
 40
0.1250000000000072
 40
0.1875000000000108
 40
0.1875000000000108
 40
0.2500000000000144
 40
0.2500000000000144
 40
0.3750000000000117
 40
0.3750000000000117
 40
0.5000000000000089
 40
0.5000000000000089
 40
0.7500000000000044
 40
0.7500000000000044
 40
1.0
 40
1.0
 40
1.0
 40
1.0
 10
189.076821971173
 20
7.329280931281934
 30
0.0
 10
189.0534888547788
 20
7.355171605024035
 30
0.0
 10
189.0666100753746
 20
7.39005908239549
 30
0.0
 10
189.1525590036103
 20
7.468473728689983
 30
0.0
 10
189.22161980571
 20
7.510453528069703
 30
0.0
 10
189.380491854065
 20
7.59355308118178
 30
0.0
 10
189.4727399045398
 20
7.635863823225963
 30
0.0
 10
189.6651825799886
 20
7.718318053312922
 30
0.0
 10
189.7661280276714
 20
7.758818191105764
 30
0.0
 10
190.0778841495832
 20
7.879027304443994
 30
0.0
 10
190.2984188109035
 20
7.957795262437086
 30
0.0
 10
190.7465337807713
 20
8.111901484931815
 30
0.0
 10
190.9744200176293
 20
8.187253111681693
 30
0.0
 10
191.6653156196111
 20
8.410340855731286
 30
0.0
 10
192.1358566844555
 20
8.55529305953686
 30
0.0
 10
193.0857256192598
 20
8.841082429620034
 30
0.0
 10
193.5641176574835
 20
8.98147345956666
 30
0.0
 10
194.0448839587382
 20
9.12036294640676
 30
0.0
  0
SPLINE
  5
103
330
1B
100
AcDbEntity
 67
     1
  8
0
  6
Continuous
 62
     7
370
    25
100
AcDbSpline
210
0.0
220
0.0
230
1.0
 70
     8
 71
     3
 72
    39
 73
    35
 74
     0
 42
0.000000001
 43
0.00000001
 40
0.0
 40
0.0
 40
0.0
 40
0.0
 40
0.0172399177404645
 40
0.0343898161295566
 40
0.0514512303898659
 40
0.0684257197522928
 40
0.0853148675228559
 40
0.1021202811287222
 40
0.1188435921423965
 40
0.1354864562830261
 40
0.1520505533937767
 40
0.168537587394251
 40
0.1849492862069512
 40
0.2012874016567907
 40
0.2175537093427202
 40
0.2337500084805445
 40
0.2498781217160717
 40
0.377433396754016
 40
0.5000482905414189
 40
0.5635681330046947
 40
0.6259957539237515
 40
0.6875363841206654
 40
0.7484042271974409
 40
0.7714926860552517
 40
0.7944994572832622
 40
0.8174371916092715
 40
0.8403186542689547
 40
0.8631567048566393
 40
0.8859642763978666
 40
0.9087543538074343
 40
0.9315399519084998
 40
0.9543340931969071
 40
0.9771497855399353
 40
1.0
 40
1.0
 40
1.0
 40
1.0
 10
185.0000000000001
 20
-8.143840550704523
 30
0.0
 10
185.2446247708017
 20
-8.082188170529227
 30
0.0
 10
185.7325969882593
 20
-7.959205332090185
 30
0.0
 10
186.4518908559186
 20
-7.773445556656059
 30
0.0
 10
187.1594288130434
 20
-7.587361500542261
 30
0.0
 10
187.8544541817541
 20
-7.400827419211504
 30
0.0
 10
188.5371681051059
 20
-7.213876740659223
 30
0.0
 10
189.2075170481253
 20
-7.026500570472876
 30
0.0
 10
189.8655151965935
 20
-6.838701269157483
 30
0.0
 10
190.5111587266561
 20
-6.650478203057252
 30
0.0
 10
191.1444485938612
 20
-6.461831540007762
 30
0.0
 10
191.7653845128997
 20
-6.272761217324368
 30
0.0
 10
192.3739664066834
 20
-6.083267299642501
 30
0.0
 10
192.9701945858713
 20
-5.893349575033846
 30
0.0
 10
193.5540676067344
 20
-5.703008806931511
 30
0.0
 10
194.1255906066648
 20
-5.512242157890166
 30
0.0
 10
195.9731699350648
 20
-4.880530427617845
 30
0.0
 10
198.8038948021831
 20
-3.797737441521301
 30
0.0
 10
201.5289402290497
 20
-2.462992199831822
 30
0.0
 10
203.2708836448771
 20
-1.375319647681839
 30
0.0
 10
204.3560395755291
 20
-0.5409854759721999
 30
0.0
 10
205.1892112707814
 20
0.2928627130580688
 30
0.0
 10
205.6516748022199
 20
0.9561477729680412
 30
0.0
 10
205.8905296015864
 20
1.44595603749862
 30
0.0
 10
206.0084581358846
 20
1.762732931713279
 30
0.0
 10
206.0895848334154
 20
2.079034805054121
 30
0.0
 10
206.1339177510638
 20
2.394864723537032
 30
0.0
 10
206.1414499125405
 20
2.710221375327872
 30
0.0
 10
206.1121985043265
 20
3.025105221447451
 30
0.0
 10
206.046099976865
 20
3.339513939818378
 30
0.0
 10
205.9433902153646
 20
3.653454527858847
 30
0.0
 10
205.8031887842507
 20
3.966899464979402
 30
0.0
 10
205.6287859206036
 20
4.279950109504081
 30
0.0
 10
205.4816537458546
 20
4.487937602866171
 30
0.0
 10
205.4080320446259
 20
4.592009965839878
 30
0.0
  0
SPLINE
  5
10F
330
1B
100
AcDbEntity
 67
     1
  8
0
  6
Continuous
 62
     7
370
    25
100
AcDbSpline
210
0.0
220
0.0
230
1.0
 70
     8
 71
     3
 72
    22
 73
    18
 74
     0
 42
0.000000001
 43
0.00000001
 40
0.0
 40
0.0
 40
0.0
 40
0.0
 40
0.1250000000000007
 40
0.1250000000000007
 40
0.1875000000000008
 40
0.1875000000000008
 40
0.250000000000001
 40
0.250000000000001
 40
0.5000000000000018
 40
0.5000000000000018
 40
0.5625000000000017
 40
0.5625000000000017
 40
0.6250000000000016
 40
0.6250000000000016
 40
0.7500000000000012
 40
0.7500000000000012
 40
1.0
 40
1.0
 40
1.0
 40
1.0
 10
-205.4080320446259
 20
4.592009965839864
 30
0.0
 10
-205.8341744812659
 20
4.017441948632915
 30
0.0
 10
-206.0724925033346
 20
3.441007373424988
 30
0.0
 10
-206.151558660834
 20
2.573588724151366
 30
0.0
 10
-206.1312150136167
 20
2.283985089604604
 30
0.0
 10
-205.9983713013436
 20
1.70386199016262
 30
0.0
 10
-205.8858843854145
 20
1.415238445213379
 30
0.0
 10
-205.1066388086355
 20
-0.0145629981055315
 30
0.0
 10
-203.7934480186245
 20
-1.122923226837234
 30
0.0
 10
-201.4349978700485
 20
-2.47149518173087
 30
0.0
 10
-200.9271625385169
 20
-2.739350368127787
 30
0.0
 10
-199.8417897687421
 20
-3.271475476180425
 30
0.0
 10
-199.262728556371
 20
-3.536368516730865
 30
0.0
 10
-197.4412044646404
 20
-4.319112765935058
 30
0.0
 10
-196.1120854244857
 20
-4.826212693706624
 30
0.0
 10
-191.8273319268339
 20
-6.309344534312873
 30
0.0
 10
-188.5762208316607
 20
-7.247454884399852
 30
0.0
 10
-185.0000000000001
 20
-8.143840550704537
 30
0.0
  0
SPLINE
  5
129
330
1B
100
AcDbEntity
 67
     1
  8
0
  6
Continuous
 62
     7
370
    25
100
AcDbSpline
210
0.0
220
0.0
230
1.0
 70
     8
 71
     3
 72
    14
 73
    10
 74
     0
 42
0.000000001
 43
0.00000001
 40
0.0
 40
0.0
 40
0.0
 40
0.0
 40
0.1249999999999935
 40
0.1249999999999935
 40
0.2499999999999871
 40
0.2499999999999871
 40
0.4999999999999917
 40
0.4999999999999917
 40
1.0
 40
1.0
 40
1.0
 40
1.0
 10
169.1961977947457
 20
-23.90322199421549
 30
0.0
 10
169.2007233619549
 20
-23.83202760687958
 30
0.0
 10
169.2131066366311
 20
-23.75124431954689
 30
0.0
 10
169.2552169888579
 20
-23.58659828022452
 30
0.0
 10
169.2846370156763
 20
-23.50246137741311
 30
0.0
 10
169.3887834471504
 20
-23.25381430135215
 30
0.0
 10
169.4782875535767
 20
-23.09338000697803
 30
0.0
 10
169.727263668065
 20
-22.64295976485678
 30
0.0
 10
169.8629197751498
 20
-22.38435349244944
 30
0.0
 10
169.8510050958809
 20
-22.15700786872886
 30
0.0
  0
SPLINE
  5
12B
330
1B
100
AcDbEntity
 67
     1
  8
0
  6
Continuous
 62
     7
370
    25
100
AcDbSpline
210
0.0
220
0.0
230
1.0
 70
     8
 71
     3
 72
    14
 73
    10
 74
     0
 42
0.000000001
 43
0.00000001
 40
0.0
 40
0.0
 40
0.0
 40
0.0
 40
0.5000000000000028
 40
0.5000000000000028
 40
0.750000000000011
 40
0.750000000000011
 40
0.8750000000000056
 40
0.8750000000000056
 40
1.0
 40
1.0
 40
1.0
 40
1.0
 10
-169.8510050958809
 20
-22.15700786872883
 30
0.0
 10
-169.8629336088848
 20
-22.38461745583766
 30
0.0
 10
-169.7270978700865
 20
-22.64326083075431
 30
0.0
 10
-169.4782397374484
 20
-23.09346594902348
 30
0.0
 10
-169.3886864769806
 20
-23.25400708207254
 30
0.0
 10
-169.2845723720621
 20
-23.50263511065191
 30
0.0
 10
-169.2551694779875
 20
-23.58675410726913
 30
0.0
 10
-169.2130908974542
 20
-23.75133583703904
 30
0.0
 10
-169.2007206021208
 20
-23.83207102346956
 30
0.0
 10
-169.1961977947457
 20
-23.9032219942155
 30
0.0
  0
SPLINE
  5
12D
330
1B
100
AcDbEntity
 67
     1
  8
0
  6
Continuous
 62
     7
370
    25
100
AcDbSpline
210
0.0
220
0.0
230
1.0
 70
    24
 71
     3
 72
    18
 73
    14
 74
     0
 42
0.000000001
 43
0.00000001
 40
0.0
 40
0.0
 40
0.0
 40
0.0
 40
0.2499999999999981
 40
0.2499999999999981
 40
0.4999999999999962
 40
0.4999999999999962
 40
0.7499999999999943
 40
0.7499999999999943
 40
0.8749999999999971
 40
0.8749999999999971
 40
0.9374999999999986
 40
0.9374999999999986
 40
1.0
 40
1.0
 40
1.0
 40
1.0
 10
172.8468937001446
 20
-24.99999999999999
 30
0.0
 10
172.8468937001447
 20
-25.00000000000001
 30
0.0
 10
172.807621697617
 20
-24.99999999999999
 30
0.0
 10
172.6611194872222
 20
-24.99999999999999
 30
0.0
 10
172.5544085035532
 20
-25.00000000000001
 30
0.0
 10
172.283676255034
 20
-24.99999999999999
 30
0.0
 10
172.1189799597587
 20
-25.0
 30
0.0
 10
171.8397968908042
 20
-24.99999999999999
 30
0.0
 10
171.7412875267389
 20
-24.99999999999999
 30
0.0
 10
171.5911841557736
 20
-24.99999999999999
 30
0.0
 10
171.5407546402064
 20
-25.00000000000001
 30
0.0
 10
171.4424765065874
 20
-25.0
 30
0.0
 10
171.3927493951304
 20
-25.00000000000001
 30
0.0
 10
171.3542486889354
 20
-24.99999999999999
 30
0.0
  0
SPLINE
  5
12F
330
1B
100
AcDbEntity
 67
     1
  8
0
  6
Continuous
 62
     7
370
    25
100
AcDbSpline
210
0.0
220
0.0
230
1.0
 70
    24
 71
     3
 72
    18
 73
    14
 74
     0
 42
0.000000001
 43
0.00000001
 40
0.0
 40
0.0
 40
0.0
 40
0.0
 40
0.0624999999999937
 40
0.0624999999999937
 40
0.1249999999999874
 40
0.1249999999999874
 40
0.2499999999999892
 40
0.2499999999999892
 40
0.4999999999999928
 40
0.4999999999999928
 40
0.7499999999999963
 40
0.7499999999999963
 40
1.0
 40
1.0
 40
1.0
 40
1.0
 10
-171.3542486889354
 20
-24.99999999999999
 30
0.0
 10
-171.3927580901146
 20
-25.00000000000001
 30
0.0
 10
-171.4424677173802
 20
-25.0
 30
0.0
 10
-171.5407071359629
 20
-25.0
 30
0.0
 10
-171.5911132218694
 20
-25.00000000000001
 30
0.0
 10
-171.7411524542945
 20
-25.0
 30
0.0
 10
-171.8396277579184
 20
-25.00000000000001
 30
0.0
 10
-172.1187657459503
 20
-24.99999999999999
 30
0.0
 10
-172.2835079120595
 20
-25.0
 30
0.0
 10
-172.5543986285873
 20
-24.99999999999999
 30
0.0
 10
-172.6612208844221
 20
-24.99999999999999
 30
0.0
 10
-172.8078307003666
 20
-24.99999999999999
 30
0.0
 10
-172.8468937001446
 20
-24.99999999999999
 30
0.0
 10
-172.8468937001446
 20
-24.99999999999999
 30
0.0
  0
SPLINE
  5
136
330
1B
100
AcDbEntity
 67
     1
  8
0
  6
Continuous
 62
     8
370
    25
100
AcDbSpline
210
0.0
220
0.0
230
1.0
 70
     8
 71
     3
 72
    16
 73
    12
 74
     0
 42
0.000000001
 43
0.00000001
 40
0.0
 40
0.0
 40
0.0
 40
0.0
 40
0.1764007439725523
 40
0.2648471311479298
 40
0.3533400423647034
 40
0.4564201588516219
 40
0.5595004516250157
 40
0.6660359268858058
 40
0.7725857614463154
 40
0.8888119292192538
 40
1.0
 40
1.0
 40
1.0
 40
1.0
 10
-187.8164376531514
 20
7.031446807485391
 30
0.0
 10
-188.0321674774229
 20
6.520355096849721
 30
0.0
 10
-188.3560630788509
 20
5.753004742950947
 30
0.0
 10
-189.1905971133742
 20
4.734079713193139
 30
0.0
 10
-189.9852824496687
 20
3.932297937598
 30
0.0
 10
-190.4859469619129
 20
3.079805976791985
 30
0.0
 10
-190.6102911966972
 20
2.16696073040587
 30
0.0
 10
-190.3209299963589
 20
1.244459848636213
 30
0.0
 10
-189.597513330305
 20
0.2924000841953989
 30
0.0
 10
-188.4784472832396
 20
-0.6593735707478843
 30
0.0
 10
-187.3898425530998
 20
-1.287148876470044
 30
0.0
 10
-186.8575985715584
 20
-1.594082714786255
 30
0.0
  0
SPLINE
  5
137
330
1B
100
AcDbEntity
 67
     1
  8
0
  6
Continuous
 62
     8
370
    25
100
AcDbSpline
210
0.0
220
0.0
230
1.0
 70
     8
 71
     3
 72
    14
 73
    10
 74
     0
 42
0.000000001
 43
0.00000001
 40
0.0
 40
0.0
 40
0.0
 40
0.0
 40
0.0625006922650667
 40
0.1814699384689124
 40
0.3004139738074416
 40
0.4904969066732377
 40
0.680619349396433
 40
0.839979678320312
 40
1.0
 40
1.0
 40
1.0
 40
1.0
 10
187.1349225727869
 20
-1.418154216595642
 30
0.0
 10
187.4385890130089
 20
-1.25014684278342
 30
0.0
 10
188.3202805307358
 20
-0.762339641245148
 30
0.0
 10
189.3691487666635
 20
0.0728978023681534
 30
0.0
 10
190.4096908849726
 20
1.27910984796855
 30
0.0
 10
190.7766190748832
 20
2.713080662566897
 30
0.0
 10
189.7083241143477
 20
4.236775372011079
 30
0.0
 10
188.3785635970537
 20
5.671760131177102
 30
0.0
 10
188.0040709279426
 20
6.577593953808081
 30
0.0
 10
187.816437653151
 20
7.031446807485412
 30
0.0
  0
SPLINE
  5
138
330
1B
100
AcDbEntity
 67
     1
  8
0
  6
Continuous
 62
     8
370
    25
100
AcDbSpline
210
0.0
220
0.0
230
1.0
 70
     8
 71
     3
 72
    16
 73
    12
 74
     0
 42
0.000000001
 43
0.00000001
 40
0.0
 40
0.0
 40
0.0
 40
0.0
 40
0.1130847558010231
 40
0.2261975337144087
 40
0.3397439325053286
 40
0.453308749733601
 40
0.5557307010959848
 40
0.6585370829270789
 40
0.7611188664934453
 40
0.8863167698662977
 40
1.0
 40
1.0
 40
1.0
 40
1.0
 10
189.076821971173
 20
7.329280931281934
 30
0.0
 10
189.3350766765917
 20
6.828153847788912
 30
0.0
 10
189.8516500822825
 20
5.82577550279724
 30
0.0
 10
191.1700215975177
 20
4.336564760700531
 30
0.0
 10
191.9753130573949
 20
2.826057307667232
 30
0.0
 10
191.5657629089269
 20
1.35409687106202
 30
0.0
 10
190.2631129868049
 20
-0.0436027802416458
 30
0.0
 10
188.2635861403361
 20
-1.355493393931637
 30
0.0
 10
185.4244297337552
 20
-2.710913623311169
 30
0.0
 10
181.8669784493779
 20
-4.051643667768688
 30
0.0
 10
178.874120319928
 20
-4.923556589159078
 30
0.0
 10
177.4498229110308
 20
-5.338498848700274
 30
0.0
  0
SPLINE
  5
13A
330
1B
100
AcDbEntity
 67
     1
  8
0
  6
Continuous
 62
     8
370
    25
100
AcDbSpline
210
0.0
220
0.0
230
1.0
 70
     8
 71
     3
 72
    17
 73
    13
 74
     0
 42
0.000000001
 43
0.00000001
 40
0.0
 40
0.0
 40
0.0
 40
0.0
 40
0.0730428258724466
 40
0.1952288639873013
 40
0.3170477049551388
 40
0.3968861063608699
 40
0.4767080586532532
 40
0.5725740917497173
 40
0.6687554730245748
 40
0.7645697535049831
 40
0.8823050456334834
 40
1.0
 40
1.0
 40
1.0
 40
1.0
 10
-178.225335846895
 20
-5.100735064020451
 30
0.0
 10
-179.1306015278097
 20
-4.841254670654966
 30
0.0
 10
-181.550195627308
 20
-4.147715478836384
 30
0.0
 10
-184.8649097807339
 20
-2.938791755787616
 30
0.0
 10
-187.7123131403554
 20
-1.649814136048138
 30
0.0
 10
-189.6247259659616
 20
-0.4850703141518198
 30
0.0
 10
-190.9314737450687
 20
0.5979325756255636
 30
0.0
 10
-191.7212162586174
 20
1.77443942341949
 30
0.0
 10
-191.8767571569956
 20
3.032530976032365
 30
0.0
 10
-191.1349978794995
 20
4.376753124798655
 30
0.0
 10
-189.8845902883732
 20
5.7982249399708
 30
0.0
 10
-189.3460473195756
 20
6.818987232077488
 30
0.0
 10
-189.0768219711734
 20
7.329280931281938
 30
0.0
  0
SPLINE
  5
13F
330
1B
100
AcDbEntity
 67
     1
  8
0
  6
Continuous
 62
     8
370
    25
100
AcDbSpline
210
0.0
220
0.0
230
1.0
 70
     8
 71
     3
 72
     9
 73
     5
 74
     0
 42
0.000000001
 43
0.00000001
 40
0.0
 40
0.0
 40
0.0
 40
0.0
 40
0.3773886530682632
 40
1.0
 40
1.0
 40
1.0
 40
1.0
 10
-170.0182408620753
 20
-7.838089046924054
 30
0.0
 10
-169.8295899822145
 20
-7.956676143347136
 30
0.0
 10
-169.3297051066968
 20
-8.270906832211093
 30
0.0
 10
-169.2184845518175
 20
-8.31748048979717
 30
0.0
 10
-169.1492373723376
 20
-8.346477777478379
 30
0.0
  0
SPLINE
  5
140
330
1B
100
AcDbEntity
 67
     1
  8
0
  6
Continuous
 62
     8
370
    25
100
AcDbSpline
210
0.0
220
0.0
230
1.0
 70
     8
 71
     3
 72
    10
 73
     6
 74
     0
 42
0.000000001
 43
0.00000001
 40
0.0
 40
0.0
 40
0.0
 40
0.0
 40
0.4597406734979231
 40
0.9218903043619079
 40
1.0
 40
1.0
 40
1.0
 40
1.0
 10
169.1278231695547
 20
-8.357874682404857
 30
0.0
 10
169.1770853784222
 20
-8.339674713922989
 30
0.0
 10
169.2758679211561
 20
-8.30317941244038
 30
0.0
 10
169.6194506192222
 20
-8.084989269252253
 30
0.0
 10
169.9480453620949
 20
-7.882616836959719
 30
0.0
 10
169.9955529831485
 20
-7.853358204454
 30
0.0
  0
LINE
  5
145
330
1B
100
AcDbEntity
 67
     1
  8
0
  6
Continuous
 62
     7
370
    25
100
AcDbLine
 10
206.1363728435
 20
2.6173851252
 30
0.0
 11
206.1363728435
 21
4.5920099658
 31
0.0
  0
LINE
  5
146
330
1B
100
AcDbEntity
 67
     1
  8
0
  6
Continuous
 62
     7
370
    25
100
AcDbLine
 10
-206.1363728435
 20
4.5920099658
 30
0.0
 11
-206.1363728435
 21
2.6173851252
 31
0.0
  0
LINE
  5
147
330
1B
100
AcDbEntity
 67
     1
  8
0
  6
Continuous
 62
     7
370
    25
100
AcDbLine
 10
-35.0
 20
-18.0
 30
0.0
 11
-35.0
 21
-47.0
 31
0.0
  0
LINE
  5
148
330
1B
100
AcDbEntity
 67
     1
  8
0
  6
Continuous
 62
     7
370
    25
100
AcDbLine
 10
35.0
 20
-47.0
 30
0.0
 11
35.0
 21
-18.0
 31
0.0
  0
LINE
  5
149
330
1B
100
AcDbEntity
 67
     1
  8
0
  6
Continuous
 62
     7
370
    25
100
AcDbLine
 10
-169.0993345638
 20
-8.3639385963
 30
0.0
 11
-169.0978219958
 21
-8.3289070867
 31
0.0
  0
LINE
  5
14A
330
1B
100
AcDbEntity
 67
     1
  8
0
  6
Continuous
 62
     7
370
    25
100
AcDbLine
 10
310.0
 20
115.0
 30
0.0
 11
-310.0
 21
115.0
 31
0.0
  0
LINE
  5
14B
330
1B
100
AcDbEntity
 67
     1
  8
0
  6
Continuous
 62
     7
370
    25
100
AcDbLine
 10
305.0
 20
40.0
 30
0.0
 11
305.0
 21
120.0
 31
0.0
  0
LINE
  5
14C
330
1B
100
AcDbEntity
 67
     1
  8
0
  6
Continuous
 62
     7
370
    25
100
AcDbLine
 10
-310.0
 20
45.0
 30
0.0
 11
310.0
 21
45.0
 31
0.0
  0
LINE
  5
14D
330
1B
100
AcDbEntity
 67
     1
  8
0
  6
Continuous
 62
     7
370
    25
100
AcDbLine
 10
-305.0
 20
120.0
 30
0.0
 11
-305.0
 21
40.0
 31
0.0
  0
LINE
  5
14E
330
1B
100
AcDbEntity
 67
     1
  8
0
  6
Continuous
 62
     7
370
    25
100
AcDbLine
 10
305.0
 20
40.0
 30
0.0
 11
-305.0
 21
40.0
 31
0.0
  0
LINE
  5
14F
330
1B
100
AcDbEntity
 67
     1
  8
0
  6
Continuous
 62
     7
370
    25
100
AcDbLine
 10
-305.0
 20
120.0
 30
0.0
 11
305.0
 21
120.0
 31
0.0
  0
LINE
  5
150
330
1B
100
AcDbEntity
 67
     1
  8
0
  6
Continuous
 62
     7
370
    25
100
AcDbLine
 10
310.0
 20
115.0
 30
0.0
 11
310.0
 21
45.0
 31
0.0
  0
LINE
  5
151
330
1B
100
AcDbEntity
 67
     1
  8
0
  6
Continuous
 62
     7
370
    25
100
AcDbLine
 10
-310.0
 20
45.0
 30
0.0
 11
-310.0
 21
115.0
 31
0.0
  0
LINE
  5
152
330
1B
100
AcDbEntity
 67
     1
  8
0
  6
Continuous
 62
     7
370
    25
100
AcDbLine
 10
-75.0
 20
-15.0
 30
0.0
 11
75.0
 21
-15.0
 31
0.0
  0
LINE
  5
153
330
1B
100
AcDbEntity
 67
     1
  8
0
  6
Continuous
 62
     7
370
    25
100
AcDbLine
 10
235.0
 20
-25.0
 30
0.0
 11
235.0
 21
40.0
 31
0.0
  0
LINE
  5
154
330
1B
100
AcDbEntity
 67
     1
  8
0
  6
Continuous
 62
     7
370
    25
100
AcDbLine
 10
-235.0
 20
40.0
 30
0.0
 11
-235.0
 21
-25.0
 31
0.0
  0
LINE
  5
155
330
1B
100
AcDbEntity
 67
     1
  8
0
  6
Continuous
 62
     7
370
    25
100
AcDbLine
 10
-231.1799571951
 20
36.9096314323
 30
0.0
 11
-235.0
 21
36.9096314323
 31
0.0
  0
LINE
  5
156
330
1B
100
AcDbEntity
 67
     1
  8
0
  6
Continuous
 62
     7
370
    25
100
AcDbLine
 10
235.0
 20
36.9096314323
 30
0.0
 11
231.1799571951
 21
36.9096314323
 31
0.0
  0
LINE
  5
157
330
1B
100
AcDbEntity
 67
     1
  8
0
  6
Continuous
 62
     7
370
    25
100
AcDbLine
 10
194.0448839587
 20
9.1203629464
 30
0.0
 11
235.0
 21
9.1203629464
 31
0.0
  0
LINE
  5
158
330
1B
100
AcDbEntity
 67
     1
  8
0
  6
Continuous
 62
     7
370
    25
100
AcDbLine
 10
240.0
 20
35.0
 30
0.0
 11
240.0
 21
-20.0
 31
0.0
  0
LINE
  5
159
330
1B
100
AcDbEntity
 67
     1
  8
0
  6
Continuous
 62
     7
370
    25
100
AcDbLine
 10
-235.0
 20
9.1203629464
 30
0.0
 11
-194.0448839587
 21
9.1203629464
 31
0.0
  0
LINE
  5
15A
330
1B
100
AcDbEntity
 67
     1
  8
0
  6
Continuous
 62
     7
370
    25
100
AcDbLine
 10
-240.0
 20
-20.0
 30
0.0
 11
-240.0
 21
35.0
 31
0.0
  0
LINE
  5
15B
330
1B
100
AcDbEntity
 67
     1
  8
0
  6
Continuous
 62
     7
370
    25
100
AcDbLine
 10
-189.0768219712
 20
7.3292809313
 30
0.0
 11
-235.0
 21
7.3292809313
 31
0.0
  0
LINE
  5
15C
330
1B
100
AcDbEntity
 67
     1
  8
0
  6
Continuous
 62
     7
370
    25
100
AcDbLine
 10
235.0
 20
7.3292809313
 30
0.0
 11
189.0768219712
 21
7.3292809313
 31
0.0
  0
LINE
  5
15D
330
1B
100
AcDbEntity
 67
     1
  8
0
  6
Continuous
 62
     7
370
    25
100
AcDbLine
 10
185.0
 20
-22.9591717265
 30
0.0
 11
185.0
 21
-8.1438405507
 31
0.0
  0
LINE
  5
15E
330
1B
100
AcDbEntity
 67
     1
  8
0
  6
Continuous
 62
     7
370
    25
100
AcDbLine
 10
225.0
 20
-22.9591717265
 30
0.0
 11
185.0
 21
-22.9591717265
 31
0.0
  0
LINE
  5
15F
330
1B
100
AcDbEntity
 67
     1
  8
0
  6
Continuous
 62
     7
370
    25
100
AcDbLine
 10
225.0
 20
4.5920099658
 30
0.0
 11
225.0
 21
-22.9591717265
 31
0.0
  0
LINE
  5
160
330
1B
100
AcDbEntity
 67
     1
  8
0
  6
Continuous
 62
     7
370
    25
100
AcDbLine
 10
205.4080320446
 20
4.5920099658
 30
0.0
 11
225.0
 21
4.5920099658
 31
0.0
  0
LINE
  5
161
330
1B
100
AcDbEntity
 67
     1
  8
0
  6
Continuous
 62
     7
370
    25
100
AcDbLine
 10
172.8468937001
 20
-24.9368608745
 30
0.0
 11
235.0
 21
-24.9368608745
 31
0.0
  0
LINE
  5
162
330
1B
100
AcDbEntity
 67
     1
  8
0
  6
Continuous
 62
     7
370
    25
100
AcDbLine
 10
-235.0
 20
-24.9368608745
 30
0.0
 11
-172.8468937001
 21
-24.9368608745
 31
0.0
  0
LINE
  5
163
330
1B
100
AcDbEntity
 67
     1
  8
0
  6
Continuous
 62
     7
370
    25
100
AcDbLine
 10
-225.0
 20
-22.9591717265
 30
0.0
 11
-185.0
 21
-22.9591717265
 31
0.0
  0
LINE
  5
164
330
1B
100
AcDbEntity
 67
     1
  8
0
  6
Continuous
 62
     7
370
    25
100
AcDbLine
 10
-185.0
 20
-22.9591717265
 30
0.0
 11
-185.0
 21
-8.1438405507
 31
0.0
  0
LINE
  5
165
330
1B
100
AcDbEntity
 67
     1
  8
0
  6
Continuous
 62
     7
370
    25
100
AcDbLine
 10
-205.4080320446
 20
4.5920099658
 30
0.0
 11
-225.0
 21
4.5920099658
 31
0.0
  0
LINE
  5
166
330
1B
100
AcDbEntity
 67
     1
  8
0
  6
Continuous
 62
     7
370
    25
100
AcDbLine
 10
-225.0
 20
4.5920099658
 30
0.0
 11
-225.0
 21
-22.9591717265
 31
0.0
  0
LINE
  5
167
330
1B
100
AcDbEntity
 67
     1
  8
0
  6
Continuous
 62
     7
370
    25
100
AcDbLine
 10
225.0
 20
-18.0644036023
 30
0.0
 11
185.0
 21
-18.0644036023
 31
0.0
  0
LINE
  5
168
330
1B
100
AcDbEntity
 67
     1
  8
0
  6
Continuous
 62
     7
370
    25
100
AcDbLine
 10
-225.0
 20
-18.0644036023
 30
0.0
 11
-185.0
 21
-18.0644036023
 31
0.0
  0
LINE
  5
169
330
1B
100
AcDbEntity
 67
     1
  8
0
  6
Continuous
 62
     7
370
    25
100
AcDbLine
 10
32.0
 20
-50.0
 30
0.0
 11
-32.0
 21
-50.0
 31
0.0
  0
LINE
  5
16A
330
1B
100
AcDbEntity
 67
     1
  8
0
  6
Continuous
 62
     7
370
    25
100
AcDbLine
 10
-169.1492373723
 20
-8.3464777775
 30
0.0
 11
-169.1278231696
 21
-8.3578746824
 31
0.0
  0
LINE
  5
16B
330
1B
100
AcDbEntity
 67
     1
  8
0
  6
Continuous
 62
     7
370
    25
100
AcDbLine
 10
-169.1278231696
 20
-8.3578746824
 30
0.0
 11
-169.8510050959
 21
-22.1570078687
 31
0.0
  0
LINE
  5
16C
330
1B
100
AcDbEntity
 67
     1
  8
0
  6
Continuous
 62
     7
370
    25
100
AcDbLine
 10
169.8510050959
 20
-22.1570078687
 30
0.0
 11
169.1135738309
 21
-8.0859811042
 31
0.0
  0
LINE
  5
16D
330
1B
100
AcDbEntity
 67
     1
  8
0
  6
Continuous
 62
     7
370
    25
100
AcDbLine
 10
172.8468937001
 20
-25.0
 30
0.0
 11
172.8468937001
 21
-24.9368608745
 31
0.0
  0
LINE
  5
16E
330
1B
100
AcDbEntity
 67
     1
  8
0
  6
Continuous
 62
     7
370
    25
100
AcDbLine
 10
235.0
 20
-25.0
 30
0.0
 11
172.8468937001
 21
-25.0
 31
0.0
  0
LINE
  5
16F
330
1B
100
AcDbEntity
 67
     1
  8
0
  6
Continuous
 62
     7
370
    25
100
AcDbLine
 10
-172.8468937001
 20
-24.9368608745
 30
0.0
 11
-172.8468937001
 21
-25.0
 31
0.0
  0
LINE
  5
170
330
1B
100
AcDbEntity
 67
     1
  8
0
  6
Continuous
 62
     7
370
    25
100
AcDbLine
 10
-172.8468937001
 20
-25.0
 30
0.0
 11
-235.0
 21
-25.0
 31
0.0
  0
LINE
  5
171
330
1B
100
AcDbEntity
 67
     1
  8
0
  6
Continuous
 62
     7
370
    25
100
AcDbLine
 10
-166.5533680812
 20
-16.5563130734
 30
0.0
 11
-169.5492566855
 21
-16.3993052046
 31
0.0
  0
LINE
  5
172
330
1B
100
AcDbEntity
 67
     1
  8
0
  6
Continuous
 62
     7
370
    25
100
AcDbLine
 10
169.1961977947
 20
-23.9032219942
 30
0.0
 11
166.5533680812
 21
-16.5563130734
 31
0.0
  0
LINE
  5
173
330
1B
100
AcDbEntity
 67
     1
  8
0
  6
Continuous
 62
     7
370
    25
100
AcDbLine
 10
166.5533680812
 20
-16.5563130734
 30
0.0
 11
169.5492566855
 21
-16.3993052046
 31
0.0
  0
LINE
  5
174
330
1B
100
AcDbEntity
 67
     1
  8
0
  6
Continuous
 62
     7
370
    25
100
AcDbLine
 10
-166.5533680812
 20
-16.5563130734
 30
0.0
 11
-169.1961977947
 21
-23.9032219942
 31
0.0
  0
LINE
  5
175
330
1B
100
AcDbEntity
 67
     1
  8
0
  6
Continuous
 62
     7
370
    25
100
AcDbLine
 10
-157.7505334147
 20
-11.1104104523
 30
0.0
 11
-169.1042486889
 21
-23.9843134833
 31
0.0
  0
LINE
  5
176
330
1B
100
AcDbEntity
 67
     1
  8
0
  6
Continuous
 62
     7
370
    25
100
AcDbLine
 10
-169.1961977947
 20
-23.9032219942
 30
0.0
 11
-169.1042486889
 21
-23.9843134833
 31
0.0
  0
LINE
  5
177
330
1B
100
AcDbEntity
 67
     1
  8
0
  6
Continuous
 62
     7
370
    25
100
AcDbLine
 10
169.1042486889
 20
-23.9843134833
 30
0.0
 11
169.1961977947
 21
-23.9032219942
 31
0.0
  0
LINE
  5
178
330
1B
100
AcDbEntity
 67
     1
  8
0
  6
Continuous
 62
     7
370
    25
100
AcDbLine
 10
169.1042486889
 20
-23.9843134833
 30
0.0
 11
157.759876234
 21
-11.1210042137
 31
0.0
  0
LINE
  5
179
330
1B
100
AcDbEntity
 67
     1
  8
0
  6
Continuous
 62
     8
370
    25
100
AcDbLine
 10
171.9194936475
 20
-7.2410137057
 30
0.0
 11
172.8468937001
 21
-24.9368608745
 31
0.0
  0
LINE
  5
17A
330
1B
100
AcDbEntity
 67
     1
  8
0
  6
Continuous
 62
     8
370
    25
100
AcDbLine
 10
-172.8468937001
 20
-24.9368608745
 30
0.0
 11
-171.9202801195
 21
-7.2560204861
 31
0.0
  0
LINE
  5
17B
330
1B
100
AcDbEntity
 67
     1
  8
0
  6
Continuous
 62
     8
370
    25
100
AcDbLine
 10
35.0
 20
-18.0
 30
0.0
 11
-35.0
 21
-18.0
 31
0.0
  0
LINE
  5
17C
330
1B
100
AcDbEntity
 67
     1
  8
0
  6
Continuous
 62
     8
370
    25
100
AcDbLine
 10
-35.0
 20
-47.0
 30
0.0
 11
35.0
 21
-47.0
 31
0.0
  0
LINE
  5
17D
330
1B
100
AcDbEntity
 67
     1
  8
0
  6
Continuous
 62
     8
370
    25
100
AcDbLine
 10
-166.1566864393
 20
-8.9871764427
 30
0.0
 11
-166.5533680812
 21
-16.5563130734
 31
0.0
  0
LINE
  5
17E
330
1B
100
AcDbEntity
 67
     1
  8
0
  6
Continuous
 62
     8
370
    25
100
AcDbLine
 10
166.5533680812
 20
-16.5563130734
 30
0.0
 11
166.1567026401
 21
-8.9874855719
 31
0.0
  0
LINE
  5
17F
330
1B
100
AcDbEntity
 67
     1
  8
0
  6
Continuous
 62
     8
370
    25
100
AcDbLine
 10
161.06320802
 20
-10.3310567105
 30
0.0
 11
166.5533680812
 21
-16.5563130734
 31
0.0
  0
LINE
  5
180
330
1B
100
AcDbEntity
 67
     1
  8
0
  6
Continuous
 62
     8
370
    25
100
AcDbLine
 10
-166.5533680812
 20
-16.5563130734
 30
0.0
 11
-161.0678178522
 21
-10.336283769
 31
0.0
  0
ARC
  5
181
330
1B
100
AcDbEntity
 67
     1
  8
0
  6
Continuous
 62
     7
370
    25
100
AcDbCircle
 10
-38.0
 20
-18.0
 30
0.0
 40
3.000000000000014
100
AcDbArc
 50
0.0
 51
90.0
  0
ARC
  5
182
330
1B
100
AcDbEntity
 67
     1
  8
0
  6
Continuous
 62
     7
370
    25
100
AcDbCircle
 10
38.0
 20
-18.0
 30
0.0
 40
3.0
100
AcDbArc
 50
90.0
 51
180.0
  0
ARC
  5
183
330
1B
100
AcDbEntity
 67
     1
  8
0
  6
Continuous
 62
     7
370
    25
100
AcDbCircle
 10
-32.0
 20
-47.0
 30
0.0
 40
2.999999999999986
100
AcDbArc
 50
180.0
 51
270.0
  0
ARC
  5
184
330
1B
100
AcDbEntity
 67
     1
  8
0
  6
Continuous
 62
     7
370
    25
100
AcDbCircle
 10
32.0
 20
-47.0
 30
0.0
 40
2.999999999999986
100
AcDbArc
 50
270.0
 51
0.0
  0
ARC
  5
185
330
1B
100
AcDbEntity
 67
     1
  8
0
  6
Continuous
 62
     7
370
    25
100
AcDbCircle
 10
305.0
 20
45.0
 30
0.0
 40
5.0
100
AcDbArc
 50
270.0
 51
0.0
  0
ARC
  5
186
330
1B
100
AcDbEntity
 67
     1
  8
0
  6
Continuous
 62
     7
370
    25
100
AcDbCircle
 10
305.0
 20
115.0
 30
0.0
 40
5.0
100
AcDbArc
 50
0.0
 51
90.0
  0
ARC
  5
187
330
1B
100
AcDbEntity
 67
     1
  8
0
  6
Continuous
 62
     7
370
    25
100
AcDbCircle
 10
-305.0
 20
45.0
 30
0.0
 40
5.0
100
AcDbArc
 50
180.0
 51
270.0
  0
ARC
  5
188
330
1B
100
AcDbEntity
 67
     1
  8
0
  6
Continuous
 62
     7
370
    25
100
AcDbCircle
 10
-305.0
 20
115.0
 30
0.0
 40
5.0
100
AcDbArc
 50
90.0
 51
180.0
  0
ARC
  5
189
330
1B
100
AcDbEntity
 67
     1
  8
0
  6
Continuous
 62
     7
370
    25
100
AcDbCircle
 10
231.9151339364
 20
37.3747821334
 30
0.0
 40
2.625282154420407
100
AcDbArc
 50
90.400972887
 51
134.8149846546
  0
ARC
  5
18A
330
1B
100
AcDbEntity
 67
     1
  8
0
  6
Continuous
 62
     7
370
    25
100
AcDbCircle
 10
-231.9151339364
 20
37.3747821334
 30
0.0
 40
2.625282154420465
100
AcDbArc
 50
45.1850153454
 51
89.599027113
  0
ARC
  5
18B
330
1B
100
AcDbEntity
 67
     1
  8
0
  6
Continuous
 62
     7
370
    25
100
AcDbCircle
 10
245.0
 20
35.0
 30
0.0
 40
5.0
100
AcDbArc
 50
90.0
 51
180.0
  0
ARC
  5
18C
330
1B
100
AcDbEntity
 67
     1
  8
0
  6
Continuous
 62
     7
370
    25
100
AcDbCircle
 10
-245.0
 20
35.0
 30
0.0
 40
5.000000000000014
100
AcDbArc
 50
0.0
 51
90.0
  0
ARC
  5
18D
330
1B
100
AcDbEntity
 67
     1
  8
0
  6
Continuous
 62
     7
370
    25
100
AcDbCircle
 10
228.3259869637
 20
34.2552723636
 30
0.0
 40
3.89753359796248
100
AcDbArc
 50
42.9246202983
 51
74.6571597226
  0
ARC
  5
18E
330
1B
100
AcDbEntity
 67
     1
  8
0
  6
Continuous
 62
     7
370
    25
100
AcDbCircle
 10
-228.3259869637
 20
34.2552723636
 30
0.0
 40
3.897533597962656
100
AcDbArc
 50
105.3428402774
 51
137.0753797017
  0
ARC
  5
18F
330
1B
100
AcDbEntity
 67
     1
  8
0
  6
Continuous
 62
     7
370
    25
100
AcDbCircle
 10
190.3051518861
 20
7.0171420416
 30
0.0
 40
4.290586690588238
100
AcDbArc
 50
29.3533495543
 51
55.924686579
  0
ARC
  5
190
330
1B
100
AcDbEntity
 67
     1
  8
0
  6
Continuous
 62
     7
370
    25
100
AcDbCircle
 10
-190.3051518861
 20
7.0171420416
 30
0.0
 40
4.290586690588703
100
AcDbArc
 50
124.075313421
 51
150.6466504457
  0
ARC
  5
191
330
1B
100
AcDbEntity
 67
     1
  8
0
  6
Continuous
 62
     7
370
    25
100
AcDbCircle
 10
-189.1359971891
 20
4.2630761516
 30
0.0
 40
3.066775742967519
100
AcDbArc
 50
64.5149325262
 51
88.8943760641
  0
ARC
  5
192
330
1B
100
AcDbEntity
 67
     1
  8
0
  6
Continuous
 62
     7
370
    25
100
AcDbCircle
 10
189.1359971891
 20
4.2630761516
 30
0.0
 40
3.066775742967758
100
AcDbArc
 50
91.1056239359
 51
115.4850674738
  0
ARC
  5
193
330
1B
100
AcDbEntity
 67
     1
  8
0
  6
Continuous
 62
     7
370
    25
100
AcDbCircle
 10
-235.1554475351
 20
12.1741875691
 30
0.0
 40
4.847399742707957
100
AcDbArc
 50
181.9639001158
 51
271.8376893607
  0
ARC
  5
194
330
1B
100
AcDbEntity
 67
     1
  8
0
  6
Continuous
 62
     7
370
    25
100
AcDbCircle
 10
235.1554475351
 20
12.1741875691
 30
0.0
 40
4.847399742707959
100
AcDbArc
 50
268.1623106393
 51
358.0360998842
  0
ARC
  5
195
330
1B
100
AcDbEntity
 67
     1
  8
0
  6
Continuous
 62
     7
370
    25
100
AcDbCircle
 10
235.0313702353
 20
-19.9682285605
 30
0.0
 40
4.968731343427596
100
AcDbArc
 50
269.6382589637
 51
359.6336324768
  0
ARC
  5
196
330
1B
100
AcDbEntity
 67
     1
  8
0
  6
Continuous
 62
     7
370
    25
100
AcDbCircle
 10
-235.0313702353
 20
-19.9682285605
 30
0.0
 40
4.968731343427594
100
AcDbArc
 50
180.3663675232
 51
270.3617410363
  0
ARC
  5
197
330
1B
100
AcDbEntity
 67
     1
  8
0
  6
Continuous
 62
     7
370
    25
100
AcDbCircle
 10
-172.8102418117
 20
-21.9720779743
 30
0.0
 40
2.96500944453918
100
AcDbArc
 50
269.2917216478
 51
356.4240976455
  0
ARC
  5
198
330
1B
100
AcDbEntity
 67
     1
  8
0
  6
Continuous
 62
     7
370
    25
100
AcDbCircle
 10
172.8102418117
 20
-21.9720779743
 30
0.0
 40
2.965009444539128
100
AcDbArc
 50
183.5759023545
 51
270.7082783523
  0
ARC
  5
199
330
1B
100
AcDbEntity
 67
     1
  8
0
  6
Continuous
 62
     7
370
    25
100
AcDbCircle
 10
235.0
 20
-20.0
 30
0.0
 40
5.000000000000014
100
AcDbArc
 50
270.0
 51
0.0
  0
ARC
  5
19A
330
1B
100
AcDbEntity
 67
     1
  8
0
  6
Continuous
 62
     7
370
    25
100
AcDbCircle
 10
-235.0
 20
-20.0
 30
0.0
 40
5.000000000000014
100
AcDbArc
 50
180.0
 51
270.0
  0
ARC
  5
19B
330
1B
100
AcDbEntity
 67
     1
  8
0
  6
Continuous
 62
     7
370
    25
100
AcDbCircle
 10
172.8468937001
 20
-22.0
 30
0.0
 40
3.0
100
AcDbArc
 50
183.0
 51
270.0
  0
ARC
  5
19C
330
1B
100
AcDbEntity
 67
     1
  8
0
  6
Continuous
 62
     7
370
    25
100
AcDbCircle
 10
-172.8468937001
 20
-22.0
 30
0.0
 40
3.000000000000017
100
AcDbArc
 50
270.0
 51
357.0
  0
ARC
  5
19D
330
1B
100
AcDbEntity
 67
     1
  8
0
  6
Continuous
 62
     7
370
    25
100
AcDbCircle
 10
171.3800908347
 20
-22.2776428066
 30
0.0
 40
2.722479844742749
100
AcDbArc
 50
216.6621266589
 51
269.4561325691
  0
ARC
  5
19E
330
1B
100
AcDbEntity
 67
     1
  8
0
  6
Continuous
 62
     7
370
    25
100
AcDbCircle
 10
-171.3800908347
 20
-22.2776428066
 30
0.0
 40
2.72247984474278
100
AcDbArc
 50
270.5438674309
 51
323.3378733411
  0
ARC
  5
19F
330
1B
100
AcDbEntity
 67
     1
  8
0
  6
Continuous
 62
     7
370
    25
100
AcDbCircle
 10
171.3542486889
 20
-22.0
 30
0.0
 40
2.999999999999954
100
AcDbArc
 50
221.4096221093
 51
270.0
  0
ARC
  5
1A0
330
1B
100
AcDbEntity
 67
     1
  8
0
  6
Continuous
 62
     7
370
    25
100
AcDbCircle
 10
-171.3542486889
 20
-22.0
 30
0.0
 40
2.999999999999979
100
AcDbArc
 50
270.0
 51
318.5903778907
  0
VIEWPORT
  5
37A
330
1B
100
AcDbEntity
 67
     1
  8
0
100
AcDbViewport
 10
0.0
 20
0.0
 30
0.0
 40
205.6
 41
156.0
 68
     1
 69
     1
 12
0.0
 22
0.0
 13
0.0
 23
0.0
 14
10.0
 24
10.0
 15
10.0
 25
10.0
 16
0.0
 26
0.0
 36
1.0
 17
0.0
 27
0.0
 37
0.0
 42
50.0
 43
0.0
 44
0.0
 45
479.8365758755
 50
0.0
 51
0.0
 72
   100
 90
   557152
  1

281
     0
 71
     1
 74
     0
110
0.0
120
0.0
130
0.0
111
1.0
121
0.0
131
0.0
112
0.0
122
1.0
132
0.0
 79
     0
146
0.0
  0
ENDSEC
  0
SECTION
  2
OBJECTS
  0
DICTIONARY
  5
C
330
0
100
AcDbDictionary
281
     1
  3
ACAD_GROUP
350
D
  3
ACAD_LAYOUT
350
1A
  3
ACAD_MLINESTYLE
350
17
  3
ACAD_PLOTSETTINGS
350
19
  3
ACAD_PLOTSTYLENAME
350
E
  3
ACAD_SCALELIST
350
47
  0
DICTIONARY
  5
D
102
{ACAD_REACTORS
330
C
102
}
330
C
100
AcDbDictionary
281
     1
  0
DICTIONARY
  5
1A
102
{ACAD_REACTORS
330
C
102
}
330
C
100
AcDbDictionary
281
     1
  3
_Back
350
229
  3
_Front
350
1E
  3
_Isometric
350
2EA
  3
_Right
350
26
  3
Model
350
22
  0
DICTIONARY
  5
17
102
{ACAD_REACTORS
330
C
102
}
330
C
100
AcDbDictionary
281
     1
  3
Standard
350
18
  0
DICTIONARY
  5
19
102
{ACAD_REACTORS
330
C
102
}
330
C
100
AcDbDictionary
281
     1
  0
ACDBDICTIONARYWDFLT
  5
E
102
{ACAD_REACTORS
330
C
102
}
330
C
100
AcDbDictionary
281
     1
  3
Normal
350
F
100
AcDbDictionaryWithDefault
340
F
  0
DICTIONARY
  5
47
102
{ACAD_REACTORS
330
C
102
}
330
C
100
AcDbDictionary
281
     1
  3
A0
350
48
  3
A1
350
49
  3
A2
350
4A
  3
A3
350
4B
  3
A4
350
4C
  3
A5
350
4D
  3
A6
350
4E
  3
A7
350
4F
  3
A8
350
50
  3
A9
350
51
  3
B0
350
52
  3
B1
350
53
  3
B2
350
54
  3
B3
350
55
  3
B4
350
56
  3
B5
350
57
  3
B6
350
58
  3
B7
350
59
  3
B8
350
5A
  3
B9
350
5B
  3
C0
350
5C
  3
C1
350
5D
  3
C2
350
5E
  3
C3
350
5F
  3
C4
350
60
  3
C5
350
61
  3
C6
350
62
  3
C7
350
63
  3
C8
350
64
  3
C9
350
65
  3
D0
350
66
  3
D1
350
67
  3
D2
350
68
  0
LAYOUT
  5
229
102
{ACAD_REACTORS
330
1A
102
}
330
1A
100
AcDbPlotSettings
  1

  2
none_device
  4
ISO_A4_(210.00_x_297.00_MM)
  6

 40
7.5
 41
20.0
 42
7.5
 43
20.0
 44
210.0
 45
297.0
 46
0.0
 47
0.0
 48
0.0
 49
0.0
140
0.0
141
0.0
142
1.0
143
2.4124513619
 70
   688
 72
     1
 73
     1
 74
     1
  7

 75
     0
147
0.414516129
148
310.0
149
50.0
100
AcDbLayout
  1
_Back
 70
     1
 71
     3
 10
0.0
 20
0.0
 11
0.0
 21
0.0
 12
0.0
 22
0.0
 32
0.0
 14
0.0
 24
0.0
 34
0.0
 15
0.0
 25
0.0
 35
0.0
146
0.0
 13
0.0
 23
0.0
 33
0.0
 16
1.0
 26
0.0
 36
0.0
 17
0.0
 27
1.0
 37
0.0
 76
     0
330
228
331
37E
  0
LAYOUT
  5
1E
102
{ACAD_REACTORS
330
1A
102
}
330
1A
100
AcDbPlotSettings
  1

  2
none_device
  4
ISO_A4_(210.00_x_297.00_MM)
  6

 40
7.5
 41
20.0
 42
7.5
 43
20.0
 44
210.0
 45
297.0
 46
0.0
 47
0.0
 48
0.0
 49
0.0
140
0.0
141
0.0
142
1.0
143
2.4124513619
 70
   688
 72
     1
 73
     1
 74
     1
  7

 75
     0
147
0.414516129
148
310.0
149
50.0
100
AcDbLayout
  1
_Front
 70
     1
 71
     1
 10
-358.2490272374
 20
-68.093385214
 11
358.2490272374
 21
438.5214007782
 12
0.0
 22
0.0
 32
0.0
 14
-310.0
 24
-50.0
 34
0.0
 15
310.0
 25
120.0
 35
0.0
146
0.0
 13
0.0
 23
0.0
 33
0.0
 16
1.0
 26
0.0
 36
0.0
 17
0.0
 27
1.0
 37
0.0
 76
     0
330
1B
331
37A
  0
LAYOUT
  5
2EA
102
{ACAD_REACTORS
330
1A
102
}
330
1A
100
AcDbPlotSettings
  1

  2
none_device
  4
ISO_A4_(210.00_x_297.00_MM)
  6

 40
7.5
 41
20.0
 42
7.5
 43
20.0
 44
210.0
 45
297.0
 46
0.0
 47
0.0
 48
0.0
 49
0.0
140
0.0
141
0.0
142
1.0
143
2.4124513619
 70
   688
 72
     1
 73
     1
 74
     1
  7

 75
     0
147
0.414516129
148
310.0
149
50.0
100
AcDbLayout
  1
_Isometric
 70
     1
 71
     4
 10
0.0
 20
0.0
 11
0.0
 21
0.0
 12
0.0
 22
0.0
 32
0.0
 14
0.0
 24
0.0
 34
0.0
 15
0.0
 25
0.0
 35
0.0
146
0.0
 13
0.0
 23
0.0
 33
0.0
 16
1.0
 26
0.0
 36
0.0
 17
0.0
 27
1.0
 37
0.0
 76
     0
330
2E9
331
380
  0
LAYOUT
  5
26
102
{ACAD_REACTORS
330
1A
102
}
330
1A
100
AcDbPlotSettings
  1

  2
none_device
  4
ISO_A4_(210.00_x_297.00_MM)
  6

 40
7.5
 41
20.0
 42
7.5
 43
20.0
 44
210.0
 45
297.0
 46
0.0
 47
0.0
 48
0.0
 49
0.0
140
0.0
141
0.0
142
1.0
143
2.4124513619
 70
   688
 72
     1
 73
     1
 74
     1
  7

 75
     0
147
0.414516129
148
310.0
149
50.0
100
AcDbLayout
  1
_Right
 70
     1
 71
     2
 10
0.0
 20
0.0
 11
0.0
 21
0.0
 12
0.0
 22
0.0
 32
0.0
 14
0.0
 24
0.0
 34
0.0
 15
0.0
 25
0.0
 35
0.0
146
0.0
 13
0.0
 23
0.0
 33
0.0
 16
1.0
 26
0.0
 36
0.0
 17
0.0
 27
1.0
 37
0.0
 76
     0
330
23
331
37C
  0
LAYOUT
  5
22
102
{ACAD_REACTORS
330
1A
102
}
330
1A
100
AcDbPlotSettings
  1

  2
none_device
  4
ANSI_A_(11.00_x_8.50_Inches)
  6

 40
6.35
 41
19.05
 42
6.35000508
 43
19.05000254
 44
279.4
 45
215.9
 46
133.34999746
 47
88.89999873
 48
0.0
 49
0.0
140
0.0
141
0.0
142
0.0175645161
143
1.0
 70
  1696
 72
     0
 73
     0
 74
     0
  7

 75
     0
147
0.0179189148
148
-1300.4909072572
149
0.0
100
AcDbLayout
  1
Model
 70
     1
 71
     0
 10
0.0
 20
0.0
 11
420.0
 21
297.0
 12
0.0
 22
0.0
 32
0.0
 14
-310.0
 24
-227.5
 34
0.0
 15
310.0
 25
227.5
 35
0.0
146
0.0
 13
0.0
 23
0.0
 33
0.0
 16
1.0
 26
0.0
 36
0.0
 17
0.0
 27
1.0
 37
0.0
 76
     0
330
1F
331
29
  0
MLINESTYLE
  5
18
102
{ACAD_REACTORS
330
17
102
}
330
17
100
AcDbMlineStyle
  2
Standard
 70
     0
  3

 62
   256
 51
90.0
 52
90.0
 71
     2
 49
0.5
 62
   256
  6
BYLAYER
 49
-0.5
 62
   256
  6
BYLAYER
  0
ACDBPLACEHOLDER
  5
F
102
{ACAD_REACTORS
330
E
102
}
330
E
  0
SCALE
  5
48
102
{ACAD_REACTORS
330
47
102
}
330
47
100
AcDbScale
 70
     0
300
1:1
140
1.0
141
1.0
290
     1
  0
SCALE
  5
49
102
{ACAD_REACTORS
330
47
102
}
330
47
100
AcDbScale
 70
     0
300
1:2
140
1.0
141
2.0
290
     0
  0
SCALE
  5
4A
102
{ACAD_REACTORS
330
47
102
}
330
47
100
AcDbScale
 70
     0
300
1:4
140
1.0
141
4.0
290
     0
  0
SCALE
  5
4B
102
{ACAD_REACTORS
330
47
102
}
330
47
100
AcDbScale
 70
     0
300
1:5
140
1.0
141
5.0
290
     0
  0
SCALE
  5
4C
102
{ACAD_REACTORS
330
47
102
}
330
47
100
AcDbScale
 70
     0
300
1:8
140
1.0
141
8.0
290
     0
  0
SCALE
  5
4D
102
{ACAD_REACTORS
330
47
102
}
330
47
100
AcDbScale
 70
     0
300
1:10
140
1.0
141
10.0
290
     0
  0
SCALE
  5
4E
102
{ACAD_REACTORS
330
47
102
}
330
47
100
AcDbScale
 70
     0
300
1:16
140
1.0
141
16.0
290
     0
  0
SCALE
  5
4F
102
{ACAD_REACTORS
330
47
102
}
330
47
100
AcDbScale
 70
     0
300
1:20
140
1.0
141
20.0
290
     0
  0
SCALE
  5
50
102
{ACAD_REACTORS
330
47
102
}
330
47
100
AcDbScale
 70
     0
300
1:30
140
1.0
141
30.0
290
     0
  0
SCALE
  5
51
102
{ACAD_REACTORS
330
47
102
}
330
47
100
AcDbScale
 70
     0
300
1:40
140
1.0
141
40.0
290
     0
  0
SCALE
  5
52
102
{ACAD_REACTORS
330
47
102
}
330
47
100
AcDbScale
 70
     0
300
1:50
140
1.0
141
50.0
290
     0
  0
SCALE
  5
53
102
{ACAD_REACTORS
330
47
102
}
330
47
100
AcDbScale
 70
     0
300
1:100
140
1.0
141
100.0
290
     0
  0
SCALE
  5
54
102
{ACAD_REACTORS
330
47
102
}
330
47
100
AcDbScale
 70
     0
300
2:1
140
2.0
141
1.0
290
     0
  0
SCALE
  5
55
102
{ACAD_REACTORS
330
47
102
}
330
47
100
AcDbScale
 70
     0
300
4:1
140
4.0
141
1.0
290
     0
  0
SCALE
  5
56
102
{ACAD_REACTORS
330
47
102
}
330
47
100
AcDbScale
 70
     0
300
8:1
140
8.0
141
1.0
290
     0
  0
SCALE
  5
57
102
{ACAD_REACTORS
330
47
102
}
330
47
100
AcDbScale
 70
     0
300
10:1
140
10.0
141
1.0
290
     0
  0
SCALE
  5
58
102
{ACAD_REACTORS
330
47
102
}
330
47
100
AcDbScale
 70
     0
300
100:1
140
100.0
141
1.0
290
     0
  0
SCALE
  5
59
102
{ACAD_REACTORS
330
47
102
}
330
47
100
AcDbScale
 70
     0
300
1/128" = 1'-0"
140
0.0078125
141
12.0
290
     0
  0
SCALE
  5
5A
102
{ACAD_REACTORS
330
47
102
}
330
47
100
AcDbScale
 70
     0
300
1/64" = 1'-0"
140
0.015625
141
12.0
290
     0
  0
SCALE
  5
5B
102
{ACAD_REACTORS
330
47
102
}
330
47
100
AcDbScale
 70
     0
300
1/32" = 1'-0"
140
0.03125
141
12.0
290
     0
  0
SCALE
  5
5C
102
{ACAD_REACTORS
330
47
102
}
330
47
100
AcDbScale
 70
     0
300
1/16" = 1'-0"
140
0.0625
141
12.0
290
     0
  0
SCALE
  5
5D
102
{ACAD_REACTORS
330
47
102
}
330
47
100
AcDbScale
 70
     0
300
3/32" = 1'-0"
140
0.09375
141
12.0
290
     0
  0
SCALE
  5
5E
102
{ACAD_REACTORS
330
47
102
}
330
47
100
AcDbScale
 70
     0
300
1/8" = 1'-0"
140
0.125
141
12.0
290
     0
  0
SCALE
  5
5F
102
{ACAD_REACTORS
330
47
102
}
330
47
100
AcDbScale
 70
     0
300
3/16" = 1'-0"
140
0.1875
141
12.0
290
     0
  0
SCALE
  5
60
102
{ACAD_REACTORS
330
47
102
}
330
47
100
AcDbScale
 70
     0
300
1/4" = 1'-0"
140
0.25
141
12.0
290
     0
  0
SCALE
  5
61
102
{ACAD_REACTORS
330
47
102
}
330
47
100
AcDbScale
 70
     0
300
3/8" = 1'-0"
140
0.375
141
12.0
290
     0
  0
SCALE
  5
62
102
{ACAD_REACTORS
330
47
102
}
330
47
100
AcDbScale
 70
     0
300
1/2" = 1'-0"
140
0.5
141
12.0
290
     0
  0
SCALE
  5
63
102
{ACAD_REACTORS
330
47
102
}
330
47
100
AcDbScale
 70
     0
300
3/4" = 1'-0"
140
0.75
141
12.0
290
     0
  0
SCALE
  5
64
102
{ACAD_REACTORS
330
47
102
}
330
47
100
AcDbScale
 70
     0
300
1" = 1'-0"
140
1.0
141
12.0
290
     0
  0
SCALE
  5
65
102
{ACAD_REACTORS
330
47
102
}
330
47
100
AcDbScale
 70
     0
300
1-1/2" = 1'-0"
140
1.5
141
12.0
290
     0
  0
SCALE
  5
66
102
{ACAD_REACTORS
330
47
102
}
330
47
100
AcDbScale
 70
     0
300
3" = 1'-0"
140
3.0
141
12.0
290
     0
  0
SCALE
  5
67
102
{ACAD_REACTORS
330
47
102
}
330
47
100
AcDbScale
 70
     0
300
6" = 1'-0"
140
6.0
141
12.0
290
     0
  0
SCALE
  5
68
102
{ACAD_REACTORS
330
47
102
}
330
47
100
AcDbScale
 70
     0
300
1'-0" = 1'-0"
140
12.0
141
12.0
290
     0
  0
ENDSEC
  0
EOF
