  0
SECTION
  2
HEADER
  9
$ACADVER
  1
AC1015
  9
$ACADMAINTVER
 70
     6
  9
$DWGCODEPAGE
  3
ANSI_1252
  9
$INSBASE
 10
0.0
 20
0.0
 30
0.0
  9
$EXTMIN
 10
-250.0
 20
-142.0
 30
0.0
  9
$EXTMAX
 10
250.0
 20
0.0
 30
0.0
  9
$LIMMIN
 10
0.0
 20
0.0
  9
$LIMMAX
 10
420.0
 20
297.0
  9
$ORTHOMODE
 70
     0
  9
$REGENMODE
 70
     1
  9
$FILLMODE
 70
     1
  9
$QTEXTMODE
 70
     0
  9
$MIRRTEXT
 70
     1
  9
$LTSCALE
 40
1.0
  9
$ATTMODE
 70
     1
  9
$TEXTSIZE
 40
3.5
  9
$TRACEWID
 40
1.0
  9
$TEXTSTYLE
  7
Standard
  9
$CLAYER
  8
0
  9
$CELTYPE
  6
ByLayer
  9
$CECOLOR
 62
   256
  9
$CELTSCALE
 40
1.0
  9
$DISPSILH
 70
     0
  9
$DIMSCALE
 40
1.0
  9
$DIMASZ
 40
3.302
  9
$DIMEXO
 40
1.0
  9
$DIMDLI
 40
3.75
  9
$DIMRND
 40
0.0
  9
$DIMDLE
 40
0.0
  9
$DIMEXE
 40
1.0
  9
$DIMTP
 40
0.0
  9
$DIMTM
 40
0.0
  9
$DIMTXT
 40
3.5
  9
$DIMCEN
 40
2.5
  9
$DIMTSZ
 40
0.0
  9
$DIMTOL
 70
     0
  9
$DIMLIM
 70
     0
  9
$DIMTIH
 70
     1
  9
$DIMTOH
 70
     1
  9
$DIMSE1
 70
     0
  9
$DIMSE2
 70
     0
  9
$DIMTAD
 70
     1
  9
$DIMZIN
 70
     1
  9
$DIMBLK
  1

  9
$DIMASO
 70
     1
  9
$DIMSHO
 70
     1
  9
$DIMPOST
  1

  9
$DIMAPOST
  1

  9
$DIMALT
 70
     0
  9
$DIMALTD
 70
     3
  9
$DIMALTF
 40
0.0393700787
  9
$DIMLFAC
 40
1.0
  9
$DIMTOFL
 70
     1
  9
$DIMTVP
 40
0.0
  9
$DIMTIX
 70
     0
  9
$DIMSOXD
 70
     0
  9
$DIMSAH
 70
     0
  9
$DIMBLK1
  1

  9
$DIMBLK2
  1

  9
$DIMSTYLE
  2
ISO-25
  9
$DIMCLRD
 70
     0
  9
$DIMCLRE
 70
     0
  9
$DIMCLRT
 70
     0
  9
$DIMTFAC
 40
1.0
  9
$DIMGAP
 40
1.524
  9
$DIMJUST
 70
     0
  9
$DIMSD1
 70
     0
  9
$DIMSD2
 70
     0
  9
$DIMTOLJ
 70
     0
  9
$DIMTZIN
 70
     1
  9
$DIMALTZ
 70
     0
  9
$DIMALTTZ
 70
     0
  9
$DIMUPT
 70
     0
  9
$DIMDEC
 70
     2
  9
$DIMTDEC
 70
     2
  9
$DIMALTU
 70
     2
  9
$DIMALTTD
 70
     3
  9
$DIMTXSTY
  7
Standard
  9
$DIMAUNIT
 70
     0
  9
$DIMADEC
 70
     2
  9
$DIMALTRND
 40
0.0
  9
$DIMAZIN
 70
     0
  9
$DIMDSEP
 70
    44
  9
$DIMATFIT
 70
     3
  9
$DIMFRAC
 70
     0
  9
$DIMLDRBLK
  1

  9
$DIMLUNIT
 70
     2
  9
$DIMLWD
 70
    -2
  9
$DIMLWE
 70
    -2
  9
$DIMTMOVE
 70
     0
  9
$LUNITS
 70
     2
  9
$LUPREC
 70
     2
  9
$SKETCHINC
 40
1.0
  9
$FILLETRAD
 40
10.0
  9
$AUNITS
 70
     0
  9
$AUPREC
 70
     2
  9
$MENU
  1
.
  9
$ELEVATION
 40
0.0
  9
$PELEVATION
 40
0.0
  9
$THICKNESS
 40
0.0
  9
$LIMCHECK
 70
     0
  9
$CHAMFERA
 40
0.0
  9
$CHAMFERB
 40
0.0
  9
$CHAMFERC
 40
0.0
  9
$CHAMFERD
 40
0.0
  9
$SKPOLY
 70
     0
  9
$TDCREATE
 40
2459803.655467998
  9
$TDUCREATE
 40
2459803.613801331
  9
$TDUPDATE
 40
2459803.655540972
  9
$TDUUPDATE
 40
2459803.613874306
  9
$TDINDWG
 40
0.0000000116
  9
$TDUSRTIMER
 40
0.0000000116
  9
$USRTIMER
 70
     1
  9
$ANGBASE
 50
0.0
  9
$ANGDIR
 70
     0
  9
$PDMODE
 70
     0
  9
$PDSIZE
 40
-1.0
  9
$PLINEWID
 40
0.0
  9
$SPLFRAME
 70
     0
  9
$SPLINETYPE
 70
     6
  9
$SPLINESEGS
 70
     8
  9
$HANDSEED
  5
3A2
  9
$SURFTAB1
 70
     6
  9
$SURFTAB2
 70
     6
  9
$SURFTYPE
 70
     6
  9
$SURFU
 70
     6
  9
$SURFV
 70
     6
  9
$UCSBASE
  2

  9
$UCSNAME
  2

  9
$UCSORG
 10
0.0
 20
0.0
 30
0.0
  9
$UCSXDIR
 10
1.0
 20
0.0
 30
0.0
  9
$UCSYDIR
 10
0.0
 20
1.0
 30
0.0
  9
$UCSORTHOREF
  2

  9
$UCSORTHOVIEW
 70
     0
  9
$UCSORGTOP
 10
0.0
 20
0.0
 30
0.0
  9
$UCSORGBOTTOM
 10
0.0
 20
0.0
 30
0.0
  9
$UCSORGLEFT
 10
0.0
 20
0.0
 30
0.0
  9
$UCSORGRIGHT
 10
0.0
 20
0.0
 30
0.0
  9
$UCSORGFRONT
 10
0.0
 20
0.0
 30
0.0
  9
$UCSORGBACK
 10
0.0
 20
0.0
 30
0.0
  9
$PUCSBASE
  2

  9
$PUCSNAME
  2

  9
$PUCSORG
 10
0.0
 20
0.0
 30
0.0
  9
$PUCSXDIR
 10
1.0
 20
0.0
 30
0.0
  9
$PUCSYDIR
 10
0.0
 20
1.0
 30
0.0
  9
$PUCSORTHOREF
  2

  9
$PUCSORTHOVIEW
 70
     0
  9
$PUCSORGTOP
 10
0.0
 20
0.0
 30
0.0
  9
$PUCSORGBOTTOM
 10
0.0
 20
0.0
 30
0.0
  9
$PUCSORGLEFT
 10
0.0
 20
0.0
 30
0.0
  9
$PUCSORGRIGHT
 10
0.0
 20
0.0
 30
0.0
  9
$PUCSORGFRONT
 10
0.0
 20
0.0
 30
0.0
  9
$PUCSORGBACK
 10
0.0
 20
0.0
 30
0.0
  9
$USERI1
 70
     0
  9
$USERI2
 70
     0
  9
$USERI3
 70
     0
  9
$USERI4
 70
     0
  9
$USERI5
 70
     0
  9
$USERR1
 40
0.0
  9
$USERR2
 40
0.0
  9
$USERR3
 40
0.0
  9
$USERR4
 40
0.0
  9
$USERR5
 40
0.0
  9
$WORLDVIEW
 70
     1
  9
$SHADEDGE
 70
     3
  9
$SHADEDIF
 70
    70
  9
$TILEMODE
 70
     1
  9
$MAXACTVP
 70
    64
  9
$PINSBASE
 10
0.0
 20
0.0
 30
0.0
  9
$PLIMCHECK
 70
     0
  9
$PEXTMIN
 10
-250.0
 20
-142.0
 30
0.0
  9
$PEXTMAX
 10
250.0
 20
0.0
 30
0.0
  9
$PLIMMIN
 10
-288.9105058366
 20
-156.5914396887
  9
$PLIMMAX
 10
288.9105058366
 20
251.9688715953
  9
$UNITMODE
 70
     0
  9
$VISRETAIN
 70
     1
  9
$PLINEGEN
 70
     0
  9
$PSLTSCALE
 70
     1
  9
$TREEDEPTH
 70
  3020
  9
$CMLSTYLE
  2
Standard
  9
$CMLJUST
 70
     0
  9
$CMLSCALE
 40
20.0
  9
$PROXYGRAPHICS
 70
     1
  9
$MEASUREMENT
 70
     1
  9
$CELWEIGHT
370
    -1
  9
$ENDCAPS
280
     0
  9
$JOINSTYLE
280
     0
  9
$LWDISPLAY
290
     1
  9
$INSUNITS
 70
     4
  9
$HYPERLINKBASE
  1

  9
$STYLESHEET
  1

  9
$XEDIT
290
     1
  9
$CEPSNTYPE
380
     0
  9
$PSTYLEMODE
290
     1
  9
$FINGERPRINTGUID
  2
{fb836323-4cd9-45de-9fd9-9d9325ef1e56}
  9
$VERSIONGUID
  2
{FAEB1C32-E019-11D5-929B-00C0DF256EC4}
  9
$EXTNAMES
290
     1
  9
$PSVPSCALE
 40
0.0
  9
$OLESTARTUP
290
     0
  0
ENDSEC
  0
SECTION
  2
CLASSES
  0
CLASS
  1
ACDBDICTIONARYWDFLT
  2
AcDbDictionaryWithDefault
  3
ObjectDBX Classes
 90
        0
280
     0
281
     0
  0
CLASS
  1
VISUALSTYLE
  2
AcDbVisualStyle
  3
ObjectDBX Classes
 90
     4095
280
     0
281
     0
  0
CLASS
  1
MATERIAL
  2
AcDbMaterial
  3
ObjectDBX Classes
 90
     1153
280
     0
281
     0
  0
CLASS
  1
SCALE
  2
AcDbScale
  3
ObjectDBX Classes
 90
     1153
280
     0
281
     0
  0
CLASS
  1
TABLESTYLE
  2
AcDbTableStyle
  3
ObjectDBX Classes
 90
     4095
280
     0
281
     0
  0
CLASS
  1
MLEADERSTYLE
  2
AcDbMLeaderStyle
  3
ACDB_MLEADERSTYLE_CLASS
 90
     4095
280
     0
281
     0
  0
CLASS
  1
SUN
  2
AcDbSun
  3
SCENEOE
 90
     1153
280
     0
281
     0
  0
CLASS
  1
ACDBPLACEHOLDER
  2
AcDbPlaceHolder
  3
ObjectDBX Classes
 90
        0
280
     0
281
     0
  0
CLASS
  1
LAYOUT
  2
AcDbLayout
  3
ObjectDBX Classes
 90
        0
280
     0
281
     0
  0
ENDSEC
  0
SECTION
  2
TABLES
  0
TABLE
  2
VPORT
  5
8
330
0
100
AcDbSymbolTable
 70
     1
  0
VPORT
  5
29
330
8
100
AcDbSymbolTableRecord
100
AcDbViewportTableRecord
  2
*Active
 70
     0
 10
0.0
 20
0.0
 11
1.0
 21
1.0
 12
0.0
 22
-71.0
 13
0.0
 23
0.0
 14
10.0
 24
10.0
 15
10.0
 25
10.0
 16
0.0
 26
0.0
 36
1.0
 17
0.0
 27
0.0
 37
0.0
 40
144.84
 41
3.5211267606
 42
50.0
 43
0.0
 44
0.0
 50
0.0
 51
0.0
 71
     0
 72
   100
 73
     1
 74
     3
 75
     0
 76
     0
 77
     0
 78
     0
281
     0
 65
     1
110
0.0
120
0.0
130
0.0
111
1.0
121
0.0
131
0.0
112
0.0
122
1.0
132
0.0
 79
     0
146
0.0
  0
ENDTAB
  0
TABLE
  2
LTYPE
  5
5
330
0
100
AcDbSymbolTable
 70
     6
  0
LTYPE
  5
14
330
5
100
AcDbSymbolTableRecord
100
AcDbLinetypeTableRecord
  2
ByBlock
 70
     0
  3

 72
    65
 73
     0
 40
0.0
  0
LTYPE
  5
15
330
5
100
AcDbSymbolTableRecord
100
AcDbLinetypeTableRecord
  2
ByLayer
 70
     0
  3

 72
    65
 73
     0
 40
0.0
  0
LTYPE
  5
16
330
5
100
AcDbSymbolTableRecord
100
AcDbLinetypeTableRecord
  2
Continuous
 70
     0
  3
Solid line
 72
    65
 73
     0
 40
0.0
  0
LTYPE
  5
6E
330
5
100
AcDbSymbolTableRecord
100
AcDbLinetypeTableRecord
  2
HIDDEN
 70
     0
  3
Hidden __ __ __ __ __ __ __ __ __ __ __ __ __ __
 72
    65
 73
     2
 40
1.905
 49
1.27
 74
     0
 49
-0.635
 74
     0
  0
LTYPE
  5
6F
330
5
100
AcDbSymbolTableRecord
100
AcDbLinetypeTableRecord
  2
PHANTOM
 70
     0
  3
Phantom ______  __  __  ______  __  __  ______
 72
    65
 73
     6
 40
12.7
 49
6.35
 74
     0
 49
-1.27
 74
     0
 49
1.27
 74
     0
 49
-1.27
 74
     0
 49
1.27
 74
     0
 49
-1.27
 74
     0
  0
LTYPE
  5
70
330
5
100
AcDbSymbolTableRecord
100
AcDbLinetypeTableRecord
  2
CENTER
 70
     0
  3
Center ____ _ ____ _ ____ _ ____ _ ____ _ ____
 72
    65
 73
     4
 40
10.16
 49
6.35
 74
     0
 49
-1.27
 74
     0
 49
1.27
 74
     0
 49
-1.27
 74
     0
  0
LTYPE
  5
71
330
5
100
AcDbSymbolTableRecord
100
AcDbLinetypeTableRecord
  2
CENTERX2
 70
     0
  3
Center (2x) ________  __  ________  __  _____
 72
    65
 73
     4
 40
20.32
 49
12.7
 74
     0
 49
-2.54
 74
     0
 49
2.54
 74
     0
 49
-2.54
 74
     0
  0
LTYPE
  5
72
330
5
100
AcDbSymbolTableRecord
100
AcDbLinetypeTableRecord
  2
DOT2
 70
     0
  3
Dot (.5x) ........................................
 72
    65
 73
     2
 40
0.635
 49
0.0
 74
     0
 49
-0.635
 74
     0
  0
ENDTAB
  0
TABLE
  2
LAYER
  5
2
330
0
100
AcDbSymbolTable
 70
     1
  0
LAYER
  5
10
330
2
100
AcDbSymbolTableRecord
100
AcDbLayerTableRecord
  2
0
 70
     0
 62
     7
  6
Continuous
370
    -3
390
F
  0
ENDTAB
  0
TABLE
  2
STYLE
  5
3
330
0
100
AcDbSymbolTable
 70
     1
  0
STYLE
  5
11
330
3
100
AcDbSymbolTableRecord
100
AcDbTextStyleTableRecord
  2
Standard
 70
     0
 40
0.0
 41
1.0
 50
0.0
 71
     0
 42
3.5
  3
txt
  4

  0
ENDTAB
  0
TABLE
  2
VIEW
  5
6
330
0
100
AcDbSymbolTable
 70
     0
  0
ENDTAB
  0
TABLE
  2
UCS
  5
7
330
0
100
AcDbSymbolTable
 70
     0
  0
ENDTAB
  0
TABLE
  2
APPID
  5
9
330
0
100
AcDbSymbolTable
 70
     1
  0
APPID
  5
12
330
9
100
AcDbSymbolTableRecord
100
AcDbRegAppTableRecord
  2
ACAD
 70
     0
  0
ENDTAB
  0
TABLE
  2
DIMSTYLE
  5
A
330
0
100
AcDbSymbolTable
 70
     1
100
AcDbDimStyleTable
  0
DIMSTYLE
105
27
330
A
100
AcDbSymbolTableRecord
100
AcDbDimStyleTableRecord
  2
ISO-25
 70
     0
 41
2.5
 42
0.625
 43
3.75
 44
1.25
 73
     0
 74
     0
 77
     1
 78
     8
140
2.5
141
2.5
143
0.0393700787
147
0.625
171
     3
172
     1
178
     0
271
     2
272
     2
274
     3
278
    44
283
     0
284
     8
340
11
  0
ENDTAB
  0
TABLE
  2
BLOCK_RECORD
  5
1
330
0
100
AcDbSymbolTable
 70
     3
  0
BLOCK_RECORD
  5
1F
330
1
100
AcDbSymbolTableRecord
100
AcDbBlockTableRecord
  2
*Model_Space
340
22
  0
BLOCK_RECORD
  5
1B
330
1
100
AcDbSymbolTableRecord
100
AcDbBlockTableRecord
  2
*Paper_Space
340
1E
  0
BLOCK_RECORD
  5
23
330
1
100
AcDbSymbolTableRecord
100
AcDbBlockTableRecord
  2
*Paper_Space0
340
26
  0
BLOCK_RECORD
  5
28C
330
1
100
AcDbSymbolTableRecord
100
AcDbBlockTableRecord
  2
*Paper_Space1
340
28D
  0
BLOCK_RECORD
  5
2DC
330
1
100
AcDbSymbolTableRecord
100
AcDbBlockTableRecord
  2
*Paper_Space2
340
2DD
  0
ENDTAB
  0
ENDSEC
  0
SECTION
  2
BLOCKS
  0
BLOCK
  5
20
330
1F
100
AcDbEntity
  8
0
100
AcDbBlockBegin
  2
*Model_Space
 70
     0
 10
0.0
 20
0.0
 30
0.0
  3
*Model_Space
  1

  0
ENDBLK
  5
21
330
1F
100
AcDbEntity
  8
0
100
AcDbBlockEnd
  0
BLOCK
  5
1C
330
1B
100
AcDbEntity
 67
     1
  8
0
100
AcDbBlockBegin
  2
*Paper_Space
 70
     0
 10
0.0
 20
0.0
 30
0.0
  3
*Paper_Space
  1

  0
ENDBLK
  5
1D
330
1B
100
AcDbEntity
 67
     1
  8
0
100
AcDbBlockEnd
  0
BLOCK
  5
24
330
23
100
AcDbEntity
  8
0
100
AcDbBlockBegin
  2
*Paper_Space0
 70
     0
 10
0.0
 20
0.0
 30
0.0
  3
*Paper_Space0
  1

  0
SPLINE
  5
228
330
23
100
AcDbEntity
  8
0
  6
Continuous
 62
     7
370
    25
100
AcDbSpline
210
0.0
220
0.0
230
1.0
 70
     8
 71
     3
 72
    16
 73
    12
 74
     0
 42
0.000000001
 43
0.00000001
 40
0.0
 40
0.0
 40
0.0
 40
0.0
 40
0.0747587318384861
 40
0.1702808190488892
 40
0.266635587279127
 40
0.3606335199244012
 40
0.4539571936958627
 40
0.5936671377776989
 40
0.733275703646988
 40
0.8730094371950352
 40
1.0
 40
1.0
 40
1.0
 40
1.0
 10
-123.6996791803036
 20
-81.09597494227329
 30
0.0
 10
-121.74933123788
 20
-82.635132094348
 30
0.0
 10
-117.3069492324749
 20
-86.14092913042496
 30
0.0
 10
-109.8109457994549
 20
-90.89035623646673
 30
0.0
 10
-101.4268251468321
 20
-95.36562942348485
 30
0.0
 10
-92.79257145866146
 20
-99.15790411737166
 30
0.0
 10
-82.63910963794429
 20
-103.030377025509
 30
0.0
 10
-70.78184730904306
 20
-106.6427984705003
 30
0.0
 10
-57.16562222084721
 20
-109.5874926529894
 30
0.0
 10
-43.77423484930602
 20
-111.4592883705617
 30
0.0
 10
-34.91495858703081
 20
-111.7727295096264
 30
0.0
 10
-30.69695335100991
 20
-111.9219625086455
 30
0.0
  0
SPLINE
  5
229
330
23
100
AcDbEntity
  8
0
  6
Continuous
 62
     7
370
    25
100
AcDbSpline
210
0.0
220
0.0
230
1.0
 70
     8
 71
     3
 72
     9
 73
     5
 74
     0
 42
0.000000001
 43
0.00000001
 40
0.0
 40
0.0
 40
0.0
 40
0.0
 40
0.5000243192807077
 40
1.0
 40
1.0
 40
1.0
 40
1.0
 10
-126.9255820693652
 20
-80.00000000000001
 30
0.0
 10
-126.3565796587606
 20
-80.04994860141164
 30
0.0
 10
-125.2186301857766
 20
-80.14984094561493
 30
0.0
 10
-124.268720694618
 20
-80.78490787904822
 30
0.0
 10
-123.7937890501542
 20
-81.10242590139386
 30
0.0
  0
SPLINE
  5
23E
330
23
100
AcDbEntity
  8
0
  6
Continuous
 62
     7
370
    25
100
AcDbSpline
210
0.0
220
0.0
230
1.0
 70
     8
 71
     3
 72
     9
 73
     5
 74
     0
 42
0.000000001
 43
0.00000001
 40
0.0
 40
0.0
 40
0.0
 40
0.0
 40
0.6687106950434216
 40
1.0
 40
1.0
 40
1.0
 40
1.0
 10
-0.0070619497408268
 20
-111.9858524292144
 30
0.0
 10
0.5682670856377705
 20
-111.9855551991987
 30
0.0
 10
1.428622751612635
 20
-111.9851107169765
 30
0.0
 10
2.295652204951672
 20
-111.9843532955843
 30
0.0
 10
2.582889789925244
 20
-111.9841023699778
 30
0.0
  0
SPLINE
  5
23F
330
23
100
AcDbEntity
  8
0
  6
Continuous
 62
     7
370
    25
100
AcDbSpline
210
0.0
220
0.0
230
1.0
 70
     8
 71
     3
 72
    28
 73
    24
 74
     0
 42
0.000000001
 43
0.00000001
 40
0.0
 40
0.0
 40
0.0
 40
0.0
 40
0.0625000000000001
 40
0.0625000000000001
 40
0.1250000000000002
 40
0.1250000000000002
 40
0.2500000000000004
 40
0.2500000000000004
 40
0.3750000000000007
 40
0.3750000000000007
 40
0.5000000000000009
 40
0.5000000000000009
 40
0.6250000000000011
 40
0.6250000000000011
 40
0.6875000000000012
 40
0.6875000000000012
 40
0.718750000000001
 40
0.718750000000001
 40
0.7500000000000009
 40
0.7500000000000009
 40
0.8750000000000004
 40
0.8750000000000004
 40
1.0
 40
1.0
 40
1.0
 40
1.0
 10
-103.6053138021138
 20
-80.41463643720951
 30
0.0
 10
-103.6053138029282
 20
-80.41463643696733
 30
0.0
 10
-103.4855318665431
 20
-80.43168829019152
 30
0.0
 10
-102.9991719678404
 20
-80.50092525380649
 30
0.0
 10
-102.632574762031
 20
-80.55311310362484
 30
0.0
 10
-101.1636251129509
 20
-80.76222905580124
 30
0.0
 10
-99.68820638098349
 20
-80.97226593019512
 30
0.0
 10
-95.84811573288448
 20
-81.5189315103575
 30
0.0
 10
-93.4848446616238
 20
-81.85536079549371
 30
0.0
 10
-88.0809482628513
 20
-82.6246458021359
 30
0.0
 10
-85.04234739437948
 20
-83.05721332701391
 30
0.0
 10
-78.553902364619
 20
-83.9808919304089
 30
0.0
 10
-75.10581772011524
 20
-84.47175252867369
 30
0.0
 10
-69.82047189158727
 20
-85.22416097639197
 30
0.0
 10
-68.03960361194096
 20
-85.47768087492405
 30
0.0
 10
-65.3607312379429
 20
-85.85903836221979
 30
0.0
 10
-64.46648565205767
 20
-85.9863408992821
 30
0.0
 10
-62.67858610447995
 20
-86.24086175128575
 30
0.0
 10
-61.78994214400993
 20
-86.36736685513422
 30
0.0
 10
-57.24229024253092
 20
-87.01475906356684
 30
0.0
 10
-53.33060849109098
 20
-87.57161617198565
 30
0.0
 10
-45.07453232918109
 20
-88.74693026699086
 30
0.0
 10
-40.73156228018581
 20
-89.36518448524814
 30
0.0
 10
-36.27225624432955
 20
-90.0
 30
0.0
  0
SPLINE
  5
247
330
23
100
AcDbEntity
  8
0
  6
Continuous
 62
     7
370
    25
100
AcDbSpline
210
0.0
220
0.0
230
1.0
 70
     8
 71
     3
 72
    42
 73
    38
 74
     0
 42
0.000000001
 43
0.00000001
 40
0.0
 40
0.0
 40
0.0
 40
0.0
 40
0.0205750259768255
 40
0.0412536283810202
 40
0.0620359320841473
 40
0.0829220600950655
 40
0.1039121335945763
 40
0.1250062719693399
 40
0.1462045928450499
 40
0.1675072121189003
 40
0.1889142439913639
 40
0.2104258009972755
 40
0.232041994036269
 40
0.2537629324025485
 40
0.2755887238140435
 40
0.2975194744409393
 40
0.3195552889335929
 40
0.3416962704498858
 40
0.3639425206819613
 40
0.3862941398824497
 40
0.4087512268900951
 40
0.431313879154881
 40
0.4539821927626148
 40
0.4767562624589985
 40
0.4996361816732148
 40
0.5595680617005006
 40
0.6228919012276941
 40
0.6896083829274854
 40
0.759718002454487
 40
0.7810726304797746
 40
0.8049076097663536
 40
0.8312228701035441
 40
0.8600183269235938
 40
0.8912938828985388
 40
0.9250494289505098
 40
0.9612848449164344
 40
1.0
 40
1.0
 40
1.0
 40
1.0
 10
79.30265690105712
 20
-134.7926817813956
 30
0.0
 10
79.30286944272585
 20
-134.7916933711257
 30
0.0
 10
79.30329559601616
 20
-134.7897115748446
 30
0.0
 10
79.30676578311139
 20
-134.7736296112481
 30
0.0
 10
79.31235681191224
 20
-134.7477927325553
 30
0.0
 10
79.32030897921646
 20
-134.7111313760815
 30
0.0
 10
79.33060137357192
 20
-134.6637864192367
 30
0.0
 10
79.34327921017416
 20
-134.6055867317313
 30
0.0
 10
79.35836526743394
 20
-134.5364608354388
 30
0.0
 10
79.3758836006278
 20
-134.4563264291943
 30
0.0
 10
79.39585294829685
 20
-134.3651208575861
 30
0.0
 10
79.41828832247091
 20
-134.2627935241577
 30
0.0
 10
79.44320039285098
 20
-134.1493085668544
 30
0.0
 10
79.47059547006431
 20
-134.024644751308
 30
0.0
 10
79.50047533129708
 20
-133.8887961013284
 30
0.0
 10
79.53283709325588
 20
-133.7417723144221
 30
0.0
 10
79.56767307709643
 20
-133.5835992190206
 30
0.0
 10
79.60497068306428
 20
-133.4143191964359
 30
0.0
 10
79.64471226222871
 20
-133.2339916081738
 30
0.0
 10
79.68687502091048
 20
-133.0426931337514
 30
0.0
 10
79.7314308299749
 20
-132.8405183504917
 30
0.0
 10
79.77834642067485
 20
-132.6275793066479
 30
0.0
 10
79.82758215920633
 20
-132.4040087718808
 30
0.0
 10
79.8790961966419
 20
-132.169949553638
 30
0.0
 10
79.96175032559474
 20
-131.7940705838935
 30
0.0
 10
80.08361216061223
 20
-131.239125946206
 30
0.0
 10
80.25525715769128
 20
-130.4578380726504
 30
0.0
 10
80.44904011754757
 20
-129.5764575372327
 30
0.0
 10
80.61128267109872
 20
-128.8389989837453
 30
0.0
 10
80.73266360251421
 20
-128.2863066117964
 30
0.0
 10
80.80883482847007
 20
-127.939139248796
 30
0.0
 10
80.89401025695258
 20
-127.5510882309205
 30
0.0
 10
80.9883752447413
 20
-127.1214882732087
 30
0.0
 10
81.09203650934514
 20
-126.649993463427
 30
0.0
 10
81.20497454224859
 20
-126.1366518632454
 30
0.0
 10
81.3270364896693
 20
-125.5820302210504
 30
0.0
 10
81.41142581180819
 20
-125.1982426104849
 30
0.0
 10
81.45501648294324
 20
-124.9999999999999
 30
0.0
  0
SPLINE
  5
24B
330
23
100
AcDbEntity
  8
0
  6
Continuous
 62
     7
370
    25
100
AcDbSpline
210
0.0
220
0.0
230
1.0
 70
     8
 71
     3
 72
    38
 73
    34
 74
     0
 42
0.000000001
 43
0.00000001
 40
0.0
 40
0.0
 40
0.0
 40
0.0
 40
0.0209591486949967
 40
0.0412128286737704
 40
0.0607610344979945
 40
0.0796037610251244
 40
0.0977410034210377
 40
0.1151727571752418
 40
0.1318990181192852
 40
0.1479197824492183
 40
0.1632350467532463
 40
0.177844808046024
 40
0.1917490638116887
 40
0.2049478120583651
 40
0.2174410513880782
 40
0.2292287810875781
 40
0.2403110012480696
 40
0.3104200716634221
 40
0.3771384415362585
 40
0.4404666073049155
 40
0.5004052522496645
 40
0.5441605593481585
 40
0.5875276006550206
 40
0.630507044245814
 40
0.6730995765721349
 40
0.7153059031013161
 40
0.7571267489825587
 40
0.7985628597406922
 40
0.83961500199887
 40
0.8802839642315224
 40
0.9205705575489591
 40
0.960475616515123
 40
1.0
 40
1.0
 40
1.0
 40
1.0
 10
81.4550164829435
 20
-125.0
 30
0.0
 10
81.44704980704073
 20
-125.1095793638913
 30
0.0
 10
81.43138460737745
 20
-125.3250497351336
 30
0.0
 10
81.40836126596835
 20
-125.6423892683248
 30
0.0
 10
81.3861961946371
 20
-125.9480602253632
 30
0.0
 10
81.36489406625508
 20
-126.2418566150337
 30
0.0
 10
81.34445368220064
 20
-126.5236293257467
 30
0.0
 10
81.32487533164745
 20
-126.7932810492133
 30
0.0
 10
81.30615892516764
 20
-127.050760839189
 30
0.0
 10
81.28830446380418
 20
-127.2960589681682
 30
0.0
 10
81.2713119298163
 20
-127.5292019216547
 30
0.0
 10
81.25518127873798
 20
-127.7502476562705
 30
0.0
 10
81.23991256034435
 20
-127.9592808819685
 30
0.0
 10
81.22550547070483
 20
-128.1564092203078
 30
0.0
 10
81.21196089727736
 20
-128.3417573424256
 30
0.0
 10
81.1992756018847
 20
-128.5154690797054
 30
0.0
 10
81.16623266332134
 20
-128.9691242111838
 30
0.0
 10
81.1151242213521
 20
-129.6733429319947
 30
0.0
 10
81.0497135128938
 20
-130.5733686662068
 30
0.0
 10
80.99159449576068
 20
-131.3712167721821
 30
0.0
 10
80.94435624755624
 20
-132.0187826809795
 30
0.0
 10
80.90620716876953
 20
-132.5445594221813
 30
0.0
 10
80.87512198765779
 20
-132.9746455051108
 30
0.0
 10
80.84699414335796
 20
-133.3644199179609
 30
0.0
 10
80.82182612757778
 20
-133.7131048227771
 30
0.0
 10
80.79961717459842
 20
-134.0201612880958
 30
0.0
 10
80.78036786479883
 20
-134.2852880504491
 30
0.0
 10
80.76407663767843
 20
-134.5084373669702
 30
0.0
 10
80.75074906884525
 20
-134.6896877765242
 30
0.0
 10
80.74036466856658
 20
-134.8296596957598
 30
0.0
 10
80.73299881058985
 20
-134.9279250207069
 30
0.0
 10
80.72837416107745
 20
-134.9887969022953
 30
0.0
 10
80.72779595763619
 20
-134.9962775847988
 30
0.0
 10
80.72750824147151
 20
-135.0
 30
0.0
  0
SPLINE
  5
253
330
23
100
AcDbEntity
  8
0
  6
Continuous
 62
     7
370
    25
100
AcDbSpline
210
0.0
220
0.0
230
1.0
 70
     8
 71
     3
 72
    31
 73
    27
 74
     0
 42
0.000000001
 43
0.00000001
 40
0.0
 40
0.0
 40
0.0
 40
0.0
 40
0.0090815417736578
 40
0.0194519792251999
 40
0.0311628241486117
 40
0.0465601238416514
 40
0.0622643947942697
 40
0.091802509248038
 40
0.1245291869507144
 40
0.1854659807863579
 40
0.2498535932259197
 40
0.3120565898081871
 40
0.3431779128707126
 40
0.3743900571338611
 40
0.4362370605624343
 40
0.4996689839639553
 40
0.5801163428560443
 40
0.6631269368293308
 40
0.7493900481103102
 40
0.8065003900621159
 40
0.8741122327894095
 40
0.9104970207510643
 40
0.9370655893762492
 40
0.959210920683946
 40
0.980197418341962
 40
1.0
 40
1.0
 40
1.0
 40
1.0
 10
-30.69945841930487
 20
-111.9701315059501
 30
0.0
 10
-30.69890115057786
 20
-111.9701297490151
 30
0.0
 10
-30.69770752289097
 20
-111.9701259857925
 30
0.0
 10
-30.68653107310054
 20
-111.9701068071821
 30
0.0
 10
-30.66371505617185
 20
-111.9700782074134
 30
0.0
 10
-30.62271416496998
 20
-111.9700612882773
 30
0.0
 10
-30.54337276826985
 20
-111.9700392306973
 30
0.0
 10
-30.39733164088626
 20
-111.9701433553818
 30
0.0
 10
-30.07383263586219
 20
-111.9706318297239
 30
0.0
 10
-29.48255296149924
 20
-111.9716274852695
 30
0.0
 10
-28.50373198512388
 20
-111.9733167061543
 30
0.0
 10
-27.4535952652301
 20
-111.9750289155687
 30
0.0
 10
-26.49644450843418
 20
-111.9766749584035
 30
0.0
 10
-25.45896787524144
 20
-111.9782387593419
 30
0.0
 10
-23.99934470801053
 20
-111.9798972195009
 30
0.0
 10
-21.82492237185027
 20
-111.9816579461124
 30
0.0
 10
-19.12699123615386
 20
-111.9831390179546
 30
0.0
 10
-15.81999690614957
 20
-111.9843006716776
 30
0.0
 10
-12.55001875315524
 20
-111.984998411962
 30
0.0
 10
-9.32800283605521
 20
-111.9854198463107
 30
0.0
 10
-6.767216104392392
 20
-111.9856187247223
 30
0.0
 10
-4.640830491108018
 20
-111.9858536919369
 30
0.0
 10
-3.23774721476851
 20
-111.9860890299522
 30
0.0
 10
-2.079067483237892
 20
-111.9861937946953
 30
0.0
 10
-1.026643762870128
 20
-111.9861568760512
 30
0.0
 10
-0.340303833380366
 20
-111.9859523789159
 30
0.0
 10
-0.007094486006258
 20
-111.9858530981455
 30
0.0
  0
SPLINE
  5
254
330
23
100
AcDbEntity
  8
0
  6
Continuous
 62
     7
370
    25
100
AcDbSpline
210
0.0
220
0.0
230
1.0
 70
     8
 71
     3
 72
    26
 73
    22
 74
     0
 42
0.000000001
 43
0.00000001
 40
0.0
 40
0.0
 40
0.0
 40
0.0
 40
0.0624999999999999
 40
0.0624999999999999
 40
0.1249999999999998
 40
0.1249999999999998
 40
0.2499999999999993
 40
0.2499999999999993
 40
0.3749999999999989
 40
0.3749999999999989
 40
0.4999999999999984
 40
0.4999999999999984
 40
0.624999999999998
 40
0.624999999999998
 40
0.6874999999999983
 40
0.6874999999999983
 40
0.7499999999999987
 40
0.7499999999999987
 40
0.8749999999999993
 40
0.8749999999999993
 40
1.0
 40
1.0
 40
1.0
 40
1.0
 10
27.27711232429745
 20
-127.1744974835124
 30
0.0
 10
27.27207347436464
 20
-127.5430753381072
 30
0.0
 10
27.2888932787714
 20
-127.908631536237
 30
0.0
 10
27.36469510637201
 20
-128.6338452331954
 30
0.0
 10
27.42458872338475
 20
-128.9968513030462
 30
0.0
 10
27.65745162989355
 20
-130.0440400392554
 30
0.0
 10
27.8820927190357
 20
-130.6934637941721
 30
0.0
 10
28.42509447690412
 20
-131.9059840025725
 30
0.0
 10
28.73473858954036
 20
-132.451207565311
 30
0.0
 10
29.40150650814905
 20
-133.4505774203166
 30
0.0
 10
29.76148984152424
 20
-133.9062170626334
 30
0.0
 10
30.49219084688731
 20
-134.7119224665804
 30
0.0
 10
30.8652570065811
 20
-135.0658473881147
 30
0.0
 10
31.43064836724037
 20
-135.5297796616961
 30
0.0
 10
31.62011957024686
 20
-135.673147659984
 30
0.0
 10
32.00051454870421
 20
-135.9371540141924
 30
0.0
 10
32.1916379385688
 20
-136.0577921904982
 30
0.0
 10
32.75728407904329
 20
-136.3795392148636
 30
0.0
 10
33.1271443237064
 20
-136.543139749657
 30
0.0
 10
33.8507177647931
 20
-136.7660780464137
 30
0.0
 10
34.20445523567839
 20
-136.8255025150054
 30
0.0
 10
34.54971912740145
 20
-136.8255025164874
 30
0.0
  0
SPLINE
  5
25E
330
23
100
AcDbEntity
  8
0
  6
Continuous
 62
     7
370
    25
100
AcDbSpline
210
0.0
220
0.0
230
1.0
 70
     8
 71
     3
 72
    24
 73
    20
 74
     0
 42
0.000000001
 43
0.00000001
 40
0.0
 40
0.0
 40
0.0
 40
0.0
 40
0.2499999999999997
 40
0.2499999999999997
 40
0.3124999999999999
 40
0.3124999999999999
 40
0.3750000000000002
 40
0.3750000000000002
 40
0.5000000000000002
 40
0.5000000000000002
 40
0.6250000000000002
 40
0.6250000000000002
 40
0.7500000000000003
 40
0.7500000000000003
 40
0.8750000000000003
 40
0.8750000000000003
 40
0.9375000000000002
 40
0.9375000000000002
 40
1.0
 40
1.0
 40
1.0
 40
1.0
 10
38.7889461111243
 20
-132.0
 30
0.0
 10
37.9993490356689
 20
-131.9999999999999
 30
0.0
 10
37.16957935926664
 20
-131.884267357213
 30
0.0
 10
36.0895695530714
 20
-131.6161448370296
 30
0.0
 10
35.87058009537714
 20
-131.555825748905
 30
0.0
 10
35.43465315677489
 20
-131.4238225716956
 30
0.0
 10
35.21748735041184
 20
-131.3521385726073
 30
0.0
 10
34.56935627952609
 20
-131.1201724358075
 30
0.0
 10
34.14156677019631
 20
-130.9432099748726
 30
0.0
 10
33.30340545154269
 20
-130.540357273247
 30
0.0
 10
32.89033722967332
 20
-130.3125374517565
 30
0.0
 10
32.12485159628992
 20
-129.81285252457
 30
0.0
 10
31.76915966052962
 20
-129.5402407427151
 30
0.0
 10
31.14469410477462
 20
-128.9339806391698
 30
0.0
 10
30.88594122644816
 20
-128.6092687611928
 30
0.0
 10
30.6165813396508
 20
-128.085674393375
 30
0.0
 10
30.54701497265974
 20
-127.9041713583518
 30
0.0
 10
30.45814163106906
 20
-127.541564509877
 30
0.0
 10
30.43778248790985
 20
-127.358786336546
 30
0.0
 10
30.4423788573567
 20
-127.1744974835124
 30
0.0
  0
SPLINE
  5
260
330
23
100
AcDbEntity
  8
0
  6
Continuous
 62
     7
370
    25
100
AcDbSpline
210
0.0
220
0.0
230
1.0
 70
     8
 71
     3
 72
    11
 73
     7
 74
     0
 42
0.000000001
 43
0.00000001
 40
0.0
 40
0.0
 40
0.0
 40
0.0
 40
0.1038493526098309
 40
0.4063358356514037
 40
0.7050513583838325
 40
1.0
 40
1.0
 40
1.0
 40
1.0
 10
59.69603138489558
 20
-128.9636850063202
 30
0.0
 10
59.28356801799409
 20
-129.1821617942192
 30
0.0
 10
57.66970483393373
 20
-130.0370053339271
 30
0.0
 10
54.63044188334289
 20
-130.9942380474469
 30
0.0
 10
50.68691574685763
 20
-131.8520195514734
 30
0.0
 10
48.01697891065655
 20
-131.9508822830532
 30
0.0
 10
46.690481051547
 20
-132.0
 30
0.0
  0
SPLINE
  5
264
330
23
100
AcDbEntity
  8
0
  6
Continuous
 62
     8
370
    25
100
AcDbSpline
210
0.0
220
0.0
230
1.0
 70
     8
 71
     3
 72
     9
 73
     5
 74
     0
 42
0.000000001
 43
0.00000001
 40
0.0
 40
0.0
 40
0.0
 40
0.0
 40
0.7739720259810676
 40
1.0
 40
1.0
 40
1.0
 40
1.0
 10
-0.007094486006258
 20
-111.9858530981454
 30
0.0
 10
0.0059000295323737
 20
-111.9194982860932
 30
0.0
 10
0.0226894161024635
 20
-111.8337654561913
 30
0.0
 10
0.095613242167462
 20
-111.3572482847653
 30
0.0
 10
0.1120960668306426
 20
-111.2495420739226
 30
0.0
  0
SPLINE
  5
265
330
23
100
AcDbEntity
  8
0
  6
Continuous
 62
     8
370
    25
100
AcDbSpline
210
0.0
220
0.0
230
1.0
 70
     8
 71
     3
 72
    15
 73
    11
 74
     0
 42
0.000000001
 43
0.00000001
 40
0.0
 40
0.0
 40
0.0
 40
0.0
 40
0.0844821209740473
 40
0.1689151317431237
 40
0.3014874888418969
 40
0.5379882502235246
 40
0.6790452983908614
 40
0.8199610786665442
 40
0.9585681561066032
 40
1.0
 40
1.0
 40
1.0
 40
1.0
 10
-117.6595587872604
 20
-81.04481880521851
 30
0.0
 10
-117.8663175522968
 20
-81.04732907732668
 30
0.0
 10
-118.2797148916686
 20
-81.05234816229961
 30
0.0
 10
-119.0154312032216
 20
-81.06196860857214
 30
0.0
 10
-120.100729363441
 20
-81.07647683108992
 30
0.0
 10
-121.2248153089078
 20
-81.09195176297128
 30
0.0
 10
-122.2627793366513
 20
-81.0977425806655
 30
0.0
 10
-123.1688798074206
 20
-81.09957938672815
 30
0.0
 10
-123.8398247509908
 20
-81.10257074689068
 30
0.0
 10
-123.7297776344245
 20
-81.10228211816137
 30
0.0
 10
-123.7044528051002
 20
-81.10221569685444
 30
0.0
  0
SPLINE
  5
266
330
23
100
AcDbEntity
  8
0
  6
Continuous
 62
     8
370
    25
100
AcDbSpline
210
0.0
220
0.0
230
1.0
 70
     8
 71
     3
 72
    13
 73
     9
 74
     0
 42
0.000000001
 43
0.00000001
 40
0.0
 40
0.0
 40
0.0
 40
0.0
 40
0.0299450912216888
 40
0.2735436947107952
 40
0.5162738617427891
 40
0.6514085333926664
 40
0.7865428536825179
 40
1.0
 40
1.0
 40
1.0
 40
1.0
 10
-102.3860997825399
 20
-80.77710547005583
 30
0.0
 10
-102.6577529409631
 20
-80.77868924113078
 30
0.0
 10
-105.1392617827575
 20
-80.79315674060227
 30
0.0
 10
-108.7710487587464
 20
-80.82919089072388
 30
0.0
 10
-112.4896771932258
 20
-80.87868612713072
 30
0.0
 10
-114.7927199276512
 20
-80.92690833480312
 30
0.0
 10
-116.5541125002603
 20
-80.97657314001084
 30
0.0
 10
-117.2397278253043
 20
-81.0189001842865
 30
0.0
 10
-117.6595587872604
 20
-81.04481880521851
 30
0.0
  0
LWPOLYLINE
  5
267
330
23
100
AcDbEntity
  8
0
  6
Continuous
 62
     8
370
    25
100
AcDbPolyline
 90
        3
 70
   128
 43
0.0
 10
27.2771123243
 20
-127.1744974835
 10
27.3812193028
 20
-119.5435795099
 10
27.3837509069
 20
-119.3573313507
  0
LWPOLYLINE
  5
268
330
23
100
AcDbEntity
  8
0
  6
Continuous
 62
     8
370
    25
100
AcDbPolyline
 90
        3
 70
   128
 43
0.0
 10
30.5280366488
 20
-120.2921190037
 10
30.5008146475
 20
-122.4832163638
 10
30.4423788574
 20
-127.1744974835
  0
SPLINE
  5
269
330
23
100
AcDbEntity
  8
0
  6
Continuous
 62
     8
370
    25
100
AcDbSpline
210
0.0
220
0.0
230
1.0
 70
     8
 71
     3
 72
     9
 73
     5
 74
     0
 42
0.000000001
 43
0.00000001
 40
0.0
 40
0.0
 40
0.0
 40
0.0
 40
0.4250691142432768
 40
1.0
 40
1.0
 40
1.0
 40
1.0
 10
51.79006360805468
 20
-126.6132621537459
 30
0.0
 10
51.0755650699571
 20
-126.7603828177781
 30
0.0
 10
49.39466538998491
 20
-127.1064928010783
 30
0.0
 10
47.67764760660542
 20
-127.149672272031
 30
0.0
 10
46.690481051547
 20
-127.1744974835124
 30
0.0
  0
LINE
  5
26A
330
23
100
AcDbEntity
  8
0
  6
Continuous
 62
     7
370
    25
100
AcDbLine
 10
195.0
 20
-5.0
 30
0.0
 11
-195.0
 21
-5.0
 31
0.0
  0
LINE
  5
26B
330
23
100
AcDbEntity
  8
0
  6
Continuous
 62
     7
370
    25
100
AcDbLine
 10
-195.0
 20
-75.0
 30
0.0
 11
195.0
 21
-75.0
 31
0.0
  0
LINE
  5
26C
330
23
100
AcDbEntity
  8
0
  6
Continuous
 62
     7
370
    25
100
AcDbLine
 10
190.0
 20
-80.0
 30
0.0
 11
-190.0
 21
-80.0
 31
0.0
  0
LINE
  5
26D
330
23
100
AcDbEntity
  8
0
  6
Continuous
 62
     7
370
    25
100
AcDbLine
 10
-190.0
 20
0.0
 30
0.0
 11
-190.0
 21
-80.0
 31
0.0
  0
LINE
  5
26E
330
23
100
AcDbEntity
  8
0
  6
Continuous
 62
     7
370
    25
100
AcDbLine
 10
-195.0
 20
-75.0
 30
0.0
 11
-195.0
 21
-5.0
 31
0.0
  0
LINE
  5
26F
330
23
100
AcDbEntity
  8
0
  6
Continuous
 62
     7
370
    25
100
AcDbLine
 10
-190.0
 20
0.0
 30
0.0
 11
190.0
 21
0.0
 31
0.0
  0
LINE
  5
270
330
23
100
AcDbEntity
  8
0
  6
Continuous
 62
     7
370
    25
100
AcDbLine
 10
-36.2722562443
 20
-90.0
 30
0.0
 11
-36.2722562443
 21
-80.0
 31
0.0
  0
LINE
  5
271
330
23
100
AcDbEntity
  8
0
  6
Continuous
 62
     7
370
    25
100
AcDbLine
 10
195.0
 20
-90.0
 30
0.0
 11
-36.2722562443
 21
-90.0
 31
0.0
  0
LINE
  5
272
330
23
100
AcDbEntity
  8
0
  6
Continuous
 62
     7
370
    25
100
AcDbLine
 10
-36.2722562443
 20
-90.0
 30
0.0
 11
81.4550164829
 21
-125.0
 31
0.0
  0
LINE
  5
273
330
23
100
AcDbEntity
  8
0
  6
Continuous
 62
     7
370
    25
100
AcDbLine
 10
79.3026569011
 20
-134.7926817814
 30
0.0
 11
-103.6053138021
 21
-80.4146364372
 31
0.0
  0
LINE
  5
274
330
23
100
AcDbEntity
  8
0
  6
Continuous
 62
     7
370
    25
100
AcDbLine
 10
190.0
 20
-135.0
 30
0.0
 11
190.0
 21
0.0
 31
0.0
  0
LINE
  5
275
330
23
100
AcDbEntity
  8
0
  6
Continuous
 62
     7
370
    25
100
AcDbLine
 10
190.0
 20
-135.0
 30
0.0
 11
80.7275082415
 21
-135.0
 31
0.0
  0
LINE
  5
276
330
23
100
AcDbEntity
  8
0
  6
Continuous
 62
     7
370
    25
100
AcDbLine
 10
81.4550164829
 20
-125.0
 30
0.0
 11
195.0
 21
-125.0
 31
0.0
  0
LINE
  5
277
330
23
100
AcDbEntity
  8
0
  6
Continuous
 62
     7
370
    25
100
AcDbLine
 10
195.0
 20
-5.0
 30
0.0
 11
195.0
 21
-130.0
 31
0.0
  0
LINE
  5
278
330
23
100
AcDbEntity
  8
0
  6
Continuous
 62
     7
370
    25
100
AcDbLine
 10
39.8314897389
 20
-136.8255025165
 30
0.0
 11
34.5497191274
 21
-136.8255025165
 31
0.0
  0
LINE
  5
279
330
23
100
AcDbEntity
  8
0
  6
Continuous
 62
     7
370
    25
100
AcDbLine
 10
39.7181964095
 20
-140.0697989934
 30
0.0
 11
39.8314897389
 21
-136.8255025165
 31
0.0
  0
LINE
  5
27A
330
23
100
AcDbEntity
  8
0
  6
Continuous
 62
     7
370
    25
100
AcDbLine
 10
-29.7181964095
 20
-140.0697989934
 30
0.0
 11
39.7181964095
 21
-140.0697989934
 31
0.0
  0
LINE
  5
27B
330
23
100
AcDbEntity
  8
0
  6
Continuous
 62
     7
370
    25
100
AcDbLine
 10
-29.7181964095
 20
-140.0697989934
 30
0.0
 11
-30.6994584198
 21
-111.9701315307
 31
0.0
  0
LINE
  5
27C
330
23
100
AcDbEntity
  8
0
  6
Continuous
 62
     7
370
    25
100
AcDbLine
 10
37.7194147555
 20
-142.0
 30
0.0
 11
-27.7194147555
 21
-142.0
 31
0.0
  0
LINE
  5
27D
330
23
100
AcDbEntity
  8
0
  6
Continuous
 62
     7
370
    25
100
AcDbLine
 10
30.4423788574
 20
-127.1744974835
 30
0.0
 11
46.6904810515
 21
-127.1744974835
 31
0.0
  0
LINE
  5
27E
330
23
100
AcDbEntity
  8
0
  6
Continuous
 62
     7
370
    25
100
AcDbLine
 10
46.6904810515
 20
-132.0
 30
0.0
 11
46.6904810515
 21
-127.1744974835
 31
0.0
  0
LINE
  5
27F
330
23
100
AcDbEntity
  8
0
  6
Continuous
 62
     7
370
    25
100
AcDbLine
 10
46.6904810515
 20
-132.0
 30
0.0
 11
38.7889461111
 21
-132.0
 31
0.0
  0
ARC
  5
280
330
23
100
AcDbEntity
  8
0
  6
Continuous
 62
     7
370
    25
100
AcDbCircle
 10
-190.0
 20
-5.0
 30
0.0
 40
5.000000000000001
100
AcDbArc
 50
90.0
 51
180.0
  0
ARC
  5
281
330
23
100
AcDbEntity
  8
0
  6
Continuous
 62
     7
370
    25
100
AcDbCircle
 10
190.0
 20
-5.0
 30
0.0
 40
5.000000000000001
100
AcDbArc
 50
0.0
 51
90.0
  0
ARC
  5
282
330
23
100
AcDbEntity
  8
0
  6
Continuous
 62
     7
370
    25
100
AcDbCircle
 10
190.0
 20
-75.0
 30
0.0
 40
5.0
100
AcDbArc
 50
270.0
 51
0.0
  0
ARC
  5
283
330
23
100
AcDbEntity
  8
0
  6
Continuous
 62
     7
370
    25
100
AcDbCircle
 10
-190.0
 20
-75.0
 30
0.0
 40
5.0
100
AcDbArc
 50
180.0
 51
270.0
  0
ARC
  5
284
330
23
100
AcDbEntity
  8
0
  6
Continuous
 62
     7
370
    25
100
AcDbCircle
 10
-106.4550164829
 20
-90.0
 30
0.0
 40
10.00000000000199
100
AcDbArc
 50
73.4429286244
 51
90.0
  0
ARC
  5
285
330
23
100
AcDbEntity
  8
0
  6
Continuous
 62
     7
370
    25
100
AcDbCircle
 10
80.7275082415
 20
-130.0
 30
0.0
 40
5.000000000006147
100
AcDbArc
 50
253.4429286244
 51
270.0
  0
ARC
  5
286
330
23
100
AcDbEntity
  8
0
  6
Continuous
 62
     7
370
    25
100
AcDbCircle
 10
190.0
 20
-130.0
 30
0.0
 40
5.0
100
AcDbArc
 50
270.0
 51
0.0
  0
ARC
  5
287
330
23
100
AcDbEntity
  8
0
  6
Continuous
 62
     7
370
    25
100
AcDbCircle
 10
37.7194147555
 20
-140.0
 30
0.0
 40
2.000000000000028
100
AcDbArc
 50
270.0
 51
358.0
  0
ARC
  5
288
330
23
100
AcDbEntity
  8
0
  6
Continuous
 62
     7
370
    25
100
AcDbCircle
 10
-27.7194147555
 20
-140.0
 30
0.0
 40
2.0
100
AcDbArc
 50
182.0
 51
270.0
  0
ARC
  5
289
330
23
100
AcDbEntity
  8
0
  6
Continuous
 62
     7
370
    25
100
AcDbCircle
 10
28.8597455908
 20
-242.4080488283
 30
0.0
 40
115.2444188826385
100
AcDbArc
 50
89.2131414433
 51
90.7868585567
  0
ARC
  5
28A
330
23
100
AcDbEntity
  8
0
  6
Continuous
 62
     7
370
    25
100
AcDbCircle
 10
39.1826174295
 20
-136.6206839552
 30
0.0
 40
4.637423564980896
100
AcDbArc
 50
94.8697048282
 51
182.5313749303
  0
ARC
  5
28B
330
23
100
AcDbEntity
  8
0
  6
Continuous
 62
     7
370
    25
100
AcDbCircle
 10
44.828443874
 20
-137.0
 30
0.0
 40
5.000000000000028
100
AcDbArc
 50
90.0
 51
178.0
  0
VIEWPORT
  5
39C
330
23
100
AcDbEntity
  8
0
100
AcDbViewport
 10
0.0
 20
0.0
 30
0.0
 40
205.6
 41
156.0
 68
     1
 69
     1
 12
0.0
 22
-71.0
 13
0.0
 23
0.0
 14
10.0
 24
10.0
 15
10.0
 25
10.0
 16
0.0
 26
0.0
 36
1.0
 17
0.0
 27
0.0
 37
0.0
 42
50.0
 43
0.0
 44
0.0
 45
386.9649805447
 50
0.0
 51
0.0
 72
   100
 90
   557152
  1

281
     0
 71
     1
 74
     0
110
0.0
120
0.0
130
0.0
111
1.0
121
0.0
131
0.0
112
0.0
122
1.0
132
0.0
 79
     0
146
0.0
  0
ENDBLK
  5
25
330
23
100
AcDbEntity
  8
0
100
AcDbBlockEnd
  0
BLOCK
  5
28E
330
28C
100
AcDbEntity
  8
0
100
AcDbBlockBegin
  2
*Paper_Space1
 70
     0
 10
0.0
 20
0.0
 30
0.0
  3
*Paper_Space1
  1

  0
SPLINE
  5
290
330
28C
100
AcDbEntity
  8
0
  6
Continuous
 62
     7
370
    25
100
AcDbSpline
210
0.0
220
0.0
230
1.0
 70
     8
 71
     3
 72
    15
 73
    11
 74
     0
 42
0.000000001
 43
0.00000001
 40
0.0
 40
0.0
 40
0.0
 40
0.0
 40
0.056867766655419
 40
0.1724724532641637
 40
0.2950449269553719
 40
0.4270054026661104
 40
0.5703376311160332
 40
0.7223489672355677
 40
0.8786270119751908
 40
1.0
 40
1.0
 40
1.0
 40
1.0
 10
-10.04649774510752
 20
87.20955043960547
 30
0.0
 10
-10.05656858066686
 20
87.18389254268922
 30
0.0
 10
-10.08711209973743
 20
87.1060755175622
 30
0.0
 10
-9.577213062990328
 20
87.35891239186918
 30
0.0
 10
-8.844777933421677
 20
87.5506516560837
 30
0.0
 10
-7.796115616810066
 20
87.77932634915636
 30
0.0
 10
-6.457153161168885
 20
87.98370408768275
 30
0.0
 10
-4.833070830124328
 20
88.15720947114278
 30
0.0
 10
-3.15671007897487
 20
88.27595489579764
 30
0.0
 10
-2.011527986462382
 20
88.30744194336937
 30
0.0
 10
-1.510920547632248
 20
88.32120626115278
 30
0.0
  0
SPLINE
  5
291
330
28C
100
AcDbEntity
  8
0
  6
Continuous
 62
     7
370
    25
100
AcDbSpline
210
0.0
220
0.0
230
1.0
 70
     8
 71
     3
 72
    12
 73
     8
 74
     0
 42
0.000000001
 43
0.00000001
 40
0.0
 40
0.0
 40
0.0
 40
0.0
 40
0.146982878893721
 40
0.3297913137234649
 40
0.5344246429595613
 40
0.7585151562749324
 40
0.9999999999999999
 40
0.9999999999999999
 40
0.9999999999999999
 40
0.9999999999999999
 10
3.007659097679984
 20
88.26694164079143
 30
0.0
 10
3.561233628467349
 20
88.23520216615681
 30
0.0
 10
4.803310754227165
 20
88.16398704834559
 30
0.0
 10
6.596151208171153
 20
87.97529670177717
 30
0.0
 10
8.30081097848802
 20
87.70913319770749
 30
0.0
 10
9.695855094575705
 20
87.36835216604517
 30
0.0
 10
10.11107278146375
 20
87.12073954995157
 30
0.0
 10
10.32643808530507
 20
86.99230772254165
 30
0.0
  0
SPLINE
  5
293
330
28C
100
AcDbEntity
  8
0
  6
Continuous
 62
     7
370
    25
100
AcDbSpline
210
0.0
220
0.0
230
1.0
 70
     8
 71
     3
 72
   139
 73
   135
 74
     0
 42
0.000000001
 43
0.00000001
 40
0.0
 40
0.0
 40
0.0
 40
0.0
 40
0.0156250000000005
 40
0.0156250000000005
 40
0.0234375000000008
 40
0.0234375000000008
 40
0.031250000000001
 40
0.031250000000001
 40
0.0468750000000015
 40
0.0468750000000015
 40
0.062500000000002
 40
0.062500000000002
 40
0.0781250000000025
 40
0.0781250000000025
 40
0.0859375000000027
 40
0.0859375000000027
 40
0.0898437500000028
 40
0.0898437500000028
 40
0.0937500000000029
 40
0.0937500000000029
 40
0.1093750000000032
 40
0.1093750000000032
 40
0.1250000000000035
 40
0.1250000000000035
 40
0.1406250000000037
 40
0.1406250000000037
 40
0.1484375000000039
 40
0.1484375000000039
 40
0.152343750000004
 40
0.152343750000004
 40
0.1562500000000041
 40
0.1562500000000041
 40
0.1875000000000052
 40
0.1875000000000052
 40
0.2031250000000057
 40
0.2031250000000057
 40
0.2109375000000059
 40
0.2109375000000059
 40
0.2187500000000061
 40
0.2187500000000061
 40
0.2500000000000067
 40
0.2500000000000067
 40
0.265625000000007
 40
0.265625000000007
 40
0.2734375000000071
 40
0.2734375000000071
 40
0.2773437500000072
 40
0.2773437500000072
 40
0.2812500000000072
 40
0.2812500000000072
 40
0.3125000000000075
 40
0.3125000000000075
 40
0.3281250000000076
 40
0.3281250000000076
 40
0.3437500000000077
 40
0.3437500000000077
 40
0.3476562500000077
 40
0.3476562500000077
 40
0.3515625000000078
 40
0.3593750000000077
 40
0.3750000000000077
 40
0.3750000000000077
 40
0.4062500000000077
 40
0.4062500000000077
 40
0.4375000000000075
 40
0.4375000000000075
 40
0.4531250000000075
 40
0.4531250000000075
 40
0.4687500000000075
 40
0.4687500000000075
 40
0.5000000000000073
 40
0.5000000000000073
 40
0.5312500000000073
 40
0.5312500000000073
 40
0.5625000000000072
 40
0.5625000000000072
 40
0.6250000000000071
 40
0.6250000000000071
 40
0.640625000000007
 40
0.640625000000007
 40
0.6484375000000071
 40
0.6523437500000071
 40
0.6523437500000071
 40
0.6562500000000071
 40
0.6562500000000071
 40
0.6718750000000071
 40
0.6718750000000071
 40
0.687500000000007
 40
0.687500000000007
 40
0.6953125000000069
 40
0.6953125000000069
 40
0.7031250000000069
 40
0.7031250000000069
 40
0.7187500000000066
 40
0.7187500000000066
 40
0.7500000000000061
 40
0.7500000000000061
 40
0.7578125000000061
 40
0.7578125000000061
 40
0.765625000000006
 40
0.765625000000006
 40
0.7812500000000059
 40
0.7812500000000059
 40
0.8125000000000056
 40
0.8125000000000056
 40
0.8164062500000054
 40
0.8164062500000054
 40
0.8203125000000053
 40
0.8203125000000053
 40
0.8281250000000051
 40
0.8281250000000051
 40
0.8437500000000048
 40
0.8437500000000048
 40
0.8750000000000039
 40
0.8750000000000039
 40
0.8828125000000038
 40
0.8828125000000038
 40
0.8906250000000036
 40
0.8906250000000036
 40
0.906250000000003
 40
0.906250000000003
 40
0.9375000000000021
 40
0.9375000000000021
 40
0.941406250000002
 40
0.941406250000002
 40
0.9453125000000019
 40
0.9453125000000019
 40
0.9531250000000016
 40
0.9531250000000016
 40
0.9687500000000011
 40
0.9687500000000011
 40
0.9843750000000006
 40
0.9843750000000006
 40
1.0
 40
1.0
 40
1.0
 40
1.0
 10
227.903693257722
 20
1.234563653176156
 30
0.0
 10
228.838022750137
 20
-2.181082958302655
 30
0.0
 10
229.6129916881939
 20
-5.628829857651359
 30
0.0
 10
230.5497663008575
 20
-10.84590909890966
 30
0.0
 10
230.8243152374195
 20
-12.59253135940195
 30
0.0
 10
231.2991636697915
 20
-16.10073208100908
 30
0.0
 10
231.4984832082136
 20
-17.85532763321103
 30
0.0
 10
231.9851900637136
 20
-23.11245669644852
 30
0.0
 10
232.162451369401
 20
-26.61193406052774
 30
0.0
 10
232.2340411761024
 20
-33.60074974391376
 30
0.0
 10
232.127910746812
 20
-37.09007161721349
 30
0.0
 10
231.6309177641251
 20
-44.05851183948906
 30
0.0
 10
231.2400494824621
 20
-47.53762998318946
 30
0.0
 10
230.4334148599726
 20
-52.74841147931964
 30
0.0
 10
230.1276702910291
 20
-54.48401751938618
 30
0.0
 10
229.6128600530755
 20
-57.08541286021311
 30
0.0
 10
229.4317952803551
 20
-57.95258140101014
 30
0.0
 10
229.0526717150377
 20
-59.67816115316182
 30
0.0
 10
228.8544281148825
 20
-60.53756055725926
 30
0.0
 10
227.820271470164
 20
-64.81778893809893
 30
0.0
 10
226.8558860830736
 20
-68.18844617631667
 30
0.0
 10
224.659279053419
 20
-74.82516373864078
 30
0.0
 10
223.4270156834977
 20
-78.09120776714583
 30
0.0
 10
220.6928036311107
 20
-84.51797680592426
 30
0.0
 10
219.1910751623999
 20
-87.67878781530615
 30
0.0
 10
216.7343226638474
 20
-92.34027470294843
 30
0.0
 10
215.8812993736793
 20
-93.88078448117174
 30
0.0
 10
214.5497259608892
 20
-96.17122679089314
 30
0.0
 10
214.0966463958754
 20
-96.93220991918885
 30
0.0
 10
213.1760997405808
 20
-98.44224495870014
 30
0.0
 10
212.7087426640273
 20
-99.19117024607462
 30
0.0
 10
208.4393640568258
 20
-105.8771741451912
 30
0.0
 10
204.1971714477376
 20
-111.435692684724
 30
0.0
 10
197.1835092708219
 20
-119.2141303611274
 30
0.0
 10
194.7365329602319
 20
-121.7131232420673
 30
0.0
 10
190.9003059407905
 20
-125.3190518925978
 30
0.0
 10
189.593892654249
 20
-126.4972302814959
 30
0.0
 10
186.9247151924345
 20
-128.8051236377899
 30
0.0
 10
185.559193931278
 20
-129.9368146088522
 30
0.0
 10
178.6497622478418
 20
-135.4241873625631
 30
0.0
 10
172.8281987004962
 20
-139.3024517913628
 30
0.0
 10
163.6701034792858
 20
-144.3789826383441
 30
0.0
 10
160.5460086400052
 20
-145.9469195709037
 30
0.0
 10
155.7514305575514
 20
-148.1101311081489
 30
0.0
 10
154.1351656224435
 20
-148.7997533332494
 30
0.0
 10
151.6832655777333
 20
-149.7863281351952
 30
0.0
 10
150.8613794121632
 20
-150.1072058435869
 30
0.0
 10
149.2083392513231
 20
-150.7328339094849
 30
0.0
 10
148.3765430303356
 20
-151.0377877800214
 30
0.0
 10
140.88251066283
 20
-153.697167447376
 30
0.0
 10
134.1137081669509
 20
-155.4809998495195
 30
0.0
 10
123.8056737621537
 20
-157.3208321794576
 30
0.0
 10
120.3437445984321
 20
-157.7941824064155
 30
0.0
 10
113.3673981924063
 20
-158.45750462786
 30
0.0
 10
109.8518231929299
 20
-158.6478179558841
 30
0.0
 10
105.4266751144073
 20
-158.7032839352385
 30
0.0
 10
104.5415871752338
 20
-158.7059105573525
 30
0.0
 10
102.771453615022
 20
-158.717306948035
 30
0.0
 10
100.1162541003296
 20
-158.7345213866775
 30
0.0
 10
93.920794158535
 20
-158.7755002482105
 30
0.0
 10
88.61040879262058
 20
-158.811912594216
 30
0.0
 10
77.98964718679672
 20
-158.8860620702095
 30
0.0
 10
70.90915169285373
 20
-158.937218361525
 30
0.0
 10
56.74817007899329
 20
-159.040816213015
 30
0.0
 10
49.66767559537844
 20
-159.0921036377766
 30
0.0
 10
39.04696728267897
 20
-159.1736831583255
 30
0.0
 10
35.50673862761473
 20
-159.201912661391
 30
0.0
 10
28.42631047048363
 20
-159.2624274372075
 30
0.0
 10
24.88611932689226
 20
-159.2958755424125
 30
0.0
 10
14.26551974496164
 20
-159.392581704921
 30
0.0
 10
7.185049987659733
 20
-159.447309058338
 30
0.0
 10
-6.976669030198203
 20
-159.448319147477
 30
0.0
 10
-14.05718962945549
 20
-159.387552375995
 30
0.0
 10
-28.21832524534089
 20
-159.284714856494
 30
0.0
 10
-35.29895298378476
 20
-159.243619554701
 30
0.0
 10
-56.54090420113348
 20
-159.133547318455
 30
0.0
 10
-70.70225277499537
 20
-159.0692098067694
 30
0.0
 10
-88.40388266147151
 20
-158.9782161253085
 30
0.0
 10
-91.94420635917612
 20
-158.9595857395525
 30
0.0
 10
-97.25468678799135
 20
-158.930671096298
 30
0.0
 10
-99.90992571462398
 20
-158.915969929462
 30
0.0
 10
-102.5651622926007
 20
-158.9008240353125
 30
0.0
 10
-104.3353194339853
 20
-158.8906174648215
 30
0.0
 10
-105.2204135286357
 20
-158.8884537023276
 30
0.0
 10
-109.6456289963078
 20
-158.8293485772225
 30
0.0
 10
-113.17091683435
 20
-158.6358130006935
 30
0.0
 10
-120.1833581651925
 20
-157.9596179798179
 30
0.0
 10
-123.6720968707295
 20
-157.4782425811008
 30
0.0
 10
-128.8787932735688
 20
-156.539715983148
 30
0.0
 10
-130.6099397312844
 20
-156.190656654254
 30
0.0
 10
-134.0633255154881
 20
-155.4195373168245
 30
0.0
 10
-135.780965921503
 20
-154.998496981702
 30
0.0
 10
-140.8863051770813
 20
-153.6353341198075
 30
0.0
 10
-144.23491585423
 20
-152.5910166739806
 30
0.0
 10
-154.1196068343189
 20
-149.0605778984805
 30
0.0
 10
-160.4956399825344
 20
-146.1796684443001
 30
0.0
 10
-168.1921268804747
 20
-141.9037549775995
 30
0.0
 10
-169.7191915942976
 20
-141.013648232925
 30
0.0
 10
-172.738688211459
 20
-139.1684481738988
 30
0.0
 10
-174.2243931292886
 20
-138.2175993647766
 30
0.0
 10
-178.6103503161541
 20
-135.2814493210209
 30
0.0
 10
-181.4395178560478
 20
-133.2126300473597
 30
0.0
 10
-189.6480564429776
 20
-126.6784150659336
 30
0.0
 10
-194.749938480044
 20
-121.8869952142494
 30
0.0
 10
-200.0612036888462
 20
-115.9933734590345
 30
0.0
 10
-200.6453539454329
 20
-115.3314885180441
 30
0.0
 10
-201.801581855716
 20
-113.9935344345966
 30
0.0
 10
-202.373741883863
 20
-113.3173123687921
 30
0.0
 10
-204.0643609771163
 20
-111.2764146188573
 30
0.0
 10
-205.1596183135671
 20
-109.8965599343489
 30
0.0
 10
-208.3515454774697
 20
-105.7002084284338
 30
0.0
 10
-210.3545453241089
 20
-102.8270299688397
 30
0.0
 10
-215.9932777654779
 20
-93.9834383285887
 30
0.0
 10
-219.2624209884823
 20
-87.79119435484893
 30
0.0
 10
-222.7175955163195
 20
-79.6689042637845
 30
0.0
 10
-223.3776160825614
 20
-78.02294715536446
 30
0.0
 10
-224.6224635238273
 20
-74.72097590438592
 30
0.0
 10
-225.2087111245725
 20
-73.06180909157281
 30
0.0
 10
-226.8604422644305
 20
-68.0601080904848
 30
0.0
 10
-227.819337225235
 20
-64.69346901952996
 30
0.0
 10
-230.2753748294849
 20
-54.49842291527075
 30
0.0
 10
-231.3542625713814
 20
-47.57542802375319
 30
0.0
 10
-231.918490360849
 20
-39.64017037217679
 30
0.0
 10
-231.972108582469
 20
-38.75585771984612
 30
0.0
 10
-232.0606979455949
 20
-36.99082916427132
 30
0.0
 10
-232.0957440915826
 20
-36.10923360313308
 30
0.0
 10
-232.1733874858616
 20
-33.46717817962509
 30
0.0
 10
-232.1885076301594
 20
-31.70944779509644
 30
0.0
 10
-232.125288209897
 20
-26.44704257816584
 30
0.0
 10
-231.9380562936826
 20
-22.95318472491011
 30
0.0
 10
-231.2828855216495
 20
-15.99335344798255
 30
0.0
 10
-230.8172527101015
 20
-12.52715095007022
 30
0.0
 10
-229.5965178140405
 20
-5.623500802878403
 30
0.0
 10
-228.8386058679015
 20
-2.186332275264984
 30
0.0
 10
-227.9040368378064
 20
1.23328776557088
 30
0.0
  0
SPLINE
  5
295
330
28C
100
AcDbEntity
  8
0
  6
Continuous
 62
     7
370
    25
100
AcDbSpline
210
0.0
220
0.0
230
1.0
 70
     8
 71
     3
 72
    44
 73
    40
 74
     0
 42
0.000000001
 43
0.00000001
 40
0.0
 40
0.0
 40
0.0
 40
0.0
 40
0.0045097966376905
 40
0.0093046464919918
 40
0.0143857051131928
 40
0.0197542039002118
 40
0.0254114431607866
 40
0.0313587830882271
 40
0.0469084621849204
 40
0.0625215605861524
 40
0.0886204445511686
 40
0.1246972723931545
 40
0.1878228529260949
 40
0.2496483654137271
 40
0.3346337949342416
 40
0.4181080966035907
 40
0.4997381857667241
 40
0.5657267061605538
 40
0.6289915820156159
 40
0.6900864030902243
 40
0.749563273288089
 40
0.7808510914895646
 40
0.812005374269898
 40
0.8430977958374657
 40
0.8742043061494327
 40
0.8827693814043304
 40
0.89138687514638
 40
0.9000594808816117
 40
0.9087899741648956
 40
0.9175812101393221
 40
0.9264361208815698
 40
0.9353577126690487
 40
0.9443492440898752
 40
0.9534146299483403
 40
0.9625580335116681
 40
0.9717837611271141
 40
0.9810962577175122
 40
0.9905001017903534
 40
1.0
 40
1.0
 40
1.0
 40
1.0
 10
-223.3913806636934
 20
-0.0000000005701966
 30
0.0
 10
-223.4802291589257
 20
-0.325571064679201
 30
0.0
 10
-223.6635420454921
 20
-0.9972917436646764
 30
0.0
 10
-223.9346410729681
 20
-2.03910682841905
 30
0.0
 10
-224.2117489512208
 20
-3.145679515571158
 30
0.0
 10
-224.4922145453309
 20
-4.317856139342697
 30
0.0
 10
-224.7744929740905
 20
-5.556159487274078
 30
0.0
 10
-225.2039564421028
 20
-7.5421228105316
 30
0.0
 10
-225.7348296025775
 20
-10.2681114715543
 30
0.0
 10
-226.4336999748556
 20
-14.49572994998876
 30
0.0
 10
-227.1662975350825
 20
-20.27240307206117
 30
0.0
 10
-227.8196231945578
 20
-29.63166098657792
 30
0.0
 10
-227.5628823841656
 20
-41.7082080252444
 30
0.0
 10
-225.4259289211417
 20
-57.30300826311053
 30
0.0
 10
-220.7846998291231
 20
-73.97664669715178
 30
0.0
 10
-213.0012025762715
 20
-91.07628935497081
 30
0.0
 10
-203.4893682695299
 20
-105.6001629363692
 30
0.0
 10
-193.1039439785086
 20
-117.5321819506207
 30
0.0
 10
-182.5151431741333
 20
-127.1087883099507
 30
0.0
 10
-171.30102549617
 20
-135.1256791040394
 30
0.0
 10
-161.3612864259898
 20
-140.6833880412172
 30
0.0
 10
-153.0527268317968
 20
-144.4612369368684
 30
0.0
 10
-146.5228336947688
 20
-146.9911300357942
 30
0.0
 10
-139.8736427264655
 20
-149.1430791807686
 30
0.0
 10
-134.7486034073357
 20
-150.4859673883825
 30
0.0
 10
-131.2227564571711
 20
-151.2756963894105
 30
0.0
 10
-129.3285232277333
 20
-151.6690319324321
 30
0.0
 10
-127.4162084846139
 20
-152.0348712153571
 30
0.0
 10
-125.485547905796
 20
-152.3726602614271
 30
0.0
 10
-123.5362990415508
 20
-152.6818435151265
 30
0.0
 10
-121.5682138225257
 20
-152.9618639421768
 30
0.0
 10
-119.5810343306125
 20
-153.2121767980105
 30
0.0
 10
-117.5744397098877
 20
-153.4322042061254
 30
0.0
 10
-115.5480055451332
 20
-153.6210228352025
 30
0.0
 10
-113.5012674285419
 20
-153.777665795397
 30
0.0
 10
-111.4337528219754
 20
-153.9014464070422
 30
0.0
 10
-109.3449899013842
 20
-153.9905993224051
 30
0.0
 10
-107.2345081557927
 20
-154.0474523724721
 30
0.0
 10
-105.8201533960014
 20
-154.0549970577664
 30
0.0
 10
-105.109382689886
 20
-154.0587885685291
 30
0.0
  0
SPLINE
  5
296
330
28C
100
AcDbEntity
  8
0
  6
Continuous
 62
     7
370
    25
100
AcDbSpline
210
0.0
220
0.0
230
1.0
 70
     8
 71
     3
 72
    28
 73
    24
 74
     0
 42
0.000000001
 43
0.00000001
 40
0.0
 40
0.0
 40
0.0
 40
0.0
 40
0.0539167456607068
 40
0.1071861255421773
 40
0.1586274872277142
 40
0.2066561556202108
 40
0.2500016719359302
 40
0.3228004331926315
 40
0.3750025180970061
 40
0.4062527875950288
 40
0.437503061439637
 40
0.4720210889295021
 40
0.5000038213060999
 40
0.5296487441404756
 40
0.5625039492665329
 40
0.5837389528657491
 40
0.6250034925234786
 40
0.6589128874800707
 40
0.7006320589713739
 40
0.7500023806242284
 40
0.8398093173809908
 40
0.9226518140735689
 40
1.0
 40
1.0
 40
1.0
 40
1.0
 10
-105.109382689886
 20
-154.0587885685291
 30
0.0
 10
-101.324387623858
 20
-154.0736612726062
 30
0.0
 10
-93.79984304401951
 20
-154.1032281076742
 30
0.0
 10
-82.66402028246776
 20
-154.1446600368144
 30
0.0
 10
-71.94152510701932
 20
-154.1840743832624
 30
0.0
 10
-61.91568668665216
 20
-154.2210118199057
 30
0.0
 10
-50.39052953457331
 20
-154.2642594022496
 30
0.0
 10
-38.57241202195973
 20
-154.3101156410318
 30
0.0
 10
-27.60346825786299
 20
-154.3623479448351
 30
0.0
 10
-19.55140008815017
 20
-154.4101084714821
 30
0.0
 10
-12.74076470184571
 20
-154.4521847758951
 30
0.0
 10
-6.159379336130915
 20
-154.4861681621182
 30
0.0
 10
0.3095093943088533
 20
-154.4987969528235
 30
0.0
 10
6.66166011414757
 20
-154.4859839092761
 30
0.0
 10
12.53994138062381
 20
-154.4560254085109
 30
0.0
 10
19.23368252861386
 20
-154.4116117052892
 30
0.0
 10
26.00133593037663
 20
-154.3578823999054
 30
0.0
 10
34.2069967242582
 20
-154.299934871063
 30
0.0
 10
42.98177748763296
 20
-154.245411807611
 30
0.0
 10
55.6805741933005
 20
-154.1742321457328
 30
0.0
 10
71.26623301206514
 20
-154.0908985275322
 30
0.0
 10
88.81596354092837
 20
-154.0050988371385
 30
0.0
 10
100.0613708814963
 20
-153.9584713889419
 30
0.0
 10
105.4912238765386
 20
-153.9359572921578
 30
0.0
  0
SPLINE
  5
297
330
28C
100
AcDbEntity
  8
0
  6
Continuous
 62
     7
370
    25
100
AcDbSpline
210
0.0
220
0.0
230
1.0
 70
     8
 71
     3
 72
    82
 73
    78
 74
     0
 42
0.000000001
 43
0.00000001
 40
0.0
 40
0.0
 40
0.0
 40
0.0
 40
0.004654801108061
 40
0.0093132673395602
 40
0.0139753190021383
 40
0.0186408783975695
 40
0.0233098699156136
 40
0.0279822201271463
 40
0.0326578578765905
 40
0.0373367143736454
 40
0.042018723284338
 40
0.0467038208213907
 40
0.0513919458339173
 40
0.0560830398964541
 40
0.0607770473973151
 40
0.0654739139965033
 40
0.0701735677030998
 40
0.0748759244976643
 40
0.0795809016912884
 40
0.084288418287837
 40
0.088998395085258
 40
0.093710754776165
 40
0.0984254220477166
 40
0.103142323680801
 40
0.1078613886485482
 40
0.1125825482141743
 40
0.117305736028169
 40
0.1220308882248422
 40
0.1267579434638487
 40
0.131486834775418
 40
0.136217480021579
 40
0.1409497961506261
 40
0.1456837013561812
 40
0.1504191151841658
 40
0.155155958639055
 40
0.1598941542894104
 40
0.1646336263727298
 40
0.1693743008996172
 40
0.1741161057573037
 40
0.1788589708125196
 40
0.1836028280137497
 40
0.1883476114928592
 40
0.1930932560781685
 40
0.197839684330554
 40
0.2025868122181398
 40
0.2073345563840463
 40
0.2120828343244266
 40
0.2168315645001121
 40
0.2215806664475426
 40
0.2263300608890109
 40
0.2310796698422394
 40
0.2358294167293124
 40
0.2405792264849848
 40
0.2453290256643827
 40
0.2500787425501168
 40
0.3105123773555152
 40
0.3723454152086209
 40
0.4354150560191177
 40
0.4995453288949877
 40
0.5484800284626635
 40
0.5980434605798631
 40
0.6481376751332034
 40
0.6986589796241498
 40
0.7495197672634424
 40
0.793513478134384
 40
0.8350815315245569
 40
0.8742692225139455
 40
0.8888932837422747
 40
0.9055019047428223
 40
0.9212707451039078
 40
0.936949389220437
 40
0.9488575066379162
 40
0.9601973384278407
 40
0.9709753732232312
 40
0.981197865545308
 40
0.9908708245879734
 40
0.9999999999999999
 40
0.9999999999999999
 40
0.9999999999999999
 40
0.9999999999999999
 10
105.4912238765386
 20
-153.9359572921578
 30
0.0
 10
105.8389546628818
 20
-153.9348446993615
 30
0.0
 10
106.5346900337878
 20
-153.9326186377295
 30
0.0
 10
107.5786190760264
 20
-153.9181232992882
 30
0.0
 10
108.6231998419306
 20
-153.8954415377413
 30
0.0
 10
109.6683398683309
 20
-153.8637550415229
 30
0.0
 10
110.7139472672844
 20
-153.8232621839526
 30
0.0
 10
111.7599301949829
 20
-153.7738887227217
 30
0.0
 10
112.8061969952915
 20
-153.7156336596115
 30
0.0
 10
113.8526561621811
 20
-153.6484764641165
 30
0.0
 10
114.8992163512222
 20
-153.5724019631307
 30
0.0
 10
115.9457863761058
 20
-153.4873936530637
 30
0.0
 10
116.992275215931
 20
-153.3934355380268
 30
0.0
 10
118.0385919943663
 20
-153.2905114721123
 30
0.0
 10
119.0846459395519
 20
-153.17860596478
 30
0.0
 10
120.130344554538
 20
-153.0577018507717
 30
0.0
 10
121.175594079871
 20
-152.927793707411
 30
0.0
 10
122.2202991729221
 20
-152.7888822194099
 30
0.0
 10
123.2643634825612
 20
-152.6409668595913
 30
0.0
 10
124.3076908604534
 20
-152.4840475402004
 30
0.0
 10
125.350185325604
 20
-152.3181241367641
 30
0.0
 10
126.3917510801296
 20
-152.1431966152451
 30
0.0
 10
127.4322925059974
 20
-151.9592649975308
 30
0.0
 10
128.4717141672976
 20
-151.7663293722144
 30
0.0
 10
129.5099208094072
 20
-151.5643898859913
 30
0.0
 10
130.5468173650341
 20
-151.3534467672868
 30
0.0
 10
131.5823089358134
 20
-151.1335002402756
 30
0.0
 10
132.6163008608829
 20
-150.9045508462286
 30
0.0
 10
133.648697845344
 20
-150.6665983864447
 30
0.0
 10
134.6794037070421
 20
-150.4196469153173
 30
0.0
 10
135.7083237184545
 20
-150.1637145545141
 30
0.0
 10
136.7353616167898
 20
-149.898817947153
 30
0.0
 10
137.7604212906084
 20
-149.6249742886955
 30
0.0
 10
138.7834067943077
 20
-149.3422006756149
 30
0.0
 10
139.8042223852094
 20
-149.050514270193
 30
0.0
 10
140.8227725147351
 20
-148.7499322563751
 30
0.0
 10
141.8389618314916
 20
-148.4404718505847
 30
0.0
 10
142.8526951826219
 20
-148.1221503017349
 30
0.0
 10
143.8638776101589
 20
-147.7949848794726
 30
0.0
 10
144.8724143690923
 20
-147.4589929203202
 30
0.0
 10
145.8782108635277
 20
-147.1141916539185
 30
0.0
 10
146.881172776946
 20
-146.7605988906668
 30
0.0
 10
147.881204144668
 20
-146.3982309794577
 30
0.0
 10
148.8782123950618
 20
-146.0271184609994
 30
0.0
 10
149.8721053123607
 20
-145.647296632481
 30
0.0
 10
150.8627899752676
 20
-145.2587998932153
 30
0.0
 10
151.8501737663225
 20
-144.861662928281
 30
0.0
 10
152.8341642488372
 20
-144.4559203366793
 30
0.0
 10
153.8146691799415
 20
-144.0416067426256
 30
0.0
 10
154.7915965906939
 20
-143.6187567188244
 30
0.0
 10
155.7648544571439
 20
-143.1874049803394
 30
0.0
 10
156.7343519406038
 20
-142.7475856840612
 30
0.0
 10
157.6999947598839
 20
-142.2993350353178
 30
0.0
 10
158.6617024667968
 20
-141.8426815601227
 30
0.0
 10
163.3617171048412
 20
-139.5605093686766
 30
0.0
 10
171.6548835302273
 20
-134.9010579236664
 30
0.0
 10
182.9129267070324
 20
-126.7892464143333
 30
0.0
 10
193.3711082086745
 20
-117.249848565904
 30
0.0
 10
202.0104250569013
 20
-107.2803262224231
 30
0.0
 10
208.9756289315268
 20
-97.304982855334
 30
0.0
 10
214.4880824240468
 20
-87.65012719881557
 30
0.0
 10
219.1413596782526
 20
-77.42225535205235
 30
0.0
 10
222.8542921361597
 20
-66.71396918379659
 30
0.0
 10
225.4495575265879
 20
-56.15036091196801
 30
0.0
 10
227.0079087377398
 20
-46.06642523617162
 30
0.0
 10
227.7037603914777
 20
-36.76329803313757
 30
0.0
 10
227.7117289711577
 20
-29.63071323582664
 30
0.0
 10
227.4595385909522
 20
-24.37525737663657
 30
0.0
 10
227.1912609895306
 20
-20.87350437130841
 30
0.0
 10
226.8110348339321
 20
-17.30301664797181
 30
0.0
 10
226.3746793610105
 20
-14.09303183366415
 30
0.0
 10
225.9092635693921
 20
-11.22212228822687
 30
0.0
 10
225.4482408048289
 20
-8.722007076758942
 30
0.0
 10
224.96097510265
 20
-6.355292629693298
 30
0.0
 10
224.4534222106952
 20
-4.120414860202801
 30
0.0
 10
223.9357234725424
 20
-2.014417336694237
 30
0.0
 10
223.5692317740388
 20
-0.6582504968927912
 30
0.0
 10
223.3912856471907
 20
0.0002218163626625
 30
0.0
  0
SPLINE
  5
298
330
28C
100
AcDbEntity
  8
0
  6
Continuous
 62
     7
370
    25
100
AcDbSpline
210
0.0
220
0.0
230
1.0
 70
     8
 71
     3
 72
    99
 73
    95
 74
     0
 42
0.000000001
 43
0.00000001
 40
0.0
 40
0.0
 40
0.0
 40
0.0
 40
0.0312500000000003
 40
0.0312500000000003
 40
0.0468750000000005
 40
0.0468750000000005
 40
0.0625000000000006
 40
0.0625000000000006
 40
0.0703125000000007
 40
0.0703125000000007
 40
0.0781250000000008
 40
0.0781250000000008
 40
0.093750000000001
 40
0.093750000000001
 40
0.1250000000000012
 40
0.1250000000000012
 40
0.1406250000000013
 40
0.1406250000000013
 40
0.1484375000000013
 40
0.1484375000000013
 40
0.1562500000000013
 40
0.1562500000000013
 40
0.1875000000000011
 40
0.1875000000000011
 40
0.2187500000000007
 40
0.2187500000000007
 40
0.2343750000000005
 40
0.2343750000000005
 40
0.2421875000000004
 40
0.2421875000000004
 40
0.2500000000000003
 40
0.2500000000000003
 40
0.2812499999999997
 40
0.2812499999999997
 40
0.2968749999999993
 40
0.2968749999999993
 40
0.3046874999999992
 40
0.3046874999999992
 40
0.3085937499999991
 40
0.3085937499999991
 40
0.312499999999999
 40
0.3749999999999984
 40
0.3749999999999984
 40
0.4374999999999977
 40
0.4374999999999977
 40
0.4687499999999974
 40
0.4687499999999974
 40
0.4999999999999972
 40
0.4999999999999972
 40
0.5312499999999969
 40
0.5312499999999969
 40
0.5624999999999966
 40
0.5624999999999966
 40
0.6249999999999959
 40
0.6249999999999959
 40
0.6874999999999953
 40
0.6874999999999953
 40
0.6914062499999954
 40
0.6914062499999954
 40
0.6953124999999954
 40
0.6953124999999954
 40
0.7031249999999956
 40
0.7031249999999956
 40
0.7187499999999957
 40
0.7187499999999957
 40
0.749999999999996
 40
0.749999999999996
 40
0.7656249999999962
 40
0.7656249999999962
 40
0.7812499999999966
 40
0.7812499999999966
 40
0.812499999999997
 40
0.812499999999997
 40
0.8437499999999974
 40
0.8437499999999974
 40
0.8515624999999976
 40
0.8515624999999976
 40
0.8593749999999978
 40
0.8593749999999978
 40
0.874999999999998
 40
0.874999999999998
 40
0.9062499999999987
 40
0.9062499999999987
 40
0.921874999999999
 40
0.921874999999999
 40
0.9296874999999991
 40
0.9296874999999991
 40
0.9374999999999991
 40
0.9374999999999991
 40
0.9531249999999994
 40
0.9531249999999994
 40
0.9687499999999997
 40
0.9687499999999997
 40
1.0
 40
1.0
 40
1.0
 40
1.0
 10
-227.9040368378065
 20
1.233287765570662
 30
0.0
 10
-226.4090893553535
 20
6.70336861578254
 30
0.0
 10
-224.5219840102901
 20
11.99176459319701
 30
0.0
 10
-221.1851624400242
 20
19.68985539248312
 30
0.0
 10
-219.9888829389857
 20
22.21696624341389
 30
0.0
 10
-217.4329538017357
 20
27.19549933857395
 30
0.0
 10
-216.0725837459157
 20
29.64658781582495
 30
0.0
 10
-213.9056520907627
 20
33.26467086715918
 30
0.0
 10
-213.1622591322847
 20
34.46093117214488
 30
0.0
 10
-211.6325934368282
 20
36.83358578465641
 30
0.0
 10
-210.8448158204368
 20
38.01208906666764
 30
0.0
 10
-208.4303888009975
 20
41.49651546306132
 30
0.0
 10
-206.7518708062674
 20
43.75352995765354
 30
0.0
 10
-201.5150814530529
 20
50.33199366480914
 30
0.0
 10
-197.7564025330389
 20
54.46165530235848
 30
0.0
 10
-191.7214505188531
 20
60.27628714585235
 30
0.0
 10
-189.6434850323826
 20
62.15103529679016
 30
0.0
 10
-186.4257384286094
 20
64.86669471720069
 30
0.0
 10
-185.3363408991925
 20
65.75582246147842
 30
0.0
 10
-183.1234979092609
 20
67.50149449814495
 30
0.0
 10
-181.9990113133254
 20
68.35879924106564
 30
0.0
 10
-176.301318879575
 20
72.55431553103912
 30
0.0
 10
-171.5719125798791
 20
75.57161374289457
 30
0.0
 10
-161.7850092010434
 20
80.95652305922246
 30
0.0
 10
-156.7272886187348
 20
83.32369158153038
 30
0.0
 10
-148.8924511935158
 20
86.38284542011408
 30
0.0
 10
-146.2393086157146
 20
87.32032523588418
 30
0.0
 10
-142.1957240116182
 20
88.60006778546483
 30
0.0
 10
-140.8382926553231
 20
89.00512400429969
 30
0.0
 10
-138.1206075950272
 20
89.76764107981114
 30
0.0
 10
-136.7581323604304
 20
90.12582205408857
 30
0.0
 10
-129.9277902123703
 20
91.80259407045685
 30
0.0
 10
-124.4062303308204
 20
92.78008858331799
 30
0.0
 10
-116.03884807631
 20
93.70607937582132
 30
0.0
 10
-113.2355138732068
 20
93.9244912102917
 30
0.0
 10
-109.0088985337858
 20
94.11480099590797
 30
0.0
 10
-107.5959554894041
 20
94.1553367450007
 30
0.0
 10
-105.4725489417464
 20
94.18132649563815
 30
0.0
 10
-104.7647049053494
 20
94.1840817699476
 30
0.0
 10
-103.3490444307962
 20
94.19348801188995
 30
0.0
 10
-91.31593157313017
 20
94.27360707455921
 30
0.0
 10
-79.28283884660567
 20
94.35656779494637
 30
0.0
 10
-56.63233375857842
 20
94.51589067868741
 30
0.0
 10
-45.30706427103075
 20
94.59316041693445
 30
0.0
 10
-28.31929484082187
 20
94.72809318608454
 30
0.0
 10
-22.65676482453324
 20
94.78151110480347
 30
0.0
 10
-11.33165092067976
 20
94.88074261803904
 30
0.0
 10
-5.669040446675274
 20
94.92280334240321
 30
0.0
 10
5.656776016865492
 20
94.92286342356763
 30
0.0
 10
11.31940008105133
 20
94.88083857537355
 30
0.0
 10
22.64454464433792
 20
94.78162953974692
 30
0.0
 10
28.30709031428908
 20
94.72819623673523
 30
0.0
 10
45.29490600512771
 20
94.59324478693422
 30
0.0
 10
56.62020789756565
 20
94.51597708680904
 30
0.0
 10
79.27077719613685
 20
94.35665152181362
 30
0.0
 10
90.5960732233142
 20
94.27856913413221
 30
0.0
 10
102.6292195058128
 20
94.19828093480524
 30
0.0
 10
103.3370517099784
 20
94.19356780885936
 30
0.0
 10
104.752716260568
 20
94.18416131667199
 30
0.0
 10
105.4605625502464
 20
94.18140467537945
 30
0.0
 10
107.5839753754819
 20
94.15562720553962
 30
0.0
 10
108.9970942361193
 20
94.1152478590506
 30
0.0
 10
113.2234907762965
 20
93.92533878461496
 30
0.0
 10
116.026179839822
 20
93.70706646951463
 30
0.0
 10
124.390188188071
 20
92.7813520938335
 30
0.0
 10
129.9077313053733
 20
91.80475064004737
 30
0.0
 10
138.095589526566
 20
89.79597065801728
 30
0.0
 10
140.8100730386977
 20
89.03536323025014
 30
0.0
 10
146.2087599944135
 20
87.3279702472813
 30
0.0
 10
148.866739575065
 20
86.38949005508161
 30
0.0
 10
156.7110983534478
 20
83.3283804876057
 30
0.0
 10
161.7721279621242
 20
80.95978280483594
 30
0.0
 10
171.5616809311587
 20
75.57577990642929
 30
0.0
 10
176.2899663488497
 20
72.55991183299547
 30
0.0
 10
181.9839948807922
 20
68.36926439249653
 30
0.0
 10
183.1106410689262
 20
67.51085566099701
 30
0.0
 10
185.3258920519358
 20
65.76425761785345
 30
0.0
 10
186.4164770039523
 20
64.87463027400757
 30
0.0
 10
189.6376753421962
 20
62.15730475766446
 30
0.0
 10
191.7177722470902
 20
60.28120146349102
 30
0.0
 10
197.758943526411
 20
54.46209443432909
 30
0.0
 10
201.5220988878784
 20
50.32944380289305
 30
0.0
 10
206.7639556790895
 20
43.74443000363802
 30
0.0
 10
208.443929579841
 20
41.48492703098793
 30
0.0
 10
210.8606975208338
 20
37.99679265719477
 30
0.0
 10
211.6474054548688
 20
36.81984474842552
 30
0.0
 10
213.1756854875004
 20
34.44942118843989
 30
0.0
 10
213.9184546914165
 20
33.25423280330579
 30
0.0
 10
216.083608624986
 20
29.63918541303799
 30
0.0
 10
217.4428753898145
 20
27.18986084521911
 30
0.0
 10
219.9972278643435
 20
22.21456653914612
 30
0.0
 10
221.1933624954105
 20
19.68908647222958
 30
0.0
 10
224.5270435479501
 20
11.99373318786491
 30
0.0
 10
226.4075933391165
 20
6.703885406263221
 30
0.0
 10
227.903693257722
 20
1.234563653176272
 30
0.0
  0
SPLINE
  5
299
330
28C
100
AcDbEntity
  8
0
  6
Continuous
 62
     7
370
    25
100
AcDbSpline
210
0.0
220
0.0
230
1.0
 70
     8
 71
     3
 72
    47
 73
    43
 74
     0
 42
0.000000001
 43
0.00000001
 40
0.0
 40
0.0
 40
0.0
 40
0.0
 40
0.0063004809306199
 40
0.0127695163777792
 40
0.0194057061076855
 40
0.0262076698133196
 40
0.0331740488055282
 40
0.0403035072315801
 40
0.0475947327870819
 40
0.0550464368888336
 40
0.0626573542782101
 40
0.084832276811049
 40
0.1248752972978881
 40
0.1656489331838543
 40
0.2072581398827592
 40
0.2497202291467116
 40
0.3167014155074543
 40
0.3804298579526915
 40
0.4412130536318302
 40
0.4992931865176989
 40
0.5652203895299758
 40
0.6286484070895242
 40
0.6897635416857801
 40
0.7487134181509117
 40
0.7631254025608274
 40
0.7774762798649921
 40
0.7917676679214528
 40
0.806001155993017
 40
0.8201783050495222
 40
0.8343006472224455
 40
0.8483696851996366
 40
0.8623868915668259
 40
0.8763537081024516
 40
0.8902715198387526
 40
0.9041415965658921
 40
0.9179651851682805
 40
0.9317435327003962
 40
0.9454778839190098
 40
0.959169478785194
 40
0.9728195499461401
 40
0.9864293202066501
 40
1.0
 40
1.0
 40
1.0
 40
1.0
 10
223.3912856471907
 20
0.0002218163626625
 30
0.0
 10
223.3018177131659
 20
0.321517166196639
 30
0.0
 10
223.1204883414248
 20
0.9727033656294504
 30
0.0
 10
222.8339909259228
 20
1.959215815646489
 30
0.0
 10
222.5316472967474
 20
2.968725153264429
 30
0.0
 10
222.2120593629037
 20
4.000511385353487
 30
0.0
 10
221.8748513439277
 20
5.054125467492065
 30
0.0
 10
221.5193669097778
 20
6.129031184289678
 30
0.0
 10
221.1450314524058
 20
7.224703755643762
 30
0.0
 10
220.7512617484595
 20
8.340608616272778
 30
0.0
 10
220.0763653871016
 20
10.19270296556172
 30
0.0
 10
218.7415828133892
 20
13.64029383095584
 30
0.0
 10
216.5616406135908
 20
18.64032908569768
 30
0.0
 10
213.6650947948011
 20
24.44086387038022
 30
0.0
 10
210.4013503116516
 20
30.19131546732612
 30
0.0
 10
206.0782947909388
 20
36.92234653197962
 30
0.0
 10
200.5808896394424
 20
44.27370716861434
 30
0.0
 10
193.8328927098416
 20
51.85335601608725
 30
0.0
 10
186.8358497154906
 20
58.53642511623728
 30
0.0
 10
179.2541896817952
 20
64.73174249352064
 30
0.0
 10
171.0809198955156
 20
70.37886640292963
 30
0.0
 10
162.3245789266237
 20
75.40008201806091
 30
0.0
 10
153.5284461680597
 20
79.54277576584326
 30
0.0
 10
146.86564041502
 20
82.07024367086554
 30
0.0
 10
142.4516146854507
 20
83.51031589416431
 30
0.0
 10
140.2721930940073
 20
84.17703160065065
 30
0.0
 10
138.0899832093689
 20
84.80089041773238
 30
0.0
 10
135.9055967966024
 20
85.38227511646467
 30
0.0
 10
133.7196673176323
 20
85.92155616379577
 30
0.0
 10
131.5328050379469
 20
86.41911565110632
 30
0.0
 10
129.345609179182
 20
86.87534076413473
 30
0.0
 10
127.1586648231018
 20
87.29062521836806
 30
0.0
 10
124.9725454372794
 20
87.66536888146558
 30
0.0
 10
122.7878163840064
 20
87.99997552902285
 30
0.0
 10
120.6050226639365
 20
88.29476231275665
 30
0.0
 10
118.4247043567212
 20
88.55004878824435
 30
0.0
 10
116.2473898623473
 20
88.76618560757822
 30
0.0
 10
114.073594610828
 20
88.94344813839363
 30
0.0
 10
111.9038223065323
 20
89.08243242765533
 30
0.0
 10
109.7385608450787
 20
89.18258314931285
 30
0.0
 10
107.5782982514253
 20
89.24766175796994
 30
0.0
 10
106.13971543217
 20
89.25952252391912
 30
0.0
 10
105.4214584953775
 20
89.26544437791641
 30
0.0
  0
SPLINE
  5
29A
330
28C
100
AcDbEntity
  8
0
  6
Continuous
 62
     7
370
    25
100
AcDbSpline
210
0.0
220
0.0
230
1.0
 70
     8
 71
     3
 72
    24
 73
    20
 74
     0
 42
0.000000001
 43
0.00000001
 40
0.0
 40
0.0
 40
0.0
 40
0.0
 40
0.0849485528236653
 40
0.1682953209234206
 40
0.2499955044009449
 40
0.3124943760322216
 40
0.3749933047410304
 40
0.4062428556472137
 40
0.4374923524611557
 40
0.4687417576311777
 40
0.4999916623614845
 40
0.5312420615354733
 40
0.562492504170303
 40
0.593743032086367
 40
0.6249935788883202
 40
0.6874946181037492
 40
0.7499956911031574
 40
0.8731691366099618
 40
1.0
 40
1.0
 40
1.0
 40
1.0
 10
105.4214584953775
 20
89.2654443779164
 30
0.0
 10
99.45115905525414
 20
89.2973639268428
 30
0.0
 10
87.62313577662141
 20
89.36060115163055
 30
0.0
 10
70.05316975067629
 20
89.46366590800757
 30
0.0
 10
54.06101780752938
 20
89.56274056642741
 30
0.0
 10
39.53408153439649
 20
89.6566347733939
 30
0.0
 10
28.55296077056595
 20
89.73672303262369
 30
0.0
 10
19.76824723687723
 20
89.81341401236386
 30
0.0
 10
13.17967153587337
 20
89.86937247249402
 30
0.0
 10
6.590865180081447
 20
89.91289631404167
 30
0.0
 10
0.0017234919332543
 20
89.93136987419648
 30
0.0
 10
-6.587491225898392
 20
89.91291374638554
 30
0.0
 10
-13.17647784996918
 20
89.86939771397846
 30
0.0
 10
-19.76526897695136
 20
89.81344003675302
 30
0.0
 10
-28.55027327020169
 20
89.73674715629674
 30
0.0
 10
-39.53176688669947
 20
89.65662862714127
 30
0.0
 10
-56.9737883163853
 20
89.54402394319459
 30
0.0
 10
-78.93698253117003
 20
89.40865630322205
 30
0.0
 10
-96.50761711315928
 20
89.31364500650699
 30
0.0
 10
-105.4214584952456
 20
89.2654443780964
 30
0.0
  0
SPLINE
  5
29B
330
28C
100
AcDbEntity
  8
0
  6
Continuous
 62
     7
370
    25
100
AcDbSpline
210
0.0
220
0.0
230
1.0
 70
     8
 71
     3
 72
    59
 73
    55
 74
     0
 42
0.000000001
 43
0.00000001
 40
0.0
 40
0.0
 40
0.0
 40
0.0
 40
0.0068735797502199
 40
0.0137637716984238
 40
0.020670606353052
 40
0.0275941138753622
 40
0.0345343241259434
 40
0.0414912667148966
 40
0.0484649710557925
 40
0.0554554664234366
 40
0.0624627820156136
 40
0.069486947018816
 40
0.0765279906781019
 40
0.0835859423711495
 40
0.0906608316865986
 40
0.0977526885067738
 40
0.104861543094886
 40
0.1119874261867879
 40
0.1191303690873969
 40
0.1262904037948737
 40
0.1334675680044021
 40
0.1406619108382146
 40
0.1478734829209387
 40
0.1551023349263662
 40
0.162348517658727
 40
0.1696120821385813
 40
0.1768930796934532
 40
0.184191562053276
 40
0.1915075814507578
 40
0.1988411907267335
 40
0.2061924434406173
 40
0.2135613939860302
 40
0.2209480977116992
 40
0.2283526110477143
 40
0.235774991637238
 40
0.2432152984737554
 40
0.2506735920600269
 40
0.3097728351047138
 40
0.3710435330580811
 40
0.4345295710889617
 40
0.5002864732132263
 40
0.5587446598462944
 40
0.619781565306521
 40
0.6834703178409771
 40
0.7498977670326279
 40
0.8148839634954864
 40
0.8749555466717781
 40
0.906054947202434
 40
0.9372672600559859
 40
0.9496213778552186
 40
0.9620702108722953
 40
0.9746151501266759
 40
0.9872578027674024
 40
1.0
 40
1.0
 40
1.0
 40
1.0
 10
-105.4214584952456
 20
89.2654443780964
 30
0.0
 10
-105.7852497067051
 20
89.26333634756227
 30
0.0
 10
-106.513711347128
 20
89.25911519176586
 30
0.0
 10
-107.6076059280345
 20
89.24065220166189
 30
0.0
 10
-108.7039489535283
 20
89.21322210712117
 30
0.0
 10
-109.8026564436933
 20
89.17588357209436
 30
0.0
 10
-110.9036462621281
 20
89.12880150873262
 30
0.0
 10
-112.006834082616
 20
89.07184348632398
 30
0.0
 10
-113.1121344626273
 20
89.00495718909995
 30
0.0
 10
-114.2194605434869
 20
88.92806891476027
 30
0.0
 10
-115.3287241198519
 20
88.84111087435488
 30
0.0
 10
-116.439835609866
 20
88.74401385508294
 30
0.0
 10
-117.5527040520274
 20
88.63670919769378
 30
0.0
 10
-118.6672370948343
 20
88.51912826883131
 30
0.0
 10
-119.7833409884862
 20
88.39120260781493
 30
0.0
 10
-120.9009205755879
 20
88.25286388917176
 30
0.0
 10
-122.0198792837595
 20
88.10404394555395
 30
0.0
 10
-123.1401191115781
 20
87.94467473387814
 30
0.0
 10
-124.2615406405539
 20
87.77468846843693
 30
0.0
 10
-125.3840432100625
 20
87.5940170989612
 30
0.0
 10
-126.5075257402814
 20
87.40259407567943
 30
0.0
 10
-127.6318877874084
 20
87.20035967593604
 30
0.0
 10
-128.7570280726803
 20
86.98725356655633
 30
0.0
 10
-129.8828440189324
 20
86.76321590343865
 30
0.0
 10
-131.0092316225514
 20
86.5281870797541
 30
0.0
 10
-132.1360854557912
 20
86.28210780261627
 30
0.0
 10
-133.2632986553803
 20
86.02491907781992
 30
0.0
 10
-134.390762915255
 20
85.75656221913566
 30
0.0
 10
-135.5183684765329
 20
85.47697885166825
 30
0.0
 10
-136.6460041244026
 20
85.18611091435527
 30
0.0
 10
-137.7735571600278
 20
84.88390067194231
 30
0.0
 10
-138.9009134657859
 20
84.5702906898249
 30
0.0
 10
-140.0279572209876
 20
84.24522394845724
 30
0.0
 10
-141.1545719267182
 20
83.9086434349242
 30
0.0
 10
-142.2806365272914
 20
83.56049369288904
 30
0.0
 10
-143.4060398985091
 20
83.20071503708009
 30
0.0
 10
-147.125244318299
 20
81.97226570139551
 30
0.0
 10
-153.4602375252614
 20
79.5738761552156
 30
0.0
 10
-162.2759050814113
 20
75.42794001172231
 30
0.0
 10
-171.0354447332564
 20
70.40797605044754
 30
0.0
 10
-179.2226253011159
 20
64.75671226052079
 30
0.0
 10
-186.8244094385058
 20
58.54743708619792
 30
0.0
 10
-193.843382654499
 20
51.8421053238618
 30
0.0
 10
-200.5763898121509
 20
44.2732216611444
 30
0.0
 10
-206.7710456998099
 20
35.99320627457699
 30
0.0
 10
-212.1325887604853
 20
27.37695909477392
 30
0.0
 10
-215.9218003425867
 20
20.02049683940394
 30
0.0
 10
-218.5465682245501
 20
14.09622690795699
 30
0.0
 10
-219.9980200447577
 20
10.41855614932061
 30
0.0
 10
-221.0048011999519
 20
7.629462707838122
 30
0.0
 10
-221.6453865873939
 20
5.758996899138477
 30
0.0
 10
-222.2581252464608
 20
3.863203697207695
 30
0.0
 10
-222.8449677604818
 20
1.94290691041563
 30
0.0
 10
-223.2087674924238
 20
0.6493265259656925
 30
0.0
 10
-223.3913806636934
 20
-0.0000000005701966
 30
0.0
  0
SPLINE
  5
2B5
330
28C
100
AcDbEntity
  8
0
  6
Continuous
 62
     7
370
    25
100
AcDbSpline
210
0.0
220
0.0
230
1.0
 70
     8
 71
     3
 72
    18
 73
    14
 74
     0
 42
0.000000001
 43
0.00000001
 40
0.0
 40
0.0
 40
0.0
 40
0.0
 40
0.2500000000000029
 40
0.2500000000000029
 40
0.3750000000000044
 40
0.3750000000000044
 40
0.4375000000000053
 40
0.4375000000000053
 40
0.4531250000000053
 40
0.4531250000000053
 40
0.4687500000000054
 40
0.5000000000000052
 40
1.0
 40
1.0
 40
1.0
 40
1.0
 10
32.11308144671435
 20
0.0000000003308667
 30
0.0
 10
51.3990129105947
 20
0.0198968471835519
 30
0.0
 10
70.62552725945373
 20
0.0458898572885816
 30
0.0
 10
99.10327375468938
 20
0.0405215141578763
 30
0.0
 10
108.5355975292763
 20
0.0339659089852549
 30
0.0
 10
122.5581821494131
 20
0.0270052985305891
 30
0.0
 10
127.2113745326648
 20
0.0246780323352846
 30
0.0
 10
132.9977716606336
 20
0.0230260836170612
 30
0.0
 10
134.1549255476388
 20
0.0227587373422793
 30
0.0
 10
136.45942938522
 20
0.0222542202603592
 30
0.0
 10
139.8968514486195
 20
0.0214932497113796
 30
0.0
 10
179.3008535125881
 20
0.0124913141365383
 30
0.0
 10
209.3834546415355
 20
0.0028857125127553
 30
0.0
 10
223.391285647191
 20
0.0002218163626625
 30
0.0
  0
SPLINE
  5
2B6
330
28C
100
AcDbEntity
  8
0
  6
Continuous
 62
     7
370
    25
100
AcDbSpline
210
0.0
220
0.0
230
1.0
 70
     8
 71
     3
 72
    16
 73
    12
 74
     0
 42
0.000000001
 43
0.00000001
 40
0.0
 40
0.0
 40
0.0
 40
0.0
 40
0.2500000000000019
 40
0.3750000000000028
 40
0.4375000000000033
 40
0.4375000000000033
 40
0.4531250000000032
 40
0.4531250000000032
 40
0.468750000000003
 40
0.500000000000003
 40
1.0
 40
1.0
 40
1.0
 40
1.0
 10
-32.11308144666285
 20
0.0000000000000113
 30
0.0
 10
-51.39905201827338
 20
0.000000000000001
 30
0.0
 10
-80.24366139480979
 20
-0.0000000000000004
 30
0.0
 10
-113.2567446799888
 20
0.0
 30
0.0
 10
-127.2156435928371
 20
0.0
 30
0.0
 10
-133.0018670395037
 20
0.0
 30
0.0
 10
-134.1589906049527
 20
0.0000000000000004
 30
0.0
 10
-136.4634342829757
 20
-0.0000000000000006
 30
0.0
 10
-139.900763366009
 20
-0.0000000000000102
 30
0.0
 10
-179.30359103203
 20
-0.0000000000017721
 30
0.0
 10
-209.3842034847996
 20
-0.0000000000518743
 30
0.0
 10
-223.3913806636935
 20
-0.0000000005701966
 30
0.0
  0
SPLINE
  5
2B7
330
28C
100
AcDbEntity
  8
0
  6
Continuous
 62
     7
370
    25
100
AcDbSpline
210
0.0
220
0.0
230
1.0
 70
     8
 71
     3
 72
    36
 73
    32
 74
     0
 42
0.000000001
 43
0.00000001
 40
0.0
 40
0.0
 40
0.0
 40
0.0
 40
0.0089359380034479
 40
0.0178753323316956
 40
0.0268242739556308
 40
0.0357889110930488
 40
0.0447754375263897
 40
0.0537900805490658
 40
0.0628390886700352
 40
0.0939019097959959
 40
0.1251537748085052
 40
0.1564174980947021
 40
0.1878234322984893
 40
0.2501376388456056
 40
0.3126126497909458
 40
0.3751209684470781
 40
0.4374234498066458
 40
0.500049839394311
 40
0.5623301558477404
 40
0.6249226171650931
 40
0.6874012572033582
 40
0.7497891806796577
 40
0.8124210562906703
 40
0.843615920841162
 40
0.874791727946506
 40
0.9061622326230048
 40
0.9374746721049778
 40
0.9531636918643598
 40
0.9687913511711658
 40
0.9843920978724494
 40
1.0
 40
1.0
 40
1.0
 40
1.0
 10
-11.54202315784282
 20
85.19768364764009
 30
0.0
 10
-11.56898426116095
 20
85.22316958719173
 30
0.0
 10
-11.62291689606227
 20
85.27415132398251
 30
0.0
 10
-11.6925579889034
 20
85.3508779671425
 30
0.0
 10
-11.75386788295113
 20
85.42776769192945
 30
0.0
 10
-11.80597919807259
 20
85.50482755924456
 30
0.0
 10
-11.84904359716468
 20
85.58203687672692
 30
0.0
 10
-11.88293680092441
 20
85.65938328305448
 30
0.0
 10
-11.92758962399473
 20
85.79952391005568
 30
0.0
 10
-11.93795307155015
 20
86.00179576502704
 30
0.0
 10
-11.838428367528
 20
86.26149842791747
 30
0.0
 10
-11.62648077557247
 20
86.51420198973592
 30
0.0
 10
-11.19545700927546
 20
86.83671329943353
 30
0.0
 10
-10.38395709990106
 20
87.20977974336637
 30
0.0
 10
-9.008160126862988
 20
87.59405373055802
 30
0.0
 10
-7.279058448350035
 20
87.9059901422363
 30
0.0
 10
-5.261518762362684
 20
88.13973319002407
 30
0.0
 10
-3.037935833831436
 20
88.29138849150182
 30
0.0
 10
-0.690472613445557
 20
88.3593833983571
 30
0.0
 10
1.682867308062755
 20
88.34129083087778
 30
0.0
 10
3.990468471832282
 20
88.23784979588142
 30
0.0
 10
6.13991009291032
 20
88.0513663211407
 30
0.0
 10
7.728963099246842
 20
87.82841353692366
 30
0.0
 10
8.8398533265141
 20
87.6123381829207
 30
0.0
 10
9.586238904532902
 20
87.43205941801497
 30
0.0
 10
10.24015291701462
 20
87.23447003070225
 30
0.0
 10
10.7020919561071
 20
87.05610272513668
 30
0.0
 10
11.01918591757979
 20
86.906492874457
 30
0.0
 10
11.22955684437367
 20
86.79098154375932
 30
0.0
 10
11.41441946773807
 20
86.6727267600826
 30
0.0
 10
11.51449353686944
 20
86.59153858951926
 30
0.0
 10
11.56454204377772
 20
86.55093519694633
 30
0.0
  0
SPLINE
  5
2B8
330
28C
100
AcDbEntity
  8
0
  6
Continuous
 62
     7
370
    25
100
AcDbSpline
210
0.0
220
0.0
230
1.0
 70
     8
 71
     3
 72
    37
 73
    33
 74
     0
 42
0.000000001
 43
0.00000001
 40
0.0
 40
0.0
 40
0.0
 40
0.0
 40
0.0090054413823646
 40
0.0179820631016748
 40
0.0269362161485334
 40
0.0358742226623984
 40
0.0448023608870281
 40
0.0537268503713243
 40
0.0626538375819851
 40
0.0941950431058868
 40
0.1255306668613327
 40
0.1567965787167326
 40
0.1878271615418495
 40
0.2191588500745326
 40
0.2504916791649184
 40
0.3126861761475156
 40
0.3752373102850858
 40
0.4375422806699345
 40
0.4999626320416944
 40
0.5624947137867052
 40
0.6247535409513207
 40
0.6873581266176845
 40
0.7497153277210744
 40
0.81218960791048
 40
0.8433734651681943
 40
0.8748385655494497
 40
0.9058792643056758
 40
0.9371895255503649
 40
0.9528127819113303
 40
0.968466304271367
 40
0.9841840289943312
 40
0.9999999999999999
 40
0.9999999999999999
 40
0.9999999999999999
 40
0.9999999999999999
 10
11.56454204377772
 20
86.55093519694631
 30
0.0
 10
11.59101893963212
 20
86.52728278252475
 30
0.0
 10
11.6438879986571
 20
86.48005364731902
 30
0.0
 10
11.71148573381548
 20
86.4082538591328
 30
0.0
 10
11.77036789140906
 20
86.33593253109719
 30
0.0
 10
11.8197595294745
 20
86.26301785168748
 30
0.0
 10
11.85993112043089
 20
86.18953816359257
 30
0.0
 10
11.89087256416509
 20
86.11549184852737
 30
0.0
 10
11.93104572839361
 20
85.977939308705
 30
0.0
 10
11.93389044954071
 20
85.77491166355892
 30
0.0
 10
11.8231988845557
 20
85.50552378658247
 30
0.0
 10
11.60247376578446
 20
85.23704083782455
 30
0.0
 10
11.27273293926369
 20
84.97099202958513
 30
0.0
 10
10.83628617848346
 20
84.71014803412393
 30
0.0
 10
10.11964018515239
 20
84.373632028552
 30
0.0
 10
8.975780569891947
 20
83.98095454975677
 30
0.0
 10
7.259798447567378
 20
83.57969549961679
 30
0.0
 10
5.254412355325704
 20
83.26782192929629
 30
0.0
 10
3.036603232128487
 20
83.06129817056006
 30
0.0
 10
0.6936128676832091
 20
82.96941896642113
 30
0.0
 10
-1.680456633933824
 20
82.99357524204204
 30
0.0
 10
-3.982606569880853
 20
83.13389952747289
 30
0.0
 10
-6.123296509417255
 20
83.38607387188989
 30
0.0
 10
-7.701328978027846
 20
83.6793347083065
 30
0.0
 10
-8.80790082421265
 20
83.95476971443739
 30
0.0
 10
-9.550744308230529
 20
84.17898494044944
 30
0.0
 10
-10.20331679541538
 20
84.41819429696734
 30
0.0
 10
-10.66447247041662
 20
84.62706329314535
 30
0.0
 10
-10.98398937000777
 20
84.7990090849074
 30
0.0
 10
-11.19735487500113
 20
84.92999717543557
 30
0.0
 10
-11.38673429114074
 20
85.06296366182795
 30
0.0
 10
-11.49015279881695
 20
85.15268380843435
 30
0.0
 10
-11.54202315784282
 20
85.19768364764008
 30
0.0
  0
SPLINE
  5
2BD
330
28C
100
AcDbEntity
  8
0
  6
Continuous
 62
     7
370
    25
100
AcDbSpline
210
0.0
220
0.0
230
1.0
 70
     8
 71
     3
 72
    14
 73
    10
 74
     0
 42
0.000000001
 43
0.00000001
 40
0.0
 40
0.0
 40
0.0
 40
0.0
 40
0.1053845050903264
 40
0.223594119141077
 40
0.3546286732841851
 40
0.4984879356366966
 40
0.752861968868193
 40
0.9200389639452483
 40
1.0
 40
1.0
 40
1.0
 40
1.0
 10
-10.0
 20
87.84460850262398
 30
0.0
 10
-9.9993062850107
 20
87.81995977408208
 30
0.0
 10
-9.997834431137742
 20
87.76766261007725
 30
0.0
 10
-9.98486374660597
 20
87.6842664719366
 30
0.0
 10
-9.960676425223625
 20
87.59157298536284
 30
0.0
 10
-9.91241534082301
 20
87.46638706152898
 30
0.0
 10
-9.836710907363011
 20
87.33250717271812
 30
0.0
 10
-9.748173780153447
 20
87.21381071676596
 30
0.0
 10
-9.697077170933534
 20
87.15540859633343
 30
0.0
 10
-9.68054496100454
 20
87.1365127022608
 30
0.0
  0
SPLINE
  5
2C6
330
28C
100
AcDbEntity
  8
0
  6
Continuous
 62
     8
370
    25
100
AcDbSpline
210
0.0
220
0.0
230
1.0
 70
     8
 71
     3
 72
    24
 73
    20
 74
     0
 42
0.000000001
 43
0.00000001
 40
0.0
 40
0.0
 40
0.0
 40
0.0
 40
0.067762428931325
 40
0.1350001736881761
 40
0.2054031718302168
 40
0.2699060595218087
 40
0.3384720337962361
 40
0.4048491924264121
 40
0.4723502225925262
 40
0.539796657477511
 40
0.6065068627674598
 40
0.6746097773596076
 40
0.7396597548726956
 40
0.8093559944882097
 40
0.8531876793974245
 40
0.8974679309795278
 40
0.9442146559782271
 40
0.9847212255226793
 40
1.0
 40
1.0
 40
1.0
 40
1.0
 10
-9.680544961004541
 20
87.1365127022607
 30
0.0
 10
-9.50202720625718
 20
86.97168601844275
 30
0.0
 10
-9.146373958913559
 20
86.64330890305897
 30
0.0
 10
-8.22681013046897
 20
86.17349442761808
 30
0.0
 10
-7.068742077844948
 20
85.75852978146484
 30
0.0
 10
-5.659203791984774
 20
85.40492435971403
 30
0.0
 10
-4.085094949184287
 20
85.13846589230185
 30
0.0
 10
-2.341113797889083
 20
84.95988236637473
 30
0.0
 10
-0.5215394903821721
 20
84.88167581009175
 30
0.0
 10
1.320193814290945
 20
84.9034053365419
 30
0.0
 10
3.118649569931764
 20
85.02616120468625
 30
0.0
 10
4.784665331692437
 20
85.24273709797536
 30
0.0
 10
6.305574593114293
 20
85.5513330008632
 30
0.0
 10
7.455576642206306
 20
85.88757971820581
 30
0.0
 10
8.303116963172423
 20
86.22228465234578
 30
0.0
 10
8.913306097739643
 20
86.52760961490036
 30
0.0
 10
9.371004435797637
 20
86.83946322482659
 30
0.0
 10
9.66405257731197
 20
87.08881997430767
 30
0.0
 10
9.741915002051032
 20
87.22566952253837
 30
0.0
 10
9.763240359969076
 20
87.26315057462124
 30
0.0
  0
LINE
  5
2C7
330
28C
100
AcDbEntity
  8
0
  6
Continuous
 62
     7
370
    25
100
AcDbLine
 10
223.3912856472
 20
0.0002218164
 30
0.0
 11
227.9036932577
 21
1.2345636532
 31
0.0
  0
LINE
  5
2C8
330
28C
100
AcDbEntity
  8
0
  6
Continuous
 62
     7
370
    25
100
AcDbLine
 10
-227.9040368378
 20
1.2332877656
 30
0.0
 11
-223.3913806706
 21
-0.0000000257
 31
0.0
  0
LINE
  5
2C9
330
28C
100
AcDbEntity
  8
0
  6
Continuous
 62
     7
370
    25
100
AcDbLine
 10
250.0
 20
190.0
 30
0.0
 11
-250.0
 21
190.0
 31
0.0
  0
LINE
  5
2CA
330
28C
100
AcDbEntity
  8
0
  6
Continuous
 62
     7
370
    25
100
AcDbLine
 10
245.0
 20
-195.0
 30
0.0
 11
245.0
 21
195.0
 31
0.0
  0
LINE
  5
2CB
330
28C
100
AcDbEntity
  8
0
  6
Continuous
 62
     7
370
    25
100
AcDbLine
 10
-250.0
 20
-190.0
 30
0.0
 11
250.0
 21
-190.0
 31
0.0
  0
LINE
  5
2CC
330
28C
100
AcDbEntity
  8
0
  6
Continuous
 62
     7
370
    25
100
AcDbLine
 10
-245.0
 20
195.0
 30
0.0
 11
-245.0
 21
-195.0
 31
0.0
  0
LINE
  5
2CD
330
28C
100
AcDbEntity
  8
0
  6
Continuous
 62
     7
370
    25
100
AcDbLine
 10
245.0
 20
-195.0
 30
0.0
 11
-245.0
 21
-195.0
 31
0.0
  0
LINE
  5
2CE
330
28C
100
AcDbEntity
  8
0
  6
Continuous
 62
     7
370
    25
100
AcDbLine
 10
-245.0
 20
195.0
 30
0.0
 11
245.0
 21
195.0
 31
0.0
  0
LINE
  5
2CF
330
28C
100
AcDbEntity
  8
0
  6
Continuous
 62
     7
370
    25
100
AcDbLine
 10
-250.0
 20
-190.0
 30
0.0
 11
-250.0
 21
190.0
 31
0.0
  0
LINE
  5
2D0
330
28C
100
AcDbEntity
  8
0
  6
Continuous
 62
     7
370
    25
100
AcDbLine
 10
250.0
 20
190.0
 30
0.0
 11
250.0
 21
-190.0
 31
0.0
  0
LINE
  5
2D1
330
28C
100
AcDbEntity
  8
0
  6
Continuous
 62
     7
370
    25
100
AcDbLine
 10
0.0
 20
-17.5
 30
0.0
 11
0.0
 21
-22.5
 31
0.0
  0
LINE
  5
2D2
330
28C
100
AcDbEntity
  8
0
  6
Continuous
 62
     7
370
    25
100
AcDbLine
 10
0.0
 20
27.5
 30
0.0
 11
0.0
 21
32.5
 31
0.0
  0
ARC
  5
2D3
330
28C
100
AcDbEntity
  8
0
  6
Continuous
 62
     7
370
    25
100
AcDbCircle
 10
245.0
 20
-190.0
 30
0.0
 40
5.0
100
AcDbArc
 50
270.0
 51
0.0
  0
ARC
  5
2D4
330
28C
100
AcDbEntity
  8
0
  6
Continuous
 62
     7
370
    25
100
AcDbCircle
 10
-245.0
 20
190.0
 30
0.0
 40
5.0
100
AcDbArc
 50
90.0
 51
180.0
  0
ARC
  5
2D5
330
28C
100
AcDbEntity
  8
0
  6
Continuous
 62
     7
370
    25
100
AcDbCircle
 10
245.0
 20
190.0
 30
0.0
 40
5.0
100
AcDbArc
 50
0.0
 51
90.0
  0
ARC
  5
2D6
330
28C
100
AcDbEntity
  8
0
  6
Continuous
 62
     7
370
    25
100
AcDbCircle
 10
-245.0
 20
-190.0
 30
0.0
 40
5.0
100
AcDbArc
 50
180.0
 51
270.0
  0
ARC
  5
2D7
330
28C
100
AcDbEntity
  8
0
  6
Continuous
 62
     7
370
    25
100
AcDbCircle
 10
0.0
 20
5.0
 30
0.0
 40
32.50000000000043
100
AcDbArc
 50
50.5788982286
 51
351.1501169022
  0
ARC
  5
2D8
330
28C
100
AcDbEntity
  8
0
  6
Continuous
 62
     7
370
    25
100
AcDbCircle
 10
-11.7625995034
 20
87.2724811336
 30
0.0
 40
2.086489523556191
100
AcDbArc
 50
276.0684480836
 51
356.2636085324
  0
ARC
  5
2D9
330
28C
100
AcDbEntity
  8
0
  6
Continuous
 62
     7
370
    25
100
AcDbCircle
 10
0.0
 20
5.0
 30
0.0
 40
27.5
100
AcDbArc
 50
90.0
 51
270.0
  0
ARC
  5
2DA
330
28C
100
AcDbEntity
  8
0
  6
Continuous
 62
     7
370
    25
100
AcDbCircle
 10
0.0
 20
5.0
 30
0.0
 40
22.5
100
AcDbArc
 50
90.0
 51
270.0
  0
ARC
  5
2DB
330
28C
100
AcDbEntity
  8
0
  6
Continuous
 62
     8
370
    25
100
AcDbCircle
 10
11.521642198
 20
88.387798247
 30
0.0
 40
1.837363943652157
100
AcDbArc
 50
229.419628782
 51
271.3378968817
  0
VIEWPORT
  5
39E
330
28C
100
AcDbEntity
  8
0
100
AcDbViewport
 10
0.0
 20
0.0
 30
0.0
 40
205.6
 41
156.0
 68
     1
 69
     1
 12
0.0
 22
-71.0
 13
0.0
 23
0.0
 14
10.0
 24
10.0
 15
10.0
 25
10.0
 16
0.0
 26
0.0
 36
1.0
 17
0.0
 27
0.0
 37
0.0
 42
50.0
 43
0.0
 44
0.0
 45
386.9649805447
 50
0.0
 51
0.0
 72
   100
 90
   557152
  1

281
     0
 71
     1
 74
     0
110
0.0
120
0.0
130
0.0
111
1.0
121
0.0
131
0.0
112
0.0
122
1.0
132
0.0
 79
     0
146
0.0
  0
ENDBLK
  5
28F
330
28C
100
AcDbEntity
  8
0
100
AcDbBlockEnd
  0
BLOCK
  5
2DE
330
2DC
100
AcDbEntity
  8
0
100
AcDbBlockBegin
  2
*Paper_Space2
 70
     0
 10
0.0
 20
0.0
 30
0.0
  3
*Paper_Space2
  1

  0
SPLINE
  5
2E0
330
2DC
100
AcDbEntity
  8
0
  6
Continuous
 62
     7
370
    25
100
AcDbSpline
210
0.0
220
0.0
230
1.0
 70
     8
 71
     3
 72
    52
 73
    48
 74
     0
 42
0.000000001
 43
0.00000001
 40
0.0
 40
0.0
 40
0.0
 40
0.0
 40
0.0182188931140849
 40
0.0365646486635964
 40
0.0549149924816735
 40
0.0729780615831422
 40
0.0894358572813852
 40
0.1041563958984237
 40
0.1171615783403265
 40
0.1283709048749345
 40
0.1397988900665787
 40
0.1530002059978701
 40
0.1679970037543977
 40
0.184848358819193
 40
0.2085933760799197
 40
0.231565292771929
 40
0.2537683208364298
 40
0.2753906767573021
 40
0.2967632100342172
 40
0.3176626995153134
 40
0.3381401458700962
 40
0.358332389673475
 40
0.3785209351409585
 40
0.402536262826861
 40
0.4263290557917928
 40
0.4501048953673648
 40
0.4743253514141849
 40
0.4987719017408762
 40
0.5473459165930459
 40
0.5956957750346642
 40
0.6438968558561603
 40
0.6919994229799674
 40
0.7408800486111812
 40
0.7829787029189208
 40
0.8265076292036578
 40
0.8717597358461459
 40
0.8883382647896655
 40
0.9032083628479557
 40
0.9166639640460615
 40
0.928885694780956
 40
0.9528309528635797
 40
0.9572085536392954
 40
0.9629542241162038
 40
0.9701304106306661
 40
0.9787048954731455
 40
0.9886600858444239
 40
1.0
 40
1.0
 40
1.0
 40
1.0
 10
158.5090167767832
 20
-93.05564731047653
 30
0.0
 10
157.0050975104658
 20
-94.49972637350396
 30
0.0
 10
153.9867868344569
 20
-97.39793996153104
 30
0.0
 10
148.731077673148
 20
-101.4735213767176
 30
0.0
 10
143.0081725183638
 20
-105.3321469926073
 30
0.0
 10
136.9994520279045
 20
-108.8313927400118
 30
0.0
 10
131.0238439127694
 20
-111.8722434861817
 30
0.0
 10
125.3718471123348
 20
-114.4097398116375
 30
0.0
 10
120.1784898760844
 20
-116.4866497014755
 30
0.0
 10
115.2684299324392
 20
-118.2551984790795
 30
0.0
 10
110.1904002882043
 20
-119.9075074809075
 30
0.0
 10
104.4181601094599
 20
-121.5780890049171
 30
0.0
 10
97.67313569525787
 20
-123.2653053144948
 30
0.0
 10
89.1279035832264
 20
-125.0410404568599
 30
0.0
 10
79.08880809277748
 20
-126.6155530052414
 30
0.0
 10
67.97328723113284
 20
-127.7368826832689
 30
0.0
 10
57.07131674526662
 20
-128.262537458129
 30
0.0
 10
46.39305507285439
 20
-128.2430656407724
 30
0.0
 10
35.97051219610093
 20
-127.7111211919226
 30
0.0
 10
25.84983550138793
 20
-126.6988162162174
 30
0.0
 10
16.09962606577558
 20
-125.2411818742848
 30
0.0
 10
6.70104222822876
 20
-123.3616034892683
 30
0.0
 10
-2.92835181255767
 20
-120.9249854773373
 30
0.0
 10
-12.66389097060086
 20
-117.8549942724781
 30
0.0
 10
-22.32059817920326
 20
-114.0839493372265
 30
0.0
 10
-31.3413600743556
 20
-109.8167257096171
 30
0.0
 10
-39.65802571387019
 20
-104.995552654346
 30
0.0
 10
-50.97869178485363
 20
-98.57408400290782
 30
0.0
 10
-65.1076431734525
 20
-90.52516440246727
 30
0.0
 10
-82.01256369533216
 20
-80.89998322669888
 30
0.0
 10
-98.89577666955623
 20
-71.35619479441952
 30
0.0
 10
-115.7173559717739
 20
-61.70645293490171
 30
0.0
 10
-131.6783068058698
 20
-52.30953508208795
 30
0.0
 10
-147.1684705355663
 20
-43.28739611236703
 30
0.0
 10
-162.2219581325369
 20
-34.5164403604502
 30
0.0
 10
-174.320998789009
 20
-27.44281436890883
 30
0.0
 10
-183.1168700351296
 20
-22.34021545475581
 30
0.0
 10
-188.2005245053931
 20
-19.30358834096751
 30
0.0
 10
-192.4334768029528
 20
-16.40929763592821
 30
0.0
 10
-197.2478483898251
 20
-12.78038607368807
 30
0.0
 10
-200.832838691161
 20
-9.632493364231651
 30
0.0
 10
-203.5815466298309
 20
-6.894659938129384
 30
0.0
 10
-204.9009635752379
 20
-5.515240141949096
 30
0.0
 10
-206.4537453941344
 20
-3.789591048244591
 30
0.0
 10
-208.1830146440072
 20
-1.708935125946831
 30
0.0
 10
-210.0436768307421
 20
0.7338303847146608
 30
0.0
 10
-211.1997626367451
 20
2.50401088428278
 30
0.0
 10
-211.8153930404382
 20
3.446654527081691
 30
0.0
  0
SPLINE
  5
2E5
330
2DC
100
AcDbEntity
  8
0
  6
Continuous
 62
     7
370
    25
100
AcDbSpline
210
0.0
220
0.0
230
1.0
 70
     8
 71
     3
 72
    11
 73
     7
 74
     0
 42
0.000000001
 43
0.00000001
 40
0.0
 40
0.0
 40
0.0
 40
0.0
 40
0.2493497847760313
 40
0.4985546259994459
 40
0.748332677658815
 40
1.0
 40
1.0
 40
1.0
 40
1.0
 10
168.7875540962038
 20
-78.89885691160181
 30
0.0
 10
168.1398924605306
 20
-80.12009087180722
 30
0.0
 10
166.8449456658611
 20
-82.56184890594751
 30
0.0
 10
164.4375403548074
 20
-86.149941013805
 30
0.0
 10
161.7107289821368
 20
-89.6692175499055
 30
0.0
 10
159.578932669993
 20
-91.92400447637482
 30
0.0
 10
158.5090185826942
 20
-93.05564556363274
 30
0.0
  0
SPLINE
  5
2F0
330
2DC
100
AcDbEntity
  8
0
  6
Continuous
 62
     7
370
    25
100
AcDbSpline
210
0.0
220
0.0
230
1.0
 70
     8
 71
     3
 72
    17
 73
    13
 74
     0
 42
0.000000001
 43
0.00000001
 40
0.0
 40
0.0
 40
0.0
 40
0.0
 40
0.1532603659572716
 40
0.2733786034780413
 40
0.3595044902127923
 40
0.4346430546158987
 40
0.5357405277867914
 40
0.6631537900930291
 40
0.7373705712263495
 40
0.8179479514879328
 40
0.9056702429040968
 40
1.0
 40
1.0
 40
1.0
 40
1.0
 10
58.39285571541238
 20
16.67724250542832
 30
0.0
 10
58.95819024005624
 20
16.9035245049849
 30
0.0
 10
59.96660726868418
 20
17.30715565022333
 30
0.0
 10
61.48280917538169
 20
17.02833270028766
 30
0.0
 10
62.75586514546838
 20
16.47194484909251
 30
0.0
 10
64.03716117846956
 20
15.61060379479318
 30
0.0
 10
65.45757886740252
 20
14.25359515789296
 30
0.0
 10
66.69432280704446
 20
12.51184332988418
 30
0.0
 10
67.61270771157399
 20
10.68107648935255
 30
0.0
 10
68.22471883496405
 20
9.007552025560646
 30
0.0
 10
68.68045763988934
 20
7.127416690358553
 30
0.0
 10
68.76570785546159
 20
5.831272698914418
 30
0.0
 10
68.80988001497877
 20
5.15967933386565
 30
0.0
  0
SPLINE
  5
2F1
330
2DC
100
AcDbEntity
  8
0
  6
Continuous
 62
     7
370
    25
100
AcDbSpline
210
0.0
220
0.0
230
1.0
 70
     8
 71
     3
 72
    11
 73
     7
 74
     0
 42
0.000000001
 43
0.00000001
 40
0.0
 40
0.0
 40
0.0
 40
0.0
 40
0.2782025447493233
 40
0.5372707819868467
 40
0.7779381672593259
 40
1.0
 40
1.0
 40
1.0
 40
1.0
 10
68.80988001125957
 20
5.159679476834094
 30
0.0
 10
68.77563657311653
 20
4.237825552069959
 30
0.0
 10
68.70950490345257
 20
2.45752127957688
 30
0.0
 10
67.96285592662069
 20
0.3093055670228481
 30
0.0
 10
66.94457035192353
 20
-1.300981016599818
 30
0.0
 10
66.07801231561953
 20
-1.921727459048367
 30
0.0
 10
65.66215470769916
 20
-2.219621102482514
 30
0.0
  0
SPLINE
  5
2F2
330
2DC
100
AcDbEntity
  8
0
  6
Continuous
 62
     7
370
    25
100
AcDbSpline
210
0.0
220
0.0
230
1.0
 70
     8
 71
     3
 72
    14
 73
    10
 74
     0
 42
0.000000001
 43
0.00000001
 40
0.0
 40
0.0
 40
0.0
 40
0.0
 40
0.0615497755886096
 40
0.2432243180488862
 40
0.4196947752128876
 40
0.5951637062896358
 40
0.7739982404691802
 40
0.9747942763424292
 40
1.0
 40
1.0
 40
1.0
 40
1.0
 10
280.7433895728204
 20
-114.7835494141833
 30
0.0
 10
280.8890533817561
 20
-114.7117690631441
 30
0.0
 10
281.464668487644
 20
-114.4281169009085
 30
0.0
 10
282.2894000631846
 20
-113.6633282147671
 30
0.0
 10
283.1614292357316
 20
-112.5644873150846
 30
0.0
 10
283.7846868716568
 20
-111.3125716773526
 30
0.0
 10
284.1894544937703
 20
-109.9154582761395
 30
0.0
 10
284.3027729241269
 20
-108.8541148433398
 30
0.0
 10
284.3067365139438
 20
-108.2572320007395
 30
0.0
 10
284.3071785686863
 20
-108.1906623243893
 30
0.0
  0
SPLINE
  5
2F3
330
2DC
100
AcDbEntity
  8
0
  6
Continuous
 62
     7
370
    25
100
AcDbSpline
210
0.0
220
0.0
230
1.0
 70
     8
 71
     3
 72
    12
 73
     8
 74
     0
 42
0.000000001
 43
0.00000001
 40
0.0
 40
0.0
 40
0.0
 40
0.0
 40
0.1220844375121994
 40
0.3548905947455396
 40
0.587648194590436
 40
0.8207345565365002
 40
1.0
 40
1.0
 40
1.0
 40
1.0
 10
19.65258389749861
 20
-81.50134501199685
 30
0.0
 10
19.96824831673746
 20
-81.6904349594706
 30
0.0
 10
20.88586186164555
 20
-82.24010570610163
 30
0.0
 10
22.22734262538002
 20
-83.23340331404582
 30
0.0
 10
23.56155386099249
 20
-84.49511506177106
 30
0.0
 10
24.56566548147072
 20
-85.71701709137447
 30
0.0
 10
24.98888886967427
 20
-86.52447628719271
 30
0.0
 10
25.17288061501192
 20
-86.87551035305128
 30
0.0
  0
SPLINE
  5
2F5
330
2DC
100
AcDbEntity
  8
0
  6
Continuous
 62
     7
370
    25
100
AcDbSpline
210
0.0
220
0.0
230
1.0
 70
     8
 71
     3
 72
    18
 73
    14
 74
     0
 42
0.000000001
 43
0.00000001
 40
0.0
 40
0.0
 40
0.0
 40
0.0
 40
0.0263103241732415
 40
0.1334523016237142
 40
0.2406894970110843
 40
0.3479582338737306
 40
0.4552200916541941
 40
0.5624274254701893
 40
0.6695428458454619
 40
0.7765301664210179
 40
0.8833578567165207
 40
0.9844238883138905
 40
1.0
 40
1.0
 40
1.0
 40
1.0
 10
-3.268988670511961
 20
-78.26493389656883
 30
0.0
 10
-3.061628050777894
 20
-78.22649112896899
 30
0.0
 10
-2.009845040146086
 20
-78.03150015192107
 30
0.0
 10
-0.0493907205766763
 20
-77.79826880359762
 30
0.0
 10
2.607476218383595
 20
-77.64171585216361
 30
0.0
 10
5.281876511602713
 20
-77.67050817616864
 30
0.0
 10
7.930614837457846
 20
-77.87683194849956
 30
0.0
 10
10.51679361603936
 20
-78.25939794540291
 30
0.0
 10
13.00274652275487
 20
-78.81153554163001
 30
0.0
 10
15.35336479411717
 20
-79.52418235123382
 30
0.0
 10
17.49538038681849
 20
-80.37113989653538
 30
0.0
 10
18.88525632634104
 20
-81.06317319477216
 30
0.0
 10
19.56218805956436
 20
-81.44972571657983
 30
0.0
 10
19.65258389749861
 20
-81.50134501199685
 30
0.0
  0
SPLINE
  5
307
330
2DC
100
AcDbEntity
  8
0
  6
Continuous
 62
     7
370
    25
100
AcDbSpline
210
0.0
220
0.0
230
1.0
 70
     8
 71
     3
 72
    99
 73
    95
 74
     0
 42
0.000000001
 43
0.00000001
 40
0.0
 40
0.0
 40
0.0
 40
0.0
 40
0.0312500000000003
 40
0.0312500000000003
 40
0.0468750000000005
 40
0.0468750000000005
 40
0.0625000000000006
 40
0.0625000000000006
 40
0.0703125000000007
 40
0.0703125000000007
 40
0.0781250000000008
 40
0.0781250000000008
 40
0.093750000000001
 40
0.093750000000001
 40
0.1250000000000012
 40
0.1250000000000012
 40
0.1406250000000013
 40
0.1406250000000013
 40
0.1484375000000013
 40
0.1484375000000013
 40
0.1562500000000013
 40
0.1562500000000013
 40
0.1875000000000011
 40
0.1875000000000011
 40
0.2187500000000007
 40
0.2187500000000007
 40
0.2343750000000005
 40
0.2343750000000005
 40
0.2421875000000004
 40
0.2421875000000004
 40
0.2500000000000003
 40
0.2500000000000003
 40
0.2812499999999997
 40
0.2812499999999997
 40
0.2968749999999993
 40
0.2968749999999993
 40
0.3046874999999992
 40
0.3046874999999992
 40
0.3085937499999991
 40
0.3085937499999991
 40
0.312499999999999
 40
0.3749999999999984
 40
0.3749999999999984
 40
0.4374999999999977
 40
0.4374999999999977
 40
0.4687499999999974
 40
0.4687499999999974
 40
0.4999999999999972
 40
0.4999999999999972
 40
0.5312499999999969
 40
0.5312499999999969
 40
0.5624999999999966
 40
0.5624999999999966
 40
0.6249999999999959
 40
0.6249999999999959
 40
0.6874999999999953
 40
0.6874999999999953
 40
0.6914062499999954
 40
0.6914062499999954
 40
0.6953124999999954
 40
0.6953124999999954
 40
0.7031249999999956
 40
0.7031249999999956
 40
0.7187499999999957
 40
0.7187499999999957
 40
0.749999999999996
 40
0.749999999999996
 40
0.7656249999999962
 40
0.7656249999999962
 40
0.7812499999999966
 40
0.7812499999999966
 40
0.812499999999997
 40
0.812499999999997
 40
0.8437499999999974
 40
0.8437499999999974
 40
0.8515624999999976
 40
0.8515624999999976
 40
0.8593749999999978
 40
0.8593749999999978
 40
0.874999999999998
 40
0.874999999999998
 40
0.9062499999999987
 40
0.9062499999999987
 40
0.921874999999999
 40
0.921874999999999
 40
0.9296874999999991
 40
0.9296874999999991
 40
0.9374999999999991
 40
0.9374999999999991
 40
0.9531249999999994
 40
0.9531249999999994
 40
0.9687499999999997
 40
0.9687499999999997
 40
1.0
 40
1.0
 40
1.0
 40
1.0
 10
-160.280423765612
 20
93.53478526377532
 30
0.0
 10
-155.3554050004282
 20
95.15745082728306
 30
0.0
 10
-150.2815593568911
 20
96.54587145874206
 30
0.0
 10
-142.4786979905816
 20
98.32615924694949
 30
0.0
 10
-139.8458634236995
 20
98.86941000170948
 30
0.0
 10
-134.5181940865684
 20
99.85832676319528
 30
0.0
 10
-131.8230859116226
 20
100.3035624466806
 30
0.0
 10
-127.7324627834015
 20
100.8959283323432
 30
0.0
 10
-126.3609208076558
 20
101.0807906199775
 30
0.0
 10
-123.6015636555296
 20
101.4249021150077
 30
0.0
 10
-122.2111930985515
 20
101.5843979164623
 30
0.0
 10
-118.0400738469906
 20
102.0211760019577
 30
0.0
 10
-115.2572321362108
 20
102.257320619532
 30
0.0
 10
-106.902586575788
 20
102.8049975325229
 30
0.0
 10
-101.3246874752261
 20
102.9564341824939
 30
0.0
 10
-92.94576637522215
 20
102.8664985952184
 30
0.0
 10
-90.15077575812217
 20
102.7835444546224
 30
0.0
 10
-85.95522412288878
 20
102.5785904299527
 30
0.0
 10
-84.5561954851103
 20
102.4968394913823
 30
0.0
 10
-81.75710266637391
 20
102.3061384134555
 30
0.0
 10
-80.35576457177197
 20
102.197073697389
 30
0.0
 10
-73.36020959553291
 20
101.583879302806
 30
0.0
 10
-67.88246230356651
 20
100.8849898371909
 30
0.0
 10
-57.15437066392415
 20
99.0880780067775
 30
0.0
 10
-51.9041812284917
 20
97.98978374324454
 30
0.0
 10
-44.20096613166985
 20
96.04033033343073
 30
0.0
 10
-41.66201268849532
 20
95.33998983539357
 30
0.0
 10
-37.8978519596558
 20
94.21177829884186
 30
0.0
 10
-36.65158504352434
 20
93.82301490498143
 30
0.0
 10
-34.19071051339509
 20
93.02490740360442
 30
0.0
 10
-32.97402284000935
 20
92.61495041321352
 30
0.0
 10
-26.95858472601395
 20
90.51124218303333
 30
0.0
 10
-22.36305929242567
 20
88.65633626920824
 30
0.0
 10
-15.79165219078597
 20
85.6187300927928
 30
0.0
 10
-13.65495507659413
 20
84.5635542977009
 30
0.0
 10
-10.53171736868702
 20
82.91591799974027
 30
0.0
 10
-9.503952657510458
 20
82.35569577544102
 30
0.0
 10
-7.98409995952866
 20
81.49952173196075
 30
0.0
 10
-7.481630368221665
 20
81.2117016394991
 30
0.0
 10
-6.473956029344419
 20
80.63766295810484
 30
0.0
 10
2.091392403610032
 20
75.75840241070387
 30
0.0
 10
10.65873595713989
 20
70.8803100571225
 30
0.0
 10
26.78771999367583
 20
61.69931825909159
 30
0.0
 10
34.85053280298084
 20
57.10783914053715
 30
0.0
 10
46.95811164038535
 20
50.22844286188138
 30
0.0
 10
50.99989718613845
 20
47.93878055359198
 30
0.0
 10
59.07812930117956
 20
43.35632983055789
 30
0.0
 10
63.11194098998561
 20
41.06199862630319
 30
0.0
 10
71.1205450976283
 20
36.43877893475324
 30
0.0
 10
75.09490891758787
 20
34.11011811116945
 30
0.0
 10
83.03284405435919
 20
29.44665063592757
 30
0.0
 10
86.99908544545943
 20
27.11336483566012
 30
0.0
 10
98.91586003271337
 20
20.12378184042534
 30
0.0
 10
106.8694212851159
 20
15.46920668492958
 30
0.0
 10
122.7731322464467
 20
6.158115086710096
 30
0.0
 10
130.7261132803881
 20
1.503209766672744
 30
0.0
 10
139.1780602855592
 20
-3.441543319824908
 30
0.0
 10
139.67524055375
 20
-3.732407213597091
 30
0.0
 10
140.6696151629444
 20
-4.314126993220452
 30
0.0
 10
141.1681888346625
 20
-4.604197991785332
 30
0.0
 10
142.6514410189194
 20
-5.481506187160375
 30
0.0
 10
143.6221144381765
 20
-6.074830050569295
 30
0.0
 10
146.4763420973768
 20
-7.877583914598328
 30
0.0
 10
148.3038007056003
 20
-9.110752602104949
 30
0.0
 10
153.5634688140621
 20
-12.90285509630511
 30
0.0
 10
156.7743994573069
 20
-15.55379124989809
 30
0.0
 10
161.143667581701
 20
-19.71610032111431
 30
0.0
 10
162.5252666105534
 20
-21.13464653744183
 30
0.0
 10
165.1354056100358
 20
-24.03537719004323
 30
0.0
 10
166.3512752878562
 20
-25.50346665624308
 30
0.0
 10
169.7335432409937
 20
-29.95512306663549
 30
0.0
 10
171.6373801136853
 20
-32.98792706091353
 30
0.0
 10
174.7525744434832
 20
-39.18183410860054
 30
0.0
 10
175.9634363598289
 20
-42.34302897327773
 30
0.0
 10
177.0264873242962
 20
-46.37799379659785
 30
0.0
 10
177.2161598488508
 20
-47.18830126599906
 30
0.0
 10
177.547547520653
 20
-48.80554410738322
 30
0.0
 10
177.6896460081214
 20
-49.6138747981198
 30
0.0
 10
178.0459378973432
 20
-52.03800432168858
 30
0.0
 10
178.1901831628024
 20
-53.65294128894521
 30
0.0
 10
178.3472062999488
 20
-58.49435499870528
 30
0.0
 10
178.0859336889376
 20
-61.71745502969767
 30
0.0
 10
177.1361782603514
 20
-66.54523157346465
 30
0.0
 10
176.7263893237172
 20
-68.15334201135616
 30
0.0
 10
175.9688188539484
 20
-70.56374708601214
 30
0.0
 10
175.6928775215238
 20
-71.36531936545887
 30
0.0
 10
175.0973921225994
 20
-72.9567859847614
 30
0.0
 10
174.7774834516213
 20
-73.74786813279586
 30
0.0
 10
173.7522539563919
 20
-76.10736975717042
 30
0.0
 10
172.9814666920121
 20
-77.66205218646593
 30
0.0
 10
171.2696023060691
 20
-80.73568454188752
 30
0.0
 10
170.3296131338406
 20
-82.25486275614372
 30
0.0
 10
167.245445121404
 20
-86.75695930525363
 30
0.0
 10
164.8347073932815
 20
-89.68394467695448
 30
0.0
 10
162.0252152909612
 20
-92.52725805447218
 30
0.0
  0
SPLINE
  5
308
330
2DC
100
AcDbEntity
  8
0
  6
Continuous
 62
     7
370
    25
100
AcDbSpline
210
0.0
220
0.0
230
1.0
 70
     8
 71
     3
 72
   139
 73
   135
 74
     0
 42
0.000000001
 43
0.00000001
 40
0.0
 40
0.0
 40
0.0
 40
0.0
 40
0.0156250000000005
 40
0.0156250000000005
 40
0.0234375000000008
 40
0.0234375000000008
 40
0.031250000000001
 40
0.031250000000001
 40
0.0468750000000015
 40
0.0468750000000015
 40
0.062500000000002
 40
0.062500000000002
 40
0.0781250000000025
 40
0.0781250000000025
 40
0.0859375000000027
 40
0.0859375000000027
 40
0.0898437500000028
 40
0.0898437500000028
 40
0.0937500000000029
 40
0.0937500000000029
 40
0.1093750000000032
 40
0.1093750000000032
 40
0.1250000000000035
 40
0.1250000000000035
 40
0.1406250000000037
 40
0.1406250000000037
 40
0.1484375000000039
 40
0.1484375000000039
 40
0.152343750000004
 40
0.152343750000004
 40
0.1562500000000041
 40
0.1562500000000041
 40
0.1875000000000052
 40
0.1875000000000052
 40
0.2031250000000057
 40
0.2031250000000057
 40
0.2109375000000059
 40
0.2109375000000059
 40
0.2187500000000061
 40
0.2187500000000061
 40
0.2500000000000067
 40
0.2500000000000067
 40
0.265625000000007
 40
0.265625000000007
 40
0.2734375000000071
 40
0.2734375000000071
 40
0.2773437500000072
 40
0.2773437500000072
 40
0.2812500000000072
 40
0.2812500000000072
 40
0.3125000000000075
 40
0.3125000000000075
 40
0.3281250000000076
 40
0.3281250000000076
 40
0.3437500000000077
 40
0.3437500000000077
 40
0.3476562500000077
 40
0.3476562500000077
 40
0.3515625000000078
 40
0.3593750000000077
 40
0.3750000000000077
 40
0.3750000000000077
 40
0.4062500000000077
 40
0.4062500000000077
 40
0.4375000000000075
 40
0.4375000000000075
 40
0.4531250000000075
 40
0.4531250000000075
 40
0.4687500000000075
 40
0.4687500000000075
 40
0.5000000000000073
 40
0.5000000000000073
 40
0.5312500000000073
 40
0.5312500000000073
 40
0.5625000000000072
 40
0.5625000000000072
 40
0.6250000000000071
 40
0.6250000000000071
 40
0.640625000000007
 40
0.640625000000007
 40
0.6484375000000071
 40
0.6523437500000071
 40
0.6523437500000071
 40
0.6562500000000071
 40
0.6562500000000071
 40
0.6718750000000071
 40
0.6718750000000071
 40
0.687500000000007
 40
0.687500000000007
 40
0.6953125000000069
 40
0.6953125000000069
 40
0.7031250000000069
 40
0.7031250000000069
 40
0.7187500000000066
 40
0.7187500000000066
 40
0.7500000000000061
 40
0.7500000000000061
 40
0.7578125000000061
 40
0.7578125000000061
 40
0.765625000000006
 40
0.765625000000006
 40
0.7812500000000059
 40
0.7812500000000059
 40
0.8125000000000056
 40
0.8125000000000056
 40
0.8164062500000054
 40
0.8164062500000054
 40
0.8203125000000053
 40
0.8203125000000053
 40
0.8281250000000051
 40
0.8281250000000051
 40
0.8437500000000048
 40
0.8437500000000048
 40
0.8750000000000039
 40
0.8750000000000039
 40
0.8828125000000038
 40
0.8828125000000038
 40
0.8906250000000036
 40
0.8906250000000036
 40
0.906250000000003
 40
0.906250000000003
 40
0.9375000000000021
 40
0.9375000000000021
 40
0.941406250000002
 40
0.941406250000002
 40
0.9453125000000019
 40
0.9453125000000019
 40
0.9531250000000016
 40
0.9531250000000016
 40
0.9687500000000011
 40
0.9687500000000011
 40
0.9843750000000006
 40
0.9843750000000006
 40
1.0
 40
1.0
 40
1.0
 40
1.0
 10
162.0252152909611
 20
-92.52725805447224
 30
0.0
 10
160.2706591297969
 20
-94.30293594319919
 30
0.0
 10
158.3807197087614
 20
-96.02666567498925
 30
0.0
 10
155.3540872803379
 20
-98.53869377764588
 30
0.0
 10
154.313174250583
 20
-99.36374405797466
 30
0.0
 10
152.1682702771371
 20
-100.9896408775232
 30
0.0
 10
151.0685240611765
 20
-101.7872369424224
 30
0.0
 10
147.6953261689625
 20
-104.1318940609403
 30
0.0
 10
145.3461646655068
 20
-105.6327536984651
 30
0.0
 10
140.454947341104
 20
-108.5148398558976
 30
0.0
 10
137.9125786365097
 20
-109.8958723252669
 30
0.0
 10
132.6337201927856
 20
-112.5375433360833
 30
0.0
 10
129.8972265483112
 20
-113.7981794554346
 30
0.0
 10
125.642270805614
 20
-115.595970072084
 30
0.0
 10
124.1988179472037
 20
-116.1796453239879
 30
0.0
 10
121.9953278508767
 20
-117.031397825985
 30
0.0
 10
121.2541149666228
 20
-117.3114681668899
 30
0.0
 10
119.7658649784546
 20
-117.8610970434626
 30
0.0
 10
119.0179984380731
 20
-118.1309835242212
 30
0.0
 10
115.2601607486646
 20
-119.456043172685
 30
0.0
 10
112.1948227115765
 20
-120.4382931019405
 30
0.0
 10
105.9487189921665
 20
-122.2507642300709
 30
0.0
 10
102.7679353268776
 20
-123.0809617437389
 30
0.0
 10
96.29014347499275
 20
-124.5882784822677
 30
0.0
 10
92.99323019248342
 20
-125.2655227044613
 30
0.0
 10
87.95987485239588
 20
-126.1655042242949
 30
0.0
 10
86.26739138874211
 20
-126.4461389971034
 30
0.0
 10
83.70623950978995
 20
-126.837553169918
 30
0.0
 10
82.84776754656515
 20
-126.9632406532792
 30
0.0
 10
81.12908674794002
 20
-127.2038722026291
 30
0.0
 10
80.26904524056894
 20
-127.3188094883019
 30
0.0
 10
72.52241997985898
 20
-128.3052857340796
 30
0.0
 10
65.59227066621843
 20
-128.8426153177884
 30
0.0
 10
55.13267655194798
 20
-129.1547997785408
 30
0.0
 10
51.63534819707745
 20
-129.1760331535323
 30
0.0
 10
46.37294945619438
 20
-129.0820244252731
 30
0.0
 10
44.61607783401145
 20
-129.0296784199457
 30
0.0
 10
41.09675730808125
 20
-128.8822007827359
 30
0.0
 10
39.33096160461724
 20
-128.7867503099245
 30
0.0
 10
30.5650971220671
 20
-128.2062600870657
 30
0.0
 10
23.70628298379178
 20
-127.4129975050263
 30
0.0
 10
13.64088236331863
 20
-125.7468863730026
 30
0.0
 10
10.32311487990768
 20
-125.1116564038406
 30
0.0
 10
5.403214657749206
 20
-124.037521907497
 30
0.0
 10
3.77270621011476
 20
-123.6592625948913
 30
0.0
 10
1.34133732910495
 20
-123.0611108875656
 30
0.0
 10
0.5332812445315999
 20
-122.8565972032994
 30
0.0
 10
-1.077980510669235
 20
-122.4372034190517
 30
0.0
 10
-1.881784208900311
 20
-122.2221442347717
 30
0.0
 10
-9.061330710931001
 20
-120.2486193936473
 30
0.0
 10
-15.10895684433558
 20
-118.2137343827876
 30
0.0
 10
-23.6987957894173
 20
-114.7569799495532
 30
0.0
 10
-26.48145853243047
 20
-113.537029906155
 30
0.0
 10
-31.88352002493287
 20
-110.9600278289424
 30
0.0
 10
-34.50397879162848
 20
-109.602642527689
 30
0.0
 10
-37.67225137583312
 20
-107.8189205717653
 30
0.0
 10
-38.29996036187752
 20
-107.4586962829567
 30
0.0
 10
-39.55969227104185
 20
-106.7407726370729
 30
0.0
 10
-41.44937429958247
 20
-105.6639364295956
 30
0.0
 10
-45.85920246787033
 20
-103.1516522906032
 30
0.0
 10
-49.63995938760163
 20
-100.9987951131093
 30
0.0
 10
-57.2024035377418
 20
-96.69362526558864
 30
0.0
 10
-62.24524287615923
 20
-93.8242204926994
 30
0.0
 10
-72.33182374688286
 20
-88.08593942539734
 30
0.0
 10
-77.3747550962394
 20
-85.21658859413274
 30
0.0
 10
-84.94241539733962
 20
-80.91447347540476
 30
0.0
 10
-87.46569635933362
 20
-79.48086117720165
 30
0.0
 10
-92.51510553128699
 20
-76.61530406280261
 30
0.0
 10
-95.04205007762526
 20
-75.18383733149435
 30
0.0
 10
-102.6203296455677
 20
-70.88794135370745
 30
0.0
 10
-107.6656759076597
 20
-68.02000480865324
 30
0.0
 10
-117.6802376993253
 20
-62.23954598937004
 30
0.0
 10
-122.6439532332054
 20
-59.3244435202057
 30
0.0
 10
-132.5846711491008
 20
-53.50183183293038
 30
0.0
 10
-137.5623722714392
 20
-50.59471560282834
 30
0.0
 10
-152.5048671981905
 20
-41.87873302715663
 30
0.0
 10
-162.4729593147171
 20
-36.07175026891438
 30
0.0
 10
-174.9255595962926
 20
-28.8087291631785
 30
0.0
 10
-177.4157728184308
 20
-27.35594967150759
 30
0.0
 10
-181.1504038006836
 20
-25.17638694697563
 30
0.0
 10
-183.017545956615
 20
-24.08650657178144
 30
0.0
 10
-184.8843719820966
 20
-22.99644561582492
 30
0.0
 10
-186.1288449653286
 20
-22.2696939276399
 30
0.0
 10
-186.7531709905118
 20
-21.90751167171434
 30
0.0
 10
-189.8404772211497
 20
-20.07699381773591
 30
0.0
 10
-192.1963818384992
 20
-18.55895501668986
 30
0.0
 10
-196.676784571545
 20
-15.42042247349104
 30
0.0
 10
-198.8033115592889
 20
-13.79980579370359
 30
0.0
 10
-201.8213633715799
 20
-11.29130084030049
 30
0.0
 10
-202.7986465525603
 20
-10.44215240107618
 30
0.0
 10
-204.6952953460235
 20
-8.717692276207217
 30
0.0
 10
-205.6121300486384
 20
-7.844674123375493
 30
0.0
 10
-208.2582483530084
 20
-5.20420532335189
 30
0.0
 10
-209.8876297227183
 20
-3.410994246226179
 30
0.0
 10
-214.3807645459526
 20
2.065116130582363
 30
0.0
 10
-216.8521902110906
 20
5.843837646218951
 30
0.0
 10
-219.2709008798667
 20
10.73102003405996
 30
0.0
 10
-219.7212981791824
 20
11.71771922725173
 30
0.0
 10
-220.5516512385638
 20
13.70350814125001
 30
0.0
 10
-220.9298516199898
 20
14.69811925503769
 30
0.0
 10
-221.9550200822955
 20
17.68703312439509
 30
0.0
 10
-222.4926674974119
 20
19.68641120748853
 30
0.0
 10
-223.6765930727643
 20
25.70446300939302
 30
0.0
 10
-223.89612298935
 20
29.74294896673651
 30
0.0
 10
-223.4843347263133
 20
34.31682927147656
 30
0.0
 10
-223.4293680038379
 20
34.82546589293583
 30
0.0
 10
-223.3008681944743
 20
35.84360109895773
 30
0.0
 10
-223.2272852219826
 20
36.35319573303585
 30
0.0
 10
-222.9796008085382
 20
37.87641604312672
 30
0.0
 10
-222.7783600938189
 20
38.88676680891725
 30
0.0
 10
-222.0681248303931
 20
41.9026921281402
 30
0.0
 10
-221.4528156323292
 20
43.89316789009156
 30
0.0
 10
-219.1866379600516
 20
49.80491131923151
 30
0.0
 10
-217.1196935971151
 20
53.66708794749024
 30
0.0
 10
-213.8195445337758
 20
58.39305596209608
 30
0.0
 10
-213.1223821189821
 20
59.33436540173411
 30
0.0
 10
-211.6677759233939
 20
61.19039523340186
 30
0.0
 10
-210.9091074728753
 20
62.10698250421817
 30
0.0
 10
-208.5403210672291
 20
64.8229404898833
 30
0.0
 10
-206.8377888795798
 20
66.58864102563008
 30
0.0
 10
-201.3654834895629
 20
71.75286470711755
 30
0.0
 10
-197.233075694085
 20
75.01926565300379
 30
0.0
 10
-192.0209704942593
 20
78.48879008319743
 30
0.0
 10
-191.4335808292099
 20
78.87165727010859
 30
0.0
 10
-190.2481593079824
 20
79.62831162263217
 30
0.0
 10
-189.64955847592
 20
80.00248848529853
 30
0.0
 10
-187.8362453402957
 20
81.11268057357645
 30
0.0
 10
-186.6040338224635
 20
81.83636534996802
 30
0.0
 10
-182.8382485274501
 20
83.95869407960465
 30
0.0
 10
-180.2353249893013
 20
85.30847219848664
 30
0.0
 10
-174.8507054017318
 20
87.88206018772865
 30
0.0
 10
-172.0704779919037
 20
89.10690490374726
 30
0.0
 10
-166.3256702348491
 20
91.42669395865936
 30
0.0
 10
-163.3593003842355
 20
92.52037736204441
 30
0.0
 10
-160.2804237656118
 20
93.53478526377538
 30
0.0
  0
SPLINE
  5
312
330
2DC
100
AcDbEntity
  8
0
  6
Continuous
 62
     7
370
    25
100
AcDbSpline
210
0.0
220
0.0
230
1.0
 70
     8
 71
     3
 72
    16
 73
    12
 74
     0
 42
0.000000001
 43
0.00000001
 40
0.0
 40
0.0
 40
0.0
 40
0.0
 40
0.2500000000000019
 40
0.3750000000000028
 40
0.4375000000000033
 40
0.4375000000000033
 40
0.4531250000000032
 40
0.4531250000000032
 40
0.468750000000003
 40
0.500000000000003
 40
1.0
 40
1.0
 40
1.0
 40
1.0
 10
-22.70737765573116
 20
-68.54539109423553
 30
0.0
 10
-36.34461822868115
 20
-60.67277968471707
 30
0.0
 10
-56.74083711950708
 20
-46.9876825169648
 30
0.0
 10
-80.08461217833336
 20
-27.99770920718245
 30
0.0
 10
-89.95504425750593
 20
-19.23892442277908
 30
0.0
 10
-94.04652209410445
 20
-15.50521765980033
 30
0.0
 10
-94.86473201390417
 20
-14.75569303056455
 30
0.0
 10
-96.49421976549672
 20
-13.24131216813267
 30
0.0
 10
-98.92477846927937
 20
-10.94205893954966
 30
0.0
 10
-126.7867851098489
 20
16.82481140336122
 30
0.0
 10
-148.0569901574822
 20
53.5859477915861
 30
0.0
 10
-157.961560126326
 20
88.54769115800492
 30
0.0
  0
SPLINE
  5
313
330
2DC
100
AcDbEntity
  8
0
  6
Continuous
 62
     7
370
    25
100
AcDbSpline
210
0.0
220
0.0
230
1.0
 70
     8
 71
     3
 72
    15
 73
    11
 74
     0
 42
0.000000001
 43
0.00000001
 40
0.0
 40
0.0
 40
0.0
 40
0.0
 40
0.0918367386506981
 40
0.1970014284321101
 40
0.394758689919545
 40
0.4656163165380121
 40
0.5388981381089875
 40
0.6146044774102497
 40
0.7755646279113199
 40
1.0
 40
1.0
 40
1.0
 40
1.0
 10
201.7041638991864
 20
-160.0945151897338
 30
0.0
 10
201.9039220757738
 20
-160.0419152680269
 30
0.0
 10
202.3324286484908
 20
-159.9290817782501
 30
0.0
 10
203.1379986194039
 20
-159.5450749655241
 30
0.0
 10
203.8344440010605
 20
-159.026031346246
 30
0.0
 10
204.3947269312532
 20
-158.4267573176114
 30
0.0
 10
204.7284745340223
 20
-158.0016422840201
 30
0.0
 10
205.1552951419101
 20
-157.346053790678
 30
0.0
 10
205.6994664304561
 20
-156.2553530009285
 30
0.0
 10
205.9461577125086
 20
-155.1714164115284
 30
0.0
 10
206.089818565926
 20
-154.5401851244397
 30
0.0
  0
SPLINE
  5
315
330
2DC
100
AcDbEntity
  8
0
  6
Continuous
 62
     7
370
    25
100
AcDbSpline
210
0.0
220
0.0
230
1.0
 70
     8
 71
     3
 72
    24
 73
    20
 74
     0
 42
0.000000001
 43
0.00000001
 40
0.0
 40
0.0
 40
0.0
 40
0.0
 40
0.0849485528236653
 40
0.1682953209234206
 40
0.2499955044009449
 40
0.3124943760322216
 40
0.3749933047410304
 40
0.4062428556472137
 40
0.4374923524611557
 40
0.4687417576311777
 40
0.4999916623614845
 40
0.5312420615354733
 40
0.562492504170303
 40
0.593743032086367
 40
0.6249935788883202
 40
0.6874946181037492
 40
0.7499956911031574
 40
0.8731691366099618
 40
1.0
 40
1.0
 40
1.0
 40
1.0
 10
137.6644292299129
 20
-9.924462994197185
 30
0.0
 10
133.4653605395856
 20
-7.510948955203705
 30
0.0
 10
125.1464005417029
 20
-2.72942995053347
 30
0.0
 10
112.7954362076755
 20
4.376363783904782
 30
0.0
 10
101.5573334857231
 20
10.84689751335559
 30
0.0
 10
91.35163156758614
 20
16.72815215035168
 30
0.0
 10
83.64343756164799
 20
21.1731514728195
 30
0.0
 10
77.4859357630256
 20
24.72614105420633
 30
0.0
 10
72.86667781310764
 20
27.39283101046102
 30
0.0
 10
68.23846416250379
 20
30.06541355273167
 30
0.0
 10
63.59230017227337
 20
32.74807466353152
 30
0.0
 10
58.91997130947085
 20
35.44486562589289
 30
0.0
 10
54.23008370483756
 20
38.15150803664654
 30
0.0
 10
49.53153676610117
 20
40.86387148612613
 30
0.0
 10
43.26537060175156
 20
44.48291464768783
 30
0.0
 10
35.44362964270469
 20
49.00313587181876
 30
0.0
 10
23.03063447656072
 20
56.18156465935716
 30
0.0
 10
7.404591534591505
 20
65.2271803980711
 30
0.0
 10
-5.086906460280483
 20
72.46872751040497
 30
0.0
 10
-11.42402713918155
 20
76.14247088142793
 30
0.0
  0
SPLINE
  5
316
330
2DC
100
AcDbEntity
  8
0
  6
Continuous
 62
     7
370
    25
100
AcDbSpline
210
0.0
220
0.0
230
1.0
 70
     8
 71
     3
 72
    59
 73
    55
 74
     0
 42
0.000000001
 43
0.00000001
 40
0.0
 40
0.0
 40
0.0
 40
0.0
 40
0.0068735797502199
 40
0.0137637716984238
 40
0.020670606353052
 40
0.0275941138753622
 40
0.0345343241259434
 40
0.0414912667148966
 40
0.0484649710557925
 40
0.0554554664234366
 40
0.0624627820156136
 40
0.069486947018816
 40
0.0765279906781019
 40
0.0835859423711495
 40
0.0906608316865986
 40
0.0977526885067738
 40
0.104861543094886
 40
0.1119874261867879
 40
0.1191303690873969
 40
0.1262904037948737
 40
0.1334675680044021
 40
0.1406619108382146
 40
0.1478734829209387
 40
0.1551023349263662
 40
0.162348517658727
 40
0.1696120821385813
 40
0.1768930796934532
 40
0.184191562053276
 40
0.1915075814507578
 40
0.1988411907267335
 40
0.2061924434406173
 40
0.2135613939860302
 40
0.2209480977116992
 40
0.2283526110477143
 40
0.235774991637238
 40
0.2432152984737554
 40
0.2506735920600269
 40
0.3097728351047138
 40
0.3710435330580811
 40
0.4345295710889617
 40
0.5002864732132263
 40
0.5587446598462944
 40
0.619781565306521
 40
0.6834703178409771
 40
0.7498977670326279
 40
0.8148839634954864
 40
0.8749555466717781
 40
0.906054947202434
 40
0.9372672600559859
 40
0.9496213778552186
 40
0.9620702108722953
 40
0.9746151501266759
 40
0.9872578027674024
 40
1.0
 40
1.0
 40
1.0
 40
1.0
 10
-11.42402713918155
 20
76.14247088142793
 30
0.0
 10
-11.68275697442631
 20
76.29539946569334
 30
0.0
 10
-12.20084194809169
 20
76.60162623492886
 30
0.0
 10
-12.98739752965736
 20
77.05630025512411
 30
0.0
 10
-13.78202512334893
 20
77.50818640699264
 30
0.0
 10
-14.58533097150208
 20
77.95684886383661
 30
0.0
 10
-15.39714038440999
 20
78.40232455976462
 30
0.0
 10
-16.21748737708757
 20
78.84452264996405
 30
0.0
 10
-17.04634852537716
 20
79.28338600498394
 30
0.0
 10
-17.88371452631702
 20
79.71884777899085
 30
0.0
 10
-18.72957094333731
 20
80.1508430865712
 30
0.0
 10
-19.58390337334073
 20
80.57930585981477
 30
0.0
 10
-20.44669604625435
 20
81.00416969071757
 30
0.0
 10
-21.31793219081644
 20
81.42536760176682
 30
0.0
 10
-22.19759392491891
 20
81.84283210511894
 30
0.0
 10
-23.08566227552742
 20
82.2564951828271
 30
0.0
 10
-23.98211715725122
 20
82.66628829334047
 30
0.0
 10
-24.88693738634532
 20
83.07214235207041
 30
0.0
 10
-25.80010059505478
 20
83.47398779004928
 30
0.0
 10
-26.72158372437614
 20
83.87175441761788
 30
0.0
 10
-27.65136235787632
 20
84.26537247828384
 30
0.0
 10
-28.58940770135634
 20
84.65477523269854
 30
0.0
 10
-29.53569080191298
 20
85.03989535297191
 30
0.0
 10
-30.49018144270749
 20
85.4206651703027
 30
0.0
 10
-31.45284823047256
 20
85.79701652030971
 30
0.0
 10
-32.42365854293612
 20
86.16888077493887
 30
0.0
 10
-33.40257853155681
 20
86.53618883169409
 30
0.0
 10
-34.38957310981326
 20
86.8988711144574
 30
0.0
 10
-35.38460594373968
 20
87.25685757078583
 30
0.0
 10
-36.38763944795974
 20
87.61007767169576
 30
0.0
 10
-37.39863475735208
 20
87.95846040503028
 30
0.0
 10
-38.41755179097007
 20
88.30193429209946
 30
0.0
 10
-39.44434897012642
 20
88.64042731737459
 30
0.0
 10
-40.47898423186744
 20
88.97386718380554
 30
0.0
 10
-41.52141119044828
 20
89.30218034852241
 30
0.0
 10
-42.57159347305523
 20
89.62529562694633
 30
0.0
 10
-46.07011299451428
 20
90.67643167062688
 30
0.0
 10
-52.24554716195886
 20
92.33748860786464
 30
0.0
 10
-61.41078503302923
 20
94.30857825190981
 30
0.0
 10
-71.1543654792508
 20
95.88927285228522
 30
0.0
 10
-80.9396233257142
 20
96.96526217447146
 30
0.0
 10
-90.70551702039589
 20
97.5626048217314
 30
0.0
 10
-100.4100661376448
 20
97.7093408711398
 30
0.0
 10
-110.5230301205176
 20
97.37777443654171
 30
0.0
 10
-120.7581683339692
 20
96.52681239553074
 30
0.0
 10
-130.6419585990147
 20
95.18929944082782
 30
0.0
 10
-138.5231401503843
 20
93.70960519794194
 30
0.0
 10
-144.5682227608669
 20
92.33572247885718
 30
0.0
 10
-148.1950601179045
 20
91.41178750221113
 30
0.0
 10
-150.8791487857483
 20
90.6762068113491
 30
0.0
 10
-152.6547301144467
 20
90.17210326748851
 30
0.0
 10
-154.4285300041806
 20
89.64935929824271
 30
0.0
 10
-156.2013452051649
 20
89.10913987785929
 30
0.0
 10
-157.3732899244694
 20
88.73532935365377
 30
0.0
 10
-157.9615601263259
 20
88.5476911580049
 30
0.0
  0
SPLINE
  5
317
330
2DC
100
AcDbEntity
  8
0
  6
Continuous
 62
     7
370
    25
100
AcDbSpline
210
0.0
220
0.0
230
1.0
 70
     8
 71
     3
 72
    36
 73
    32
 74
     0
 42
0.000000001
 43
0.00000001
 40
0.0
 40
0.0
 40
0.0
 40
0.0
 40
0.0089359380034479
 40
0.0178753323316956
 40
0.0268242739556308
 40
0.0357889110930488
 40
0.0447754375263897
 40
0.0537900805490658
 40
0.0628390886700352
 40
0.0939019097959959
 40
0.1251537748085052
 40
0.1564174980947021
 40
0.1878234322984893
 40
0.2501376388456056
 40
0.3126126497909458
 40
0.3751209684470781
 40
0.4374234498066458
 40
0.500049839394311
 40
0.5623301558477404
 40
0.6249226171650931
 40
0.6874012572033582
 40
0.7497891806796577
 40
0.8124210562906703
 40
0.843615920841162
 40
0.874791727946506
 40
0.9061622326230048
 40
0.9374746721049778
 40
0.9531636918643598
 40
0.9687913511711658
 40
0.9843920978724494
 40
1.0
 40
1.0
 40
1.0
 40
1.0
 10
52.08241700510983
 20
8.849886163850664
 30
0.0
 10
52.08137390680719
 20
8.958060134584409
 30
0.0
 10
52.07928730674264
 20
9.174449916581388
 30
0.0
 10
52.08429754742154
 20
9.496812733293995
 30
0.0
 10
52.09531415138698
 20
9.817473478492564
 30
0.0
 10
52.1129554418239
 20
10.13624461077513
 30
0.0
 10
52.13709954516072
 20
10.45312627310404
 30
0.0
 10
52.16782559936071
 20
10.76807405081859
 30
0.0
 10
52.23534567304085
 20
11.33426792664109
 30
0.0
 10
52.37104540929136
 20
12.13736886042404
 30
0.0
 10
52.62505751642304
 20
13.13937011211436
 30
0.0
 10
52.95361549814277
 20
14.08521632132464
 30
0.0
 10
53.48644526024049
 20
15.25050821800827
 30
0.0
 10
54.32406016142945
 20
16.51509755134296
 30
0.0
 10
55.56861827277741
 20
17.6585403583602
 30
0.0
 10
57.01185014701168
 20
18.3840839105732
 30
0.0
 10
58.60374743443224
 20
18.66298350540015
 30
0.0
 10
60.28329449380514
 20
18.48383597043251
 30
0.0
 10
61.99128131524951
 20
17.85361604897631
 30
0.0
 10
63.65669269065509
 20
16.79772490369607
 30
0.0
 10
65.2152692645316
 20
15.35662140423137
 30
0.0
 10
66.6032902809921
 20
13.58902695179046
 30
0.0
 10
67.56926901183323
 20
11.89989922232671
 30
0.0
 10
68.20199867662498
 20
10.46212123694914
 30
0.0
 10
68.60229664305315
 20
9.34942751294044
 30
0.0
 10
68.92496687993255
 20
8.212237988783365
 30
0.0
 10
69.12548237566226
 20
7.252037668699217
 30
0.0
 10
69.24391152614498
 20
6.48433660518926
 30
0.0
 10
69.31098738980523
 20
5.910233159237922
 30
0.0
 10
69.35808624492857
 20
5.339109410337904
 30
0.0
 10
69.37144059187483
 20
4.961845807017286
 30
0.0
 10
69.37811929627044
 20
4.773170756417998
 30
0.0
  0
SPLINE
  5
318
330
2DC
100
AcDbEntity
  8
0
  6
Continuous
 62
     7
370
    25
100
AcDbSpline
210
0.0
220
0.0
230
1.0
 70
     8
 71
     3
 72
    37
 73
    33
 74
     0
 42
0.000000001
 43
0.00000001
 40
0.0
 40
0.0
 40
0.0
 40
0.0
 40
0.0090054413823646
 40
0.0179820631016748
 40
0.0269362161485334
 40
0.0358742226623984
 40
0.0448023608870281
 40
0.0537268503713243
 40
0.0626538375819851
 40
0.0941950431058868
 40
0.1255306668613327
 40
0.1567965787167326
 40
0.1878271615418495
 40
0.2191588500745326
 40
0.2504916791649184
 40
0.3126861761475156
 40
0.3752373102850858
 40
0.4375422806699345
 40
0.4999626320416944
 40
0.5624947137867052
 40
0.6247535409513207
 40
0.6873581266176845
 40
0.7497153277210744
 40
0.81218960791048
 40
0.8433734651681943
 40
0.8748385655494497
 40
0.9058792643056758
 40
0.9371895255503649
 40
0.9528127819113303
 40
0.968466304271367
 40
0.9841840289943312
 40
0.9999999999999999
 40
0.9999999999999999
 40
0.9999999999999999
 40
0.9999999999999999
 10
69.37811929627043
 20
4.773170756418012
 30
0.0
 10
69.38011650624493
 20
4.664757847047084
 30
0.0
 10
69.38410453462289
 20
4.448278976709692
 30
0.0
 10
69.38113323443199
 20
4.126311431312583
 30
0.0
 10
69.37163030587892
 20
3.807148778681761
 30
0.0
 10
69.35499700383026
 20
3.490943868543296
 30
0.0
 10
69.33144462247519
 20
3.177664118914361
 30
0.0
 10
69.30096487565487
 20
2.867316270983536
 30
0.0
 10
69.23210725882475
 20
2.300516599241728
 30
0.0
 10
69.09055655578732
 20
1.495674993623151
 30
0.0
 10
68.82179980498677
 20
0.4910717415509483
 30
0.0
 10
68.47587746302574
 20
-0.449946263574641
 30
0.0
 10
68.05459057212613
 20
-1.323902606077405
 30
0.0
 10
67.56153154992914
 20
-2.123275690842017
 30
0.0
 10
66.81683355881684
 20
-3.079171609312599
 30
0.0
 10
65.7303377600654
 20
-4.051204978831588
 30
0.0
 10
64.23322216960837
 20
-4.808711312717755
 30
0.0
 10
62.59467214844059
 20
-5.12290372952666
 30
0.0
 10
60.88040992777194
 20
-4.972709480851753
 30
0.0
 10
59.15869714452128
 20
-4.35697773573096
 30
0.0
 10
57.49705756721947
 20
-3.297625159112263
 30
0.0
 10
55.96841598999647
 20
-1.841060394373754
 30
0.0
 10
54.633033806311
 20
-0.0484363934005749
 30
0.0
 10
53.72456307291052
 20
1.660027402831089
 30
0.0
 10
53.13686057721443
 20
3.114399889007656
 30
0.0
 10
52.77013501906355
 20
4.236980665780633
 30
0.0
 10
52.47784314627646
 20
5.38280648737325
 30
0.0
 10
52.29944952487752
 20
6.344861872533532
 30
0.0
 10
52.19510099382435
 20
7.117012385981634
 30
0.0
 10
52.1368513654394
 20
7.695594949752325
 30
0.0
 10
52.09696140026853
 20
8.27438380712394
 30
0.0
 10
52.08727519626492
 20
8.657654006468029
 30
0.0
 10
52.08241700510982
 20
8.849886163850664
 30
0.0
  0
LWPOLYLINE
  5
319
330
2DC
100
AcDbEntity
  8
0
  6
Continuous
 62
     7
370
    25
100
AcDbPolyline
 90
        9
 70
   128
 43
0.0
 10
35.88159024
 20
-77.7891021673
 10
35.4906425739
 20
-76.1918808222
 10
34.8634813245
 20
-74.6199489922
 10
34.0047424958
 20
-73.0849264675
 10
32.9207739232
 20
-71.5981602026
 10
31.6195883506
 20
-70.1706404398
 10
30.1108041996
 20
-68.8129194688
 10
28.4055744697
 20
-67.5350336232
 10
26.5165042948
 20
-66.3464290921
  0
LWPOLYLINE
  5
31B
330
2DC
100
AcDbEntity
  8
0
  6
Continuous
 62
     7
370
    25
100
AcDbPolyline
 90
       10
 70
   128
 43
0.0
 10
6.6950654591
 20
-60.940080053
 10
2.9545492817
 20
-60.8542083443
 10
-0.7782587973
 20
-61.017216001
 10
-4.4538344849
 20
-61.4269403513
 10
-8.0234128079
 20
-62.0779454583
 10
-11.439635092
 20
-62.9615942407
 10
-14.657177284
 20
-64.066163063
 10
-17.6333512793
 20
-65.3769972768
 10
-20.3286712781
 20
-66.8767056486
 10
-22.7073776557
 20
-68.5453910942
  0
LWPOLYLINE
  5
31C
330
2DC
100
AcDbEntity
  8
0
  6
Continuous
 62
     7
370
    25
100
AcDbPolyline
 90
       10
 70
   128
 43
0.0
 10
22.707377656
 20
-94.7627712828
 10
25.5979388279
 20
-93.3895733204
 10
28.1957914071
 20
-91.8335982049
 10
30.4664688984
 20
-90.1154895284
 10
32.3798455373
 20
-88.2580419578
 10
33.9105359779
 20
-86.2858988114
 10
35.0382320875
 20
-84.2252251082
 10
35.7479723811
 20
-82.103360429
 10
36.0303405197
 20
-79.9484561934
 10
35.88159024
 20
-77.7891021673
  0
LWPOLYLINE
  5
31E
330
2DC
100
AcDbEntity
  8
0
  6
Continuous
 62
     7
370
    25
100
AcDbPolyline
 90
       28
 70
   128
 43
0.0
 10
22.9809703886
 20
-68.3874493715
 10
25.1069646912
 20
-69.766566897
 10
26.941242398
 20
-71.2788413626
 10
28.4589980494
 20
-72.9038218504
 10
29.6397066042
 20
-74.6195332868
 10
30.4674010045
 20
-76.402773618
 10
30.9308881035
 20
-78.2294275776
 10
31.0239000332
 20
-80.0747928044
 10
30.7451789669
 20
-81.9139138994
 10
30.0984941289
 20
-83.7219199048
 10
29.0925908222
 20
-85.4743606409
 10
27.7410721634
 20
-87.1475373532
 10
26.0622151239
 20
-88.7188231968
 10
24.0787233651
 20
-90.1669692263
 10
21.8174202103
 20
-91.4723917508
 10
19.3088859056
 20
-92.6174371702
 10
16.587044074
 20
-93.5866207095
 10
13.688702957
 20
-94.3668358238
 10
10.6530576463
 20
-94.9475314423
 10
7.5211600369
 20
-95.3208546529
 10
4.3353636714
 20
-95.4817568996
 10
1.1387509804
 20
-95.4280622555
 10
-2.0254493332
 20
-95.1604968485
 10
-5.1144468882
 20
-94.6826790419
 10
-8.0864682919
 20
-94.0010705017
 10
-10.9013220533
 20
-93.1248888141
 10
-13.5209421039
 20
-92.0659828335
 10
-15.9099025767
 20
-90.8386724466
  0
LWPOLYLINE
  5
31F
330
2DC
100
AcDbEntity
  8
0
  6
Continuous
 62
     7
370
    25
100
AcDbPolyline
 90
       28
 70
   128
 43
0.0
 10
-15.9099025767
 20
-90.8386724466
 10
-18.0358968794
 20
-89.459554921
 10
-19.8701745861
 20
-87.9472804554
 10
-21.3879302376
 20
-86.3222999677
 10
-22.5686387923
 20
-84.6065885313
 10
-23.3963331926
 20
-82.8233482001
 10
-23.8598202916
 20
-80.9966942405
 10
-23.9528322213
 20
-79.1513290137
 10
-23.674111155
 20
-77.3122079187
 10
-23.027426317
 20
-75.5042019133
 10
-22.0215230103
 20
-73.7517611771
 10
-20.6700043515
 20
-72.0785844648
 10
-18.991147312
 20
-70.5072986212
 10
-17.0076555532
 20
-69.0591525918
 10
-14.7463523985
 20
-67.7537300672
 10
-12.2378180937
 20
-66.6086846478
 10
-9.5159762621
 20
-65.6395011086
 10
-6.6176351452
 20
-64.8592859942
 10
-3.5819898344
 20
-64.2785903757
 10
-0.450092225
 20
-63.9052671651
 10
2.7357041405
 20
-63.7443649184
 10
5.9323168315
 20
-63.7980595626
 10
9.0965171451
 20
-64.0656249695
 10
12.1855147001
 20
-64.5434427762
 10
15.1575361038
 20
-65.2250513164
 10
17.9723898651
 20
-66.1012330039
 10
20.5920099158
 20
-67.1601389846
 10
22.9809703886
 20
-68.3874493715
  0
SPLINE
  5
320
330
2DC
100
AcDbEntity
  8
0
  6
Continuous
 62
     7
370
    25
100
AcDbSpline
210
0.0
220
0.0
230
1.0
 70
     8
 71
     3
 72
    20
 73
    16
 74
     0
 42
0.000000001
 43
0.00000001
 40
0.0
 40
0.0
 40
0.0
 40
0.0
 40
0.0277449181961675
 40
0.0555291203762737
 40
0.0838505559968744
 40
0.1131798239760758
 40
0.1439413035330313
 40
0.1952883537244827
 40
0.2515589086381591
 40
0.3683853088680085
 40
0.5016535358804398
 40
0.6225446450539505
 40
0.7501320394874206
 40
0.8746171054851745
 40
1.0
 40
1.0
 40
1.0
 40
1.0
 10
-2.798310573826152
 20
-90.82904507319756
 30
0.0
 10
-2.79923413191578
 20
-90.81128956259833
 30
0.0
 10
-2.801082555759423
 20
-90.77575340140173
 30
0.0
 10
-2.79593301297737
 20
-90.71791151232796
 30
0.0
 10
-2.784943924122502
 20
-90.65723683397572
 30
0.0
 10
-2.767569224418986
 20
-90.59340810667992
 30
0.0
 10
-2.739292974691573
 20
-90.51300603016554
 30
0.0
 10
-2.694967871205198
 20
-90.4146305032285
 30
0.0
 10
-2.609339356142252
 20
-90.26158043882296
 30
0.0
 10
-2.472571311205587
 20
-90.06749542709761
 30
0.0
 10
-2.289246457102116
 20
-89.85903914623663
 30
0.0
 10
-2.091140053423332
 20
-89.6665169798706
 30
0.0
 10
-1.891454223564959
 20
-89.49927403283439
 30
0.0
 10
-1.685801349720066
 20
-89.34769708734954
 30
0.0
 10
-1.548133223091568
 20
-89.26426748700986
 30
0.0
 10
-1.479051824405216
 20
-89.22240279672562
 30
0.0
  0
SPLINE
  5
321
330
2DC
100
AcDbEntity
  8
0
  6
Continuous
 62
     7
370
    25
100
AcDbSpline
210
0.0
220
0.0
230
1.0
 70
     8
 71
     3
 72
     8
 73
     4
 74
     0
 42
0.000000001
 43
0.00000001
 40
0.0
 40
0.0
 40
0.0
 40
0.0
 40
1.0
 40
1.0
 40
1.0
 40
1.0
 10
-3.645591095940953
 20
-81.38604704412897
 30
0.0
 10
-3.364975101909359
 20
-84.40867087649336
 30
0.0
 10
-3.082438196413998
 20
-87.55756356562645
 30
0.0
 10
-2.798310573826228
 20
-90.8290450731975
 30
0.0
  0
SPLINE
  5
322
330
2DC
100
AcDbEntity
  8
0
  6
Continuous
 62
     7
370
    25
100
AcDbSpline
210
0.0
220
0.0
230
1.0
 70
     8
 71
     3
 72
     9
 73
     5
 74
     0
 42
0.000000001
 43
0.00000001
 40
0.0
 40
0.0
 40
0.0
 40
0.0
 40
0.3131403687910247
 40
0.9999999999999999
 40
0.9999999999999999
 40
0.9999999999999999
 40
0.9999999999999999
 10
-3.271595664129193
 20
-78.25048555212636
 30
0.0
 10
-3.323717449432405
 20
-78.2620318430401
 30
0.0
 10
-3.490166079177728
 20
-78.29890441542136
 30
0.0
 10
-3.637566303697812
 20
-78.2697212500973
 30
0.0
 10
-3.7388095675518
 20
-78.24967651192533
 30
0.0
  0
LWPOLYLINE
  5
326
330
2DC
100
AcDbEntity
  8
0
  6
Continuous
 62
     7
370
    25
100
AcDbPolyline
 90
       13
 70
   128
 43
0.0
 10
21.0383193902
 20
-91.8578558553
 10
22.1448468271
 20
-90.9966510805
 10
23.5831807002
 20
-89.5926355488
 10
24.7053512074
 20
-88.0956228454
 10
25.4936610496
 20
-86.5292217549
 10
25.9356781095
 20
-84.9181353583
 10
26.0244315142
 20
-83.2877714505
 10
25.7585215693
 20
-81.6638418441
 10
25.1421418337
 20
-80.0719568793
 10
24.1850129838
 20
-78.5372215327
 10
22.9022295135
 20
-77.0838394977
 10
21.3140216844
 20
-75.7347314771
 10
19.4454364826
 20
-74.5111737104
  0
LWPOLYLINE
  5
329
330
2DC
100
AcDbEntity
  8
0
  6
Continuous
 62
     7
370
    25
100
AcDbPolyline
 90
       26
 70
   128
 43
0.0
 10
19.4454364826
 20
-74.5111737104
 10
17.3259426131
 20
-73.4324624345
 10
14.9889657603
 20
-72.5156095705
 10
12.4713614452
 20
-71.7750744358
 10
9.8128337918
 20
-71.2225357119
 10
7.0553093693
 20
-70.8667072645
 10
4.2422759852
 20
-70.7132007209
 10
1.4180968563
 20
-70.7644369708
 10
-1.3726890255
 20
-71.019607988
 10
-4.0860692996
 20
-71.4746895732
 10
-6.6792523382
 20
-72.1225048179
 10
-9.1113420957
 20
-72.9528372887
 10
-11.3439830638
 20
-73.9525921465
 10
-13.3419651608
 20
-75.10600266
 10
-15.0737790152
 20
-76.3948788564
 10
-16.5121128883
 20
-77.7988943881
 10
-17.6342833955
 20
-79.2959070915
 10
-18.4225932377
 20
-80.862308182
 10
-18.8646102976
 20
-82.4733945786
 10
-18.9533637023
 20
-84.1037584864
 10
-18.6874537575
 20
-85.7276880928
 10
-18.0710740218
 20
-87.3195730576
 10
-17.113945172
 20
-88.8543084042
 10
-15.8311617017
 20
-90.3076904392
 10
-14.2429538725
 20
-91.6567984597
 10
-13.9672515783
 20
-91.8578558553
  0
SPLINE
  5
32C
330
2DC
100
AcDbEntity
  8
0
  6
Continuous
 62
     7
370
    25
100
AcDbSpline
210
0.0
220
0.0
230
1.0
 70
     8
 71
     3
 72
    14
 73
    10
 74
     0
 42
0.000000001
 43
0.00000001
 40
0.0
 40
0.0
 40
0.0
 40
0.0
 40
0.1053845050903264
 40
0.223594119141077
 40
0.3546286732841851
 40
0.4984879356366966
 40
0.752861968868193
 40
0.9200389639452483
 40
1.0
 40
1.0
 40
1.0
 40
1.0
 10
55.04445055101752
 20
11.36163762382839
 30
0.0
 10
55.02751179849106
 20
11.27854827137017
 30
0.0
 10
54.9915728770409
 20
11.10225773836466
 30
0.0
 10
54.94177456122592
 20
10.81841386910039
 30
0.0
 10
54.89333338726599
 20
10.50020804308935
 30
0.0
 10
54.83893931166106
 20
10.06644758671587
 30
0.0
 10
54.79780305268384
 20
9.595631158165551
 30
0.0
 10
54.77647718681393
 20
9.172700349642799
 30
0.0
 10
54.77131141029544
 20
8.962729374168775
 30
0.0
 10
54.76964003320889
 20
8.89479366769965
 30
0.0
  0
LWPOLYLINE
  5
32F
330
2DC
100
AcDbEntity
  8
0
  6
Continuous
 62
     7
370
    25
100
AcDbPolyline
 90
        3
 70
   128
 43
0.0
 10
61.7223119824
 20
16.9284286323
 10
61.6541585485
 20
16.6134624011
 10
61.5182899632
 20
15.0989055665
  0
SPLINE
  5
332
330
2DC
100
AcDbEntity
  8
0
  6
Continuous
 62
     8
370
    25
100
AcDbSpline
210
0.0
220
0.0
230
1.0
 70
     8
 71
     3
 72
    26
 73
    22
 74
     0
 42
0.000000001
 43
0.00000001
 40
0.0
 40
0.0
 40
0.0
 40
0.0
 40
0.0544726272671998
 40
0.1088564816330459
 40
0.1632330728496475
 40
0.2178878086266563
 40
0.2727570823095957
 40
0.327250673943444
 40
0.3816538015134204
 40
0.436277682796116
 40
0.4912381524152791
 40
0.545841352378917
 40
0.600270429962631
 40
0.6548403289669626
 40
0.7097949126333246
 40
0.7644779153407723
 40
0.8189081052792966
 40
0.8733974577112176
 40
0.9282492152474056
 40
0.9830878042843313
 40
1.0
 40
1.0
 40
1.0
 40
1.0
 10
-157.9615601255998
 20
88.54769115544173
 30
0.0
 10
-160.6290379438839
 20
87.65075926938118
 30
0.0
 10
-165.9596464476422
 20
85.85835720839529
 30
0.0
 10
-173.4425438711297
 20
82.76511040179962
 30
0.0
 10
-180.5283329083871
 20
79.34023656491088
 30
0.0
 10
-187.1403001196385
 20
75.58908690432398
 30
0.0
 10
-193.2321059343207
 20
71.5450841222777
 30
0.0
 10
-198.7492985882544
 20
67.23910010193931
 30
0.0
 10
-203.6648145892578
 20
62.69892760614005
 30
0.0
 10
-207.9699648609276
 20
57.93110988427065
 30
0.0
 10
-211.6246515945287
 20
52.96937015717073
 30
0.0
 10
-214.5996517303159
 20
47.85569375564246
 30
0.0
 10
-216.8759648113394
 20
42.62688242364852
 30
0.0
 10
-218.4541022089119
 20
37.29067318145678
 30
0.0
 10
-219.3161904016103
 20
31.88065460970143
 30
0.0
 10
-219.4572634076148
 20
26.44158949528319
 30
0.0
 10
-218.8738459314545
 20
21.01673449358329
 30
0.0
 10
-217.5919983958743
 20
15.6127470519167
 30
0.0
 10
-215.548908823989
 20
10.26523411824443
 30
0.0
 10
-213.57690049409
 20
6.183672879937506
 30
0.0
 10
-212.0705320964822
 20
3.943731347073896
 30
0.0
 10
-211.7154698173993
 20
3.415760402559941
 30
0.0
  0
SPLINE
  5
333
330
2DC
100
AcDbEntity
  8
0
  6
Continuous
 62
     8
370
    25
100
AcDbSpline
210
0.0
220
0.0
230
1.0
 70
     8
 71
     3
 72
    14
 73
    10
 74
     0
 42
0.000000001
 43
0.00000001
 40
0.0
 40
0.0
 40
0.0
 40
0.0
 40
0.1776344956708135
 40
0.3550509052973751
 40
0.5323714711071242
 40
0.7097159334630219
 40
0.821259267623616
 40
0.9328827596062319
 40
1.0
 40
1.0
 40
1.0
 40
1.0
 10
22.70737765600154
 20
-94.76277128280041
 30
0.0
 10
26.98503729593338
 20
-97.15456305802032
 30
0.0
 10
35.53510479254402
 20
-101.9352101494972
 30
0.0
 10
48.32099544903912
 20
-108.136298792598
 30
0.0
 10
61.02720668979351
 20
-113.6069902910136
 30
0.0
 10
72.06506348077448
 20
-117.704558491656
 30
0.0
 10
81.46348387243428
 20
-120.7120304461774
 30
0.0
 10
88.2346065007167
 20
-122.664774662024
 30
0.0
 10
92.35482875526796
 20
-123.6300861905081
 30
0.0
 10
93.90197441064183
 20
-123.9925611846001
 30
0.0
  0
SPLINE
  5
339
330
2DC
100
AcDbEntity
  8
0
  6
Continuous
 62
     8
370
    25
100
AcDbSpline
210
0.0
220
0.0
230
1.0
 70
     8
 71
     3
 72
    21
 73
    17
 74
     0
 42
0.000000001
 43
0.00000001
 40
0.0
 40
0.0
 40
0.0
 40
0.0
 40
0.0132758954332829
 40
0.0894266915628837
 40
0.1655680967539457
 40
0.2411940906689901
 40
0.3168032679867038
 40
0.3928897944790524
 40
0.4691161825537601
 40
0.5449131611200887
 40
0.6207658726911153
 40
0.6970602050866875
 40
0.781959240265018
 40
0.8664430660065569
 40
0.9329757134851742
 40
1.0
 40
1.0
 40
1.0
 40
1.0
 10
168.7199919861126
 20
-78.91550568072503
 30
0.0
 10
168.8987285911669
 20
-78.59582194505683
 30
0.0
 10
170.1027018622357
 20
-76.4424260426152
 30
0.0
 10
171.5835055706158
 20
-72.34733753725246
 30
0.0
 10
173.0849732953352
 20
-66.67203346807564
 30
0.0
 10
173.7086458443242
 20
-60.9589507846949
 30
0.0
 10
173.5465945602701
 20
-55.24862355217977
 30
0.0
 10
172.5719525066532
 20
-49.55989451363246
 30
0.0
 10
170.795444507972
 20
-43.942922482546
 30
0.0
 10
168.2307301711335
 20
-38.44652812225084
 30
0.0
 10
164.8989598741907
 20
-33.09921206854565
 30
0.0
 10
160.6555086177337
 20
-27.7342125701843
 30
0.0
 10
155.4408749733412
 20
-22.42468215931242
 30
0.0
 10
149.6377875549992
 20
-17.62943733503585
 30
0.0
 10
143.7036366876093
 20
-13.4541924715055
 30
0.0
 10
139.6824495321853
 20
-11.1037961275346
 30
0.0
 10
137.6644547192158
 20
-9.924271910623187
 30
0.0
  0
SPLINE
  5
33F
330
2DC
100
AcDbEntity
  8
0
  6
Continuous
 62
     8
370
    25
100
AcDbSpline
210
0.0
220
0.0
230
1.0
 70
     8
 71
     3
 72
    15
 73
    11
 74
     0
 42
0.000000001
 43
0.00000001
 40
0.0
 40
0.0
 40
0.0
 40
0.0
 40
0.1497876598045635
 40
0.27976801861141
 40
0.3899333800640756
 40
0.4802773210871385
 40
0.7534460002582425
 40
0.8800592059940097
 40
0.999895678309281
 40
1.0
 40
1.0
 40
1.0
 40
1.0
 10
206.089818565926
 20
-154.5401851244397
 30
0.0
 10
206.0603907336156
 20
-154.8664452561194
 30
0.0
 10
206.0054264839019
 20
-155.4758222282346
 30
0.0
 10
205.8280178375234
 20
-156.2552037016323
 30
0.0
 10
205.6268857532245
 20
-156.8715231126092
 30
0.0
 10
205.2723172002484
 20
-157.6893640434053
 30
0.0
 10
204.7923621648331
 20
-158.4227951791119
 30
0.0
 10
204.1488826374422
 20
-158.990309335334
 30
0.0
 10
203.8371076620934
 20
-159.2601969349659
 30
0.0
 10
203.654679312792
 20
-159.3285082406649
 30
0.0
 10
203.6545206408906
 20
-159.3285676562371
 30
0.0
  0
LWPOLYLINE
  5
348
330
2DC
100
AcDbEntity
  8
0
  6
Continuous
 62
     8
370
    25
100
AcDbPolyline
 90
        5
 70
   128
 43
0.0
 10
68.8098294373
 20
5.1626239092
 10
68.841209116
 20
5.0627774286
 10
68.9494782806
 20
4.9550265598
 10
69.1308234774
 20
4.8572098656
 10
69.3781192963
 20
4.7731707564
  0
SPLINE
  5
349
330
2DC
100
AcDbEntity
  8
0
  6
Continuous
 62
     8
370
    25
100
AcDbSpline
210
0.0
220
0.0
230
1.0
 70
     8
 71
     3
 72
    13
 73
     9
 74
     0
 42
0.000000001
 43
0.00000001
 40
0.0
 40
0.0
 40
0.0
 40
0.0
 40
0.1005244760695693
 40
0.2448338315805269
 40
0.3947664197346364
 40
0.5503769271324214
 40
0.7579737358033584
 40
1.0
 40
1.0
 40
1.0
 40
1.0
 10
58.46780590784656
 20
16.67247149644718
 30
0.0
 10
58.29647364387144
 20
16.58816087019962
 30
0.0
 10
57.87918288740568
 20
16.38281691344166
 30
0.0
 10
57.29206108461344
 20
15.85383306712185
 30
0.0
 10
56.67457100772005
 20
15.16880526693337
 30
0.0
 10
56.0656815995579
 20
14.24500234100392
 30
0.0
 10
55.46413574756965
 20
13.00502782021696
 30
0.0
 10
55.19130942128155
 20
11.93670300527958
 30
0.0
 10
55.04445055101747
 20
11.36163762382838
 30
0.0
  0
SPLINE
  5
34B
330
2DC
100
AcDbEntity
  8
0
  6
Continuous
 62
     8
370
    25
100
AcDbSpline
210
0.0
220
0.0
230
1.0
 70
     8
 71
     3
 72
    19
 73
    15
 74
     0
 42
0.000000001
 43
0.00000001
 40
0.0
 40
0.0
 40
0.0
 40
0.0
 40
0.0861999581136776
 40
0.1717324703495165
 40
0.2612914720947416
 40
0.3433449979927211
 40
0.4305671386935676
 40
0.5150049072898626
 40
0.6008723424558317
 40
0.6866703274704294
 40
0.7715317616373818
 40
0.8581648484060398
 40
0.9409143221978763
 40
1.0
 40
1.0
 40
1.0
 40
1.0
 10
54.76964003320882
 20
8.894793667699624
 30
0.0
 10
54.77932108914428
 20
8.291421565114552
 30
0.0
 10
54.79860824064375
 20
7.089349267349963
 30
0.0
 10
55.11662895480738
 20
5.239484308457352
 30
0.0
 10
55.6420828103665
 20
3.474446217270409
 30
0.0
 10
56.3887386905934
 20
1.809024425555319
 30
0.0
 10
57.3133925534562
 20
0.3394458015444843
 30
0.0
 10
58.42027586887269
 20
-0.9274046329274116
 30
0.0
 10
59.65168395777758
 20
-1.917835694769013
 30
0.0
 10
60.96907091680512
 20
-2.599438603561668
 30
0.0
 10
62.3286144037559
 20
-2.952358003249896
 30
0.0
 10
63.65590989826075
 20
-2.948477925447848
 30
0.0
 10
64.81396858902804
 20
-2.686427512965265
 30
0.0
 10
65.45543711851136
 20
-2.300285281966498
 30
0.0
 10
65.72266003488517
 20
-2.139426177645863
 30
0.0
  0
LINE
  5
34E
330
2DC
100
AcDbEntity
  8
0
  6
Continuous
 62
     7
370
    25
100
AcDbLine
 10
-310.0912466477
 20
-43.1195821282
 30
0.0
 11
36.3910761337
 21
-243.1395695248
 31
0.0
  0
LINE
  5
34F
330
2DC
100
AcDbEntity
  8
0
  6
Continuous
 62
     7
370
    25
100
AcDbLine
 10
41.3906697968
 20
-243.1395695248
 30
0.0
 11
310.0912466477
 21
-88.0220282785
 31
0.0
  0
LINE
  5
350
330
2DC
100
AcDbEntity
  8
0
  6
Continuous
 62
     7
370
    25
100
AcDbLine
 10
174.0108395994
 20
-166.5795751231
 30
0.0
 11
201.7055011926
 21
-160.099584676
 31
0.0
  0
LINE
  5
351
330
2DC
100
AcDbEntity
  8
0
  6
Continuous
 62
     7
370
    25
100
AcDbLine
 10
312.5914498161
 20
-83.6917839666
 30
0.0
 11
312.5914498161
 21
-26.5339271346
 31
0.0
  0
LINE
  5
352
330
2DC
100
AcDbEntity
  8
0
  6
Continuous
 62
     7
370
    25
100
AcDbLine
 10
310.0912466477
 20
-22.2036828227
 30
0.0
 11
-36.3910761337
 21
177.8163045739
 31
0.0
  0
LINE
  5
353
330
2DC
100
AcDbEntity
  8
0
  6
Continuous
 62
     7
370
    25
100
AcDbLine
 10
201.7055590181
 20
-160.0989371516
 30
0.0
 11
203.6545579238
 21
-159.3286426611
 31
0.0
  0
LINE
  5
354
330
2DC
100
AcDbEntity
  8
0
  6
Continuous
 62
     7
370
    25
100
AcDbLine
 10
203.6545641821
 20
-159.3286390488
 30
0.0
 11
280.7712383259
 21
-114.8101306686
 31
0.0
  0
LINE
  5
355
330
2DC
100
AcDbEntity
  8
0
  6
Continuous
 62
     7
370
    25
100
AcDbLine
 10
-312.5914498161
 20
18.3685190157
 30
0.0
 11
-312.5914498161
 21
-38.7893378163
 31
0.0
  0
LINE
  5
356
330
2DC
100
AcDbEntity
  8
0
  6
Continuous
 62
     7
370
    25
100
AcDbLine
 10
-41.3906697968
 20
177.8163045739
 30
0.0
 11
-310.0912466477
 21
22.6987633276
 31
0.0
  0
LINE
  5
357
330
2DC
100
AcDbEntity
  8
0
  6
Continuous
 62
     7
370
    25
100
AcDbLine
 10
284.3071785687
 20
-108.1906623244
 30
0.0
 11
284.3071785687
 21
-102.9068539481
 31
0.0
  0
LINE
  5
358
330
2DC
100
AcDbEntity
  8
0
  6
Continuous
 62
     7
370
    25
100
AcDbLine
 10
42.4264068712
 20
-183.6924886604
 30
0.0
 11
42.4264068712
 21
-240.8503454924
 31
0.0
  0
LINE
  5
359
330
2DC
100
AcDbEntity
  8
0
  6
Continuous
 62
     7
370
    25
100
AcDbLine
 10
35.3553390593
 20
-240.8503454924
 30
0.0
 11
35.3553390593
 21
-183.6924886604
 31
0.0
  0
LINE
  5
35A
330
2DC
100
AcDbEntity
  8
0
  6
Continuous
 62
     7
370
    25
100
AcDbLine
 10
-307.5914498161
 20
22.4512230751
 30
0.0
 11
38.8908729653
 21
-177.5687643214
 31
0.0
  0
LINE
  5
35B
330
2DC
100
AcDbEntity
  8
0
  6
Continuous
 62
     7
370
    25
100
AcDbLine
 10
35.3553390593
 20
-183.6924886604
 30
0.0
 11
-311.1269837221
 21
16.3274987361
 31
0.0
  0
LINE
  5
35C
330
2DC
100
AcDbEntity
  8
0
  6
Continuous
 62
     7
370
    25
100
AcDbLine
 10
311.1269837221
 20
-28.5749474141
 30
0.0
 11
42.4264068712
 21
-183.6924886604
 31
0.0
  0
LINE
  5
35D
330
2DC
100
AcDbEntity
  8
0
  6
Continuous
 62
     7
370
    25
100
AcDbLine
 10
38.8908729653
 20
-177.5687643214
 30
0.0
 11
307.5914498161
 21
-22.4512230751
 31
0.0
  0
LINE
  5
35E
330
2DC
100
AcDbEntity
  8
0
  6
Continuous
 62
     7
370
    25
100
AcDbLine
 10
-311.1269837221
 20
-40.8303580959
 30
0.0
 11
35.3553390593
 21
-240.8503454924
 31
0.0
  0
LINE
  5
35F
330
2DC
100
AcDbEntity
  8
0
  6
Continuous
 62
     7
370
    25
100
AcDbLine
 10
-311.1269837221
 20
16.3274987361
 30
0.0
 11
-311.1269837221
 21
-40.8303580959
 31
0.0
  0
LINE
  5
360
330
2DC
100
AcDbEntity
  8
0
  6
Continuous
 62
     7
370
    25
100
AcDbLine
 10
311.1269837221
 20
-85.7328042461
 30
0.0
 11
311.1269837221
 21
-28.5749474141
 31
0.0
  0
LINE
  5
361
330
2DC
100
AcDbEntity
  8
0
  6
Continuous
 62
     7
370
    25
100
AcDbLine
 10
42.4264068712
 20
-240.8503454924
 30
0.0
 11
311.1269837221
 21
-85.7328042461
 31
0.0
  0
LINE
  5
362
330
2DC
100
AcDbEntity
  8
0
  6
Continuous
 62
     7
370
    25
100
AcDbLine
 10
307.5914498161
 20
-22.4512230751
 30
0.0
 11
-38.8908729653
 21
177.5687643214
 31
0.0
  0
LINE
  5
363
330
2DC
100
AcDbEntity
  8
0
  6
Continuous
 62
     7
370
    25
100
AcDbLine
 10
-38.8908729653
 20
177.5687643214
 30
0.0
 11
-307.5914498161
 21
22.4512230751
 31
0.0
  0
LINE
  5
364
330
2DC
100
AcDbEntity
  8
0
  6
Continuous
 62
     7
370
    25
100
AcDbLine
 10
-211.7154698174
 20
3.4157604026
 30
0.0
 11
-210.7864868349
 21
2.0021684753
 31
0.0
  0
LINE
  5
365
330
2DC
100
AcDbEntity
  8
0
  6
Continuous
 62
     7
370
    25
100
AcDbLine
 10
167.6704600922
 20
-80.8269450048
 30
0.0
 11
168.7199919861
 21
-78.9155056807
 31
0.0
  0
LINE
  5
366
330
2DC
100
AcDbEntity
  8
0
  6
Continuous
 62
     7
370
    25
100
AcDbLine
 10
206.0898185659
 20
-154.5401851244
 30
0.0
 11
282.8427124746
 21
-110.2316826039
 31
0.0
  0
LINE
  5
367
330
2DC
100
AcDbEntity
  8
0
  6
Continuous
 62
     7
370
    25
100
AcDbLine
 10
62.5763996564
 20
13.6616224921
 30
0.0
 11
62.4908790724
 21
16.5389947027
 31
0.0
  0
LINE
  5
368
330
2DC
100
AcDbEntity
  8
0
  6
Continuous
 62
     7
370
    25
100
AcDbLine
 10
62.5033058748
 20
10.6352827618
 30
0.0
 11
62.5763996564
 21
13.6616224921
 31
0.0
  0
LINE
  5
369
330
2DC
100
AcDbEntity
  8
0
  6
Continuous
 62
     7
370
    25
100
AcDbLine
 10
-1.4790518244
 20
-89.2224027967
 30
0.0
 11
15.2937226778
 21
-79.539686179
 31
0.0
  0
LINE
  5
36A
330
2DC
100
AcDbEntity
  8
0
  6
Continuous
 62
     7
370
    25
100
AcDbLine
 10
19.4454364826
 20
-74.5111737104
 30
0.0
 11
22.9809703886
 21
-68.3874493715
 31
0.0
  0
LINE
  5
36B
330
2DC
100
AcDbEntity
  8
0
  6
Continuous
 62
     7
370
    25
100
AcDbLine
 10
19.4454364826
 20
-81.0435002055
 30
0.0
 11
19.4454364826
 21
-74.5111737104
 31
0.0
  0
LINE
  5
36C
330
2DC
100
AcDbEntity
  8
0
  6
Continuous
 62
     7
370
    25
100
AcDbLine
 10
-3.6455910959
 20
-81.3860470441
 30
0.0
 11
-3.6455910959
 21
-77.9184351228
 31
0.0
  0
LINE
  5
36D
330
2DC
100
AcDbEntity
  8
0
  6
Continuous
 62
     7
370
    25
100
AcDbLine
 10
61.5182899632
 20
15.0989055665
 30
0.0
 11
55.044450551
 21
11.3616376238
 31
0.0
  0
LINE
  5
36E
330
2DC
100
AcDbEntity
  8
0
  6
Continuous
 62
     8
370
    25
100
AcDbLine
 10
187.2163539276
 20
-158.9561939696
 30
0.0
 11
206.0898185659
 21
-154.5401851244
 31
0.0
  0
LINE
  5
36F
330
2DC
100
AcDbEntity
  8
0
  6
Continuous
 62
     8
370
    25
100
AcDbLine
 10
282.8427124746
 20
-110.2316826039
 30
0.0
 11
282.8427124746
 21
-103.7522722289
 31
0.0
  0
LINE
  5
370
330
2DC
100
AcDbEntity
  8
0
  6
Continuous
 62
     8
370
    25
100
AcDbLine
 10
62.5763996564
 20
13.6616224921
 30
0.0
 11
67.5141330984
 21
10.8111296505
 31
0.0
  0
ARC
  5
371
330
2DC
100
AcDbEntity
  8
0
  6
Continuous
 62
     7
370
    25
100
AcDbCircle
 10
38.8908729653
 20
-238.8093252129
 30
0.0
 40
5.000000000000078
100
AcDbArc
 50
240.0026882664
 51
299.9973117337
  0
ARC
  5
372
330
2DC
100
AcDbEntity
  8
0
  6
Continuous
 62
     7
370
    25
100
AcDbCircle
 10
307.5914498161
 20
-26.5339271346
 30
0.0
 40
4.999999999999716
100
AcDbArc
 50
360.0
 51
60.0026882664
  0
ARC
  5
373
330
2DC
100
AcDbEntity
  8
0
  6
Continuous
 62
     7
370
    25
100
AcDbCircle
 10
307.5914498161
 20
-83.6917839666
 30
0.0
 40
4.999999999999843
100
AcDbArc
 50
299.9973117337
 51
0.0
  0
ARC
  5
374
330
2DC
100
AcDbEntity
  8
0
  6
Continuous
 62
     7
370
    25
100
AcDbCircle
 10
-307.5914498161
 20
18.3685190157
 30
0.0
 40
4.999999999999773
100
AcDbArc
 50
119.9973117336
 51
180.0
  0
ARC
  5
375
330
2DC
100
AcDbEntity
  8
0
  6
Continuous
 62
     7
370
    25
100
AcDbCircle
 10
-307.5914498161
 20
-38.7893378163
 30
0.0
 40
4.999999999999662
100
AcDbArc
 50
180.0
 51
240.0026882664
  0
ARC
  5
376
330
2DC
100
AcDbEntity
  8
0
  6
Continuous
 62
     7
370
    25
100
AcDbCircle
 10
-38.8908729653
 20
173.486060262
 30
0.0
 40
4.999999999999901
100
AcDbArc
 50
60.0026882663
 51
119.9973117337
  0
ARC
  5
377
330
2DC
100
AcDbEntity
  8
0
  6
Continuous
 62
     7
370
    25
100
AcDbCircle
 10
43.0314195662
 20
-184.0417929217
 30
0.0
 40
7.684024037860302
100
AcDbArc
 50
122.60547834
 51
177.3945215143
  0
ARC
  5
378
330
2DC
100
AcDbEntity
  8
0
  6
Continuous
 62
     7
370
    25
100
AcDbCircle
 10
34.7503263644
 20
-184.0417929217
 30
0.0
 40
7.684024037860227
100
AcDbArc
 50
2.6054784857
 51
57.39452166
  0
ARC
  5
379
330
2DC
100
AcDbEntity
  8
0
  6
Continuous
 62
     7
370
    25
100
AcDbCircle
 10
38.8908729653
 20
-176.8689332356
 30
0.0
 40
7.685109539558892
100
AcDbArc
 50
242.6096722366
 51
297.3903277634
  0
ARC
  5
37A
330
2DC
100
AcDbEntity
  8
0
  6
Continuous
 62
     7
370
    25
100
AcDbCircle
 10
38.8908729653
 20
-234.0267900676
 30
0.0
 40
7.68510953955875
100
AcDbArc
 50
242.6096722366
 51
297.3903277634
  0
ARC
  5
37B
330
2DC
100
AcDbEntity
  8
0
  6
Continuous
 62
     7
370
    25
100
AcDbCircle
 10
-303.4509032152
 20
15.9781944748
 30
0.0
 40
7.684024037860807
100
AcDbArc
 50
122.60547834
 51
177.3945215143
  0
ARC
  5
37C
330
2DC
100
AcDbEntity
  8
0
  6
Continuous
 62
     7
370
    25
100
AcDbCircle
 10
303.4509032152
 20
-28.9242516754
 30
0.0
 40
7.684024037860695
100
AcDbArc
 50
2.6054784857
 51
57.39452166
  0
ARC
  5
37D
330
2DC
100
AcDbEntity
  8
0
  6
Continuous
 62
     7
370
    25
100
AcDbCircle
 10
-168.014058369
 20
86.9062033202
 30
0.0
 40
10.18563708178768
100
AcDbArc
 50
9.2740653652
 51
40.600236664
  0
ARC
  5
37E
330
2DC
100
AcDbEntity
  8
0
  6
Continuous
 62
     7
370
    25
100
AcDbCircle
 10
-14.7113970918
 20
-80.3277497513
 30
0.0
 40
14.23937079729549
100
AcDbArc
 50
124.1623868897
 51
179.3813015548
  0
ARC
  5
37F
330
2DC
100
AcDbEntity
  8
0
  6
Continuous
 62
     7
370
    25
100
AcDbCircle
 10
-15.1572702666
 20
-78.8993489984
 30
0.0
 40
13.85143994501527
100
AcDbArc
 50
185.2799635052
 51
229.1802400392
  0
ARC
  5
380
330
2DC
100
AcDbEntity
  8
0
  6
Continuous
 62
     7
370
    25
100
AcDbCircle
 10
-6.9234690951
 20
-70.8214373494
 30
0.0
 40
25.36466631993534
100
AcDbArc
 50
227.0321990485
 51
240.4174130045
  0
ARC
  5
381
330
2DC
100
AcDbEntity
  8
0
  6
Continuous
 62
     7
370
    25
100
AcDbCircle
 10
0.6235496405
 20
-56.7392900053
 30
0.0
 40
41.33875799821529
100
AcDbArc
 50
240.9563188333
 51
260.2536263792
  0
ARC
  5
382
330
2DC
100
AcDbEntity
  8
0
  6
Continuous
 62
     7
370
    25
100
AcDbCircle
 10
3.4834002065
 20
-46.0265907467
 30
0.0
 40
52.3906155931139
100
AcDbArc
 50
259.1544075774
 51
291.5267461671
  0
ARC
  5
383
330
2DC
100
AcDbEntity
  8
0
  6
Continuous
 62
     7
370
    25
100
AcDbCircle
 10
4.9825619981
 20
-106.2577805124
 30
0.0
 40
45.35004567844327
100
AcDbArc
 50
61.651172405
 51
87.8358885146
  0
ARC
  5
384
330
2DC
100
AcDbEntity
  8
0
  6
Continuous
 62
     7
370
    25
100
AcDbCircle
 10
3.4959637623
 20
-112.021709837
 30
0.0
 40
34.84300721848055
100
AcDbArc
 50
62.7578264826
 51
101.827379432
  0
ARC
  5
385
330
2DC
100
AcDbEntity
  8
0
  6
Continuous
 62
     7
370
    25
100
AcDbCircle
 10
53.3230524563
 20
15.0343311979
 30
0.0
 40
6.307656989901933
100
AcDbArc
 50
258.6566974488
 51
283.2581201372
  0
ARC
  5
386
330
2DC
100
AcDbEntity
  8
0
  6
Continuous
 62
     7
370
    25
100
AcDbCircle
 10
76.6711676434
 20
15.6847760129
 30
0.0
 40
15.1641994899081
100
AcDbArc
 50
182.2141795568
 51
237.9785871156
  0
ARC
  5
387
330
2DC
100
AcDbEntity
  8
0
  6
Continuous
 62
     8
370
    25
100
AcDbCircle
 10
160.7080081349
 20
-95.7261292
 30
0.0
 40
3.459452456369976
100
AcDbArc
 50
67.6194833125
 51
129.4463465077
  0
ARC
  5
388
330
2DC
100
AcDbEntity
  8
0
  6
Continuous
 62
     8
370
    25
100
AcDbCircle
 10
37.805348571
 20
-241.1207791792
 30
0.0
 40
2.464889649958088
100
AcDbArc
 50
173.7011524809
 51
234.9866671258
  0
ARC
  5
389
330
2DC
100
AcDbEntity
  8
0
  6
Continuous
 62
     8
370
    25
100
AcDbCircle
 10
39.9763973594
 20
-241.1207791792
 30
0.0
 40
2.464889650005048
100
AcDbArc
 50
305.0133328749
 51
6.2988475185
  0
ARC
  5
38A
330
2DC
100
AcDbEntity
  8
0
  6
Continuous
 62
     8
370
    25
100
AcDbCircle
 10
-308.6769742102
 20
-41.1007917826
 30
0.0
 40
2.464889650089698
100
AcDbArc
 50
173.7011524827
 51
234.986667124
  0
ARC
  5
38B
330
2DC
100
AcDbEntity
  8
0
  6
Continuous
 62
     8
370
    25
100
AcDbCircle
 10
308.6769742103
 20
-86.0032379329
 30
0.0
 40
2.464889650044481
100
AcDbArc
 50
305.0133328754
 51
6.298847518
  0
ARC
  5
38C
330
2DC
100
AcDbEntity
  8
0
  6
Continuous
 62
     8
370
    25
100
AcDbCircle
 10
309.0560500904
 20
-24.4956297207
 30
0.0
 40
2.514886179508897
100
AcDbArc
 50
65.6928809539
 51
125.6175774752
  0
ARC
  5
38D
330
2DC
100
AcDbEntity
  8
0
  6
Continuous
 62
     8
370
    25
100
AcDbCircle
 10
310.0891645037
 20
-26.2843952501
 30
0.0
 40
2.514696392469107
100
AcDbArc
 50
294.3746582936
 51
354.3052007488
  0
ARC
  5
38E
330
2DC
100
AcDbEntity
  8
0
  6
Continuous
 62
     8
370
    25
100
AcDbCircle
 10
310.0891645037
 20
-83.4422520821
 30
0.0
 40
2.514696392469097
100
AcDbArc
 50
294.3746582936
 51
354.3052007488
  0
ARC
  5
38F
330
2DC
100
AcDbEntity
  8
0
  6
Continuous
 62
     8
370
    25
100
AcDbCircle
 10
-37.426272691
 20
175.5243576758
 30
0.0
 40
2.514886179509052
100
AcDbArc
 50
65.6928809539
 51
125.6175774752
  0
ARC
  5
390
330
2DC
100
AcDbEntity
  8
0
  6
Continuous
 62
     8
370
    25
100
AcDbCircle
 10
277.9426934506
 20
-110.7725499773
 30
0.0
 40
4.929779300418965
100
AcDbArc
 50
305.0133328777
 51
6.2988475157
  0
ARC
  5
391
330
2DC
100
AcDbEntity
  8
0
  6
Continuous
 62
     8
370
    25
100
AcDbCircle
 10
-310.0891645037
 20
18.6180509002
 30
0.0
 40
2.51469639246921
100
AcDbArc
 50
185.6947992512
 51
245.6253417064
  0
ARC
  5
392
330
2DC
100
AcDbEntity
  8
0
  6
Continuous
 62
     8
370
    25
100
AcDbCircle
 10
-309.0560500904
 20
20.4068164295
 30
0.0
 40
2.51488617950883
100
AcDbArc
 50
54.3824225248
 51
114.3071190461
  0
ARC
  5
393
330
2DC
100
AcDbEntity
  8
0
  6
Continuous
 62
     8
370
    25
100
AcDbCircle
 10
-310.0891645037
 20
-38.5398059318
 30
0.0
 40
2.514696392469215
100
AcDbArc
 50
185.6947992512
 51
245.6253417064
  0
ARC
  5
394
330
2DC
100
AcDbEntity
  8
0
  6
Continuous
 62
     8
370
    25
100
AcDbCircle
 10
-40.3554732395
 20
175.5243576758
 30
0.0
 40
2.514886179509066
100
AcDbArc
 50
54.3824225248
 51
114.3071190461
  0
ARC
  5
395
330
2DC
100
AcDbEntity
  8
0
  6
Continuous
 62
     8
370
    25
100
AcDbCircle
 10
13.1605631168
 20
-93.1412728575
 30
0.0
 40
13.63289170951734
100
AcDbArc
 50
26.9535075164
 51
62.5478231535
  0
ARC
  5
396
330
2DC
100
AcDbEntity
  8
0
  6
Continuous
 62
     8
370
    25
100
AcDbCircle
 10
281.8048932562
 20
-107.9411304399
 30
0.0
 40
2.514696392468734
100
AcDbArc
 50
294.3746582936
 51
354.3052007488
  0
ARC
  5
397
330
2DC
100
AcDbEntity
  8
0
  6
Continuous
 62
     8
370
    25
100
AcDbCircle
 10
3.5436839267
 20
-125.7742133954
 30
0.0
 40
35.51599193755935
100
AcDbArc
 50
66.4668396781
 51
100.2863197278
  0
ARC
  5
398
330
2DC
100
AcDbEntity
  8
0
  6
Continuous
 62
     8
370
    25
100
AcDbCircle
 10
19.9472161193
 20
-81.0925676996
 30
0.0
 40
0.5041730087281497
100
AcDbArc
 50
174.4149778659
 51
233.8972433853
  0
ARC
  5
399
330
2DC
100
AcDbEntity
  8
0
  6
Continuous
 62
     8
370
    25
100
AcDbCircle
 10
3.6320374805
 20
-125.0699303965
 30
0.0
 40
36.21006032716909
100
AcDbArc
 50
63.9751921506
 51
98.1144600444
  0
VIEWPORT
  5
3A0
330
2DC
100
AcDbEntity
  8
0
100
AcDbViewport
 10
0.0
 20
0.0
 30
0.0
 40
205.6
 41
156.0
 68
     1
 69
     1
 12
0.0
 22
-71.0
 13
0.0
 23
0.0
 14
10.0
 24
10.0
 15
10.0
 25
10.0
 16
0.0
 26
0.0
 36
1.0
 17
0.0
 27
0.0
 37
0.0
 42
50.0
 43
0.0
 44
0.0
 45
386.9649805447
 50
0.0
 51
0.0
 72
   100
 90
   557152
  1

281
     0
 71
     1
 74
     0
110
0.0
120
0.0
130
0.0
111
1.0
121
0.0
131
0.0
112
0.0
122
1.0
132
0.0
 79
     0
146
0.0
  0
ENDBLK
  5
2DF
330
2DC
100
AcDbEntity
  8
0
100
AcDbBlockEnd
  0
ENDSEC
  0
SECTION
  2
ENTITIES
  0
SPLINE
  5
73
330
1F
100
AcDbEntity
  8
0
  6
Continuous
 62
     7
370
    25
100
AcDbSpline
210
0.0
220
0.0
230
1.0
 70
     8
 71
     3
 72
    17
 73
    13
 74
     0
 42
0.000000001
 43
0.00000001
 40
0.0
 40
0.0
 40
0.0
 40
0.0
 40
0.0233282253553625
 40
0.125246644334592
 40
0.2236494361427599
 40
0.3212119773380442
 40
0.4186470415596247
 40
0.5646027439109713
 40
0.7102455109913618
 40
0.8071402861890996
 40
0.9038515528248099
 40
1.0
 40
1.0
 40
1.0
 40
1.0
 10
-153.0720080295699
 20
-90.94774969707407
 30
0.0
 10
-152.2731614706711
 20
-91.29843706738123
 30
0.0
 10
-147.9842432475233
 20
-93.18123850951486
 30
0.0
 10
-140.0049795527005
 20
-95.79137238178232
 30
0.0
 10
-129.2881166491861
 20
-98.8632313691887
 30
0.0
 10
-118.657823171434
 20
-101.60307728769
 30
0.0
 10
-106.2469755897003
 20
-104.4305999111197
 30
0.0
 10
-92.01132107859812
 20
-107.1406467931712
 30
0.0
 10
-77.70795976416282
 20
-109.2140381509462
 30
0.0
 10
-65.1728859335982
 20
-110.5477087283616
 30
0.0
 10
-54.44539781072332
 20
-111.3871265485316
 30
0.0
 10
-47.36855537013675
 20
-111.6719473366369
 30
0.0
 10
-43.8404602686733
 20
-111.813942136683
 30
0.0
  0
SPLINE
  5
74
330
1F
100
AcDbEntity
  8
0
  6
Continuous
 62
     7
370
    25
100
AcDbSpline
210
0.0
220
0.0
230
1.0
 70
     8
 71
     3
 72
    22
 73
    18
 74
     0
 42
0.000000001
 43
0.00000001
 40
0.0
 40
0.0
 40
0.0
 40
0.0
 40
0.0088292378179937
 40
0.0157789713565396
 40
0.0282138006341416
 40
0.0504835628921734
 40
0.0904104096567947
 40
0.1620797219468446
 40
0.2904606005781844
 40
0.4364004648271787
 40
0.582464632749644
 40
0.6555664165247095
 40
0.7287097193649269
 40
0.801940142052031
 40
0.8757538687111092
 40
0.9776855709639403
 40
1.0
 40
1.0
 40
1.0
 40
1.0
 10
42.44625254424586
 20
-111.8555011463439
 30
0.0
 10
42.77394376980939
 20
-111.8460879025113
 30
0.0
 10
43.3595696832284
 20
-111.8292652381015
 30
0.0
 10
44.40513382244832
 20
-111.7960413013889
 30
0.0
 10
45.9475976037189
 20
-111.7427830381123
 30
0.0
 10
48.71257259069831
 20
-111.6326503845534
 30
0.0
 10
53.69837718768333
 20
-111.3870177178277
 30
0.0
 10
62.69468412182395
 20
-110.7913932226404
 30
0.0
 10
75.66102523067005
 20
-109.5362231429454
 30
0.0
 10
91.32390405304538
 20
-107.3487350808218
 30
0.0
 10
104.8713961244148
 20
-104.8454044566927
 30
0.0
 10
115.6654811420504
 20
-102.4849896287686
 30
0.0
 10
123.7389544038947
 20
-100.5378623913786
 30
0.0
 10
131.8017416635012
 20
-98.40738370186959
 30
0.0
 10
140.8619912896511
 20
-95.80500292562508
 30
0.0
 10
148.0234495849825
 20
-93.50150546262118
 30
0.0
 10
152.3282166532865
 20
-91.6100654862201
 30
0.0
 10
153.1013467158966
 20
-91.27036554794813
 30
0.0
  0
SPLINE
  5
75
330
1F
100
AcDbEntity
  8
0
  6
Continuous
 62
     7
370
    25
100
AcDbSpline
210
0.0
220
0.0
230
1.0
 70
     8
 71
     3
 72
    17
 73
    13
 74
     0
 42
0.000000001
 43
0.00000001
 40
0.0
 40
0.0
 40
0.0
 40
0.0
 40
0.0923255517016621
 40
0.1803543505549436
 40
0.2224572690701222
 40
0.2652237331528504
 40
0.3119433740776052
 40
0.3649944275034478
 40
0.491986789938084
 40
0.6447840747680151
 40
0.8168106758240972
 40
1.0
 40
1.0
 40
1.0
 40
1.0
 10
153.0986571557042
 20
-91.42088574121745
 30
0.0
 10
153.4346960097499
 20
-91.30322167743113
 30
0.0
 10
154.091134754665
 20
-91.0733695355624
 30
0.0
 10
155.1125763736885
 20
-91.00168131688915
 30
0.0
 10
155.9790712659333
 20
-91.11069027448164
 30
0.0
 10
156.6327600654649
 20
-91.2883791323399
 30
0.0
 10
157.2541495988594
 20
-91.55573090093955
 30
0.0
 10
158.0665952930581
 20
-92.0447115403949
 30
0.0
 10
158.898451794557
 20
-92.83150410542709
 30
0.0
 10
159.5618654338798
 20
-93.84450225403587
 30
0.0
 10
159.941995325246
 20
-94.84890451195159
 30
0.0
 10
159.9802642392902
 20
-95.3544178991099
 30
0.0
 10
160.0
 20
-95.61511751637771
 30
0.0
  0
SPLINE
  5
76
330
1F
100
AcDbEntity
  8
0
  6
Continuous
 62
     7
370
    25
100
AcDbSpline
210
0.0
220
0.0
230
1.0
 70
     8
 71
     3
 72
    19
 73
    15
 74
     0
 42
0.000000001
 43
0.00000001
 40
0.0
 40
0.0
 40
0.0
 40
0.0
 40
0.1757225174251652
 40
0.3333536508732741
 40
0.4609041244968948
 40
0.5298227193674844
 40
0.5548207276631916
 40
0.5749416326176403
 40
0.5922274352229258
 40
0.6087374984537505
 40
0.644305425390542
 40
0.7279184619167884
 40
0.8177208515915496
 40
1.0
 40
1.0
 40
1.0
 40
1.0
 10
-160.0
 20
-95.6206694822549
 30
0.0
 10
-159.9915798536608
 20
-95.49672113702687
 30
0.0
 10
-159.9756064510248
 20
-95.26158545830506
 30
0.0
 10
-159.822934964601
 20
-94.53444027450915
 30
0.0
 10
-159.5766997296826
 20
-93.77632929799684
 30
0.0
 10
-159.2808687311102
 20
-93.14627460879859
 30
0.0
 10
-159.0064674276615
 20
-92.71458084222692
 30
0.0
 10
-158.7961214202932
 20
-92.43555568956837
 30
0.0
 10
-158.5606226795214
 20
-92.17227982587394
 30
0.0
 10
-158.2170773106818
 20
-91.8490064706824
 30
0.0
 10
-157.5410193601747
 20
-91.36541280982836
 30
0.0
 10
-156.5746179236941
 20
-90.976906812694
 30
0.0
 10
-154.8736160180271
 20
-90.73301368265952
 30
0.0
 10
-153.8030362309561
 20
-91.07019220763101
 30
0.0
 10
-153.0858086922361
 20
-91.2960826330763
 30
0.0
  0
SPLINE
  5
7B
330
1F
100
AcDbEntity
  8
0
  6
Continuous
 62
     7
370
    25
100
AcDbSpline
210
0.0
220
0.0
230
1.0
 70
     8
 71
     3
 72
    11
 73
     7
 74
     0
 42
0.000000001
 43
0.00000001
 40
0.0
 40
0.0
 40
0.0
 40
0.0
 40
0.2967596706400017
 40
0.5902394512494881
 40
0.880725623125006
 40
1.0
 40
1.0
 40
1.0
 40
1.0
 10
-43.59624998926609
 20
-111.821606040332
 30
0.0
 10
-42.78268161446085
 20
-111.8453635339568
 30
0.0
 10
-41.16453670257516
 20
-111.892615945209
 30
0.0
 10
-38.83223749116404
 20
-111.9406225819041
 30
0.0
 10
-36.99873687297376
 20
-111.9710022784533
 30
0.0
 10
-35.92895522092317
 20
-111.9799376839477
 30
0.0
 10
-35.61755984542955
 20
-111.9825386296115
 30
0.0
  0
SPLINE
  5
7C
330
1F
100
AcDbEntity
  8
0
  6
Continuous
 62
     7
370
    25
100
AcDbSpline
210
0.0
220
0.0
230
1.0
 70
     8
 71
     3
 72
     9
 73
     5
 74
     0
 42
0.000000001
 43
0.00000001
 40
0.0
 40
0.0
 40
0.0
 40
0.0
 40
0.3967977952146154
 40
1.0
 40
1.0
 40
1.0
 40
1.0
 10
35.60400666657912
 20
-111.9792032642963
 30
0.0
 10
36.52670560211538
 20
-111.9703204832167
 30
0.0
 10
38.85206866275738
 20
-111.9479343178027
 30
0.0
 10
41.09599144515963
 20
-111.8902191110367
 30
0.0
 10
42.44953061487283
 20
-111.8554051710658
 30
0.0
  0
SPLINE
  5
91
330
1F
100
AcDbEntity
  8
0
  6
Continuous
 62
     7
370
    25
100
AcDbSpline
210
0.0
220
0.0
230
1.0
 70
     8
 71
     3
 72
    37
 73
    33
 74
     0
 42
0.000000001
 43
0.00000001
 40
0.0
 40
0.0
 40
0.0
 40
0.0
 40
0.0044514988232228
 40
0.0089029976408984
 40
0.0178059953032703
 40
0.0356119907163449
 40
0.0712239706788306
 40
0.124640680872355
 40
0.2492635568216597
 40
0.2804158939050571
 40
0.3115676215539092
 40
0.3457308925857728
 40
0.3738716259573215
 40
0.3880815305086761
 40
0.405025008425726
 40
0.4361765737367802
 40
0.4673276980066153
 40
0.4984954406303862
 40
0.5297187156844394
 40
0.5610473343426668
 40
0.5924004777538958
 40
0.6028517584577746
 40
0.6237546786649852
 40
0.6513211743040327
 40
0.6864613228890973
 40
0.7222939211241163
 40
0.749168700627405
 40
0.87458340909977
 40
0.9372903115546161
 40
0.9686444520357411
 40
0.9811864463540695
 40
1.0
 40
1.0
 40
1.0
 40
1.0
 10
72.21456422731988
 20
-81.04485715845708
 30
0.0
 10
72.00885488399075
 20
-81.04510474748125
 30
0.0
 10
71.59743619758882
 20
-81.04559992552925
 30
0.0
 10
70.77460487099727
 20
-81.04660108599722
 30
0.0
 10
69.33465909584984
 20
-81.04837263681087
 30
0.0
 10
66.45478917771725
 20
-81.05199492839193
 30
0.0
 10
61.51786332790004
 20
-81.058415380255
 30
0.0
 10
51.64372093653242
 20
-81.07178224648251
 30
0.0
 10
41.97048824172317
 20
-81.08392241174528
 30
0.0
 10
33.32035743441826
 20
-81.0923268221246
 30
0.0
 10
28.85555489235504
 20
-81.09500910596915
 30
0.0
 10
24.53005253322369
 20
-81.09743006118498
 30
0.0
 10
20.98937972995541
 20
-81.09760729896736
 30
0.0
 10
18.24604465784349
 20
-81.09869561137656
 30
0.0
 10
15.36391531073929
 20
-81.09862883722961
 30
0.0
 10
11.69659041590398
 20
-81.10058685022871
 30
0.0
 10
7.365160354110346
 20
-81.10196297453443
 30
0.0
 10
3.023622975032783
 20
-81.1023668579734
 30
0.0
 10
-1.330750462583737
 20
-81.10245094691517
 30
0.0
 10
-5.690755559233895
 20
-81.10240900909157
 30
0.0
 10
-9.08129266615847
 20
-81.10121021219527
 30
0.0
 10
-11.98705039779797
 20
-81.10063463369036
 30
0.0
 10
-14.71673914299345
 20
-81.10024236270836
 30
0.0
 10
-18.59130834487699
 20
-81.10030031644803
 30
0.0
 10
-23.16002529292403
 20
-81.10108257443106
 30
0.0
 10
-27.69785324092321
 20
-81.10099192538296
 30
0.0
 10
-36.42324004004442
 20
-81.09940479807837
 30
0.0
 10
-46.39488514026421
 20
-81.09490983548176
 30
0.0
 10
-56.57052697325789
 20
-81.08643501965214
 30
0.0
 10
-61.51120372085785
 20
-81.08004059140985
 30
0.0
 10
-64.41694622305141
 20
-81.07561073163973
 30
0.0
 10
-65.86948412846573
 20
-81.07303589894646
 30
0.0
 10
-66.74101728863916
 20
-81.07149098086502
 30
0.0
  0
SPLINE
  5
92
330
1F
100
AcDbEntity
  8
0
  6
Continuous
 62
     7
370
    25
100
AcDbSpline
210
0.0
220
0.0
230
1.0
 70
     8
 71
     3
 72
    69
 73
    65
 74
     0
 42
0.000000001
 43
0.00000001
 40
0.0
 40
0.0
 40
0.0
 40
0.0
 40
0.0113356038314575
 40
0.0226549665440461
 40
0.0339579404375165
 40
0.0452442785436073
 40
0.0565135067487621
 40
0.0677651591748694
 40
0.0789987785739042
 40
0.0902139167031995
 40
0.1014101346820017
 40
0.1125870033298921
 40
0.1237441034876472
 40
0.1348810263210876
 40
0.1459973736084217
 40
0.1570927580116011
 40
0.1681668033321211
 40
0.1792191447517539
 40
0.190249429058609
 40
0.2012572848227016
 40
0.2122422340844358
 40
0.223203886737469
 40
0.2341418694999005
 40
0.2450558140761484
 40
0.2559453575404691
 40
0.2668101427034057
 40
0.2776498184617278
 40
0.2884640401323222
 40
0.2992524697705321
 40
0.3100147764733971
 40
0.3207506366682409
 40
0.3314597343870261
 40
0.3421417615268906
 40
0.35279641809726
 40
0.3634234124538976
 40
0.3740224468850254
 40
0.3845931864539887
 40
0.3951353473501418
 40
0.405648652875749
 40
0.4161328282253779
 40
0.4265876008566167
 40
0.4370127008458982
 40
0.4474078612298644
 40
0.4577728183326621
 40
0.4681073120795534
 40
0.4784110862972236
 40
0.4886838890011638
 40
0.4989254726704677
 40
0.5632089529369178
 40
0.6263802631575435
 40
0.6883859528809569
 40
0.7491774393381078
 40
0.7706823079642191
 40
0.7920843587631178
 40
0.8133815380395446
 40
0.8345717436992856
 40
0.8556528385693488
 40
0.8766226632415384
 40
0.8974790156326078
 40
0.9182200678615
 40
0.9388441473534705
 40
0.9593495137442416
 40
0.9797353181718993
 40
1.0
 40
1.0
 40
1.0
 40
1.0
 10
152.9541426986739
 20
-80.67414611695067
 30
0.0
 10
152.7427733216987
 20
-80.6745203935304
 30
0.0
 10
152.3203374078288
 20
-80.67526841044406
 30
0.0
 10
151.676269540077
 20
-80.67646041484451
 30
0.0
 10
151.0252551910324
 20
-80.677701057794
 30
0.0
 10
150.3666219877159
 20
-80.67899350627692
 30
0.0
 10
149.7007184377076
 20
-80.68033705091581
 30
0.0
 10
149.0276247939262
 20
-80.68173203199727
 30
0.0
 10
148.3474927559113
 20
-80.68317853129275
 30
0.0
 10
147.6604534531354
 20
-80.68467672386193
 30
0.0
 10
146.9666420502234
 20
-80.68622678377567
 30
0.0
 10
146.2661911762968
 20
-80.68782890909054
 30
0.0
 10
145.5592326882509
 20
-80.68948331493641
 30
0.0
 10
144.8458972048507
 20
-80.6911902351648
 30
0.0
 10
144.1263142426343
 20
-80.69294992157108
 30
0.0
 10
143.400612168613
 20
-80.69476264428002
 30
0.0
 10
142.6689182851709
 20
-80.69662868990504
 30
0.0
 10
141.9313585698785
 20
-80.69854836743404
 30
0.0
 10
141.1880593348505
 20
-80.70052198371914
 30
0.0
 10
140.4391463140279
 20
-80.7025499195868
 30
0.0
 10
139.6847606354362
 20
-80.70463202463779
 30
0.0
 10
138.9250530776762
 20
-80.7067682197505
 30
0.0
 10
138.1601683409768
 20
-80.70895846109
 30
0.0
 10
137.3902500121647
 20
-80.71120272931003
 30
0.0
 10
136.6154400315604
 20
-80.71350103002636
 30
0.0
 10
135.8358789199535
 20
-80.71585339318764
 30
0.0
 10
135.0517057277663
 20
-80.71825987294697
 30
0.0
 10
134.2630580583124
 20
-80.7207205474029
 30
0.0
 10
133.4700720716106
 20
-80.72323551836232
 30
0.0
 10
132.6728824920953
 20
-80.72580491114896
 30
0.0
 10
131.8716226200821
 20
-80.72842887420938
 30
0.0
 10
131.0664243243745
 20
-80.73110757948173
 30
0.0
 10
130.2574181062716
 20
-80.7338412199282
 30
0.0
 10
129.4447328977436
 20
-80.73663001761193
 30
0.0
 10
128.6284972226753
 20
-80.73947419127063
 30
0.0
 10
127.8088375090216
 20
-80.74237406655858
 30
0.0
 10
126.9858966451598
 20
-80.74532830535563
 30
0.0
 10
126.1598170373253
 20
-80.74833675671591
 30
0.0
 10
125.3307373308026
 20
-80.75139911618143
 30
0.0
 10
124.4987945696359
 20
-80.75451516327875
 30
0.0
 10
123.6641241175837
 20
-80.75768469590348
 30
0.0
 10
122.8268597408886
 20
-80.76090754777239
 30
0.0
 10
121.9871335579673
 20
-80.76418358164304
 30
0.0
 10
121.1450762143527
 20
-80.76751269719642
 30
0.0
 10
120.300816292436
 20
-80.77089480455204
 30
0.0
 10
119.4544825451855
 20
-80.7743299201101
 30
0.0
 10
118.6061956426701
 20
-80.77781780933445
 30
0.0
 10
116.259977716332
 20
-80.7875921530052
 30
0.0
 10
112.3785698312219
 20
-80.80447105826501
 30
0.0
 10
106.8879471000653
 20
-80.83020084925748
 30
0.0
 10
101.369618929892
 20
-80.85801267237785
 30
0.0
 10
97.00080707609852
 20
-80.88165702082976
 30
0.0
 10
93.82597347617445
 20
-80.89972763603566
 30
0.0
 10
91.84935663989326
 20
-80.91132180359232
 30
0.0
 10
89.8723231049681
 20
-80.92324505645021
 30
0.0
 10
87.89585892815397
 20
-80.93549482158711
 30
0.0
 10
85.92095568365882
 20
-80.94806382823023
 30
0.0
 10
83.9485817027617
 20
-80.96094641811631
 30
0.0
 10
81.97969064403748
 20
-80.97413833496032
 30
0.0
 10
80.01522176962045
 20
-80.98764421462978
 30
0.0
 10
78.05609676800802
 20
-81.00146063676243
 30
0.0
 10
76.10308329701863
 20
-81.0156104458036
 30
0.0
 10
74.1573033948235
 20
-81.03002277066823
 30
0.0
 10
72.86085631421444
 20
-81.03992219466872
 30
0.0
 10
72.21456422731988
 20
-81.04485715845708
 30
0.0
  0
SPLINE
  5
95
330
1F
100
AcDbEntity
  8
0
  6
Continuous
 62
     7
370
    25
100
AcDbSpline
210
0.0
220
0.0
230
1.0
 70
     8
 71
     3
 72
    31
 73
    27
 74
     0
 42
0.000000001
 43
0.00000001
 40
0.0
 40
0.0
 40
0.0
 40
0.0
 40
0.0090815417736578
 40
0.0194519792251999
 40
0.0311628241486117
 40
0.0465601238416514
 40
0.0622643947942697
 40
0.091802509248038
 40
0.1245291869507144
 40
0.1854659807863579
 40
0.2498535932259197
 40
0.3120565898081871
 40
0.3431779128707126
 40
0.3743900571338611
 40
0.4362370605624343
 40
0.4996689839639553
 40
0.5801163428560443
 40
0.6631269368293308
 40
0.7493900481103102
 40
0.8065003900621159
 40
0.8741122327894095
 40
0.9104970207510643
 40
0.9370655893762492
 40
0.959210920683946
 40
0.980197418341962
 40
1.0
 40
1.0
 40
1.0
 40
1.0
 10
-0.0000000000002091
 20
-111.9701315059501
 30
0.0
 10
0.1544978403948234
 20
-111.9701297490151
 30
0.0
 10
0.4854205908048517
 20
-111.9701259857925
 30
0.0
 10
1.015477624324235
 20
-111.9701068071821
 30
0.0
 10
1.652686755069626
 20
-111.9700782074134
 30
0.0
 10
2.379927978463484
 20
-111.9700612882773
 30
0.0
 10
3.408549514873009
 20
-111.9700392306973
 30
0.0
 10
4.727371969993569
 20
-111.9701433553818
 30
0.0
 10
6.798817182542091
 20
-111.9706318297239
 30
0.0
 10
9.425552223371684
 20
-111.9716274852695
 30
0.0
 10
12.46654458095744
 20
-111.9733167061543
 30
0.0
 10
14.93966932614583
 20
-111.9750289155687
 30
0.0
 10
16.83046002712597
 20
-111.9766749584035
 30
0.0
 10
18.67141812754744
 20
-111.9782387593419
 30
0.0
 10
20.90242972571216
 20
-111.9798972195009
 30
0.0
 10
23.65054392367992
 20
-111.9816579461124
 30
0.0
 10
26.42340340873015
 20
-111.9831390179546
 30
0.0
 10
29.10564905284909
 20
-111.9843006716776
 30
0.0
 10
31.16002880904811
 20
-111.984998411962
 30
0.0
 10
32.74943768028574
 20
-111.9854198463107
 30
0.0
 10
33.73986059962949
 20
-111.9856187247223
 30
0.0
 10
34.38475198643355
 20
-111.9858536919369
 30
0.0
 10
34.74297607194036
 20
-111.9860890299522
 30
0.0
 10
34.99562098575441
 20
-111.9861937946953
 30
0.0
 10
35.19368130321277
 20
-111.9861568760512
 30
0.0
 10
35.29623309203875
 20
-111.9859523789159
 30
0.0
 10
35.34602068730829
 20
-111.9858530981455
 30
0.0
  0
SPLINE
  5
96
330
1F
100
AcDbEntity
  8
0
  6
Continuous
 62
     7
370
    25
100
AcDbSpline
210
0.0
220
0.0
230
1.0
 70
     8
 71
     3
 72
    30
 73
    26
 74
     0
 42
0.000000001
 43
0.00000001
 40
0.0
 40
0.0
 40
0.0
 40
0.0
 40
0.0107333130682964
 40
0.0227135668764284
 40
0.035929636017862
 40
0.0460952394744992
 40
0.0716427552256777
 40
0.1061977513037245
 40
0.1250123474843303
 40
0.1880243780513348
 40
0.2501659902264842
 40
0.3796470793650794
 40
0.5000013293986016
 40
0.5590238051538027
 40
0.6246808655333489
 40
0.7499276507950704
 40
0.8122839871200829
 40
0.8433988883030377
 40
0.8745490463071934
 40
0.9057964250639549
 40
0.9372053678003606
 40
0.9529638822044121
 40
0.9686918097340814
 40
0.9850591488169937
 40
0.9999999999999999
 40
0.9999999999999999
 40
0.9999999999999999
 40
0.9999999999999999
 10
-35.34545876201611
 20
-111.9858631007499
 30
0.0
 10
-35.31905451491767
 20
-111.9859100574956
 30
0.0
 10
-35.26317851200265
 20
-111.9860094261786
 30
0.0
 10
-35.16254488096043
 20
-111.9860331001379
 30
0.0
 10
-35.05328335044945
 20
-111.9859909353496
 30
0.0
 10
-34.88906344631573
 20
-111.9858647561728
 30
0.0
 10
-34.62174887236741
 20
-111.9856869400178
 30
0.0
 10
-34.26667324090383
 20
-111.9855820635532
 30
0.0
 10
-33.6697085001361
 20
-111.9854324211574
 30
0.0
 10
-32.79581970865382
 20
-111.9851949582628
 30
0.0
 10
-30.8949755990331
 20
-111.9846648704141
 30
0.0
 10
-27.92040304224227
 20
-111.9837782033523
 30
0.0
 10
-24.24532742738619
 20
-111.9824757301182
 30
0.0
 10
-20.98365346299339
 20
-111.9811479953008
 30
0.0
 10
-17.43189516096145
 20
-111.9795654808607
 30
0.0
 10
-13.52403522475545
 20
-111.9775762269365
 30
0.0
 10
-9.981361792724718
 20
-111.9749562319039
 30
0.0
 10
-7.925226843986256
 20
-111.9731267190784
 30
0.0
 10
-6.366634800529928
 20
-111.9717026254001
 30
0.0
 10
-4.790528733731628
 20
-111.9706869253444
 30
0.0
 10
-3.464934159264889
 20
-111.9700997840978
 30
0.0
 10
-2.398583495285818
 20
-111.9699686800115
 30
0.0
 10
-1.586005543632198
 20
-111.9700512700103
 30
0.0
 10
-0.7865097054793146
 20
-111.9701141722379
 30
0.0
 10
-0.254083632771944
 20
-111.9701259062576
 30
0.0
 10
-0.0000000000002091
 20
-111.9701315059502
 30
0.0
  0
SPLINE
  5
98
330
1F
100
AcDbEntity
  8
0
  6
Continuous
 62
     7
370
    25
100
AcDbSpline
210
0.0
220
0.0
230
1.0
 70
     8
 71
     3
 72
     9
 73
     5
 74
     0
 42
0.000000001
 43
0.00000001
 40
0.0
 40
0.0
 40
0.0
 40
0.0
 40
0.8697989433667995
 40
1.0
 40
1.0
 40
1.0
 40
1.0
 10
-153.0976894121762
 20
-91.00685429216398
 30
0.0
 10
-153.0950499591758
 20
-91.17550058838457
 30
0.0
 10
-153.0920154038679
 20
-91.36939171403688
 30
0.0
 10
-153.0874088633211
 20
-91.26554099936943
 30
0.0
 10
-153.0868090868745
 20
-91.25201952658763
 30
0.0
  0
SPLINE
  5
99
330
1F
100
AcDbEntity
  8
0
  6
Continuous
 62
     7
370
    25
100
AcDbSpline
210
0.0
220
0.0
230
1.0
 70
     8
 71
     3
 72
    33
 73
    29
 74
     0
 42
0.000000001
 43
0.00000001
 40
0.0
 40
0.0
 40
0.0
 40
0.0
 40
0.0039425520966167
 40
0.0078822502459342
 40
0.0157533154508808
 40
0.0314639821264819
 40
0.0627741238405491
 40
0.1250626049663895
 40
0.1857583150966754
 40
0.2491675548066572
 40
0.3688792400538252
 40
0.4991443021800239
 40
0.5587528483123442
 40
0.620082884660281
 40
0.6832138569264805
 40
0.7482511758515468
 40
0.768896574088398
 40
0.7896272400991645
 40
0.8104385708040942
 40
0.8313135113526442
 40
0.8522395820332647
 40
0.8732153579823267
 40
0.8942392276028145
 40
0.9153088213000595
 40
0.9364219613789546
 40
0.9575764298603354
 40
0.9787699109484637
 40
1.0
 40
1.0
 40
1.0
 40
1.0
 10
-66.74101728864392
 20
-81.07149098086654
 30
0.0
 10
-66.87594694070765
 20
-81.0703080190492
 30
0.0
 10
-67.14570857152444
 20
-81.06794295174072
 30
0.0
 10
-67.68466390010845
 20
-81.06325501422626
 30
0.0
 10
-68.62583987928197
 20
-81.05513972555529
 30
0.0
 10
-70.50122393535239
 20
-81.03928112590552
 30
0.0
 10
-74.22728245610297
 20
-81.00897756375126
 30
0.0
 10
-79.45627692582653
 20
-80.97042379648374
 30
0.0
 10
-85.70191605017345
 20
-80.92883197696847
 30
0.0
 10
-93.75288304270241
 20
-80.88004613601343
 30
0.0
 10
-103.8354892917384
 20
-80.82744560167471
 30
0.0
 10
-113.3232667032147
 20
-80.78679446324907
 30
0.0
 10
-120.6582822135789
 20
-80.75879915257057
 30
0.0
 10
-125.852645872236
 20
-80.74052639050565
 30
0.0
 10
-130.9926718101087
 20
-80.72386158166582
 30
0.0
 10
-134.8492896506953
 20
-80.71224858798274
 30
0.0
 10
-137.5137314864969
 20
-80.70488641470293
 30
0.0
 10
-139.0440416925998
 20
-80.7008621303979
 30
0.0
 10
-140.5524736696952
 20
-80.69698696089299
 30
0.0
 10
-142.0375111377562
 20
-80.693259676502
 30
0.0
 10
-143.4977733376755
 20
-80.68973833995469
 30
0.0
 10
-144.9321552603334
 20
-80.6864236473119
 30
0.0
 10
-146.3398320103715
 20
-80.68333372208166
 30
0.0
 10
-147.7198011849138
 20
-80.68046534998656
 30
0.0
 10
-149.0715193098968
 20
-80.67781625160887
 30
0.0
 10
-150.3933773819475
 20
-80.67539114657865
 30
0.0
 10
-151.6876275221344
 20
-80.67316946730283
 30
0.0
 10
-152.5232329899333
 20
-80.67187500796898
 30
0.0
 10
-152.9413962523583
 20
-80.67122721979742
 30
0.0
  0
SPLINE
  5
9C
330
1F
100
AcDbEntity
  8
0
  6
Continuous
 62
     7
370
    25
100
AcDbSpline
210
0.0
220
0.0
230
1.0
 70
     8
 71
     3
 72
    28
 73
    24
 74
     0
 42
0.000000001
 43
0.00000001
 40
0.0
 40
0.0
 40
0.0
 40
0.0
 40
0.0625000000000001
 40
0.0625000000000001
 40
0.1250000000000002
 40
0.1250000000000002
 40
0.2500000000000004
 40
0.2500000000000004
 40
0.3750000000000007
 40
0.3750000000000007
 40
0.5000000000000009
 40
0.5000000000000009
 40
0.6250000000000011
 40
0.6250000000000011
 40
0.6875000000000012
 40
0.6875000000000012
 40
0.718750000000001
 40
0.718750000000001
 40
0.7500000000000009
 40
0.7500000000000009
 40
0.8750000000000004
 40
0.8750000000000004
 40
1.0
 40
1.0
 40
1.0
 40
1.0
 10
200.0
 20
-80.41463643720951
 30
0.0
 10
200.3439210541366
 20
-80.41463643696733
 30
0.0
 10
200.6904970573861
 20
-80.43168829019152
 30
0.0
 10
201.3833430778164
 20
-80.50092525380649
 30
0.0
 10
201.7296087290257
 20
-80.55311310362484
 30
0.0
 10
202.7592383172724
 20
-80.76222905580124
 30
0.0
 10
203.4331946580142
 20
-80.97226593019512
 30
0.0
 10
204.7121402009715
 20
-81.5189315103575
 30
0.0
 10
205.3168655281285
 20
-81.85536079549371
 30
0.0
 10
206.4236765410085
 20
-82.6246458021359
 30
0.0
 10
206.9256745815296
 20
-83.05721332701391
 30
0.0
 10
207.8099809132561
 20
-83.9808919304089
 30
0.0
 10
208.1923745481795
 20
-84.47175252867369
 30
0.0
 10
208.6758189790675
 20
-85.22416097639197
 30
0.0
 10
208.8220614855061
 20
-85.47768087492405
 30
0.0
 10
209.0199098934055
 20
-85.85903836221979
 30
0.0
 10
209.082278866775
 20
-85.9863408992821
 30
0.0
 10
209.2000535466721
 20
-86.24086175128575
 30
0.0
 10
209.2551983306575
 20
-86.36736685513422
 30
0.0
 10
209.5203792601736
 20
-87.01475906356684
 30
0.0
 10
209.6939152569111
 20
-87.57161617198565
 30
0.0
 10
209.9338456864456
 20
-88.74693026699086
 30
0.0
 10
210.0000000000001
 20
-89.36518448524814
 30
0.0
 10
210.0
 20
-90.0
 30
0.0
  0
SPLINE
  5
A0
330
1F
100
AcDbEntity
  8
0
  6
Continuous
 62
     7
370
    25
100
AcDbSpline
210
0.0
220
0.0
230
1.0
 70
     8
 71
     3
 72
    28
 73
    24
 74
     0
 42
0.000000001
 43
0.00000001
 40
0.0
 40
0.0
 40
0.0
 40
0.0
 40
0.1249999999999999
 40
0.1249999999999999
 40
0.2499999999999997
 40
0.2499999999999997
 40
0.2812499999999997
 40
0.2812499999999997
 40
0.3124999999999997
 40
0.3124999999999997
 40
0.3749999999999996
 40
0.3749999999999996
 40
0.4999999999999994
 40
0.4999999999999994
 40
0.6249999999999993
 40
0.6249999999999993
 40
0.7499999999999991
 40
0.7499999999999991
 40
0.874999999999999
 40
0.874999999999999
 40
0.9374999999999996
 40
0.9374999999999996
 40
1.0
 40
1.0
 40
1.0
 40
1.0
 10
-210.0
 20
-90.0
 30
0.0
 10
-210.0
 20
-89.36518448520809
 30
0.0
 10
-209.933845686429
 20
-88.74693026707014
 30
0.0
 10
-209.693915256928
 20
-87.57161617190626
 30
0.0
 10
-209.520379260165
 20
-87.01475906358999
 30
0.0
 10
-209.2551983306595
 20
-86.36736685512838
 30
0.0
 10
-209.200053546673
 20
-86.24086175128069
 30
0.0
 10
-209.082278866774
 20
-85.9863408992871
 30
0.0
 10
-209.0199098934055
 20
-85.8590383622191
 30
0.0
 10
-208.8220614855065
 20
-85.4776808749254
 30
0.0
 10
-208.6758189790675
 20
-85.22416097639197
 30
0.0
 10
-208.19237454818
 20
-84.47175252867359
 30
0.0
 10
-207.809980913257
 20
-83.98089193038581
 30
0.0
 10
-206.925674581528
 20
-83.05721332703713
 30
0.0
 10
-206.423676540975
 20
-82.62464580217119
 30
0.0
 10
-205.3168655281619
 20
-81.85536079545841
 30
0.0
 10
-204.7121402010066
 20
-81.51893151034561
 30
0.0
 10
-203.4331946579792
 20
-80.9722659302071
 30
0.0
 10
-202.7592383173034
 20
-80.76222905581112
 30
0.0
 10
-201.7296087290105
 20
-80.55311310361992
 30
0.0
 10
-201.3833430778275
 20
-80.50092525381103
 30
0.0
 10
-200.6904970573756
 20
-80.431688290187
 30
0.0
 10
-200.343921054144
 20
-80.41463643696693
 30
0.0
 10
-200.0
 20
-80.41463643720951
 30
0.0
  0
SPLINE
  5
A3
330
1F
100
AcDbEntity
  8
0
  6
Continuous
 62
     7
370
    25
100
AcDbSpline
210
0.0
220
0.0
230
1.0
 70
     8
 71
     3
 72
    16
 73
    12
 74
     0
 42
0.000000001
 43
0.00000001
 40
0.0
 40
0.0
 40
0.0
 40
0.0
 40
0.1067210077645903
 40
0.2040867795343101
 40
0.2920973030096874
 40
0.3707525922668441
 40
0.4400526985116177
 40
0.4999977292249463
 40
0.6804741797725258
 40
0.8471387451996548
 40
1.0
 40
1.0
 40
1.0
 40
1.0
 10
155.0
 20
-80.0
 30
0.0
 10
155.1244532410803
 20
-80.00088812370034
 30
0.0
 10
155.3624500676348
 20
-80.00258651757449
 30
0.0
 10
155.7028497570489
 20
-80.01541464496286
 30
0.0
 10
156.0103452776848
 20
-80.03316890695825
 30
0.0
 10
156.2849220620447
 20
-80.05453701291974
 30
0.0
 10
156.526592963118
 20
-80.07757163024176
 30
0.0
 10
156.8860961127655
 20
-80.11740478564934
 30
0.0
 10
157.3570153883205
 20
-80.1838173023907
 30
0.0
 10
157.9326363148481
 20
-80.28823300404977
 30
0.0
 10
158.2972202335277
 20
-80.37373314322596
 30
0.0
 10
158.471637297068
 20
-80.41463643720945
 30
0.0
  0
SPLINE
  5
A4
330
1F
100
AcDbEntity
  8
0
  6
Continuous
 62
     7
370
    25
100
AcDbSpline
210
0.0
220
0.0
230
1.0
 70
     8
 71
     3
 72
    14
 73
    10
 74
     0
 42
0.000000001
 43
0.00000001
 40
0.0
 40
0.0
 40
0.0
 40
0.0
 40
0.0900607944959005
 40
0.1850921540722179
 40
0.2850962647389504
 40
0.3900749989368359
 40
0.5000299720493365
 40
0.7079109600765797
 40
1.0
 40
1.0
 40
1.0
 40
1.0
 10
-158.471637297068
 20
-80.41463643720947
 30
0.0
 10
-158.3689844355478
 20
-80.39004536496671
 30
0.0
 10
-158.1580131758915
 20
-80.33950600921456
 30
0.0
 10
-157.8312083115123
 20
-80.27148234568675
 30
0.0
 10
-157.4861014838658
 20
-80.20778116864628
 30
0.0
 10
-157.1225269543387
 20
-80.15021849183474
 30
0.0
 10
-156.6329358950146
 20
-80.0860467602527
 30
0.0
 10
-155.9235627362338
 20
-80.01769107965995
 30
0.0
 10
-155.3405838830425
 20
-80.00652397110605
 30
0.0
 10
-155.0
 20
-80.0
 30
0.0
  0
SPLINE
  5
A7
330
1F
100
AcDbEntity
  8
0
  6
Continuous
 62
     7
370
    25
100
AcDbSpline
210
0.0
220
0.0
230
1.0
 70
     8
 71
     3
 72
    13
 73
     9
 74
     0
 42
0.000000001
 43
0.00000001
 40
0.0
 40
0.0
 40
0.0
 40
0.0
 40
0.1133180360841317
 40
0.2344256095710599
 40
0.3633240858675745
 40
0.5000145912784584
 40
0.7078945955837147
 40
1.0
 40
1.0
 40
1.0
 40
1.0
 10
156.7358186485341
 20
-80.3109773279071
 30
0.0
 10
156.6711968550155
 20
-80.28793255493042
 30
0.0
 10
156.5375111341836
 20
-80.24025889997519
 30
0.0
 10
156.3289353895976
 20
-80.17824743721488
 30
0.0
 10
156.1059578305369
 20
-80.121857491333
 30
0.0
 10
155.8317832529437
 20
-80.0667445497128
 30
0.0
 10
155.4620884133789
 20
-80.01327093737865
 30
0.0
 10
155.1704078883725
 20
-80.00489402536385
 30
0.0
 10
154.9999999999999
 20
-80.0
 30
0.0
  0
SPLINE
  5
A9
330
1F
100
AcDbEntity
  8
0
  6
Continuous
 62
     7
370
    25
100
AcDbSpline
210
0.0
220
0.0
230
1.0
 70
     8
 71
     3
 72
    15
 73
    11
 74
     0
 42
0.000000001
 43
0.00000001
 40
0.0
 40
0.0
 40
0.0
 40
0.0
 40
0.1269475709141527
 40
0.2404212350017269
 40
0.3404209404975369
 40
0.4269466627856728
 40
0.4999984168512734
 40
0.6805108154330651
 40
0.847177043927576
 40
1.0
 40
1.0
 40
1.0
 40
1.0
 10
-154.9999999999999
 20
-80.0
 30
0.0
 10
-155.0740331323087
 20
-80.00094056331017
 30
0.0
 10
-155.2142417000863
 20
-80.00272186082535
 30
0.0
 10
-155.4126832120653
 20
-80.0159741281809
 30
0.0
 10
-155.5872665612046
 20
-80.03368537589044
 30
0.0
 10
-155.7380245592803
 20
-80.05411014410272
 30
0.0
 10
-155.9352721251258
 20
-80.08642417837504
 30
0.0
 10
-156.1784987394756
 20
-80.1378364725506
 30
0.0
 10
-156.4663158963362
 20
-80.21615229874477
 30
0.0
 10
-156.6486174023311
 20
-80.28029541224298
 30
0.0
 10
-156.7358186485341
 20
-80.3109773279071
 30
0.0
  0
SPLINE
  5
AA
330
1F
100
AcDbEntity
  8
0
  6
Continuous
 62
     7
370
    25
100
AcDbSpline
210
0.0
220
0.0
230
1.0
 70
     8
 71
     3
 72
    18
 73
    14
 74
     0
 42
0.000000001
 43
0.00000001
 40
0.0
 40
0.0
 40
0.0
 40
0.0
 40
0.1249999999999997
 40
0.1249999999999997
 40
0.2499999999999994
 40
0.2499999999999994
 40
0.3749999999999992
 40
0.3749999999999992
 40
0.4999999999999989
 40
0.4999999999999989
 40
0.7499999999999994
 40
0.7499999999999994
 40
1.0
 40
1.0
 40
1.0
 40
1.0
 10
158.471637297068
 20
-80.41463643720951
 30
0.0
 10
158.8998591975367
 20
-80.57315892953356
 30
0.0
 10
159.3260378810796
 20
-80.76441213421637
 30
0.0
 10
160.1598458666175
 20
-81.21362313819566
 30
0.0
 10
160.5674262925139
 20
-81.47160056826982
 30
0.0
 10
161.3487777490418
 20
-82.05125754736223
 30
0.0
 10
161.722491805897
 20
-82.37293429791622
 30
0.0
 10
162.4217431067455
 20
-83.07239324172554
 30
0.0
 10
162.7472274822842
 20
-83.4501472784246
 30
0.0
 10
163.633749730575
 20
-84.64997083050936
 30
0.0
 10
164.102392351092
 20
-85.53909907986538
 30
0.0
 10
164.7515895517007
 20
-87.3733815670616
 30
0.0
 10
164.932564388462
 20
-88.31681655199297
 30
0.0
 10
164.984078245307
 20
-89.22860590760519
 30
0.0
  0
SPLINE
  5
AC
330
1F
100
AcDbEntity
  8
0
  6
Continuous
 62
     7
370
    25
100
AcDbSpline
210
0.0
220
0.0
230
1.0
 70
     8
 71
     3
 72
    27
 73
    23
 74
     0
 42
0.000000001
 43
0.00000001
 40
0.0
 40
0.0
 40
0.0
 40
0.0
 40
0.0479033520868103
 40
0.0932544859057991
 40
0.1360534252819326
 40
0.1763001988179579
 40
0.2139948411744906
 40
0.2491373948148679
 40
0.2817279124330988
 40
0.311766460413038
 40
0.4710938526434825
 40
0.6056111443618147
 40
0.6734359957180407
 40
0.7355929633716943
 40
0.7920935587159839
 40
0.8429531342694484
 40
0.8748977254280563
 40
0.9045156719746701
 40
0.9318181829715981
 40
0.9568195819676615
 40
0.9795385452555754
 40
0.9999999999999999
 40
0.9999999999999999
 40
0.9999999999999999
 40
0.9999999999999999
 10
159.9920391226584
 20
-84.71796206310496
 30
0.0
 10
159.9871498594662
 20
-84.64689713243848
 30
0.0
 10
159.9776318256422
 20
-84.50855350330738
 30
0.0
 10
159.9529041479217
 20
-84.30652359033037
 30
0.0
 10
159.9224443816495
 20
-84.11596098576123
 30
0.0
 10
159.8867483945411
 20
-83.93692903309781
 30
0.0
 10
159.8471697048357
 20
-83.76945287985636
 30
0.0
 10
159.804758385727
 20
-83.61347615978796
 30
0.0
 10
159.7605575405017
 20
-83.46891861444077
 30
0.0
 10
159.6495338622535
 20
-83.14047620100419
 30
0.0
 10
159.4393142905988
 20
-82.6602914421637
 30
0.0
 10
159.1052881366807
 20
-82.12697554911459
 30
0.0
 10
158.7949725627132
 20
-81.73715985976594
 30
0.0
 10
158.5405565119722
 20
-81.46305521254693
 30
0.0
 10
158.2735142966598
 20
-81.21485379147465
 30
0.0
 10
158.0208250683872
 20
-81.01178070405997
 30
0.0
 10
157.7900391274943
 20
-80.84849517953775
 30
0.0
 10
157.5885276100916
 20
-80.72002703977695
 30
0.0
 10
157.3832072082115
 20
-80.60231732798071
 30
0.0
 10
157.1736854952303
 20
-80.49543464016992
 30
0.0
 10
156.9638790703845
 20
-80.39917546105788
 30
0.0
 10
156.8091421979063
 20
-80.33933384903494
 30
0.0
 10
156.7358186485341
 20
-80.31097732790711
 30
0.0
  0
SPLINE
  5
AE
330
1F
100
AcDbEntity
  8
0
  6
Continuous
 62
     7
370
    25
100
AcDbSpline
210
0.0
220
0.0
230
1.0
 70
     8
 71
     3
 72
    20
 73
    16
 74
     0
 42
0.000000001
 43
0.00000001
 40
0.0
 40
0.0
 40
0.0
 40
0.0
 40
0.1250000000000004
 40
0.1250000000000004
 40
0.2500000000000009
 40
0.2500000000000009
 40
0.5000000000000004
 40
0.5000000000000004
 40
0.6250000000000003
 40
0.6250000000000003
 40
0.7500000000000002
 40
0.7500000000000002
 40
0.8750000000000001
 40
0.8750000000000001
 40
1.0
 40
1.0
 40
1.0
 40
1.0
 10
-164.996707207039
 20
-89.53607894288419
 30
0.0
 10
-164.9847163213381
 20
-89.068939240921
 30
0.0
 10
-164.9395805640603
 20
-88.5924687702411
 30
0.0
 10
-164.7765390550956
 20
-87.63512363251954
 30
0.0
 10
-164.6585932509768
 20
-87.15429363145218
 30
0.0
 10
-164.1920835298451
 20
-85.73021173834877
 30
0.0
 10
-163.7281433601193
 20
-84.80619122985809
 30
0.0
 10
-162.8357570933053
 20
-83.55871800153936
 30
0.0
 10
-162.5062414903832
 20
-83.16586621602757
 30
0.0
 10
-161.7956411391123
 20
-82.43893393708117
 30
0.0
 10
-161.4146169386264
 20
-82.10488592378684
 30
0.0
 10
-160.6165628081606
 20
-81.50390998820654
 30
0.0
 10
-160.199598081161
 20
-81.23698468203654
 30
0.0
 10
-159.3462227368082
 20
-80.77347333588074
 30
0.0
 10
-158.9098673278521
 20
-80.57686381655446
 30
0.0
 10
-158.471637297068
 20
-80.41463643720951
 30
0.0
  0
SPLINE
  5
AF
330
1F
100
AcDbEntity
  8
0
  6
Continuous
 62
     7
370
    25
100
AcDbSpline
210
0.0
220
0.0
230
1.0
 70
     8
 71
     3
 72
    30
 73
    26
 74
     0
 42
0.000000001
 43
0.00000001
 40
0.0
 40
0.0
 40
0.0
 40
0.0
 40
0.010784507873717
 40
0.0222471055080653
 40
0.034392921482762
 40
0.0472262653014347
 40
0.0607507892544352
 40
0.0749696130260956
 40
0.0898854206625681
 40
0.1055005368052225
 40
0.1218169872019143
 40
0.1388365471739821
 40
0.1565607807661873
 40
0.2074664338978249
 40
0.2641339939630376
 40
0.3265787495727283
 40
0.3948121058495647
 40
0.4630523756288825
 40
0.5375050390412577
 40
0.6100505094936033
 40
0.6895437337623538
 40
0.7629294795672944
 40
0.8454628873818895
 40
0.913032900008457
 40
1.0
 40
1.0
 40
1.0
 40
1.0
 10
-156.7358186485341
 20
-80.3109773279071
 30
0.0
 10
-156.7765022269346
 20
-80.32640040148497
 30
0.0
 10
-156.8604274158928
 20
-80.35821629416768
 30
0.0
 10
-156.9794686321046
 20
-80.40796587643028
 30
0.0
 10
-157.0984774404096
 20
-80.46103098431891
 30
0.0
 10
-157.2164430709598
 20
-80.5174712069089
 30
0.0
 10
-157.3335266908202
 20
-80.57727902468375
 30
0.0
 10
-157.4495461401165
 20
-80.64046239386235
 30
0.0
 10
-157.5644172029436
 20
-80.7070206392434
 30
0.0
 10
-157.6780259627646
 20
-80.77695126433254
 30
0.0
 10
-157.7902650251172
 20
-80.85024824601652
 30
0.0
 10
-157.9010263180333
 20
-80.92690100232143
 30
0.0
 10
-158.0768616996272
 20
-81.055758733547
 30
0.0
 10
-158.308186146415
 20
-81.24481562176794
 30
0.0
 10
-158.5798574708986
 20
-81.50246830951673
 30
0.0
 10
-158.8380393222125
 20
-81.78750653595782
 30
0.0
 10
-159.0725963826481
 20
-82.09089195330421
 30
0.0
 10
-159.2843479177566
 20
-82.41289391120424
 30
0.0
 10
-159.4664650214906
 20
-82.74208945131421
 30
0.0
 10
-159.6254321144875
 20
-83.08868821216262
 30
0.0
 10
-159.7532348509687
 20
-83.43410304309118
 30
0.0
 10
-159.8573554930451
 20
-83.79480797678428
 30
0.0
 10
-159.9289085866816
 20
-84.13765586373871
 30
0.0
 10
-159.9804166008311
 20
-84.50105879311316
 30
0.0
 10
-159.9918943824174
 20
-84.73822899392655
 30
0.0
 10
-159.9983536035195
 20
-84.87169858074434
 30
0.0
  0
SPLINE
  5
B1
330
1F
100
AcDbEntity
  8
0
  6
Continuous
 62
     7
370
    25
100
AcDbSpline
210
0.0
220
0.0
230
1.0
 70
     8
 71
     3
 72
    10
 73
     6
 74
     0
 42
0.000000001
 43
0.00000001
 40
0.0
 40
0.0
 40
0.0
 40
0.0
 40
0.5000000000000004
 40
0.5000000000000004
 40
1.0
 40
1.0
 40
1.0
 40
1.0
 10
164.985354845864
 20
-89.2797135408496
 30
0.0
 10
164.978559352955
 20
-90.31938733006024
 30
0.0
 10
164.9773974189185
 20
-91.35906173015225
 30
0.0
 10
164.9883133268345
 20
-93.43840546612904
 30
0.0
 10
165.0000000000001
 20
-94.47807575703669
 30
0.0
 10
165.0
 20
-95.5177490069519
 30
0.0
  0
SPLINE
  5
B5
330
1F
100
AcDbEntity
  8
0
  6
Continuous
 62
     7
370
    25
100
AcDbSpline
210
0.0
220
0.0
230
1.0
 70
     8
 71
     3
 72
    22
 73
    18
 74
     0
 42
0.000000001
 43
0.00000001
 40
0.0
 40
0.0
 40
0.0
 40
0.0
 40
0.125
 40
0.125
 40
0.25
 40
0.25
 40
0.375
 40
0.375
 40
0.5
 40
0.5
 40
0.625
 40
0.625
 40
0.75
 40
0.75
 40
0.875
 40
0.875
 40
1.0
 40
1.0
 40
1.0
 40
1.0
 10
165.0
 20
-129.7926817813952
 30
0.0
 10
165.0
 20
-130.0873096068896
 30
0.0
 10
165.0261917363527
 20
-130.3929554712071
 30
0.0
 10
165.1407545794816
 20
-131.0120386157046
 30
0.0
 10
165.2292260943777
 20
-131.3254129532449
 30
0.0
 10
165.4728908949981
 20
-131.9408977051642
 30
0.0
 10
165.6281416722684
 20
-132.2428833644454
 30
0.0
 10
166.0019032155451
 20
-132.8145777321964
 30
0.0
 10
166.2203884117228
 20
-133.0841380049834
 30
0.0
 10
166.7085437764119
 20
-133.5722933696725
 30
0.0
 10
166.9781040491988
 20
-133.7907785658501
 30
0.0
 10
167.5497984169498
 20
-134.1645401091267
 30
0.0
 10
167.851784076231
 20
-134.3197908863972
 30
0.0
 10
168.4672688281504
 20
-134.5634556870176
 30
0.0
 10
168.7806431656906
 20
-134.6519272019136
 30
0.0
 10
169.3997263101882
 20
-134.7664900450426
 30
0.0
 10
169.7053721745056
 20
-134.7926817813952
 30
0.0
 10
170.0
 20
-134.7926817813952
 30
0.0
  0
SPLINE
  5
B6
330
1F
100
AcDbEntity
  8
0
  6
Continuous
 62
     7
370
    25
100
AcDbSpline
210
0.0
220
0.0
230
1.0
 70
     8
 71
     3
 72
    10
 73
     6
 74
     0
 42
0.000000001
 43
0.00000001
 40
0.0
 40
0.0
 40
0.0
 40
0.0
 40
0.5
 40
0.5
 40
1.0
 40
1.0
 40
1.0
 40
1.0
 10
-165.0
 20
-94.2714453037609
 30
0.0
 10
-165.0
 20
-93.4860243774458
 30
0.0
 10
-164.9967898002685
 20
-92.70060361862791
 30
0.0
 10
-164.9942620916785
 20
-91.1297618978848
 30
0.0
 10
-164.995034595327
 20
-90.344340931263
 30
0.0
 10
-164.9969721784885
 20
-89.5589199038515
 30
0.0
  0
SPLINE
  5
B8
330
1F
100
AcDbEntity
  8
0
  6
Continuous
 62
     7
370
    25
100
AcDbSpline
210
0.0
220
0.0
230
1.0
 70
     8
 71
     3
 72
    22
 73
    18
 74
     0
 42
0.000000001
 43
0.00000001
 40
0.0
 40
0.0
 40
0.0
 40
0.0
 40
0.125
 40
0.125
 40
0.25
 40
0.25
 40
0.375
 40
0.375
 40
0.5
 40
0.5
 40
0.625
 40
0.625
 40
0.75
 40
0.75
 40
0.875
 40
0.875
 40
1.0
 40
1.0
 40
1.0
 40
1.0
 10
-170.0
 20
-134.7926817813952
 30
0.0
 10
-169.7053721745056
 20
-134.7926817813952
 30
0.0
 10
-169.3997263101881
 20
-134.7664900450425
 30
0.0
 10
-168.7806431656904
 20
-134.6519272019136
 30
0.0
 10
-168.4672688281504
 20
-134.5634556870175
 30
0.0
 10
-167.8517840762308
 20
-134.3197908863971
 30
0.0
 10
-167.5497984169497
 20
-134.1645401091268
 30
0.0
 10
-166.9781040491987
 20
-133.79077856585
 30
0.0
 10
-166.7085437764117
 20
-133.5722933696724
 30
0.0
 10
-166.2203884117226
 20
-133.0841380049833
 30
0.0
 10
-166.001903215545
 20
-132.8145777321963
 30
0.0
 10
-165.6281416722684
 20
-132.2428833644453
 30
0.0
 10
-165.472890894998
 20
-131.9408977051642
 30
0.0
 10
-165.2292260943776
 20
-131.3254129532448
 30
0.0
 10
-165.1407545794816
 20
-131.0120386157046
 30
0.0
 10
-165.0261917363527
 20
-130.3929554712071
 30
0.0
 10
-164.9999999999999
 20
-130.0873096068896
 30
0.0
 10
-165.0
 20
-129.7926817813952
 30
0.0
  0
SPLINE
  5
BD
330
1F
100
AcDbEntity
  8
0
  6
Continuous
 62
     7
370
    25
100
AcDbSpline
210
0.0
220
0.0
230
1.0
 70
     8
 71
     3
 72
    42
 73
    38
 74
     0
 42
0.000000001
 43
0.00000001
 40
0.0
 40
0.0
 40
0.0
 40
0.0
 40
0.0205750259768255
 40
0.0412536283810202
 40
0.0620359320841473
 40
0.0829220600950655
 40
0.1039121335945763
 40
0.1250062719693399
 40
0.1462045928450499
 40
0.1675072121189003
 40
0.1889142439913639
 40
0.2104258009972755
 40
0.232041994036269
 40
0.2537629324025485
 40
0.2755887238140435
 40
0.2975194744409393
 40
0.3195552889335929
 40
0.3416962704498858
 40
0.3639425206819613
 40
0.3862941398824497
 40
0.4087512268900951
 40
0.431313879154881
 40
0.4539821927626148
 40
0.4767562624589985
 40
0.4996361816732148
 40
0.5595680617005006
 40
0.6228919012276941
 40
0.6896083829274854
 40
0.759718002454487
 40
0.7810726304797746
 40
0.8049076097663536
 40
0.8312228701035441
 40
0.8600183269235938
 40
0.8912938828985388
 40
0.9250494289505098
 40
0.9612848449164344
 40
1.0
 40
1.0
 40
1.0
 40
1.0
 10
200.0
 20
-134.7926817813956
 30
0.0
 10
200.1078599717984
 20
-134.7916933711257
 30
0.0
 10
200.3241228916495
 20
-134.7897115748446
 30
0.0
 10
200.6489892311949
 20
-134.7736296112481
 30
0.0
 10
200.9747900180494
 20
-134.7477927325553
 30
0.0
 10
201.3011643246602
 20
-134.7111313760815
 30
0.0
 10
201.6277418237774
 20
-134.6637864192367
 30
0.0
 10
201.9541431240179
 20
-134.6055867317313
 30
0.0
 10
202.2799801082518
 20
-134.5364608354388
 30
0.0
 10
202.6048563069571
 20
-134.4563264291943
 30
0.0
 10
202.9283672983099
 20
-134.3651208575861
 30
0.0
 10
203.2501011376213
 20
-134.2627935241577
 30
0.0
 10
203.5696388157297
 20
-134.1493085668544
 30
0.0
 10
203.8865547467225
 20
-134.024644751308
 30
0.0
 10
204.2004172849622
 20
-133.8887961013284
 30
0.0
 10
204.5107892718729
 20
-133.7417723144221
 30
0.0
 10
204.8172286110235
 20
-133.5835992190206
 30
0.0
 10
205.1192888768707
 20
-133.4143191964359
 30
0.0
 10
205.4165199365674
 20
-133.2339916081738
 30
0.0
 10
205.7084686614338
 20
-133.0426931337514
 30
0.0
 10
205.9946794390231
 20
-132.8405183504917
 30
0.0
 10
206.2746955707065
 20
-132.6275793066479
 30
0.0
 10
206.5480574752225
 20
-132.4040087718808
 30
0.0
 10
206.8143130281458
 20
-132.169949553638
 30
0.0
 10
207.2122135583208
 20
-131.7940705838935
 30
0.0
 10
207.7278945684796
 20
-131.239125946206
 30
0.0
 10
208.3237590654309
 20
-130.4578380726504
 30
0.0
 10
208.862573594848
 20
-129.5764575372327
 30
0.0
 10
209.2097549252265
 20
-128.8389989837453
 30
0.0
 10
209.4223089613767
 20
-128.2863066117964
 30
0.0
 10
209.5416530245249
 20
-127.939139248796
 30
0.0
 10
209.6579232309162
 20
-127.5510882309205
 30
0.0
 10
209.7662651806349
 20
-127.1214882732087
 30
0.0
 10
209.8615047947083
 20
-126.649993463427
 30
0.0
 10
209.9370917822405
 20
-126.1366518632454
 30
0.0
 10
209.9896296558009
 20
-125.5820302210504
 30
0.0
 10
209.9964678052251
 20
-125.1982426104849
 30
0.0
 10
210.0
 20
-124.9999999999999
 30
0.0
  0
SPLINE
  5
BE
330
1F
100
AcDbEntity
  8
0
  6
Continuous
 62
     7
370
    25
100
AcDbSpline
210
0.0
220
0.0
230
1.0
 70
     8
 71
     3
 72
    38
 73
    34
 74
     0
 42
0.000000001
 43
0.00000001
 40
0.0
 40
0.0
 40
0.0
 40
0.0
 40
0.0209591485468909
 40
0.041212828398713
 40
0.0607610341171426
 40
0.0796037605596349
 40
0.0977410028920652
 40
0.1151727566039442
 40
0.1318990175268189
 40
0.1479197818567413
 40
0.1632350461819176
 40
0.177844807517001
 40
0.1917490633461281
 40
0.204947811677427
 40
0.2174410511129197
 40
0.2292287809393583
 40
0.24031100124795
 40
0.3104200710388119
 40
0.3771384407034263
 40
0.4404666066802457
 40
0.5004052522496417
 40
0.5441605592398205
 40
0.5875276004580426
 40
0.6305070439798727
 40
0.6730995762569163
 40
0.7153059027565191
 40
0.7571267486278818
 40
0.7985628593958414
 40
0.8396150016835584
 40
0.880283963965461
 40
0.9205705573518678
 40
0.9604756164067191
 40
1.0
 40
1.0
 40
1.0
 40
1.0
 10
-210.0
 20
-125.0
 30
0.0
 10
-209.9989627769587
 20
-125.1073060691972
 30
0.0
 10
-209.9969232429997
 20
-125.3183063684732
 30
0.0
 10
-209.9808548104317
 20
-125.6290488141517
 30
0.0
 10
-209.9565056277625
 20
-125.9283619242427
 30
0.0
 10
-209.9239954870577
 20
-126.2160469170492
 30
0.0
 10
-209.8845605890746
 20
-126.4919612052622
 30
0.0
 10
-209.8391088566088
 20
-126.7560114329402
 30
0.0
 10
-209.7885839937262
 20
-127.0081487917362
 30
0.0
 10
-209.7338714396037
 20
-127.24836395718
 30
0.0
 10
-209.6758207073856
 20
-127.4766823216393
 30
0.0
 10
-209.6152387319624
 20
-127.6931594513087
 30
0.0
 10
-209.552890986991
 20
-127.8978765295662
 30
0.0
 10
-209.4895006390189
 20
-128.0909368021934
 30
0.0
 10
-209.4257496417673
 20
-128.2724595181022
 30
0.0
 10
-209.3622755800824
 20
-128.4425834676802
 30
0.0
 10
-209.1872278868261
 20
-128.8868446578339
 30
0.0
 10
-208.8625882119449
 20
-129.5764282878509
 30
0.0
 10
-208.3238024331968
 20
-130.4577757806377
 30
0.0
 10
-207.7279115514119
 20
-131.2391043921241
 30
0.0
 10
-207.13861520083
 20
-131.8732813581159
 30
0.0
 10
-206.5753971475367
 20
-132.3881288346215
 30
0.0
 10
-206.0463680167431
 20
-132.8092403331094
 30
0.0
 10
-205.494298107492
 20
-133.1908688774961
 30
0.0
 10
-204.9223942954261
 20
-133.5322681717151
 30
0.0
 10
-204.3338458245875
 20
-133.8329218485244
 30
0.0
 10
-203.731792061222
 20
-134.0925409704942
 30
0.0
 10
-203.119310003486
 20
-134.3110802189925
 30
0.0
 10
-202.4993984047076
 20
-134.4886132874375
 30
0.0
 10
-201.8749646104934
 20
-134.6257407066512
 30
0.0
 10
-201.2488126046724
 20
-134.7220306440756
 30
0.0
 10
-200.6236322380536
 20
-134.7816964435435
 30
0.0
 10
-200.2072121643901
 20
-134.7890317205197
 30
0.0
 10
-199.9999999999999
 20
-134.7926817813952
 30
0.0
  0
SPLINE
  5
C3
330
1F
100
AcDbEntity
  8
0
  6
Continuous
 62
     7
370
    25
100
AcDbSpline
210
0.0
220
0.0
230
1.0
 70
     8
 71
     3
 72
    16
 73
    12
 74
     0
 42
0.000000001
 43
0.00000001
 40
0.0
 40
0.0
 40
0.0
 40
0.0
 40
0.0832675118553371
 40
0.1666485047301466
 40
0.2500751409300185
 40
0.3334634126058191
 40
0.4167629074166391
 40
0.5000011808190817
 40
0.6680994655780166
 40
0.8347269110432302
 40
1.0
 40
1.0
 40
1.0
 40
1.0
 10
159.9999999999522
 20
-90.72506722555481
 30
0.0
 10
159.999895793642
 20
-90.57465969576123
 30
0.0
 10
159.9996872390041
 20
-90.27363965346912
 30
0.0
 10
159.9983408410844
 20
-89.81207804394296
 30
0.0
 10
159.9966342291819
 20
-89.342871466873
 30
0.0
 10
159.9947394200701
 20
-88.86557351267676
 30
0.0
 10
159.9929170600974
 20
-88.38038748602399
 30
0.0
 10
159.9908174447287
 20
-87.71974107143281
 30
0.0
 10
159.9892582523323
 20
-86.87264182885023
 30
0.0
 10
159.989673895205
 20
-85.82736497667044
 30
0.0
 10
159.9916789743381
 20
-85.10381473668748
 30
0.0
 10
159.9926774229321
 20
-84.74351587972525
 30
0.0
  0
SPLINE
  5
C7
330
1F
100
AcDbEntity
  8
0
  6
Continuous
 62
     7
370
    25
100
AcDbSpline
210
0.0
220
0.0
230
1.0
 70
     8
 71
     3
 72
    16
 73
    12
 74
     0
 42
0.000000001
 43
0.00000001
 40
0.0
 40
0.0
 40
0.0
 40
0.0
 40
0.1102016302307233
 40
0.2205894825075095
 40
0.3311818616935046
 40
0.4419966285932354
 40
0.5530512148027654
 40
0.6643626117738175
 40
0.7759473333507807
 40
0.8878213508949117
 40
1.0
 40
1.0
 40
1.0
 40
1.0
 10
-159.9984860892444
 20
-84.88311906122728
 30
0.0
 10
-159.9982808768776
 20
-85.06373963082861
 30
0.0
 10
-159.99787010537
 20
-85.4252859881298
 30
0.0
 10
-159.997478604014
 20
-85.95707756350221
 30
0.0
 10
-159.9973504321015
 20
-86.48197300522958
 30
0.0
 10
-159.9975143154753
 20
-86.99935126120073
 30
0.0
 10
-159.9979397270749
 20
-87.50956800782535
 30
0.0
 10
-159.9985558740784
 20
-88.01274430924718
 30
0.0
 10
-159.9992281560916
 20
-88.5087969817488
 30
0.0
 10
-159.9998409845573
 20
-88.99853367655504
 30
0.0
 10
-159.9999469467923
 20
-89.31854187482969
 30
0.0
 10
-159.9999999999453
 20
-89.47876352236405
 30
0.0
  0
SPLINE
  5
CE
330
1F
100
AcDbEntity
  8
0
  6
Continuous
 62
     7
370
    25
100
AcDbSpline
210
0.0
220
0.0
230
1.0
 70
     8
 71
     3
 72
     9
 73
     5
 74
     0
 42
0.000000001
 43
0.00000001
 40
0.0
 40
0.0
 40
0.0
 40
0.0
 40
0.6400711155547065
 40
1.0
 40
1.0
 40
1.0
 40
1.0
 10
35.34602474679109
 20
-111.9858524292144
 30
0.0
 10
35.42433608125206
 20
-111.9855532014375
 30
0.0
 10
35.5466839462906
 20
-111.9850857099827
 30
0.0
 10
35.58887669103756
 20
-111.9842912770917
 30
0.0
 10
35.60406307858602
 20
-111.9840053377474
 30
0.0
  0
SPLINE
  5
D0
330
1F
100
AcDbEntity
  8
0
  6
Continuous
 62
     7
370
    25
100
AcDbSpline
210
0.0
220
0.0
230
1.0
 70
     8
 71
     3
 72
     9
 73
     5
 74
     0
 42
0.000000001
 43
0.00000001
 40
0.0
 40
0.0
 40
0.0
 40
0.0
 40
0.4710223111435292
 40
1.0
 40
1.0
 40
1.0
 40
1.0
 10
-35.61757524169522
 20
-111.984218834877
 30
0.0
 10
-35.59040140183804
 20
-111.984549662252
 30
0.0
 10
-35.53271020714451
 20
-111.9852520225589
 30
0.0
 10
-35.41024877497031
 20
-111.9856512290233
 30
0.0
 10
-35.34546940960475
 20
-111.9858624003362
 30
0.0
  0
SPLINE
  5
D5
330
1F
100
AcDbEntity
  8
0
  6
Continuous
 62
     7
370
    25
100
AcDbSpline
210
0.0
220
0.0
230
1.0
 70
     8
 71
     3
 72
    36
 73
    32
 74
     0
 42
0.000000001
 43
0.00000001
 40
0.0
 40
0.0
 40
0.0
 40
0.0
 40
0.0097777674295702
 40
0.0195856878211317
 40
0.0294389156717211
 40
0.0393523976993251
 40
0.0493408101314816
 40
0.0594185018356836
 40
0.0695994441998056
 40
0.0798971883665782
 40
0.0903248301226411
 40
0.1008949824596082
 40
0.1116197555772839
 40
0.122510743897412
 40
0.1335790195046173
 40
0.1448351313292579
 40
0.1562891093309889
 40
0.1679504729254685
 40
0.2183934490149439
 40
0.2738538498308166
 40
0.3347342576014794
 40
0.4013390425668955
 40
0.4690918701210244
 40
0.5436054536504304
 40
0.6158718539765321
 40
0.6958273281412765
 40
0.767980382873421
 40
0.8503661561829671
 40
0.8890017384471428
 40
0.9388798001997029
 40
1.0
 40
1.0
 40
1.0
 40
1.0
 10
170.0
 20
-135.0
 30
0.0
 10
169.922331956881
 20
-134.9994771584619
 30
0.0
 10
169.766756355685
 20
-134.9984298630317
 30
0.0
 10
169.5334065155216
 20
-134.9899534341137
 30
0.0
 10
169.2999619361336
 20
-134.9763994193373
 30
0.0
 10
169.0665531738127
 20
-134.9572526748028
 30
0.0
 10
168.8333114784288
 20
-134.9326339790861
 30
0.0
 10
168.6003687659889
 20
-134.9024963461746
 30
0.0
 10
168.3678575090248
 20
-134.8668422407086
 30
0.0
 10
168.1359106639607
 20
-134.8256647599295
 30
0.0
 10
167.9046615989089
 20
-134.7789636082699
 30
0.0
 10
167.6742440414703
 20
-134.7267407673128
 30
0.0
 10
167.444791993608
 20
-134.669001684344
 30
0.0
 10
167.2164397964019
 20
-134.6057549869099
 30
0.0
 10
166.9893216379921
 20
-134.537012498262
 30
0.0
 10
166.7635731953796
 20
-134.4627895724385
 30
0.0
 10
166.5393251048841
 20
-134.3831038160897
 30
0.0
 10
166.0714076219543
 20
-134.2041669765621
 30
0.0
 10
165.3744875000664
 20
-133.8847032529937
 30
0.0
 10
164.5021111768118
 20
-133.3738286221349
 30
0.0
 10
163.6683067111828
 20
-132.7635798961796
 30
0.0
 10
162.9048538676727
 20
-132.0718940927424
 30
0.0
 10
162.2120108168768
 20
-131.3009522886451
 30
0.0
 10
161.6173089939884
 20
-130.4837501368791
 30
0.0
 10
161.1024579016351
 20
-129.6015285031445
 30
0.0
 10
160.6979927653215
 20
-128.7135139729002
 30
0.0
 10
160.3767708854827
 20
-127.7760370349542
 30
0.0
 10
160.1913010471669
 20
-126.9965681976798
 30
0.0
 10
160.0810021211611
 20
-126.3057509884117
 30
0.0
 10
160.0147847371604
 20
-125.6990928265989
 30
0.0
 10
160.0052501404099
 20
-125.248251657055
 30
0.0
 10
160.0
 20
-125.0
 30
0.0
  0
SPLINE
  5
D6
330
1F
100
AcDbEntity
  8
0
  6
Continuous
 62
     7
370
    25
100
AcDbSpline
210
0.0
220
0.0
230
1.0
 70
     8
 71
     3
 72
    34
 73
    30
 74
     0
 42
0.000000001
 43
0.00000001
 40
0.0
 40
0.0
 40
0.0
 40
0.0
 40
0.0242382381382325
 40
0.0468956327190696
 40
0.0679721855748128
 40
0.0874679006405635
 40
0.1053827845679161
 40
0.1217168476356116
 40
0.1364701051480423
 40
0.1496425796728741
 40
0.2320262827929692
 40
0.3041844577945179
 40
0.384137789433068
 40
0.4564093364076919
 40
0.5309208968824317
 40
0.5986785548866203
 40
0.6652825597436288
 40
0.726163467888968
 40
0.781625664076799
 40
0.8320717202280937
 40
0.8526569865510659
 40
0.8726102672422033
 40
0.8919884158578102
 40
0.9108534864883713
 40
0.9292727196087388
 40
0.9473183401391694
 40
0.9650671345960933
 40
0.9825997898941501
 40
0.9999999999999999
 40
0.9999999999999999
 40
0.9999999999999999
 40
0.9999999999999999
 10
-160.0
 20
-125.0
 30
0.0
 10
-160.0008339816087
 20
-125.098410009974
 30
0.0
 10
-160.0024475516622
 20
-125.2888116248645
 30
0.0
 10
-160.0148640730607
 20
-125.5648494237926
 30
0.0
 10
-160.0327508562641
 20
-125.8214797255699
 30
0.0
 10
-160.055322694161
 20
-126.0586523203528
 30
0.0
 10
-160.0810478839272
 20
-126.2763549962926
 30
0.0
 10
-160.1087119289908
 20
-126.4746337821027
 30
0.0
 10
-160.1371606504798
 20
-126.6535530229697
 30
0.0
 10
-160.2159135986968
 20
-127.0993450815166
 30
0.0
 10
-160.3767065445935
 20
-127.7760059260809
 30
0.0
 10
-160.6979980819646
 20
-128.7134890450024
 30
0.0
 10
-161.1024462876148
 20
-129.6015129030397
 30
0.0
 10
-161.6172918522058
 20
-130.4837226340497
 30
0.0
 10
-162.2120000872827
 20
-131.300939021271
 30
0.0
 10
-162.9048336531638
 20
-132.0718745214589
 30
0.0
 10
-163.6682857918078
 20
-132.7635607506399
 30
0.0
 10
-164.5020708397175
 20
-133.3738041467908
 30
0.0
 10
-165.3744821692711
 20
-133.8846977521272
 30
0.0
 10
-166.1242442885288
 20
-134.2283940272447
 30
0.0
 10
-166.7087791297709
 20
-134.4460329193445
 30
0.0
 10
-167.1108153398851
 20
-134.5766370807462
 30
0.0
 10
-167.5170162343638
 20
-134.6898831880477
 30
0.0
 10
-167.9266388295599
 20
-134.7857056424403
 30
0.0
 10
-168.3389272659341
 20
-134.8640257622078
 30
0.0
 10
-168.7531268366814
 20
-134.9249506264318
 30
0.0
 10
-169.1684808835343
 20
-134.9680618205401
 30
0.0
 10
-169.5842322022912
 20
-134.9950104452395
 30
0.0
 10
-169.8617614775185
 20
-134.9983410242887
 30
0.0
 10
-170.0
 20
-135.0
 30
0.0
  0
SPLINE
  5
DC
330
1F
100
AcDbEntity
  8
0
  6
Continuous
 62
     7
370
    25
100
AcDbSpline
210
0.0
220
0.0
230
1.0
 70
     8
 71
     3
 72
    17
 73
    13
 74
     0
 42
0.000000001
 43
0.00000001
 40
0.0
 40
0.0
 40
0.0
 40
0.0
 40
0.1508927559534352
 40
0.3061127394475781
 40
0.4656858827027807
 40
0.5472175950528152
 40
0.6298505200226432
 40
0.7852378584752105
 40
0.8409140839075963
 40
0.8984951149065096
 40
0.9579812050938944
 40
1.0
 40
1.0
 40
1.0
 40
1.0
 10
-200.0
 20
-135.0
 30
0.0
 10
-200.6276206447883
 20
-134.9657095904263
 30
0.0
 10
-201.9008605276181
 20
-134.8961454079374
 30
0.0
 10
-203.7679310534
 20
-134.3279306086912
 30
0.0
 10
-205.2364475040355
 20
-133.5657109985675
 30
0.0
 10
-206.3220084599059
 20
-132.7703147304746
 30
0.0
 10
-207.3079927276651
 20
-131.8815053824264
 30
0.0
 10
-208.086844664845
 20
-130.9335836956079
 30
0.0
 10
-208.6774821590896
 20
-129.9884385012678
 30
0.0
 10
-209.0082991683931
 20
-129.3535685771605
 30
0.0
 10
-209.2892104302042
 20
-128.7546051276332
 30
0.0
 10
-209.4038916520424
 20
-128.3494538560453
 30
0.0
 10
-209.4513649015866
 20
-128.1817381035362
 30
0.0
  0
SPLINE
  5
DD
330
1F
100
AcDbEntity
  8
0
  6
Continuous
 62
     7
370
    25
100
AcDbSpline
210
0.0
220
0.0
230
1.0
 70
     8
 71
     3
 72
    38
 73
    34
 74
     0
 42
0.000000001
 43
0.00000001
 40
0.0
 40
0.0
 40
0.0
 40
0.0
 40
0.0209591486949967
 40
0.0412128286737704
 40
0.0607610344979945
 40
0.0796037610251244
 40
0.0977410034210377
 40
0.1151727571752418
 40
0.1318990181192852
 40
0.1479197824492183
 40
0.1632350467532463
 40
0.177844808046024
 40
0.1917490638116887
 40
0.2049478120583651
 40
0.2174410513880782
 40
0.2292287810875781
 40
0.2403110012480696
 40
0.3104200716634221
 40
0.3771384415362585
 40
0.4404666073049155
 40
0.5004052522496645
 40
0.5441605593481585
 40
0.5875276006550206
 40
0.630507044245814
 40
0.6730995765721349
 40
0.7153059031013161
 40
0.7571267489825587
 40
0.7985628597406922
 40
0.83961500199887
 40
0.8802839642315224
 40
0.9205705575489591
 40
0.960475616515123
 40
1.0
 40
1.0
 40
1.0
 40
1.0
 10
210.0
 20
-125.0
 30
0.0
 10
209.9989627769441
 20
-125.1095793638913
 30
0.0
 10
209.9969232429573
 20
-125.3250497351336
 30
0.0
 10
209.9808548101792
 20
-125.6423892683248
 30
0.0
 10
209.956505627222
 20
-125.9480602253632
 30
0.0
 10
209.9239954861759
 20
-126.2418566150337
 30
0.0
 10
209.884560587835
 20
-126.5236293257467
 30
0.0
 10
209.8391088550263
 20
-126.7932810492133
 30
0.0
 10
209.7885839918448
 20
-127.050760839189
 30
0.0
 10
209.7338714374942
 20
-127.2960589681682
 30
0.0
 10
209.6758207051436
 20
-127.5292019216547
 30
0.0
 10
209.6152387297051
 20
-127.7502476562705
 30
0.0
 10
209.5528909848555
 20
-127.9592808819685
 30
0.0
 10
209.4895006371588
 20
-128.1564092203078
 30
0.0
 10
209.4257496403517
 20
-128.3417573424256
 30
0.0
 10
209.3622755792926
 20
-128.5154690797054
 30
0.0
 10
209.1872278853253
 20
-128.9691242111838
 30
0.0
 10
208.8625882085805
 20
-129.6733429319947
 30
0.0
 10
208.3238024271155
 20
-130.5733686662068
 30
0.0
 10
207.7279115463815
 20
-131.3712167721821
 30
0.0
 10
207.1386151980574
 20
-132.0187826809795
 30
0.0
 10
206.5753971463501
 20
-132.5445594221813
 30
0.0
 10
206.0463680143687
 20
-132.9746455051108
 30
0.0
 10
205.4942981040871
 20
-133.3644199179609
 30
0.0
 10
204.9223942911986
 20
-133.7131048227771
 30
0.0
 10
204.3338458197874
 20
-134.0201612880958
 30
0.0
 10
203.7317920561338
 20
-134.2852880504491
 30
0.0
 10
203.1193099984209
 20
-134.5084373669702
 30
0.0
 10
202.4993983999956
 20
-134.6896877765242
 30
0.0
 10
201.8749646064751
 20
-134.8296596957598
 30
0.0
 10
201.2488126016922
 20
-134.9279250207069
 30
0.0
 10
200.6236322364511
 20
-134.9887969022953
 30
0.0
 10
200.2072121638215
 20
-134.9962775847988
 30
0.0
 10
200.0
 20
-135.0
 30
0.0
  0
SPLINE
  5
DE
330
1F
100
AcDbEntity
  8
0
  6
Continuous
 62
     8
370
    25
100
AcDbSpline
210
0.0
220
0.0
230
1.0
 70
     8
 71
     3
 72
    14
 73
    10
 74
     0
 42
0.000000001
 43
0.00000001
 40
0.0
 40
0.0
 40
0.0
 40
0.0
 40
0.0610802412541717
 40
0.1789719556328593
 40
0.297150150721155
 40
0.4146703319954722
 40
0.6100748142981551
 40
0.805820118179808
 40
1.0
 40
1.0
 40
1.0
 40
1.0
 10
153.1072411078098
 20
-91.28394900605142
 30
0.0
 10
153.1112994403416
 20
-91.24148985700232
 30
0.0
 10
153.1231908097092
 20
-91.1170797894618
 30
0.0
 10
153.1096471285244
 20
-90.49263343544905
 30
0.0
 10
153.0905419308497
 20
-89.79777425620611
 30
0.0
 10
153.0667329238343
 20
-88.7074333060204
 30
0.0
 10
153.0361843797834
 20
-86.97268977476743
 30
0.0
 10
152.9924781409199
 20
-84.32140346471802
 30
0.0
 10
152.9668911669133
 20
-81.88664926001401
 30
0.0
 10
152.954149041575
 20
-80.6741595284783
 30
0.0
  0
SPLINE
  5
E1
330
1F
100
AcDbEntity
  8
0
  6
Continuous
 62
     8
370
    25
100
AcDbSpline
210
0.0
220
0.0
230
1.0
 70
     8
 71
     3
 72
    15
 73
    11
 74
     0
 42
0.000000001
 43
0.00000001
 40
0.0
 40
0.0
 40
0.0
 40
0.0
 40
0.1962222936491662
 40
0.3936863021112256
 40
0.5919381203149106
 40
0.6909533820177659
 40
0.7899579879696852
 40
0.8892509855351266
 40
0.9900282135545522
 40
1.0
 40
1.0
 40
1.0
 40
1.0
 10
-152.9414048770615
 20
-80.6712453557481
 30
0.0
 10
-152.954791102737
 20
-81.84662139504704
 30
0.0
 10
-152.9816482634978
 20
-84.2048113738527
 30
0.0
 10
-153.0255318692817
 20
-86.81259179933947
 30
0.0
 10
-153.0574030616729
 20
-88.48200039364018
 30
0.0
 10
-153.0758899862442
 20
-89.49712405120107
 30
0.0
 10
-153.0864674957623
 20
-90.1191324457386
 30
0.0
 10
-153.0875882242497
 20
-90.56813758794472
 30
0.0
 10
-153.1022922417116
 20
-90.87858244417467
 30
0.0
 10
-153.0980696153626
 20
-90.99625877369931
 30
0.0
 10
-153.0976894121762
 20
-91.00685429216396
 30
0.0
  0
LINE
  5
E4
330
1F
100
AcDbEntity
  8
0
  6
Continuous
 62
     7
370
    25
100
AcDbLine
 10
34.7181964095
 20
-140.0697989934
 30
0.0
 11
35.7001886292
 21
-111.9492210686
 31
0.0
  0
LINE
  5
E5
330
1F
100
AcDbEntity
  8
0
  6
Continuous
 62
     7
370
    25
100
AcDbLine
 10
-35.7001674755
 20
-111.9498268299
 30
0.0
 11
-34.7181964095
 21
-140.0697989934
 31
0.0
  0
LINE
  5
E6
330
1F
100
AcDbEntity
  8
0
  6
Continuous
 62
     7
370
    25
100
AcDbLine
 10
245.0
 20
-80.0
 30
0.0
 11
245.0
 21
0.0
 31
0.0
  0
LINE
  5
E7
330
1F
100
AcDbEntity
  8
0
  6
Continuous
 62
     7
370
    25
100
AcDbLine
 10
250.0
 20
-5.0
 30
0.0
 11
-250.0
 21
-5.0
 31
0.0
  0
LINE
  5
E8
330
1F
100
AcDbEntity
  8
0
  6
Continuous
 62
     7
370
    25
100
AcDbLine
 10
-245.0
 20
0.0
 30
0.0
 11
245.0
 21
0.0
 31
0.0
  0
LINE
  5
E9
330
1F
100
AcDbEntity
  8
0
  6
Continuous
 62
     7
370
    25
100
AcDbLine
 10
-245.0
 20
0.0
 30
0.0
 11
-245.0
 21
-80.0
 31
0.0
  0
LINE
  5
EA
330
1F
100
AcDbEntity
  8
0
  6
Continuous
 62
     7
370
    25
100
AcDbLine
 10
-250.0
 20
-75.0
 30
0.0
 11
250.0
 21
-75.0
 31
0.0
  0
LINE
  5
EB
330
1F
100
AcDbEntity
  8
0
  6
Continuous
 62
     7
370
    25
100
AcDbLine
 10
-250.0
 20
-75.0
 30
0.0
 11
-250.0
 21
-5.0
 31
0.0
  0
LINE
  5
EC
330
1F
100
AcDbEntity
  8
0
  6
Continuous
 62
     7
370
    25
100
AcDbLine
 10
245.0
 20
-80.0
 30
0.0
 11
-245.0
 21
-80.0
 31
0.0
  0
LINE
  5
ED
330
1F
100
AcDbEntity
  8
0
  6
Continuous
 62
     7
370
    25
100
AcDbLine
 10
250.0
 20
-5.0
 30
0.0
 11
250.0
 21
-75.0
 31
0.0
  0
LINE
  5
EE
330
1F
100
AcDbEntity
  8
0
  6
Continuous
 62
     7
370
    25
100
AcDbLine
 10
153.0986529451
 20
-91.4207099411
 30
0.0
 11
153.1072411078
 21
-91.2839490061
 31
0.0
  0
LINE
  5
EF
330
1F
100
AcDbEntity
  8
0
  6
Continuous
 62
     7
370
    25
100
AcDbLine
 10
35.3460206873
 20
-111.9858530981
 30
0.0
 11
42.9348884331
 21
-111.7658461144
 31
0.0
  0
LINE
  5
F0
330
1F
100
AcDbEntity
  8
0
  6
Continuous
 62
     7
370
    25
100
AcDbLine
 10
-35.3454725831
 20
-111.9858636008
 30
0.0
 11
-44.6961679698
 21
-111.714926453
 31
0.0
  0
LINE
  5
F1
330
1F
100
AcDbEntity
  8
0
  6
Continuous
 62
     7
370
    25
100
AcDbLine
 10
200.0
 20
-135.0
 30
0.0
 11
200.0
 21
-80.0
 31
0.0
  0
LINE
  5
F2
330
1F
100
AcDbEntity
  8
0
  6
Continuous
 62
     7
370
    25
100
AcDbLine
 10
-200.0
 20
-80.0
 30
0.0
 11
-200.0
 21
-135.0
 31
0.0
  0
LINE
  5
F3
330
1F
100
AcDbEntity
  8
0
  6
Continuous
 62
     7
370
    25
100
AcDbLine
 10
200.0
 20
-80.4146364372
 30
0.0
 11
158.4716372971
 21
-80.4146364372
 31
0.0
  0
LINE
  5
F4
330
1F
100
AcDbEntity
  8
0
  6
Continuous
 62
     7
370
    25
100
AcDbLine
 10
-158.4716372971
 20
-80.4146364372
 30
0.0
 11
-200.0
 21
-80.4146364372
 31
0.0
  0
LINE
  5
F5
330
1F
100
AcDbEntity
  8
0
  6
Continuous
 62
     7
370
    25
100
AcDbLine
 10
165.0
 20
-95.517749007
 30
0.0
 11
165.0
 21
-129.7926817814
 31
0.0
  0
LINE
  5
F6
330
1F
100
AcDbEntity
  8
0
  6
Continuous
 62
     7
370
    25
100
AcDbLine
 10
170.0
 20
-134.7926817814
 30
0.0
 11
200.0
 21
-134.7926817814
 31
0.0
  0
LINE
  5
F7
330
1F
100
AcDbEntity
  8
0
  6
Continuous
 62
     7
370
    25
100
AcDbLine
 10
-165.0
 20
-129.7926817814
 30
0.0
 11
-165.0
 21
-94.2714453038
 31
0.0
  0
LINE
  5
F8
330
1F
100
AcDbEntity
  8
0
  6
Continuous
 62
     7
370
    25
100
AcDbLine
 10
-200.0
 20
-134.7926817814
 30
0.0
 11
-170.0
 21
-134.7926817814
 31
0.0
  0
LINE
  5
F9
330
1F
100
AcDbEntity
  8
0
  6
Continuous
 62
     7
370
    25
100
AcDbLine
 10
210.0
 20
-90.0
 30
0.0
 11
210.0
 21
-125.0
 31
0.0
  0
LINE
  5
FA
330
1F
100
AcDbEntity
  8
0
  6
Continuous
 62
     7
370
    25
100
AcDbLine
 10
-210.0
 20
-125.0
 30
0.0
 11
-210.0
 21
-90.0
 31
0.0
  0
LINE
  5
FB
330
1F
100
AcDbEntity
  8
0
  6
Continuous
 62
     7
370
    25
100
AcDbLine
 10
-160.0
 20
-89.4787635224
 30
0.0
 11
-160.0
 21
-125.0
 31
0.0
  0
LINE
  5
FC
330
1F
100
AcDbEntity
  8
0
  6
Continuous
 62
     7
370
    25
100
AcDbLine
 10
160.0
 20
-125.0
 30
0.0
 11
160.0
 21
-90.7250672256
 31
0.0
  0
LINE
  5
FD
330
1F
100
AcDbEntity
  8
0
  6
Continuous
 62
     7
370
    25
100
AcDbLine
 10
0.0
 20
-142.0
 30
0.0
 11
0.0
 21
-111.9701315307
 31
0.0
  0
LINE
  5
FE
330
1F
100
AcDbEntity
  8
0
  6
Continuous
 62
     7
370
    25
100
AcDbLine
 10
32.7194147555
 20
-142.0
 30
0.0
 11
-32.7194147555
 21
-142.0
 31
0.0
  0
LINE
  5
FF
330
1F
100
AcDbEntity
  8
0
  6
Continuous
 62
     7
370
    25
100
AcDbLine
 10
170.0
 20
-134.7926817814
 30
0.0
 11
170.0
 21
-135.0
 31
0.0
  0
LINE
  5
100
330
1F
100
AcDbEntity
  8
0
  6
Continuous
 62
     7
370
    25
100
AcDbLine
 10
-170.0
 20
-135.0
 30
0.0
 11
-170.0
 21
-134.7926817814
 31
0.0
  0
LINE
  5
101
330
1F
100
AcDbEntity
  8
0
  6
Continuous
 62
     7
370
    25
100
AcDbLine
 10
200.0
 20
-135.0
 30
0.0
 11
170.0
 21
-135.0
 31
0.0
  0
LINE
  5
102
330
1F
100
AcDbEntity
  8
0
  6
Continuous
 62
     7
370
    25
100
AcDbLine
 10
-170.0
 20
-135.0
 30
0.0
 11
-200.0
 21
-135.0
 31
0.0
  0
LINE
  5
103
330
1F
100
AcDbEntity
  8
0
  6
Continuous
 62
     8
370
    25
100
AcDbLine
 10
-34.7181964095
 20
-140.0697989934
 30
0.0
 11
34.7181964095
 21
-140.0697989934
 31
0.0
  0
ARC
  5
104
330
1F
100
AcDbEntity
  8
0
  6
Continuous
 62
     7
370
    25
100
AcDbCircle
 10
32.7194147555
 20
-140.0
 30
0.0
 40
2.000000000000085
100
AcDbArc
 50
270.0
 51
358.0
  0
ARC
  5
105
330
1F
100
AcDbEntity
  8
0
  6
Continuous
 62
     7
370
    25
100
AcDbCircle
 10
-32.7194147555
 20
-140.0
 30
0.0
 40
2.000000000000085
100
AcDbArc
 50
182.0
 51
270.0
  0
ARC
  5
106
330
1F
100
AcDbEntity
  8
0
  6
Continuous
 62
     7
370
    25
100
AcDbCircle
 10
245.0
 20
-5.0
 30
0.0
 40
5.000000000000057
100
AcDbArc
 50
0.0
 51
90.0
  0
ARC
  5
107
330
1F
100
AcDbEntity
  8
0
  6
Continuous
 62
     7
370
    25
100
AcDbCircle
 10
245.0
 20
-75.0
 30
0.0
 40
5.000000000000014
100
AcDbArc
 50
270.0
 51
0.0
  0
ARC
  5
108
330
1F
100
AcDbEntity
  8
0
  6
Continuous
 62
     7
370
    25
100
AcDbCircle
 10
-245.0
 20
-75.0
 30
0.0
 40
5.000000000000014
100
AcDbArc
 50
180.0
 51
270.0
  0
ARC
  5
109
330
1F
100
AcDbEntity
  8
0
  6
Continuous
 62
     7
370
    25
100
AcDbCircle
 10
-245.0
 20
-5.0
 30
0.0
 40
5.000000000000033
100
AcDbArc
 50
90.0
 51
180.0
  0
ARC
  5
10A
330
1F
100
AcDbEntity
  8
0
  6
Continuous
 62
     7
370
    25
100
AcDbCircle
 10
-155.026735401
 20
-83.5742958213
 30
0.0
 40
3.574395809010957
100
AcDbArc
 50
54.3094096154
 51
89.5714408788
  0
ARC
  5
10B
330
1F
100
AcDbEntity
  8
0
  6
Continuous
 62
     7
370
    25
100
AcDbCircle
 10
155.0280565654
 20
-83.5264622952
 30
0.0
 40
3.52657390255497
100
AcDbArc
 50
90.4558361136
 51
126.0208760911
  0
ARC
  5
10C
330
1F
100
AcDbEntity
  8
0
  6
Continuous
 62
     7
370
    25
100
AcDbCircle
 10
220.0
 20
-90.0
 30
0.0
 40
10.0
100
AcDbArc
 50
90.0
 51
180.0
  0
ARC
  5
10D
330
1F
100
AcDbEntity
  8
0
  6
Continuous
 62
     7
370
    25
100
AcDbCircle
 10
-220.0
 20
-90.0
 30
0.0
 40
10.0
100
AcDbArc
 50
0.0
 51
90.0
  0
ARC
  5
10E
330
1F
100
AcDbEntity
  8
0
  6
Continuous
 62
     7
370
    25
100
AcDbCircle
 10
157.7794511872
 20
-77.4202422152
 30
0.0
 40
3.073356205802593
100
AcDbArc
 50
250.1490645725
 51
283.0159076145
  0
ARC
  5
10F
330
1F
100
AcDbEntity
  8
0
  6
Continuous
 62
     7
370
    25
100
AcDbCircle
 10
-157.7794511872
 20
-77.4202422152
 30
0.0
 40
3.073356205804647
100
AcDbArc
 50
256.9840923855
 51
289.8509354275
  0
ARC
  5
110
330
1F
100
AcDbEntity
  8
0
  6
Continuous
 62
     7
370
    25
100
AcDbCircle
 10
164.8637763634
 20
-84.3440195147
 30
0.0
 40
4.886067618502111
100
AcDbArc
 50
184.3892762531
 51
271.4108455398
  0
ARC
  5
111
330
1F
100
AcDbEntity
  8
0
  6
Continuous
 62
     7
370
    25
100
AcDbCircle
 10
-164.8866428873
 20
-84.6437139784
 30
0.0
 40
4.893602875246961
100
AcDbArc
 50
268.7112250497
 51
357.3297209077
  0
ARC
  5
112
330
1F
100
AcDbEntity
  8
0
  6
Continuous
 62
     7
370
    25
100
AcDbCircle
 10
164.1735664678
 20
-89.274421172
 30
0.0
 40
0.8118056294085614
100
AcDbArc
 50
359.6264714897
 51
3.2352778338
  0
ARC
  5
113
330
1F
100
AcDbEntity
  8
0
  6
Continuous
 62
     7
370
    25
100
AcDbCircle
 10
-164.1849461705
 20
-89.5569179677
 30
0.0
 40
0.8120284757552332
100
AcDbArc
 50
178.5294613393
 51
180.1412544166
  0
ARC
  5
114
330
1F
100
AcDbEntity
  8
0
  6
Continuous
 62
     7
370
    25
100
AcDbCircle
 10
164.8942585876
 20
-84.3643315472
 30
0.0
 40
4.916226059898236
100
AcDbArc
 50
184.4235680315
 51
271.061735118
  0
ARC
  5
115
330
1F
100
AcDbEntity
  8
0
  6
Continuous
 62
     7
370
    25
100
AcDbCircle
 10
159.5867832401
 20
-84.7408696951
 30
0.0
 40
0.4059028084937422
100
AcDbArc
 50
359.6264714511
 51
3.2352778501
  0
ARC
  5
116
330
1F
100
AcDbEntity
  8
0
  6
Continuous
 62
     7
370
    25
100
AcDbCircle
 10
164.8984899329
 20
-90.6191661124
 30
0.0
 40
4.899634544366377
100
AcDbArc
 50
181.2384922409
 51
271.1871323312
  0
ARC
  5
117
330
1F
100
AcDbEntity
  8
0
  6
Continuous
 62
     7
370
    25
100
AcDbCircle
 10
155.0188240248
 20
-85.2247558337
 30
0.0
 40
4.997080099379922
100
AcDbArc
 50
5.5263909386
 51
114.4045207565
  0
ARC
  5
118
330
1F
100
AcDbEntity
  8
0
  6
Continuous
 62
     7
370
    25
100
AcDbCircle
 10
-159.5924730872
 20
-84.8821180931
 30
0.0
 40
0.4060142358660833
100
AcDbArc
 50
178.5294613366
 51
180.1412544217
  0
ARC
  5
119
330
1F
100
AcDbEntity
  8
0
  6
Continuous
 62
     7
370
    25
100
AcDbCircle
 10
-164.8999609939
 20
-84.6530053733
 30
0.0
 40
4.906873602486668
100
AcDbArc
 50
268.8671618524
 51
357.3120602499
  0
ARC
  5
11A
330
1F
100
AcDbEntity
  8
0
  6
Continuous
 62
     7
370
    25
100
AcDbCircle
 10
-164.8984899329
 20
-89.3728624092
 30
0.0
 40
4.899634544366305
100
AcDbArc
 50
268.8128676688
 51
358.7615077591
  0
ARC
  5
11B
330
1F
100
AcDbEntity
  8
0
  6
Continuous
 62
     7
370
    25
100
AcDbCircle
 10
-155.019840719
 20
-85.2068626316
 30
0.0
 40
4.989160212072324
100
AcDbArc
 50
65.3804935907
 51
176.2794976644
  0
ARC
  5
11C
330
1F
100
AcDbEntity
  8
0
  6
Continuous
 62
     7
370
    25
100
AcDbCircle
 10
-164.8984899329
 20
-124.8940988869
 30
0.0
 40
4.899634544366235
100
AcDbArc
 50
268.8128676688
 51
358.761507759
  0
ARC
  5
11D
330
1F
100
AcDbEntity
  8
0
  6
Continuous
 62
     7
370
    25
100
AcDbCircle
 10
164.8984899329
 20
-124.8940988869
 30
0.0
 40
4.89963454436653
100
AcDbArc
 50
181.238492241
 51
271.1871323312
  0
SPLINE
  5
11E
330
1B
100
AcDbEntity
 67
     1
  8
0
  6
Continuous
 62
     7
370
    25
100
AcDbSpline
210
0.0
220
0.0
230
1.0
 70
     8
 71
     3
 72
    15
 73
    11
 74
     0
 42
0.000000001
 43
0.00000001
 40
0.0
 40
0.0
 40
0.0
 40
0.0
 40
0.1191084916755038
 40
0.2419012105804719
 40
0.3672665415672295
 40
0.4939354316940225
 40
0.6209920065359844
 40
0.7478901788278246
 40
0.8743118261545796
 40
1.0
 40
1.0
 40
1.0
 40
1.0
 10
-170.0
 20
-135.0
 30
0.0
 10
-169.3320835360026
 20
-134.9602481118881
 30
0.0
 10
-167.9755908213794
 20
-134.879514742488
 30
0.0
 10
-165.9958646334901
 20
-134.2200053472386
 30
0.0
 10
-164.1810315756405
 20
-133.1873216790225
 30
0.0
 10
-162.6402571665136
 20
-131.8189741279057
 30
0.0
 10
-161.4369213898652
 20
-130.2271016174794
 30
0.0
 10
-160.5990034539736
 20
-128.5087784941637
 30
0.0
 10
-160.0918203980403
 20
-126.7414527367804
 30
0.0
 10
-160.0305473779735
 20
-125.5793572681979
 30
0.0
 10
-160.0
 20
-125.0
 30
0.0
  0
SPLINE
  5
11F
330
1B
100
AcDbEntity
 67
     1
  8
0
  6
Continuous
 62
     7
370
    25
100
AcDbSpline
210
0.0
220
0.0
230
1.0
 70
     8
 71
     3
 72
     9
 73
     5
 74
     0
 42
0.000000001
 43
0.00000001
 40
0.0
 40
0.0
 40
0.0
 40
0.0
 40
0.6032022047853838
 40
1.0
 40
1.0
 40
1.0
 40
1.0
 10
-42.44953061487283
 20
-111.8554051710658
 30
0.0
 10
-41.09599144515963
 20
-111.8902191110367
 30
0.0
 10
-38.85206866275739
 20
-111.9479343178026
 30
0.0
 10
-36.52670560211538
 20
-111.9703204832167
 30
0.0
 10
-35.60400666657912
 20
-111.9792032642963
 30
0.0
  0
SPLINE
  5
120
330
1B
100
AcDbEntity
 67
     1
  8
0
  6
Continuous
 62
     7
370
    25
100
AcDbSpline
210
0.0
220
0.0
230
1.0
 70
     8
 71
     3
 72
    11
 73
     7
 74
     0
 42
0.000000001
 43
0.00000001
 40
0.0
 40
0.0
 40
0.0
 40
0.0
 40
0.1100132086210185
 40
0.4035539541827718
 40
0.7001197874243157
 40
1.0
 40
1.0
 40
1.0
 40
1.0
 10
35.69905118950016
 20
-111.9817930797495
 30
0.0
 10
35.98327694688246
 20
-111.9794052838217
 30
0.0
 10
37.02588291856492
 20
-111.9706462947829
 30
0.0
 10
38.83223183736712
 20
-111.9405883236214
 30
0.0
 10
41.16453814057324
 20
-111.8926246585294
 30
0.0
 10
42.78268209556597
 20
-111.8453664491368
 30
0.0
 10
43.59624998926609
 20
-111.821606040332
 30
0.0
  0
SPLINE
  5
121
330
1B
100
AcDbEntity
 67
     1
  8
0
  6
Continuous
 62
     7
370
    25
100
AcDbSpline
210
0.0
220
0.0
230
1.0
 70
     8
 71
     3
 72
    11
 73
     7
 74
     0
 42
0.000000001
 43
0.00000001
 40
0.0
 40
0.0
 40
0.0
 40
0.0
 40
0.2534262345101894
 40
0.5112897467633215
 40
0.763082843191597
 40
1.0
 40
1.0
 40
1.0
 40
1.0
 10
-25.68293620904303
 20
-128.9663617681693
 30
0.0
 10
-25.44813599447602
 20
-129.405458435883
 30
0.0
 10
-24.97442441336063
 20
-130.2913399803643
 30
0.0
 10
-23.81433583396118
 20
-131.2537757965922
 30
0.0
 10
-22.47990424722562
 20
-131.8550485378699
 30
0.0
 10
-21.54233785466157
 20
-131.9064334207793
 30
0.0
 10
-21.08782403471556
 20
-131.9313438053706
 30
0.0
  0
SPLINE
  5
122
330
1B
100
AcDbEntity
 67
     1
  8
0
  6
Continuous
 62
     7
370
    25
100
AcDbSpline
210
0.0
220
0.0
230
1.0
 70
     8
 71
     3
 72
    11
 73
     7
 74
     0
 42
0.000000001
 43
0.00000001
 40
0.0
 40
0.0
 40
0.0
 40
0.0
 40
0.236917156808699
 40
0.4887102532373025
 40
0.7465737654907799
 40
0.9999999999999999
 40
0.9999999999999999
 40
0.9999999999999999
 40
0.9999999999999999
 10
21.08782403471551
 20
-131.9313438053726
 30
0.0
 10
21.54233785466186
 20
-131.9064334207811
 30
0.0
 10
22.47990424722664
 20
-131.8550485378713
 30
0.0
 10
23.8143358339632
 20
-131.2537757965915
 30
0.0
 10
24.9744244133598
 20
-130.2913399803662
 30
0.0
 10
25.44813599447713
 20
-129.4054584358805
 30
0.0
 10
25.6829362090445
 20
-128.9663617681658
 30
0.0
  0
SPLINE
  5
127
330
1B
100
AcDbEntity
 67
     1
  8
0
  6
Continuous
 62
     7
370
    25
100
AcDbSpline
210
0.0
220
0.0
230
1.0
 70
     8
 71
     3
 72
     9
 73
     5
 74
     0
 42
0.000000001
 43
0.00000001
 40
0.0
 40
0.0
 40
0.0
 40
0.0
 40
0.4482467502406025
 40
1.0
 40
1.0
 40
1.0
 40
1.0
 10
-154.4672607085672
 20
-90.67551668423542
 30
0.0
 10
-154.2251593061811
 20
-90.82179918626493
 30
0.0
 10
-153.6850518714787
 20
-91.14814288412997
 30
0.0
 10
-153.3071601442564
 20
-91.32390720563518
 30
0.0
 10
-153.0986571557042
 20
-91.42088574121743
 30
0.0
  0
SPLINE
  5
128
330
1B
100
AcDbEntity
 67
     1
  8
0
  6
Continuous
 62
     7
370
    25
100
AcDbSpline
210
0.0
220
0.0
230
1.0
 70
     8
 71
     3
 72
    12
 73
     8
 74
     0
 42
0.000000001
 43
0.00000001
 40
0.0
 40
0.0
 40
0.0
 40
0.0
 40
0.1994365413168156
 40
0.47944810229923
 40
0.7089413393091366
 40
0.8915455390709494
 40
1.0
 40
1.0
 40
1.0
 40
1.0
 10
-159.2089069806378
 20
-92.80644452135184
 30
0.0
 10
-159.1647831793375
 20
-92.83805983591179
 30
0.0
 10
-159.0587089731768
 20
-92.91406347330582
 30
0.0
 10
-158.835385848076
 20
-92.83397892920097
 30
0.0
 10
-158.5342597922865
 20
-92.50939548266525
 30
0.0
 10
-158.2457856061555
 20
-92.08062041100662
 30
0.0
 10
-157.9849413867383
 20
-91.70061205471787
 30
0.0
 10
-157.887745449891
 20
-91.55901310235545
 30
0.0
  0
SPLINE
  5
129
330
1B
100
AcDbEntity
 67
     1
  8
0
  6
Continuous
 62
     7
370
    25
100
AcDbSpline
210
0.0
220
0.0
230
1.0
 70
     8
 71
     3
 72
    15
 73
    11
 74
     0
 42
0.000000001
 43
0.00000001
 40
0.0
 40
0.0
 40
0.0
 40
0.0
 40
0.0849675276476102
 40
0.1271514501878837
 40
0.1736948286567076
 40
0.2327831880230025
 40
0.3134202262061025
 40
0.5717003935495528
 40
0.8423635757790938
 40
1.0
 40
1.0
 40
1.0
 40
1.0
 10
153.0858086922361
 20
-91.29608263307628
 30
0.0
 10
153.2613212426292
 20
-91.22925607813421
 30
0.0
 10
153.5239707032702
 20
-91.12925206945945
 30
0.0
 10
153.9303883005585
 20
-91.02758900314741
 30
0.0
 10
154.2538393739715
 20
-90.9677738562899
 30
0.0
 10
154.5731802169826
 20
-90.92955044139605
 30
0.0
 10
155.072188847761
 20
-90.89524027421463
 30
0.0
 10
155.511999913514
 20
-90.88749842352661
 30
0.0
 10
155.8707601752429
 20
-90.85500133224937
 30
0.0
 10
156.0235805457328
 20
-90.8241723535104
 30
0.0
 10
156.0798263521481
 20
-90.81282569360785
 30
0.0
  0
SPLINE
  5
12A
330
1B
100
AcDbEntity
 67
     1
  8
0
  6
Continuous
 62
     7
370
    25
100
AcDbSpline
210
0.0
220
0.0
230
1.0
 70
     8
 71
     3
 72
     9
 73
     5
 74
     0
 42
0.000000001
 43
0.00000001
 40
0.0
 40
0.0
 40
0.0
 40
0.0
 40
0.3047488102765425
 40
1.0
 40
1.0
 40
1.0
 40
1.0
 10
158.2758300052755
 20
-91.92776936743807
 30
0.0
 10
158.3188776760686
 20
-92.01157392725408
 30
0.0
 10
158.4601339151138
 20
-92.28656945468518
 30
0.0
 10
158.5556506690827
 20
-92.38287157205886
 30
0.0
 10
158.6220588059181
 20
-92.44982573373582
 30
0.0
  0
SPLINE
  5
12C
330
1B
100
AcDbEntity
 67
     1
  8
0
  6
Continuous
 62
     7
370
    25
100
AcDbSpline
210
0.0
220
0.0
230
1.0
 70
     8
 71
     3
 72
    20
 73
    16
 74
     0
 42
0.000000001
 43
0.00000001
 40
0.0
 40
0.0
 40
0.0
 40
0.0
 40
0.0223626917420943
 40
0.124322152540937
 40
0.2225563943879115
 40
0.3201154774073102
 40
0.4176022755526644
 40
0.563748541873391
 40
0.7097409167766939
 40
0.7914001314590361
 40
0.8728505800236047
 40
0.9442727462449894
 40
0.975539385254165
 40
0.9892500936696789
 40
1.0
 40
1.0
 40
1.0
 40
1.0
 10
-153.1020886251154
 20
-91.24680761080523
 30
0.0
 10
-152.327445339038
 20
-91.58599811654307
 30
0.0
 10
-148.0209279534207
 20
-93.47167870817772
 30
0.0
 10
-139.9672368565267
 20
-96.05531160186206
 30
0.0
 10
-129.1137667184151
 20
-99.12680924388756
 30
0.0
 10
-118.3505500294626
 20
-101.8578197606506
 30
0.0
 10
-105.7826834542608
 20
-104.6713627862898
 30
0.0
 10
-91.35382342250985
 20
-107.3493510044482
 30
0.0
 10
-77.39613662247832
 20
-109.292575155921
 30
0.0
 10
-65.80253029295618
 20
-110.497372891002
 30
0.0
 10
-57.02794260801581
 20
-111.1928437970717
 30
0.0
 10
-50.18556609585884
 20
-111.5744063695289
 30
0.0
 10
-45.84627343940064
 20
-111.7477553787802
 30
0.0
 10
-43.76411108362605
 20
-111.8173805056426
 30
0.0
 10
-42.84859978086613
 20
-111.8438627693968
 30
0.0
 10
-42.44625254424586
 20
-111.8555011463439
 30
0.0
  0
SPLINE
  5
135
330
1B
100
AcDbEntity
 67
     1
  8
0
  6
Continuous
 62
     7
370
    25
100
AcDbSpline
210
0.0
220
0.0
230
1.0
 70
     8
 71
     3
 72
    28
 73
    24
 74
     0
 42
0.000000001
 43
0.00000001
 40
0.0
 40
0.0
 40
0.0
 40
0.0
 40
0.0198471839908763
 40
0.0384119211716465
 40
0.0556942029783097
 40
0.0716940229312479
 40
0.0864113770406915
 40
0.0998462644057164
 40
0.1119986881292838
 40
0.122868656773056
 40
0.1913286565631517
 40
0.2521896479949863
 40
0.3931437747222056
 40
0.5177564832467804
 40
0.6491224399175857
 40
0.7720844409888705
 40
0.805268227434712
 40
0.8382077665495978
 40
0.8709243054320678
 40
0.9034395283464249
 40
0.9357755245660062
 40
0.9679547524579147
 40
1.0
 40
1.0
 40
1.0
 40
1.0
 10
160.0
 20
-125.0
 30
0.0
 10
160.0008345241273
 20
-125.0491968906177
 30
0.0
 10
160.0024496487217
 20
-125.1444117626703
 30
0.0
 10
160.0148695155538
 20
-125.2823045092173
 30
0.0
 10
160.0327589145586
 20
-125.4105388327443
 30
0.0
 10
160.0553340303
 20
-125.5291051633065
 30
0.0
 10
160.0810630885742
 20
-125.6380069056605
 30
0.0
 10
160.1087309912548
 20
-125.7372410003572
 30
0.0
 10
160.1371868002169
 20
-125.8268173490197
 30
0.0
 10
160.2163355175848
 20
-126.0509366192709
 30
0.0
 10
160.3787138507612
 20
-126.391212546069
 30
0.0
 10
160.8189876151858
 20
-127.0327230997152
 30
0.0
 10
161.5926104246078
 20
-127.7693691445811
 30
0.0
 10
162.9005189242556
 20
-128.5696886597314
 30
0.0
 10
164.4656344440465
 20
-129.2054339253341
 30
0.0
 10
165.8559042451237
 20
-129.5672090615596
 30
0.0
 10
166.8269073365154
 20
-129.7441400493782
 30
0.0
 10
167.3459808426894
 20
-129.8230401300989
 30
0.0
 10
167.8710244472273
 20
-129.8875673712537
 30
0.0
 10
168.4004750591742
 20
-129.9378373592441
 30
0.0
 10
168.932729405638
 20
-129.9734875121032
 30
0.0
 10
169.4662165887484
 20
-129.9958401768506
 30
0.0
 10
169.8223198216571
 20
-129.9986153220511
 30
0.0
 10
170.0
 20
-130.0
 30
0.0
  0
SPLINE
  5
158
330
1B
100
AcDbEntity
 67
     1
  8
0
  6
Continuous
 62
     7
370
    25
100
AcDbSpline
210
0.0
220
0.0
230
1.0
 70
     8
 71
     3
 72
    28
 73
    24
 74
     0
 42
0.000000001
 43
0.00000001
 40
0.0
 40
0.0
 40
0.0
 40
0.0
 40
0.0186791362285963
 40
0.0374007300815554
 40
0.0561693416538481
 40
0.0749894968633617
 40
0.0938656845522231
 40
0.1128023537158036
 40
0.1318039108662548
 40
0.150874717536455
 40
0.1700190879292436
 40
0.189241286715762
 40
0.2085455269857892
 40
0.2279359683519419
 40
0.3508925135405256
 40
0.482261949971968
 40
0.6068690708280061
 40
0.7478267199630075
 40
0.8086826804326396
 40
0.8771467057218694
 40
0.9089781271868498
 40
0.9499296677839775
 40
1.0
 40
1.0
 40
1.0
 40
1.0
 10
-170.0000000000001
 20
-130.0
 30
0.0
 10
-169.8964396997528
 20
-129.999529714251
 30
0.0
 10
-169.6890837069855
 20
-129.9985880737947
 30
0.0
 10
-169.3780487030421
 20
-129.9909900728013
 30
0.0
 10
-169.0669892732475
 20
-129.9788673654687
 30
0.0
 10
-168.7562127612915
 20
-129.9617730000674
 30
0.0
 10
-168.4460292801028
 20
-129.9398272391477
 30
0.0
 10
-168.1367514620987
 20
-129.9129977747604
 30
0.0
 10
-167.8286940114196
 20
-129.8812933119881
 30
0.0
 10
-167.5221739015185
 20
-129.844711694075
 30
0.0
 10
-167.2175081308182
 20
-129.8032530300614
 30
0.0
 10
-166.9150206051099
 20
-129.7569193031377
 30
0.0
 10
-166.6150147172972
 20
-129.7057026697545
 30
0.0
 10
-165.7893561211056
 20
-129.5499025705441
 30
0.0
 10
-164.465599624332
 20
-129.2054208014657
 30
0.0
 10
-162.9005643375845
 20
-128.5697113873299
 30
0.0
 10
-161.5926301771788
 20
-127.7693748287577
 30
0.0
 10
-160.818970373777
 20
-127.0327568492962
 30
0.0
 10
-160.3787756801072
 20
-126.3912043345426
 30
0.0
 10
-160.1918716695326
 20
-126.0001345787394
 30
0.0
 10
-160.0811280855933
 20
-125.6530691823306
 30
0.0
 10
-160.0148241266501
 20
-125.349677736708
 30
0.0
 10
-160.0052607367362
 20
-125.1240924715997
 30
0.0
 10
-160.0
 20
-125.0
 30
0.0
  0
SPLINE
  5
15A
330
1B
100
AcDbEntity
 67
     1
  8
0
  6
Continuous
 62
     7
370
    25
100
AcDbSpline
210
0.0
220
0.0
230
1.0
 70
     8
 71
     3
 72
    31
 73
    27
 74
     0
 42
0.000000001
 43
0.00000001
 40
0.0
 40
0.0
 40
0.0
 40
0.0
 40
0.018791979186461
 40
0.0376431786936286
 40
0.0565582335138927
 40
0.0755417318667074
 40
0.0945982125337987
 40
0.1137321623599233
 40
0.132948013923008
 40
0.1522501433764078
 40
0.1716428684648467
 40
0.191130446714519
 40
0.210717073796862
 40
0.2304068820644803
 40
0.2502039392568599
 40
0.3700749939228384
 40
0.49978077319495
 40
0.5605066024851453
 40
0.6250676192755676
 40
0.6846726176622756
 40
0.7497185063188798
 40
0.8072297652834037
 40
0.8749797506129828
 40
0.9166342210092793
 40
0.9583076237356867
 40
1.0
 40
1.0
 40
1.0
 40
1.0
 10
-49.99999999999999
 20
-80.0
 30
0.0
 10
-50.00047442571469
 20
-79.9990690874072
 30
0.0
 10
-50.00142477223106
 20
-79.99720432857941
 30
0.0
 10
-50.00908517926865
 20
-79.98209362361082
 30
0.0
 10
-50.02130496607217
 20
-79.95788678605724
 30
0.0
 10
-50.03853578249623
 20
-79.9236369552409
 30
0.0
 10
-50.06065592906188
 20
-79.87953213056993
 30
0.0
 10
-50.0876981442168
 20
-79.82546736421857
 30
0.0
 10
-50.11965354173376
 20
-79.76142971398676
 30
0.0
 10
-50.15652448637203
 20
-79.68739471945221
 30
0.0
 10
-50.19831018352411
 20
-79.60335491615245
 30
0.0
 10
-50.24501115714462
 20
-79.50931120684683
 30
0.0
 10
-50.29662581701092
 20
-79.40528001325313
 30
0.0
 10
-50.35315975387702
 20
-79.29127443480769
 30
0.0
 10
-50.5179824909383
 20
-78.95884849854251
 30
0.0
 10
-50.87008566404968
 20
-78.24916603187367
 30
0.0
 10
-51.39202256742141
 20
-77.17875173150648
 30
0.0
 10
-51.87580232771747
 20
-76.17917853546497
 30
0.0
 10
-52.24823842352899
 20
-75.40328192816295
 30
0.0
 10
-52.64753989732529
 20
-74.56611092335378
 30
0.0
 10
-53.04539194974221
 20
-73.72465386161994
 30
0.0
 10
-53.47165884728155
 20
-72.8172667719351
 30
0.0
 10
-53.85174597469032
 20
-72.00100083227098
 30
0.0
 10
-54.19779386993008
 20
-71.25181150759886
 30
0.0
 10
-54.48456496157321
 20
-70.62703449865882
 30
0.0
 10
-54.6763442716054
 20
-70.20904321030066
 30
0.0
 10
-54.77225575051647
 20
-70.00000000000003
 30
0.0
  0
SPLINE
  5
15B
330
1B
100
AcDbEntity
 67
     1
  8
0
  6
Continuous
 62
     7
370
    25
100
AcDbSpline
210
0.0
220
0.0
230
1.0
 70
     8
 71
     3
 72
    33
 73
    29
 74
     0
 42
0.000000001
 43
0.00000001
 40
0.0
 40
0.0
 40
0.0
 40
0.0
 40
0.0186664711064257
 40
0.0374120252705951
 40
0.056241254873673
 40
0.0751587084898601
 40
0.0941688971500068
 40
0.1132763006848052
 40
0.1324853741106732
 40
0.1518005540219524
 40
0.1712262649536614
 40
0.190766925679683
 40
0.2104269554119163
 40
0.2302107798666476
 40
0.2501228371650941
 40
0.3112258583918278
 40
0.3749953246802744
 40
0.4355985998156636
 40
0.4999486853406538
 40
0.5599301034368157
 40
0.6251953868033838
 40
0.6832102872334308
 40
0.7498060875777495
 40
0.796638715218691
 40
0.8750205203197298
 40
0.9234109382079144
 40
0.9650814376093432
 40
1.0
 40
1.0
 40
1.0
 40
1.0
 10
50.0
 20
-80.00000000000001
 30
0.0
 10
50.00045226926638
 20
-79.99907104223749
 30
0.0
 10
50.00135872389971
 20
-79.99720919105583
 30
0.0
 10
50.00874203011986
 20
-79.98215320647222
 30
0.0
 10
50.02062680266756
 20
-79.95805002815355
 30
0.0
 10
50.03750852136518
 20
-79.92395116508489
 30
0.0
 10
50.05932329728788
 20
-79.88003627430604
 30
0.0
 10
50.08614329057566
 20
-79.8261843116948
 30
0.0
 10
50.11798867348195
 20
-79.76235928431839
 30
0.0
 10
50.15487805097439
 20
-79.68850638228305
 30
0.0
 10
50.19681429664003
 20
-79.6045802737842
 30
0.0
 10
50.24378872594361
 20
-79.51053774711706
 30
0.0
 10
50.29577700414641
 20
-79.40633991862936
 30
0.0
 10
50.35274984344893
 20
-79.29195214929369
 30
0.0
 10
50.4571629124835
 20
-79.08170306867875
 30
0.0
 10
50.6292444198703
 20
-78.73375384837207
 30
0.0
 10
50.88958141791787
 20
-78.20565361316378
 30
0.0
 10
51.18975644770035
 20
-77.59258345152271
 30
0.0
 10
51.51479099584481
 20
-76.92545245897337
 30
0.0
 10
51.87415752260895
 20
-76.18199948075664
 30
0.0
 10
52.24368841024599
 20
-75.41315248077665
 30
0.0
 10
52.6437891954882
 20
-74.57311400933646
 30
0.0
 10
53.01889513673162
 20
-73.78148162342093
 30
0.0
 10
53.44660762970884
 20
-72.8687682276401
 30
0.0
 10
53.8426345265101
 20
-72.02083701104704
 30
0.0
 10
54.22925006868942
 20
-71.18475050196717
 30
0.0
 10
54.51664293424072
 20
-70.55969049072051
 30
0.0
 10
54.69221071199662
 20
-70.1752668255908
 30
0.0
 10
54.77225575051662
 20
-69.99999999999999
 30
0.0
  0
SPLINE
  5
160
330
1B
100
AcDbEntity
 67
     1
  8
0
  6
Continuous
 62
     7
370
    25
100
AcDbSpline
210
0.0
220
0.0
230
1.0
 70
     8
 71
     3
 72
    28
 73
    24
 74
     0
 42
0.000000001
 43
0.00000001
 40
0.0
 40
0.0
 40
0.0
 40
0.0
 40
0.0186791361954468
 40
0.0374007300212923
 40
0.0561693415725097
 40
0.0749894967669831
 40
0.0938656844468324
 40
0.1128023536074176
 40
0.131803910760875
 40
0.1508747174400671
 40
0.170019087847806
 40
0.1892412866552098
 40
0.2085455269520281
 40
0.2279359683508396
 40
0.3508925133943904
 40
0.482261949971546
 40
0.606869070849953
 40
0.7478267199629005
 40
0.8086826804963961
 40
0.877146705721822
 40
0.9089781271575093
 40
0.9499296677546586
 40
1.0
 40
1.0
 40
1.0
 40
1.0
 10
170.0
 20
-135.0
 30
0.0
 10
169.8964396999365
 20
-134.9990708951869
 30
0.0
 10
169.6890837075036
 20
-134.9972105737078
 30
0.0
 10
169.37804870401
 20
-134.9821457737146
 30
0.0
 10
169.0669892745625
 20
-134.9580431159694
 30
0.0
 10
168.756212762851
 20
-134.9239844083369
 30
0.0
 10
168.4460292818039
 20
-134.8801817522977
 30
0.0
 10
168.1367514638401
 20
-134.8265556785838
 30
0.0
 10
167.8286940131006
 20
-134.7631177686916
 30
0.0
 10
167.5221739030412
 20
-134.689868227676
 30
0.0
 10
167.217508132087
 20
-134.6068222723012
 30
0.0
 10
166.9150206060322
 20
-134.5140082810989
 30
0.0
 10
166.6150147177854
 20
-134.4114492966129
 30
0.0
 10
165.7893561219724
 20
-134.0996550654034
 30
0.0
 10
164.4655996249675
 20
-133.4130328029941
 30
0.0
 10
162.9005643379852
 20
-132.1379663502096
 30
0.0
 10
161.5926301770899
 20
-130.5424302552475
 30
0.0
 10
160.8189703735908
 20
-129.0648187069756
 30
0.0
 10
160.3787756800216
 20
-127.7829463064891
 30
0.0
 10
160.1918716695162
 20
-126.9999219748953
 30
0.0
 10
160.0811280856348
 20
-126.306672823343
 30
0.0
 10
160.0148241266643
 20
-125.6998565950104
 30
0.0
 10
160.0052607367421
 20
-125.2483627796054
 30
0.0
 10
160.0
 20
-125.0
 30
0.0
  0
LWPOLYLINE
  5
180
330
1B
100
AcDbEntity
 67
     1
  8
0
  6
Continuous
 62
     7
370
    25
100
AcDbPolyline
 90
        9
 70
   128
 43
0.0
 10
-27.2897837513
 20
-92.6104389482
 10
-27.1852718382
 20
-92.8853306261
 10
-26.8951315358
 20
-93.1431716404
 10
-26.4303713086
 20
-93.3741790219
 10
-25.8086250272
 20
-93.5695879193
 10
-25.0534829058
 20
-93.7219841543
 10
-24.1935964461
 20
-93.8255855294
 10
-23.2615913453
 20
-93.8764612149
 10
-22.2928296162
 20
-93.8726808926
  0
LWPOLYLINE
  5
184
330
1B
100
AcDbEntity
 67
     1
  8
0
  6
Continuous
 62
     7
370
    25
100
AcDbPolyline
 90
        9
 70
   128
 43
0.0
 10
22.2928296162
 20
-93.8726808926
 10
23.2615913453
 20
-93.8764612149
 10
24.1935964461
 20
-93.8255855294
 10
25.0534829058
 20
-93.7219841543
 10
25.8086250272
 20
-93.5695879193
 10
26.4303713086
 20
-93.3741790219
 10
26.8951315358
 20
-93.1431716404
 10
27.1852718382
 20
-92.8853306261
 10
27.2897837513
 20
-92.6104389482
  0
SPLINE
  5
185
330
1B
100
AcDbEntity
 67
     1
  8
0
  6
Continuous
 62
     7
370
    25
100
AcDbSpline
210
0.0
220
0.0
230
1.0
 70
     8
 71
     3
 72
    28
 73
    24
 74
     0
 42
0.000000001
 43
0.00000001
 40
0.0
 40
0.0
 40
0.0
 40
0.0
 40
0.004833118233026
 40
0.0157438448166799
 40
0.0314576824479014
 40
0.0628163127054818
 40
0.1254000338967465
 40
0.2508225716465142
 40
0.3748481018046678
 40
0.4382587006501544
 40
0.4986825906849253
 40
0.5302728519368372
 40
0.5611337123674154
 40
0.5769211005091796
 40
0.5925368755966373
 40
0.6059293375774644
 40
0.6238931725945756
 40
0.6872051233116877
 40
0.7490931557731649
 40
0.8128754977769599
 40
0.8757894847867279
 40
0.9380791817656672
 40
1.0
 40
1.0
 40
1.0
 40
1.0
 10
31.41600974060941
 20
-95.10241232394533
 30
0.0
 10
31.41317523555438
 20
-95.16479264252489
 30
0.0
 10
31.40394185752248
 20
-95.36799604206533
 30
0.0
 10
31.39002953289016
 20
-95.7699543010977
 30
0.0
 10
31.35982362601786
 20
-96.50130750632806
 30
0.0
 10
31.3078230520675
 20
-97.84913718308154
 30
0.0
 10
31.21019968898898
 20
-100.4015334625696
 30
0.0
 10
31.09913227923313
 20
-103.597287204188
 30
0.0
 10
31.02831971651828
 20
-106.1677946273573
 30
0.0
 10
31.00146475603888
 20
-107.8170514824107
 30
0.0
 10
30.99624083048789
 20
-108.6941268426098
 30
0.0
 10
30.9998109170769
 20
-109.2975719586089
 30
0.0
 10
31.00493372068668
 20
-109.6440772655164
 30
0.0
 10
31.01144835649976
 20
-109.8979711287446
 30
0.0
 10
31.01556881324465
 20
-110.0704278486152
 30
0.0
 10
31.02611224654098
 20
-110.2408829856757
 30
0.0
 10
31.03255557324817
 20
-110.5652202892935
 30
0.0
 10
31.05626231915237
 20
-110.9715823053075
 30
0.0
 10
31.10203639505777
 20
-111.3619939899023
 30
0.0
 10
31.16063442475443
 20
-111.6313943518786
 30
0.0
 10
31.22431466809028
 20
-111.8057676549612
 30
0.0
 10
31.28608029980215
 20
-111.9115204049019
 30
0.0
 10
31.32179812753112
 20
-111.9445366408446
 30
0.0
 10
31.33960400422951
 20
-111.9609957332255
 30
0.0
  0
SPLINE
  5
186
330
1B
100
AcDbEntity
 67
     1
  8
0
  6
Continuous
 62
     7
370
    25
100
AcDbSpline
210
0.0
220
0.0
230
1.0
 70
     8
 71
     3
 72
    23
 73
    19
 74
     0
 42
0.000000001
 43
0.00000001
 40
0.0
 40
0.0
 40
0.0
 40
0.0
 40
0.0606503981131078
 40
0.1199332256392552
 40
0.1778715012040699
 40
0.2344899458921672
 40
0.2898151108673681
 40
0.3438755118692649
 40
0.3967017699067598
 40
0.4483267570973115
 40
0.4987857461438456
 40
0.5788995892089832
 40
0.6557976354660392
 40
0.7296801311548444
 40
0.80077308201237
 40
0.8693303143441486
 40
0.9356349586822841
 40
1.0
 40
1.0
 40
1.0
 40
1.0
 10
31.33960380197454
 20
-111.9609859085817
 30
0.0
 10
31.2733062772323
 20
-111.9614823534862
 30
0.0
 10
31.14220613211197
 20
-111.9624640492475
 30
0.0
 10
30.94241944187706
 20
-111.9737317446008
 30
0.0
 10
30.74355647137476
 20
-111.9922370678772
 30
0.0
 10
30.54553024954016
 20
-112.018638286
 30
0.0
 10
30.348728942981
 20
-112.0527658965382
 30
0.0
 10
30.15340556320393
 20
-112.0946638227181
 30
0.0
 10
29.95983726747837
 20
-112.1443244188167
 30
0.0
 10
29.76827990482832
 20
-112.2017408608551
 30
0.0
 10
29.54051365407346
 20
-112.2802096614417
 30
0.0
 10
29.27794469980209
 20
-112.3862757237884
 30
0.0
 10
28.98265343282793
 20
-112.5290761619743
 30
0.0
 10
28.6974999607387
 20
-112.6918659750261
 30
0.0
 10
28.42337077145066
 20
-112.8744447798651
 30
0.0
 10
28.16139441662813
 20
-113.0775848259148
 30
0.0
 10
27.91154706296347
 20
-113.2986965263533
 30
0.0
 10
27.75353480611034
 20
-113.4665249593267
 30
0.0
 10
27.67570140971078
 20
-113.549193590298
 30
0.0
  0
SPLINE
  5
187
330
1B
100
AcDbEntity
 67
     1
  8
0
  6
Continuous
 62
     7
370
    25
100
AcDbSpline
210
0.0
220
0.0
230
1.0
 70
     8
 71
     3
 72
    20
 73
    16
 74
     0
 42
0.000000001
 43
0.00000001
 40
0.0
 40
0.0
 40
0.0
 40
0.0
 40
0.0523031987745299
 40
0.1074813116842721
 40
0.1655408283620255
 40
0.2264811109829912
 40
0.2902941398868491
 40
0.3569642271611379
 40
0.4264677382709117
 40
0.498772860798542
 40
0.6087019700307938
 40
0.7494858342396218
 40
0.8632814493068909
 40
0.9466939103071854
 40
1.0
 40
1.0
 40
1.0
 40
1.0
 10
27.67570140970992
 20
-113.549193590298
 30
0.0
 10
27.63482452096775
 20
-113.5955352055436
 30
0.0
 10
27.55082389151257
 20
-113.6907656638876
 30
0.0
 10
27.43071122579123
 20
-113.841470529798
 30
0.0
 10
27.31168378398204
 20
-114.0027095282542
 30
0.0
 10
27.19550905441011
 20
-114.1748632676339
 30
0.0
 10
27.08312519251198
 20
-114.3578751114255
 30
0.0
 10
26.97580002970767
 20
-114.5518173124147
 30
0.0
 10
26.8747794151091
 20
-114.7567193079787
 30
0.0
 10
26.76636490279568
 20
-115.0073574350816
 30
0.0
 10
26.64938909800823
 20
-115.3338294578035
 30
0.0
 10
26.55082928674788
 20
-115.7069885874141
 30
0.0
 10
26.491218763856
 20
-116.0560458131664
 30
0.0
 10
26.46416271679946
 20
-116.31610570758
 30
0.0
 10
26.45761014350166
 20
-116.4584386645953
 30
0.0
 10
26.4550553178532
 20
-116.5139337918801
 30
0.0
  0
SPLINE
  5
188
330
1B
100
AcDbEntity
 67
     1
  8
0
  6
Continuous
 62
     7
370
    25
100
AcDbSpline
210
0.0
220
0.0
230
1.0
 70
     8
 71
     3
 72
    17
 73
    13
 74
     0
 42
0.000000001
 43
0.00000001
 40
0.0
 40
0.0
 40
0.0
 40
0.0
 40
0.0532475686046056
 40
0.1366662184799477
 40
0.2505334969178605
 40
0.3912789999375058
 40
0.5012474025938091
 40
0.6155779259993317
 40
0.7226933716301496
 40
0.8224933122374106
 40
0.9149288997198193
 40
0.9999999999999999
 40
0.9999999999999999
 40
0.9999999999999999
 40
0.9999999999999999
 10
-26.45510564748191
 20
-116.512492539885
 30
0.0
 10
-26.45765686844266
 20
-116.4570606566182
 30
0.0
 10
-26.46420488049936
 20
-116.3147881347391
 30
0.0
 10
-26.4912498767863
 20
-116.0547206596686
 30
0.0
 10
-26.55085588960148
 20
-115.7056419736437
 30
0.0
 10
-26.64943028322953
 20
-115.3324311365086
 30
0.0
 10
-26.78159667125367
 20
-114.96351299988
 30
0.0
 10
-26.92961197967635
 20
-114.6347095970638
 30
0.0
 10
-27.10010695213758
 20
-114.3226022889999
 30
0.0
 10
-27.2833742476913
 20
-114.0385696245273
 30
0.0
 10
-27.47263610295442
 20
-113.7815046193034
 30
0.0
 10
-27.6099421209605
 20
-113.6235548252646
 30
0.0
 10
-27.67574681921779
 20
-113.5478564786994
 30
0.0
  0
SPLINE
  5
189
330
1B
100
AcDbEntity
 67
     1
  8
0
  6
Continuous
 62
     7
370
    25
100
AcDbSpline
210
0.0
220
0.0
230
1.0
 70
     8
 71
     3
 72
    24
 73
    20
 74
     0
 42
0.000000001
 43
0.00000001
 40
0.0
 40
0.0
 40
0.0
 40
0.0
 40
0.0344455809426785
 40
0.0694090372265599
 40
0.10494240507451
 40
0.1410952547295413
 40
0.1779146468422111
 40
0.2154451247499902
 40
0.2537287375425342
 40
0.2928050886715146
 40
0.3327114050083058
 40
0.3734826216005437
 40
0.4151514778559053
 40
0.4577486214272926
 40
0.5013027166392064
 40
0.6164490209481887
 40
0.7377211059191366
 40
0.8654713766066756
 40
1.0
 40
1.0
 40
1.0
 40
1.0
 10
-27.67574681921884
 20
-113.5478564786995
 30
0.0
 10
-27.71716099805898
 20
-113.5030008105165
 30
0.0
 10
-27.80061200112398
 20
-113.412615087369
 30
0.0
 10
-27.92963234429784
 20
-113.2858215969641
 30
0.0
 10
-28.06239183511242
 20
-113.1642301583149
 30
0.0
 10
-28.19901019908583
 20
-113.0485636696772
 30
0.0
 10
-28.33930072013942
 20
-112.9386218992978
 30
0.0
 10
-28.48315408678556
 20
-112.8344581892338
 30
0.0
 10
-28.63043275767304
 20
-112.7360560911291
 30
0.0
 10
-28.78099993030533
 20
-112.6434184609729
 30
0.0
 10
-28.93471132496778
 20
-112.5565428047526
 30
0.0
 10
-29.09141768203743
 20
-112.4754286212005
 30
0.0
 10
-29.25096252541796
 20
-112.4000734095228
 30
0.0
 10
-29.41318809526353
 20
-112.3304814173805
 30
0.0
 10
-29.66690962164305
 20
-112.2321351855553
 30
0.0
 10
-30.01474809556992
 20
-112.1227514536658
 30
0.0
 10
-30.45374405074132
 20
-112.0276638356126
 30
0.0
 10
-30.90087917255905
 20
-111.9693790799062
 30
0.0
 10
-31.18973265335232
 20
-111.96341669288
 30
0.0
 10
-31.33789196777091
 20
-111.960358453209
 30
0.0
  0
SPLINE
  5
18A
330
1B
100
AcDbEntity
 67
     1
  8
0
  6
Continuous
 62
     7
370
    25
100
AcDbSpline
210
0.0
220
0.0
230
1.0
 70
     8
 71
     3
 72
    29
 73
    25
 74
     0
 42
0.000000001
 43
0.00000001
 40
0.0
 40
0.0
 40
0.0
 40
0.0
 40
0.0352268772948405
 40
0.0705499343640789
 40
0.1059965731445349
 40
0.1416088455892926
 40
0.1774323778333022
 40
0.213511362534874
 40
0.2498888523350134
 40
0.3118117632946664
 40
0.374824082943182
 40
0.3928657811202012
 40
0.4062024815929159
 40
0.4218469971410294
 40
0.4376678437415013
 40
0.5002615326394022
 40
0.624319513826398
 40
0.7486227601417083
 40
0.8743229985627574
 40
0.9370444303587212
 40
0.9684723378305973
 40
0.9810691353875559
 40
0.9935187804659515
 40
0.9999999999999999
 40
0.9999999999999999
 40
0.9999999999999999
 40
0.9999999999999999
 10
-31.33789189850501
 20
-111.9603551449895
 30
0.0
 10
-31.3277599817974
 20
-111.9516170483498
 30
0.0
 10
-31.30746848525851
 20
-111.9341169974869
 30
0.0
 10
-31.27378906480332
 20
-111.8922741621746
 30
0.0
 10
-31.23841250126719
 20
-111.8346283894512
 30
0.0
 10
-31.20256756038169
 20
-111.7562300228428
 30
0.0
 10
-31.16737403760235
 20
-111.652743203797
 30
0.0
 10
-31.13368230609539
 20
-111.5189624564783
 30
0.0
 10
-31.09471136418697
 20
-111.31001801909
 30
0.0
 10
-31.05531605321401
 20
-110.9790952192618
 30
0.0
 10
-31.03292791270228
 20
-110.5756948744255
 30
0.0
 10
-31.02629126179317
 20
-110.2539891883422
 30
0.0
 10
-31.01613872182998
 20
-110.0841473491002
 30
0.0
 10
-31.01181480410465
 20
-109.912512111212
 30
0.0
 10
-31.00194647839779
 20
-109.53069359645
 30
0.0
 10
-30.99242433303527
 20
-108.5897555081332
 30
0.0
 10
-31.01437478082136
 20
-106.6809268534949
 30
0.0
 10
-31.09859477489888
 20
-103.6123740497997
 30
0.0
 10
-31.20985710276231
 20
-100.4117279078763
 30
0.0
 10
-31.30756374336471
 20
-97.85465781681509
 30
0.0
 10
-31.3582761362661
 20
-96.54290858420487
 30
0.0
 10
-31.38736851069142
 20
-95.83193921588582
 30
0.0
 10
-31.40127651414029
 20
-95.43019057299922
 30
0.0
 10
-31.41225207932915
 20
-95.18601031889501
 30
0.0
 10
-31.41600970207673
 20
-95.10241213861492
 30
0.0
  0
SPLINE
  5
18B
330
1B
100
AcDbEntity
 67
     1
  8
0
  6
Continuous
 62
     7
370
    25
100
AcDbSpline
210
0.0
220
0.0
230
1.0
 70
    24
 71
     3
 72
    14
 73
    10
 74
     0
 42
0.000000001
 43
0.00000001
 40
0.0
 40
0.0
 40
0.0
 40
0.0
 40
0.25
 40
0.25
 40
0.5
 40
0.5
 40
0.75
 40
0.75
 40
1.0
 40
1.0
 40
1.0
 40
1.0
 10
22.29282961623965
 20
-93.8726808925601
 30
0.0
 10
22.24133869883235
 20
-95.6420892359097
 30
0.0
 10
22.19128051547975
 20
-97.36226381661062
 30
0.0
 10
22.0957264240297
 20
-100.6458372145188
 30
0.0
 10
22.05023282636245
 20
-102.209156637187
 30
0.0
 10
21.96535709820395
 20
-105.1257840561842
 30
0.0
 10
21.92597661230399
 20
-106.4790355384762
 30
0.0
 10
21.8546674192711
 20
-108.9294692742716
 30
0.0
 10
21.82274033871665
 20
-110.0265956325102
 30
0.0
 10
21.7950820281444
 20
-110.977032096946
 30
0.0
  0
SPLINE
  5
18D
330
1B
100
AcDbEntity
 67
     1
  8
0
  6
Continuous
 62
     7
370
    25
100
AcDbSpline
210
0.0
220
0.0
230
1.0
 70
     8
 71
     3
 72
    39
 73
    35
 74
     0
 42
0.000000001
 43
0.00000001
 40
0.0
 40
0.0
 40
0.0
 40
0.0
 40
0.0253267896708653
 40
0.0504062068011704
 40
0.0752382519965681
 40
0.0998229258893642
 40
0.1241602291395144
 40
0.1482501624356744
 40
0.1720927264963155
 40
0.1956879220708687
 40
0.2190357499409725
 40
0.2421362109217444
 40
0.2649893058631537
 40
0.2875950356514504
 40
0.3099534012106841
 40
0.3320644035043013
 40
0.3539280435368301
 40
0.3755443223556764
 40
0.3969132410530006
 40
0.4180348007677336
 40
0.4389090026876808
 40
0.4595358480517757
 40
0.4799153381524599
 40
0.5000474743382115
 40
0.5525069158400795
 40
0.6044186850815565
 40
0.6557828083484294
 40
0.7065993128670284
 40
0.7568682268442033
 40
0.8065895795094866
 40
0.8557634011595969
 40
0.9043897232054555
 40
0.9524685782218572
 40
1.0
 40
1.0
 40
1.0
 40
1.0
 10
-22.2928296162396
 20
-93.87268089256015
 30
0.0
 10
-22.28762344002781
 20
-94.05161635290754
 30
0.0
 10
-22.27726193751662
 20
-94.40773957008372
 30
0.0
 10
-22.26192108523154
 20
-94.93534583164445
 30
0.0
 10
-22.24682486879504
 20
-95.45468579483703
 30
0.0
 10
-22.23198201111687
 20
-95.96541552111694
 30
0.0
 10
-22.21739020914763
 20
-96.46754166201775
 30
0.0
 10
-22.20305007034309
 20
-96.96099117529525
 30
0.0
 10
-22.18896143397203
 20
-97.44572450505903
 30
0.0
 10
-22.17512434200198
 20
-97.9217053123715
 30
0.0
 10
-22.16153878289985
 20
-98.38890806423365
 30
0.0
 10
-22.14820475922691
 20
-98.8473156335451
 30
0.0
 10
-22.13512226980482
 20
-99.29691953578356
 30
0.0
 10
-22.12229131442329
 20
-99.73771947194996
 30
0.0
 10
-22.10971189257954
 20
-100.1697230568954
 30
0.0
 10
-22.09738400387469
 20
-100.5929455011941
 30
0.0
 10
-22.08530764766822
 20
-101.007409309769
 30
0.0
 10
-22.07348282404662
 20
-101.4131439749973
 30
0.0
 10
-22.0619095303421
 20
-101.8101856926314
 30
0.0
 10
-22.05058777387495
 20
-102.1985770124045
 30
0.0
 10
-22.03951752522219
 20
-102.5783667440189
 30
0.0
 10
-22.02869888955373
 20
-102.9496089447344
 30
0.0
 10
-22.01813147854112
 20
-103.3123652926105
 30
0.0
 10
-22.00225346805151
 20
-103.8578019805358
 30
0.0
 10
-21.98144723186213
 20
-104.5731587895282
 30
0.0
 10
-21.95626229218277
 20
-105.4393623522464
 30
0.0
 10
-21.9321944481181
 20
-106.2672115075549
 30
0.0
 10
-21.90924330944064
 20
-107.0564460549991
 30
0.0
 10
-21.88740852439515
 20
-107.8069471776181
 30
0.0
 10
-21.86669183594143
 20
-108.5186176572787
 30
0.0
 10
-21.84708670700419
 20
-109.1917371183861
 30
0.0
 10
-21.82861714571056
 20
-109.8256508875376
 30
0.0
 10
-21.81119502838429
 20
-110.4235538041269
 30
0.0
 10
-21.80043248729187
 20
-110.7932449095413
 30
0.0
 10
-21.7950820281444
 20
-110.9770320969462
 30
0.0
  0
SPLINE
  5
18F
330
1B
100
AcDbEntity
 67
     1
  8
0
  6
Continuous
 62
     7
370
    25
100
AcDbSpline
210
0.0
220
0.0
230
1.0
 70
    24
 71
     3
 72
    14
 73
    10
 74
     0
 42
0.000000001
 43
0.00000001
 40
0.0
 40
0.0
 40
0.0
 40
0.0
 40
0.25
 40
0.25
 40
0.5
 40
0.5
 40
0.75
 40
0.75
 40
1.0
 40
1.0
 40
1.0
 40
1.0
 10
26.7920361632399
 20
-106.864064951896
 30
0.0
 10
26.81906928526593
 20
-106.0899376225303
 30
0.0
 10
26.85066709364358
 20
-105.1850947786431
 30
0.0
 10
26.92204611276393
 20
-103.1410671080266
 30
0.0
 10
26.96182181846192
 20
-102.0020399251524
 30
0.0
 10
27.04767637629545
 20
-99.54348706153856
 30
0.0
 10
27.09374236984104
 20
-98.22432960263777
 30
0.0
 10
27.18964044490365
 20
-95.47816803580089
 30
0.0
 10
27.2394567377981
 20
-94.05161605485924
 30
0.0
 10
27.2897837513351
 20
-92.6104389482409
 30
0.0
  0
SPLINE
  5
191
330
1B
100
AcDbEntity
 67
     1
  8
0
  6
Continuous
 62
     7
370
    25
100
AcDbSpline
210
0.0
220
0.0
230
1.0
 70
    24
 71
     3
 72
    14
 73
    10
 74
     0
 42
0.000000001
 43
0.00000001
 40
0.0
 40
0.0
 40
0.0
 40
0.0
 40
0.25
 40
0.25
 40
0.5
 40
0.5
 40
0.75
 40
0.75
 40
1.0
 40
1.0
 40
1.0
 40
1.0
 10
-27.2897837513351
 20
-92.6104389482409
 30
0.0
 10
-27.23945673779809
 20
-94.05161605485924
 30
0.0
 10
-27.18964044490365
 20
-95.47816803580088
 30
0.0
 10
-27.09374236984104
 20
-98.22432960263775
 30
0.0
 10
-27.04767637629544
 20
-99.54348706153853
 30
0.0
 10
-26.96182181846192
 20
-102.0020399251524
 30
0.0
 10
-26.92204611276393
 20
-103.1410671080266
 30
0.0
 10
-26.85066709364358
 20
-105.1850947786431
 30
0.0
 10
-26.81906928526594
 20
-106.0899376225303
 30
0.0
 10
-26.7920361632399
 20
-106.864064951896
 30
0.0
  0
SPLINE
  5
192
330
1B
100
AcDbEntity
 67
     1
  8
0
  6
Continuous
 62
     7
370
    25
100
AcDbSpline
210
0.0
220
0.0
230
1.0
 70
     8
 71
     3
 72
    16
 73
    12
 74
     0
 42
0.000000001
 43
0.00000001
 40
0.0
 40
0.0
 40
0.0
 40
0.0
 40
0.0697036506445776
 40
0.2016984968601198
 40
0.3336223595689416
 40
0.4655296774320882
 40
0.5974683944852665
 40
0.7294904467767164
 40
0.8175802478598335
 40
0.908044532325544
 40
0.9999999999999999
 40
0.9999999999999999
 40
0.9999999999999999
 40
0.9999999999999999
 10
-42.4046710469277
 20
-111.7812175152384
 30
0.0
 10
-45.03285791587319
 20
-111.7209352134655
 30
0.0
 10
-52.63793076402034
 20
-111.5464988741572
 30
0.0
 10
-65.18955664233356
 20
-110.5976820021813
 30
0.0
 10
-80.03001031980214
 20
-108.9811438789482
 30
0.0
 10
-94.78871819535911
 20
-106.7337384627323
 30
0.0
 10
-109.4474108389661
 20
-103.8949715215369
 30
0.0
 10
-122.3747200656353
 20
-100.8508910194304
 30
0.0
 10
-133.6713719909746
 20
-97.76464023103402
 30
0.0
 10
-143.4627291675012
 20
-94.87124693599301
 30
0.0
 10
-149.8543502391588
 20
-92.31940256434522
 30
0.0
 10
-153.076284804614
 20
-91.0330504019599
 30
0.0
  0
SPLINE
  5
193
330
1B
100
AcDbEntity
 67
     1
  8
0
  6
Continuous
 62
     7
370
    25
100
AcDbSpline
210
0.0
220
0.0
230
1.0
 70
     8
 71
     3
 72
    15
 73
    11
 74
     0
 42
0.000000001
 43
0.00000001
 40
0.0
 40
0.0
 40
0.0
 40
0.0
 40
0.1363128556655542
 40
0.3590276182690691
 40
0.4757488500271005
 40
0.5885132365221138
 40
0.6973206590181923
 40
0.8021710017633447
 40
0.9030641520036111
 40
1.0
 40
1.0
 40
1.0
 40
1.0
 10
-35.67189205048444
 20
-111.9819834265824
 30
0.0
 10
-35.66646513981743
 20
-111.9812144505919
 30
0.0
 10
-35.65217147102277
 20
-111.9791890831604
 30
0.0
 10
-35.27276054004909
 20
-111.9762028042414
 30
0.0
 10
-34.72110392937314
 20
-111.9732422212796
 30
0.0
 10
-34.19169794547538
 20
-111.970842270378
 30
0.0
 10
-33.57971810418595
 20
-111.9683661948227
 30
0.0
 10
-32.8943395358945
 20
-111.965800690965
 30
0.0
 10
-32.15538634390747
 20
-111.9631681409702
 30
0.0
 10
-31.6067317279926
 20
-111.9612824421759
 30
0.0
 10
-31.3378919677709
 20
-111.960358453209
 30
0.0
  0
SPLINE
  5
194
330
1B
100
AcDbEntity
 67
     1
  8
0
  6
Continuous
 62
     7
370
    25
100
AcDbSpline
210
0.0
220
0.0
230
1.0
 70
     8
 71
     3
 72
    16
 73
    12
 74
     0
 42
0.000000001
 43
0.00000001
 40
0.0
 40
0.0
 40
0.0
 40
0.0
 40
0.0603286865654086
 40
0.1936593857067335
 40
0.3269194125249295
 40
0.460159564232918
 40
0.5934289697808361
 40
0.7267776794607794
 40
0.8157513235682817
 40
0.9071220024099114
 40
1.0
 40
1.0
 40
1.0
 40
1.0
 10
43.53245612706915
 20
-111.7486450968684
 30
0.0
 10
45.78440863253386
 20
-111.6957366856636
 30
0.0
 10
53.01333675408681
 20
-111.5258969129786
 30
0.0
 10
65.18984484607958
 20
-110.5958804287801
 30
0.0
 10
80.03121100630948
 20
-108.9835638452255
 30
0.0
 10
94.79040228265103
 20
-106.7363334385032
 30
0.0
 10
109.4489555826724
 20
-103.8982151155473
 30
0.0
 10
122.3758697335812
 20
-100.8541817807982
 30
0.0
 10
133.6718305090286
 20
-97.76779332259827
 30
0.0
 10
143.4627549308259
 20
-94.87496028407062
 30
0.0
 10
149.8542222666663
 20
-92.32374587013929
 30
0.0
 10
153.0760998904945
 20
-91.0377030568183
 30
0.0
  0
SPLINE
  5
195
330
1B
100
AcDbEntity
 67
     1
  8
0
  6
Continuous
 62
     7
370
    25
100
AcDbSpline
210
0.0
220
0.0
230
1.0
 70
     8
 71
     3
 72
    12
 73
     8
 74
     0
 42
0.000000001
 43
0.00000001
 40
0.0
 40
0.0
 40
0.0
 40
0.0
 40
0.3044092604376615
 40
0.6396156992799217
 40
0.8141994193030668
 40
0.9657528751246921
 40
1.0
 40
1.0
 40
1.0
 40
1.0
 10
31.33960380197455
 20
-111.9609859085816
 30
0.0
 10
32.13538545245565
 20
-111.963811338846
 30
0.0
 10
33.80745822749145
 20
-111.9697480490226
 30
0.0
 10
35.03895374796163
 20
-111.9752442671346
 30
0.0
 10
35.56302955007745
 20
-111.9792001917719
 30
0.0
 10
35.71150367742128
 20
-111.9812946540712
 30
0.0
 10
35.68885205239164
 20
-111.9822204001677
 30
0.0
 10
35.68467686075279
 20
-111.982391035491
 30
0.0
  0
SPLINE
  5
196
330
1B
100
AcDbEntity
 67
     1
  8
0
  6
Continuous
 62
     7
370
    25
100
AcDbSpline
210
0.0
220
0.0
230
1.0
 70
     8
 71
     3
 72
    22
 73
    18
 74
     0
 42
0.000000001
 43
0.00000001
 40
0.0
 40
0.0
 40
0.0
 40
0.0
 40
0.125
 40
0.125
 40
0.25
 40
0.25
 40
0.375
 40
0.375
 40
0.5
 40
0.5
 40
0.625
 40
0.625
 40
0.75
 40
0.75
 40
0.875
 40
0.875
 40
1.0
 40
1.0
 40
1.0
 40
1.0
 10
160.0
 20
-95.62067370330178
 30
0.0
 10
160.0
 20
-95.27637693908623
 30
0.0
 10
159.9637421549714
 20
-94.91231727245275
 30
0.0
 10
159.7965309254162
 20
-94.16768518246096
 30
0.0
 10
159.6652345730588
 20
-93.78721229544067
 30
0.0
 10
159.2957483984621
 20
-93.04644585237236
 30
0.0
 10
159.0573150266331
 20
-92.68652994067325
 30
0.0
 10
158.4815303532051
 20
-92.03043875998806
 30
0.0
 10
158.1442800680314
 20
-91.73477445587733
 30
0.0
 10
157.4019920952439
 20
-91.24345060942433
 30
0.0
 10
156.9974137565137
 20
-91.04809511223526
 30
0.0
 10
156.1660456319256
 20
-90.77278533990194
 30
0.0
 10
155.739769643117
 20
-90.69272704776833
 30
0.0
 10
154.9090771005704
 20
-90.63908964036955
 30
0.0
 10
154.5049178448273
 20
-90.66514198088844
 30
0.0
 10
153.7484630941612
 20
-90.79839528141137
 30
0.0
 10
153.3961281493726
 20
-90.90524358103325
 30
0.0
 10
153.0761134909953
 20
-91.03772116099768
 30
0.0
  0
SPLINE
  5
1A1
330
1B
100
AcDbEntity
 67
     1
  8
0
  6
Continuous
 62
     7
370
    25
100
AcDbSpline
210
0.0
220
0.0
230
1.0
 70
     8
 71
     3
 72
    38
 73
    34
 74
     0
 42
0.000000001
 43
0.00000001
 40
0.0
 40
0.0
 40
0.0
 40
0.0
 40
0.0330429824488892
 40
0.0660335668417706
 40
0.0989717601967934
 40
0.1318575695656782
 40
0.1646910020339496
 40
0.1974720647211368
 40
0.2302007647809818
 40
0.2628771094016598
 40
0.2955011058059973
 40
0.328072761251689
 40
0.3605920830315099
 40
0.3930590784735448
 40
0.4254737549414119
 40
0.4578361198344809
 40
0.4901461805881011
 40
0.5224039446738384
 40
0.5546094195996925
 40
0.5867626129103348
 40
0.6188635321873412
 40
0.6509121850494325
 40
0.6829085791527019
 40
0.7148527221908597
 40
0.7467446218954737
 40
0.7785842860362143
 40
0.8103717224210939
 40
0.8421069388967157
 40
0.8737899433485253
 40
0.9054207437010566
 40
0.9369993479181872
 40
0.9685257640033921
 40
1.0
 40
1.0
 40
1.0
 40
1.0
 10
-21.2102375127335
 20
-127.7247877713762
 30
0.0
 10
-21.20758776844499
 20
-127.8158660117316
 30
0.0
 10
-21.20229248171172
 20
-127.9978780647186
 30
0.0
 10
-21.19466801106682
 20
-128.2602185744153
 30
0.0
 10
-21.18728486007643
 20
-128.5144043639022
 30
0.0
 10
-21.18016533406118
 20
-128.7596505760682
 30
0.0
 10
-21.17330347056582
 20
-128.9961186968243
 30
0.0
 10
-21.16670086341038
 20
-129.2237214578219
 30
0.0
 10
-21.1603570865497
 20
-129.4424422711287
 30
0.0
 10
-21.15427225386613
 20
-129.6522498127247
 30
0.0
 10
-21.14844633491516
 20
-129.8531208251238
 30
0.0
 10
-21.14287933783191
 20
-130.045033990816
 30
0.0
 10
-21.13757126043884
 20
-130.2279715374197
 30
0.0
 10
-21.13252210331504
 20
-130.4019187748575
 30
0.0
 10
-21.12773186630278
 20
-130.566864184105
 30
0.0
 10
-21.12320054944117
 20
-130.7227993573284
 30
0.0
 10
-21.11892815271688
 20
-130.8697189766016
 30
0.0
 10
-21.11491467613019
 20
-131.0076207812163
 30
0.0
 10
-21.11116011967887
 20
-131.1365055369101
 30
0.0
 10
-21.10766448335732
 20
-131.2563770037507
 30
0.0
 10
-21.10442776717557
 20
-131.3672419025816
 30
0.0
 10
-21.10144997108488
 20
-131.4691098838137
 30
0.0
 10
-21.09873109525526
 20
-131.5619934837078
 30
0.0
 10
-21.09627113904228
 20
-131.6459081238115
 30
0.0
 10
-21.09407010483357
 20
-131.7208719463832
 30
0.0
 10
-21.09212798372852
 20
-131.7869062572003
 30
0.0
 10
-21.0904448088516
 20
-131.8440337040432
 30
0.0
 10
-21.08902045687314
 20
-131.8922848819922
 30
0.0
 10
-21.08785538691914
 20
-131.9316735640276
 30
0.0
 10
-21.08694788972702
 20
-131.9622887320322
 30
0.0
 10
-21.08630432856648
 20
-131.9839517769465
 30
0.0
 10
-21.08590101418811
 20
-131.9974924924324
 30
0.0
 10
-21.08585105455647
 20
-131.9991646257905
 30
0.0
 10
-21.0858260954301
 20
-132.0
 30
0.0
  0
SPLINE
  5
1A4
330
1B
100
AcDbEntity
 67
     1
  8
0
  6
Continuous
 62
     7
370
    25
100
AcDbSpline
210
0.0
220
0.0
230
1.0
 70
    24
 71
     3
 72
    14
 73
    10
 74
     0
 42
0.000000001
 43
0.00000001
 40
0.0
 40
0.0
 40
0.0
 40
0.0
 40
0.25
 40
0.25
 40
0.5
 40
0.5
 40
0.75
 40
0.75
 40
1.0
 40
1.0
 40
1.0
 40
1.0
 10
-26.207191647829
 20
-123.611820626326
 30
0.0
 10
-26.18720879114646
 20
-124.184054771603
 30
0.0
 10
-26.16927548661257
 20
-124.6975974224355
 30
0.0
 10
-26.13817855088283
 20
-125.5880971503144
 30
0.0
 10
-26.12501698479039
 20
-125.9649950905379
 30
0.0
 10
-26.10389860765799
 20
-126.5697462870252
 30
0.0
 10
-26.09594268964896
 20
-126.79757397023
 30
0.0
 10
-26.08538372434048
 20
-127.0999431752089
 30
0.0
 10
-26.0827802305256
 20
-127.1744974835125
 30
0.0
 10
-26.0827802305256
 20
-127.1744974835124
 30
0.0
  0
LWPOLYLINE
  5
1A5
330
1B
100
AcDbEntity
 67
     1
  8
0
  6
Continuous
 62
     7
370
    25
100
AcDbPolyline
 90
        3
 70
   128
 43
0.0
 10
26.0827802305
 20
-127.1744974835
 10
25.9576764194
 20
-128.1247552717
 10
25.6652243224
 20
-129.0072647756
  0
LWPOLYLINE
  5
1A6
330
1B
100
AcDbEntity
 67
     1
  8
0
  6
Continuous
 62
     7
370
    25
100
AcDbPolyline
 90
        3
 70
   128
 43
0.0
 10
22.3753623858
 20
-131.8308483888
 10
22.0398710723
 20
-131.9081359172
 10
21.0858260954
 20
-132.0
  0
SPLINE
  5
1A7
330
1B
100
AcDbEntity
 67
     1
  8
0
  6
Continuous
 62
     7
370
    25
100
AcDbSpline
210
0.0
220
0.0
230
1.0
 70
    24
 71
     3
 72
    14
 73
    10
 74
     0
 42
0.000000001
 43
0.00000001
 40
0.0
 40
0.0
 40
0.0
 40
0.0
 40
0.25
 40
0.25
 40
0.5
 40
0.5
 40
0.75
 40
0.75
 40
1.0
 40
1.0
 40
1.0
 40
1.0
 10
26.0827802305256
 20
-127.1744974835124
 30
0.0
 10
26.08278023052559
 20
-127.1744974835124
 30
0.0
 10
26.08538372434049
 20
-127.0999431752089
 30
0.0
 10
26.09594268964896
 20
-126.79757397023
 30
0.0
 10
26.10389860765801
 20
-126.5697462870252
 30
0.0
 10
26.1250169847904
 20
-125.9649950905379
 30
0.0
 10
26.13817855088286
 20
-125.5880971503145
 30
0.0
 10
26.16927548661259
 20
-124.6975974224355
 30
0.0
 10
26.18720879114649
 20
-124.184054771603
 30
0.0
 10
26.207191647829
 20
-123.611820626326
 30
0.0
  0
LWPOLYLINE
  5
1A8
330
1B
100
AcDbEntity
 67
     1
  8
0
  6
Continuous
 62
     7
370
    25
100
AcDbPolyline
 90
        9
 70
   128
 43
0.0
 10
-21.0858260954
 20
-132.0
 10
-20.5807391648
 20
-132.0918640828
 10
-20.0942119731
 20
-132.3640807272
 10
-19.6441222702
 20
-132.8066471603
 10
-19.2470088871
 20
-133.4033009983
 10
-18.9174640065
 20
-134.1321178182
 10
-18.6675969636
 20
-134.9663167846
 10
-18.5065892812
 20
-135.8752447283
 10
-18.4403572884
 20
-136.8255025165
  0
LWPOLYLINE
  5
1AB
330
1B
100
AcDbEntity
 67
     1
  8
0
  6
Continuous
 62
     7
370
    25
100
AcDbPolyline
 90
        9
 70
   128
 43
0.0
 10
18.4403572884
 20
-136.8255025165
 10
18.5065892812
 20
-135.8752447283
 10
18.6675969636
 20
-134.9663167846
 10
18.9174640065
 20
-134.1321178182
 10
19.2470088871
 20
-133.4033009983
 10
19.6441222702
 20
-132.8066471603
 10
20.0942119731
 20
-132.3640807272
 10
20.5807391648
 20
-132.0918640828
 10
21.0858260954
 20
-132.0
  0
SPLINE
  5
1AE
330
1B
100
AcDbEntity
 67
     1
  8
0
  6
Continuous
 62
     7
370
    25
100
AcDbSpline
210
0.0
220
0.0
230
1.0
 70
     8
 71
     3
 72
    28
 73
    24
 74
     0
 42
0.000000001
 43
0.00000001
 40
0.0
 40
0.0
 40
0.0
 40
0.0
 40
0.1250000000000034
 40
0.1250000000000034
 40
0.2500000000000067
 40
0.2500000000000067
 40
0.37500000000001
 40
0.37500000000001
 40
0.43750000000001
 40
0.43750000000001
 40
0.50000000000001
 40
0.50000000000001
 40
0.6250000000000104
 40
0.6250000000000104
 40
0.6875000000000088
 40
0.6875000000000088
 40
0.750000000000007
 40
0.750000000000007
 40
0.8125000000000052
 40
0.8125000000000052
 40
0.8750000000000036
 40
0.8750000000000036
 40
1.0
 40
1.0
 40
1.0
 40
1.0
 10
18.4403572884464
 20
-136.8255025164874
 30
0.0
 10
18.98852944226824
 20
-136.8255025152111
 30
0.0
 10
19.5224644042332
 20
-136.767117249618
 30
0.0
 10
20.5637795087841
 20
-136.5453225235772
 30
0.0
 10
21.07192405702059
 20
-136.3815422244598
 30
0.0
 10
22.05955574655239
 20
-135.9502446113858
 30
0.0
 10
22.52918758677913
 20
-135.6872885278982
 30
0.0
 10
23.20053272391213
 20
-135.2231276819344
 30
0.0
 10
23.41876727905113
 20
-135.0566943755296
 30
0.0
 10
23.84431408902601
 20
-134.6993782627996
 30
0.0
 10
24.05236657803831
 20
-134.5077235944996
 30
0.0
 10
24.65387524243523
 20
-133.8994031523846
 30
0.0
 10
25.0242600824916
 20
-133.4513038138804
 30
0.0
 10
25.53326724232531
 20
-132.7045944436747
 30
0.0
 10
25.6951154762369
 20
-132.4431442771063
 30
0.0
 10
26.00207549401939
 20
-131.8911935692686
 30
0.0
 10
26.14724126029429
 20
-131.6001145898242
 30
0.0
 10
26.4128301853262
 20
-130.9978852132998
 30
0.0
 10
26.53414254305945
 20
-130.685307270324
 30
0.0
 10
26.75174688352603
 20
-130.0337184880224
 30
0.0
 10
26.8487003953557
 20
-129.6915412273052
 30
0.0
 10
27.0903340263945
 20
-128.6456744217786
 30
0.0
 10
27.1876887768248
 20
-127.9241006610983
 30
0.0
 10
27.21312882549385
 20
-127.1744974835124
 30
0.0
  0
LWPOLYLINE
  5
1AF
330
1B
100
AcDbEntity
 67
     1
  8
0
  6
Continuous
 62
     7
370
    25
100
AcDbPolyline
 90
        3
 70
   128
 43
0.0
 10
27.6757014097
 20
-113.5491935903
 10
27.4166223021
 20
-121.1793647587
 10
27.2131288255
 20
-127.1744974835
  0
LWPOLYLINE
  5
1B0
330
1B
100
AcDbEntity
 67
     1
  8
0
  6
Continuous
 62
     7
370
    25
100
AcDbPolyline
 90
        3
 70
   128
 43
0.0
 10
-27.2131288255
 20
-127.1744974835
 10
-27.4721564881
 20
-119.5435795099
 10
-27.6757468192
 20
-113.5478564787
  0
SPLINE
  5
1B1
330
1B
100
AcDbEntity
 67
     1
  8
0
  6
Continuous
 62
     7
370
    25
100
AcDbSpline
210
0.0
220
0.0
230
1.0
 70
     8
 71
     3
 72
    26
 73
    22
 74
     0
 42
0.000000001
 43
0.00000001
 40
0.0
 40
0.0
 40
0.0
 40
0.0
 40
0.0624999999999999
 40
0.0624999999999999
 40
0.1249999999999998
 40
0.1249999999999998
 40
0.2499999999999993
 40
0.2499999999999993
 40
0.3749999999999989
 40
0.3749999999999989
 40
0.4999999999999984
 40
0.4999999999999984
 40
0.624999999999998
 40
0.624999999999998
 40
0.6874999999999983
 40
0.6874999999999983
 40
0.7499999999999987
 40
0.7499999999999987
 40
0.8749999999999993
 40
0.8749999999999993
 40
1.0
 40
1.0
 40
1.0
 40
1.0
 10
-27.21312882549385
 20
-127.1744974835124
 30
0.0
 10
-27.20062002299359
 20
-127.5430753381072
 30
0.0
 10
-27.17039478283541
 20
-127.908631536237
 30
0.0
 10
-27.07519496547926
 20
-128.6338452331954
 30
0.0
 10
-27.0092997644922
 20
-128.9968513030462
 30
0.0
 10
-26.76705794659673
 20
-130.0440400392554
 30
0.0
 10
-26.54713656870081
 20
-130.6934637941721
 30
0.0
 10
-26.0122962337855
 20
-131.9059840025725
 30
0.0
 10
-25.70576162688716
 20
-132.451207565311
 30
0.0
 10
-25.0249851358687
 20
-133.4505774203166
 30
0.0
 10
-24.64763167770045
 20
-133.9062170626334
 30
0.0
 10
-23.84995513768395
 20
-134.7119224665804
 30
0.0
 10
-23.42748861286146
 20
-135.0658473881147
 30
0.0
 10
-22.75726340702141
 20
-135.5297796616961
 30
0.0
 10
-22.52773131725986
 20
-135.673147659984
 30
0.0
 10
-22.05581005290028
 20
-135.9371540141924
 30
0.0
 10
-21.81310580393509
 20
-136.0577921904982
 30
0.0
 10
-21.07686051869647
 20
-136.3795392148636
 30
0.0
 10
-20.5714739562846
 20
-136.543139749657
 30
0.0
 10
-19.52986025194555
 20
-136.7660780464137
 30
0.0
 10
-18.99362482374766
 20
-136.8255025150054
 30
0.0
 10
-18.4403572884464
 20
-136.8255025164874
 30
0.0
  0
SPLINE
  5
1BB
330
1B
100
AcDbEntity
 67
     1
  8
0
  6
Continuous
 62
     8
370
    25
100
AcDbSpline
210
0.0
220
0.0
230
1.0
 70
     8
 71
     3
 72
    12
 73
     8
 74
     0
 42
0.000000001
 43
0.00000001
 40
0.0
 40
0.0
 40
0.0
 40
0.0
 40
0.171922901864921
 40
0.494791829069117
 40
0.7785729608734471
 40
0.9029554017112346
 40
1.0
 40
1.0
 40
1.0
 40
1.0
 10
32.89516855981983
 20
-64.56279532696827
 30
0.0
 10
32.81876364061174
 20
-66.45966812576181
 30
0.0
 10
32.59887129750467
 20
-71.91884285725821
 30
0.0
 10
32.22983689323444
 20
-80.05868038863017
 30
0.0
 10
31.85942130649018
 20
-87.3658372472351
 30
0.0
 10
31.59154721107114
 20
-92.18159031858303
 30
0.0
 10
31.46949953182408
 20
-94.21238044086923
 30
0.0
 10
31.4160098222957
 20
-95.102412716979
 30
0.0
  0
SPLINE
  5
1BC
330
1B
100
AcDbEntity
 67
     1
  8
0
  6
Continuous
 62
     8
370
    25
100
AcDbSpline
210
0.0
220
0.0
230
1.0
 70
     8
 71
     3
 72
    12
 73
     8
 74
     0
 42
0.000000001
 43
0.00000001
 40
0.0
 40
0.0
 40
0.0
 40
0.0
 40
0.2124157177492072
 40
0.4264178838750216
 40
0.640734659257017
 40
0.893548266177136
 40
1.0
 40
1.0
 40
1.0
 40
1.0
 10
-31.41601275428296
 20
-95.10242683344701
 30
0.0
 10
-31.53239844129471
 20
-93.12465009169166
 30
0.0
 10
-31.76603905365036
 20
-89.15432538157638
 30
0.0
 10
-32.09247110168537
 20
-82.76713646113919
 30
0.0
 10
-32.43083273067119
 20
-75.7259935729328
 30
0.0
 10
-32.69313604026239
 20
-69.6044486166551
 30
0.0
 10
-32.85394113222053
 20
-65.61602894854627
 30
0.0
 10
-32.90158831357982
 20
-64.43424451032199
 30
0.0
  0
SPLINE
  5
1BD
330
1B
100
AcDbEntity
 67
     1
  8
0
  6
Continuous
 62
     8
370
    25
100
AcDbSpline
210
0.0
220
0.0
230
1.0
 70
     8
 71
     3
 72
    12
 73
     8
 74
     0
 42
0.000000001
 43
0.00000001
 40
0.0
 40
0.0
 40
0.0
 40
0.0
 40
0.1281190800048463
 40
0.350988731240753
 40
0.5742057663324516
 40
0.7893183932789998
 40
0.9999999999999999
 40
0.9999999999999999
 40
0.9999999999999999
 40
0.9999999999999999
 10
-152.8626256082391
 20
-80.59456165676188
 30
0.0
 10
-152.8712970726023
 20
-81.21637397902046
 30
0.0
 10
-152.8950529899466
 20
-82.91986043904772
 30
0.0
 10
-152.9603809943423
 20
-85.2043261012298
 30
0.0
 10
-153.0543134371092
 20
-87.7273330575022
 30
0.0
 10
-153.0691401607937
 20
-89.92742683089962
 30
0.0
 10
-153.0739198688727
 20
-90.66707500024205
 30
0.0
 10
-153.076284852938
 20
-91.03305051706171
 30
0.0
  0
SPLINE
  5
1BE
330
1B
100
AcDbEntity
 67
     1
  8
0
  6
Continuous
 62
     8
370
    25
100
AcDbSpline
210
0.0
220
0.0
230
1.0
 70
     8
 71
     3
 72
    12
 73
     8
 74
     0
 42
0.000000001
 43
0.00000001
 40
0.0
 40
0.0
 40
0.0
 40
0.0
 40
0.2095249300293452
 40
0.4234446722831581
 40
0.6452636158913289
 40
0.8658846053036504
 40
1.0
 40
1.0
 40
1.0
 40
1.0
 10
153.0761096027975
 20
-91.0377152429655
 30
0.0
 10
153.0747774111078
 20
-90.67036728221032
 30
0.0
 10
153.0720850848371
 20
-89.92796619020623
 30
0.0
 10
153.054188880492
 20
-87.69634979542809
 30
0.0
 10
152.9545303810367
 20
-85.20091257052421
 30
0.0
 10
152.8900389247637
 20
-82.9124888477127
 30
0.0
 10
152.8658545270282
 20
-81.19203062936765
 30
0.0
 10
152.8567111174624
 20
-80.54157597247732
 30
0.0
  0
LWPOLYLINE
  5
1BF
330
1B
100
AcDbEntity
 67
     1
  8
0
  6
Continuous
 62
     8
370
    25
100
AcDbPolyline
 90
        3
 70
   128
 43
0.0
 10
-153.0762848529
 20
-91.0330505171
 10
-154.2566969761
 20
-90.7060862466
 10
-154.4702817186
 20
-90.678863326
  0
SPLINE
  5
1C0
330
1B
100
AcDbEntity
 67
     1
  8
0
  6
Continuous
 62
     8
370
    25
100
AcDbSpline
210
0.0
220
0.0
230
1.0
 70
     8
 71
     3
 72
    11
 73
     7
 74
     0
 42
0.000000001
 43
0.00000001
 40
0.0
 40
0.0
 40
0.0
 40
0.0
 40
0.2910094263952079
 40
0.5784319649626959
 40
0.862271338510733
 40
0.9999999999999999
 40
0.9999999999999999
 40
0.9999999999999999
 40
0.9999999999999999
 10
21.21023751273355
 20
-127.7247877713764
 30
0.0
 10
21.19098826125049
 20
-128.3875699616706
 30
0.0
 10
21.15272701831642
 20
-129.7049651038935
 30
0.0
 10
21.11523090783778
 20
-130.9984541014423
 30
0.0
 10
21.0934891325525
 20
-131.7412576839292
 30
0.0
 10
21.09069382156381
 20
-131.8353853454045
 30
0.0
 10
21.08978057765317
 20
-131.8661373848065
 30
0.0
  0
SPLINE
  5
1C3
330
1B
100
AcDbEntity
 67
     1
  8
0
  6
Continuous
 62
     8
370
    25
100
AcDbSpline
210
0.0
220
0.0
230
1.0
 70
     8
 71
     3
 72
     9
 73
     5
 74
     0
 42
0.000000001
 43
0.00000001
 40
0.0
 40
0.0
 40
0.0
 40
0.0
 40
0.9994411375682559
 40
1.0
 40
1.0
 40
1.0
 40
1.0
 10
-153.076284852938
 20
-91.03305051706171
 30
0.0
 10
-153.0844501986179
 20
-91.27488179425995
 30
0.0
 10
-153.0926201101544
 20
-91.51684829744654
 30
0.0
 10
-153.0986483325173
 20
-91.42078343227071
 30
0.0
 10
-153.0986517014643
 20
-91.42072974522657
 30
0.0
  0
LINE
  5
1C5
330
1B
100
AcDbEntity
 67
     1
  8
0
  6
Continuous
 62
     7
370
    25
100
AcDbLine
 10
34.7181964095
 20
-140.0697989934
 30
0.0
 11
35.7001674755
 21
-111.9498268299
 31
0.0
  0
LINE
  5
1C6
330
1B
100
AcDbEntity
 67
     1
  8
0
  6
Continuous
 62
     7
370
    25
100
AcDbLine
 10
-35.7001886292
 20
-111.9492210686
 30
0.0
 11
-34.7181964095
 21
-140.0697989934
 31
0.0
  0
LINE
  5
1C7
330
1B
100
AcDbEntity
 67
     1
  8
0
  6
Continuous
 62
     7
370
    25
100
AcDbLine
 10
158.7165417168
 20
-92.3541734035
 30
0.0
 11
158.738734753
 21
-92.3317056831
 31
0.0
  0
LINE
  5
1C8
330
1B
100
AcDbEntity
 67
     1
  8
0
  6
Continuous
 62
     7
370
    25
100
AcDbLine
 10
43.8404602687
 20
-111.8139421367
 30
0.0
 11
48.0494351904
 21
-111.6177652667
 31
0.0
  0
LINE
  5
1C9
330
1B
100
AcDbEntity
 67
     1
  8
0
  6
Continuous
 62
     7
370
    25
100
AcDbLine
 10
151.2604090022
 20
-91.7299511457
 30
0.0
 11
152.9056948277
 21
-91.0195594218
 31
0.0
  0
LINE
  5
1CA
330
1B
100
AcDbEntity
 67
     1
  8
0
  6
Continuous
 62
     7
370
    25
100
AcDbLine
 10
200.0
 20
-135.0
 30
0.0
 11
170.0
 21
-135.0
 31
0.0
  0
LINE
  5
1CB
330
1B
100
AcDbEntity
 67
     1
  8
0
  6
Continuous
 62
     7
370
    25
100
AcDbLine
 10
170.0
 20
-90.0
 30
0.0
 11
170.0
 21
-135.0
 31
0.0
  0
LINE
  5
1CC
330
1B
100
AcDbEntity
 67
     1
  8
0
  6
Continuous
 62
     7
370
    25
100
AcDbLine
 10
170.0
 20
-130.0
 30
0.0
 11
200.0
 21
-130.0
 31
0.0
  0
LINE
  5
1CD
330
1B
100
AcDbEntity
 67
     1
  8
0
  6
Continuous
 62
     7
370
    25
100
AcDbLine
 10
200.0
 20
-135.0
 30
0.0
 11
200.0
 21
-130.0
 31
0.0
  0
LINE
  5
1CE
330
1B
100
AcDbEntity
 67
     1
  8
0
  6
Continuous
 62
     7
370
    25
100
AcDbLine
 10
160.0
 20
-90.0
 30
0.0
 11
170.0
 21
-90.0
 31
0.0
  0
LINE
  5
1CF
330
1B
100
AcDbEntity
 67
     1
  8
0
  6
Continuous
 62
     7
370
    25
100
AcDbLine
 10
160.0
 20
-125.0
 30
0.0
 11
160.0
 21
-90.0
 31
0.0
  0
LINE
  5
1D0
330
1B
100
AcDbEntity
 67
     1
  8
0
  6
Continuous
 62
     7
370
    25
100
AcDbLine
 10
110.75
 20
-30.0
 30
0.0
 11
99.25
 21
-30.0
 31
0.0
  0
LINE
  5
1D1
330
1B
100
AcDbEntity
 67
     1
  8
0
  6
Continuous
 62
     7
370
    25
100
AcDbLine
 10
99.25
 20
-50.0
 30
0.0
 11
110.75
 21
-50.0
 31
0.0
  0
LINE
  5
1D2
330
1B
100
AcDbEntity
 67
     1
  8
0
  6
Continuous
 62
     7
370
    25
100
AcDbLine
 10
-110.75
 20
-50.0
 30
0.0
 11
-99.25
 21
-50.0
 31
0.0
  0
LINE
  5
1D3
330
1B
100
AcDbEntity
 67
     1
  8
0
  6
Continuous
 62
     7
370
    25
100
AcDbLine
 10
-99.25
 20
-30.0
 30
0.0
 11
-110.75
 21
-30.0
 31
0.0
  0
LINE
  5
1D4
330
1B
100
AcDbEntity
 67
     1
  8
0
  6
Continuous
 62
     7
370
    25
100
AcDbLine
 10
54.7722557505
 20
-70.0
 30
0.0
 11
150.0
 21
-70.0
 31
0.0
  0
LINE
  5
1D5
330
1B
100
AcDbEntity
 67
     1
  8
0
  6
Continuous
 62
     7
370
    25
100
AcDbLine
 10
-150.0
 20
-70.0
 30
0.0
 11
-54.7722557505
 21
-70.0
 31
0.0
  0
LINE
  5
1D6
330
1B
100
AcDbEntity
 67
     1
  8
0
  6
Continuous
 62
     7
370
    25
100
AcDbLine
 10
-170.0
 20
-135.0
 30
0.0
 11
-170.0
 21
-90.0
 31
0.0
  0
LINE
  5
1D7
330
1B
100
AcDbEntity
 67
     1
  8
0
  6
Continuous
 62
     7
370
    25
100
AcDbLine
 10
-200.0
 20
-130.0
 30
0.0
 11
-170.0
 21
-130.0
 31
0.0
  0
LINE
  5
1D8
330
1B
100
AcDbEntity
 67
     1
  8
0
  6
Continuous
 62
     7
370
    25
100
AcDbLine
 10
-205.0
 20
-90.0
 30
0.0
 11
-205.0
 21
-125.0
 31
0.0
  0
LINE
  5
1D9
330
1B
100
AcDbEntity
 67
     1
  8
0
  6
Continuous
 62
     7
370
    25
100
AcDbLine
 10
-250.0
 20
-75.0
 30
0.0
 11
-220.0
 21
-75.0
 31
0.0
  0
LINE
  5
1DA
330
1B
100
AcDbEntity
 67
     1
  8
0
  6
Continuous
 62
     7
370
    25
100
AcDbLine
 10
-245.0
 20
0.0
 30
0.0
 11
-245.0
 21
-80.0
 31
0.0
  0
LINE
  5
1DB
330
1B
100
AcDbEntity
 67
     1
  8
0
  6
Continuous
 62
     7
370
    25
100
AcDbLine
 10
250.0
 20
-5.0
 30
0.0
 11
-250.0
 21
-5.0
 31
0.0
  0
LINE
  5
1DC
330
1B
100
AcDbEntity
 67
     1
  8
0
  6
Continuous
 62
     7
370
    25
100
AcDbLine
 10
245.0
 20
-80.0
 30
0.0
 11
245.0
 21
0.0
 31
0.0
  0
LINE
  5
1DD
330
1B
100
AcDbEntity
 67
     1
  8
0
  6
Continuous
 62
     7
370
    25
100
AcDbLine
 10
220.0
 20
-75.0
 30
0.0
 11
250.0
 21
-75.0
 31
0.0
  0
LINE
  5
1DE
330
1B
100
AcDbEntity
 67
     1
  8
0
  6
Continuous
 62
     7
370
    25
100
AcDbLine
 10
205.0
 20
-125.0
 30
0.0
 11
205.0
 21
-90.0
 31
0.0
  0
LINE
  5
1DF
330
1B
100
AcDbEntity
 67
     1
  8
0
  6
Continuous
 62
     7
370
    25
100
AcDbLine
 10
-170.0
 20
-135.0
 30
0.0
 11
-200.0
 21
-135.0
 31
0.0
  0
LINE
  5
1E0
330
1B
100
AcDbEntity
 67
     1
  8
0
  6
Continuous
 62
     7
370
    25
100
AcDbLine
 10
-200.0
 20
-135.0
 30
0.0
 11
-200.0
 21
-130.0
 31
0.0
  0
LINE
  5
1E1
330
1B
100
AcDbEntity
 67
     1
  8
0
  6
Continuous
 62
     7
370
    25
100
AcDbLine
 10
-160.0
 20
-90.0
 30
0.0
 11
-170.0
 21
-90.0
 31
0.0
  0
LINE
  5
1E2
330
1B
100
AcDbEntity
 67
     1
  8
0
  6
Continuous
 62
     7
370
    25
100
AcDbLine
 10
-160.0
 20
-90.0
 30
0.0
 11
-160.0
 21
-125.0
 31
0.0
  0
LINE
  5
1E3
330
1B
100
AcDbEntity
 67
     1
  8
0
  6
Continuous
 62
     7
370
    25
100
AcDbLine
 10
150.0
 20
-80.0
 30
0.0
 11
50.0
 21
-80.0
 31
0.0
  0
LINE
  5
1E4
330
1B
100
AcDbEntity
 67
     1
  8
0
  6
Continuous
 62
     7
370
    25
100
AcDbLine
 10
150.0
 20
-80.0
 30
0.0
 11
150.0
 21
-70.0
 31
0.0
  0
LINE
  5
1E5
330
1B
100
AcDbEntity
 67
     1
  8
0
  6
Continuous
 62
     7
370
    25
100
AcDbLine
 10
-50.0
 20
-80.0
 30
0.0
 11
-150.0
 21
-80.0
 31
0.0
  0
LINE
  5
1E6
330
1B
100
AcDbEntity
 67
     1
  8
0
  6
Continuous
 62
     7
370
    25
100
AcDbLine
 10
-150.0
 20
-80.0
 30
0.0
 11
-150.0
 21
-70.0
 31
0.0
  0
LINE
  5
1E7
330
1B
100
AcDbEntity
 67
     1
  8
0
  6
Continuous
 62
     7
370
    25
100
AcDbLine
 10
245.0
 20
-80.0
 30
0.0
 11
220.0
 21
-80.0
 31
0.0
  0
LINE
  5
1E8
330
1B
100
AcDbEntity
 67
     1
  8
0
  6
Continuous
 62
     7
370
    25
100
AcDbLine
 10
220.0
 20
-80.0
 30
0.0
 11
220.0
 21
-75.0
 31
0.0
  0
LINE
  5
1E9
330
1B
100
AcDbEntity
 67
     1
  8
0
  6
Continuous
 62
     7
370
    25
100
AcDbLine
 10
210.0
 20
-90.0
 30
0.0
 11
210.0
 21
-125.0
 31
0.0
  0
LINE
  5
1EA
330
1B
100
AcDbEntity
 67
     1
  8
0
  6
Continuous
 62
     7
370
    25
100
AcDbLine
 10
210.0
 20
-125.0
 30
0.0
 11
205.0
 21
-125.0
 31
0.0
  0
LINE
  5
1EB
330
1B
100
AcDbEntity
 67
     1
  8
0
  6
Continuous
 62
     7
370
    25
100
AcDbLine
 10
210.0
 20
-90.0
 30
0.0
 11
205.0
 21
-90.0
 31
0.0
  0
LINE
  5
1EC
330
1B
100
AcDbEntity
 67
     1
  8
0
  6
Continuous
 62
     7
370
    25
100
AcDbLine
 10
-220.0
 20
-80.0
 30
0.0
 11
-220.0
 21
-75.0
 31
0.0
  0
LINE
  5
1ED
330
1B
100
AcDbEntity
 67
     1
  8
0
  6
Continuous
 62
     7
370
    25
100
AcDbLine
 10
-210.0
 20
-90.0
 30
0.0
 11
-205.0
 21
-90.0
 31
0.0
  0
LINE
  5
1EE
330
1B
100
AcDbEntity
 67
     1
  8
0
  6
Continuous
 62
     7
370
    25
100
AcDbLine
 10
-220.0
 20
-80.0
 30
0.0
 11
-245.0
 21
-80.0
 31
0.0
  0
LINE
  5
1EF
330
1B
100
AcDbEntity
 67
     1
  8
0
  6
Continuous
 62
     7
370
    25
100
AcDbLine
 10
-245.0
 20
0.0
 30
0.0
 11
245.0
 21
0.0
 31
0.0
  0
LINE
  5
1F0
330
1B
100
AcDbEntity
 67
     1
  8
0
  6
Continuous
 62
     7
370
    25
100
AcDbLine
 10
-210.0
 20
-125.0
 30
0.0
 11
-205.0
 21
-125.0
 31
0.0
  0
LINE
  5
1F1
330
1B
100
AcDbEntity
 67
     1
  8
0
  6
Continuous
 62
     7
370
    25
100
AcDbLine
 10
250.0
 20
-5.0
 30
0.0
 11
250.0
 21
-75.0
 31
0.0
  0
LINE
  5
1F2
330
1B
100
AcDbEntity
 67
     1
  8
0
  6
Continuous
 62
     7
370
    25
100
AcDbLine
 10
-250.0
 20
-75.0
 30
0.0
 11
-250.0
 21
-5.0
 31
0.0
  0
LINE
  5
1F3
330
1B
100
AcDbEntity
 67
     1
  8
0
  6
Continuous
 62
     7
370
    25
100
AcDbLine
 10
-210.0
 20
-125.0
 30
0.0
 11
-210.0
 21
-90.0
 31
0.0
  0
LINE
  5
1F4
330
1B
100
AcDbEntity
 67
     1
  8
0
  6
Continuous
 62
     7
370
    25
100
AcDbLine
 10
-27.2897837513
 20
-92.6104389482
 30
0.0
 11
-28.3654451309
 21
-61.8075272364
 31
0.0
  0
LINE
  5
1F5
330
1B
100
AcDbEntity
 67
     1
  8
0
  6
Continuous
 62
     7
370
    25
100
AcDbLine
 10
-22.2928296162
 20
-93.8726808926
 30
0.0
 11
22.2928296162
 21
-93.8726808926
 31
0.0
  0
LINE
  5
1F6
330
1B
100
AcDbEntity
 67
     1
  8
0
  6
Continuous
 62
     7
370
    25
100
AcDbLine
 10
28.3654451309
 20
-61.8075272364
 30
0.0
 11
27.2897837513
 21
-92.6104389482
 31
0.0
  0
LINE
  5
1F7
330
1B
100
AcDbEntity
 67
     1
  8
0
  6
Continuous
 62
     7
370
    25
100
AcDbLine
 10
21.7950820281
 20
-110.9770320969
 30
0.0
 11
-21.7950820281
 21
-110.9770320969
 31
0.0
  0
LINE
  5
1F8
330
1B
100
AcDbEntity
 67
     1
  8
0
  6
Continuous
 62
     7
370
    25
100
AcDbLine
 10
21.2102375127
 20
-127.7247877714
 30
0.0
 11
21.7950820281
 21
-110.9770320969
 31
0.0
  0
LINE
  5
1F9
330
1B
100
AcDbEntity
 67
     1
  8
0
  6
Continuous
 62
     7
370
    25
100
AcDbLine
 10
-21.2102375127
 20
-127.7247877714
 30
0.0
 11
21.2102375127
 21
-127.7247877714
 31
0.0
  0
LINE
  5
1FA
330
1B
100
AcDbEntity
 67
     1
  8
0
  6
Continuous
 62
     7
370
    25
100
AcDbLine
 10
-21.7950820281
 20
-110.9770320969
 30
0.0
 11
-21.2102375127
 21
-127.7247877714
 31
0.0
  0
LINE
  5
1FB
330
1B
100
AcDbEntity
 67
     1
  8
0
  6
Continuous
 62
     7
370
    25
100
AcDbLine
 10
26.7920361632
 20
-106.8640649519
 30
0.0
 11
26.2071916478
 21
-123.6118206263
 31
0.0
  0
LINE
  5
1FC
330
1B
100
AcDbEntity
 67
     1
  8
0
  6
Continuous
 62
     7
370
    25
100
AcDbLine
 10
-26.2071916478
 20
-123.6118206263
 30
0.0
 11
-26.7920361632
 21
-106.8640649519
 31
0.0
  0
LINE
  5
1FD
330
1B
100
AcDbEntity
 67
     1
  8
0
  6
Continuous
 62
     7
370
    25
100
AcDbLine
 10
21.0897805777
 20
-131.8661373848
 30
0.0
 11
21.0858260954
 21
-132.0
 31
0.0
  0
LINE
  5
1FE
330
1B
100
AcDbEntity
 67
     1
  8
0
  6
Continuous
 62
     7
370
    25
100
AcDbLine
 10
21.0858260954
 20
-132.0
 30
0.0
 11
-21.0858260954
 21
-132.0
 31
0.0
  0
LINE
  5
1FF
330
1B
100
AcDbEntity
 67
     1
  8
0
  6
Continuous
 62
     7
370
    25
100
AcDbLine
 10
-21.0858260954
 20
-132.0
 30
0.0
 11
-21.8812006484
 21
-131.936332578
 31
0.0
  0
LINE
  5
200
330
1B
100
AcDbEntity
 67
     1
  8
0
  6
Continuous
 62
     7
370
    25
100
AcDbLine
 10
0.0
 20
-142.0
 30
0.0
 11
0.0
 21
-132.0
 31
0.0
  0
LINE
  5
201
330
1B
100
AcDbEntity
 67
     1
  8
0
  6
Continuous
 62
     7
370
    25
100
AcDbLine
 10
18.4403572884
 20
-136.8255025165
 30
0.0
 11
-18.4403572884
 21
-136.8255025165
 31
0.0
  0
LINE
  5
202
330
1B
100
AcDbEntity
 67
     1
  8
0
  6
Continuous
 62
     7
370
    25
100
AcDbLine
 10
32.7194147555
 20
-142.0
 30
0.0
 11
-32.7194147555
 21
-142.0
 31
0.0
  0
LINE
  5
203
330
1B
100
AcDbEntity
 67
     1
  8
0
  6
Continuous
 62
     7
370
    25
100
AcDbLine
 10
153.0885817674
 20
-91.2875365314
 30
0.0
 11
153.0761134809
 21
-91.0377249147
 31
0.0
  0
LINE
  5
204
330
1B
100
AcDbEntity
 67
     1
  8
0
  6
Continuous
 62
     8
370
    25
100
AcDbLine
 10
22.5695638539
 20
-59.2173714779
 30
0.0
 11
-22.5695638539
 21
-59.2173714779
 31
0.0
  0
LINE
  5
205
330
1B
100
AcDbEntity
 67
     1
  8
0
  6
Continuous
 62
     8
370
    25
100
AcDbLine
 10
-23.4902751981
 20
-59.5823259176
 30
0.0
 11
-22.2928296162
 21
-93.8726808926
 31
0.0
  0
LINE
  5
206
330
1B
100
AcDbEntity
 67
     1
  8
0
  6
Continuous
 62
     8
370
    25
100
AcDbLine
 10
22.2928296162
 20
-93.8726808926
 30
0.0
 11
23.4902751981
 21
-59.5823259176
 31
0.0
  0
LINE
  5
207
330
1B
100
AcDbEntity
 67
     1
  8
0
  6
Continuous
 62
     8
370
    25
100
AcDbLine
 10
-34.7181964095
 20
-140.0697989934
 30
0.0
 11
34.7181964095
 21
-140.0697989934
 31
0.0
  0
ARC
  5
208
330
1B
100
AcDbEntity
 67
     1
  8
0
  6
Continuous
 62
     7
370
    25
100
AcDbCircle
 10
-32.7194147555
 20
-140.0
 30
0.0
 40
2.000000000000085
100
AcDbArc
 50
182.0
 51
270.0
  0
ARC
  5
209
330
1B
100
AcDbEntity
 67
     1
  8
0
  6
Continuous
 62
     7
370
    25
100
AcDbCircle
 10
32.7194147555
 20
-140.0
 30
0.0
 40
2.000000000000085
100
AcDbArc
 50
270.0
 51
358.0
  0
ARC
  5
20A
330
1B
100
AcDbEntity
 67
     1
  8
0
  6
Continuous
 62
     7
370
    25
100
AcDbCircle
 10
110.75
 20
-40.0
 30
0.0
 40
10.00000000000002
100
AcDbArc
 50
270.0
 51
90.0
  0
ARC
  5
20B
330
1B
100
AcDbEntity
 67
     1
  8
0
  6
Continuous
 62
     7
370
    25
100
AcDbCircle
 10
99.25
 20
-40.0
 30
0.0
 40
10.0
100
AcDbArc
 50
90.0
 51
270.0
  0
ARC
  5
20C
330
1B
100
AcDbEntity
 67
     1
  8
0
  6
Continuous
 62
     7
370
    25
100
AcDbCircle
 10
-99.25
 20
-40.0
 30
0.0
 40
10.0
100
AcDbArc
 50
270.0
 51
90.0
  0
ARC
  5
20D
330
1B
100
AcDbEntity
 67
     1
  8
0
  6
Continuous
 62
     7
370
    25
100
AcDbCircle
 10
-110.75
 20
-40.0
 30
0.0
 40
10.0
100
AcDbArc
 50
90.0
 51
270.0
  0
ARC
  5
20E
330
1B
100
AcDbEntity
 67
     1
  8
0
  6
Continuous
 62
     7
370
    25
100
AcDbCircle
 10
150.0
 20
-90.0
 30
0.0
 40
19.99999999999997
100
AcDbArc
 50
0.0
 51
90.0
  0
ARC
  5
20F
330
1B
100
AcDbEntity
 67
     1
  8
0
  6
Continuous
 62
     7
370
    25
100
AcDbCircle
 10
0.0
 20
-117.5
 30
0.0
 40
72.49999999999997
100
AcDbArc
 50
40.9327245742
 51
139.0672754258
  0
ARC
  5
210
330
1B
100
AcDbEntity
 67
     1
  8
0
  6
Continuous
 62
     7
370
    25
100
AcDbCircle
 10
-150.0
 20
-90.0
 30
0.0
 40
20.00000000000004
100
AcDbArc
 50
90.0
 51
180.0
  0
ARC
  5
211
330
1B
100
AcDbEntity
 67
     1
  8
0
  6
Continuous
 62
     7
370
    25
100
AcDbCircle
 10
-200.0
 20
-125.0
 30
0.0
 40
5.000000000000028
100
AcDbArc
 50
180.0
 51
270.0
  0
ARC
  5
212
330
1B
100
AcDbEntity
 67
     1
  8
0
  6
Continuous
 62
     7
370
    25
100
AcDbCircle
 10
-220.0
 20
-90.0
 30
0.0
 40
14.99999999999999
100
AcDbArc
 50
0.0
 51
90.0
  0
ARC
  5
213
330
1B
100
AcDbEntity
 67
     1
  8
0
  6
Continuous
 62
     7
370
    25
100
AcDbCircle
 10
220.0
 20
-90.0
 30
0.0
 40
14.99999999999989
100
AcDbArc
 50
90.0
 51
180.0
  0
ARC
  5
214
330
1B
100
AcDbEntity
 67
     1
  8
0
  6
Continuous
 62
     7
370
    25
100
AcDbCircle
 10
200.0
 20
-125.0
 30
0.0
 40
5.000000000000028
100
AcDbArc
 50
270.0
 51
0.0
  0
ARC
  5
215
330
1B
100
AcDbEntity
 67
     1
  8
0
  6
Continuous
 62
     7
370
    25
100
AcDbCircle
 10
0.0
 20
-117.5
 30
0.0
 40
62.49999999999994
100
AcDbArc
 50
36.8698976458
 51
143.1301023542
  0
ARC
  5
216
330
1B
100
AcDbEntity
 67
     1
  8
0
  6
Continuous
 62
     7
370
    25
100
AcDbCircle
 10
-245.0
 20
-75.0
 30
0.0
 40
5.000000000000014
100
AcDbArc
 50
180.0
 51
270.0
  0
ARC
  5
217
330
1B
100
AcDbEntity
 67
     1
  8
0
  6
Continuous
 62
     7
370
    25
100
AcDbCircle
 10
150.0
 20
-90.0
 30
0.0
 40
10.00000000000003
100
AcDbArc
 50
0.0
 51
90.0
  0
ARC
  5
218
330
1B
100
AcDbEntity
 67
     1
  8
0
  6
Continuous
 62
     7
370
    25
100
AcDbCircle
 10
200.0
 20
-125.0
 30
0.0
 40
10.00000000000009
100
AcDbArc
 50
270.0
 51
0.0
  0
ARC
  5
219
330
1B
100
AcDbEntity
 67
     1
  8
0
  6
Continuous
 62
     7
370
    25
100
AcDbCircle
 10
-220.0
 20
-90.0
 30
0.0
 40
10.0
100
AcDbArc
 50
0.0
 51
90.0
  0
ARC
  5
21A
330
1B
100
AcDbEntity
 67
     1
  8
0
  6
Continuous
 62
     7
370
    25
100
AcDbCircle
 10
-150.0
 20
-90.0
 30
0.0
 40
10.0
100
AcDbArc
 50
90.0
 51
180.0
  0
ARC
  5
21B
330
1B
100
AcDbEntity
 67
     1
  8
0
  6
Continuous
 62
     7
370
    25
100
AcDbCircle
 10
245.0
 20
-75.0
 30
0.0
 40
5.000000000000014
100
AcDbArc
 50
270.0
 51
0.0
  0
ARC
  5
21C
330
1B
100
AcDbEntity
 67
     1
  8
0
  6
Continuous
 62
     7
370
    25
100
AcDbCircle
 10
220.0
 20
-90.0
 30
0.0
 40
10.0
100
AcDbArc
 50
90.0
 51
180.0
  0
ARC
  5
21D
330
1B
100
AcDbEntity
 67
     1
  8
0
  6
Continuous
 62
     7
370
    25
100
AcDbCircle
 10
-200.0
 20
-125.0
 30
0.0
 40
10.0
100
AcDbArc
 50
180.0
 51
270.0
  0
ARC
  5
21E
330
1B
100
AcDbEntity
 67
     1
  8
0
  6
Continuous
 62
     7
370
    25
100
AcDbCircle
 10
245.0
 20
-5.0
 30
0.0
 40
5.000000000000033
100
AcDbArc
 50
0.0
 51
90.0
  0
ARC
  5
21F
330
1B
100
AcDbEntity
 67
     1
  8
0
  6
Continuous
 62
     7
370
    25
100
AcDbCircle
 10
-245.0
 20
-5.0
 30
0.0
 40
5.000000000000057
100
AcDbArc
 50
90.0
 51
180.0
  0
ARC
  5
220
330
1B
100
AcDbEntity
 67
     1
  8
0
  6
Continuous
 62
     7
370
    25
100
AcDbCircle
 10
22.1624256458
 20
-106.331377318
 30
0.0
 40
4.66015554013948
100
AcDbArc
 50
265.4788855266
 51
353.4363539781
  0
ARC
  5
221
330
1B
100
AcDbEntity
 67
     1
  8
0
  6
Continuous
 62
     7
370
    25
100
AcDbCircle
 10
-22.1624256458
 20
-106.331377318
 30
0.0
 40
4.660155540139935
100
AcDbArc
 50
186.5636460219
 51
274.5211144734
  0
ARC
  5
222
330
1B
100
AcDbEntity
 67
     1
  8
0
  6
Continuous
 62
     7
370
    25
100
AcDbCircle
 10
-155.0158439473
 20
-95.6331036222
 30
0.0
 40
4.984188505414334
100
AcDbArc
 50
83.7158935946
 51
179.7932401259
  0
ARC
  5
223
330
1B
100
AcDbEntity
 67
     1
  8
0
  6
Continuous
 62
     7
370
    25
100
AcDbCircle
 10
21.5775811304
 20
-123.0791329925
 30
0.0
 40
4.660155540139634
100
AcDbArc
 50
265.4788855266
 51
353.4363539781
  0
ARC
  5
224
330
1B
100
AcDbEntity
 67
     1
  8
0
  6
Continuous
 62
     7
370
    25
100
AcDbCircle
 10
-21.5775811304
 20
-123.0791329925
 30
0.0
 40
4.660155540139534
100
AcDbArc
 50
186.5636460219
 51
274.5211144734
  0
ARC
  5
225
330
1B
100
AcDbEntity
 67
     1
  8
0
  6
Continuous
 62
     7
370
    25
100
AcDbCircle
 10
-21.0858260954
 20
-127.0
 30
0.0
 40
4.999999999999443
100
AcDbArc
 50
182.0
 51
222.2897504735
  0
ARC
  5
226
330
1B
100
AcDbEntity
 67
     1
  8
0
  6
Continuous
 62
     7
370
    25
100
AcDbCircle
 10
-26.647954528
 20
-139.0205291492
 30
0.0
 40
11.85950623804438
100
AcDbArc
 50
87.2684890195
 51
92.7315109805
  0
ARC
  5
227
330
1B
100
AcDbEntity
 67
     1
  8
0
  6
Continuous
 62
     7
370
    25
100
AcDbCircle
 10
26.647954528
 20
-139.0205291492
 30
0.0
 40
11.85950623802808
100
AcDbArc
 50
87.2684890195
 51
92.7315109805
  0
VIEWPORT
  5
39A
330
1B
100
AcDbEntity
 67
     1
  8
0
100
AcDbViewport
 10
0.0
 20
0.0
 30
0.0
 40
205.6
 41
156.0
 68
     1
 69
     1
 12
0.0
 22
-71.0
 13
0.0
 23
0.0
 14
10.0
 24
10.0
 15
10.0
 25
10.0
 16
0.0
 26
0.0
 36
1.0
 17
0.0
 27
0.0
 37
0.0
 42
50.0
 43
0.0
 44
0.0
 45
386.9649805447
 50
0.0
 51
0.0
 72
   100
 90
   557152
  1

281
     0
 71
     1
 74
     0
110
0.0
120
0.0
130
0.0
111
1.0
121
0.0
131
0.0
112
0.0
122
1.0
132
0.0
 79
     0
146
0.0
  0
ENDSEC
  0
SECTION
  2
OBJECTS
  0
DICTIONARY
  5
C
330
0
100
AcDbDictionary
281
     1
  3
ACAD_GROUP
350
D
  3
ACAD_LAYOUT
350
1A
  3
ACAD_MLINESTYLE
350
17
  3
ACAD_PLOTSETTINGS
350
19
  3
ACAD_PLOTSTYLENAME
350
E
  3
ACAD_SCALELIST
350
47
  0
DICTIONARY
  5
D
102
{ACAD_REACTORS
330
C
102
}
330
C
100
AcDbDictionary
281
     1
  0
DICTIONARY
  5
1A
102
{ACAD_REACTORS
330
C
102
}
330
C
100
AcDbDictionary
281
     1
  3
_Back
350
1E
  3
_Isometric
350
2DD
  3
_Right
350
26
  3
_Top
350
28D
  3
Model
350
22
  0
DICTIONARY
  5
17
102
{ACAD_REACTORS
330
C
102
}
330
C
100
AcDbDictionary
281
     1
  3
Standard
350
18
  0
DICTIONARY
  5
19
102
{ACAD_REACTORS
330
C
102
}
330
C
100
AcDbDictionary
281
     1
  0
ACDBDICTIONARYWDFLT
  5
E
102
{ACAD_REACTORS
330
C
102
}
330
C
100
AcDbDictionary
281
     1
  3
Normal
350
F
100
AcDbDictionaryWithDefault
340
F
  0
DICTIONARY
  5
47
102
{ACAD_REACTORS
330
C
102
}
330
C
100
AcDbDictionary
281
     1
  3
A0
350
48
  3
A1
350
49
  3
A2
350
4A
  3
A3
350
4B
  3
A4
350
4C
  3
A5
350
4D
  3
A6
350
4E
  3
A7
350
4F
  3
A8
350
50
  3
A9
350
51
  3
B0
350
52
  3
B1
350
53
  3
B2
350
54
  3
B3
350
55
  3
B4
350
56
  3
B5
350
57
  3
B6
350
58
  3
B7
350
59
  3
B8
350
5A
  3
B9
350
5B
  3
C0
350
5C
  3
C1
350
5D
  3
C2
350
5E
  3
C3
350
5F
  3
C4
350
60
  3
C5
350
61
  3
C6
350
62
  3
C7
350
63
  3
C8
350
64
  3
C9
350
65
  3
D0
350
66
  3
D1
350
67
  3
D2
350
68
  0
LAYOUT
  5
1E
102
{ACAD_REACTORS
330
1A
102
}
330
1A
100
AcDbPlotSettings
  1

  2
none_device
  4
ISO_A4_(210.00_x_297.00_MM)
  6

 40
7.5
 41
20.0
 42
7.5
 43
20.0
 44
210.0
 45
297.0
 46
0.0
 47
0.0
 48
0.0
 49
0.0
140
0.0
141
0.0
142
1.0
143
1.9455252918
 70
   688
 72
     1
 73
     1
 74
     1
  7

 75
     0
147
0.514
148
250.0
149
142.0
100
AcDbLayout
  1
_Back
 70
     1
 71
     1
 10
-288.9105058366
 20
-156.5914396887
 11
288.9105058366
 21
251.9688715953
 12
0.0
 22
0.0
 32
0.0
 14
-250.0
 24
-142.0
 34
0.0
 15
250.0
 25
0.0
 35
0.0
146
0.0
 13
0.0
 23
0.0
 33
0.0
 16
1.0
 26
0.0
 36
0.0
 17
0.0
 27
1.0
 37
0.0
 76
     0
330
1B
331
39A
  0
LAYOUT
  5
2DD
102
{ACAD_REACTORS
330
1A
102
}
330
1A
100
AcDbPlotSettings
  1

  2
none_device
  4
ISO_A4_(210.00_x_297.00_MM)
  6

 40
7.5
 41
20.0
 42
7.5
 43
20.0
 44
210.0
 45
297.0
 46
0.0
 47
0.0
 48
0.0
 49
0.0
140
0.0
141
0.0
142
1.0
143
1.9455252918
 70
   688
 72
     1
 73
     1
 74
     1
  7

 75
     0
147
0.514
148
250.0
149
142.0
100
AcDbLayout
  1
_Isometric
 70
     1
 71
     4
 10
0.0
 20
0.0
 11
0.0
 21
0.0
 12
0.0
 22
0.0
 32
0.0
 14
0.0
 24
0.0
 34
0.0
 15
0.0
 25
0.0
 35
0.0
146
0.0
 13
0.0
 23
0.0
 33
0.0
 16
1.0
 26
0.0
 36
0.0
 17
0.0
 27
1.0
 37
0.0
 76
     0
330
2DC
331
3A0
  0
LAYOUT
  5
26
102
{ACAD_REACTORS
330
1A
102
}
330
1A
100
AcDbPlotSettings
  1

  2
none_device
  4
ISO_A4_(210.00_x_297.00_MM)
  6

 40
7.5
 41
20.0
 42
7.5
 43
20.0
 44
210.0
 45
297.0
 46
0.0
 47
0.0
 48
0.0
 49
0.0
140
0.0
141
0.0
142
1.0
143
1.9455252918
 70
   688
 72
     1
 73
     1
 74
     1
  7

 75
     0
147
0.514
148
250.0
149
142.0
100
AcDbLayout
  1
_Right
 70
     1
 71
     2
 10
0.0
 20
0.0
 11
0.0
 21
0.0
 12
0.0
 22
0.0
 32
0.0
 14
0.0
 24
0.0
 34
0.0
 15
0.0
 25
0.0
 35
0.0
146
0.0
 13
0.0
 23
0.0
 33
0.0
 16
1.0
 26
0.0
 36
0.0
 17
0.0
 27
1.0
 37
0.0
 76
     0
330
23
331
39C
  0
LAYOUT
  5
28D
102
{ACAD_REACTORS
330
1A
102
}
330
1A
100
AcDbPlotSettings
  1

  2
none_device
  4
ISO_A4_(210.00_x_297.00_MM)
  6

 40
7.5
 41
20.0
 42
7.5
 43
20.0
 44
210.0
 45
297.0
 46
0.0
 47
0.0
 48
0.0
 49
0.0
140
0.0
141
0.0
142
1.0
143
1.9455252918
 70
   688
 72
     1
 73
     1
 74
     1
  7

 75
     0
147
0.514
148
250.0
149
142.0
100
AcDbLayout
  1
_Top
 70
     1
 71
     3
 10
0.0
 20
0.0
 11
0.0
 21
0.0
 12
0.0
 22
0.0
 32
0.0
 14
0.0
 24
0.0
 34
0.0
 15
0.0
 25
0.0
 35
0.0
146
0.0
 13
0.0
 23
0.0
 33
0.0
 16
1.0
 26
0.0
 36
0.0
 17
0.0
 27
1.0
 37
0.0
 76
     0
330
28C
331
39E
  0
LAYOUT
  5
22
102
{ACAD_REACTORS
330
1A
102
}
330
1A
100
AcDbPlotSettings
  1

  2
none_device
  4
ANSI_A_(11.00_x_8.50_Inches)
  6

 40
6.35
 41
19.05
 42
6.35000508
 43
19.05000254
 44
279.4
 45
215.9
 46
133.34999746
 47
128.17805073
 48
0.0
 49
0.0
140
0.0
141
0.0
142
0.02178
143
1.0
 70
  1696
 72
     0
 73
     0
 74
     0
  7

 75
     0
147
0.0179189148
148
-1300.4909072572
149
0.0
100
AcDbLayout
  1
Model
 70
     1
 71
     0
 10
0.0
 20
0.0
 11
420.0
 21
297.0
 12
0.0
 22
0.0
 32
0.0
 14
-250.0
 24
-142.0
 34
0.0
 15
250.0
 25
0.0
 35
0.0
146
0.0
 13
0.0
 23
0.0
 33
0.0
 16
1.0
 26
0.0
 36
0.0
 17
0.0
 27
1.0
 37
0.0
 76
     0
330
1F
331
29
  0
MLINESTYLE
  5
18
102
{ACAD_REACTORS
330
17
102
}
330
17
100
AcDbMlineStyle
  2
Standard
 70
     0
  3

 62
   256
 51
90.0
 52
90.0
 71
     2
 49
0.5
 62
   256
  6
BYLAYER
 49
-0.5
 62
   256
  6
BYLAYER
  0
ACDBPLACEHOLDER
  5
F
102
{ACAD_REACTORS
330
E
102
}
330
E
  0
SCALE
  5
48
102
{ACAD_REACTORS
330
47
102
}
330
47
100
AcDbScale
 70
     0
300
1:1
140
1.0
141
1.0
290
     1
  0
SCALE
  5
49
102
{ACAD_REACTORS
330
47
102
}
330
47
100
AcDbScale
 70
     0
300
1:2
140
1.0
141
2.0
290
     0
  0
SCALE
  5
4A
102
{ACAD_REACTORS
330
47
102
}
330
47
100
AcDbScale
 70
     0
300
1:4
140
1.0
141
4.0
290
     0
  0
SCALE
  5
4B
102
{ACAD_REACTORS
330
47
102
}
330
47
100
AcDbScale
 70
     0
300
1:5
140
1.0
141
5.0
290
     0
  0
SCALE
  5
4C
102
{ACAD_REACTORS
330
47
102
}
330
47
100
AcDbScale
 70
     0
300
1:8
140
1.0
141
8.0
290
     0
  0
SCALE
  5
4D
102
{ACAD_REACTORS
330
47
102
}
330
47
100
AcDbScale
 70
     0
300
1:10
140
1.0
141
10.0
290
     0
  0
SCALE
  5
4E
102
{ACAD_REACTORS
330
47
102
}
330
47
100
AcDbScale
 70
     0
300
1:16
140
1.0
141
16.0
290
     0
  0
SCALE
  5
4F
102
{ACAD_REACTORS
330
47
102
}
330
47
100
AcDbScale
 70
     0
300
1:20
140
1.0
141
20.0
290
     0
  0
SCALE
  5
50
102
{ACAD_REACTORS
330
47
102
}
330
47
100
AcDbScale
 70
     0
300
1:30
140
1.0
141
30.0
290
     0
  0
SCALE
  5
51
102
{ACAD_REACTORS
330
47
102
}
330
47
100
AcDbScale
 70
     0
300
1:40
140
1.0
141
40.0
290
     0
  0
SCALE
  5
52
102
{ACAD_REACTORS
330
47
102
}
330
47
100
AcDbScale
 70
     0
300
1:50
140
1.0
141
50.0
290
     0
  0
SCALE
  5
53
102
{ACAD_REACTORS
330
47
102
}
330
47
100
AcDbScale
 70
     0
300
1:100
140
1.0
141
100.0
290
     0
  0
SCALE
  5
54
102
{ACAD_REACTORS
330
47
102
}
330
47
100
AcDbScale
 70
     0
300
2:1
140
2.0
141
1.0
290
     0
  0
SCALE
  5
55
102
{ACAD_REACTORS
330
47
102
}
330
47
100
AcDbScale
 70
     0
300
4:1
140
4.0
141
1.0
290
     0
  0
SCALE
  5
56
102
{ACAD_REACTORS
330
47
102
}
330
47
100
AcDbScale
 70
     0
300
8:1
140
8.0
141
1.0
290
     0
  0
SCALE
  5
57
102
{ACAD_REACTORS
330
47
102
}
330
47
100
AcDbScale
 70
     0
300
10:1
140
10.0
141
1.0
290
     0
  0
SCALE
  5
58
102
{ACAD_REACTORS
330
47
102
}
330
47
100
AcDbScale
 70
     0
300
100:1
140
100.0
141
1.0
290
     0
  0
SCALE
  5
59
102
{ACAD_REACTORS
330
47
102
}
330
47
100
AcDbScale
 70
     0
300
1/128" = 1'-0"
140
0.0078125
141
12.0
290
     0
  0
SCALE
  5
5A
102
{ACAD_REACTORS
330
47
102
}
330
47
100
AcDbScale
 70
     0
300
1/64" = 1'-0"
140
0.015625
141
12.0
290
     0
  0
SCALE
  5
5B
102
{ACAD_REACTORS
330
47
102
}
330
47
100
AcDbScale
 70
     0
300
1/32" = 1'-0"
140
0.03125
141
12.0
290
     0
  0
SCALE
  5
5C
102
{ACAD_REACTORS
330
47
102
}
330
47
100
AcDbScale
 70
     0
300
1/16" = 1'-0"
140
0.0625
141
12.0
290
     0
  0
SCALE
  5
5D
102
{ACAD_REACTORS
330
47
102
}
330
47
100
AcDbScale
 70
     0
300
3/32" = 1'-0"
140
0.09375
141
12.0
290
     0
  0
SCALE
  5
5E
102
{ACAD_REACTORS
330
47
102
}
330
47
100
AcDbScale
 70
     0
300
1/8" = 1'-0"
140
0.125
141
12.0
290
     0
  0
SCALE
  5
5F
102
{ACAD_REACTORS
330
47
102
}
330
47
100
AcDbScale
 70
     0
300
3/16" = 1'-0"
140
0.1875
141
12.0
290
     0
  0
SCALE
  5
60
102
{ACAD_REACTORS
330
47
102
}
330
47
100
AcDbScale
 70
     0
300
1/4" = 1'-0"
140
0.25
141
12.0
290
     0
  0
SCALE
  5
61
102
{ACAD_REACTORS
330
47
102
}
330
47
100
AcDbScale
 70
     0
300
3/8" = 1'-0"
140
0.375
141
12.0
290
     0
  0
SCALE
  5
62
102
{ACAD_REACTORS
330
47
102
}
330
47
100
AcDbScale
 70
     0
300
1/2" = 1'-0"
140
0.5
141
12.0
290
     0
  0
SCALE
  5
63
102
{ACAD_REACTORS
330
47
102
}
330
47
100
AcDbScale
 70
     0
300
3/4" = 1'-0"
140
0.75
141
12.0
290
     0
  0
SCALE
  5
64
102
{ACAD_REACTORS
330
47
102
}
330
47
100
AcDbScale
 70
     0
300
1" = 1'-0"
140
1.0
141
12.0
290
     0
  0
SCALE
  5
65
102
{ACAD_REACTORS
330
47
102
}
330
47
100
AcDbScale
 70
     0
300
1-1/2" = 1'-0"
140
1.5
141
12.0
290
     0
  0
SCALE
  5
66
102
{ACAD_REACTORS
330
47
102
}
330
47
100
AcDbScale
 70
     0
300
3" = 1'-0"
140
3.0
141
12.0
290
     0
  0
SCALE
  5
67
102
{ACAD_REACTORS
330
47
102
}
330
47
100
AcDbScale
 70
     0
300
6" = 1'-0"
140
6.0
141
12.0
290
     0
  0
SCALE
  5
68
102
{ACAD_REACTORS
330
47
102
}
330
47
100
AcDbScale
 70
     0
300
1'-0" = 1'-0"
140
12.0
141
12.0
290
     0
  0
ENDSEC
  0
EOF
