  0
SECTION
  2
HEADER
  9
$ACADVER
  1
AC1015
  9
$ACADMAINTVER
 70
     6
  9
$DWGCODEPAGE
  3
ANSI_1252
  9
$INSBASE
 10
0.0
 20
0.0
 30
0.0
  9
$EXTMIN
 10
-300.0
 20
-210.0
 30
0.0
  9
$EXTMAX
 10
300.0
 20
210.0
 30
0.0
  9
$LIMMIN
 10
0.0
 20
0.0
  9
$LIMMAX
 10
420.0
 20
297.0
  9
$ORTHOMODE
 70
     0
  9
$REGENMODE
 70
     1
  9
$FILLMODE
 70
     1
  9
$QTEXTMODE
 70
     0
  9
$MIRRTEXT
 70
     1
  9
$LTSCALE
 40
1.0
  9
$ATTMODE
 70
     1
  9
$TEXTSIZE
 40
3.5
  9
$TRACEWID
 40
1.0
  9
$TEXTSTYLE
  7
Standard
  9
$CLAYER
  8
0
  9
$CELTYPE
  6
ByLayer
  9
$CECOLOR
 62
   256
  9
$CELTSCALE
 40
1.0
  9
$DISPSILH
 70
     0
  9
$DIMSCALE
 40
1.0
  9
$DIMASZ
 40
3.302
  9
$DIMEXO
 40
1.0
  9
$DIMDLI
 40
3.75
  9
$DIMRND
 40
0.0
  9
$DIMDLE
 40
0.0
  9
$DIMEXE
 40
1.0
  9
$DIMTP
 40
0.0
  9
$DIMTM
 40
0.0
  9
$DIMTXT
 40
3.5
  9
$DIMCEN
 40
2.5
  9
$DIMTSZ
 40
0.0
  9
$DIMTOL
 70
     0
  9
$DIMLIM
 70
     0
  9
$DIMTIH
 70
     1
  9
$DIMTOH
 70
     1
  9
$DIMSE1
 70
     0
  9
$DIMSE2
 70
     0
  9
$DIMTAD
 70
     1
  9
$DIMZIN
 70
     0
  9
$DIMBLK
  1

  9
$DIMASO
 70
     1
  9
$DIMSHO
 70
     1
  9
$DIMPOST
  1

  9
$DIMAPOST
  1

  9
$DIMALT
 70
     0
  9
$DIMALTD
 70
     3
  9
$DIMALTF
 40
0.0393700787
  9
$DIMLFAC
 40
1.0
  9
$DIMTOFL
 70
     1
  9
$DIMTVP
 40
0.0
  9
$DIMTIX
 70
     0
  9
$DIMSOXD
 70
     0
  9
$DIMSAH
 70
     0
  9
$DIMBLK1
  1

  9
$DIMBLK2
  1

  9
$DIMSTYLE
  2
ISO-25
  9
$DIMCLRD
 70
     0
  9
$DIMCLRE
 70
     0
  9
$DIMCLRT
 70
     0
  9
$DIMTFAC
 40
1.0
  9
$DIMGAP
 40
1.524
  9
$DIMJUST
 70
     0
  9
$DIMSD1
 70
     0
  9
$DIMSD2
 70
     0
  9
$DIMTOLJ
 70
     0
  9
$DIMTZIN
 70
     0
  9
$DIMALTZ
 70
     0
  9
$DIMALTTZ
 70
     0
  9
$DIMUPT
 70
     0
  9
$DIMDEC
 70
     2
  9
$DIMTDEC
 70
     2
  9
$DIMALTU
 70
     2
  9
$DIMALTTD
 70
     3
  9
$DIMTXSTY
  7
Standard
  9
$DIMAUNIT
 70
     0
  9
$DIMADEC
 70
     2
  9
$DIMALTRND
 40
0.0
  9
$DIMAZIN
 70
     0
  9
$DIMDSEP
 70
    44
  9
$DIMATFIT
 70
     3
  9
$DIMFRAC
 70
     0
  9
$DIMLDRBLK
  1

  9
$DIMLUNIT
 70
     2
  9
$DIMLWD
 70
    -2
  9
$DIMLWE
 70
    -2
  9
$DIMTMOVE
 70
     0
  9
$LUNITS
 70
     2
  9
$LUPREC
 70
     2
  9
$SKETCHINC
 40
1.0
  9
$FILLETRAD
 40
10.0
  9
$AUNITS
 70
     0
  9
$AUPREC
 70
     2
  9
$MENU
  1
.
  9
$ELEVATION
 40
0.0
  9
$PELEVATION
 40
0.0
  9
$THICKNESS
 40
0.0
  9
$LIMCHECK
 70
     0
  9
$CHAMFERA
 40
0.0
  9
$CHAMFERB
 40
0.0
  9
$CHAMFERC
 40
0.0
  9
$CHAMFERD
 40
0.0
  9
$SKPOLY
 70
     0
  9
$TDCREATE
 40
2460411.605561771
  9
$TDUCREATE
 40
2460411.563895104
  9
$TDUPDATE
 40
2460411.605856169
  9
$TDUUPDATE
 40
2460411.564189503
  9
$TDINDWG
 40
0.0000000116
  9
$TDUSRTIMER
 40
0.0000000116
  9
$USRTIMER
 70
     1
  9
$ANGBASE
 50
0.0
  9
$ANGDIR
 70
     0
  9
$PDMODE
 70
     0
  9
$PDSIZE
 40
-1.0
  9
$PLINEWID
 40
0.0
  9
$SPLFRAME
 70
     0
  9
$SPLINETYPE
 70
     6
  9
$SPLINESEGS
 70
     8
  9
$HANDSEED
  5
353
  9
$SURFTAB1
 70
     6
  9
$SURFTAB2
 70
     6
  9
$SURFTYPE
 70
     6
  9
$SURFU
 70
     6
  9
$SURFV
 70
     6
  9
$UCSBASE
  2

  9
$UCSNAME
  2

  9
$UCSORG
 10
0.0
 20
0.0
 30
0.0
  9
$UCSXDIR
 10
1.0
 20
0.0
 30
0.0
  9
$UCSYDIR
 10
0.0
 20
1.0
 30
0.0
  9
$UCSORTHOREF
  2

  9
$UCSORTHOVIEW
 70
     0
  9
$UCSORGTOP
 10
0.0
 20
0.0
 30
0.0
  9
$UCSORGBOTTOM
 10
0.0
 20
0.0
 30
0.0
  9
$UCSORGLEFT
 10
0.0
 20
0.0
 30
0.0
  9
$UCSORGRIGHT
 10
0.0
 20
0.0
 30
0.0
  9
$UCSORGFRONT
 10
0.0
 20
0.0
 30
0.0
  9
$UCSORGBACK
 10
0.0
 20
0.0
 30
0.0
  9
$PUCSBASE
  2

  9
$PUCSNAME
  2

  9
$PUCSORG
 10
0.0
 20
0.0
 30
0.0
  9
$PUCSXDIR
 10
1.0
 20
0.0
 30
0.0
  9
$PUCSYDIR
 10
0.0
 20
1.0
 30
0.0
  9
$PUCSORTHOREF
  2

  9
$PUCSORTHOVIEW
 70
     0
  9
$PUCSORGTOP
 10
0.0
 20
0.0
 30
0.0
  9
$PUCSORGBOTTOM
 10
0.0
 20
0.0
 30
0.0
  9
$PUCSORGLEFT
 10
0.0
 20
0.0
 30
0.0
  9
$PUCSORGRIGHT
 10
0.0
 20
0.0
 30
0.0
  9
$PUCSORGFRONT
 10
0.0
 20
0.0
 30
0.0
  9
$PUCSORGBACK
 10
0.0
 20
0.0
 30
0.0
  9
$USERI1
 70
     0
  9
$USERI2
 70
     0
  9
$USERI3
 70
     0
  9
$USERI4
 70
     0
  9
$USERI5
 70
     0
  9
$USERR1
 40
0.0
  9
$USERR2
 40
0.0
  9
$USERR3
 40
0.0
  9
$USERR4
 40
0.0
  9
$USERR5
 40
0.0
  9
$WORLDVIEW
 70
     1
  9
$SHADEDGE
 70
     3
  9
$SHADEDIF
 70
    70
  9
$TILEMODE
 70
     1
  9
$MAXACTVP
 70
    64
  9
$PINSBASE
 10
0.0
 20
0.0
 30
0.0
  9
$PLIMCHECK
 70
     0
  9
$PEXTMIN
 10
-300.0
 20
-20.0
 30
0.0
  9
$PEXTMAX
 10
300.0
 20
130.0
 30
0.0
  9
$PLIMMIN
 10
-346.6926070039
 20
-37.5097276265
  9
$PLIMMAX
 10
346.6926070039
 20
452.7626459144
  9
$UNITMODE
 70
     0
  9
$VISRETAIN
 70
     1
  9
$PLINEGEN
 70
     0
  9
$PSLTSCALE
 70
     1
  9
$TREEDEPTH
 70
  3020
  9
$CMLSTYLE
  2
Standard
  9
$CMLJUST
 70
     0
  9
$CMLSCALE
 40
20.0
  9
$PROXYGRAPHICS
 70
     1
  9
$MEASUREMENT
 70
     1
  9
$CELWEIGHT
370
    -1
  9
$ENDCAPS
280
     0
  9
$JOINSTYLE
280
     0
  9
$LWDISPLAY
290
     1
  9
$INSUNITS
 70
     4
  9
$HYPERLINKBASE
  1

  9
$STYLESHEET
  1

  9
$XEDIT
290
     1
  9
$CEPSNTYPE
380
     0
  9
$PSTYLEMODE
290
     1
  9
$FINGERPRINTGUID
  2
{a6964f37-237f-41de-b9f8-02db16210028}
  9
$VERSIONGUID
  2
{FAEB1C32-E019-11D5-929B-00C0DF256EC4}
  9
$EXTNAMES
290
     1
  9
$PSVPSCALE
 40
0.0
  9
$OLESTARTUP
290
     0
  0
ENDSEC
  0
SECTION
  2
CLASSES
  0
CLASS
  1
ACDBDICTIONARYWDFLT
  2
AcDbDictionaryWithDefault
  3
ObjectDBX Classes
 90
        0
280
     0
281
     0
  0
CLASS
  1
VISUALSTYLE
  2
AcDbVisualStyle
  3
ObjectDBX Classes
 90
     4095
280
     0
281
     0
  0
CLASS
  1
MATERIAL
  2
AcDbMaterial
  3
ObjectDBX Classes
 90
     1153
280
     0
281
     0
  0
CLASS
  1
SCALE
  2
AcDbScale
  3
ObjectDBX Classes
 90
     1153
280
     0
281
     0
  0
CLASS
  1
TABLESTYLE
  2
AcDbTableStyle
  3
ObjectDBX Classes
 90
     4095
280
     0
281
     0
  0
CLASS
  1
MLEADERSTYLE
  2
AcDbMLeaderStyle
  3
ACDB_MLEADERSTYLE_CLASS
 90
     4095
280
     0
281
     0
  0
CLASS
  1
SUN
  2
AcDbSun
  3
SCENEOE
 90
     1153
280
     0
281
     0
  0
CLASS
  1
ACDBPLACEHOLDER
  2
AcDbPlaceHolder
  3
ObjectDBX Classes
 90
        0
280
     0
281
     0
  0
CLASS
  1
LAYOUT
  2
AcDbLayout
  3
ObjectDBX Classes
 90
        0
280
     0
281
     0
  0
ENDSEC
  0
SECTION
  2
TABLES
  0
TABLE
  2
VPORT
  5
8
330
0
100
AcDbSymbolTable
 70
     1
  0
VPORT
  5
29
330
8
100
AcDbSymbolTableRecord
100
AcDbViewportTableRecord
  2
*Active
 70
     0
 10
0.0
 20
0.0
 11
1.0
 21
1.0
 12
0.0
 22
0.0
 13
0.0
 23
0.0
 14
10.0
 24
10.0
 15
10.0
 25
10.0
 16
0.0
 26
0.0
 36
1.0
 17
0.0
 27
0.0
 37
0.0
 40
428.4
 41
1.4285714286
 42
50.0
 43
0.0
 44
0.0
 50
0.0
 51
0.0
 71
     0
 72
   100
 73
     1
 74
     3
 75
     0
 76
     0
 77
     0
 78
     0
281
     0
 65
     1
110
0.0
120
0.0
130
0.0
111
1.0
121
0.0
131
0.0
112
0.0
122
1.0
132
0.0
 79
     0
146
0.0
  0
ENDTAB
  0
TABLE
  2
LTYPE
  5
5
330
0
100
AcDbSymbolTable
 70
     6
  0
LTYPE
  5
14
330
5
100
AcDbSymbolTableRecord
100
AcDbLinetypeTableRecord
  2
ByBlock
 70
     0
  3

 72
    65
 73
     0
 40
0.0
  0
LTYPE
  5
15
330
5
100
AcDbSymbolTableRecord
100
AcDbLinetypeTableRecord
  2
ByLayer
 70
     0
  3

 72
    65
 73
     0
 40
0.0
  0
LTYPE
  5
16
330
5
100
AcDbSymbolTableRecord
100
AcDbLinetypeTableRecord
  2
Continuous
 70
     0
  3
Solid line
 72
    65
 73
     0
 40
0.0
  0
LTYPE
  5
6E
330
5
100
AcDbSymbolTableRecord
100
AcDbLinetypeTableRecord
  2
HIDDEN
 70
     0
  3
Hidden __ __ __ __ __ __ __ __ __ __ __ __ __ __
 72
    65
 73
     2
 40
1.905
 49
1.27
 74
     0
 49
-0.635
 74
     0
  0
LTYPE
  5
6F
330
5
100
AcDbSymbolTableRecord
100
AcDbLinetypeTableRecord
  2
PHANTOM
 70
     0
  3
Phantom ______  __  __  ______  __  __  ______
 72
    65
 73
     6
 40
12.7
 49
6.35
 74
     0
 49
-1.27
 74
     0
 49
1.27
 74
     0
 49
-1.27
 74
     0
 49
1.27
 74
     0
 49
-1.27
 74
     0
  0
LTYPE
  5
70
330
5
100
AcDbSymbolTableRecord
100
AcDbLinetypeTableRecord
  2
CENTER
 70
     0
  3
Center ____ _ ____ _ ____ _ ____ _ ____ _ ____
 72
    65
 73
     4
 40
10.16
 49
6.35
 74
     0
 49
-1.27
 74
     0
 49
1.27
 74
     0
 49
-1.27
 74
     0
  0
LTYPE
  5
71
330
5
100
AcDbSymbolTableRecord
100
AcDbLinetypeTableRecord
  2
CENTERX2
 70
     0
  3
Center (2x) ________  __  ________  __  _____
 72
    65
 73
     4
 40
20.32
 49
12.7
 74
     0
 49
-2.54
 74
     0
 49
2.54
 74
     0
 49
-2.54
 74
     0
  0
LTYPE
  5
72
330
5
100
AcDbSymbolTableRecord
100
AcDbLinetypeTableRecord
  2
DOT2
 70
     0
  3
Dot (.5x) ........................................
 72
    65
 73
     2
 40
0.635
 49
0.0
 74
     0
 49
-0.635
 74
     0
  0
ENDTAB
  0
TABLE
  2
LAYER
  5
2
330
0
100
AcDbSymbolTable
 70
     1
  0
LAYER
  5
10
330
2
100
AcDbSymbolTableRecord
100
AcDbLayerTableRecord
  2
0
 70
     0
 62
     7
  6
Continuous
370
    -3
390
F
  0
ENDTAB
  0
TABLE
  2
STYLE
  5
3
330
0
100
AcDbSymbolTable
 70
     1
  0
STYLE
  5
11
330
3
100
AcDbSymbolTableRecord
100
AcDbTextStyleTableRecord
  2
Standard
 70
     0
 40
0.0
 41
1.0
 50
0.0
 71
     0
 42
3.5
  3
txt
  4

  0
ENDTAB
  0
TABLE
  2
VIEW
  5
6
330
0
100
AcDbSymbolTable
 70
     0
  0
ENDTAB
  0
TABLE
  2
UCS
  5
7
330
0
100
AcDbSymbolTable
 70
     0
  0
ENDTAB
  0
TABLE
  2
APPID
  5
9
330
0
100
AcDbSymbolTable
 70
     1
  0
APPID
  5
12
330
9
100
AcDbSymbolTableRecord
100
AcDbRegAppTableRecord
  2
ACAD
 70
     0
  0
ENDTAB
  0
TABLE
  2
DIMSTYLE
  5
A
330
0
100
AcDbSymbolTable
 70
     1
100
AcDbDimStyleTable
  0
DIMSTYLE
105
27
330
A
100
AcDbSymbolTableRecord
100
AcDbDimStyleTableRecord
  2
ISO-25
 70
     0
 41
2.5
 42
0.625
 43
3.75
 44
1.25
 73
     0
 74
     0
 77
     1
 78
     8
140
2.5
141
2.5
143
0.0393700787
147
0.625
171
     3
172
     1
178
     0
271
     2
272
     2
274
     3
278
    44
283
     0
284
     8
340
11
  0
ENDTAB
  0
TABLE
  2
BLOCK_RECORD
  5
1
330
0
100
AcDbSymbolTable
 70
     3
  0
BLOCK_RECORD
  5
1F
330
1
100
AcDbSymbolTableRecord
100
AcDbBlockTableRecord
  2
*Model_Space
340
22
  0
BLOCK_RECORD
  5
1B
330
1
100
AcDbSymbolTableRecord
100
AcDbBlockTableRecord
  2
*Paper_Space
340
1E
  0
BLOCK_RECORD
  5
23
330
1
100
AcDbSymbolTableRecord
100
AcDbBlockTableRecord
  2
*Paper_Space0
340
26
  0
BLOCK_RECORD
  5
194
330
1
100
AcDbSymbolTableRecord
100
AcDbBlockTableRecord
  2
*Paper_Space1
340
195
  0
BLOCK_RECORD
  5
26E
330
1
100
AcDbSymbolTableRecord
100
AcDbBlockTableRecord
  2
*Paper_Space2
340
26F
  0
ENDTAB
  0
ENDSEC
  0
SECTION
  2
BLOCKS
  0
BLOCK
  5
20
330
1F
100
AcDbEntity
  8
0
100
AcDbBlockBegin
  2
*Model_Space
 70
     0
 10
0.0
 20
0.0
 30
0.0
  3
*Model_Space
  1

  0
ENDBLK
  5
21
330
1F
100
AcDbEntity
  8
0
100
AcDbBlockEnd
  0
BLOCK
  5
1C
330
1B
100
AcDbEntity
 67
     1
  8
0
100
AcDbBlockBegin
  2
*Paper_Space
 70
     0
 10
0.0
 20
0.0
 30
0.0
  3
*Paper_Space
  1

  0
ENDBLK
  5
1D
330
1B
100
AcDbEntity
 67
     1
  8
0
100
AcDbBlockEnd
  0
BLOCK
  5
24
330
23
100
AcDbEntity
  8
0
100
AcDbBlockBegin
  2
*Paper_Space0
 70
     0
 10
0.0
 20
0.0
 30
0.0
  3
*Paper_Space0
  1

  0
LWPOLYLINE
  5
161
330
23
100
AcDbEntity
  8
0
  6
Continuous
 62
     7
370
    25
100
AcDbPolyline
 90
        9
 70
   128
 43
0.0
 10
-205.0
 20
130.0
 10
-205.195090322
 20
129.903926402
 10
-205.3826834324
 20
129.6193976626
 10
-205.555570233
 20
129.1573480615
 10
-205.7071067812
 20
128.5355339059
 10
-205.8314696123
 20
127.7778511651
 10
-205.9238795325
 20
126.9134171618
 10
-205.9807852804
 20
125.9754516101
 10
-206.0
 20
125.0
  0
LWPOLYLINE
  5
162
330
23
100
AcDbEntity
  8
0
  6
Continuous
 62
     7
370
    25
100
AcDbPolyline
 90
        9
 70
   128
 43
0.0
 10
206.0
 20
125.0
 10
205.9807852804
 20
125.9754516101
 10
205.9238795325
 20
126.9134171618
 10
205.8314696123
 20
127.7778511651
 10
205.7071067812
 20
128.5355339059
 10
205.555570233
 20
129.1573480615
 10
205.3826834324
 20
129.6193976626
 10
205.195090322
 20
129.903926402
 10
205.0
 20
130.0
  0
SPLINE
  5
165
330
23
100
AcDbEntity
  8
0
  6
Continuous
 62
     7
370
    25
100
AcDbSpline
210
0.0
220
0.0
230
1.0
 70
     8
 71
     3
 72
    24
 73
    20
 74
     0
 42
0.000000001
 43
0.00000001
 40
0.0
 40
0.0
 40
0.0
 40
0.0
 40
0.1250000000000001
 40
0.1250000000000001
 40
0.2500000000000002
 40
0.2500000000000002
 40
0.3750000000000003
 40
0.3750000000000003
 40
0.5000000000000004
 40
0.5000000000000004
 40
0.6250000000000006
 40
0.6250000000000006
 40
0.7500000000000007
 40
0.7500000000000007
 40
0.8125000000000006
 40
0.8125000000000006
 40
0.8750000000000006
 40
0.8750000000000006
 40
1.0
 40
1.0
 40
1.0
 40
1.0
 10
-16.71166030098304
 20
-12.89530150989252
 30
0.0
 10
-16.48536856104583
 20
-12.89530150989253
 30
0.0
 10
-16.25735208866704
 20
-12.85986436251585
 30
0.0
 10
-15.79811000756894
 20
-12.72355036350045
 30
0.0
 10
-15.56555637775766
 20
-12.62186337696719
 30
0.0
 10
-15.10435347828865
 20
-12.3546677818233
 30
0.0
 10
-14.87821870567405
 20
-12.19104261184584
 30
0.0
 10
-14.43707325197685
 20
-11.80340906389536
 30
0.0
 10
-14.22027866503328
 20
-11.57698679632345
 30
0.0
 10
-13.81447956539466
 20
-11.07119162895906
 30
0.0
 10
-13.62473134529981
 20
-10.79198381182497
 30
0.0
 10
-13.27845076760115
 20
-10.17466568310059
 30
0.0
 10
-13.12180011475455
 20
-9.834432396708143
 30
0.0
 10
-12.92961025907262
 20
-9.2949978027686
 30
0.0
 10
-12.8722223139668
 20
-9.10955538439169
 30
0.0
 10
-12.77232849365715
 20
-8.726470577400988
 30
0.0
 10
-12.72991877917387
 20
-8.528519990661856
 30
0.0
 10
-12.63014547750953
 20
-7.93106351839877
 30
0.0
 10
-12.59855584201296
 20
-7.523080898287598
 30
0.0
 10
-12.60517511667992
 20
-7.104698490107531
 30
0.0
  0
SPLINE
  5
16B
330
23
100
AcDbEntity
  8
0
  6
Continuous
 62
     7
370
    25
100
AcDbSpline
210
0.0
220
0.0
230
1.0
 70
     8
 71
     3
 72
    20
 73
    16
 74
     0
 42
0.000000001
 43
0.00000001
 40
0.0
 40
0.0
 40
0.0
 40
0.0
 40
0.0624999999999999
 40
0.0624999999999999
 40
0.1249999999999998
 40
0.1249999999999998
 40
0.2499999999999996
 40
0.2499999999999996
 40
0.3749999999999993
 40
0.3749999999999993
 40
0.4999999999999991
 40
0.4999999999999991
 40
0.7499999999999996
 40
0.7499999999999996
 40
1.0
 40
1.0
 40
1.0
 40
1.0
 10
-14.78605500856543
 20
-7.104698490107531
 30
0.0
 10
-14.78185504398514
 20
-7.244100316999541
 30
0.0
 10
-14.79604093338469
 20
-7.380011988167519
 30
0.0
 10
-14.85714579925592
 20
-7.645594166612383
 30
0.0
 10
-14.90405629427721
 20
-7.773882614407618
 30
0.0
 10
-15.07945514607434
 20
-8.135582343341163
 30
0.0
 10
-15.2355091321268
 20
-8.339394393282017
 30
0.0
 10
-15.58695005832324
 20
-8.704653518951028
 30
0.0
 10
-15.78069070656089
 20
-8.862390447814297
 30
0.0
 10
-16.18094544690869
 20
-9.139625407128648
 30
0.0
 10
-16.38955280437831
 20
-9.26037213313348
 30
0.0
 10
-17.03104889882892
 20
-9.580208345780925
 30
0.0
 10
-17.46997069277417
 20
-9.733812591771542
 30
0.0
 10
-18.3552877937131
 20
-9.944823564061913
 30
0.0
 10
-18.79487143351583
 20
-10.00000000000002
 30
0.0
 10
-19.23038371669243
 20
-10.00000000000002
 30
0.0
  0
LWPOLYLINE
  5
16C
330
23
100
AcDbEntity
  8
0
  6
Continuous
 62
     7
370
    25
100
AcDbPolyline
 90
        3
 70
   128
 43
0.0
 10
-109.5011154371
 20
-2.4329070804
 10
-112.034376111
 20
-0.1815174361
 10
-112.2151898581
 20
0.0
  0
LWPOLYLINE
  5
175
330
23
100
AcDbEntity
  8
0
  6
Continuous
 62
     8
370
    25
100
AcDbPolyline
 90
        3
 70
   128
 43
0.0
 10
-14.7860550086
 20
-7.1046984901
 10
-14.8925842831
 20
-0.0203856358
 10
-14.8928897373
 20
0.0
  0
LINE
  5
176
330
23
100
AcDbEntity
  8
0
  6
Continuous
 62
     7
370
    25
100
AcDbLine
 10
-22.7481015383
 20
-12.8953015099
 30
0.0
 11
-22.6011061566
 21
-17.1046984901
 31
0.0
  0
LINE
  5
177
330
23
100
AcDbEntity
  8
0
  6
Continuous
 62
     7
370
    25
100
AcDbLine
 10
52.6011061566
 20
-17.1046984901
 30
0.0
 11
53.1984153898
 21
0.0
 31
0.0
  0
LINE
  5
178
330
23
100
AcDbEntity
  8
0
  6
Continuous
 62
     7
370
    25
100
AcDbLine
 10
207.0
 20
0.0
 30
0.0
 11
-207.0
 21
0.0
 31
0.0
  0
LINE
  5
179
330
23
100
AcDbEntity
  8
0
  6
Continuous
 62
     7
370
    25
100
AcDbLine
 10
-210.0
 20
3.0
 30
0.0
 11
210.0
 21
3.0
 31
0.0
  0
LINE
  5
17A
330
23
100
AcDbEntity
  8
0
  6
Continuous
 62
     7
370
    25
100
AcDbLine
 10
-206.0
 20
125.0
 30
0.0
 11
-206.0
 21
0.0
 31
0.0
  0
LINE
  5
17B
330
23
100
AcDbEntity
  8
0
  6
Continuous
 62
     7
370
    25
100
AcDbLine
 10
206.0
 20
0.0
 30
0.0
 11
206.0
 21
125.0
 31
0.0
  0
LINE
  5
17C
330
23
100
AcDbEntity
  8
0
  6
Continuous
 62
     7
370
    25
100
AcDbLine
 10
210.0
 20
125.0
 30
0.0
 11
-210.0
 21
125.0
 31
0.0
  0
LINE
  5
17D
330
23
100
AcDbEntity
  8
0
  6
Continuous
 62
     7
370
    25
100
AcDbLine
 10
-210.0
 20
3.0
 30
0.0
 11
-210.0
 21
125.0
 31
0.0
  0
LINE
  5
17E
330
23
100
AcDbEntity
  8
0
  6
Continuous
 62
     7
370
    25
100
AcDbLine
 10
210.0
 20
125.0
 30
0.0
 11
210.0
 21
3.0
 31
0.0
  0
LINE
  5
17F
330
23
100
AcDbEntity
  8
0
  6
Continuous
 62
     7
370
    25
100
AcDbLine
 10
-205.0
 20
130.0
 30
0.0
 11
205.0
 21
130.0
 31
0.0
  0
LINE
  5
180
330
23
100
AcDbEntity
  8
0
  6
Continuous
 62
     7
370
    25
100
AcDbLine
 10
49.6029336529
 20
-20.0
 30
0.0
 11
-19.6029336756
 21
-20.0
 31
0.0
  0
LINE
  5
181
330
23
100
AcDbEntity
  8
0
  6
Continuous
 62
     7
370
    25
100
AcDbLine
 10
-87.7655314993
 20
-7.1046984901
 30
0.0
 11
-14.7860550086
 21
-7.1046984901
 31
0.0
  0
LINE
  5
182
330
23
100
AcDbEntity
  8
0
  6
Continuous
 62
     7
370
    25
100
AcDbLine
 10
-87.7655314993
 20
-10.0
 30
0.0
 11
-87.7655314993
 21
-7.1046984901
 31
0.0
  0
LINE
  5
183
330
23
100
AcDbEntity
  8
0
  6
Continuous
 62
     7
370
    25
100
AcDbLine
 10
-19.2303837167
 20
-10.0
 30
0.0
 11
-87.7655314993
 21
-10.0
 31
0.0
  0
LINE
  5
184
330
23
100
AcDbEntity
  8
0
  6
Continuous
 62
     8
370
    25
100
AcDbLine
 10
-16.711660301
 20
-12.8953015099
 30
0.0
 11
-22.7481015383
 21
-12.8953015099
 31
0.0
  0
LINE
  5
185
330
23
100
AcDbEntity
  8
0
  6
Continuous
 62
     8
370
    25
100
AcDbLine
 10
-12.7173366571
 20
0.0
 30
0.0
 11
-12.6051751167
 21
-7.1046984901
 31
0.0
  0
LINE
  5
186
330
23
100
AcDbEntity
  8
0
  6
Continuous
 62
     8
370
    25
100
AcDbLine
 10
-22.6011061566
 20
-17.1046984901
 30
0.0
 11
52.6011061566
 21
-17.1046984901
 31
0.0
  0
LINE
  5
187
330
23
100
AcDbEntity
  8
0
  6
Continuous
 62
     8
370
    25
100
AcDbLine
 10
-107.8704448616
 20
0.0
 30
0.0
 11
-107.6380653853
 21
-0.186213535
 31
0.0
  0
ARC
  5
188
330
23
100
AcDbEntity
  8
0
  6
Continuous
 62
     7
370
    25
100
AcDbCircle
 10
49.6029336756
 20
-17.0
 30
0.0
 40
2.999999999999989
100
AcDbArc
 50
270.0
 51
358.0
  0
ARC
  5
189
330
23
100
AcDbEntity
  8
0
  6
Continuous
 62
     7
370
    25
100
AcDbCircle
 10
-19.6029336756
 20
-17.0
 30
0.0
 40
2.999999999999997
100
AcDbArc
 50
182.0
 51
270.0
  0
ARC
  5
18A
330
23
100
AcDbEntity
  8
0
  6
Continuous
 62
     7
370
    25
100
AcDbCircle
 10
-25.7462740193
 20
-13.0
 30
0.0
 40
3.000000000000012
100
AcDbArc
 50
2.0
 51
90.0
  0
ARC
  5
18B
330
23
100
AcDbEntity
  8
0
  6
Continuous
 62
     7
370
    25
100
AcDbCircle
 10
-207.0
 20
3.0
 30
0.0
 40
3.000000000000034
100
AcDbArc
 50
180.0
 51
270.0
  0
ARC
  5
18C
330
23
100
AcDbEntity
  8
0
  6
Continuous
 62
     7
370
    25
100
AcDbCircle
 10
207.0
 20
3.0
 30
0.0
 40
3.000000000000034
100
AcDbArc
 50
270.0
 51
0.0
  0
ARC
  5
18D
330
23
100
AcDbEntity
  8
0
  6
Continuous
 62
     7
370
    25
100
AcDbCircle
 10
-205.0
 20
125.0
 30
0.0
 40
5.0
100
AcDbArc
 50
90.0
 51
180.0
  0
ARC
  5
18E
330
23
100
AcDbEntity
  8
0
  6
Continuous
 62
     7
370
    25
100
AcDbCircle
 10
205.0
 20
125.0
 30
0.0
 40
5.0
100
AcDbArc
 50
0.0
 51
90.0
  0
ARC
  5
18F
330
23
100
AcDbEntity
  8
0
  6
Continuous
 62
     7
370
    25
100
AcDbCircle
 10
-87.7655314993
 20
24.8953015099
 30
0.0
 40
32.00000000000021
100
AcDbArc
 50
231.60958381
 51
270.0
  0
ARC
  5
190
330
23
100
AcDbEntity
  8
0
  6
Continuous
 62
     7
370
    25
100
AcDbCircle
 10
-13.6956150626
 20
-70.0586107299
 30
0.0
 40
62.96335541857153
100
AcDbArc
 50
89.007665174
 51
90.992334826
  0
ARC
  5
191
330
23
100
AcDbEntity
  8
0
  6
Continuous
 62
     7
370
    25
100
AcDbCircle
 10
-19.4808054061
 20
-12.7610638079
 30
0.0
 40
2.772396864395627
100
AcDbArc
 50
357.2246894646
 51
84.8175930622
  0
ARC
  5
192
330
23
100
AcDbEntity
  8
0
  6
Continuous
 62
     7
370
    25
100
AcDbCircle
 10
-134.240722514
 20
19.9779909443
 30
0.0
 40
33.38108009924839
100
AcDbArc
 50
317.8274749645
 51
322.8387065503
  0
ARC
  5
193
330
23
100
AcDbEntity
  8
0
  6
Continuous
 62
     7
370
    25
100
AcDbCircle
 10
-87.7655314993
 20
25.0
 30
0.0
 40
34.99999999999991
100
AcDbArc
 50
231.60958381
 51
270.0
  0
VIEWPORT
  5
34D
330
23
100
AcDbEntity
  8
0
100
AcDbViewport
 10
0.0
 20
0.0
 30
0.0
 40
205.6
 41
156.0
 68
     1
 69
     1
 12
0.0
 22
0.0
 13
0.0
 23
0.0
 14
10.0
 24
10.0
 15
10.0
 25
10.0
 16
0.0
 26
0.0
 36
1.0
 17
0.0
 27
0.0
 37
0.0
 42
50.0
 43
0.0
 44
0.0
 45
464.3579766537
 50
0.0
 51
0.0
 72
   100
 90
   557152
  1

281
     0
 71
     1
 74
     0
110
0.0
120
0.0
130
0.0
111
1.0
121
0.0
131
0.0
112
0.0
122
1.0
132
0.0
 79
     0
146
0.0
  0
ENDBLK
  5
25
330
23
100
AcDbEntity
  8
0
100
AcDbBlockEnd
  0
BLOCK
  5
196
330
194
100
AcDbEntity
  8
0
100
AcDbBlockBegin
  2
*Paper_Space1
 70
     0
 10
0.0
 20
0.0
 30
0.0
  3
*Paper_Space1
  1

  0
LWPOLYLINE
  5
1AA
330
194
100
AcDbEntity
  8
0
  6
Continuous
 62
     7
370
    25
100
AcDbPolyline
 90
        9
 70
   128
 43
0.0
 10
-230.0
 20
3.0
 10
-230.0
 20
2.6084211944
 10
-230.0
 20
2.2235424185
 10
-230.0
 20
1.8519490628
 10
-230.0
 20
1.4999992
 10
-230.0
 20
1.1737147968
 10
-230.0
 20
0.8786786766
 10
-230.0
 20
0.619938995
 10
-230.0000018629
 20
0.4019228648
  0
SPLINE
  5
1AB
330
194
100
AcDbEntity
  8
0
  6
Continuous
 62
     7
370
    25
100
AcDbSpline
210
0.0
220
0.0
230
1.0
 70
     8
 71
     3
 72
    12
 73
     8
 74
     0
 42
0.000000001
 43
0.00000001
 40
0.0
 40
0.0
 40
0.0
 40
0.0
 40
0.2500000000000083
 40
0.2500000000000083
 40
0.5000000000000167
 40
0.5000000000000167
 40
1.0
 40
1.0
 40
1.0
 40
1.0
 10
-232.2261305374772
 20
0.101530394333138
 30
0.0
 10
-232.0845962871962
 20
0.1393189686826266
 30
0.0
 10
-231.9206377333722
 20
0.1781455653306063
 30
0.0
 10
-231.5645776468222
 20
0.2478176328990014
 30
0.0
 10
-231.3754329089272
 20
0.2780411513458522
 30
0.0
 10
-230.8003561006182
 20
0.3517297233895933
 30
0.0
 10
-230.3969272726814
 20
0.3791678928368389
 30
0.0
 10
-230.0
 20
0.401923788646695
 30
0.0
  0
SPLINE
  5
1B3
330
194
100
AcDbEntity
  8
0
  6
Continuous
 62
     7
370
    25
100
AcDbSpline
210
0.0
220
0.0
230
1.0
 70
     8
 71
     3
 72
    14
 73
    10
 74
     0
 42
0.000000001
 43
0.00000001
 40
0.0
 40
0.0
 40
0.0
 40
0.0
 40
0.25
 40
0.25
 40
0.5
 40
0.5
 40
0.75
 40
0.75
 40
1.0
 40
1.0
 40
1.0
 40
1.0
 10
-230.0000018629437
 20
0.4019228648382833
 30
0.0
 10
-230.1080081712696
 20
0.3483640472091085
 30
0.0
 10
-230.2141438150034
 20
0.3026964408297667
 30
0.0
 10
-230.4174297857608
 20
0.2256734694379148
 30
0.0
 10
-230.5150847872162
 20
0.1942932444271225
 30
0.0
 10
-230.6849208382675
 20
0.1460868530312256
 30
0.0
 10
-230.7587762362789
 20
0.1287017108221114
 30
0.0
 10
-230.8639304051323
 20
0.1058362093891291
 30
0.0
 10
-230.8933120096692
 20
0.1004748505752176
 30
0.0
 10
-230.8933120096691
 20
0.1004748505752176
 30
0.0
  0
SPLINE
  5
1C4
330
194
100
AcDbEntity
  8
0
  6
Continuous
 62
     7
370
    25
100
AcDbSpline
210
0.0
220
0.0
230
1.0
 70
     8
 71
     3
 72
    12
 73
     8
 74
     0
 42
0.000000001
 43
0.00000001
 40
0.0
 40
0.0
 40
0.0
 40
0.0
 40
0.2500000000000083
 40
0.2500000000000083
 40
0.5000000000000167
 40
0.5000000000000167
 40
1.0
 40
1.0
 40
1.0
 40
1.0
 10
232.2261305374773
 20
0.1015303943331103
 30
0.0
 10
232.0840490742624
 20
0.1394650703971864
 30
0.0
 10
231.9197388839824
 20
0.1783447436955882
 30
0.0
 10
231.5635551596892
 20
0.247994286097758
 30
0.0
 10
231.3731329051489
 20
0.2783818415973138
 30
0.0
 10
230.7979564802385
 20
0.351944409070111
 30
0.0
 10
230.3975121968124
 20
0.3791343590184501
 30
0.0
 10
230.0
 20
0.401923788646702
 30
0.0
  0
LWPOLYLINE
  5
1C5
330
194
100
AcDbEntity
  8
0
  6
Continuous
 62
     7
370
    25
100
AcDbPolyline
 90
        9
 70
   128
 43
0.0
 10
230.0000018631
 20
0.4019228647
 10
230.0000018472
 20
0.6199389949
 10
230.0000017996
 20
0.8786786765
 10
230.0000017213
 20
1.1737147967
 10
230.0000016135
 20
1.4999991999
 10
230.0000014781
 20
1.8519490627
 10
230.0000013174
 20
2.2235424185
 10
230.0000011342
 20
2.6084211943
 10
230.0
 20
3.0
  0
LWPOLYLINE
  5
1C6
330
194
100
AcDbEntity
  8
0
  6
Continuous
 62
     7
370
    25
100
AcDbPolyline
 90
        9
 70
   128
 43
0.0
 10
296.0
 20
125.0
 10
295.9807852804
 20
125.9754516101
 10
295.9238795325
 20
126.9134171618
 10
295.8314696123
 20
127.7778511651
 10
295.7071067812
 20
128.5355339059
 10
295.555570233
 20
129.1573480615
 10
295.3826834324
 20
129.6193976626
 10
295.195090322
 20
129.903926402
 10
295.0
 20
130.0
  0
SPLINE
  5
1C9
330
194
100
AcDbEntity
  8
0
  6
Continuous
 62
     7
370
    25
100
AcDbSpline
210
0.0
220
0.0
230
1.0
 70
     8
 71
     3
 72
    14
 73
    10
 74
     0
 42
0.000000001
 43
0.00000001
 40
0.0
 40
0.0
 40
0.0
 40
0.0
 40
0.25
 40
0.25
 40
0.5
 40
0.5
 40
0.75
 40
0.75
 40
1.0
 40
1.0
 40
1.0
 40
1.0
 10
230.8933120096691
 20
0.1004748505752176
 30
0.0
 10
230.8933120096691
 20
0.1004748505752176
 30
0.0
 10
230.8639304051409
 20
0.1058362093876372
 30
0.0
 10
230.7587762363166
 20
0.128701710813528
 30
0.0
 10
230.6849208383228
 20
0.1460868530175768
 30
0.0
 10
230.5150847873106
 20
0.1942932443982845
 30
0.0
 10
230.4174297858763
 20
0.2256734693989737
 30
0.0
 10
230.2141438151567
 20
0.3026964407668864
 30
0.0
 10
230.1080081714418
 20
0.3483640471318578
 30
0.0
 10
230.0000018631341
 20
0.4019228647438866
 30
0.0
  0
LWPOLYLINE
  5
1CB
330
194
100
AcDbEntity
  8
0
  6
Continuous
 62
     7
370
    25
100
AcDbPolyline
 90
        9
 70
   128
 43
0.0
 10
-295.0
 20
130.0
 10
-295.195090322
 20
129.903926402
 10
-295.3826834324
 20
129.6193976626
 10
-295.555570233
 20
129.1573480615
 10
-295.7071067812
 20
128.5355339059
 10
-295.8314696123
 20
127.7778511651
 10
-295.9238795325
 20
126.9134171618
 10
-295.9807852804
 20
125.9754516101
 10
-296.0
 20
125.0
  0
SPLINE
  5
1EB
330
194
100
AcDbEntity
  8
0
  6
Continuous
 62
     7
370
    25
100
AcDbSpline
210
0.0
220
0.0
230
1.0
 70
    24
 71
     3
 72
    10
 73
     6
 74
     0
 42
0.000000001
 43
0.00000001
 40
0.0
 40
0.0
 40
0.0
 40
0.0
 40
0.003683856644686
 40
0.8114285709081808
 40
0.9999999999999999
 40
0.9999999999999999
 40
0.9999999999999999
 40
0.9999999999999999
 10
-220.0
 20
10.0
 30
0.0
 10
-220.0057216920156
 20
10.0
 30
0.0
 10
-221.2660162211385
 20
10.00000000000013
 30
0.0
 10
-222.8657023679013
 20
9.999999999999988
 30
0.0
 10
-224.2842100676981
 20
10.0
 30
0.0
 10
-224.5526891302049
 20
10.0
 30
0.0
  0
SPLINE
  5
1EC
330
194
100
AcDbEntity
  8
0
  6
Continuous
 62
     7
370
    25
100
AcDbSpline
210
0.0
220
0.0
230
1.0
 70
    24
 71
     3
 72
    10
 73
     6
 74
     0
 42
0.000000001
 43
0.00000001
 40
0.0
 40
0.0
 40
0.0
 40
0.0
 40
0.2110420915049915
 40
0.9964236685385655
 40
0.9999999999999999
 40
0.9999999999999999
 40
0.9999999999999999
 40
0.9999999999999999
 10
224.6822147631155
 20
10.0
 30
0.0
 10
224.3729877529355
 20
9.999999999999995
 30
0.0
 10
222.9129893720556
 20
9.999999999999968
 30
0.0
 10
221.2679610402621
 20
10.00000000000039
 30
0.0
 10
220.0057217073175
 20
10.0
 30
0.0
 10
220.0
 20
10.0
 30
0.0
  0
LWPOLYLINE
  5
1F4
330
194
100
AcDbEntity
  8
0
  6
Continuous
 62
     7
370
    25
100
AcDbPolyline
 90
        9
 70
   128
 43
0.0
 10
-20.4765663796
 20
-12.8953015099
 10
-20.5172841332
 20
-12.325146837
 10
-20.6162675831
 20
-11.7797900708
 10
-20.7698795198
 20
-11.2792706909
 10
-20.9724753754
 20
-10.841980599
 10
-21.2166106369
 20
-10.4839882962
 10
-21.4933143996
 20
-10.2184484363
 10
-21.7924190086
 20
-10.0551184497
 10
-22.1029336756
 20
-10.0
  0
LWPOLYLINE
  5
1F5
330
194
100
AcDbEntity
  8
0
  6
Continuous
 62
     7
370
    25
100
AcDbPolyline
 90
        9
 70
   128
 43
0.0
 10
20.4765663796
 20
-12.8953015099
 10
20.5172841332
 20
-12.325146837
 10
20.6162675831
 20
-11.7797900708
 10
20.7698795198
 20
-11.2792706909
 10
20.9724753754
 20
-10.841980599
 10
21.2166106369
 20
-10.4839882962
 10
21.4933143996
 20
-10.2184484363
 10
21.7924190086
 20
-10.0551184497
 10
22.1029336756
 20
-10.0
  0
SPLINE
  5
1F6
330
194
100
AcDbEntity
  8
0
  6
Continuous
 62
     7
370
    25
100
AcDbSpline
210
0.0
220
0.0
230
1.0
 70
     8
 71
     3
 72
    24
 73
    20
 74
     0
 42
0.000000001
 43
0.00000001
 40
0.0
 40
0.0
 40
0.0
 40
0.0
 40
0.0625000000000001
 40
0.0625000000000001
 40
0.1250000000000001
 40
0.1250000000000001
 40
0.2500000000000001
 40
0.2500000000000001
 40
0.3750000000000002
 40
0.3750000000000002
 40
0.5000000000000002
 40
0.5000000000000002
 40
0.6250000000000002
 40
0.6250000000000002
 40
0.6875000000000003
 40
0.6875000000000003
 40
0.7500000000000006
 40
0.7500000000000006
 40
1.0
 40
1.0
 40
1.0
 40
1.0
 10
-26.04190139388544
 20
-7.104698490107531
 30
0.0
 10
-26.03475135721398
 20
-7.314263527202873
 30
0.0
 10
-26.01748442992589
 20
-7.522394396793642
 30
0.0
 10
-25.96299182289072
 20
-7.935833619186885
 30
0.0
 10
-25.92563498767511
 20
-8.141061239977084
 30
0.0
 10
-25.78690134843952
 20
-8.739699618143998
 30
0.0
 10
-25.65802891860652
 20
-9.122276448384328
 30
0.0
 10
-25.33487351688558
 20
-9.84821942414639
 30
0.0
 10
-25.145336028892
 20
-10.18188196789972
 30
0.0
 10
-24.71601310132716
 20
-10.79942077363683
 30
0.0
 10
-24.47406471267469
 20
-11.08437412581573
 30
0.0
 10
-23.96091318910604
 20
-11.58689100126276
 30
0.0
 10
-23.68781391341029
 20
-11.80777602896207
 30
0.0
 10
-23.25355380077808
 20
-12.09688726176913
 30
0.0
 10
-23.1046697060769
 20
-12.18615894613476
 30
0.0
 10
-22.79833085787341
 20
-12.35036300442648
 30
0.0
 10
-22.64054644063664
 20
-12.42533229660515
 30
0.0
 10
-21.845516667291
 20
-12.75688364941503
 30
0.0
 10
-21.17865456723544
 20
-12.89530150989252
 30
0.0
 10
-20.4765663796316
 20
-12.89530150989252
 30
0.0
  0
SPLINE
  5
1F7
330
194
100
AcDbEntity
  8
0
  6
Continuous
 62
     7
370
    25
100
AcDbSpline
210
0.0
220
0.0
230
1.0
 70
     8
 71
     3
 72
    24
 73
    20
 74
     0
 42
0.000000001
 43
0.00000001
 40
0.0
 40
0.0
 40
0.0
 40
0.0
 40
0.1250000000000001
 40
0.1250000000000001
 40
0.2500000000000002
 40
0.2500000000000002
 40
0.3750000000000003
 40
0.3750000000000003
 40
0.5000000000000004
 40
0.5000000000000004
 40
0.6250000000000006
 40
0.6250000000000006
 40
0.7500000000000007
 40
0.7500000000000007
 40
0.8125000000000006
 40
0.8125000000000006
 40
0.8750000000000006
 40
0.8750000000000006
 40
1.0
 40
1.0
 40
1.0
 40
1.0
 10
20.4765663796316
 20
-12.89530150989252
 30
0.0
 10
20.8270199983079
 20
-12.89530150989253
 30
0.0
 10
21.16969064792022
 20
-12.85986436251585
 30
0.0
 10
21.84064313103385
 20
-12.72355036350045
 30
0.0
 10
22.17074088521496
 20
-12.62186337696719
 30
0.0
 10
22.80849810009741
 20
-12.3546677818233
 30
0.0
 10
23.1127991517356
 20
-12.19104261184584
 30
0.0
 10
23.69369022598101
 20
-11.80340906389536
 30
0.0
 10
23.97246781870715
 20
-11.57698679632345
 30
0.0
 10
24.48601795397978
 20
-11.07119162895906
 30
0.0
 10
24.7218545668164
 20
-10.79198381182497
 30
0.0
 10
25.14966560437297
 20
-10.17466568310059
 30
0.0
 10
25.34178799473849
 20
-9.834432396708143
 30
0.0
 10
25.5807358100113
 20
-9.2949978027686
 30
0.0
 10
25.65274036765391
 20
-9.10955538439169
 30
0.0
 10
25.78052191860811
 20
-8.726470577400988
 30
0.0
 10
25.83620909629649
 20
-8.528519990661856
 30
0.0
 10
25.97353537917286
 20
-7.93106351839877
 30
0.0
 10
26.02762682975658
 20
-7.523080898287598
 30
0.0
 10
26.04190139388544
 20
-7.104698490107531
 30
0.0
  0
LWPOLYLINE
  5
1F8
330
194
100
AcDbEntity
  8
0
  6
Continuous
 62
     7
370
    25
100
AcDbPolyline
 90
        3
 70
   128
 43
0.0
 10
26.5268406512
 20
7.1046984901
 10
26.3221836495
 20
1.1089314448
 10
26.0419013939
 20
-7.1046984901
  0
LWPOLYLINE
  5
1F9
330
194
100
AcDbEntity
  8
0
  6
Continuous
 62
     7
370
    25
100
AcDbPolyline
 90
        3
 70
   128
 43
0.0
 10
-26.0419013939
 20
-7.1046984901
 10
-26.2464920715
 20
-1.1089355945
 10
-26.5268406512
 20
7.1046984901
  0
SPLINE
  5
207
330
194
100
AcDbEntity
  8
0
  6
Continuous
 62
     8
370
    25
100
AcDbSpline
210
0.0
220
0.0
230
1.0
 70
     8
 71
     3
 72
    10
 73
     6
 74
     0
 42
0.000000001
 43
0.00000001
 40
0.0
 40
0.0
 40
0.0
 40
0.0
 40
0.3627528602298482
 40
0.996869202239678
 40
1.0
 40
1.0
 40
1.0
 40
1.0
 10
-224.4020361628316
 20
10.54381136524354
 30
0.0
 10
-223.8904070083969
 20
10.42290251737253
 30
0.0
 10
-222.4844157594218
 20
10.09063688990233
 30
0.0
 10
-220.9616175195773
 20
10.00026468561413
 30
0.0
 10
-220.0047013330724
 20
10.00000129404385
 30
0.0
 10
-220.0
 20
10.0
 30
0.0
  0
SPLINE
  5
208
330
194
100
AcDbEntity
  8
0
  6
Continuous
 62
     8
370
    25
100
AcDbSpline
210
0.0
220
0.0
230
1.0
 70
     8
 71
     3
 72
    10
 73
     6
 74
     0
 42
0.000000001
 43
0.00000001
 40
0.0
 40
0.0
 40
0.0
 40
0.0
 40
0.003034218572168
 40
0.6148080751648028
 40
1.0
 40
1.0
 40
1.0
 40
1.0
 10
220.0
 20
10.0
 30
0.0
 10
220.0047013397855
 20
10.00000127997933
 30
0.0
 10
220.9573095963967
 20
10.00026063559639
 30
0.0
 10
222.5271375255853
 20
10.09590442524634
 30
0.0
 10
223.9774960987739
 20
10.4401130107005
 30
0.0
 10
224.537862784286
 20
10.57310289866437
 30
0.0
  0
LINE
  5
214
330
194
100
AcDbEntity
  8
0
  6
Continuous
 62
     7
370
    25
100
AcDbLine
 10
-38.4465169281
 20
7.1046984901
 30
0.0
 11
-37.6011061566
 21
-17.1046984901
 31
0.0
  0
LINE
  5
215
330
194
100
AcDbEntity
  8
0
  6
Continuous
 62
     7
370
    25
100
AcDbLine
 10
37.6011061566
 20
-17.1046984901
 30
0.0
 11
38.4465169281
 21
7.1046984901
 31
0.0
  0
LINE
  5
216
330
194
100
AcDbEntity
  8
0
  6
Continuous
 62
     7
370
    25
100
AcDbLine
 10
191.1863575413
 20
35.0
 30
0.0
 11
191.1863575413
 21
38.0
 31
0.0
  0
LINE
  5
217
330
194
100
AcDbEntity
  8
0
  6
Continuous
 62
     7
370
    25
100
AcDbLine
 10
226.0
 20
3.6069791736
 30
0.0
 11
228.9840264965
 21
3.9161488171
 31
0.0
  0
LINE
  5
218
330
194
100
AcDbEntity
  8
0
  6
Continuous
 62
     7
370
    25
100
AcDbLine
 10
-300.0
 20
3.0
 30
0.0
 11
-230.0
 21
3.0
 31
0.0
  0
LINE
  5
219
330
194
100
AcDbEntity
  8
0
  6
Continuous
 62
     7
370
    25
100
AcDbLine
 10
-296.0
 20
125.0
 30
0.0
 11
-296.0
 21
0.0
 31
0.0
  0
LINE
  5
21A
330
194
100
AcDbEntity
  8
0
  6
Continuous
 62
     7
370
    25
100
AcDbLine
 10
-38.1984153898
 20
0.0
 30
0.0
 11
-297.0
 21
0.0
 31
0.0
  0
LINE
  5
21B
330
194
100
AcDbEntity
  8
0
  6
Continuous
 62
     7
370
    25
100
AcDbLine
 10
191.1863575413
 20
35.0
 30
0.0
 11
-191.1863575413
 21
35.0
 31
0.0
  0
LINE
  5
21C
330
194
100
AcDbEntity
  8
0
  6
Continuous
 62
     7
370
    25
100
AcDbLine
 10
-191.1863575413
 20
35.0
 30
0.0
 11
-191.1863575413
 21
38.0
 31
0.0
  0
LINE
  5
21D
330
194
100
AcDbEntity
  8
0
  6
Continuous
 62
     7
370
    25
100
AcDbLine
 10
-191.1863575413
 20
38.0
 30
0.0
 11
191.1863575413
 21
38.0
 31
0.0
  0
LINE
  5
21E
330
194
100
AcDbEntity
  8
0
  6
Continuous
 62
     7
370
    25
100
AcDbLine
 10
-226.0
 20
3.6069791736
 30
0.0
 11
-228.9840264965
 21
3.9161488171
 31
0.0
  0
LINE
  5
21F
330
194
100
AcDbEntity
  8
0
  6
Continuous
 62
     7
370
    25
100
AcDbLine
 10
300.0
 20
125.0
 30
0.0
 11
-300.0
 21
125.0
 31
0.0
  0
LINE
  5
220
330
194
100
AcDbEntity
  8
0
  6
Continuous
 62
     7
370
    25
100
AcDbLine
 10
296.0
 20
0.0
 30
0.0
 11
296.0
 21
125.0
 31
0.0
  0
LINE
  5
221
330
194
100
AcDbEntity
  8
0
  6
Continuous
 62
     7
370
    25
100
AcDbLine
 10
230.0
 20
3.0
 30
0.0
 11
300.0
 21
3.0
 31
0.0
  0
LINE
  5
222
330
194
100
AcDbEntity
  8
0
  6
Continuous
 62
     7
370
    25
100
AcDbLine
 10
135.0
 20
70.0
 30
0.0
 11
145.0
 21
70.0
 31
0.0
  0
LINE
  5
223
330
194
100
AcDbEntity
  8
0
  6
Continuous
 62
     7
370
    25
100
AcDbLine
 10
-135.0
 20
90.0
 30
0.0
 11
-145.0
 21
90.0
 31
0.0
  0
LINE
  5
224
330
194
100
AcDbEntity
  8
0
  6
Continuous
 62
     7
370
    25
100
AcDbLine
 10
-145.0
 20
70.0
 30
0.0
 11
-135.0
 21
70.0
 31
0.0
  0
LINE
  5
225
330
194
100
AcDbEntity
  8
0
  6
Continuous
 62
     7
370
    25
100
AcDbLine
 10
145.0
 20
90.0
 30
0.0
 11
135.0
 21
90.0
 31
0.0
  0
LINE
  5
226
330
194
100
AcDbEntity
  8
0
  6
Continuous
 62
     7
370
    25
100
AcDbLine
 10
297.0
 20
0.0
 30
0.0
 11
38.1984153898
 21
0.0
 31
0.0
  0
LINE
  5
227
330
194
100
AcDbEntity
  8
0
  6
Continuous
 62
     7
370
    25
100
AcDbLine
 10
-295.0
 20
130.0
 30
0.0
 11
295.0
 21
130.0
 31
0.0
  0
LINE
  5
228
330
194
100
AcDbEntity
  8
0
  6
Continuous
 62
     7
370
    25
100
AcDbLine
 10
-300.0
 20
3.0
 30
0.0
 11
-300.0
 21
125.0
 31
0.0
  0
LINE
  5
229
330
194
100
AcDbEntity
  8
0
  6
Continuous
 62
     7
370
    25
100
AcDbLine
 10
300.0
 20
125.0
 30
0.0
 11
300.0
 21
3.0
 31
0.0
  0
LINE
  5
22A
330
194
100
AcDbEntity
  8
0
  6
Continuous
 62
     7
370
    25
100
AcDbLine
 10
-23.0868354655
 20
21.1857328167
 30
0.0
 11
-22.3445324939
 21
-2.4329070804
 31
0.0
  0
LINE
  5
22B
330
194
100
AcDbEntity
  8
0
  6
Continuous
 62
     7
370
    25
100
AcDbLine
 10
-23.0868354655
 20
21.1857328167
 30
0.0
 11
23.0868354655
 21
21.1857328167
 31
0.0
  0
LINE
  5
22C
330
194
100
AcDbEntity
  8
0
  6
Continuous
 62
     7
370
    25
100
AcDbLine
 10
22.3445324939
 20
-2.4329070804
 30
0.0
 11
23.0868354655
 21
21.1857328167
 31
0.0
  0
LINE
  5
22D
330
194
100
AcDbEntity
  8
0
  6
Continuous
 62
     7
370
    25
100
AcDbLine
 10
22.3445324939
 20
-2.4329070804
 30
0.0
 11
-22.3445324939
 21
-2.4329070804
 31
0.0
  0
LINE
  5
22E
330
194
100
AcDbEntity
  8
0
  6
Continuous
 62
     7
370
    25
100
AcDbLine
 10
26.5714346271
 20
35.0
 30
0.0
 11
25.1011061566
 21
-7.1046984901
 31
0.0
  0
LINE
  5
22F
330
194
100
AcDbEntity
  8
0
  6
Continuous
 62
     7
370
    25
100
AcDbLine
 10
-25.1011061566
 20
-7.1046984901
 30
0.0
 11
-26.5714346271
 21
35.0
 31
0.0
  0
LINE
  5
230
330
194
100
AcDbEntity
  8
0
  6
Continuous
 62
     7
370
    25
100
AcDbLine
 10
-22.3445324939
 20
-2.4329070804
 30
0.0
 11
-22.1029336756
 21
-10.0
 31
0.0
  0
LINE
  5
231
330
194
100
AcDbEntity
  8
0
  6
Continuous
 62
     7
370
    25
100
AcDbLine
 10
22.1029336756
 20
-10.0
 30
0.0
 11
22.3445324939
 21
-2.4329070804
 31
0.0
  0
LINE
  5
232
330
194
100
AcDbEntity
  8
0
  6
Continuous
 62
     7
370
    25
100
AcDbLine
 10
22.1029336756
 20
-10.0
 30
0.0
 11
-22.1029336756
 21
-10.0
 31
0.0
  0
LINE
  5
233
330
194
100
AcDbEntity
  8
0
  6
Continuous
 62
     7
370
    25
100
AcDbLine
 10
29.3566243397
 20
28.9532808751
 30
0.0
 11
28.5954817143
 21
10.0
 31
0.0
  0
LINE
  5
234
330
194
100
AcDbEntity
  8
0
  6
Continuous
 62
     7
370
    25
100
AcDbLine
 10
-28.5954817143
 20
10.0
 30
0.0
 11
-29.3566243397
 21
28.9532808751
 31
0.0
  0
LINE
  5
235
330
194
100
AcDbEntity
  8
0
  6
Continuous
 62
     7
370
    25
100
AcDbLine
 10
220.0
 20
10.0
 30
0.0
 11
28.5954817143
 21
10.0
 31
0.0
  0
LINE
  5
236
330
194
100
AcDbEntity
  8
0
  6
Continuous
 62
     7
370
    25
100
AcDbLine
 10
-28.5954817143
 20
10.0
 30
0.0
 11
-220.0
 21
10.0
 31
0.0
  0
LINE
  5
237
330
194
100
AcDbEntity
  8
0
  6
Continuous
 62
     7
370
    25
100
AcDbLine
 10
20.4765663796
 20
-12.8953015099
 30
0.0
 11
-20.4765663796
 21
-12.8953015099
 31
0.0
  0
LINE
  5
238
330
194
100
AcDbEntity
  8
0
  6
Continuous
 62
     7
370
    25
100
AcDbLine
 10
34.6029336756
 20
-20.0
 30
0.0
 11
-34.6029336756
 21
-20.0
 31
0.0
  0
LINE
  5
239
330
194
100
AcDbEntity
  8
0
  6
Continuous
 62
     8
370
    25
100
AcDbLine
 10
-23.5692403055
 20
35.0
 30
0.0
 11
-23.0868354655
 21
21.1857328167
 31
0.0
  0
LINE
  5
23A
330
194
100
AcDbEntity
  8
0
  6
Continuous
 62
     8
370
    25
100
AcDbLine
 10
23.0868354655
 20
21.1857328167
 30
0.0
 11
23.5692403055
 21
35.0
 31
0.0
  0
LINE
  5
23B
330
194
100
AcDbEntity
  8
0
  6
Continuous
 62
     8
370
    25
100
AcDbLine
 10
-220.0
 20
19.8689206618
 30
0.0
 11
-220.0
 21
10.0
 31
0.0
  0
LINE
  5
23C
330
194
100
AcDbEntity
  8
0
  6
Continuous
 62
     8
370
    25
100
AcDbLine
 10
220.0
 20
10.0
 30
0.0
 11
220.0
 21
19.8689206618
 31
0.0
  0
LINE
  5
23D
330
194
100
AcDbEntity
  8
0
  6
Continuous
 62
     8
370
    25
100
AcDbLine
 10
-29.3566243397
 20
28.9532808751
 30
0.0
 11
-29.5677804244
 21
35.0
 31
0.0
  0
LINE
  5
23E
330
194
100
AcDbEntity
  8
0
  6
Continuous
 62
     8
370
    25
100
AcDbLine
 10
29.5677804244
 20
35.0
 30
0.0
 11
29.3566243397
 21
28.9532808751
 31
0.0
  0
LINE
  5
23F
330
194
100
AcDbEntity
  8
0
  6
Continuous
 62
     8
370
    25
100
AcDbLine
 10
29.3566243397
 20
28.9532808751
 30
0.0
 11
210.8512380791
 21
28.9532808751
 31
0.0
  0
LINE
  5
240
330
194
100
AcDbEntity
  8
0
  6
Continuous
 62
     8
370
    25
100
AcDbLine
 10
-210.8512380791
 20
28.9532808751
 30
0.0
 11
-29.3566243397
 21
28.9532808751
 31
0.0
  0
LINE
  5
241
330
194
100
AcDbEntity
  8
0
  6
Continuous
 62
     8
370
    25
100
AcDbLine
 10
-26.5268406512
 20
7.1046984901
 30
0.0
 11
-38.4465169281
 21
7.1046984901
 31
0.0
  0
LINE
  5
242
330
194
100
AcDbEntity
  8
0
  6
Continuous
 62
     8
370
    25
100
AcDbLine
 10
38.4465169281
 20
7.1046984901
 30
0.0
 11
26.5268406512
 21
7.1046984901
 31
0.0
  0
LINE
  5
243
330
194
100
AcDbEntity
  8
0
  6
Continuous
 62
     8
370
    25
100
AcDbLine
 10
-37.6011061566
 20
-17.1046984901
 30
0.0
 11
37.6011061566
 21
-17.1046984901
 31
0.0
  0
LINE
  5
244
330
194
100
AcDbEntity
  8
0
  6
Continuous
 62
     8
370
    25
100
AcDbLine
 10
-226.1104663418
 20
3.0
 30
0.0
 11
-38.3031776983
 21
3.0
 31
0.0
  0
LINE
  5
245
330
194
100
AcDbEntity
  8
0
  6
Continuous
 62
     8
370
    25
100
AcDbLine
 10
38.3031776983
 20
3.0
 30
0.0
 11
226.1104663418
 21
3.0
 31
0.0
  0
ARC
  5
246
330
194
100
AcDbEntity
  8
0
  6
Continuous
 62
     7
370
    25
100
AcDbCircle
 10
34.6029336756
 20
-17.0
 30
0.0
 40
2.999999999999989
100
AcDbArc
 50
270.0
 51
358.0
  0
ARC
  5
247
330
194
100
AcDbEntity
  8
0
  6
Continuous
 62
     7
370
    25
100
AcDbCircle
 10
-34.6029336756
 20
-17.0
 30
0.0
 40
2.999999999999996
100
AcDbArc
 50
182.0
 51
270.0
  0
ARC
  5
248
330
194
100
AcDbEntity
  8
0
  6
Continuous
 62
     7
370
    25
100
AcDbCircle
 10
-41.4446894092
 20
7.0
 30
0.0
 40
2.999999999999995
100
AcDbArc
 50
2.0
 51
90.0
  0
ARC
  5
249
330
194
100
AcDbEntity
  8
0
  6
Continuous
 62
     7
370
    25
100
AcDbCircle
 10
41.4446894092
 20
7.0
 30
0.0
 40
2.999999999999988
100
AcDbArc
 50
90.0
 51
178.0
  0
ARC
  5
24A
330
194
100
AcDbEntity
  8
0
  6
Continuous
 62
     7
370
    25
100
AcDbCircle
 10
191.1863575413
 20
0.0
 30
0.0
 40
34.99999999999996
100
AcDbArc
 50
5.9152074822
 51
90.0
  0
ARC
  5
24B
330
194
100
AcDbEntity
  8
0
  6
Continuous
 62
     7
370
    25
100
AcDbCircle
 10
191.1863575413
 20
0.0
 30
0.0
 40
38.0
100
AcDbArc
 50
5.9152074822
 51
90.0
  0
ARC
  5
24C
330
194
100
AcDbEntity
  8
0
  6
Continuous
 62
     7
370
    25
100
AcDbCircle
 10
-297.0
 20
3.0
 30
0.0
 40
3.000000000000013
100
AcDbArc
 50
180.0
 51
270.0
  0
ARC
  5
24D
330
194
100
AcDbEntity
  8
0
  6
Continuous
 62
     7
370
    25
100
AcDbCircle
 10
-233.0
 20
3.0
 30
0.0
 40
2.999999999999892
100
AcDbArc
 50
270.0
 51
284.9488418222
  0
ARC
  5
24E
330
194
100
AcDbEntity
  8
0
  6
Continuous
 62
     7
370
    25
100
AcDbCircle
 10
-191.1863575413
 20
0.0
 30
0.0
 40
35.00000000000006
100
AcDbArc
 50
90.0
 51
174.0847925178
  0
ARC
  5
24F
330
194
100
AcDbEntity
  8
0
  6
Continuous
 62
     7
370
    25
100
AcDbCircle
 10
-191.1863575413
 20
0.0
 30
0.0
 40
37.99999999999997
100
AcDbArc
 50
90.0
 51
174.0847925178
  0
ARC
  5
250
330
194
100
AcDbEntity
  8
0
  6
Continuous
 62
     7
370
    25
100
AcDbCircle
 10
-230.0
 20
4.021412013
 30
0.0
 40
1.021412013010237
100
AcDbArc
 50
270.0
 51
354.0847925178
  0
ARC
  5
251
330
194
100
AcDbEntity
  8
0
  6
Continuous
 62
     7
370
    25
100
AcDbCircle
 10
-230.0
 20
4.021412013
 30
0.0
 40
4.02141201301021
100
AcDbArc
 50
257.1653084456
 51
354.0847925178
  0
ARC
  5
252
330
194
100
AcDbEntity
  8
0
  6
Continuous
 62
     7
370
    25
100
AcDbCircle
 10
230.0
 20
4.021412013
 30
0.0
 40
1.021412013010242
100
AcDbArc
 50
185.9152074822
 51
270.0
  0
ARC
  5
253
330
194
100
AcDbEntity
  8
0
  6
Continuous
 62
     7
370
    25
100
AcDbCircle
 10
145.0
 20
80.0
 30
0.0
 40
10.0
100
AcDbArc
 50
270.0
 51
90.0
  0
ARC
  5
254
330
194
100
AcDbEntity
  8
0
  6
Continuous
 62
     7
370
    25
100
AcDbCircle
 10
-145.0
 20
80.0
 30
0.0
 40
10.0
100
AcDbArc
 50
90.0
 51
270.0
  0
ARC
  5
255
330
194
100
AcDbEntity
  8
0
  6
Continuous
 62
     7
370
    25
100
AcDbCircle
 10
-135.0
 20
80.0
 30
0.0
 40
10.0
100
AcDbArc
 50
270.0
 51
90.0
  0
ARC
  5
256
330
194
100
AcDbEntity
  8
0
  6
Continuous
 62
     7
370
    25
100
AcDbCircle
 10
135.0
 20
80.0
 30
0.0
 40
10.0
100
AcDbArc
 50
90.0
 51
270.0
  0
ARC
  5
257
330
194
100
AcDbEntity
  8
0
  6
Continuous
 62
     7
370
    25
100
AcDbCircle
 10
233.0
 20
3.0
 30
0.0
 40
3.000000000000796
100
AcDbArc
 50
255.0511581778
 51
270.0
  0
ARC
  5
258
330
194
100
AcDbEntity
  8
0
  6
Continuous
 62
     7
370
    25
100
AcDbCircle
 10
295.0
 20
125.0
 30
0.0
 40
5.0
100
AcDbArc
 50
0.0
 51
90.0
  0
ARC
  5
259
330
194
100
AcDbEntity
  8
0
  6
Continuous
 62
     7
370
    25
100
AcDbCircle
 10
230.0
 20
4.021412013
 30
0.0
 40
4.021412013010257
100
AcDbArc
 50
185.9152074822
 51
282.8346915544
  0
ARC
  5
25A
330
194
100
AcDbEntity
  8
0
  6
Continuous
 62
     7
370
    25
100
AcDbCircle
 10
297.0
 20
3.0
 30
0.0
 40
3.000000000000013
100
AcDbArc
 50
270.0
 51
0.0
  0
ARC
  5
25B
330
194
100
AcDbEntity
  8
0
  6
Continuous
 62
     7
370
    25
100
AcDbCircle
 10
-295.0
 20
125.0
 30
0.0
 40
5.000000000000014
100
AcDbArc
 50
90.0
 51
180.0
  0
ARC
  5
25C
330
194
100
AcDbEntity
  8
0
  6
Continuous
 62
     7
370
    25
100
AcDbCircle
 10
231.5597286863
 20
-2.8245702453
 30
0.0
 40
3.000000000000584
100
AcDbArc
 50
76.1107907638
 51
102.8346915544
  0
ARC
  5
25D
330
194
100
AcDbEntity
  8
0
  6
Continuous
 62
     7
370
    25
100
AcDbCircle
 10
-231.5597286863
 20
-2.8245702453
 30
0.0
 40
2.999999999999976
100
AcDbArc
 50
77.1653084456
 51
103.8892092362
  0
ARC
  5
25E
330
194
100
AcDbEntity
  8
0
  6
Continuous
 62
     7
370
    25
100
AcDbCircle
 10
16.331957013
 20
-193.743036946
 30
0.0
 40
215.034891249306
100
AcDbArc
 50
87.4004198986
 51
88.1998748965
  0
ARC
  5
25F
330
194
100
AcDbEntity
  8
0
  6
Continuous
 62
     7
370
    25
100
AcDbCircle
 10
22.6649383369
 20
0.2633676687
 30
0.0
 40
2.715245371395737
100
AcDbArc
 50
263.2231626919
 51
350.469265747
  0
ARC
  5
260
330
194
100
AcDbEntity
  8
0
  6
Continuous
 62
     7
370
    25
100
AcDbCircle
 10
-16.331957013
 20
-193.743036946
 30
0.0
 40
215.034891249302
100
AcDbArc
 50
91.8001251035
 51
92.5995801014
  0
ARC
  5
261
330
194
100
AcDbEntity
  8
0
  6
Continuous
 62
     7
370
    25
100
AcDbCircle
 10
-22.6649383369
 20
0.2633676687
 30
0.0
 40
2.715245371395753
100
AcDbArc
 50
189.5307342531
 51
276.7768373081
  0
ARC
  5
262
330
194
100
AcDbEntity
  8
0
  6
Continuous
 62
     7
370
    25
100
AcDbCircle
 10
-28.1080933597
 20
14.5662619014
 30
0.0
 40
14.4410922217933
100
AcDbArc
 50
83.0411106138
 51
94.9598032154
  0
ARC
  5
263
330
194
100
AcDbEntity
  8
0
  6
Continuous
 62
     7
370
    25
100
AcDbCircle
 10
28.1080933597
 20
14.5662619014
 30
0.0
 40
14.44109222179286
100
AcDbArc
 50
85.0401967846
 51
96.9588893862
  0
ARC
  5
264
330
194
100
AcDbEntity
  8
0
  6
Continuous
 62
     7
370
    25
100
AcDbCircle
 10
-22.1029336756
 20
-7.0
 30
0.0
 40
3.000000000000001
100
AcDbArc
 50
182.0
 51
270.0
  0
ARC
  5
265
330
194
100
AcDbEntity
  8
0
  6
Continuous
 62
     7
370
    25
100
AcDbCircle
 10
22.1029336756
 20
-7.0
 30
0.0
 40
3.0
100
AcDbArc
 50
270.0
 51
358.0
  0
ARC
  5
266
330
194
100
AcDbEntity
  8
0
  6
Continuous
 62
     7
370
    25
100
AcDbCircle
 10
28.5954817143
 20
7.0
 30
0.0
 40
3.000000000000005
100
AcDbArc
 50
90.0
 51
178.0
  0
ARC
  5
267
330
194
100
AcDbEntity
  8
0
  6
Continuous
 62
     7
370
    25
100
AcDbCircle
 10
-28.5954817143
 20
7.0
 30
0.0
 40
3.000000000000005
100
AcDbArc
 50
2.0
 51
90.0
  0
ARC
  5
268
330
194
100
AcDbEntity
  8
0
  6
Continuous
 62
     7
370
    25
100
AcDbCircle
 10
-25.5715037753
 20
-16.6376134321
 30
0.0
 40
9.54451367078599
100
AcDbArc
 50
87.1750555369
 51
92.8249444631
  0
ARC
  5
269
330
194
100
AcDbEntity
  8
0
  6
Continuous
 62
     7
370
    25
100
AcDbCircle
 10
25.5715037753
 20
-16.6376134321
 30
0.0
 40
9.544513670785923
100
AcDbArc
 50
87.1750555369
 51
92.8249444631
  0
ARC
  5
26A
330
194
100
AcDbEntity
  8
0
  6
Continuous
 62
     7
370
    25
100
AcDbCircle
 10
-29.1383931759
 20
7.4254452401
 30
0.0
 40
2.631175605528323
100
AcDbArc
 50
352.9980889429
 51
78.0921656064
  0
ARC
  5
26B
330
194
100
AcDbEntity
  8
0
  6
Continuous
 62
     7
370
    25
100
AcDbCircle
 10
29.1383931759
 20
7.4254452401
 30
0.0
 40
2.631175605528336
100
AcDbArc
 50
101.9078343936
 51
187.0019110571
  0
ARC
  5
26C
330
194
100
AcDbEntity
  8
0
  6
Continuous
 62
     7
370
    25
100
AcDbCircle
 10
-26.0620749422
 20
-2.3280307812
 30
0.0
 40
9.444172206666886
100
AcDbArc
 50
87.1792261741
 51
92.8207738259
  0
ARC
  5
26D
330
194
100
AcDbEntity
  8
0
  6
Continuous
 62
     7
370
    25
100
AcDbCircle
 10
26.0620749422
 20
-2.3280307812
 30
0.0
 40
9.444172206668156
100
AcDbArc
 50
87.1792261741
 51
92.8207738259
  0
VIEWPORT
  5
34F
330
194
100
AcDbEntity
  8
0
100
AcDbViewport
 10
0.0
 20
0.0
 30
0.0
 40
205.6
 41
156.0
 68
     1
 69
     1
 12
0.0
 22
0.0
 13
0.0
 23
0.0
 14
10.0
 24
10.0
 15
10.0
 25
10.0
 16
0.0
 26
0.0
 36
1.0
 17
0.0
 27
0.0
 37
0.0
 42
50.0
 43
0.0
 44
0.0
 45
464.3579766537
 50
0.0
 51
0.0
 72
   100
 90
   557152
  1

281
     0
 71
     1
 74
     0
110
0.0
120
0.0
130
0.0
111
1.0
121
0.0
131
0.0
112
0.0
122
1.0
132
0.0
 79
     0
146
0.0
  0
ENDBLK
  5
197
330
194
100
AcDbEntity
  8
0
100
AcDbBlockEnd
  0
BLOCK
  5
270
330
26E
100
AcDbEntity
  8
0
100
AcDbBlockBegin
  2
*Paper_Space2
 70
     0
 10
0.0
 20
0.0
 30
0.0
  3
*Paper_Space2
  1

  0
SPLINE
  5
272
330
26E
100
AcDbEntity
  8
0
  6
Continuous
 62
     7
370
    25
100
AcDbSpline
210
0.0
220
0.0
230
1.0
 70
     8
 71
     3
 72
    19
 73
    15
 74
     0
 42
0.000000001
 43
0.00000001
 40
0.0
 40
0.0
 40
0.0
 40
0.0
 40
0.0476216386034091
 40
0.1385761560092267
 40
0.230712374166672
 40
0.3242351387120142
 40
0.4189632279470449
 40
0.5146050618483013
 40
0.61082074513992
 40
0.7072381896030127
 40
0.8033602774346223
 40
0.8987261399860139
 40
0.98725768301147
 40
1.0
 40
1.0
 40
1.0
 40
1.0
 10
71.35273783712904
 20
-77.2726466869569
 30
0.0
 10
71.17291051324993
 20
-77.37184795068013
 30
0.0
 10
70.64962362058073
 20
-77.66051776971989
 30
0.0
 10
69.59415445765485
 20
-78.10810786614816
 30
0.0
 10
68.14857294780619
 20
-78.5545857030295
 30
0.0
 10
66.53263509698684
 20
-78.88605959913303
 30
0.0
 10
64.80132323796556
 20
-79.08023026560113
 30
0.0
 10
63.0107348711334
 20
-79.12310154624407
 30
0.0
 10
61.22208076272431
 20
-79.00997246719515
 30
0.0
 10
59.4979388926434
 20
-78.74577246961276
 30
0.0
 10
57.89922402297015
 20
-78.3457746930735
 30
0.0
 10
56.51304934086662
 20
-77.84640711707938
 30
0.0
 10
55.68143212072496
 20
-77.44341793176282
 30
0.0
 10
55.30632426241397
 20
-77.22956087029719
 30
0.0
 10
55.25912804381594
 20
-77.20265329052239
 30
0.0
  0
SPLINE
  5
275
330
26E
100
AcDbEntity
  8
0
  6
Continuous
 62
     7
370
    25
100
AcDbSpline
210
0.0
220
0.0
230
1.0
 70
     8
 71
     3
 72
    12
 73
     8
 74
     0
 42
0.000000001
 43
0.00000001
 40
0.0
 40
0.0
 40
0.0
 40
0.0
 40
0.195010559539545
 40
0.4144463356182396
 40
0.655591853774644
 40
0.8831239272427802
 40
1.0
 40
1.0
 40
1.0
 40
1.0
 10
61.43262542664804
 20
-205.4751642748961
 30
0.0
 10
61.70008375357114
 20
-205.6068763575475
 30
0.0
 10
62.26849976030211
 20
-205.8867975584323
 30
0.0
 10
63.27383024386277
 20
-206.0701323826814
 30
0.0
 10
64.34441589503315
 20
-206.0345569949281
 30
0.0
 10
65.22368918616317
 20
-205.8015078323208
 30
0.0
 10
65.68876883157077
 20
-205.5578502888369
 30
0.0
 10
65.84659518692936
 20
-205.4751642748962
 30
0.0
  0
SPLINE
  5
278
330
26E
100
AcDbEntity
  8
0
  6
Continuous
 62
     7
370
    25
100
AcDbSpline
210
0.0
220
0.0
230
1.0
 70
     8
 71
     3
 72
    12
 73
     8
 74
     0
 42
0.000000001
 43
0.00000001
 40
0.0
 40
0.0
 40
0.0
 40
0.0
 40
0.1216679716705785
 40
0.3481753738374065
 40
0.5590380471281554
 40
0.7811280531778353
 40
1.0
 40
1.0
 40
1.0
 40
1.0
 10
244.6486956283922
 20
23.39091994183422
 30
0.0
 10
244.6485656357177
 20
23.38830181747193
 30
0.0
 10
244.6481936376694
 20
23.38080957102391
 30
0.0
 10
244.5673318488766
 20
23.1876855604669
 30
0.0
 10
244.2707282771753
 20
22.80052211304205
 30
0.0
 10
243.7268702897963
 20
22.28338755924145
 30
0.0
 10
243.1270329011509
 20
21.90598930414907
 30
0.0
 10
242.8293029582964
 20
21.71866726812897
 30
0.0
  0
SPLINE
  5
279
330
26E
100
AcDbEntity
  8
0
  6
Continuous
 62
     7
370
    25
100
AcDbSpline
210
0.0
220
0.0
230
1.0
 70
     8
 71
     3
 72
    12
 73
     8
 74
     0
 42
0.000000001
 43
0.00000001
 40
0.0
 40
0.0
 40
0.0
 40
0.0
 40
0.2319288037893519
 40
0.4555691987065586
 40
0.6690049329671498
 40
0.8794273206580837
 40
1.0
 40
1.0
 40
1.0
 40
1.0
 10
358.9676041556468
 20
65.32923645369647
 30
0.0
 10
358.9387879452777
 20
65.71348295362597
 30
0.0
 10
358.8821853256237
 20
66.46824418732623
 30
0.0
 10
358.452104750534
 20
67.50661971784314
 30
0.0
 10
357.8282538002525
 20
68.37942998214388
 30
0.0
 10
357.1676550226396
 20
69.00739553232962
 30
0.0
 10
356.6865585712981
 20
69.2691530554331
 30
0.0
 10
356.5113079590152
 20
69.36450434323747
 30
0.0
  0
SPLINE
  5
27C
330
26E
100
AcDbEntity
  8
0
  6
Continuous
 62
     7
370
    25
100
AcDbSpline
210
0.0
220
0.0
230
1.0
 70
     8
 71
     3
 72
    32
 73
    28
 74
     0
 42
0.000000001
 43
0.00000001
 40
0.0
 40
0.0
 40
0.0
 40
0.0
 40
0.0234698222702381
 40
0.0661263456492314
 40
0.1065769664460106
 40
0.1495924494424007
 40
0.1912344605758929
 40
0.2323124844444275
 40
0.2732750920535852
 40
0.3142665125676125
 40
0.3553810907260668
 40
0.3966344445545716
 40
0.438006299953088
 40
0.479461196176631
 40
0.5209578312150632
 40
0.5624515706993237
 40
0.6038848785584652
 40
0.6452135112147733
 40
0.6863951516842913
 40
0.7273947793180995
 40
0.7681972417024315
 40
0.8088334389582549
 40
0.8494178324958545
 40
0.8901501990103416
 40
0.9315334789579423
 40
0.9744461268516132
 40
1.0
 40
1.0
 40
1.0
 40
1.0
 10
192.8257117797369
 20
124.0400901791149
 30
0.0
 10
192.8294165573048
 20
123.8447314145814
 30
0.0
 10
192.839854787266
 20
123.2943070849719
 30
0.0
 10
192.5689525133017
 20
122.3934230082175
 30
0.0
 10
192.0263657450722
 20
121.2988339818545
 30
0.0
 10
191.1834414420387
 20
120.2033385223499
 30
0.0
 10
190.040348867744
 20
119.1303212153964
 30
0.0
 10
188.642416370074
 20
118.1378447685759
 30
0.0
 10
187.0087660748284
 20
117.2432323930227
 30
0.0
 10
185.1631506182394
 20
116.4654117954728
 30
0.0
 10
183.1364180401991
 20
115.8224911156279
 30
0.0
 10
180.9637234094241
 20
115.3298158926533
 30
0.0
 10
178.6845948194955
 20
114.999488010678
 30
0.0
 10
176.3414656179002
 20
114.8397619022245
 30
0.0
 10
173.9784904962606
 20
114.8547857698689
 30
0.0
 10
171.6407232458787
 20
115.0444641642183
 30
0.0
 10
169.37288557158
 20
115.4043344953018
 30
0.0
 10
167.2183476129676
 20
115.925529989443
 30
0.0
 10
165.2179340637954
 20
116.5948374840928
 30
0.0
 10
163.40898534571
 20
117.3946715248592
 30
0.0
 10
161.8240506526656
 20
118.3032412248125
 30
0.0
 10
160.4887787096275
 20
119.2950798688979
 30
0.0
 10
159.4222569073989
 20
120.3419019168779
 30
0.0
 10
158.6275949071936
 20
121.416277122061
 30
0.0
 10
158.1153555485687
 20
122.499488125755
 30
0.0
 10
157.8630307021853
 20
123.4247443952272
 30
0.0
 10
157.8891953787198
 20
123.9948152755052
 30
0.0
 10
157.898960864317
 20
124.2075837751821
 30
0.0
  0
SPLINE
  5
27D
330
26E
100
AcDbEntity
  8
0
  6
Continuous
 62
     7
370
    25
100
AcDbSpline
210
0.0
220
0.0
230
1.0
 70
     8
 71
     3
 72
    11
 73
     7
 74
     0
 42
0.000000001
 43
0.00000001
 40
0.0
 40
0.0
 40
0.0
 40
0.0
 40
0.2932691049406511
 40
0.5553863261680645
 40
0.819550547957103
 40
0.9999999999999999
 40
0.9999999999999999
 40
0.9999999999999999
 40
0.9999999999999999
 10
357.1745890357874
 20
-37.29509323941841
 30
0.0
 10
357.4708168189375
 20
-37.09202555455361
 30
0.0
 10
358.0318062222564
 20
-36.70746061552475
 30
0.0
 10
358.6088526502189
 20
-35.87742034490672
 30
0.0
 10
358.9344245765219
 20
-35.05887150412799
 30
0.0
 10
358.9358733795469
 20
-34.51300537471494
 30
0.0
 10
358.9364613860059
 20
-34.29146193208438
 30
0.0
  0
SPLINE
  5
27E
330
26E
100
AcDbEntity
  8
0
  6
Continuous
 62
     7
370
    25
100
AcDbSpline
210
0.0
220
0.0
230
1.0
 70
     8
 71
     3
 72
    15
 73
    11
 74
     0
 42
0.000000001
 43
0.00000001
 40
0.0
 40
0.0
 40
0.0
 40
0.0
 40
0.0738250663051439
 40
0.2295787579221729
 40
0.385320050770503
 40
0.5392588126506264
 40
0.6906773281339164
 40
0.8422435753569989
 40
0.996325745376719
 40
1.0
 40
1.0
 40
1.0
 40
1.0
 10
-19.85512823502511
 20
-8.837876872737779
 30
0.0
 10
-19.44895179422257
 20
-8.748459341062588
 30
0.0
 10
-18.1858376861869
 20
-8.47039164826019
 30
0.0
 10
-15.9560571398203
 20
-8.176026348203267
 30
0.0
 10
-13.22355091216049
 20
-7.958076434537803
 30
0.0
 10
-10.48543205414129
 20
-7.927132505963733
 30
0.0
 10
-7.782125449099048
 20
-8.068204335043516
 30
0.0
 10
-5.14060507101567
 20
-8.396435677802488
 30
0.0
 10
-3.370149497905671
 20
-8.68242924396765
 30
0.0
 10
-2.524133613152295
 20
-8.899856101726215
 30
0.0
 10
-2.504429326731257
 20
-8.904920121395474
 30
0.0
  0
SPLINE
  5
27F
330
26E
100
AcDbEntity
  8
0
  6
Continuous
 62
     7
370
    25
100
AcDbSpline
210
0.0
220
0.0
230
1.0
 70
     8
 71
     3
 72
    13
 73
     9
 74
     0
 42
0.000000001
 43
0.00000001
 40
0.0
 40
0.0
 40
0.0
 40
0.0
 40
0.1145565858880669
 40
0.3278782381066868
 40
0.5391961266742682
 40
0.7530043028390302
 40
0.978753401132808
 40
1.0
 40
1.0
 40
1.0
 40
1.0
 10
-315.5400561645159
 20
136.8551594042919
 30
0.0
 10
-315.7113938858886
 20
136.9587253551117
 30
0.0
 10
-316.2017883033672
 20
137.2551467369065
 30
0.0
 10
-316.8091268032499
 20
137.739398238362
 30
0.0
 10
-317.2606079368666
 20
138.2315762820582
 30
0.0
 10
-317.4584382541129
 20
138.5595855884613
 30
0.0
 10
-317.4862630631426
 20
138.6708044092814
 30
0.0
 10
-317.4865478803698
 20
138.6700483823522
 30
0.0
 10
-317.4865723803809
 20
138.6699833488269
 30
0.0
  0
SPLINE
  5
280
330
26E
100
AcDbEntity
  8
0
  6
Continuous
 62
     7
370
    25
100
AcDbSpline
210
0.0
220
0.0
230
1.0
 70
     8
 71
     3
 72
    12
 73
     8
 74
     0
 42
0.000000001
 43
0.00000001
 40
0.0
 40
0.0
 40
0.0
 40
0.0
 40
0.0922738872102066
 40
0.3211321796973782
 40
0.5467939952964318
 40
0.7724535141860717
 40
1.0
 40
1.0
 40
1.0
 40
1.0
 10
-356.4973460960652
 20
142.8437236627909
 30
0.0
 10
-356.6343409511705
 20
142.7753847112495
 30
0.0
 10
-357.1111113328828
 20
142.5375510496338
 30
0.0
 10
-357.7849396986102
 20
141.9083291516727
 30
0.0
 10
-358.44971440365
 20
140.9953205282602
 30
0.0
 10
-358.8839479149534
 20
139.936529494774
 30
0.0
 10
-358.9396414469511
 20
139.1838654398876
 30
0.0
 10
-358.9676041556467
 20
138.8059665177409
 30
0.0
  0
SPLINE
  5
283
330
26E
100
AcDbEntity
  8
0
  6
Continuous
 62
     7
370
    25
100
AcDbSpline
210
0.0
220
0.0
230
1.0
 70
     8
 71
     3
 72
    15
 73
    11
 74
     0
 42
0.000000001
 43
0.00000001
 40
0.0
 40
0.0
 40
0.0
 40
0.0
 40
0.0050092830500761
 40
0.1568162231491292
 40
0.3089183938251161
 40
0.4612980040141881
 40
0.6138057304202631
 40
0.7662273216677588
 40
0.9183030757477477
 40
1.0
 40
1.0
 40
1.0
 40
1.0
 10
60.44747886058059
 20
110.2977851447267
 30
0.0
 10
60.43445387923666
 20
110.3084463010058
 30
0.0
 10
60.02670523326809
 20
110.6421951120392
 30
0.0
 10
59.27379385225923
 20
111.5115710509911
 30
0.0
 10
58.24324642859121
 20
112.8796134035146
 30
0.0
 10
57.35512487594001
 20
114.4199432158207
 30
0.0
 10
56.62839657644704
 20
116.0501738465799
 30
0.0
 10
56.10201572026578
 20
117.7202309420269
 30
0.0
 10
55.79720843646523
 20
119.1368625891656
 30
0.0
 10
55.75401758340819
 20
119.9442788634202
 30
0.0
 10
55.73892360460892
 20
120.2264479631986
 30
0.0
  0
SPLINE
  5
284
330
26E
100
AcDbEntity
  8
0
  6
Continuous
 62
     7
370
    25
100
AcDbSpline
210
0.0
220
0.0
230
1.0
 70
     8
 71
     3
 72
    20
 73
    16
 74
     0
 42
0.000000001
 43
0.00000001
 40
0.0
 40
0.0
 40
0.0
 40
0.0
 40
0.0737062635932896
 40
0.1512369200553385
 40
0.2292840496616418
 40
0.3069893743218304
 40
0.384564046236178
 40
0.4626183447814945
 40
0.5403879837921994
 40
0.6179477694362351
 40
0.6949659832958194
 40
0.7721148324029212
 40
0.8501791777019746
 40
0.9278988493358127
 40
1.0
 40
1.0
 40
1.0
 40
1.0
 10
-11.57633462371041
 20
14.38665549521766
 30
0.0
 10
-10.70175784927051
 20
14.37629199539579
 30
0.0
 10
-8.907225183117761
 20
14.35502726540349
 30
0.0
 10
-6.217809244147839
 20
14.09768469887597
 30
0.0
 10
-3.547256951763376
 20
13.67966733889986
 30
0.0
 10
-0.9790624308506521
 20
13.08688064712264
 30
0.0
 10
1.452555361706908
 20
12.33348825797718
 30
0.0
 10
3.721756710569713
 20
11.43308396300474
 30
0.0
 10
5.790726984291703
 20
10.39485847516689
 30
0.0
 10
7.629387405778212
 20
9.241178665281208
 30
0.0
 10
9.214043998771347
 20
7.989758187494332
 30
0.0
 10
10.53945261479375
 20
6.653266274345787
 30
0.0
 10
11.5854860965784
 20
5.253963783917966
 30
0.0
 10
12.34026040435888
 20
3.851935845697485
 30
0.0
 10
12.5977688278701
 20
2.914197040623803
 30
0.0
 10
12.72169455031706
 20
2.462910992188046
 30
0.0
  0
SPLINE
  5
285
330
26E
100
AcDbEntity
  8
0
  6
Continuous
 62
     7
370
    25
100
AcDbSpline
210
0.0
220
0.0
230
1.0
 70
     8
 71
     3
 72
    32
 73
    28
 74
     0
 42
0.000000001
 43
0.00000001
 40
0.0
 40
0.0
 40
0.0
 40
0.0
 40
0.0234698222702291
 40
0.0661263456492218
 40
0.106576966446004
 40
0.1495924494423963
 40
0.1912344605758899
 40
0.2323124844444223
 40
0.2732750920535766
 40
0.3142665125676048
 40
0.3553810907260593
 40
0.3966344445545651
 40
0.4380062999530823
 40
0.4794611961766213
 40
0.5209578312150521
 40
0.5624515706993096
 40
0.6038848785584523
 40
0.6452135112147573
 40
0.6863951516842753
 40
0.7273947793180835
 40
0.7681972417024155
 40
0.8088334389582387
 40
0.8494178324958457
 40
0.8901501990103267
 40
0.931533478957925
 40
0.9744461268515985
 40
1.0
 40
1.0
 40
1.0
 40
1.0
 10
122.1150336610822
 20
164.8604957702505
 30
0.0
 10
122.1187384386501
 20
164.665137005717
 30
0.0
 10
122.1291766686114
 20
164.1147126761077
 30
0.0
 10
121.8582743946472
 20
163.2138285993533
 30
0.0
 10
121.3156876264177
 20
162.1192395729903
 30
0.0
 10
120.4727633233842
 20
161.0237441134855
 30
0.0
 10
119.3296707490897
 20
159.9507268065321
 30
0.0
 10
117.9317382514197
 20
158.9582503597116
 30
0.0
 10
116.2980879561742
 20
158.0636379841584
 30
0.0
 10
114.4524724995852
 20
157.2858173866085
 30
0.0
 10
112.425739921545
 20
156.6428967067636
 30
0.0
 10
110.25304529077
 20
156.150221483789
 30
0.0
 10
107.9739167008415
 20
155.8198936018136
 30
0.0
 10
105.6307874992463
 20
155.6601674933601
 30
0.0
 10
103.2678123776068
 20
155.6751913610044
 30
0.0
 10
100.9300451272249
 20
155.8648697553538
 30
0.0
 10
98.66220745292627
 20
156.2247400864372
 30
0.0
 10
96.50766949431383
 20
156.7459355805783
 30
0.0
 10
94.50725594514167
 20
157.4152430752281
 30
0.0
 10
92.69830722705619
 20
158.2150771159942
 30
0.0
 10
91.11337253401165
 20
159.1236468159476
 30
0.0
 10
89.7781005909733
 20
160.1154854600329
 30
0.0
 10
88.71157878874467
 20
161.162307508013
 30
0.0
 10
87.91691678853927
 20
162.2366827131961
 30
0.0
 10
87.40467742991422
 20
163.31989371689
 30
0.0
 10
87.15235258353077
 20
164.2451499863624
 30
0.0
 10
87.17851726006515
 20
164.8152208666405
 30
0.0
 10
87.18828274566235
 20
165.0279893663175
 30
0.0
  0
SPLINE
  5
286
330
26E
100
AcDbEntity
  8
0
  6
Continuous
 62
     7
370
    25
100
AcDbSpline
210
0.0
220
0.0
230
1.0
 70
     8
 71
     3
 72
    32
 73
    28
 74
     0
 42
0.000000001
 43
0.00000001
 40
0.0
 40
0.0
 40
0.0
 40
0.0
 40
0.0234698222702381
 40
0.0661263456492314
 40
0.1065769664460106
 40
0.1495924494424007
 40
0.1912344605758929
 40
0.2323124844444275
 40
0.2732750920535852
 40
0.3142665125676125
 40
0.3553810907260668
 40
0.3966344445545716
 40
0.438006299953088
 40
0.479461196176631
 40
0.5209578312150632
 40
0.5624515706993237
 40
0.6038848785584652
 40
0.6452135112147733
 40
0.6863951516842913
 40
0.7273947793180995
 40
0.7681972417024315
 40
0.8088334389582549
 40
0.8494178324958545
 40
0.8901501990103416
 40
0.9315334789579423
 40
0.9744461268516132
 40
1.0
 40
1.0
 40
1.0
 40
1.0
 10
51.4043555424276
 20
205.6809013613859
 30
0.0
 10
51.40806031999547
 20
205.4855425968525
 30
0.0
 10
51.41849854995671
 20
204.935118267243
 30
0.0
 10
51.14759627599245
 20
204.0342341904885
 30
0.0
 10
50.60500950776292
 20
202.9396451641256
 30
0.0
 10
49.7620852047294
 20
201.8441497046209
 30
0.0
 10
48.61899263043478
 20
200.7711323976674
 30
0.0
 10
47.22106013276476
 20
199.7786559508469
 30
0.0
 10
45.58740983751911
 20
198.8840435752938
 30
0.0
 10
43.74179438093006
 20
198.1062229777438
 30
0.0
 10
41.71506180288985
 20
197.4633022978989
 30
0.0
 10
39.54236717211481
 20
196.9706270749244
 30
0.0
 10
37.26323858218625
 20
196.640299192949
 30
0.0
 10
34.92010938059094
 20
196.4805730844956
 30
0.0
 10
32.55713425895135
 20
196.49559695214
 30
0.0
 10
30.21936700856938
 20
196.6852753464893
 30
0.0
 10
27.95152933427072
 20
197.0451456775728
 30
0.0
 10
25.7969913756583
 20
197.5663411717141
 30
0.0
 10
23.79657782648611
 20
198.2356486663639
 30
0.0
 10
21.98762910840076
 20
199.0354827071302
 30
0.0
 10
20.40269441535626
 20
199.9440524070835
 30
0.0
 10
19.06742247231821
 20
200.9358910511689
 30
0.0
 10
18.00090067008964
 20
201.982713099149
 30
0.0
 10
17.20623866988431
 20
203.057088304332
 30
0.0
 10
16.69399931125942
 20
204.140299308026
 30
0.0
 10
16.44167446487607
 20
205.0655555774983
 30
0.0
 10
16.46783914141047
 20
205.6356264577763
 30
0.0
 10
16.47760462700769
 20
205.8483949574531
 30
0.0
  0
SPLINE
  5
287
330
26E
100
AcDbEntity
  8
0
  6
Continuous
 62
     7
370
    25
100
AcDbSpline
210
0.0
220
0.0
230
1.0
 70
     8
 71
     3
 72
    12
 73
     8
 74
     0
 42
0.000000001
 43
0.00000001
 40
0.0
 40
0.0
 40
0.0
 40
0.0
 40
0.0852899235304847
 40
0.35629795060988
 40
0.6059182774528581
 40
0.8462433007381537
 40
1.0
 40
1.0
 40
1.0
 40
1.0
 10
-358.9364613860058
 20
39.19070680339885
 30
0.0
 10
-358.9452881089891
 20
39.08641981550008
 30
0.0
 10
-358.9821616712973
 20
38.65076178550638
 30
0.0
 10
-358.7549755170041
 20
37.9185092286719
 30
0.0
 10
-358.2963672182111
 20
37.10840042337158
 30
0.0
 10
-357.7381452510319
 20
36.53993805847556
 30
0.0
 10
-357.3327571015071
 20
36.28219788946746
 30
0.0
 10
-357.1745890357873
 20
36.18163682462608
 30
0.0
  0
SPLINE
  5
289
330
26E
100
AcDbEntity
  8
0
  6
Continuous
 62
     7
370
    25
100
AcDbSpline
210
0.0
220
0.0
230
1.0
 70
     8
 71
     3
 72
    25
 73
    21
 74
     0
 42
0.000000001
 43
0.00000001
 40
0.0
 40
0.0
 40
0.0
 40
0.0
 40
0.0044508058320295
 40
0.0604490183036555
 40
0.1162842438766374
 40
0.1727316493012066
 40
0.230382009723885
 40
0.289357603553776
 40
0.3493628800393546
 40
0.4099341328521317
 40
0.4706661671292542
 40
0.5313407309741193
 40
0.5919246657370882
 40
0.6524501499077715
 40
0.7129800715282125
 40
0.7735789152336373
 40
0.8343115624004134
 40
0.8952524215643205
 40
0.9564531866990834
 40
1.0
 40
1.0
 40
1.0
 40
1.0
 10
46.38607401905504
 20
127.4030578519811
 30
0.0
 10
46.34793604520642
 20
127.3886737720527
 30
0.0
 10
45.82996173533008
 20
127.1933151013548
 30
0.0
 10
44.95878684237465
 20
126.546048949162
 30
0.0
 10
43.82773477762161
 20
125.4750188776921
 30
0.0
 10
42.9054722257698
 20
124.1431499520281
 30
0.0
 10
42.18414295809453
 20
122.6069749510929
 30
0.0
 10
41.6812408721931
 20
120.8740864808197
 30
0.0
 10
41.40831581792525
 20
118.9764141652795
 30
0.0
 10
41.37362927566706
 20
116.9527534185928
 30
0.0
 10
41.57729587154133
 20
114.8486909303042
 30
0.0
 10
42.01269025991343
 20
112.7094934623828
 30
0.0
 10
42.66857817479186
 20
110.5779265450616
 30
0.0
 10
43.53076428080426
 20
108.4943333608004
 30
0.0
 10
44.58246648812725
 20
106.4975676509021
 30
0.0
 10
45.80471873342339
 20
104.6255774040027
 30
0.0
 10
47.17637493042125
 20
102.9125223697475
 30
0.0
 10
48.67626700180724
 20
101.397673057895
 30
0.0
 10
50.12114527842088
 20
100.2187465359609
 30
0.0
 10
51.07585025315169
 20
99.63061203656477
 30
0.0
 10
51.47275068667905
 20
99.3861063055158
 30
0.0
  0
SPLINE
  5
28A
330
26E
100
AcDbEntity
  8
0
  6
Continuous
 62
     7
370
    25
100
AcDbSpline
210
0.0
220
0.0
230
1.0
 70
     8
 71
     3
 72
    13
 73
     9
 74
     0
 42
0.000000001
 43
0.00000001
 40
0.0
 40
0.0
 40
0.0
 40
0.0
 40
0.107771567129961
 40
0.3074820681068833
 40
0.506073730471232
 40
0.7008619145725932
 40
0.8904842223753819
 40
1.0
 40
1.0
 40
1.0
 40
1.0
 10
51.47275068667906
 20
99.38610630551581
 30
0.0
 10
51.77776897288943
 20
99.21903381555016
 30
0.0
 10
52.64801384314617
 20
98.74236082928418
 30
0.0
 10
54.11604259669043
 20
98.18099974959495
 30
0.0
 10
55.85111502993682
 20
97.81528814325453
 30
0.0
 10
57.53523745411715
 20
97.79740114777292
 30
0.0
 10
58.93159896674111
 20
98.0192143220535
 30
0.0
 10
59.69762016263815
 20
98.36658718267307
 30
0.0
 10
59.97806391431138
 20
98.49376192507371
 30
0.0
  0
SPLINE
  5
28D
330
26E
100
AcDbEntity
  8
0
  6
Continuous
 62
     7
370
    25
100
AcDbSpline
210
0.0
220
0.0
230
1.0
 70
     8
 71
     3
 72
    27
 73
    23
 74
     0
 42
0.000000001
 43
0.00000001
 40
0.0
 40
0.0
 40
0.0
 40
0.0
 40
0.0342432612257759
 40
0.0875966025995541
 40
0.1374037149022643
 40
0.1905297198180196
 40
0.2418761793833271
 40
0.2927043508501049
 40
0.3435027194691618
 40
0.3944649538295421
 40
0.4456296461424483
 40
0.4969422313226422
 40
0.5483107910539462
 40
0.5996146379984164
 40
0.6507267472926462
 40
0.701553454661308
 40
0.7520399276637579
 40
0.8022277556941924
 40
0.8523391444341334
 40
0.9028239226692564
 40
0.9548419290592866
 40
1.0
 40
1.0
 40
1.0
 40
1.0
 10
48.58195167845843
 20
122.8877897184241
 30
0.0
 10
48.74288930746835
 20
122.9713290576066
 30
0.0
 10
49.15457876189109
 20
123.1850283968008
 30
0.0
 10
49.93767497788329
 20
123.2804861454076
 30
0.0
 10
50.96140080071572
 20
123.201787303801
 30
0.0
 10
52.10471062601213
 20
122.8578228656603
 30
0.0
 10
53.33369445833132
 20
122.2341439320014
 30
0.0
 10
54.56714017811598
 20
121.3563554558016
 30
0.0
 10
55.77083903153644
 20
120.2420908086655
 30
0.0
 10
56.9076913347382
 20
118.917068574799
 30
0.0
 10
57.94125418555096
 20
117.41593139266
 30
0.0
 10
58.83814501384311
 20
115.7810153891885
 30
0.0
 10
59.56980239452857
 20
114.0610616506963
 30
0.0
 10
60.11414757274748
 20
112.3092694048806
 30
0.0
 10
60.45702108223581
 20
110.5810079322457
 30
0.0
 10
60.59324696398995
 20
108.9314725012111
 30
0.0
 10
60.52758126846342
 20
107.4128322238853
 30
0.0
 10
60.27481540157307
 20
106.07220905247
 30
0.0
 10
59.86104475613703
 20
104.945035539794
 30
0.0
 10
59.31420081391794
 20
104.0591581392004
 30
0.0
 10
58.71394457057362
 20
103.4268163785327
 30
0.0
 10
58.25598925863733
 20
103.1929938743067
 30
0.0
 10
58.04317578610223
 20
103.0843357197134
 30
0.0
  0
LWPOLYLINE
  5
29E
330
26E
100
AcDbEntity
  8
0
  6
Continuous
 62
     7
370
    25
100
AcDbPolyline
 90
       11
 70
   128
 43
0.0
 10
-318.0398529961
 20
136.6076191518
 10
-319.5778510919
 20
137.643935944
 10
-320.8176168097
 20
138.8014002719
 10
-321.7292072612
 20
140.0520569947
 10
-322.2906056646
 20
141.3657001839
 10
-322.4882530954
 20
142.7106026582
 10
-322.3173759622
 20
144.0542822606
 10
-321.7821012987
 20
145.3642863689
 10
-320.8953570875
 20
146.6089756932
 10
-319.6785600225
 20
147.7582884299
 10
-318.1610982521
 20
148.7844663158
  0
LWPOLYLINE
  5
2A2
330
26E
100
AcDbEntity
  8
0
  6
Continuous
 62
     7
370
    25
100
AcDbPolyline
 90
       11
 70
   128
 43
0.0
 10
245.2078545339
 20
33.6479741796
 10
246.7458526296
 20
32.6116573874
 10
247.9856183475
 20
31.4541930595
 10
248.897208799
 20
30.2035363367
 10
249.4586072024
 20
28.8898931475
 10
249.6562546332
 20
27.5449906732
 10
249.4853775
 20
26.2013110708
 10
248.9501028365
 20
24.8913069625
 10
248.0633586252
 20
23.6466176382
 10
246.8465615603
 20
22.4973049015
 10
245.3290997899
 20
21.4711270157
  0
LWPOLYLINE
  5
2A8
330
26E
100
AcDbEntity
  8
0
  6
Continuous
 62
     7
370
    25
100
AcDbPolyline
 90
       47
 70
   128
 43
0.0
 10
118.4403858487
 20
174.5244849103
 10
120.1895032882
 20
173.3664615559
 10
121.6491827812
 20
172.0817306359
 10
122.7922332607
 20
170.6942242567
 10
123.5973618589
 20
169.2297890366
 10
124.0495705533
 20
167.7157046332
 10
124.1404355517
 20
166.180175574
 10
123.8682642111
 20
164.6518058601
 10
123.2381265685
 20
163.1590661275
 10
122.2617608959
 20
161.729763293
 10
120.9573550386
 20
160.3905225641
 10
119.3492076095
 20
159.1662914617
 10
117.4672753526
 20
158.0798750948
 10
115.346615105
 20
157.1515113448
 10
113.0267307547
 20
156.3984938717
 10
110.5508373578
 20
155.8348499665
 10
107.9650561237
 20
155.4710792485
 10
105.3175552642
 20
155.3139580779
 10
102.6576527112
 20
155.366413325
 10
100.0348974165
 20
155.6274678476
 10
97.4981463488
 20
156.092258694
 10
95.0946543806
 20
156.75212769
 10
92.8691940199
 20
157.594782725
 10
90.8632213825
 20
158.6045267298
 10
89.114103943
 20
159.7625500842
 10
87.65442445
 20
161.0472810041
 10
86.5113739705
 20
162.4347873834
 10
85.7062453723
 20
163.8992226034
 10
85.2540366779
 20
165.4133070069
 10
85.1631716795
 20
166.9488360661
 10
85.4353430201
 20
168.47720578
 10
86.0654806627
 20
169.9699455126
 10
87.0418463353
 20
171.399248347
 10
88.3462521926
 20
172.7384890759
 10
89.9543996217
 20
173.9627201783
 10
91.8363318787
 20
175.0491365453
 10
93.9569921262
 20
175.9775002953
 10
96.2768764765
 20
176.7305177683
 10
98.7527698734
 20
177.2941616736
 10
101.3385511076
 20
177.6579323916
 10
103.986051967
 20
177.8150535621
 10
106.64595452
 20
177.7625983151
 10
109.2687098147
 20
177.5015437925
 10
111.8054608825
 20
177.0367529461
 10
114.2089528506
 20
176.37688395
 10
116.4344132113
 20
175.5342289151
 10
118.4403858487
 20
174.5244849103
  0
LWPOLYLINE
  5
2A9
330
26E
100
AcDbEntity
  8
0
  6
Continuous
 62
     7
370
    25
100
AcDbPolyline
 90
       47
 70
   128
 43
0.0
 10
189.1510639674
 20
133.7040793192
 10
190.9001814069
 20
132.5460559648
 10
192.3598608999
 20
131.2613250448
 10
193.5029113794
 20
129.8738186655
 10
194.3080399775
 20
128.4093834455
 10
194.760248672
 20
126.895299042
 10
194.8511136704
 20
125.3597699828
 10
194.5789423297
 20
123.831400269
 10
193.9488046871
 20
122.3386605364
 10
192.9724390146
 20
120.9093577019
 10
191.6680331572
 20
119.570116973
 10
190.0598857281
 20
118.3458858706
 10
188.1779534712
 20
117.2594695037
 10
186.0572932236
 20
116.3311057536
 10
183.7374088734
 20
115.5780882806
 10
181.2615154764
 20
115.0144443753
 10
178.6757342423
 20
114.6506736573
 10
176.0282333829
 20
114.4935524868
 10
173.3683308299
 20
114.5460077338
 10
170.7455755352
 20
114.8070622565
 10
168.2088244674
 20
115.2718531028
 10
165.8053324993
 20
115.9317220989
 10
163.5798721386
 20
116.7743771338
 10
161.5738995011
 20
117.7841211386
 10
159.8247820617
 20
118.942144493
 10
158.3651025686
 20
120.226875413
 10
157.2220520892
 20
121.6143817923
 10
156.416923491
 20
123.0788170123
 10
155.9647147965
 20
124.5929014158
 10
155.8738497981
 20
126.1284304749
 10
156.1460211388
 20
127.6568001888
 10
156.7761587814
 20
129.1495399214
 10
157.7525244539
 20
130.5788427559
 10
159.0569303113
 20
131.9180834848
 10
160.6650777404
 20
133.1423145872
 10
162.5470099973
 20
134.2287309541
 10
164.6676702449
 20
135.1570947042
 10
166.9875545952
 20
135.9101121772
 10
169.4634479921
 20
136.4737560824
 10
172.0492292262
 20
136.8375268004
 10
174.6967300856
 20
136.994647971
 10
177.3566326386
 20
136.9421927239
 10
179.9793879334
 20
136.6811382013
 10
182.5161390011
 20
136.216347355
 10
184.9196309692
 20
135.5564783589
 10
187.1450913299
 20
134.713823324
 10
189.1510639674
 20
133.7040793192
  0
LWPOLYLINE
  5
2AA
330
26E
100
AcDbEntity
  8
0
  6
Continuous
 62
     7
370
    25
100
AcDbPolyline
 90
       47
 70
   128
 43
0.0
 10
47.7297077301
 20
215.3448905014
 10
49.4788251696
 20
214.186867147
 10
50.9385046626
 20
212.9021362271
 10
52.081555142
 20
211.5146298478
 10
52.8866837402
 20
210.0501946278
 10
53.3388924347
 20
208.5361102243
 10
53.4297574331
 20
207.0005811651
 10
53.1575860924
 20
205.4722114512
 10
52.5274484498
 20
203.9794717186
 10
51.5510827773
 20
202.5501688842
 10
50.2466769199
 20
201.2109281553
 10
48.6385294908
 20
199.9866970528
 10
46.7565972339
 20
198.9002806859
 10
44.6359369863
 20
197.9719169359
 10
42.316052636
 20
197.2188994629
 10
39.8401592391
 20
196.6552555576
 10
37.254378005
 20
196.2914848396
 10
34.6068771456
 20
196.1343636691
 10
31.9469745926
 20
196.1868189161
 10
29.3242192979
 20
196.4478734387
 10
26.7874682301
 20
196.9126642851
 10
24.383976262
 20
197.5725332812
 10
22.1585159013
 20
198.4151883161
 10
20.1525432638
 20
199.4249323209
 10
18.4034258243
 20
200.5829556753
 10
16.9437463313
 20
201.8676865952
 10
15.8006958519
 20
203.2551929745
 10
14.9955672537
 20
204.7196281946
 10
14.5433585592
 20
206.233712598
 10
14.4524935608
 20
207.7692416572
 10
14.7246649015
 20
209.2976113711
 10
15.3548025441
 20
210.7903511037
 10
16.3311682166
 20
212.2196539382
 10
17.635574074
 20
213.558894667
 10
19.2437215031
 20
214.7831257695
 10
21.12565376
 20
215.8695421364
 10
23.2463140076
 20
216.7979058864
 10
25.5661983579
 20
217.5509233594
 10
28.0420917548
 20
218.1145672647
 10
30.6278729889
 20
218.4783379827
 10
33.2753738483
 20
218.6354591533
 10
35.9352764013
 20
218.5830039062
 10
38.5580316961
 20
218.3219493836
 10
41.0947827638
 20
217.8571585372
 10
43.4982747319
 20
217.1972895411
 10
45.7237350926
 20
216.3546345062
 10
47.7297077301
 20
215.3448905014
  0
SPLINE
  5
2AB
330
26E
100
AcDbEntity
  8
0
  6
Continuous
 62
     7
370
    25
100
AcDbSpline
210
0.0
220
0.0
230
1.0
 70
    11
 71
     3
 72
   121
 73
   117
 74
     0
 42
0.000000001
 43
0.00000001
 40
0.0
 40
0.0
 40
0.0
 40
0.0
 40
0.0312500000000002
 40
0.0312500000000002
 40
0.0468750000000002
 40
0.0468750000000002
 40
0.0625000000000003
 40
0.0625000000000003
 40
0.0937500000000004
 40
0.0937500000000004
 40
0.1015625000000005
 40
0.1015625000000005
 40
0.1093750000000005
 40
0.1093750000000005
 40
0.1250000000000005
 40
0.1250000000000005
 40
0.1562500000000004
 40
0.1562500000000004
 40
0.1640625000000004
 40
0.1640625000000004
 40
0.1718750000000004
 40
0.1718750000000004
 40
0.1875000000000005
 40
0.2031250000000005
 40
0.2031250000000005
 40
0.2109375000000005
 40
0.2109375000000005
 40
0.2187500000000006
 40
0.2187500000000006
 40
0.2500000000000007
 40
0.2500000000000007
 40
0.2656250000000008
 40
0.2656250000000008
 40
0.2734375000000008
 40
0.2734375000000008
 40
0.2812500000000009
 40
0.2812500000000009
 40
0.3125000000000009
 40
0.3125000000000009
 40
0.3203125000000009
 40
0.3203125000000009
 40
0.328125000000001
 40
0.328125000000001
 40
0.343750000000001
 40
0.343750000000001
 40
0.3750000000000011
 40
0.3750000000000011
 40
0.4062500000000012
 40
0.4062500000000012
 40
0.4218750000000012
 40
0.4218750000000012
 40
0.4375000000000012
 40
0.4375000000000012
 40
0.4687500000000013
 40
0.4687500000000013
 40
0.4843750000000013
 40
0.4843750000000013
 40
0.5000000000000013
 40
0.5156250000000014
 40
0.5156250000000014
 40
0.5312500000000014
 40
0.5312500000000014
 40
0.5625000000000016
 40
0.5625000000000016
 40
0.5781250000000014
 40
0.5781250000000014
 40
0.5937500000000014
 40
0.5937500000000014
 40
0.6093750000000014
 40
0.6093750000000014
 40
0.6250000000000013
 40
0.6250000000000013
 40
0.6562500000000014
 40
0.6562500000000014
 40
0.6718750000000014
 40
0.6718750000000014
 40
0.6796875000000014
 40
0.6796875000000014
 40
0.6875000000000014
 40
0.6875000000000014
 40
0.7187500000000016
 40
0.7187500000000016
 40
0.7265625000000016
 40
0.7265625000000016
 40
0.7343750000000016
 40
0.7343750000000016
 40
0.7500000000000016
 40
0.7500000000000016
 40
0.7812500000000016
 40
0.7812500000000016
 40
0.7890625000000017
 40
0.7890625000000017
 40
0.7968750000000017
 40
0.7968750000000017
 40
0.8125000000000016
 40
0.8281250000000013
 40
0.8281250000000013
 40
0.8359375000000013
 40
0.8359375000000013
 40
0.8437500000000012
 40
0.8437500000000012
 40
0.875000000000001
 40
0.875000000000001
 40
0.890625000000001
 40
0.890625000000001
 40
0.898437500000001
 40
0.898437500000001
 40
0.9062500000000009
 40
0.9062500000000009
 40
0.9375000000000006
 40
0.9375000000000006
 40
0.9531250000000004
 40
0.9531250000000004
 40
0.9687500000000003
 40
0.9687500000000003
 40
1.0
 40
1.0
 40
1.0
 40
1.0
 10
-33.95767556288558
 20
-7.351914515566527
 30
0.0
 10
-35.49322292232934
 20
-6.465461893634242
 30
0.0
 10
-36.85398766744125
 20
-5.505971638371035
 30
0.0
 10
-38.64332882105214
 20
-3.961272262122804
 30
0.0
 10
-39.19749824232921
 20
-3.428660809183796
 30
0.0
 10
-40.21930642711742
 20
-2.32708778107104
 30
0.0
 10
-40.68758786487708
 20
-1.756375825727692
 30
0.0
 10
-41.93135741231885
 20
-0.0256217752908558
 30
0.0
 10
-42.55885304446898
 20
1.163776522982184
 30
0.0
 10
-43.09266984386292
 20
2.695550890989877
 30
0.0
 10
-43.18679326136589
 20
3.004177908282245
 30
0.0
 10
-43.34933907402124
 20
3.626076375390877
 30
0.0
 10
-43.41789421984603
 20
3.940190314477086
 30
0.0
 10
-43.58299512001626
 20
4.883033630866493
 30
0.0
 10
-43.63912218834469
 20
5.51052718384206
 30
0.0
 10
-43.65049717088318
 20
7.390198415361391
 30
0.0
 10
-43.4502335359689
 20
8.639590317308523
 30
0.0
 10
-42.93310743452074
 20
10.19756168919276
 30
0.0
 10
-42.81582992535294
 20
10.50981418002276
 30
0.0
 10
-42.55624076403079
 20
11.12816306136751
 30
0.0
 10
-42.41392073214936
 20
11.4345429654202
 30
0.0
 10
-41.95005795790247
 20
12.34548239217512
 30
0.0
 10
-41.23334065857853
 20
13.53824247639402
 30
0.0
 10
-40.32291554145051
 20
14.68828096203342
 30
0.0
 10
-39.56637665776852
 20
15.53465440291009
 30
0.0
 10
-39.30188847330845
 20
15.81408132152752
 30
0.0
 10
-38.74783738779885
 20
16.36745457139326
 30
0.0
 10
-38.4576575754955
 20
16.64188706933183
 30
0.0
 10
-36.95935271378426
 20
17.98551179634791
 30
0.0
 10
-35.60067924639148
 20
18.9805497616358
 30
0.0
 10
-33.32873884055779
 20
20.35670280436153
 30
0.0
 10
-32.53215526332365
 20
20.79587489905573
 30
0.0
 10
-31.27652706414891
 20
21.4243958534723
 30
0.0
 10
-30.84781443600782
 20
21.62878969737074
 30
0.0
 10
-29.97975794870028
 20
22.02286858970239
 30
0.0
 10
-29.53923448544886
 20
22.21316231826506
 30
0.0
 10
-27.30468043389095
 20
23.13144777896132
 30
0.0
 10
-25.41575511996345
 20
23.76086555624477
 30
0.0
 10
-22.92724379841556
 20
24.41486946253005
 30
0.0
 10
-22.42311637471749
 20
24.53897056886192
 30
0.0
 10
-21.40175420453634
 20
24.77348754194614
 30
0.0
 10
-20.88603739820226
 20
24.88351150124824
 30
0.0
 10
-19.33587158149182
 20
25.18961585235345
 30
0.0
 10
-18.29373264928182
 20
25.36288208475397
 30
0.0
 10
-15.14186127833847
 20
25.79226346377107
 30
0.0
 10
-13.00692274225712
 20
25.95885883060339
 30
0.0
 10
-8.667047580607953
 20
26.04186123148452
 30
0.0
 10
-6.530506188197829
 20
25.95670646208663
 30
0.0
 10
-3.382744180704059
 20
25.64608673321528
 30
0.0
 10
-2.342538096841883
 20
25.51185004339836
 30
0.0
 10
-0.2805808695782955
 20
25.18051939460758
 30
0.0
 10
0.7446972845388187
 20
24.98230972305233
 30
0.0
 10
3.728020423504461
 20
24.30466027708315
 30
0.0
 10
5.614086039536001
 20
23.7407589318458
 30
0.0
 10
8.290984010061349
 20
22.72802487125614
 30
0.0
 10
9.159382312247104
 20
22.36166454555191
 30
0.0
 10
10.83612228783539
 20
21.57408597995163
 30
0.0
 10
12.43750112079711
 20
20.73916565554169
 30
0.0
 10
13.89028400838921
 20
19.8108436626791
 30
0.0
 10
15.2676463828405
 20
18.83514264015191
 30
0.0
 10
15.91120228936009
 20
18.32871952718989
 30
0.0
 10
17.70268978906576
 20
16.76189005101632
 30
0.0
 10
18.7165147628466
 20
15.65168173764428
 30
0.0
 10
19.96247769636424
 20
13.88729900046885
 30
0.0
 10
20.33259819356808
 20
13.27987031535617
 30
0.0
 10
20.96407685592345
 20
12.05650705284629
 30
0.0
 10
21.22760325441888
 20
11.43817218529098
 30
0.0
 10
21.65220283433566
 20
10.18866366533853
 30
0.0
 10
21.81327362680338
 20
9.557489421793706
 30
0.0
 10
22.03196318187253
 20
8.28240661823567
 30
0.0
 10
22.08959444326402
 20
7.637245385272523
 30
0.0
 10
22.1011844106991
 20
5.690183052272708
 30
0.0
 10
21.89603001410836
 20
4.409824230405028
 30
0.0
 10
21.28001011252206
 20
2.516168667594507
 30
0.0
 10
21.02291245367674
 20
1.889459267609195
 30
0.0
 10
20.55759495507287
 20
0.9564743869749232
 30
0.0
 10
20.38868212419499
 20
0.645833690452742
 30
0.0
 10
20.02624104443567
 20
0.0313607684152631
 30
0.0
 10
19.83305029405254
 20
-0.2720567281019326
 30
0.0
 10
18.80838443385808
 20
-1.770368106484801
 30
0.0
 10
17.80245054172143
 20
-2.909447790342364
 30
0.0
 10
16.31314731772759
 20
-4.258632417469488
 30
0.0
 10
16.00358777025467
 20
-4.52470396954878
 30
0.0
 10
15.36066273609014
 20
-5.049178846663518
 30
0.0
 10
15.02632324471925
 20
-5.308265647379663
 30
0.0
 10
13.99670762681473
 20
-6.06656257752878
 30
0.0
 10
13.27390050697195
 20
-6.54800974349698
 30
0.0
 10
10.99950445032313
 20
-7.922228182832155
 30
0.0
 10
9.342957676479012
 20
-8.74553040934447
 30
0.0
 10
7.091997319516205
 20
-9.655633641608395
 30
0.0
 10
6.631833214742175
 20
-9.831921653341437
 30
0.0
 10
5.703189198517127
 20
-10.16862515266283
 30
0.0
 10
5.2336491706002
 20
-10.32950476501068
 30
0.0
 10
3.809654031022666
 20
-10.79014785394682
 30
0.0
 10
1.870065974060205
 20
-11.34578677027626
 30
0.0
 10
-0.1502455211958645
 20
-11.78620527604809
 30
0.0
 10
-1.696206542760224
 20
-12.07277993157135
 30
0.0
 10
-2.216657231523786
 20
-12.16100214870495
 30
0.0
 10
-3.268010986308592
 20
-12.32259061149599
 30
0.0
 10
-3.798897004501534
 20
-12.39589265127015
 30
0.0
 10
-6.449741178142176
 20
-12.72123437993432
 30
0.0
 10
-8.582599029441928
 20
-12.85480547073983
 30
0.0
 10
-11.79969792233688
 20
-12.87094926272204
 30
0.0
 10
-12.87505419083012
 20
-12.84540760952853
 30
0.0
 10
-14.49271333370522
 20
-12.75940204070199
 30
0.0
 10
-15.03124917642255
 20
-12.72280453593256
 30
0.0
 10
-16.09838197344834
 20
-12.63457240106842
 30
0.0
 10
-16.62825415105928
 20
-12.58287495018581
 30
0.0
 10
-19.25943818824269
 20
-12.28714566727838
 30
0.0
 10
-21.30673662223742
 20
-11.93245734759332
 30
0.0
 10
-24.29051877577299
 20
-11.22288959745276
 30
0.0
 10
-25.2749138934389
 20
-10.95495701112565
 30
0.0
 10
-27.17500315470747
 20
-10.36942652571591
 30
0.0
 10
-28.09436742328416
 20
-10.05127687485842
 30
0.0
 10
-30.76247995964238
 20
-9.0225254942395
 30
0.0
 10
-32.42212820344184
 20
-8.2383671374988
 30
0.0
 10
-33.95767556288558
 20
-7.351914515566529
 30
0.0
  0
LWPOLYLINE
  5
2B4
330
26E
100
AcDbEntity
  8
0
  6
Continuous
 62
     7
370
    25
100
AcDbPolyline
 90
       16
 70
   128
 43
0.0
 10
189.956522944
 20
119.0710441512
 10
189.3719534504
 20
119.5502116282
 10
187.736850405
 20
120.6395590291
 10
185.8498408982
 20
121.5834839252
 10
183.7493390019
 20
122.3627707277
 10
181.4781048772
 20
122.9615554046
 10
179.0823743014
 20
123.3676484266
 10
176.6109174403
 20
123.5727829109
 10
174.1140460283
 20
123.5727829109
 10
171.6425891671
 20
123.3676484266
 10
169.2468585913
 20
122.9615554046
 10
166.9756244667
 20
122.3627707277
 10
164.8751225703
 20
121.5834839252
 10
162.9881130635
 20
120.6395590291
 10
161.3530100181
 20
119.5502116282
 10
160.7729596733
 20
119.074984611
  0
SPLINE
  5
2B5
330
26E
100
AcDbEntity
  8
0
  6
Continuous
 62
     7
370
    25
100
AcDbSpline
210
0.0
220
0.0
230
1.0
 70
    11
 71
     3
 72
   121
 73
   117
 74
     0
 42
0.000000001
 43
0.00000001
 40
0.0
 40
0.0
 40
0.0
 40
0.0
 40
0.0312500000000002
 40
0.0312500000000002
 40
0.0468750000000003
 40
0.0468750000000003
 40
0.0625000000000004
 40
0.0625000000000004
 40
0.0937500000000006
 40
0.0937500000000006
 40
0.1093750000000006
 40
0.1093750000000006
 40
0.1250000000000006
 40
0.1250000000000006
 40
0.1562500000000007
 40
0.1562500000000007
 40
0.1718750000000008
 40
0.1718750000000008
 40
0.1875000000000009
 40
0.1875000000000009
 40
0.2031250000000009
 40
0.2031250000000009
 40
0.2109375000000009
 40
0.2109375000000009
 40
0.218750000000001
 40
0.218750000000001
 40
0.250000000000001
 40
0.250000000000001
 40
0.265625000000001
 40
0.265625000000001
 40
0.273437500000001
 40
0.273437500000001
 40
0.281250000000001
 40
0.281250000000001
 40
0.312500000000001
 40
0.312500000000001
 40
0.3203125000000011
 40
0.3203125000000011
 40
0.3281250000000011
 40
0.3281250000000011
 40
0.3437500000000011
 40
0.3437500000000011
 40
0.3750000000000011
 40
0.3750000000000011
 40
0.3906250000000011
 40
0.3906250000000011
 40
0.4062500000000011
 40
0.4062500000000011
 40
0.4218750000000011
 40
0.4218750000000011
 40
0.4375000000000011
 40
0.4375000000000011
 40
0.4687500000000011
 40
0.4687500000000011
 40
0.4843750000000011
 40
0.4843750000000011
 40
0.500000000000001
 40
0.500000000000001
 40
0.531250000000001
 40
0.531250000000001
 40
0.546875000000001
 40
0.546875000000001
 40
0.562500000000001
 40
0.562500000000001
 40
0.578125000000001
 40
0.578125000000001
 40
0.585937500000001
 40
0.585937500000001
 40
0.5937500000000009
 40
0.5937500000000009
 40
0.6250000000000008
 40
0.6250000000000008
 40
0.6406250000000009
 40
0.6406250000000009
 40
0.6484375000000008
 40
0.6484375000000008
 40
0.6562500000000008
 40
0.6562500000000008
 40
0.6875000000000007
 40
0.6875000000000007
 40
0.6953125000000006
 40
0.6953125000000006
 40
0.7031250000000006
 40
0.7031250000000006
 40
0.7187500000000006
 40
0.7187500000000006
 40
0.7500000000000006
 40
0.7500000000000006
 40
0.7578125000000006
 40
0.7578125000000006
 40
0.7656250000000004
 40
0.7656250000000004
 40
0.7812500000000003
 40
0.7968750000000002
 40
0.7968750000000002
 40
0.8046875000000002
 40
0.8046875000000002
 40
0.8125000000000001
 40
0.8125000000000001
 40
0.84375
 40
0.84375
 40
0.859375
 40
0.859375
 40
0.875
 40
0.875
 40
0.9062500000000001
 40
0.9062500000000001
 40
0.9218750000000001
 40
0.9218750000000001
 40
0.9375000000000001
 40
0.9375000000000001
 40
0.9531250000000001
 40
0.9531250000000001
 40
0.9687500000000001
 40
0.9687500000000001
 40
1.0
 40
1.0
 40
1.0
 40
1.0
 10
-29.66694765249252
 20
-6.543266942870833
 30
0.0
 10
-30.89532687329041
 20
-5.836215682290889
 30
0.0
 10
-31.9851647686553
 20
-5.072292340899377
 30
0.0
 10
-33.42038170058
 20
-3.844494946964809
 30
0.0
 10
-33.86528527246159
 20
-3.421476338801709
 30
0.0
 10
-34.68653813614235
 20
-2.54729716162274
 30
0.0
 10
-35.06392440354741
 20
-2.094187109945793
 30
0.0
 10
-36.06830389815871
 20
-0.7202512093454141
 30
0.0
 10
-36.57707623483007
 20
0.2223476218090117
 30
0.0
 10
-37.10085184214223
 20
1.675903703587639
 30
0.0
 10
-37.23533853518976
 20
2.167451697373625
 30
0.0
 10
-37.42042900766531
 20
3.162876180789885
 30
0.0
 10
-37.46966465277396
 20
3.659060247128206
 30
0.0
 10
-37.4915519496863
 20
5.143172910524199
 30
0.0
 10
-37.33957014110722
 20
6.126703826157404
 30
0.0
 10
-36.85601786084217
 20
7.59298209553981
 30
0.0
 10
-36.6507272618943
 20
8.08165099599719
 30
0.0
 10
-36.16233117040547
 20
9.03447360135564
 30
0.0
 10
-35.87865620591356
 20
9.501202910754298
 30
0.0
 10
-35.23371949159066
 20
10.41563282219177
 30
0.0
 10
-34.87245665609277
 20
10.86333315796314
 30
0.0
 10
-34.27170266839914
 20
11.5204478958236
 30
0.0
 10
-34.06162396424534
 20
11.73707590863364
 30
0.0
 10
-33.6214810789537
 20
12.16543035479901
 30
0.0
 10
-33.3907429959695
 20
12.37772977983361
 30
0.0
 10
-32.19487233012085
 20
13.41897079533269
 30
0.0
 10
-31.10987781307318
 20
14.18421540472697
 30
0.0
 10
-29.29638249910944
 20
15.23386249455043
 30
0.0
 10
-28.66065537868494
 20
15.56725444195672
 30
0.0
 10
-27.65894932509266
 20
16.04193487072956
 30
0.0
 10
-27.31617290270139
 20
16.19624863615522
 30
0.0
 10
-26.62152091384313
 20
16.49314791731318
 30
0.0
 10
-26.26904070937469
 20
16.63605787692742
 30
0.0
 10
-24.48134570675192
 20
17.32342201899825
 30
0.0
 10
-22.97097559201742
 20
17.78710020018964
 30
0.0
 10
-20.98287857203913
 20
18.2590747418428
 30
0.0
 10
-20.5802070662592
 20
18.34803971389363
 30
0.0
 10
-19.76457622944324
 20
18.51491243112543
 30
0.0
 10
-19.35175169192069
 20
18.59274507683142
 30
0.0
 10
-18.11162781854751
 20
18.80708855755007
 30
0.0
 10
-17.27813465882319
 20
18.92546492113186
 30
0.0
 10
-14.75796509022428
 20
19.2090054290826
 30
0.0
 10
-13.05178952198619
 20
19.30327516792967
 30
0.0
 10
-10.45211697088228
 20
19.29776133375074
 30
0.0
 10
-9.5898222421171
 20
19.27118800703977
 30
0.0
 10
-7.883274304157504
 20
19.17045797428559
 30
0.0
 10
-7.037394769237229
 20
19.09629528029178
 30
0.0
 10
-5.360284513724096
 20
18.90082527541712
 30
0.0
 10
-4.529053468544245
 20
18.77951900916213
 30
0.0
 10
-2.881523874462656
 20
18.48884887960289
 30
0.0
 10
-2.062100815029334
 20
18.31851286359913
 30
0.0
 10
0.3229671547576412
 20
17.74514603257989
 30
0.0
 10
1.830723891862747
 20
17.2785597764048
 30
0.0
 10
3.970636225009659
 20
16.45392059784564
 30
0.0
 10
4.664613388543142
 20
16.15757868176863
 30
0.0
 10
6.005601262632258
 20
15.52365846670113
 30
0.0
 10
6.643853088404048
 20
15.19032699653271
 30
0.0
 10
8.465094073291299
 20
14.14284935348769
 30
0.0
 10
9.555436650487641
 20
13.38166064122437
 30
0.0
 10
11.00173543571468
 20
12.14380108845429
 30
0.0
 10
11.45265957273732
 20
11.71385306430631
 30
0.0
 10
12.27099875167034
 20
10.83998660783696
 30
0.0
 10
12.64116131240857
 20
10.39395647858768
 30
0.0
 10
13.3048306792157
 20
9.484019190354658
 30
0.0
 10
13.59833638693796
 20
9.020111775223487
 30
0.0
 10
13.98046481417975
 20
8.310694016830219
 30
0.0
 10
14.09813557340284
 20
8.071958020409394
 30
0.0
 10
14.31374595079753
 20
7.589884491821415
 30
0.0
 10
14.41189860161816
 20
7.345925828983892
 30
0.0
 10
14.8494404195137
 20
6.122178799926749
 30
0.0
 10
15.02884662244738
 20
5.138706893006911
 30
0.0
 10
15.0501056968978
 20
3.656999764611715
 30
0.0
 10
15.01558317968406
 20
3.162006297167022
 30
0.0
 10
14.89965079134599
 20
2.417833955032596
 30
0.0
 10
14.85011096247848
 20
2.168801665913947
 30
0.0
 10
14.73007969837701
 20
1.674063784756055
 30
0.0
 10
14.65970115522142
 20
1.42850681584996
 30
0.0
 10
14.25693395451497
 20
0.209617456828029
 30
0.0
 10
13.77337999986417
 20
-0.7372834379782491
 30
0.0
 10
12.96726934038868
 20
-1.885647544557313
 30
0.0
 10
12.79587266943698
 20
-2.113541331355877
 30
0.0
 10
12.43235468907796
 20
-2.565705168588624
 30
0.0
 10
12.23965478954944
 20
-2.79057321086091
 30
0.0
 10
11.6356626856165
 20
-3.453229550375684
 30
0.0
 10
11.19799305697992
 20
-3.880143428989617
 30
0.0
 10
9.782869505007485
 20
-5.117548991101402
 30
0.0
 10
8.704290682501263
 20
-5.88512464446015
 30
0.0
 10
7.181702233868747
 20
-6.770596113313688
 30
0.0
 10
6.86784332463709
 20
-6.94419677141192
 30
0.0
 10
6.22937488770043
 20
-7.280060280070701
 30
0.0
 10
5.904007960586997
 20
-7.442793134575354
 30
0.0
 10
4.90982383951526
 20
-7.915661853284843
 30
0.0
 10
3.536108175371665
 20
-8.50534629123139
 30
0.0
 10
2.067311260325486
 20
-9.014427210038264
 30
0.0
 10
0.9294639060507051
 20
-9.365507857416778
 30
0.0
 10
0.5441290401937381
 20
-9.477403908109936
 30
0.0
 10
-0.2388821272570132
 20
-9.69073376649695
 30
0.0
 10
-0.635895985567278
 20
-9.791943780877798
 30
0.0
 10
-2.629778455041285
 20
-10.26634444384051
 30
0.0
 10
-4.269149809042947
 20
-10.55005005298529
 30
0.0
 10
-6.793117496407778
 20
-10.83510567088991
 30
0.0
 10
-7.645335872307886
 20
-10.90653960425012
 30
0.0
 10
-9.372279337158933
 20
-11.00069041455177
 30
0.0
 10
-10.23324630870443
 20
-11.02263704686192
 30
0.0
 10
-12.80563741960891
 20
-11.01575862166201
 30
0.0
 10
-14.50812401745669
 20
-10.91496821679097
 30
0.0
 10
-17.04300142015562
 20
-10.6179962594672
 30
0.0
 10
-17.8867315411465
 20
-10.49390746710705
 30
0.0
 10
-19.53176482453789
 20
-10.20184879064759
 30
0.0
 10
-20.33754107985223
 20
-10.03349334062358
 30
0.0
 10
-21.91629786330866
 20
-9.65304384013104
 30
0.0
 10
-22.68927743550723
 20
-9.44094851475153
 30
0.0
 10
-24.20217567696083
 20
-8.972665607199788
 30
0.0
 10
-24.94427703638196
 20
-8.715625007352164
 30
0.0
 10
-27.10421413645007
 20
-7.881731751195533
 30
0.0
 10
-28.43856843169465
 20
-7.250318203450769
 30
0.0
 10
-29.66694765249252
 20
-6.543266942870833
 30
0.0
  0
SPLINE
  5
2B8
330
26E
100
AcDbEntity
  8
0
  6
Continuous
 62
     7
370
    25
100
AcDbSpline
210
0.0
220
0.0
230
1.0
 70
     8
 71
     3
 72
    10
 73
     6
 74
     0
 42
0.000000001
 43
0.00000001
 40
0.0
 40
0.0
 40
0.0
 40
0.0
 40
0.5
 40
0.5
 40
1.0
 40
1.0
 40
1.0
 40
1.0
 10
-11.3317261719497
 20
3.994618348809369
 30
0.0
 10
-11.23501066257982
 20
4.13552955422037
 30
0.0
 10
-11.12714480947212
 20
4.256801586876656
 30
0.0
 10
-10.89550116784091
 20
4.470845231918561
 30
0.0
 10
-10.77662016753699
 20
4.558640754535021
 30
0.0
 10
-10.65494599242054
 20
4.628881760707894
 30
0.0
  0
SPLINE
  5
2B9
330
26E
100
AcDbEntity
  8
0
  6
Continuous
 62
     7
370
    25
100
AcDbSpline
210
0.0
220
0.0
230
1.0
 70
     8
 71
     3
 72
    17
 73
    13
 74
     0
 42
0.000000001
 43
0.00000001
 40
-0.000325561279083
 40
-0.000325561279083
 40
-0.000325561279083
 40
-0.000325561279083
 40
0.0
 40
0.0
 40
0.0
 40
0.0059995680522578
 40
0.0059995680522578
 40
0.0059995680522578
 40
0.0120081439031324
 40
0.0120081439031324
 40
0.0120081439031324
 40
0.0122965654688198
 40
0.0122965654688198
 40
0.0122965654688198
 40
0.0122965654688198
 10
-11.74808420674545
 20
14.41335930903223
 30
0.0
 10
-11.74447466362978
 20
14.32380044165182
 30
0.0
 10
-11.74086589813913
 20
14.23424111407088
 30
0.0
 10
-11.73725790966666
 20
14.14468132667681
 30
0.0
 10
-11.67076851614677
 20
12.49423926095512
 30
0.0
 10
-11.60454299154589
 20
10.84364101629392
 30
0.0
 10
-11.53857759781704
 20
9.192888978120656
 30
0.0
 10
-11.47251316310984
 20
7.539658487419443
 30
0.0
 10
-11.4067096391811
 20
5.886273684634825
 30
0.0
 10
-11.34116338020955
 20
4.232736894917856
 30
0.0
 10
-11.33801705145858
 20
4.153364396412264
 30
0.0
 10
-11.3348713155043
 20
4.073991547625069
 30
0.0
 10
-11.33172617194963
 20
3.99461834880941
 30
0.0
  0
SPLINE
  5
2BA
330
26E
100
AcDbEntity
  8
0
  6
Continuous
 62
     7
370
    25
100
AcDbSpline
210
0.0
220
0.0
230
1.0
 70
    11
 71
     3
 72
   104
 73
   100
 74
     0
 42
0.000000001
 43
0.00000001
 40
0.0
 40
0.0
 40
0.0
 40
0.0
 40
0.03125
 40
0.03125
 40
0.046875
 40
0.046875
 40
0.0625
 40
0.0625
 40
0.09375
 40
0.09375
 40
0.109375
 40
0.109375
 40
0.125
 40
0.125
 40
0.15625
 40
0.15625
 40
0.171875
 40
0.171875
 40
0.1875
 40
0.1875
 40
0.203125
 40
0.203125
 40
0.21875
 40
0.21875
 40
0.25
 40
0.25
 40
0.265625
 40
0.265625
 40
0.28125
 40
0.28125
 40
0.3125
 40
0.3125
 40
0.328125
 40
0.328125
 40
0.34375
 40
0.34375
 40
0.375
 40
0.375
 40
0.40625
 40
0.40625
 40
0.421875
 40
0.421875
 40
0.4375
 40
0.4375
 40
0.46875
 40
0.46875
 40
0.484375
 40
0.484375
 40
0.5
 40
0.5
 40
0.53125
 40
0.53125
 40
0.546875
 40
0.546875
 40
0.5625
 40
0.5625
 40
0.578125
 40
0.578125
 40
0.59375
 40
0.59375
 40
0.625
 40
0.625
 40
0.640625
 40
0.640625
 40
0.65625
 40
0.65625
 40
0.6875
 40
0.6875
 40
0.703125
 40
0.703125
 40
0.71875
 40
0.71875
 40
0.75
 40
0.75
 40
0.765625
 40
0.765625
 40
0.78125
 40
0.78125
 40
0.796875
 40
0.796875
 40
0.8125
 40
0.8125
 40
0.84375
 40
0.84375
 40
0.859375
 40
0.859375
 40
0.875
 40
0.875
 40
0.90625
 40
0.90625
 40
0.921875
 40
0.921875
 40
0.9375
 40
0.9375
 40
0.953125
 40
0.953125
 40
0.96875
 40
0.96875
 40
1.0
 40
1.0
 40
1.0
 40
1.0
 10
-28.22498350790808
 20
-5.708393495742349
 30
0.0
 10
-29.36021849033643
 20
-5.054955768981774
 30
0.0
 10
-30.36522893506979
 20
-4.350438636711772
 30
0.0
 10
-31.69106381938088
 20
-3.216215091506866
 30
0.0
 10
-32.10178720277818
 20
-2.825650132046352
 30
0.0
 10
-32.85958871202404
 20
-2.019011207042461
 30
0.0
 10
-33.20820075045656
 20
-1.600459260084647
 30
0.0
 10
-34.1350785829339
 20
-0.3325420954176095
 30
0.0
 10
-34.60452667986
 20
0.5370813418432498
 30
0.0
 10
-35.08796604843141
 20
1.878698787087504
 30
0.0
 10
-35.21193528350168
 20
2.331865137225907
 30
0.0
 10
-35.38267681679712
 20
3.250120302971012
 30
0.0
 10
-35.42806095151707
 20
3.707403712255287
 30
0.0
 10
-35.44825359161165
 20
5.076596810597779
 30
0.0
 10
-35.30804514997057
 20
5.982979817200272
 30
0.0
 10
-34.8624661883042
 20
7.334109833069806
 30
0.0
 10
-34.67313102458118
 20
7.784760128744579
 30
0.0
 10
-34.22331362340304
 20
8.662319202001619
 30
0.0
 10
-33.96188024142805
 20
9.092498194899177
 30
0.0
 10
-33.36755041174659
 20
9.935174632907863
 30
0.0
 10
-33.03483305589535
 20
10.34749288383915
 30
0.0
 10
-32.29681247293439
 20
11.15475208382032
 30
0.0
 10
-31.89018260940846
 20
11.55075543296597
 30
0.0
 10
-30.56801275557589
 20
12.7019651252902
 30
0.0
 10
-29.56927129649011
 20
13.40642961007506
 30
0.0
 10
-27.89773282296951
 20
14.37391226927874
 30
0.0
 10
-27.31221458599886
 20
14.68095176525567
 30
0.0
 10
-26.08197764093562
 20
15.26392647072764
 30
0.0
 10
-25.43858614912861
 20
15.538838899169
 30
0.0
 10
-23.4610438717115
 20
16.29919896154163
 30
0.0
 10
-22.07038558708513
 20
16.72614198716471
 30
0.0
 10
-19.87046543615305
 20
17.24840325603338
 30
0.0
 10
-19.11465745214108
 20
17.40305531611011
 30
0.0
 10
-17.59057982497344
 20
17.66647754784965
 30
0.0
 10
-16.82239488508223
 20
17.77559651652171
 30
0.0
 10
-14.49744747672905
 20
18.03717295962912
 30
0.0
 10
-12.92534286963562
 20
18.12403755338987
 30
0.0
 10
-9.727012527465156
 20
18.11725380538745
 30
0.0
 10
-8.150712783843677
 20
18.0233045471513
 30
0.0
 10
-5.829149413823788
 20
17.75272245459359
 30
0.0
 10
-5.061946014555912
 20
17.64074561129903
 30
0.0
 10
-3.542406482262463
 20
17.37265635755719
 30
0.0
 10
-2.785719167682245
 20
17.2153695804152
 30
0.0
 10
-0.5850776712861688
 20
16.68633890715882
 30
0.0
 10
0.8062889235910496
 20
16.25583215547639
 30
0.0
 10
2.782069402264672
 20
15.49444287725662
 30
0.0
 10
3.422320323513368
 20
15.22103567775784
 30
0.0
 10
4.660132634460568
 20
14.6358892978777
 30
0.0
 10
5.24891783359473
 20
14.32840495163798
 30
0.0
 10
6.930776228289147
 20
13.36109262436001
 30
0.0
 10
7.93675945940238
 20
12.65870052794036
 30
0.0
 10
9.27141476609572
 20
11.51639400584237
 30
0.0
 10
9.68785027103618
 20
11.11931645331876
 30
0.0
 10
10.44275770503302
 20
10.31318608465393
 30
0.0
 10
10.78449354158951
 20
9.901441572877873
 30
0.0
 10
11.39708749537661
 20
9.061532260578653
 30
0.0
 10
11.66784674854262
 20
8.633569608523336
 30
0.0
 10
12.13806118993405
 20
7.760620963191037
 30
0.0
 10
12.33781358438011
 20
7.314581824338973
 30
0.0
 10
12.82234719906198
 20
5.959405797751345
 30
0.0
 10
12.98776739265524
 20
5.052747452115709
 30
0.0
 10
13.00738649078897
 20
3.68533243040442
 30
0.0
 10
12.97552746291577
 20
3.22895107836503
 30
0.0
 10
12.83299554350877
 20
2.314036613997379
 30
0.0
 10
12.72169312865012
 20
1.85539404194067
 30
0.0
 10
12.27584754240361
 20
0.5061365279658627
 30
0.0
 10
11.83042338609411
 20
-0.3660408052508571
 30
0.0
 10
10.93841786880938
 20
-1.636768186988012
 30
0.0
 10
10.60200726145944
 20
-2.055435885825851
 30
0.0
 10
9.860004854069311
 20
-2.86950729871218
 30
0.0
 10
9.456840912706783
 20
-3.262792725047377
 30
0.0
 10
8.152216065080466
 20
-4.403576697478908
 30
0.0
 10
7.159056290889572
 20
-5.110286705411824
 30
0.0
 10
5.475711521423097
 20
-6.089246780808404
 30
0.0
 10
4.884624204075457
 20
-6.400069714361447
 30
0.0
 10
3.66334463849328
 20
-6.980952982932109
 30
0.0
 10
3.030836862986821
 20
-7.252466864725818
 30
0.0
 10
1.721305336396587
 20
-7.758662645708917
 30
0.0
 10
1.045000912520317
 20
-7.993066607313491
 30
0.0
 10
-0.352830899078168
 20
-8.424364950517203
 30
0.0
 10
-1.077933929394783
 20
-8.621948006654195
 30
0.0
 10
-3.282757297794986
 20
-9.146537636970605
 30
0.0
 10
-4.792295043472618
 20
-9.407822209124
 30
0.0
 10
-7.11970563377047
 20
-9.670678682347555
 30
0.0
 10
-7.904684346444887
 20
-9.736471607104559
 30
0.0
 10
-9.49695882142078
 20
-9.823280425001455
 30
0.0
 10
-10.29022044141405
 20
-9.843510467118218
 30
0.0
 10
-12.66331103348356
 20
-9.837165053319822
 30
0.0
 10
-14.23307016805756
 20
-9.744198162772028
 30
0.0
 10
-16.57127076730756
 20
-9.470267469553818
 30
0.0
 10
-17.35025958424729
 20
-9.35569635931184
 30
0.0
 10
-18.8675868973405
 20
-9.086310693183123
 30
0.0
 10
-19.61145763366362
 20
-8.930907954440743
 30
0.0
 10
-21.06895626179397
 20
-8.579679296815398
 30
0.0
 10
-21.7824021447377
 20
-8.383914892168312
 30
0.0
 10
-23.17898209551597
 20
-7.951635581947163
 30
0.0
 10
-23.86403271708878
 20
-7.714365308187157
 30
0.0
 10
-25.85879195454702
 20
-6.944242950205813
 30
0.0
 10
-27.08974852547972
 20
-6.361831222502917
 30
0.0
 10
-28.22498350790808
 20
-5.708393495742349
 30
0.0
  0
SPLINE
  5
2BB
330
26E
100
AcDbEntity
  8
0
  6
Continuous
 62
     7
370
    25
100
AcDbSpline
210
0.0
220
0.0
230
1.0
 70
     8
 71
     3
 72
    11
 73
     7
 74
     0
 42
0.000000001
 43
0.00000001
 40
0.0
 40
0.0
 40
0.0
 40
0.0
 40
0.0069740412576278
 40
0.0069740412576278
 40
0.0069740412576278
 40
0.0140089259786158
 40
0.0140089259786158
 40
0.0140089259786158
 40
0.0140089259786158
 10
-11.99236433443917
 20
3.252086363359774
 30
0.0
 10
-12.06535158860254
 20
5.171491839611853
 30
0.0
 10
-12.138681732965
 20
7.090701134651136
 30
0.0
 10
-12.21236073158618
 20
9.009710676121129
 30
0.0
 10
-12.28668252608804
 20
10.94546218546949
 30
0.0
 10
-12.36135929043782
 20
12.88101052714324
 30
0.0
 10
-12.43639733248119
 20
14.81635189899993
 30
0.0
  0
SPLINE
  5
2C0
330
26E
100
AcDbEntity
  8
0
  6
Continuous
 62
     7
370
    25
100
AcDbSpline
210
0.0
220
0.0
230
1.0
 70
     8
 71
     3
 72
    10
 73
     6
 74
     0
 42
0.000000001
 43
0.00000001
 40
0.0
 40
0.0
 40
0.0
 40
0.0
 40
0.5
 40
0.5
 40
1.0
 40
1.0
 40
1.0
 40
1.0
 10
-11.74808420674545
 20
14.41335930903223
 30
0.0
 10
-11.84887445115276
 20
14.44238545663577
 30
0.0
 10
-11.95917771573424
 20
14.49526456559172
 30
0.0
 10
-12.1934697441227
 20
14.63457974757
 30
0.0
 10
-12.31507249015129
 20
14.7201682444594
 30
0.0
 10
-12.43639733248119
 20
14.81635189899992
 30
0.0
  0
SPLINE
  5
2C2
330
26E
100
AcDbEntity
  8
0
  6
Continuous
 62
     7
370
    25
100
AcDbSpline
210
0.0
220
0.0
230
1.0
 70
     8
 71
     3
 72
    10
 73
     6
 74
     0
 42
0.000000001
 43
0.00000001
 40
0.0
 40
0.0
 40
0.0
 40
0.0
 40
0.5
 40
0.5
 40
1.0
 40
1.0
 40
1.0
 40
1.0
 10
-11.3317261719497
 20
3.994618348809369
 30
0.0
 10
-11.42788817670552
 20
3.854513580782378
 30
0.0
 10
-11.53408995517769
 20
3.722152411026809
 30
0.0
 10
-11.75939132777321
 20
3.470790654267114
 30
0.0
 10
-11.8759140655193
 20
3.355152026467988
 30
0.0
 10
-11.99236433443917
 20
3.252086363359837
 30
0.0
  0
LWPOLYLINE
  5
2C3
330
26E
100
AcDbEntity
  8
0
  6
Continuous
 62
     7
370
    25
100
AcDbPolyline
 90
       16
 70
   128
 43
0.0
 10
90.0742831967
 20
159.9058356059
 10
90.6423318994
 20
160.3706172193
 10
92.2774349448
 20
161.4599646202
 10
94.1644444517
 20
162.4038895163
 10
96.264946348
 20
163.1831763188
 10
98.5361804726
 20
163.7819609957
 10
100.9319110484
 20
164.1880540177
 10
103.4033679096
 20
164.393188502
 10
105.9002393216
 20
164.393188502
 10
108.3716961828
 20
164.1880540177
 10
110.7674267586
 20
163.7819609957
 10
113.0386608832
 20
163.1831763188
 10
115.1391627796
 20
162.4038895163
 10
117.0261722864
 20
161.4599646202
 10
118.6612753318
 20
160.3706172193
 10
119.2345869224
 20
159.9012586135
  0
LWPOLYLINE
  5
2C6
330
26E
100
AcDbEntity
  8
0
  6
Continuous
 62
     7
370
    25
100
AcDbPolyline
 90
       16
 70
   128
 43
0.0
 10
19.3218511613
 20
200.6897794549
 10
19.9316537808
 20
201.1910228105
 10
21.5667568262
 20
202.2803702113
 10
23.453766333
 20
203.2242951074
 10
25.5542682294
 20
204.00358191
 10
27.825502354
 20
204.6023665869
 10
30.2212329298
 20
205.0084596089
 10
32.692689791
 20
205.2135940931
 10
35.1895612029
 20
205.2135940931
 10
37.6610180641
 20
205.0084596089
 10
40.0567486399
 20
204.6023665869
 10
42.3279827646
 20
204.00358191
 10
44.4284846609
 20
203.2242951074
 10
46.3154941677
 20
202.2803702113
 10
47.9505972131
 20
201.1910228105
 10
48.5239088037
 20
200.7216642046
  0
LWPOLYLINE
  5
2C9
330
26E
100
AcDbEntity
  8
0
  6
Continuous
 62
     7
370
    25
100
AcDbPolyline
 90
       40
 70
   128
 43
0.0
 10
51.0638373665
 20
100.4472350397
 10
52.6630010345
 20
99.6844301077
 10
54.2430932142
 20
99.2492265516
 10
55.7631903481
 20
99.1528959149
 10
57.1839227189
 20
99.3979331106
 10
58.4684941045
 20
99.9779918039
 10
59.5836347808
 20
100.8780487794
 10
60.50046319
 20
102.0747930342
 10
61.1952339579
 20
103.5372295208
 10
61.6499528866
 20
105.2274819022
 10
61.8528429946
 20
107.1017735298
 10
61.7986495347
 20
109.1115612347
 10
61.4887760891
 20
111.2047925713
 10
60.9312482173
 20
113.3272539473
 10
60.1405055982
 20
115.4239747281
 10
59.1370280504
 20
117.4406509467
 10
57.9468051152
 20
119.3250517484
 10
56.6006629415
 20
121.0283721423
 10
55.1334659044
 20
122.5064970249
 10
53.5832136366
 20
123.7211437381
 10
51.9900568575
 20
124.6408535702
 10
50.3952574907
 20
125.2418065195
 10
48.8401200022
 20
125.5084382203
 10
47.3649216361
 20
125.4338430516
 10
46.0078692552
 20
125.0199529892
 10
44.8041098033
 20
124.2774875682
 10
43.7848200178
 20
123.225676253
 10
42.9763989689
 20
121.8917604043
 10
42.399784337
 20
120.3102877418
 10
42.0699101383
 20
118.5222175767
 10
41.9953199412
 20
116.5738599871
 10
42.1779455927
 20
114.5156764112
 10
42.6130571842
 20
112.4009727225
 10
43.2893855541
 20
110.2845186356
 10
44.189414153
 20
108.2211291998
 10
45.2898327128
 20
106.2642451175
 10
46.5621409709
 20
104.4645486587
 10
47.9733868117
 20
102.8686510161
 10
49.4870197092
 20
101.5178851006
 10
51.0638373665
 20
100.4472350397
  0
LWPOLYLINE
  5
2CB
330
26E
100
AcDbEntity
  8
0
  6
Continuous
 62
     7
370
    25
100
AcDbPolyline
 90
       23
 70
   128
 43
0.0
 10
61.6240438513
 20
99.22994253
 10
61.7167461705
 20
99.2750329507
 10
62.9749177649
 20
100.0993831233
 10
64.0492309436
 20
101.2269974349
 10
64.9156873254
 20
102.6326868452
 10
65.5549317066
 20
104.2850505757
 10
65.952684424
 20
106.147177551
 10
66.1000603391
 20
108.1774709315
 10
65.9937673176
 20
110.3305773182
 10
65.63617977
 20
112.5583998722
 10
65.035285611
 20
114.8111727191
 10
64.2045078234
 20
117.038572636
 10
63.16240461
 20
119.1908431894
 10
61.9322548346
 20
121.2199062118
 10
60.5415380104
 20
123.0804357881
 10
59.0213204532
 20
124.730870762
 10
57.4055613112
 20
126.1343431435
 10
55.7303539736
 20
127.2595016787
 10
54.0331198041
 20
128.0812121853
 10
52.3517722095
 20
128.5811190083
 10
50.7238697168
 20
128.7480550553
 10
49.1857769774
 20
128.5782912511
 10
47.864554761
 20
128.1207102591
  0
LWPOLYLINE
  5
2CC
330
26E
100
AcDbEntity
  8
0
  6
Continuous
 62
     7
370
    25
100
AcDbPolyline
 90
       39
 70
   128
 43
0.0
 10
51.1254657832
 20
101.2962459949
 10
49.6233753277
 20
102.320224563
 10
48.1841117973
 20
103.6173361386
 10
46.8469345494
 20
105.1521988991
 10
45.6483182934
 20
106.8829457897
 10
44.6209581563
 20
108.7623665467
 10
43.7928778445
 20
110.7391954714
 10
43.1866652302
 20
112.7595098237
 10
42.8188562134
 20
114.7682006948
 10
42.699483665
 20
116.7104762339
 10
42.8318037572
 20
118.5333562275
 10
43.2122071427
 20
120.1871172612
 10
43.8303174088
 20
121.6266490451
 10
44.6692741188
 20
122.8126849047
 10
45.7061927205
 20
123.7128728735
 10
46.9127887776
 20
124.3026581703
 10
48.256149495
 20
124.5659529898
 10
49.6996314942
 20
124.4955753354
 10
51.2038603491
 20
124.0934449263
 10
52.7278046178
 20
123.3705308318
 10
54.2298950734
 20
122.3465522637
 10
55.6691586037
 20
121.0494406881
 10
57.0063358517
 20
119.5145779276
 10
58.2049521077
 20
117.783831037
 10
59.2323122448
 20
115.90441028
 10
60.0603925566
 20
113.9275813553
 10
60.6666051708
 20
111.907267003
 10
61.0344141877
 20
109.8985761319
 10
61.153786736
 20
107.9563005928
 10
61.0214666438
 20
106.1334205992
 10
60.6410632583
 20
104.4796595655
 10
60.0229529922
 20
103.0401277816
 10
59.1839962823
 20
101.854091922
 10
58.1470776806
 20
100.9539039532
 10
56.9404816235
 20
100.3641186564
 10
55.5971209061
 20
100.1008238369
 10
54.1536389069
 20
100.1712014913
 10
52.649410052
 20
100.5733319004
 10
51.1254657832
 20
101.2962459949
  0
LWPOLYLINE
  5
2CE
330
26E
100
AcDbEntity
  8
0
  6
Continuous
 62
     7
370
    25
100
AcDbPolyline
 90
       14
 70
   128
 43
0.0
 10
49.3933101006
 20
123.244451388
 10
48.6263028242
 20
122.5676577501
 10
47.8584883628
 20
121.4747391568
 10
47.3119895309
 20
120.13114102
 10
47.0043712504
 20
118.5800476892
 10
46.9455206261
 20
116.8713125804
 10
47.1373291654
 20
115.059855846
 10
47.5736319841
 20
113.2038991957
 10
48.2404059506
 20
111.3630946035
 10
49.1162204009
 20
109.5966070436
 10
50.172925938
 20
107.9612128797
 10
51.3765591766
 20
106.5094750256
 10
52.6884343538
 20
105.2880535307
 10
54.0663867223
 20
104.3362058867
  0
SPLINE
  5
2D7
330
26E
100
AcDbEntity
  8
0
  6
Continuous
 62
     8
370
    25
100
AcDbSpline
210
0.0
220
0.0
230
1.0
 70
     8
 71
     3
 72
    10
 73
     6
 74
     0
 42
0.000000001
 43
0.00000001
 40
0.0
 40
0.0
 40
0.0
 40
0.0
 40
0.4523723931678356
 40
0.9047324211623646
 40
1.0
 40
1.0
 40
1.0
 40
1.0
 10
-130.1088702532228
 20
141.4145070904351
 30
0.0
 10
-144.7173738040936
 20
132.9833144035179
 30
0.0
 10
-173.9339815961494
 20
116.1211594883949
 30
0.0
 10
-206.1622860848796
 20
97.5212903302036
 30
0.0
 10
-223.7253107130989
 20
87.3797143090467
 30
0.0
 10
-226.7806476108769
 20
85.61544351429556
 30
0.0
  0
SPLINE
  5
2D8
330
26E
100
AcDbEntity
  8
0
  6
Continuous
 62
     8
370
    25
100
AcDbSpline
210
0.0
220
0.0
230
1.0
 70
     8
 71
     3
 72
    11
 73
     7
 74
     0
 42
0.000000001
 43
0.00000001
 40
0.0
 40
0.0
 40
0.0
 40
0.0
 40
0.1027157321331486
 40
0.4018060968482979
 40
0.7009009628324372
 40
1.0
 40
1.0
 40
1.0
 40
1.0
 10
160.0376928442551
 20
-26.07591191448397
 30
0.0
 10
150.1541201610555
 20
-20.36907834783331
 30
0.0
 10
111.4913011334404
 20
1.95506298045247
 30
0.0
 10
43.80744524691414
 20
41.04900712966518
 30
0.0
 10
-42.99760926488349
 20
91.1351086357394
 30
0.0
 10
-101.0716482744185
 20
124.6546296954197
 30
0.0
 10
-130.1088702532228
 20
141.4145070904351
 30
0.0
  0
SPLINE
  5
2DB
330
26E
100
AcDbEntity
  8
0
  6
Continuous
 62
     8
370
    25
100
AcDbSpline
210
0.0
220
0.0
230
1.0
 70
     8
 71
     3
 72
    11
 73
     7
 74
     0
 42
0.000000001
 43
0.00000001
 40
0.0
 40
0.0
 40
0.0
 40
0.0
 40
0.292535330938886
 40
0.5850729395735794
 40
0.8775997206422007
 40
0.9999999999999999
 40
0.9999999999999999
 40
0.9999999999999999
 40
0.9999999999999999
 10
-123.0606134273984
 20
152.8920623046385
 30
0.0
 10
-94.17451719347008
 20
136.0482595101066
 30
0.0
 10
-36.40209981691564
 20
102.3605227742888
 30
0.0
 10
50.28431820157972
 20
52.21229342301378
 30
0.0
 10
120.1757343723279
 20
11.92767127860765
 30
0.0
 10
161.179647464859
 20
-11.5176949847347
 30
0.0
 10
173.2754852541099
 20
-18.43389702113552
 30
0.0
  0
LWPOLYLINE
  5
2DC
330
26E
100
AcDbEntity
  8
0
  6
Continuous
 62
     8
370
    25
100
AcDbPolyline
 90
       14
 70
   128
 43
0.0
 10
54.0663867223
 20
104.3362058867
 10
52.6884343538
 20
105.2880535307
 10
51.3765591766
 20
106.5094750256
 10
50.172925938
 20
107.9612128797
 10
49.1162204009
 20
109.5966070436
 10
48.2404059506
 20
111.3630946035
 10
47.5736319841
 20
113.2038991957
 10
47.1373291654
 20
115.059855846
 10
46.9455206261
 20
116.8713125804
 10
47.0043712504
 20
118.5800476892
 10
47.3119895309
 20
120.13114102
 10
47.8584883628
 20
121.4747391568
 10
48.6263028242
 20
122.5676577501
 10
49.5547545389
 20
123.3521386589
  0
LWPOLYLINE
  5
2E2
330
26E
100
AcDbEntity
  8
0
  6
Continuous
 62
     8
370
    25
100
AcDbPolyline
 90
       18
 70
   128
 43
0.0
 10
187.736850405
 20
131.2545895836
 10
185.8498408982
 20
132.1985144797
 10
183.7493390019
 20
132.9778012822
 10
181.4781048772
 20
133.5765859591
 10
179.0823743014
 20
133.9826789811
 10
176.6109174403
 20
134.1878134654
 10
174.1140460283
 20
134.1878134654
 10
171.6425891671
 20
133.9826789811
 10
169.2468585913
 20
133.5765859591
 10
166.9756244667
 20
132.9778012822
 10
164.8751225703
 20
132.1985144797
 10
162.9881130635
 20
131.2545895836
 10
161.3530100181
 20
130.1652421827
 10
160.0030994168
 20
128.9526482487
 10
158.9658615468
 20
127.6414926973
 10
158.2624115798
 20
126.2584668744
 10
157.9070697286
 20
124.8317251975
 10
157.8638328656
 20
124.236554158
  0
LWPOLYLINE
  5
2E3
330
26E
100
AcDbEntity
  8
0
  6
Continuous
 62
     8
370
    25
100
AcDbPolyline
 90
        7
 70
   128
 43
0.0
 10
192.8617569611
 20
124.0190747106
 10
192.8178937399
 20
124.8317251975
 10
192.4625518888
 20
126.2584668744
 10
191.7591019218
 20
127.6414926973
 10
190.7218640517
 20
128.9526482487
 10
189.3719534504
 20
130.1652421827
 10
187.736850405
 20
131.2545895836
  0
SPLINE
  5
2E4
330
26E
100
AcDbEntity
  8
0
  6
Continuous
 62
     8
370
    25
100
AcDbSpline
210
0.0
220
0.0
230
1.0
 70
     8
 71
     3
 72
    13
 73
     9
 74
     0
 42
0.000000001
 43
0.00000001
 40
0.0
 40
0.0
 40
0.0
 40
0.0
 40
0.1455498422519416
 40
0.3191624326012505
 40
0.4889728921454135
 40
0.6636490320407862
 40
0.8345833169529266
 40
0.9999999999999999
 40
0.9999999999999999
 40
0.9999999999999999
 40
0.9999999999999999
 10
-22.25963001842673
 20
-8.178707524245286
 30
0.0
 10
-21.25001006873564
 20
-7.897082711709816
 30
0.0
 10
-19.03611032030182
 20
-7.279534393834587
 30
0.0
 10
-15.35433624243554
 20
-6.765929574795229
 30
0.0
 10
-11.37154250493326
 20
-6.567552396955715
 30
0.0
 10
-7.408116652863951
 20
-6.770973301392688
 30
0.0
 10
-3.567432353487205
 20
-7.318316978825533
 30
0.0
 10
-1.239185160693846
 20
-7.975839552211525
 30
0.0
 10
-0.0941581959067591
 20
-8.299207740440663
 30
0.0
  0
SPLINE
  5
2E5
330
26E
100
AcDbEntity
  8
0
  6
Continuous
 62
     8
370
    25
100
AcDbSpline
210
0.0
220
0.0
230
1.0
 70
     8
 71
     3
 72
    17
 73
    13
 74
     0
 42
0.000000001
 43
0.00000001
 40
0.0
 40
0.0
 40
0.0
 40
0.0
 40
0.0539986716937318
 40
0.1627216719248693
 40
0.2745610967264381
 40
0.3839961633586713
 40
0.4965847616534799
 40
0.6356201764836971
 40
0.7454225769845705
 40
0.8584034140896976
 40
0.9728897272519439
 40
1.0
 40
1.0
 40
1.0
 40
1.0
 10
-12.43639733248119
 20
14.81635189899992
 30
0.0
 10
-11.77253840863488
 20
14.82295956497472
 30
0.0
 10
-9.77204042188432
 20
14.84287135949141
 30
0.0
 10
-6.405577090123249
 20
14.59059512878774
 30
0.0
 10
-2.501608282667895
 20
13.92074907176074
 30
0.0
 10
1.19555996326674
 20
12.86727901277285
 30
0.0
 10
4.80879312358294
 20
11.35948527605881
 30
0.0
 10
7.871016086065887
 20
9.47585550178128
 30
0.0
 10
10.27899911237077
 20
7.300122415944188
 30
0.0
 10
11.84328016902983
 20
5.080882094910061
 30
0.0
 10
12.68220925965307
 20
3.316707792065339
 30
0.0
 10
12.739258296504
 20
2.311700083397254
 30
0.0
 10
12.75018098181523
 20
2.119279956028154
 30
0.0
  0
SPLINE
  5
2E6
330
26E
100
AcDbEntity
  8
0
  6
Continuous
 62
     8
370
    25
100
AcDbSpline
210
0.0
220
0.0
230
1.0
 70
     8
 71
     3
 72
    13
 73
     9
 74
     0
 42
0.000000001
 43
0.00000001
 40
0.0
 40
0.0
 40
0.0
 40
0.0
 40
0.1414705500954889
 40
0.3431608240428447
 40
0.5018642782964666
 40
0.6651660439367726
 40
0.8299743036074806
 40
0.9999999999999999
 40
0.9999999999999999
 40
0.9999999999999999
 40
0.9999999999999999
 10
9.145029504077769
 20
-3.451372751545438
 30
0.0
 10
8.494860567564919
 20
-2.874065736406396
 30
0.0
 10
6.917765491096961
 20
-1.473709613474032
 30
0.0
 10
3.810389619075
 20
0.2180431677678493
 30
0.0
 10
0.127312896580003
 20
1.629544152294778
 30
0.0
 10
-3.64494261644221
 20
2.577154832721168
 30
0.0
 10
-7.734511145296474
 20
3.184119432309909
 30
0.0
 10
-10.55841244285965
 20
3.229196586513487
 30
0.0
 10
-11.99236433443917
 20
3.252086363359802
 30
0.0
  0
LWPOLYLINE
  5
2EA
330
26E
100
AcDbEntity
  8
0
  6
Continuous
 62
     8
370
    25
100
AcDbPolyline
 90
       14
 70
   128
 43
0.0
 10
51.1488749919
 20
123.0391758052
 10
50.5083391455
 20
122.6556506778
 10
49.6331330592
 20
121.7910164896
 10
48.9681172685
 20
120.6451853999
 10
48.537327177
 20
119.2595707298
 10
48.3563326608
 20
117.6842522035
 10
48.4316753334
 20
115.9761659371
 10
48.7606321142
 20
114.1970466185
 10
49.3313136483
 20
112.4111962556
 10
50.1230940179
 20
110.6831601332
 10
51.1073562176
 20
109.0753939793
 10
52.248526447
 20
107.6460066517
 10
53.5053598408
 20
106.4466599325
 10
54.8324311654
 20
105.5207013372
  0
SPLINE
  5
2ED
330
26E
100
AcDbEntity
  8
0
  6
Continuous
 62
     8
370
    25
100
AcDbSpline
210
0.0
220
0.0
230
1.0
 70
     8
 71
     3
 72
    10
 73
     6
 74
     0
 42
0.000000001
 43
0.00000001
 40
0.0
 40
0.0
 40
0.0
 40
0.0
 40
0.1471034049081844
 40
0.5735516830709517
 40
1.0
 40
1.0
 40
1.0
 40
1.0
 10
-239.3637857369774
 20
92.87953453396855
 30
0.0
 10
-234.3437741886987
 20
95.75667953183536
 30
0.0
 10
-214.7709024774828
 20
106.974580008005
 30
0.0
 10
-180.6731973327231
 20
126.7350462207598
 30
0.0
 10
-151.6033436144243
 20
143.6712380187691
 30
0.0
 10
-137.0684160946262
 20
152.1393343026699
 30
0.0
  0
LWPOLYLINE
  5
2F1
330
26E
100
AcDbEntity
  8
0
  6
Continuous
 62
     8
370
    25
100
AcDbPolyline
 90
       18
 70
   128
 43
0.0
 10
117.0261722864
 20
172.0749951747
 10
115.1391627796
 20
173.0189200708
 10
113.0386608832
 20
173.7982068733
 10
110.7674267586
 20
174.3969915502
 10
108.3716961828
 20
174.8030845722
 10
105.9002393216
 20
175.0082190565
 10
103.4033679096
 20
175.0082190565
 10
100.9319110484
 20
174.8030845722
 10
98.5361804726
 20
174.3969915502
 10
96.264946348
 20
173.7982068733
 10
94.1644444517
 20
173.0189200708
 10
92.2774349448
 20
172.0749951747
 10
90.6423318994
 20
170.9856477738
 10
89.2924212982
 20
169.7730538399
 10
88.2551834281
 20
168.4618982884
 10
87.5517334611
 20
167.0788724656
 10
87.1963916099
 20
165.6521307887
 10
87.153154747
 20
165.0569597491
  0
LWPOLYLINE
  5
2F2
330
26E
100
AcDbEntity
  8
0
  6
Continuous
 62
     8
370
    25
100
AcDbPolyline
 90
        7
 70
   128
 43
0.0
 10
122.1510788424
 20
164.8394803017
 10
122.1072156213
 20
165.6521307887
 10
121.7518737701
 20
167.0788724656
 10
121.0484238031
 20
168.4618982884
 10
120.011185933
 20
169.7730538399
 10
118.6612753318
 20
170.9856477738
 10
117.0261722864
 20
172.0749951747
  0
SPLINE
  5
2F3
330
26E
100
AcDbEntity
  8
0
  6
Continuous
 62
     8
370
    25
100
AcDbSpline
210
0.0
220
0.0
230
1.0
 70
     8
 71
     3
 72
    13
 73
     9
 74
     0
 42
0.000000001
 43
0.00000001
 40
0.0
 40
0.0
 40
0.0
 40
0.0
 40
0.1476391247622967
 40
0.2952813948532373
 40
0.4631024237507147
 40
0.6309236566285653
 40
0.8411591415465501
 40
1.0
 40
1.0
 40
1.0
 40
1.0
 10
-10.65494599242053
 20
4.628881760707887
 30
0.0
 10
-9.415055715982664
 20
4.575635317392031
 30
0.0
 10
-6.935248748276784
 20
4.469141296389159
 30
0.0
 10
-3.154255457371141
 20
3.885915651990119
 30
0.0
 10
0.5861148511821642
 20
2.944262093392727
 30
0.0
 10
4.43029446698192
 20
1.48130234157464
 30
0.0
 10
7.741878704791442
 20
-0.3316085043138031
 30
0.0
 10
9.435371448982984
 20
-1.836770589202466
 30
0.0
 10
10.16420667807096
 20
-2.484553201036493
 30
0.0
  0
LWPOLYLINE
  5
2F4
330
26E
100
AcDbEntity
  8
0
  6
Continuous
 62
     8
370
    25
100
AcDbPolyline
 90
       18
 70
   128
 43
0.0
 10
46.3154941677
 20
212.8954007658
 10
44.4284846609
 20
213.839325662
 10
42.3279827646
 20
214.6186124645
 10
40.0567486399
 20
215.2173971414
 10
37.6610180641
 20
215.6234901634
 10
35.1895612029
 20
215.8286246477
 10
32.692689791
 20
215.8286246477
 10
30.2212329298
 20
215.6234901634
 10
27.825502354
 20
215.2173971414
 10
25.5542682294
 20
214.6186124645
 10
23.453766333
 20
213.839325662
 10
21.5667568262
 20
212.8954007658
 10
19.9316537808
 20
211.806053365
 10
18.5817431795
 20
210.593459431
 10
17.5445053095
 20
209.2823038796
 10
16.8410553425
 20
207.8992780567
 10
16.4857134913
 20
206.4725363798
 10
16.4424766283
 20
205.8773653403
  0
LWPOLYLINE
  5
2F5
330
26E
100
AcDbEntity
  8
0
  6
Continuous
 62
     8
370
    25
100
AcDbPolyline
 90
        7
 70
   128
 43
0.0
 10
51.4404007238
 20
205.6598858929
 10
51.3965375026
 20
206.4725363798
 10
51.0411956514
 20
207.8992780567
 10
50.3377456845
 20
209.2823038796
 10
49.3005078144
 20
210.593459431
 10
47.9505972131
 20
211.806053365
 10
46.3154941677
 20
212.8954007658
  0
LWPOLYLINE
  5
2F7
330
26E
100
AcDbEntity
  8
0
  6
Continuous
 62
     8
370
    25
100
AcDbPolyline
 90
       23
 70
   128
 43
0.0
 10
46.3926813841
 20
127.4192836151
 10
47.7769449246
 20
127.9073222605
 10
49.3150376639
 20
128.0770860648
 10
50.9429401567
 20
127.9101500177
 10
52.6242877513
 20
127.4102431947
 10
54.3215219208
 20
126.5885326881
 10
55.9967292584
 20
125.4633741529
 10
57.6124884004
 20
124.0599017714
 10
59.1327059576
 20
122.4094667975
 10
60.5234227818
 20
120.5489372212
 10
61.7535725571
 20
118.5198741988
 10
62.7956757706
 20
116.3676036454
 10
63.6264535582
 20
114.1402037285
 10
64.2273477172
 20
111.8874308816
 10
64.5849352648
 20
109.6596083276
 10
64.6912282863
 20
107.5065019409
 10
64.5438523712
 20
105.4762085604
 10
64.1460996538
 20
103.6140815851
 10
63.5068552726
 20
101.9617178546
 10
62.6403988907
 20
100.5560284443
 10
61.5660857121
 20
99.4284141327
 10
60.3079141177
 20
98.6040639601
 10
60.2152117985
 20
98.5589735394
  0
LWPOLYLINE
  5
2F9
330
26E
100
AcDbEntity
  8
0
  6
Continuous
 62
     8
370
    25
100
AcDbPolyline
 90
       15
 70
   128
 43
0.0
 10
48.5533405468
 20
122.9102146974
 10
48.1819226735
 20
122.7038005064
 10
47.2174707714
 20
121.8966887595
 10
46.44965631
 20
120.8037701662
 10
45.9031574781
 20
119.4601720294
 10
45.5955391976
 20
117.9090786986
 10
45.5366885733
 20
116.2003435898
 10
45.7284971126
 20
114.3888868554
 10
46.1647999313
 20
112.5329302051
 10
46.8315738978
 20
110.692125613
 10
47.7073883481
 20
108.9256380531
 10
48.7640938852
 20
107.2902438891
 10
49.9677271238
 20
105.838506035
 10
51.279602301
 20
104.6170845401
 10
52.6575546695
 20
103.6652368961
  0
LINE
  5
2FA
330
26E
100
AcDbEntity
  8
0
  6
Continuous
 62
     7
370
    25
100
AcDbLine
 10
242.8293029583
 20
21.7186672681
 30
0.0
 11
71.3527378371
 21
-77.272646687
 31
0.0
  0
LINE
  5
2FB
330
26E
100
AcDbEntity
  8
0
  6
Continuous
 62
     7
370
    25
100
AcDbLine
 10
55.2591280438
 20
-77.2026532905
 30
0.0
 11
-315.5400561645
 21
136.8551594043
 31
0.0
  0
LINE
  5
2FC
330
26E
100
AcDbEntity
  8
0
  6
Continuous
 62
     7
370
    25
100
AcDbLine
 10
65.8465951869
 20
-205.4751642749
 30
0.0
 11
357.1745890358
 21
-37.2950932394
 31
0.0
  0
LINE
  5
2FD
330
26E
100
AcDbEntity
  8
0
  6
Continuous
 62
     7
370
    25
100
AcDbLine
 10
-357.1745890358
 20
36.1816368246
 30
0.0
 11
61.4326254266
 21
-205.4751642749
 31
0.0
  0
LINE
  5
2FE
330
26E
100
AcDbEntity
  8
0
  6
Continuous
 62
     7
370
    25
100
AcDbLine
 10
356.5531467912
 20
69.3708603669
 30
0.0
 11
-61.6397728415
 21
310.788494152
 31
0.0
  0
LINE
  5
2FF
330
26E
100
AcDbEntity
  8
0
  6
Continuous
 62
     7
370
    25
100
AcDbLine
 10
358.9676041556
 20
-34.2887425964
 30
0.0
 11
358.9676041556
 21
65.3292364537
 31
0.0
  0
LINE
  5
300
330
26E
100
AcDbEntity
  8
0
  6
Continuous
 62
     7
370
    25
100
AcDbLine
 10
-65.6394477721
 20
310.788494152
 30
0.0
 11
-356.5531467912
 21
142.8475904309
 31
0.0
  0
LINE
  5
301
330
26E
100
AcDbEntity
  8
0
  6
Continuous
 62
     7
370
    25
100
AcDbLine
 10
-358.9676041556
 20
138.8059665177
 30
0.0
 11
-358.9676041556
 21
39.1879874677
 31
0.0
  0
LINE
  5
302
330
26E
100
AcDbEntity
  8
0
  6
Continuous
 62
     7
370
    25
100
AcDbLine
 10
47.864554761
 20
128.1207102591
 30
0.0
 11
46.4557227082
 21
127.4497412685
 31
0.0
  0
LINE
  5
303
330
26E
100
AcDbEntity
  8
0
  6
Continuous
 62
     7
370
    25
100
AcDbLine
 10
60.2152117985
 20
98.5589735394
 30
0.0
 11
61.6240438513
 21
99.22994253
 31
0.0
  0
LINE
  5
304
330
26E
100
AcDbEntity
  8
0
  6
Continuous
 62
     7
370
    25
100
AcDbLine
 10
60.811183182
 20
-104.4836508054
 30
0.0
 11
-357.7960312804
 21
137.1731502941
 31
0.0
  0
LINE
  5
305
330
26E
100
AcDbEntity
  8
0
  6
Continuous
 62
     7
370
    25
100
AcDbLine
 10
-353.5533905933
 20
142.8886705772
 30
0.0
 11
63.6396103068
 21
-97.9517224105
 31
0.0
  0
LINE
  5
306
330
26E
100
AcDbEntity
  8
0
  6
Continuous
 62
     7
370
    25
100
AcDbLine
 10
63.6396103068
 20
-97.9517224105
 30
0.0
 11
353.5533905933
 21
69.4119405131
 31
0.0
  0
LINE
  5
307
330
26E
100
AcDbEntity
  8
0
  6
Continuous
 62
     7
370
    25
100
AcDbLine
 10
357.7960312804
 20
63.6964202301
 30
0.0
 11
66.4680374315
 21
-104.4836508054
 31
0.0
  0
LINE
  5
308
330
26E
100
AcDbEntity
  8
0
  6
Continuous
 62
     7
370
    25
100
AcDbLine
 10
66.4680374315
 20
-104.4836508054
 30
0.0
 11
66.4680374315
 21
-204.1016298555
 31
0.0
  0
LINE
  5
309
330
26E
100
AcDbEntity
  8
0
  6
Continuous
 62
     7
370
    25
100
AcDbLine
 10
60.811183182
 20
-204.1016298555
 30
0.0
 11
60.811183182
 21
-104.4836508054
 31
0.0
  0
LINE
  5
30A
330
26E
100
AcDbEntity
  8
0
  6
Continuous
 62
     7
370
    25
100
AcDbLine
 10
357.7960312804
 20
-35.92155882
 30
0.0
 11
357.7960312804
 21
63.6964202301
 31
0.0
  0
LINE
  5
30B
330
26E
100
AcDbEntity
  8
0
  6
Continuous
 62
     7
370
    25
100
AcDbLine
 10
66.4680374315
 20
-204.1016298555
 30
0.0
 11
357.7960312804
 21
-35.92155882
 31
0.0
  0
LINE
  5
30C
330
26E
100
AcDbEntity
  8
0
  6
Continuous
 62
     7
370
    25
100
AcDbLine
 10
-357.7960312804
 20
37.555171244
 30
0.0
 11
60.811183182
 21
-204.1016298555
 31
0.0
  0
LINE
  5
30D
330
26E
100
AcDbEntity
  8
0
  6
Continuous
 62
     7
370
    25
100
AcDbLine
 10
-357.7960312804
 20
137.1731502941
 30
0.0
 11
-357.7960312804
 21
37.555171244
 31
0.0
  0
LINE
  5
30E
330
26E
100
AcDbEntity
  8
0
  6
Continuous
 62
     7
370
    25
100
AcDbLine
 10
52.7593312122
 20
-77.450193543
 30
0.0
 11
-318.0398529961
 21
136.6076191518
 31
0.0
  0
LINE
  5
30F
330
26E
100
AcDbEntity
  8
0
  6
Continuous
 62
     7
370
    25
100
AcDbLine
 10
245.3290997899
 20
21.4711270157
 30
0.0
 11
73.8525346687
 21
-77.5201869394
 31
0.0
  0
LINE
  5
310
330
26E
100
AcDbEntity
  8
0
  6
Continuous
 62
     7
370
    25
100
AcDbLine
 10
-125.5913296744
 20
247.7057868744
 30
0.0
 11
245.2078545339
 21
33.6479741796
 31
0.0
  0
LINE
  5
311
330
26E
100
AcDbEntity
  8
0
  6
Continuous
 62
     7
370
    25
100
AcDbLine
 10
-318.1610982521
 20
148.7844663158
 30
0.0
 11
-146.6845331309
 21
247.7757802709
 31
0.0
  0
LINE
  5
312
330
26E
100
AcDbEntity
  8
0
  6
Continuous
 62
     7
370
    25
100
AcDbLine
 10
-63.6396103068
 20
310.2523335008
 30
0.0
 11
-353.5533905933
 21
142.8886705772
 31
0.0
  0
LINE
  5
313
330
26E
100
AcDbEntity
  8
0
  6
Continuous
 62
     7
370
    25
100
AcDbLine
 10
353.5533905933
 20
69.4119405131
 30
0.0
 11
-63.6396103068
 21
310.2523335008
 31
0.0
  0
LINE
  5
314
330
26E
100
AcDbEntity
  8
0
  6
Continuous
 62
     7
370
    25
100
AcDbLine
 10
-129.1134098065
 20
241.9456603385
 30
0.0
 11
-123.0606134274
 21
152.8920623046
 31
0.0
  0
LINE
  5
315
330
26E
100
AcDbEntity
  8
0
  6
Continuous
 62
     7
370
    25
100
AcDbLine
 10
241.6857744019
 20
27.8878476437
 30
0.0
 11
-129.1134098065
 21
241.9456603385
 31
0.0
  0
LINE
  5
316
330
26E
100
AcDbEntity
  8
0
  6
Continuous
 62
     7
370
    25
100
AcDbLine
 10
33.2340187158
 20
202.8893587936
 30
0.0
 11
29.6879980118
 21
204.9364329728
 31
0.0
  0
LINE
  5
317
330
26E
100
AcDbEntity
  8
0
  6
Continuous
 62
     7
370
    25
100
AcDbLine
 10
157.8638328656
 20
124.236554158
 30
0.0
 11
157.8624817343
 21
124.1110186051
 31
0.0
  0
LINE
  5
318
330
26E
100
AcDbEntity
  8
0
  6
Continuous
 62
     7
370
    25
100
AcDbLine
 10
56.4599719556
 20
119.3900778676
 30
0.0
 11
56.3577768267
 21
117.0077714975
 31
0.0
  0
LINE
  5
319
330
26E
100
AcDbEntity
  8
0
  6
Continuous
 62
     7
370
    25
100
AcDbLine
 10
2.1499524708
 20
12.020992298
 30
0.0
 11
-10.6549459924
 21
4.6288817607
 31
0.0
  0
LINE
  5
31A
330
26E
100
AcDbEntity
  8
0
  6
Continuous
 62
     7
370
    25
100
AcDbLine
 10
-143.2027119293
 20
242.3920177359
 30
0.0
 11
-314.6792770505
 21
143.4007037809
 31
0.0
  0
LINE
  5
31B
330
26E
100
AcDbEntity
  8
0
  6
Continuous
 62
     7
370
    25
100
AcDbLine
 10
-137.0684160946
 20
152.1393343027
 30
0.0
 11
-143.2027119293
 21
242.3920177359
 31
0.0
  0
LINE
  5
31C
330
26E
100
AcDbEntity
  8
0
  6
Continuous
 62
     7
370
    25
100
AcDbLine
 10
87.153154747
 20
165.0569597491
 30
0.0
 11
87.1518036156
 21
164.9314241963
 31
0.0
  0
LINE
  5
31D
330
26E
100
AcDbEntity
  8
0
  6
Continuous
 62
     7
370
    25
100
AcDbLine
 10
16.4424766283
 20
205.8773653403
 30
0.0
 11
16.441125497
 21
205.7518297874
 31
0.0
  0
LINE
  5
31E
330
26E
100
AcDbEntity
  8
0
  6
Continuous
 62
     7
370
    25
100
AcDbLine
 10
60.2152117985
 20
98.5589735394
 30
0.0
 11
60.0300683981
 21
98.4744611353
 31
0.0
  0
LINE
  5
31F
330
26E
100
AcDbEntity
  8
0
  6
Continuous
 62
     8
370
    25
100
AcDbLine
 10
239.79161944
 20
19.9650498998
 30
0.0
 11
241.6857744019
 21
27.8878476437
 31
0.0
  0
LINE
  5
320
330
26E
100
AcDbEntity
  8
0
  6
Continuous
 62
     8
370
    25
100
AcDbLine
 10
-314.6792770505
 20
143.4007037809
 30
0.0
 11
-312.9161358154
 21
135.3404024292
 31
0.0
  0
LINE
  5
321
330
26E
100
AcDbEntity
  8
0
  6
Continuous
 62
     8
370
    25
100
AcDbLine
 10
36.5186833896
 20
196.6188202286
 30
0.0
 11
38.2349995635
 21
197.6096284659
 31
0.0
  0
ARC
  5
322
330
26E
100
AcDbEntity
  8
0
  6
Continuous
 62
     7
370
    25
100
AcDbCircle
 10
-63.6396103068
 20
307.3242987025
 30
0.0
 40
3.999999999999908
100
AcDbArc
 50
59.3419046538
 51
120.4938071172
  0
ARC
  5
323
330
26E
100
AcDbEntity
  8
0
  6
Continuous
 62
     7
370
    25
100
AcDbCircle
 10
63.6396103068
 20
-99.0248064656
 30
0.0
 40
6.14808763164686
100
AcDbArc
 50
242.6096722366
 51
297.3903277634
  0
ARC
  5
324
330
26E
100
AcDbEntity
  8
0
  6
Continuous
 62
     7
370
    25
100
AcDbCircle
 10
70.2912632816
 20
-104.7103329322
 30
0.0
 40
9.482789857486152
100
AcDbArc
 50
134.5430301514
 51
178.6302378715
  0
ARC
  5
325
330
26E
100
AcDbEntity
  8
0
  6
Continuous
 62
     7
370
    25
100
AcDbCircle
 10
56.9205201313
 20
-104.7395342945
 30
0.0
 40
9.550945657772932
100
AcDbArc
 50
1.5352195441
 51
45.291512433
  0
ARC
  5
326
330
26E
100
AcDbEntity
  8
0
  6
Continuous
 62
     7
370
    25
100
AcDbCircle
 10
-351.1184425403
 20
136.6487844483
 30
0.0
 40
6.698145334524929
100
AcDbArc
 50
111.3168806427
 51
175.5099925271
  0
ARC
  5
327
330
26E
100
AcDbEntity
  8
0
  6
Continuous
 62
     7
370
    25
100
AcDbCircle
 10
351.1184425403
 20
63.1720543842
 30
0.0
 40
6.698145334524855
100
AcDbArc
 50
4.4900074729
 51
68.6831193573
  0
ARC
  5
328
330
26E
100
AcDbEntity
  8
0
  6
Continuous
 62
     7
370
    25
100
AcDbCircle
 10
63.6396103068
 20
-198.6427855157
 30
0.0
 40
6.148087631647058
100
AcDbArc
 50
242.6096722366
 51
297.3903277634
  0
ARC
  5
329
330
26E
100
AcDbEntity
  8
0
  6
Continuous
 62
     7
370
    25
100
AcDbCircle
 10
63.3725988695
 20
-57.3947520592
 30
0.0
 40
22.6905747717864
100
AcDbArc
 50
242.1123674695
 51
297.507385737
  0
ARC
  5
32A
330
26E
100
AcDbEntity
  8
0
  6
Continuous
 62
     7
370
    25
100
AcDbCircle
 10
-136.2045973317
 20
227.6503453906
 30
0.0
 40
22.69057477178639
100
AcDbArc
 50
62.1123674694
 51
117.507385737
  0
ARC
  5
32B
330
26E
100
AcDbEntity
  8
0
  6
Continuous
 62
     7
370
    25
100
AcDbCircle
 10
249.4164539084
 20
27.1177222677
 30
0.0
 40
7.768944505386704
100
AcDbArc
 50
122.8008629154
 51
174.3110005809
  0
ARC
  5
32C
330
26E
100
AcDbEntity
  8
0
  6
Continuous
 62
     7
370
    25
100
AcDbCircle
 10
-121.3827302999
 20
241.1755349626
 30
0.0
 40
7.768944505387036
100
AcDbArc
 50
122.8008629154
 51
174.3110005809
  0
ARC
  5
32D
330
26E
100
AcDbEntity
  8
0
  6
Continuous
 62
     7
370
    25
100
AcDbCircle
 10
-138.5993702639
 20
154.5313530419
 30
0.0
 40
15.62498762064533
100
AcDbArc
 50
302.9148763213
 51
353.9777484724
  0
ARC
  5
32E
330
26E
100
AcDbEntity
  8
0
  6
Continuous
 62
     7
370
    25
100
AcDbCircle
 10
25.3443897895
 20
190.3708597919
 30
0.0
 40
14.79726535044969
100
AcDbArc
 50
26.0921984822
 51
57.7793273054
  0
ARC
  5
32F
330
26E
100
AcDbEntity
  8
0
  6
Continuous
 62
     7
370
    25
100
AcDbCircle
 10
-322.4094983501
 20
142.2191398808
 30
0.0
 40
7.820000932909728
100
AcDbArc
 50
8.690395101
 51
57.0932333861
  0
ARC
  5
330
330
26E
100
AcDbEntity
  8
0
  6
Continuous
 62
     7
370
    25
100
AcDbCircle
 10
-150.9329332289
 20
241.2104538359
 30
0.0
 40
7.820000932909854
100
AcDbArc
 50
8.690395101
 51
57.0932333861
  0
ARC
  5
331
330
26E
100
AcDbEntity
  8
0
  6
Continuous
 62
     7
370
    25
100
AcDbCircle
 10
-121.5385491262
 20
154.5964575766
 30
0.0
 40
15.72304750485293
100
AcDbArc
 50
188.9907644049
 51
236.9698588778
  0
ARC
  5
332
330
26E
100
AcDbEntity
  8
0
  6
Continuous
 62
     7
370
    25
100
AcDbCircle
 10
-129.022950591
 20
133.1328331519
 30
0.0
 40
20.63920059409098
100
AcDbArc
 50
73.20883869
 51
112.9429751597
  0
ARC
  5
333
330
26E
100
AcDbEntity
  8
0
  6
Continuous
 62
     7
370
    25
100
AcDbCircle
 10
-136.5284266564
 20
230.4782173047
 30
0.0
 40
13.65594100088003
100
AcDbArc
 50
57.1126986858
 51
119.2581869755
  0
ARC
  5
334
330
26E
100
AcDbEntity
  8
0
  6
Continuous
 62
     7
370
    25
100
AcDbCircle
 10
57.4059612744
 20
109.374931731
 30
0.0
 40
6.044957925744078
100
AcDbArc
 50
236.4643169574
 51
283.9645658076
  0
ARC
  5
335
330
26E
100
AcDbEntity
  8
0
  6
Continuous
 62
     8
370
    25
100
AcDbCircle
 10
54.212278114
 20
-79.3836984687
 30
0.0
 40
2.418573132474801
100
AcDbArc
 50
64.1467934394
 51
126.9233081187
  0
ARC
  5
336
330
26E
100
AcDbEntity
  8
0
  6
Continuous
 62
     8
370
    25
100
AcDbCircle
 10
72.38649341
 20
-79.5659653508
 30
0.0
 40
2.516840535408416
100
AcDbArc
 50
54.3739419024
 51
113.9662176481
  0
ARC
  5
337
330
26E
100
AcDbEntity
  8
0
  6
Continuous
 62
     8
370
    25
100
AcDbCircle
 10
243.8648572702
 20
19.4303331716
 30
0.0
 40
2.511741561229746
100
AcDbArc
 50
54.3410619984
 51
114.3484795725
  0
ARC
  5
338
330
26E
100
AcDbEntity
  8
0
  6
Continuous
 62
     8
370
    25
100
AcDbCircle
 10
-316.5859239322
 20
134.6709762237
 30
0.0
 40
2.421672057445998
100
AcDbArc
 50
64.4131749372
 51
126.8972834919
  0
ARC
  5
339
330
26E
100
AcDbEntity
  8
0
  6
Continuous
 62
     8
370
    25
100
AcDbCircle
 10
65.0412264143
 20
-204.2833801132
 30
0.0
 40
1.438340305756926
100
AcDbArc
 50
304.0211438796
 51
7.2593641606
  0
ARC
  5
33A
330
26E
100
AcDbEntity
  8
0
  6
Continuous
 62
     8
370
    25
100
AcDbCircle
 10
62.2379568756
 20
-204.2833889512
 30
0.0
 40
1.438304398015812
100
AcDbArc
 50
172.7400987213
 51
235.9842080339
  0
ARC
  5
33B
330
26E
100
AcDbEntity
  8
0
  6
Continuous
 62
     8
370
    25
100
AcDbCircle
 10
356.3689746128
 20
-36.1032509058
 30
0.0
 40
1.438576639152703
100
AcDbArc
 50
304.0563508293
 51
7.2558295641
  0
ARC
  5
33C
330
26E
100
AcDbEntity
  8
0
  6
Continuous
 62
     8
370
    25
100
AcDbCircle
 10
-356.3689746126
 20
37.3734791583
 30
0.0
 40
1.438576639279971
100
AcDbArc
 50
172.744170439
 51
235.9436491676
  0
ARC
  5
33D
330
26E
100
AcDbEntity
  8
0
  6
Continuous
 62
     8
370
    25
100
AcDbCircle
 10
240.4696026262
 20
23.8552949511
 30
0.0
 40
4.211953822913504
100
AcDbArc
 50
354.2431739213
 51
73.2172895552
  0
ARC
  5
33E
330
26E
100
AcDbEntity
  8
0
  6
Continuous
 62
     8
370
    25
100
AcDbCircle
 10
57.402757575
 20
109.3660975069
 30
0.0
 40
6.035824730615968
100
AcDbArc
 50
236.4433372813
 51
284.2685100917
  0
ARC
  5
33F
330
26E
100
AcDbEntity
  8
0
  6
Continuous
 62
     8
370
    25
100
AcDbCircle
 10
357.0551338936
 20
65.4646299992
 30
0.0
 40
1.917157981413444
100
AcDbArc
 50
292.7341662044
 51
355.9921455497
  0
ARC
  5
340
330
26E
100
AcDbEntity
  8
0
  6
Continuous
 62
     8
370
    25
100
AcDbCircle
 10
355.0109783971
 20
66.2204892576
 30
0.0
 40
3.508550031268809
100
AcDbArc
 50
64.1520033655
 51
114.5469526506
  0
ARC
  5
341
330
26E
100
AcDbEntity
  8
0
  6
Continuous
 62
     8
370
    25
100
AcDbCircle
 10
-62.2602032393
 20
309.1049518974
 30
0.0
 40
1.794226407594115
100
AcDbArc
 50
69.769807241
 51
140.2465417532
  0
ARC
  5
342
330
26E
100
AcDbEntity
  8
0
  6
Continuous
 62
     8
370
    25
100
AcDbCircle
 10
356.9657759057
 20
-34.0891170888
 30
0.0
 40
2.011757113975073
100
AcDbArc
 50
294.3746582936
 51
354.3052007488
  0
ARC
  5
343
330
26E
100
AcDbEntity
  8
0
  6
Continuous
 62
     8
370
    25
100
AcDbCircle
 10
-313.1992069938
 20
139.3240443977
 30
0.0
 40
4.337021915892355
100
AcDbArc
 50
109.9539110643
 51
188.6413382903
  0
ARC
  5
344
330
26E
100
AcDbEntity
  8
0
  6
Continuous
 62
     8
370
    25
100
AcDbCircle
 10
57.7993742086
 20
109.8805077416
 30
0.0
 40
5.273581601256038
100
AcDbArc
 50
235.7638614034
 51
291.3767138978
  0
ARC
  5
345
330
26E
100
AcDbEntity
  8
0
  6
Continuous
 62
     8
370
    25
100
AcDbCircle
 10
-355.0114813448
 20
139.6946882543
 30
0.0
 40
3.511061337885289
100
AcDbArc
 50
65.4627408179
 51
115.7116097404
  0
ARC
  5
346
330
26E
100
AcDbEntity
  8
0
  6
Continuous
 62
     8
370
    25
100
AcDbCircle
 10
-356.9657019354
 20
139.0056794413
 30
0.0
 40
2.011867266124667
100
AcDbArc
 50
185.7050267769
 51
245.6244503069
  0
ARC
  5
347
330
26E
100
AcDbEntity
  8
0
  6
Continuous
 62
     8
370
    25
100
AcDbCircle
 10
70.2244803501
 20
121.0485606299
 30
0.0
 40
14.83787203778842
100
AcDbArc
 50
182.113891886
 51
228.9163103454
  0
ARC
  5
348
330
26E
100
AcDbEntity
  8
0
  6
Continuous
 62
     8
370
    25
100
AcDbCircle
 10
-65.0190173743
 20
309.1049518974
 30
0.0
 40
1.794226407594401
100
AcDbArc
 50
39.7534582468
 51
110.230192759
  0
ARC
  5
349
330
26E
100
AcDbEntity
  8
0
  6
Continuous
 62
     8
370
    25
100
AcDbCircle
 10
-356.9657759057
 20
39.3876129753
 30
0.0
 40
2.011757113975044
100
AcDbArc
 50
185.6947992512
 51
245.6253417064
  0
ARC
  5
34A
330
26E
100
AcDbEntity
  8
0
  6
Continuous
 62
     8
370
    25
100
AcDbCircle
 10
55.8994092206
 20
108.2727231611
 30
0.0
 40
5.633697774363209
100
AcDbArc
 50
234.8695546807
 51
292.3940207423
  0
VIEWPORT
  5
351
330
26E
100
AcDbEntity
  8
0
100
AcDbViewport
 10
0.0
 20
0.0
 30
0.0
 40
205.6
 41
156.0
 68
     1
 69
     1
 12
0.0
 22
0.0
 13
0.0
 23
0.0
 14
10.0
 24
10.0
 15
10.0
 25
10.0
 16
0.0
 26
0.0
 36
1.0
 17
0.0
 27
0.0
 37
0.0
 42
50.0
 43
0.0
 44
0.0
 45
464.3579766537
 50
0.0
 51
0.0
 72
   100
 90
   557152
  1

281
     0
 71
     1
 74
     0
110
0.0
120
0.0
130
0.0
111
1.0
121
0.0
131
0.0
112
0.0
122
1.0
132
0.0
 79
     0
146
0.0
  0
ENDBLK
  5
271
330
26E
100
AcDbEntity
  8
0
100
AcDbBlockEnd
  0
ENDSEC
  0
SECTION
  2
ENTITIES
  0
SPLINE
  5
73
330
1F
100
AcDbEntity
  8
0
  6
Continuous
 62
     7
370
    25
100
AcDbSpline
210
0.0
220
0.0
230
1.0
 70
     8
 71
     3
 72
    22
 73
    18
 74
     0
 42
0.000000001
 43
0.00000001
 40
0.0
 40
0.0
 40
0.0
 40
0.0
 40
0.033645154308491
 40
0.0685306237672005
 40
0.101977111060206
 40
0.1382003536314199
 40
0.1831454817209663
 40
0.2497721337017201
 40
0.3474145066237977
 40
0.4380376744078296
 40
0.5335810329806653
 40
0.6263147726242395
 40
0.7178715773461317
 40
0.8088663515722813
 40
0.8995710806919593
 40
0.985348529367506
 40
1.0
 40
1.0
 40
1.0
 40
1.0
 10
-15.97484983743429
 20
75.40294513561841
 30
0.0
 10
-15.95994128908246
 20
75.17221669806676
 30
0.0
 10
-15.92957459470957
 20
74.70225411144082
 30
0.0
 10
-15.58351494200358
 20
74.1239054886803
 30
0.0
 10
-15.17492683030052
 20
73.71559151071318
 30
0.0
 10
-14.75204732405851
 20
73.44950808616723
 30
0.0
 10
-14.28376084359767
 20
73.24648193377637
 30
0.0
 10
-13.64543602757682
 20
73.05788017099991
 30
0.0
 10
-12.7390501711873
 20
72.87895057423472
 30
0.0
 10
-11.4824552373086
 20
72.70657449949253
 30
0.0
 10
-10.00535634332009
 20
72.55950032252026
 30
0.0
 10
-8.298659264413155
 20
72.43504515734472
 30
0.0
 10
-6.435956955273092
 20
72.33681970450799
 30
0.0
 10
-4.444891257326087
 20
72.26487842484919
 30
0.0
 10
-2.399929009250725
 20
72.2209927657172
 30
0.0
 10
-0.9023141438981802
 20
72.20817114511144
 30
0.0
 10
-0.1148782098100725
 20
72.20763845964431
 30
0.0
 10
-0.0000000000000557
 20
72.20756074671527
 30
0.0
  0
SPLINE
  5
74
330
1F
100
AcDbEntity
  8
0
  6
Continuous
 62
     7
370
    25
100
AcDbSpline
210
0.0
220
0.0
230
1.0
 70
     8
 71
     3
 72
    21
 73
    17
 74
     0
 42
0.000000001
 43
0.00000001
 40
0.0
 40
0.0
 40
0.0
 40
0.0
 40
0.0474387283036669
 40
0.1378276839569722
 40
0.2283326341078742
 40
0.3189817262023104
 40
0.4099020849257983
 40
0.5013095813169701
 40
0.5936325130505762
 40
0.6878897704407757
 40
0.7873048486237306
 40
0.846783861870781
 40
0.8933964995345901
 40
0.9300894280257203
 40
0.9673585953557465
 40
1.0
 40
1.0
 40
1.0
 40
1.0
 10
-0.0000000000000557
 20
72.20756074671526
 30
0.0
 10
0.372315870549165
 20
72.20833224488396
 30
0.0
 10
1.454036143692668
 20
72.21057374269746
 30
0.0
 10
3.232215983498856
 20
72.23554524702762
 30
0.0
 10
5.27502159222706
 20
72.29114766045113
 30
0.0
 10
7.206248321415437
 20
72.37349209040123
 30
0.0
 10
8.986175568167935
 20
72.48076561470103
 30
0.0
 10
10.5816933505226
 20
72.61192003935707
 30
0.0
 10
11.96871961153697
 20
72.76641550050374
 30
0.0
 10
13.14455453377595
 20
72.94965208617057
 30
0.0
 10
13.96959948456503
 20
73.14011340182405
 30
0.0
 10
14.59093158002864
 20
73.36683940327379
 30
0.0
 10
15.09918978147639
 20
73.6497152801103
 30
0.0
 10
15.57590960223226
 20
74.10535763656047
 30
0.0
 10
15.93542498796071
 20
74.71615955833799
 30
0.0
 10
15.96755509488112
 20
75.1951494536314
 30
0.0
 10
15.98255671468819
 20
75.41879092231422
 30
0.0
  0
SPLINE
  5
77
330
1F
100
AcDbEntity
  8
0
  6
Continuous
 62
     7
370
    25
100
AcDbSpline
210
0.0
220
0.0
230
1.0
 70
     8
 71
     3
 72
    10
 73
     6
 74
     0
 42
0.000000001
 43
0.00000001
 40
0.0
 40
0.0
 40
0.0
 40
0.0
 40
0.3020878835047977
 40
0.7464610543297001
 40
0.9999999999999999
 40
0.9999999999999999
 40
0.9999999999999999
 40
0.9999999999999999
 10
11.21244244997617
 20
73.97211249829125
 30
0.0
 10
11.34259243475405
 20
73.9507195075542
 30
0.0
 10
11.66419386322295
 20
73.89785729330188
 30
0.0
 10
11.91975325451931
 20
73.82574431368649
 30
0.0
 10
11.93524466470694
 20
73.82026742657331
 30
0.0
 10
11.94087241598548
 20
73.81827777178526
 30
0.0
  0
SPLINE
  5
78
330
1F
100
AcDbEntity
  8
0
  6
Continuous
 62
     7
370
    25
100
AcDbSpline
210
0.0
220
0.0
230
1.0
 70
     8
 71
     3
 72
    10
 73
     6
 74
     0
 42
0.000000001
 43
0.00000001
 40
0.0
 40
0.0
 40
0.0
 40
0.0
 40
0.2112223945088428
 40
0.6413963064741598
 40
1.0
 40
1.0
 40
1.0
 40
1.0
 10
-11.94105712759661
 20
73.81866593262222
 30
0.0
 10
-11.94148421069589
 20
73.81843144409524
 30
0.0
 10
-11.9427810879663
 20
73.81771939802903
 30
0.0
 10
-11.75222631425483
 20
73.87609821357151
 30
0.0
 10
-11.48952826128318
 20
73.92393988100805
 30
0.0
 10
-11.37009726904675
 20
73.94569024324923
 30
0.0
  0
CIRCLE
  5
80
330
1F
100
AcDbEntity
  8
0
  6
Continuous
 62
     7
370
    25
100
AcDbCircle
 10
0.0
 20
148.0
 30
0.0
 40
17.50000000000009
  0
CIRCLE
  5
81
330
1F
100
AcDbEntity
  8
0
  6
Continuous
 62
     7
370
    25
100
AcDbCircle
 10
0.0
 20
148.0
 30
0.0
 40
19.50000000000003
  0
CIRCLE
  5
A0
330
1F
100
AcDbEntity
  8
0
  6
Continuous
 62
     7
370
    25
100
AcDbCircle
 10
100.0
 20
148.0
 30
0.0
 40
19.5
  0
CIRCLE
  5
A1
330
1F
100
AcDbEntity
  8
0
  6
Continuous
 62
     7
370
    25
100
AcDbCircle
 10
-100.0
 20
148.0
 30
0.0
 40
19.49999999999997
  0
CIRCLE
  5
A8
330
1F
100
AcDbEntity
  8
0
  6
Continuous
 62
     7
370
    25
100
AcDbCircle
 10
100.0
 20
148.0
 30
0.0
 40
17.50000000000009
  0
CIRCLE
  5
A9
330
1F
100
AcDbEntity
  8
0
  6
Continuous
 62
     7
370
    25
100
AcDbCircle
 10
-100.0
 20
148.0
 30
0.0
 40
17.50000000000009
  0
SPLINE
  5
B7
330
1F
100
AcDbEntity
  8
0
  6
Continuous
 62
     7
370
    25
100
AcDbSpline
210
0.0
220
0.0
230
1.0
 70
     8
 71
     3
 72
    10
 73
     6
 74
     0
 42
0.000000001
 43
0.00000001
 40
0.0
 40
0.0
 40
0.0
 40
0.0
 40
0.5
 40
0.5
 40
1.0
 40
1.0
 40
1.0
 40
1.0
 10
255.0528465081048
 20
61.20883349408525
 30
0.0
 10
255.0202670561324
 20
23.6394924247678
 30
0.0
 10
255.0046401365504
 20
-13.93016506166502
 30
0.0
 10
255.0046401086108
 20
-89.06973557758728
 30
0.0
 10
255.0202670589649
 20
-126.6394956912178
 30
0.0
 10
255.0528465081048
 20
-164.2088334940853
 30
0.0
  0
SPLINE
  5
B8
330
1F
100
AcDbEntity
  8
0
  6
Continuous
 62
     7
370
    25
100
AcDbSpline
210
0.0
220
0.0
230
1.0
 70
     8
 71
     3
 72
    10
 73
     6
 74
     0
 42
0.000000001
 43
0.00000001
 40
0.0
 40
0.0
 40
0.0
 40
0.0
 40
0.5
 40
0.5
 40
1.0
 40
1.0
 40
1.0
 40
1.0
 10
-255.0528465081048
 20
-164.2088334940852
 30
0.0
 10
-255.0202670561323
 20
-126.6394924247678
 30
0.0
 10
-255.0046401365506
 20
-89.06983493833495
 30
0.0
 10
-255.004640108611
 20
-13.93026442241272
 30
0.0
 10
-255.020267058965
 20
23.63949569121779
 30
0.0
 10
-255.0528465081048
 20
61.20883349408528
 30
0.0
  0
SPLINE
  5
B9
330
1F
100
AcDbEntity
  8
0
  6
Continuous
 62
     7
370
    25
100
AcDbSpline
210
0.0
220
0.0
230
1.0
 70
     8
 71
     3
 72
    14
 73
    10
 74
     0
 42
0.000000001
 43
0.00000001
 40
0.0
 40
0.0
 40
0.0
 40
0.0
 40
0.25
 40
0.25
 40
0.5
 40
0.5
 40
0.75
 40
0.75
 40
1.0
 40
1.0
 40
1.0
 40
1.0
 10
-245.2047689779828
 20
71.1707804750027
 30
0.0
 10
-204.337618025443
 20
71.1511336236103
 30
0.0
 10
-163.4702988369022
 20
71.13697657179871
 30
0.0
 10
-81.73536631539274
 20
71.11826085345953
 30
0.0
 10
-40.86775305828858
 20
71.11369971135716
 30
0.0
 10
40.86775301013526
 20
71.11369971135353
 30
0.0
 10
81.73536629635274
 20
71.11826085345602
 30
0.0
 10
163.4702988341945
 20
71.13697657179719
 30
0.0
 10
204.3376180265679
 20
71.15113362361086
 30
0.0
 10
245.2047689779828
 20
71.1707804750027
 30
0.0
  0
SPLINE
  5
BA
330
1F
100
AcDbEntity
  8
0
  6
Continuous
 62
     7
370
    25
100
AcDbSpline
210
0.0
220
0.0
230
1.0
 70
     8
 71
     3
 72
    14
 73
    10
 74
     0
 42
0.000000001
 43
0.00000001
 40
0.0
 40
0.0
 40
0.0
 40
0.0
 40
0.25
 40
0.25
 40
0.5
 40
0.5
 40
0.75
 40
0.75
 40
1.0
 40
1.0
 40
1.0
 40
1.0
 10
245.2047689779828
 20
-174.1707804750027
 30
0.0
 10
204.337618025443
 20
-174.1511336236103
 30
0.0
 10
163.4702988369022
 20
-174.1369765717988
 30
0.0
 10
81.73536631539278
 20
-174.1182608534596
 30
0.0
 10
40.86775305828862
 20
-174.1136997113572
 30
0.0
 10
-40.86775301013518
 20
-174.1136997113536
 30
0.0
 10
-81.73536629635267
 20
-174.118260853456
 30
0.0
 10
-163.4702988341944
 20
-174.1369765717972
 30
0.0
 10
-204.3376180265678
 20
-174.1511336236109
 30
0.0
 10
-245.2047689779828
 20
-174.1707804750027
 30
0.0
  0
SPLINE
  5
BC
330
1F
100
AcDbEntity
  8
0
  6
Continuous
 62
     7
370
    25
100
AcDbSpline
210
0.0
220
0.0
230
1.0
 70
     8
 71
     3
 72
    14
 73
    10
 74
     0
 42
0.000000001
 43
0.00000001
 40
0.0
 40
0.0
 40
0.0
 40
0.0
 40
0.25
 40
0.25
 40
0.5
 40
0.5
 40
0.75
 40
0.75
 40
1.0
 40
1.0
 40
1.0
 40
1.0
 10
-245.259693754582
 20
-164.2579648574324
 30
0.0
 10
-204.3836702566363
 20
-164.4750597016806
 30
0.0
 10
-163.5073267936645
 20
-164.6393812866084
 30
0.0
 10
-81.75407708683109
 20
-164.858272579926
 30
0.0
 10
-40.87717153253225
 20
-164.9130647801488
 30
0.0
 10
40.87717162410415
 20
-164.913064780067
 30
0.0
 10
81.75407712295626
 20
-164.8582725798476
 30
0.0
 10
163.5073267987222
 20
-164.6393812865765
 30
0.0
 10
204.3836702544516
 20
-164.4750597016921
 30
0.0
 10
245.2596937545822
 20
-164.2579648574324
 30
0.0
  0
SPLINE
  5
BE
330
1F
100
AcDbEntity
  8
0
  6
Continuous
 62
     7
370
    25
100
AcDbSpline
210
0.0
220
0.0
230
1.0
 70
     8
 71
     3
 72
    14
 73
    10
 74
     0
 42
0.000000001
 43
0.00000001
 40
0.0
 40
0.0
 40
0.0
 40
0.0
 40
0.25
 40
0.25
 40
0.5
 40
0.5
 40
0.75
 40
0.75
 40
1.0
 40
1.0
 40
1.0
 40
1.0
 10
245.2596937545821
 20
61.25796485743239
 30
0.0
 10
204.3836702566363
 20
61.47505970168051
 30
0.0
 10
163.5073267936647
 20
61.63938128660835
 30
0.0
 10
81.75407708683123
 20
61.85827257992591
 30
0.0
 10
40.87717153253232
 20
61.91306478014867
 30
0.0
 10
-40.87717162410404
 20
61.9130647800669
 30
0.0
 10
-81.75407712295628
 20
61.85827257984752
 30
0.0
 10
-163.5073267987221
 20
61.63938128657646
 30
0.0
 10
-204.3836702544516
 20
61.47505970169216
 30
0.0
 10
-245.2596937545823
 20
61.25796485743243
 30
0.0
  0
SPLINE
  5
C5
330
1F
100
AcDbEntity
  8
0
  6
Continuous
 62
     7
370
    25
100
AcDbSpline
210
0.0
220
0.0
230
1.0
 70
     8
 71
     3
 72
    10
 73
     6
 74
     0
 42
0.000000001
 43
0.00000001
 40
0.0
 40
0.0
 40
0.0
 40
0.0
 40
0.5
 40
0.5
 40
1.0
 40
1.0
 40
1.0
 40
1.0
 10
245.2596937545821
 20
-164.2579648574324
 30
0.0
 10
245.4447518812078
 20
-126.6725045986589
 30
0.0
 10
245.5380589748653
 20
-89.08622816582225
 30
0.0
 10
245.5380586597078
 20
-13.91358075812285
 30
0.0
 10
245.4447519154156
 20
23.67249765106607
 30
0.0
 10
245.2596937545821
 20
61.25796485743245
 30
0.0
  0
SPLINE
  5
C6
330
1F
100
AcDbEntity
  8
0
  6
Continuous
 62
     7
370
    25
100
AcDbSpline
210
0.0
220
0.0
230
1.0
 70
     8
 71
     3
 72
    10
 73
     6
 74
     0
 42
0.000000001
 43
0.00000001
 40
0.0
 40
0.0
 40
0.0
 40
0.0
 40
0.5000000000000001
 40
0.5000000000000001
 40
1.0
 40
1.0
 40
1.0
 40
1.0
 10
-245.2596937545821
 20
61.25796485743242
 30
0.0
 10
-245.4447518812079
 20
23.6725045986589
 30
0.0
 10
-245.5380589748653
 20
-13.91377183417777
 30
0.0
 10
-245.5380586597078
 20
-89.0864192418772
 30
0.0
 10
-245.4447519154154
 20
-126.672497651066
 30
0.0
 10
-245.259693754582
 20
-164.2579648574324
 30
0.0
  0
SPLINE
  5
C7
330
1F
100
AcDbEntity
  8
0
  6
Continuous
 62
     7
370
    25
100
AcDbSpline
210
0.0
220
0.0
230
1.0
 70
    11
 71
     3
 72
   121
 73
   117
 74
     0
 42
0.000000001
 43
0.00000001
 40
0.0
 40
0.0
 40
0.0
 40
0.0
 40
0.0312500000000002
 40
0.0312500000000002
 40
0.0468750000000002
 40
0.0468750000000002
 40
0.0625000000000003
 40
0.0625000000000003
 40
0.0937500000000004
 40
0.0937500000000004
 40
0.1015625000000005
 40
0.1015625000000005
 40
0.1093750000000005
 40
0.1093750000000005
 40
0.1250000000000005
 40
0.1250000000000005
 40
0.1562500000000004
 40
0.1562500000000004
 40
0.1640625000000004
 40
0.1640625000000004
 40
0.1718750000000004
 40
0.1718750000000004
 40
0.1875000000000005
 40
0.2031250000000005
 40
0.2031250000000005
 40
0.2109375000000005
 40
0.2109375000000005
 40
0.2187500000000006
 40
0.2187500000000006
 40
0.2500000000000007
 40
0.2500000000000007
 40
0.2656250000000008
 40
0.2656250000000008
 40
0.2734375000000008
 40
0.2734375000000008
 40
0.2812500000000009
 40
0.2812500000000009
 40
0.3125000000000009
 40
0.3125000000000009
 40
0.3203125000000009
 40
0.3203125000000009
 40
0.328125000000001
 40
0.328125000000001
 40
0.343750000000001
 40
0.343750000000001
 40
0.3750000000000011
 40
0.3750000000000011
 40
0.4062500000000012
 40
0.4062500000000012
 40
0.4218750000000012
 40
0.4218750000000012
 40
0.4375000000000012
 40
0.4375000000000012
 40
0.4687500000000013
 40
0.4687500000000013
 40
0.4843750000000013
 40
0.4843750000000013
 40
0.5000000000000013
 40
0.5156250000000014
 40
0.5156250000000014
 40
0.5312500000000014
 40
0.5312500000000014
 40
0.5625000000000016
 40
0.5625000000000016
 40
0.5781250000000014
 40
0.5781250000000014
 40
0.5937500000000014
 40
0.5937500000000014
 40
0.6093750000000014
 40
0.6093750000000014
 40
0.6250000000000013
 40
0.6250000000000013
 40
0.6562500000000014
 40
0.6562500000000014
 40
0.6718750000000014
 40
0.6718750000000014
 40
0.6796875000000014
 40
0.6796875000000014
 40
0.6875000000000014
 40
0.6875000000000014
 40
0.7187500000000016
 40
0.7187500000000016
 40
0.7265625000000016
 40
0.7265625000000016
 40
0.7343750000000016
 40
0.7343750000000016
 40
0.7500000000000016
 40
0.7500000000000016
 40
0.7812500000000016
 40
0.7812500000000016
 40
0.7890625000000017
 40
0.7890625000000017
 40
0.7968750000000017
 40
0.7968750000000017
 40
0.8125000000000016
 40
0.8281250000000013
 40
0.8281250000000013
 40
0.8359375000000013
 40
0.8359375000000013
 40
0.8437500000000012
 40
0.8437500000000012
 40
0.875000000000001
 40
0.875000000000001
 40
0.890625000000001
 40
0.890625000000001
 40
0.898437500000001
 40
0.898437500000001
 40
0.9062500000000009
 40
0.9062500000000009
 40
0.9375000000000006
 40
0.9375000000000006
 40
0.9531250000000004
 40
0.9531250000000004
 40
0.9687500000000003
 40
0.9687500000000003
 40
1.0
 40
1.0
 40
1.0
 40
1.0
 10
-0.0000000000000411
 20
-48.02340532769814
 30
0.0
 10
-2.171591901391608
 20
-48.02340532769814
 30
0.0
 10
-4.307504944010565
 20
-47.8119042428156
 30
0.0
 10
-7.459972321728807
 20
-47.18994739224622
 30
0.0
 10
-8.502164468296932
 20
-46.93146915710058
 30
0.0
 10
-10.56888475003313
 20
-46.3098038684357
 30
0.0
 10
-11.59599569292161
 20
-45.94494288583452
 30
0.0
 10
-14.58467007036037
 20
-44.71522427085456
 30
0.0
 10
-16.47596814238587
 20
-43.71133903214566
 30
0.0
 10
-18.71442628814387
 20
-42.22781184391317
 30
0.0
 10
-19.15577836575777
 20
-41.91957037986888
 30
0.0
 10
-20.02559209271892
 20
-41.27963114567189
 30
0.0
 10
-20.45516905122415
 20
-40.94700580416253
 30
0.0
 10
-21.71524263674042
 20
-39.92042015082701
 30
0.0
 10
-22.5150841409468
 20
-39.19995430786693
 30
0.0
 10
-24.7975721010059
 20
-36.93355300238554
 30
0.0
 10
-26.16429619941841
 20
-35.28361335542713
 30
0.0
 10
-27.67381558011429
 20
-33.04276722860613
 30
0.0
 10
-27.966427127519
 20
-32.58430023717501
 30
0.0
 10
-28.52593488911791
 20
-31.65767796298925
 30
0.0
 10
-28.79316825397231
 20
-31.18917367885075
 30
0.0
 10
-29.55797969688304
 20
-29.76836120952006
 30
0.0
 10
-30.47953197897693
 20
-27.83321760233485
 30
0.0
 10
-31.20744505142058
 20
-25.81776898172364
 30
0.0
 10
-31.6796843144983
 20
-24.27562216888026
 30
0.0
 10
-31.82479294003834
 20
-23.75647076578936
 30
0.0
 10
-32.08994358507132
 20
-22.70777356138117
 30
0.0
 10
-32.21012293937345
 20
-22.17721798099276
 30
0.0
 10
-32.7415178785792
 20
-19.52689998578544
 30
0.0
 10
-32.95199925830655
 20
-17.39496416163474
 30
0.0
 10
-32.95396063707046
 20
-14.1799938480374
 30
0.0
 10
-32.90194322402947
 20
-13.1054719625902
 30
0.0
 10
-32.74243207706797
 20
-11.48925668098066
 30
0.0
 10
-32.67555902440493
 20
-10.94983852056597
 30
0.0
 10
-32.5161042250898
 20
-9.881676062624832
 30
0.0
 10
-32.42339478060151
 20
-9.351391250839393
 30
0.0
 10
-31.89601612906129
 20
-6.718633256810686
 30
0.0
 10
-31.27168112342663
 20
-4.671624465179212
 30
0.0
 10
-30.23674368168702
 20
-2.187275445866803
 30
0.0
 10
-30.01691556657261
 20
-1.694159721223189
 30
0.0
 10
-29.55106539272236
 20
-0.7155856619084473
 30
0.0
 10
-29.30568324510283
 20
-0.231634107666579
 30
0.0
 10
-28.53833869156876
 20
1.193286860718424
 30
0.0
 10
-27.98314205329189
 20
2.111897234249949
 30
0.0
 10
-26.18985673984732
 20
4.776031160448944
 30
0.0
 10
-24.82531664058623
 20
6.430750093747055
 30
0.0
 10
-21.74534700035616
 20
9.488290766127362
 30
0.0
 10
-20.07817659029071
 20
10.84264616977981
 30
0.0
 10
-17.40190283361283
 20
12.61798013522238
 30
0.0
 10
-16.47996209580861
 20
13.16711294887905
 30
0.0
 10
-14.5751720379264
 20
14.17837076682623
 30
0.0
 10
-13.58841570037173
 20
14.64157670002884
 30
0.0
 10
-10.59803667849668
 20
15.87025372222048
 30
0.0
 10
-8.547555285498722
 20
16.48707190293989
 30
0.0
 10
-5.387592813621838
 20
17.11281484606897
 30
0.0
 10
-4.318008084170922
 20
17.27133077311092
 30
0.0
 10
-2.158602590366579
 20
17.48319369335667
 30
0.0
 10
0.0009433449412034
 20
17.58833942212055
 30
0.0
 10
2.160766204373574
 20
17.48306182550448
 30
0.0
 10
4.320729615949338
 20
17.27098296418015
 30
0.0
 10
5.389313341274749
 20
17.11252473000005
 30
0.0
 10
8.548625244898854
 20
16.48675874528157
 30
0.0
 10
10.5992535814031
 20
15.86989543657074
 30
0.0
 10
13.59059733400767
 20
14.640609362761
 30
0.0
 10
14.57734116710278
 20
14.17729495652383
 30
0.0
 10
16.48141743891842
 20
13.16626437336039
 30
0.0
 10
17.40316573887679
 20
12.61719868019759
 30
0.0
 10
19.18723133984426
 20
11.43360756372637
 30
0.0
 10
20.04954724927392
 20
10.79908015350674
 30
0.0
 10
21.71417324050595
 20
9.443727897002825
 30
0.0
 10
22.51797177324805
 20
8.721432275737245
 30
0.0
 10
24.8264604258008
 20
6.429334312318668
 30
0.0
 10
26.19071959051667
 20
4.774943017563694
 30
0.0
 10
27.98409631611574
 20
2.110382592449553
 30
0.0
 10
28.53941094957468
 20
1.191476962997188
 30
0.0
 10
29.30700023743478
 20
-0.2341706421980118
 30
0.0
 10
29.55256174528926
 20
-0.7186109663388331
 30
0.0
 10
30.01805630896996
 20
-1.696674620576304
 30
0.0
 10
30.23774166824851
 20
-2.189572959171704
 30
0.0
 10
31.27210291625619
 20
-4.673030563567082
 30
0.0
 10
31.89641328659224
 20
-6.719946287013528
 30
0.0
 10
32.42378593434717
 20
-9.35351175262651
 30
0.0
 10
32.51649551286827
 20
-9.884004641545904
 30
0.0
 10
32.67593961401345
 20
-10.95268204559574
 30
0.0
 10
32.7427849746475
 20
-11.49235484936342
 30
0.0
 10
32.902072298929
 20
-13.10773854451665
 30
0.0
 10
32.95401480412637
 20
-14.18188468157551
 30
0.0
 10
32.95188770848442
 20
-17.3962393354542
 30
0.0
 10
32.74137969741332
 20
-19.52844223865885
 30
0.0
 10
32.20953503547625
 20
-22.17993624190276
 30
0.0
 10
32.08930355907952
 20
-22.71047508339473
 30
0.0
 10
31.8241944428194
 20
-23.75866692949669
 30
0.0
 10
31.67910816091064
 20
-24.27761052314509
 30
0.0
 10
31.20692339894232
 20
-25.81925900032069
 30
0.0
 10
30.4790481925743
 20
-27.83437552952586
 30
0.0
 10
29.55729130972755
 20
-29.76977056348851
 30
0.0
 10
28.79216797144203
 20
-31.19096626879947
 30
0.0
 10
28.52480401238302
 20
-31.6596307323363
 30
0.0
 10
27.96496914608583
 20
-32.58663460490767
 30
0.0
 10
27.67243412242565
 20
-33.04488578825019
 30
0.0
 10
26.16338401966377
 20
-35.28469546758861
 30
0.0
 10
24.79681624145339
 20
-36.93444418930027
 30
0.0
 10
22.51383319804883
 20
-39.20112603172322
 30
0.0
 10
21.71370514761253
 20
-39.921781400573
 30
0.0
 10
20.4529595885965
 20
-40.94875134070777
 30
0.0
 10
20.02368337796034
 20
-41.28107982266648
 30
0.0
 10
19.15416365650729
 20
-41.92071377562043
 30
0.0
 10
18.71293227339125
 20
-42.22883481240596
 30
0.0
 10
16.47493411304886
 20
-43.71189280254793
 30
0.0
 10
14.58354962498439
 20
-44.715825526064
 30
0.0
 10
11.59379647111998
 20
-45.9457775608964
 30
0.0
 10
10.56647359420245
 20
-46.31059961011587
 30
0.0
 10
8.50060854918076
 20
-46.93186656809966
 30
0.0
 10
7.458777891843976
 20
-47.19021332814525
 30
0.0
 10
4.307189498819008
 20
-47.81190586997577
 30
0.0
 10
2.171591901391492
 20
-48.02340532769814
 30
0.0
 10
-0.0000000000000389
 20
-48.02340532769814
 30
0.0
  0
SPLINE
  5
C8
330
1F
100
AcDbEntity
  8
0
  6
Continuous
 62
     7
370
    25
100
AcDbSpline
210
0.0
220
0.0
230
1.0
 70
    11
 71
     3
 72
   121
 73
   117
 74
     0
 42
0.000000001
 43
0.00000001
 40
0.0
 40
0.0
 40
0.0
 40
0.0
 40
0.0312500000000002
 40
0.0312500000000002
 40
0.0468750000000003
 40
0.0468750000000003
 40
0.0625000000000004
 40
0.0625000000000004
 40
0.0937500000000006
 40
0.0937500000000006
 40
0.1093750000000006
 40
0.1093750000000006
 40
0.1250000000000006
 40
0.1250000000000006
 40
0.1562500000000007
 40
0.1562500000000007
 40
0.1718750000000008
 40
0.1718750000000008
 40
0.1875000000000009
 40
0.1875000000000009
 40
0.2031250000000009
 40
0.2031250000000009
 40
0.2109375000000009
 40
0.2109375000000009
 40
0.218750000000001
 40
0.218750000000001
 40
0.250000000000001
 40
0.250000000000001
 40
0.265625000000001
 40
0.265625000000001
 40
0.273437500000001
 40
0.273437500000001
 40
0.281250000000001
 40
0.281250000000001
 40
0.312500000000001
 40
0.312500000000001
 40
0.3203125000000011
 40
0.3203125000000011
 40
0.3281250000000011
 40
0.3281250000000011
 40
0.3437500000000011
 40
0.3437500000000011
 40
0.3750000000000011
 40
0.3750000000000011
 40
0.3906250000000011
 40
0.3906250000000011
 40
0.4062500000000011
 40
0.4062500000000011
 40
0.4218750000000011
 40
0.4218750000000011
 40
0.4375000000000011
 40
0.4375000000000011
 40
0.4687500000000011
 40
0.4687500000000011
 40
0.4843750000000011
 40
0.4843750000000011
 40
0.500000000000001
 40
0.500000000000001
 40
0.531250000000001
 40
0.531250000000001
 40
0.546875000000001
 40
0.546875000000001
 40
0.562500000000001
 40
0.562500000000001
 40
0.578125000000001
 40
0.578125000000001
 40
0.585937500000001
 40
0.585937500000001
 40
0.5937500000000009
 40
0.5937500000000009
 40
0.6250000000000008
 40
0.6250000000000008
 40
0.6406250000000009
 40
0.6406250000000009
 40
0.6484375000000008
 40
0.6484375000000008
 40
0.6562500000000008
 40
0.6562500000000008
 40
0.6875000000000007
 40
0.6875000000000007
 40
0.6953125000000006
 40
0.6953125000000006
 40
0.7031250000000006
 40
0.7031250000000006
 40
0.7187500000000006
 40
0.7187500000000006
 40
0.7500000000000006
 40
0.7500000000000006
 40
0.7578125000000006
 40
0.7578125000000006
 40
0.7656250000000004
 40
0.7656250000000004
 40
0.7812500000000003
 40
0.7968750000000002
 40
0.7968750000000002
 40
0.8046875000000002
 40
0.8046875000000002
 40
0.8125000000000001
 40
0.8125000000000001
 40
0.84375
 40
0.84375
 40
0.859375
 40
0.859375
 40
0.875
 40
0.875
 40
0.9062500000000001
 40
0.9062500000000001
 40
0.9218750000000001
 40
0.9218750000000001
 40
0.9375000000000001
 40
0.9375000000000001
 40
0.9531250000000001
 40
0.9531250000000001
 40
0.9687500000000001
 40
0.9687500000000001
 40
1.0
 40
1.0
 40
1.0
 40
1.0
 10
0.039114215126224
 20
-41.99451393949379
 30
0.0
 10
-1.695532305430784
 20
-41.99705797272645
 30
0.0
 10
-3.401876652549853
 20
-41.83197715802056
 30
0.0
 10
-5.920629789777826
 20
-41.34292727086801
 30
0.0
 10
-6.753370135480008
 20
-41.139375590469
 30
0.0
 10
-8.404846087729892
 20
-40.64932657617419
 30
0.0
 10
-9.226702824382972
 20
-40.36117461713872
 30
0.0
 10
-11.61980966986523
 20
-39.3884748747052
 30
0.0
 10
-13.13413422330908
 20
-38.59366305994223
 30
0.0
 10
-15.28492777660905
 20
-37.18360007414335
 30
0.0
 10
-15.98211035095973
 20
-36.67661040505917
 30
0.0
 10
-17.33226222088611
 20
-35.58821599157376
 30
0.0
 10
-17.9748418225083
 20
-35.01526610701643
 30
0.0
 10
-19.80817482015898
 20
-33.21288642150287
 30
0.0
 10
-20.90541242976581
 20
-31.90071407696952
 30
0.0
 10
-22.35950072536599
 20
-29.76277958850207
 30
0.0
 10
-22.81289793555745
 20
-29.01905762905084
 30
0.0
 10
-23.63464080336598
 20
-27.5066183848488
 30
0.0
 10
-24.00573858373317
 20
-26.73434362239146
 30
0.0
 10
-24.66976416522295
 20
-25.15823979263387
 30
0.0
 10
-24.96269087251808
 20
-24.35441028379629
 30
0.0
 10
-25.3427787700841
 20
-23.12472794918422
 30
0.0
 10
-25.4595734919277
 20
-22.71083707476054
 30
0.0
 10
-25.67302723448737
 20
-21.87492729443941
 30
0.0
 10
-25.76991157930489
 20
-21.45173002330966
 30
0.0
 10
-26.19969610714077
 20
-19.3307289809865
 30
0.0
 10
-26.36982009906484
 20
-17.62619102795316
 30
0.0
 10
-26.3731744620456
 20
-15.05816699666484
 30
0.0
 10
-26.33201182908341
 20
-14.2002757139543
 30
0.0
 10
-26.20512410517729
 20
-12.91053715135899
 30
0.0
 10
-26.15176004548391
 20
-12.4791421456449
 30
0.0
 10
-26.0242321894056
 20
-11.62428373795043
 30
0.0
 10
-25.95003825342967
 20
-11.19999538829904
 30
0.0
 10
-25.52788392778174
 20
-9.09396719585124
 30
0.0
 10
-25.02783999040019
 20
-7.458025232772269
 30
0.0
 10
-24.20015414476894
 20
-5.474117309436688
 30
0.0
 10
-24.02439359295063
 20
-5.080414356599822
 30
0.0
 10
-23.65205414891764
 20
-4.299277609317974
 30
0.0
 10
-23.4554785824465
 20
-3.912031115944322
 30
0.0
 10
-22.84112310804557
 20
-2.772586589598247
 30
0.0
 10
-22.39675099760137
 20
-2.038221369415099
 30
0.0
 10
-20.96202441978939
 20
0.091110036165449
 30
0.0
 10
-19.87104499606857
 20
1.413027240836563
 30
0.0
 10
-18.02604513440087
 20
3.244519558669066
 30
0.0
 10
-17.38376161194475
 20
3.821704936395491
 30
0.0
 10
-16.05366803289052
 20
4.905034596043564
 30
0.0
 10
-15.36470065583675
 20
5.412321529407889
 30
0.0
 10
-13.93937779298928
 20
6.3587907355021
 30
0.0
 10
-13.20302335721672
 20
6.797974517288456
 30
0.0
 10
-11.68200868142246
 20
7.60691853785542
 30
0.0
 10
-10.89394831076085
 20
7.977697371165664
 30
0.0
 10
-8.50514639389604
 20
8.96189092435526
 30
0.0
 10
-6.867490331984691
 20
9.45652488881736
 30
0.0
 10
-4.3442617608892
 20
9.959589361547687
 30
0.0
 10
-3.490563230754776
 20
10.08732274805953
 30
0.0
 10
-1.765866946574977
 20
10.25906970239443
 30
0.0
 10
-0.9062645048062096
 20
10.30209164884151
 30
0.0
 10
1.664579236176595
 20
10.306871609036
 30
0.0
 10
3.36793086130651
 20
10.14549724420999
 30
0.0
 10
5.906844965011569
 20
9.651958497816736
 30
0.0
 10
6.752330179499275
 20
9.444176313507839
 30
0.0
 10
8.401362800916814
 20
8.952450057558634
 30
0.0
 10
9.209439567283939
 20
8.667862204870271
 30
0.0
 10
10.79328646916183
 20
8.022585522462602
 30
0.0
 10
11.56905614177348
 20
7.661895602345676
 30
0.0
 10
12.70821165775945
 20
7.063151290733358
 30
0.0
 10
13.08383982135944
 20
6.853934710721409
 30
0.0
 10
13.82678044293398
 20
6.415913209046818
 30
0.0
 10
14.19500434677752
 20
6.186498115176679
 30
0.0
 10
16.00333344428704
 20
4.996946590640419
 30
0.0
 10
17.33482548558787
 20
3.919173234702254
 30
0.0
 10
19.16476777696257
 20
2.119295814738851
 30
0.0
 10
19.74666307612405
 20
1.48857830352644
 30
0.0
 10
20.57620652272469
 20
0.4950817010197956
 30
0.0
 10
20.84621064377939
 20
0.1550176821030233
 30
0.0
 10
21.36732906625094
 20
-0.5358505819696003
 30
0.0
 10
21.61834114927688
 20
-0.8863929552262337
 30
0.0
 10
22.82653199027775
 20
-2.664182633945208
 30
0.0
 10
23.64444539533344
 20
-4.165944599807201
 30
0.0
 10
24.48104454028536
 20
-6.142556372162872
 30
0.0
 10
24.63899078420238
 20
-6.542894112685385
 30
0.0
 10
24.93579010618408
 20
-7.353785492657273
 30
0.0
 10
25.07496652605166
 20
-7.765480723906042
 30
0.0
 10
25.45955251334253
 20
-9.004240536145122
 30
0.0
 10
25.67299059354479
 20
-9.83663694100403
 30
0.0
 10
26.18801747579428
 20
-12.35295074288652
 30
0.0
 10
26.36553329234671
 20
-14.05580735831565
 30
0.0
 10
26.37349483364017
 20
-16.21703413357781
 30
0.0
 10
26.36420262620136
 20
-16.65160545224604
 30
0.0
 10
26.32412894973315
 20
-17.5144624984408
 30
0.0
 10
26.29338761574402
 20
-17.94385948552315
 30
0.0
 10
26.16959957827566
 20
-19.22606011557042
 30
0.0
 10
25.92052716961354
 20
-20.91971502998452
 30
0.0
 10
25.50549271945118
 20
-22.58187309745223
 30
0.0
 10
25.13094395634461
 20
-23.8164834946714
 30
0.0
 10
24.99553002450925
 20
-24.22601535618618
 30
0.0
 10
24.70316048095443
 20
-25.0409908251298
 30
0.0
 10
24.54639916795913
 20
-25.44569189500695
 30
0.0
 10
23.71759409337855
 20
-27.43666245053447
 30
0.0
 10
22.90588813471787
 20
-28.94337769446889
 30
0.0
 10
21.47033170559878
 20
-31.07725059981259
 30
0.0
 10
20.95522013704575
 20
-31.76735781656106
 30
0.0
 10
19.84940991988888
 20
-33.10381446884813
 30
0.0
 10
19.26749627401157
 20
-33.73949199088575
 30
0.0
 10
17.44011584674908
 20
-35.55002196039237
 30
0.0
 10
16.11282012037566
 20
-36.6304058704537
 30
0.0
 10
13.95663682423583
 20
-38.05908057616379
 30
0.0
 10
13.20803595333053
 20
-38.5036942853465
 30
0.0
 10
11.6870856357733
 20
-39.30917234771651
 30
0.0
 10
10.91110096372873
 20
-39.67272738417568
 30
0.0
 10
9.328747269239502
 20
-40.32307294453906
 30
0.0
 10
8.522377361139123
 20
-40.60986123087925
 30
0.0
 10
6.87900751638912
 20
-41.10605259768333
 30
0.0
 10
6.039419342487843
 20
-41.31595423093093
 30
0.0
 10
3.49069601065072
 20
-41.82184323988294
 30
0.0
 10
1.773760735683213
 20
-41.99196990626112
 30
0.0
 10
0.0391142151262238
 20
-41.99451393949379
 30
0.0
  0
SPLINE
  5
C9
330
1F
100
AcDbEntity
  8
0
  6
Continuous
 62
     7
370
    25
100
AcDbSpline
210
0.0
220
0.0
230
1.0
 70
    11
 71
     3
 72
   104
 73
   100
 74
     0
 42
0.000000001
 43
0.00000001
 40
0.0
 40
0.0
 40
0.0
 40
0.0
 40
0.03125
 40
0.03125
 40
0.046875
 40
0.046875
 40
0.0625
 40
0.0625
 40
0.09375
 40
0.09375
 40
0.109375
 40
0.109375
 40
0.125
 40
0.125
 40
0.15625
 40
0.15625
 40
0.171875
 40
0.171875
 40
0.1875
 40
0.1875
 40
0.203125
 40
0.203125
 40
0.21875
 40
0.21875
 40
0.25
 40
0.25
 40
0.265625
 40
0.265625
 40
0.28125
 40
0.28125
 40
0.3125
 40
0.3125
 40
0.328125
 40
0.328125
 40
0.34375
 40
0.34375
 40
0.375
 40
0.375
 40
0.40625
 40
0.40625
 40
0.421875
 40
0.421875
 40
0.4375
 40
0.4375
 40
0.46875
 40
0.46875
 40
0.484375
 40
0.484375
 40
0.5
 40
0.5
 40
0.53125
 40
0.53125
 40
0.546875
 40
0.546875
 40
0.5625
 40
0.5625
 40
0.578125
 40
0.578125
 40
0.59375
 40
0.59375
 40
0.625
 40
0.625
 40
0.640625
 40
0.640625
 40
0.65625
 40
0.65625
 40
0.6875
 40
0.6875
 40
0.703125
 40
0.703125
 40
0.71875
 40
0.71875
 40
0.75
 40
0.75
 40
0.765625
 40
0.765625
 40
0.78125
 40
0.78125
 40
0.796875
 40
0.796875
 40
0.8125
 40
0.8125
 40
0.84375
 40
0.84375
 40
0.859375
 40
0.859375
 40
0.875
 40
0.875
 40
0.90625
 40
0.90625
 40
0.921875
 40
0.921875
 40
0.9375
 40
0.9375
 40
0.953125
 40
0.953125
 40
0.96875
 40
0.96875
 40
1.0
 40
1.0
 40
1.0
 40
1.0
 10
0.0361190645950955
 20
-39.95227353923562
 30
0.0
 10
-1.566994517285588
 20
-39.9546246659855
 30
0.0
 10
-3.14059146460689
 20
-39.80232711993273
 30
0.0
 10
-5.467383304007877
 20
-39.35054895539186
 30
0.0
 10
-6.236202859656145
 20
-39.16257997892782
 30
0.0
 10
-7.760083387612058
 20
-38.7103926229342
 30
0.0
 10
-8.519264223855503
 20
-38.44422365944857
 30
0.0
 10
-10.72770914474937
 20
-37.54658193990713
 30
0.0
 10
-12.12484133706821
 20
-36.81334961309142
 30
0.0
 10
-14.1100017351448
 20
-35.5118757266336
 30
0.0
 10
-14.75273452851361
 20
-35.0444619068182
 30
0.0
 10
-15.99821719838782
 20
-34.04044422899079
 30
0.0
 10
-16.59042482788086
 20
-33.51241945833526
 30
0.0
 10
-18.28179712238291
 20
-31.84960386931509
 30
0.0
 10
-19.2928630147459
 20
-30.6402532972241
 30
0.0
 10
-20.63275998624152
 20
-28.67021251503178
 30
0.0
 10
-21.05087125589767
 20
-27.9843408890044
 30
0.0
 10
-21.80770476346187
 20
-26.59136951210267
 30
0.0
 10
-22.14976005409781
 20
-25.87959158702063
 30
0.0
 10
-22.76168088529476
 20
-24.42716145016526
 30
0.0
 10
-23.03145357204776
 20
-23.68685536633054
 30
0.0
 10
-23.49838791609844
 20
-22.17620230454597
 30
0.0
 10
-23.69591280987383
 20
-21.40361594290629
 30
0.0
 10
-24.17108849321024
 20
-19.05860972051901
 30
0.0
 10
-24.32775439487887
 20
-17.48951010210698
 30
0.0
 10
-24.33084603254077
 20
-15.12250608516383
 30
0.0
 10
-24.29290791440142
 20
-14.3323963715625
 30
0.0
 10
-24.13707168001782
 20
-12.74841483330524
 30
0.0
 10
-24.01885926584484
 20
-11.95673427384928
 30
0.0
 10
-23.55187371173327
 20
-9.627052719071388
 30
0.0
 10
-23.09148275238577
 20
-8.120755871673792
 30
0.0
 10
-22.17561041965695
 20
-5.925471290816593
 30
0.0
 10
-21.83060331143422
 20
-5.201604497499726
 30
0.0
 10
-21.07557767442452
 20
-3.801258884059544
 30
0.0
 10
-20.66604627353011
 20
-3.124412724549039
 30
0.0
 10
-19.34245931826643
 20
-1.160027523115491
 30
0.0
 10
-18.33721198406851
 20
0.0580167995073493
 30
0.0
 10
-16.06734164974459
 20
2.311268612030283
 30
0.0
 10
-14.83765307089022
 20
3.310804508970637
 30
0.0
 10
-12.86462992772001
 20
4.620967769591146
 30
0.0
 10
-12.18497727566178
 20
5.026304569876285
 30
0.0
 10
-10.78212404922081
 20
5.772404758566783
 30
0.0
 10
-10.05440826942046
 20
6.114806441521454
 30
0.0
 10
-7.850321928529937
 20
7.022897150755289
 30
0.0
 10
-6.339159101942068
 20
7.479423832875654
 30
0.0
 10
-4.009462663648445
 20
7.943902943794276
 30
0.0
 10
-3.221846544105988
 20
8.061738360403597
 30
0.0
 10
-1.629848377948107
 20
8.22027115205963
 30
0.0
 10
-0.8368836861686514
 20
8.25997447422025
 30
0.0
 10
1.537208981376867
 20
8.264388758442625
 30
0.0
 10
3.10889088375374
 20
8.115381985025996
 30
0.0
 10
5.451820360840064
 20
7.659940143758622
 30
0.0
 10
6.232656125661916
 20
7.468033117877254
 30
0.0
 10
7.75386731414522
 20
7.014422260888564
 30
0.0
 10
8.499847666593851
 20
6.751729363247034
 30
0.0
 10
9.961803099218951
 20
6.156112608295407
 30
0.0
 10
10.67746066480149
 20
5.823366450678252
 30
0.0
 10
12.07920771734246
 20
5.086603038376739
 30
0.0
 10
12.76679733518631
 20
4.681505965875012
 30
0.0
 10
14.76933908453984
 20
3.364198225830241
 30
0.0
 10
15.99685431401304
 20
2.37062247762701
 30
0.0
 10
17.68564312688744
 20
0.709579259414879
 30
0.0
 10
18.22212668258283
 20
0.1280402344171893
 30
0.0
 10
19.24199961948333
 20
-1.093403275979763
 30
0.0
 10
19.72507793524486
 20
-1.733886976359275
 30
0.0
 10
21.06249278908481
 20
-3.701822704993215
 30
0.0
 10
21.81584081711953
 20
-5.085095615889416
 30
0.0
 10
22.74158315915581
 20
-7.272324258181385
 30
0.0
 10
23.01652161917564
 20
-8.023019161641658
 30
0.0
 10
23.48898451506171
 20
-9.54483192537234
 30
0.0
 10
23.68563106317714
 20
-10.31163838722244
 30
0.0
 10
24.16044270872773
 20
-12.6314681860951
 30
0.0
 10
24.32380594853815
 20
-14.19937144816968
 30
0.0
 10
24.33260770427287
 20
-16.5887822070337
 30
0.0
 10
24.29536589949281
 20
-17.3874641029934
 30
0.0
 10
24.1433017346918
 20
-18.96255006328782
 30
0.0
 10
24.02862246650603
 20
-19.74237186952972
 30
0.0
 10
23.72267171186641
 20
-21.28837836014915
 30
0.0
 10
23.5315684270555
 20
-22.05371396387699
 30
0.0
 10
23.07143974903315
 20
-23.57041799173377
 30
0.0
 10
22.80072953676605
 20
-24.32515831905825
 30
0.0
 10
21.88424206347333
 20
-26.52676195599422
 30
0.0
 10
21.13687930394196
 20
-27.91420794931427
 30
0.0
 10
19.81311849622495
 20
-29.88190276360725
 30
0.0
 10
19.33864300448365
 20
-30.51755481350428
 30
0.0
 10
18.31906510132471
 20
-31.74979306787675
 30
0.0
 10
17.78292375579448
 20
-32.33549306385105
 30
0.0
 10
16.09712295061483
 20
-34.00574915871611
 30
0.0
 10
14.87326256096821
 20
-35.00186342684308
 30
0.0
 10
12.88437349423758
 20
-36.31968935912071
 30
0.0
 10
12.19320963399508
 20
-36.73018204873135
 30
0.0
 10
10.79033273627274
 20
-37.47313001574455
 30
0.0
 10
10.07398736228642
 20
-37.80877672571885
 30
0.0
 10
8.613168087243825
 20
-38.40917177771838
 30
0.0
 10
7.86889823335992
 20
-38.67386676751274
 30
0.0
 10
6.35187784023156
 20
-39.13190868171337
 30
0.0
 10
5.576846859294956
 20
-39.32568558071715
 30
0.0
 10
3.223033458243861
 20
-39.79288774694852
 30
0.0
 10
1.639232646475779
 20
-39.94992241248574
 30
0.0
 10
0.0361190645950955
 20
-39.95227353923562
 30
0.0
  0
SPLINE
  5
CA
330
1F
100
AcDbEntity
  8
0
  6
Continuous
 62
     7
370
    25
100
AcDbSpline
210
0.0
220
0.0
230
1.0
 70
    11
 71
     3
 72
   118
 73
   114
 74
     0
 42
0.000000001
 43
0.00000001
 40
0.0
 40
0.0
 40
0.0
 40
0.0
 40
0.0156250000000002
 40
0.0156250000000002
 40
0.0312500000000004
 40
0.0312500000000004
 40
0.0625000000000007
 40
0.0625000000000007
 40
0.0781250000000009
 40
0.0781250000000009
 40
0.093750000000001
 40
0.093750000000001
 40
0.1093750000000012
 40
0.1093750000000012
 40
0.1250000000000013
 40
0.1250000000000013
 40
0.1562500000000016
 40
0.1562500000000016
 40
0.1718750000000017
 40
0.1718750000000017
 40
0.1875000000000019
 40
0.1875000000000019
 40
0.2187500000000021
 40
0.2187500000000021
 40
0.2343750000000022
 40
0.2343750000000022
 40
0.2500000000000024
 40
0.2500000000000024
 40
0.2656250000000025
 40
0.2656250000000025
 40
0.2734375000000026
 40
0.2734375000000026
 40
0.2812500000000026
 40
0.2812500000000026
 40
0.3125000000000026
 40
0.3125000000000026
 40
0.3281250000000026
 40
0.3281250000000026
 40
0.3359375000000026
 40
0.3359375000000026
 40
0.3437500000000026
 40
0.3437500000000026
 40
0.3750000000000025
 40
0.3750000000000025
 40
0.3906250000000025
 40
0.3906250000000025
 40
0.4062500000000024
 40
0.4062500000000024
 40
0.4375000000000023
 40
0.4375000000000023
 40
0.4687500000000022
 40
0.4687500000000022
 40
0.4843750000000022
 40
0.4843750000000022
 40
0.5000000000000021
 40
0.5000000000000021
 40
0.5156250000000021
 40
0.5156250000000021
 40
0.531250000000002
 40
0.531250000000002
 40
0.562500000000002
 40
0.562500000000002
 40
0.5781250000000019
 40
0.5781250000000019
 40
0.5859375000000019
 40
0.5859375000000019
 40
0.5937500000000019
 40
0.5937500000000019
 40
0.6250000000000018
 40
0.6250000000000018
 40
0.6328125000000018
 40
0.6328125000000018
 40
0.6406250000000018
 40
0.6406250000000018
 40
0.6562500000000018
 40
0.6562500000000018
 40
0.6875000000000016
 40
0.6875000000000016
 40
0.7031250000000014
 40
0.7031250000000014
 40
0.7187500000000012
 40
0.7187500000000012
 40
0.7343750000000011
 40
0.7343750000000011
 40
0.7500000000000009
 40
0.7500000000000009
 40
0.7812500000000008
 40
0.7812500000000008
 40
0.7968750000000007
 40
0.7968750000000007
 40
0.8125000000000007
 40
0.8125000000000007
 40
0.8437500000000004
 40
0.8437500000000004
 40
0.8515625000000004
 40
0.8515625000000004
 40
0.8593750000000004
 40
0.8593750000000004
 40
0.8750000000000004
 40
0.8750000000000004
 40
0.8906250000000003
 40
0.8906250000000003
 40
0.8984375000000003
 40
0.8984375000000003
 40
0.9062500000000003
 40
0.9062500000000003
 40
0.9375000000000002
 40
0.9375000000000002
 40
0.9531250000000002
 40
0.9531250000000002
 40
0.9687500000000002
 40
0.9687500000000002
 40
1.0
 40
1.0
 40
1.0
 40
1.0
 10
-0.0445475404251249
 20
7.738708756656186
 30
0.0
 10
0.7377571902264548
 20
7.740162369267711
 30
0.0
 10
1.522084886042579
 20
7.703302878398572
 30
0.0
 10
3.070832727470579
 20
7.554159758457106
 30
0.0
 10
3.836638458988941
 20
7.442164437081102
 30
0.0
 10
6.109295131842919
 20
6.998030550999017
 30
0.0
 10
7.591399818994325
 20
6.557806381374534
 30
0.0
 10
9.763032751253578
 20
5.672425426866348
 30
0.0
 10
10.46929192756598
 20
5.343005326775979
 30
0.0
 10
11.83860114431553
 20
4.621729119172117
 30
0.0
 10
12.5031671681501
 20
4.229262218658186
 30
0.0
 10
13.79240062928266
 20
3.381112216537298
 30
0.0
 10
14.41724487214058
 20
2.925709249561785
 30
0.0
 10
15.62582022203646
 20
1.94976275582713
 30
0.0
 10
16.21204173319539
 20
1.426383404880495
 30
0.0
 10
17.87401573217576
 20
-0.2101882283017836
 30
0.0
 10
18.86241332585421
 20
-1.395779393931992
 30
0.0
 10
20.16760741216084
 20
-3.31441959115073
 30
0.0
 10
20.57321776375886
 20
-3.97741677030023
 30
0.0
 10
21.32176318236608
 20
-5.35230358937954
 30
0.0
 10
21.65840430293277
 20
-6.052602690580287
 30
0.0
 10
22.56100152173004
 20
-8.190164717800535
 30
0.0
 10
23.01942599609925
 20
-9.664162563779044
 30
0.0
 10
23.48747753480383
 20
-11.95017395132291
 30
0.0
 10
23.60676387568271
 20
-12.72698940677112
 30
0.0
 10
23.76492235190662
 20
-14.27186736902385
 30
0.0
 10
23.80487415872765
 20
-15.04389224641686
 30
0.0
 10
23.80914163457117
 20
-16.587141508914
 30
0.0
 10
23.77315337092347
 20
-17.35836267735782
 30
0.0
 10
23.66130772073764
 20
-18.51458203639054
 30
0.0
 10
23.61438973064835
 20
-18.89988650601983
 30
0.0
 10
23.50085979459732
 20
-19.67028701501912
 30
0.0
 10
23.43401239901355
 20
-20.0564751135331
 30
0.0
 10
23.05297005314695
 20
-21.97079523829376
 30
0.0
 10
22.60064898416298
 20
-23.44862169574014
 30
0.0
 10
21.70833434056908
 20
-25.58760690514044
 30
0.0
 10
21.37529252534875
 20
-26.28765570928785
 30
0.0
 10
20.81992996267872
 20
-27.31743884551734
 30
0.0
 10
20.62513326423181
 20
-27.65784375428673
 30
0.0
 10
20.22120628718199
 20
-28.32448132942298
 30
0.0
 10
20.01164591019241
 20
-28.65159527035541
 30
0.0
 10
18.92698373399138
 20
-30.25705890524437
 30
0.0
 10
17.94109986491973
 20
-31.44492606063644
 30
0.0
 10
16.28542998005538
 20
-33.08228734226491
 30
0.0
 10
15.70061310083587
 20
-33.60657707722561
 30
0.0
 10
14.49131074920796
 20
-34.58665049123354
 30
0.0
 10
13.86634590467268
 20
-35.04365377312142
 30
0.0
 10
11.93293565342883
 20
-36.31950726848576
 30
0.0
 10
10.56606203191825
 20
-37.04334342591912
 30
0.0
 10
7.671261485280219
 20
-38.22911611459271
 30
0.0
 10
6.186600465149645
 20
-38.67291757542446
 30
0.0
 10
3.914999068996492
 20
-39.12199656877255
 30
0.0
 10
3.149884293848808
 20
-39.23583773754662
 30
0.0
 10
1.603224657643016
 20
-39.38909177392089
 30
0.0
 10
0.819302748361966
 20
-39.42827828688467
 30
0.0
 10
-0.741858684534708
 20
-39.4307834685201
 30
0.0
 10
-1.521415301076773
 20
-39.39458478821426
 30
0.0
 10
-3.078426733324429
 20
-39.24532469913723
 30
0.0
 10
-3.84904702140259
 20
-39.13275786875091
 30
0.0
 10
-6.1228117958321
 20
-38.68979910176019
 30
0.0
 10
-7.594695517388257
 20
-38.25299927832675
 30
0.0
 10
-9.736839314448869
 20
-37.38638710007636
 30
0.0
 10
-10.43993259779523
 20
-37.06225623147013
 30
0.0
 10
-11.4772140659446
 20
-36.5201876077932
 30
0.0
 10
-11.82006018767046
 20
-36.3300967199247
 30
0.0
 10
-12.49167249209076
 20
-35.93585611047615
 30
0.0
 10
-12.82150750979348
 20
-35.73117044215915
 30
0.0
 10
-14.44159952705907
 20
-34.67089416018486
 30
0.0
 10
-15.64459457836126
 20
-33.70474359086366
 30
0.0
 10
-17.03050271966754
 20
-32.34775884134601
 30
0.0
 10
-17.30179732124332
 20
-32.06890309156101
 30
0.0
 10
-17.83223335422622
 20
-31.49579365529814
 30
0.0
 10
-18.0911409298515
 20
-31.20168126424206
 30
0.0
 10
-18.84073538629051
 20
-30.30611856878607
 30
0.0
 10
-19.30734121234859
 20
-29.68823596984754
 30
0.0
 10
-20.61149277105736
 20
-27.77439719897786
 30
0.0
 10
-21.35336534835234
 20
-26.4182455003235
 30
0.0
 10
-22.26660023479687
 20
-24.25845022363631
 30
0.0
 10
-22.53384837145262
 20
-23.5255432270609
 30
0.0
 10
-22.9915961334012
 20
-22.04670996858034
 30
0.0
 10
-23.18292402214255
 20
-21.29883680142414
 30
0.0
 10
-23.49110060880463
 20
-19.78631541167533
 30
0.0
 10
-23.60826280301905
 20
-19.02173779830458
 30
0.0
 10
-23.76588419739523
 20
-17.47530664572129
 30
0.0
 10
-23.80599000870937
 20
-16.69016938909912
 30
0.0
 10
-23.80924502286867
 20
-14.3585077529889
 30
0.0
 10
-23.65774888481744
 20
-12.82203834709937
 30
0.0
 10
-23.20322068148636
 20
-10.5439157360052
 30
0.0
 10
-23.01310154866203
 20
-9.786466622175864
 30
0.0
 10
-22.55645185972149
 20
-8.291995496160956
 30
0.0
 10
-22.29239757112738
 20
-7.562138001260558
 30
0.0
 10
-21.39842819136934
 20
-5.42208211489965
 30
0.0
 10
-20.66648638387766
 20
-4.061507423683012
 30
0.0
 10
-19.57817524091318
 20
-2.445119421125804
 30
0.0
 10
-19.35125080176732
 20
-2.125281395169661
 30
0.0
 10
-18.88421113359557
 20
-1.500482204619701
 30
0.0
 10
-18.64380615259806
 20
-1.195002933749364
 30
0.0
 10
-17.90223852677946
 20
-0.2990217895972816
 30
0.0
 10
-17.3807152211779
 20
0.2710153965103479
 30
0.0
 10
-16.28521169692738
 20
1.358364843576694
 30
0.0
 10
-15.71113542603791
 20
1.875580561546178
 30
0.0
 10
-14.80959195919809
 20
2.610768518423446
 30
0.0
 10
-14.50233615709701
 20
2.849055414941692
 30
0.0
 10
-13.87414421877813
 20
3.311878978496261
 30
0.0
 10
-13.55286457791284
 20
3.536575053269638
 30
0.0
 10
-11.92989369567092
 20
4.61371850511585
 30
0.0
 10
-10.56535033107488
 20
5.337707530686105
 30
0.0
 10
-8.421938091227808
 20
6.222624251905079
 30
0.0
 10
-7.691362604452442
 20
6.484074515681138
 30
0.0
 10
-6.196558270199737
 20
6.936925656543771
 30
0.0
 10
-5.437908064920912
 20
7.126327650947699
 30
0.0
 10
-3.153759830604221
 20
7.580988246633651
 30
0.0
 10
-1.609156994495171
 20
7.735797641327422
 30
0.0
 10
-0.0445475404251249
 20
7.738708756656186
 30
0.0
  0
SPLINE
  5
CB
330
1F
100
AcDbEntity
  8
0
  6
Continuous
 62
     7
370
    25
100
AcDbSpline
210
0.0
220
0.0
230
1.0
 70
     8
 71
     3
 72
    11
 73
     7
 74
     0
 42
0.000000001
 43
0.00000001
 40
0.0
 40
0.0
 40
0.0
 40
0.0
 40
0.007034883103381
 40
0.007034883103381
 40
0.007034883103381
 40
0.014008926135144
 40
0.014008926135144
 40
0.014008926135144
 40
0.014008926135144
 10
17.92301277133797
 20
0.3353769469252
 30
0.0
 10
17.8432345962947
 20
0.3617397411431014
 30
0.0
 10
17.76346613989401
 20
0.3875971068256258
 30
0.0
 10
17.68370721872622
 20
0.4129569410424777
 30
0.0
 10
17.60463807988045
 20
0.4380974547735892
 30
0.0
 10
17.52557830856733
 20
0.4627490048240816
 30
0.0
 10
17.44652770032061
 20
0.486919057637176
 30
0.0
  0
SPLINE
  5
CC
330
1F
100
AcDbEntity
  8
0
  6
Continuous
 62
     7
370
    25
100
AcDbSpline
210
0.0
220
0.0
230
1.0
 70
     8
 71
     3
 72
    11
 73
     7
 74
     0
 42
0.000000001
 43
0.00000001
 40
0.0
 40
0.0
 40
0.0
 40
0.0
 40
0.0069740412576278
 40
0.0069740412576278
 40
0.0069740412576278
 40
0.0140089259786158
 40
0.0140089259786158
 40
0.0140089259786158
 40
0.0140089259786158
 10
-17.44664736567638
 20
0.4868830789930225
 30
0.0
 10
-17.52570621756763
 20
0.4627223661660692
 30
0.0
 10
-17.60477239770433
 20
0.4380840616145928
 30
0.0
 10
-17.68384614240525
 20
0.4129599672033713
 30
0.0
 10
-17.76360974823776
 20
0.3876166832714539
 30
0.0
 10
-17.84338105473909
 20
0.3617790968351812
 30
0.0
 10
-17.92316028712386
 20
0.3354385124682923
 30
0.0
  0
SPLINE
  5
CD
330
1F
100
AcDbEntity
  8
0
  6
Continuous
 62
     7
370
    25
100
AcDbSpline
210
0.0
220
0.0
230
1.0
 70
     8
 71
     3
 72
    34
 73
    30
 74
     0
 42
0.000000001
 43
0.00000001
 40
0.3706010799565882
 40
0.3706010799565882
 40
0.3706010799565882
 40
0.3706010799565882
 40
0.3757799290950006
 40
0.3757799290950006
 40
0.4070299290950006
 40
0.4070299290950006
 40
0.4226549290950006
 40
0.4226549290950006
 40
0.4382799290950006
 40
0.4382799290950006
 40
0.4539049290950006
 40
0.4539049290950006
 40
0.4695299290950006
 40
0.4695299290950006
 40
0.5007799290950006
 40
0.5007799290950006
 40
0.5164049290950006
 40
0.5164049290950006
 40
0.5320299290950006
 40
0.5320299290950006
 40
0.5632799290950006
 40
0.5632799290950006
 40
0.5789049290950006
 40
0.5789049290950006
 40
0.5945299290950006
 40
0.5945299290950006
 40
0.6257799290950006
 40
0.6257799290950006
 40
0.6301788491384124
 40
0.6301788491384124
 40
0.6301788491384124
 40
0.6301788491384124
 10
17.44652770122081
 20
0.486919058495044
 30
0.0
 10
17.2680986893798
 20
0.674150812384495
 30
0.0
 10
17.08679220838363
 20
0.858320290583913
 30
0.0
 10
15.79121216334493
 20
2.132614877866933
 30
0.0
 10
14.57967802048265
 20
3.113249575740842
 30
0.0
 10
12.60287309099243
 20
4.413627181524066
 30
0.0
 10
11.92417011700126
 20
4.813488593908441
 30
0.0
 10
10.5404251250033
 20
5.540790056489268
 30
0.0
 10
9.834006610061174
 20
5.869241344045954
 30
0.0
 10
8.390785529042894
 20
6.457225517681688
 30
0.0
 10
7.654349073591169
 20
6.71655324586568
 30
0.0
 10
6.152783923845577
 20
7.164305842565268
 30
0.0
 10
5.381884394542975
 20
7.353772963846851
 30
0.0
 10
3.069077330279739
 20
7.803359304711307
 30
0.0
 10
1.51763255580343
 20
7.950465279902546
 30
0.0
 10
-0.8262200627965903
 20
7.946107224848472
 30
0.0
 10
-1.608942396849091
 20
7.906913985932322
 30
0.0
 10
-3.180545935707362
 20
7.750412112647044
 30
0.0
 10
-3.958005095699164
 20
7.634098017706325
 30
0.0
 10
-6.25795609397457
 20
7.175549348066903
 30
0.0
 10
-7.749677563503399
 20
6.724879509674009
 30
0.0
 10
-9.92537340278301
 20
5.828485787055961
 30
0.0
 10
-10.64381459313613
 20
5.490445486787832
 30
0.0
 10
-12.02850655868172
 20
4.754004266251758
 30
0.0
 10
-12.6994444184054
 20
4.353869614763139
 30
0.0
 10
-14.64711352967512
 20
3.060542406600017
 30
0.0
 10
-15.86081802312566
 20
2.073999613362248
 30
0.0
 10
-17.13884543274151
 20
0.805329089702756
 30
0.0
 10
-17.29400704973587
 20
0.6469982385082387
 30
0.0
 10
-17.44664736696262
 20
0.4868830802192149
 30
0.0
  0
LWPOLYLINE
  5
CF
330
1F
100
AcDbEntity
  8
0
  6
Continuous
 62
     7
370
    25
100
AcDbPolyline
 90
       23
 70
   128
 43
0.0
 10
16.0
 20
77.4201305414
 10
15.9552607549
 20
77.5243410504
 10
15.5988465949
 20
77.7304341778
 10
14.8939799783
 20
77.9295956347
 10
13.8564064606
 20
78.1173764833
 10
12.5093037195
 20
78.2895820098
 10
10.8827638043
 20
78.4423654272
 10
9.013120929
 20
78.5723138064
 10
6.9421398259
 20
78.6765243154
 10
4.7160827906
 20
78.7526690636
 10
2.3846762588
 20
78.7990471031
 10
0.0
 20
78.8146224253
 10
-2.3846762588
 20
78.7990471031
 10
-4.7160827906
 20
78.7526690636
 10
-6.9421398259
 20
78.6765243154
 10
-9.013120929
 20
78.5723138064
 10
-10.8827638043
 20
78.4423654272
 10
-12.5093037195
 20
78.2895820098
 10
-13.8564064606
 20
78.1173764833
 10
-14.8939799783
 20
77.9295956347
 10
-15.5988465949
 20
77.7304341778
 10
-15.9552607549
 20
77.5243410504
 10
-16.0
 20
77.4201305414
  0
LWPOLYLINE
  5
D1
330
1F
100
AcDbEntity
  8
0
  6
Continuous
 62
     8
370
    25
100
AcDbPolyline
 90
       14
 70
   128
 43
0.0
 10
0.0
 20
72.2151713505
 10
2.245757932
 20
72.2309723662
 10
4.4333519132
 20
72.2779661753
 10
6.5061244086
 20
72.3549356628
 10
8.4103916993
 20
72.4598873594
 10
10.0968342628
 20
72.5901030713
 10
11.5217741225
 20
72.74221028
 10
12.6483060845
 20
72.9122694886
 10
13.4472535628
 20
73.095876253
 10
13.8979242374
 20
73.2882752545
 10
13.9886459744
 20
73.4844834598
 10
13.7170691286
 20
73.6794191797
 10
13.0902273976
 20
73.8680336814
 10
12.9114869834
 20
73.9070689026
  0
LWPOLYLINE
  5
D2
330
1F
100
AcDbEntity
  8
0
  6
Continuous
 62
     8
370
    25
100
AcDbPolyline
 90
       14
 70
   128
 43
0.0
 10
-13.0227534687
 20
73.8832329939
 10
-13.0902273976
 20
73.8680336814
 10
-13.7170691286
 20
73.6794191797
 10
-13.9886459744
 20
73.4844834598
 10
-13.8979242374
 20
73.2882752545
 10
-13.4472535628
 20
73.095876253
 10
-12.6483060845
 20
72.9122694886
 10
-11.5217741225
 20
72.74221028
 10
-10.0968342628
 20
72.5901030713
 10
-8.4103916993
 20
72.4598873594
 10
-6.5061244086
 20
72.3549356628
 10
-4.4333519132
 20
72.2779661753
 10
-2.245757932
 20
72.2309723662
 10
0.0
 20
72.2151713505
  0
LWPOLYLINE
  5
D3
330
1F
100
AcDbEntity
  8
0
  6
Continuous
 62
     8
370
    25
100
AcDbPolyline
 90
       23
 70
   128
 43
0.0
 10
-15.999985008
 20
75.4258321656
 10
-15.9552607549
 20
75.5319516542
 10
-15.5988465949
 20
75.7380447816
 10
-14.8939799783
 20
75.9372062385
 10
-13.8564064606
 20
76.1249870872
 10
-12.5093037195
 20
76.2971926136
 10
-10.8827638043
 20
76.449976031
 10
-9.013120929
 20
76.5799244102
 10
-6.9421398259
 20
76.6841349192
 10
-4.7160827906
 20
76.7602796674
 10
-2.3846762588
 20
76.806657707
 10
0.0
 20
76.8222330291
 10
2.3846762588
 20
76.806657707
 10
4.7160827906
 20
76.7602796674
 10
6.9421398259
 20
76.6841349192
 10
9.013120929
 20
76.5799244102
 10
10.8827638043
 20
76.449976031
 10
12.5093037195
 20
76.2971926136
 10
13.8564064606
 20
76.1249870872
 10
14.8939799783
 20
75.9372062385
 10
15.5988465949
 20
75.7380447816
 10
15.9552607549
 20
75.5319516542
 10
15.9999976673
 20
75.4269881346
  0
LWPOLYLINE
  5
D4
330
1F
100
AcDbEntity
  8
0
  6
Continuous
 62
     8
370
    25
100
AcDbPolyline
 90
       14
 70
   128
 43
0.0
 10
0.0
 20
72.3023270933
 10
-2.1397296736
 20
72.3177800728
 10
-4.2210930997
 20
72.3637174943
 10
-6.1873161095
 20
72.4388863048
 10
-7.984765265
 20
72.541236095
 10
-9.5644108388
 20
72.6679750295
 10
-10.8831642174
 20
72.8156460004
 10
-11.9050532465
 20
72.9802209288
 10
-12.6022034572
 20
73.1572106394
 10
-12.9555984091
 20
73.3417873145
 10
-12.9555984091
 20
73.5289161835
 10
-12.6022034572
 20
73.7134928586
 10
-11.9050532465
 20
73.8904825692
 10
-11.7344762407
 20
73.9229728819
  0
LWPOLYLINE
  5
D5
330
1F
100
AcDbEntity
  8
0
  6
Continuous
 62
     8
370
    25
100
AcDbPolyline
 90
       14
 70
   128
 43
0.0
 10
11.5543230334
 20
73.9546246055
 10
11.9050532465
 20
73.8904825692
 10
12.6022034572
 20
73.7134928586
 10
12.9555984091
 20
73.5289161835
 10
12.9555984091
 20
73.3417873145
 10
12.6022034572
 20
73.1572106394
 10
11.9050532465
 20
72.9802209288
 10
10.8831642174
 20
72.8156460004
 10
9.5644108388
 20
72.6679750295
 10
7.984765265
 20
72.541236095
 10
6.1873161095
 20
72.4388863048
 10
4.2210930997
 20
72.3637174943
 10
2.1397296736
 20
72.3177800728
 10
0.0
 20
72.3023270933
  0
LWPOLYLINE
  5
D6
330
1F
100
AcDbEntity
  8
0
  6
Continuous
 62
     8
370
    25
100
AcDbPolyline
 90
        3
 70
   128
 43
0.0
 10
0.0
 20
74.469027975
 10
1.9641258428
 20
74.48443489
 10
3.6402870789
 20
74.5230481205
  0
LWPOLYLINE
  5
D7
330
1F
100
AcDbEntity
  8
0
  6
Continuous
 62
     8
370
    25
100
AcDbPolyline
 90
        3
 70
   128
 43
0.0
 10
-3.6402870789
 20
74.5230481205
 10
-1.9641258428
 20
74.48443489
 10
0.0
 20
74.469027975
  0
LINE
  5
D8
330
1F
100
AcDbEntity
  8
0
  6
Continuous
 62
     7
370
    25
100
AcDbLine
 10
-16.0
 20
77.4201305414
 30
0.0
 11
-16.0
 21
75.4277411452
 31
0.0
  0
LINE
  5
D9
330
1F
100
AcDbEntity
  8
0
  6
Continuous
 62
     7
370
    25
100
AcDbLine
 10
16.0
 20
75.4277411452
 30
0.0
 11
16.0
 21
77.4201305414
 31
0.0
  0
LINE
  5
DA
330
1F
100
AcDbEntity
  8
0
  6
Continuous
 62
     7
370
    25
100
AcDbLine
 10
296.0
 20
-210.0
 30
0.0
 11
295.0
 21
-205.0
 31
0.0
  0
LINE
  5
DB
330
1F
100
AcDbEntity
  8
0
  6
Continuous
 62
     7
370
    25
100
AcDbLine
 10
295.0
 20
-205.0
 30
0.0
 11
300.0
 21
-206.0
 31
0.0
  0
LINE
  5
DC
330
1F
100
AcDbEntity
  8
0
  6
Continuous
 62
     7
370
    25
100
AcDbLine
 10
-262.1946176122
 20
79.6006823796
 30
0.0
 11
-262.1946176122
 21
84.5816558701
 31
0.0
  0
LINE
  5
DD
330
1F
100
AcDbEntity
  8
0
  6
Continuous
 62
     7
370
    25
100
AcDbLine
 10
-277.1954981559
 20
69.7522420118
 30
0.0
 11
-272.2714593908
 21
69.7522420118
 31
0.0
  0
LINE
  5
DE
330
1F
100
AcDbEntity
  8
0
  6
Continuous
 62
     7
370
    25
100
AcDbLine
 10
295.0
 20
-205.0
 30
0.0
 11
295.0
 21
205.0
 31
0.0
  0
LINE
  5
DF
330
1F
100
AcDbEntity
  8
0
  6
Continuous
 62
     7
370
    25
100
AcDbLine
 10
300.0
 20
206.0
 30
0.0
 11
295.0
 21
205.0
 31
0.0
  0
LINE
  5
E0
330
1F
100
AcDbEntity
  8
0
  6
Continuous
 62
     7
370
    25
100
AcDbLine
 10
300.0
 20
206.0
 30
0.0
 11
300.0
 21
-206.0
 31
0.0
  0
LINE
  5
E1
330
1F
100
AcDbEntity
  8
0
  6
Continuous
 62
     7
370
    25
100
AcDbLine
 10
-300.0
 20
-206.0
 30
0.0
 11
-295.0
 21
-205.0
 31
0.0
  0
LINE
  5
E2
330
1F
100
AcDbEntity
  8
0
  6
Continuous
 62
     7
370
    25
100
AcDbLine
 10
-300.0
 20
-206.0
 30
0.0
 11
-300.0
 21
206.0
 31
0.0
  0
LINE
  5
E3
330
1F
100
AcDbEntity
  8
0
  6
Continuous
 62
     7
370
    25
100
AcDbLine
 10
-295.0
 20
205.0
 30
0.0
 11
-300.0
 21
206.0
 31
0.0
  0
LINE
  5
E4
330
1F
100
AcDbEntity
  8
0
  6
Continuous
 62
     7
370
    25
100
AcDbLine
 10
-295.0
 20
205.0
 30
0.0
 11
-295.0
 21
-205.0
 31
0.0
  0
LINE
  5
E5
330
1F
100
AcDbEntity
  8
0
  6
Continuous
 62
     7
370
    25
100
AcDbLine
 10
-296.0
 20
210.0
 30
0.0
 11
-295.0
 21
205.0
 31
0.0
  0
LINE
  5
E6
330
1F
100
AcDbEntity
  8
0
  6
Continuous
 62
     7
370
    25
100
AcDbLine
 10
-296.0
 20
210.0
 30
0.0
 11
296.0
 21
210.0
 31
0.0
  0
LINE
  5
E7
330
1F
100
AcDbEntity
  8
0
  6
Continuous
 62
     7
370
    25
100
AcDbLine
 10
295.0
 20
205.0
 30
0.0
 11
296.0
 21
210.0
 31
0.0
  0
LINE
  5
E8
330
1F
100
AcDbEntity
  8
0
  6
Continuous
 62
     7
370
    25
100
AcDbLine
 10
295.0
 20
205.0
 30
0.0
 11
-295.0
 21
205.0
 31
0.0
  0
LINE
  5
E9
330
1F
100
AcDbEntity
  8
0
  6
Continuous
 62
     7
370
    25
100
AcDbLine
 10
262.1946176122
 20
-187.5816558701
 30
0.0
 11
262.1946176122
 21
-182.6006823796
 31
0.0
  0
LINE
  5
EA
330
1F
100
AcDbEntity
  8
0
  6
Continuous
 62
     7
370
    25
100
AcDbLine
 10
272.2714593908
 20
-172.7522420118
 30
0.0
 11
277.1954981559
 21
-172.7522420118
 31
0.0
  0
LINE
  5
EB
330
1F
100
AcDbEntity
  8
0
  6
Continuous
 62
     7
370
    25
100
AcDbLine
 10
262.1946176122
 20
-187.5816558701
 30
0.0
 11
-262.1946176122
 21
-187.5816558701
 31
0.0
  0
LINE
  5
EC
330
1F
100
AcDbEntity
  8
0
  6
Continuous
 62
     7
370
    25
100
AcDbLine
 10
-262.1946176122
 20
-187.5816558701
 30
0.0
 11
-262.1946176122
 21
-182.6006823796
 31
0.0
  0
LINE
  5
ED
330
1F
100
AcDbEntity
  8
0
  6
Continuous
 62
     7
370
    25
100
AcDbLine
 10
-262.1946176122
 20
-182.6006823796
 30
0.0
 11
262.1946176122
 21
-182.6006823796
 31
0.0
  0
LINE
  5
EE
330
1F
100
AcDbEntity
  8
0
  6
Continuous
 62
     7
370
    25
100
AcDbLine
 10
272.2714593908
 20
-172.7522420118
 30
0.0
 11
272.2714593908
 21
69.7522420118
 31
0.0
  0
LINE
  5
EF
330
1F
100
AcDbEntity
  8
0
  6
Continuous
 62
     7
370
    25
100
AcDbLine
 10
272.2714593908
 20
69.7522420118
 30
0.0
 11
277.1954981559
 21
69.7522420118
 31
0.0
  0
LINE
  5
F0
330
1F
100
AcDbEntity
  8
0
  6
Continuous
 62
     7
370
    25
100
AcDbLine
 10
277.1954981559
 20
69.7522420118
 30
0.0
 11
277.1954981559
 21
-172.7522420118
 31
0.0
  0
LINE
  5
F1
330
1F
100
AcDbEntity
  8
0
  6
Continuous
 62
     7
370
    25
100
AcDbLine
 10
-277.1954981559
 20
-172.7522420118
 30
0.0
 11
-272.2714593908
 21
-172.7522420118
 31
0.0
  0
LINE
  5
F2
330
1F
100
AcDbEntity
  8
0
  6
Continuous
 62
     7
370
    25
100
AcDbLine
 10
262.1946176122
 20
79.6006823796
 30
0.0
 11
262.1946176122
 21
84.5816558701
 31
0.0
  0
LINE
  5
F3
330
1F
100
AcDbEntity
  8
0
  6
Continuous
 62
     7
370
    25
100
AcDbLine
 10
-262.1946176122
 20
84.5816558701
 30
0.0
 11
262.1946176122
 21
84.5816558701
 31
0.0
  0
LINE
  5
F4
330
1F
100
AcDbEntity
  8
0
  6
Continuous
 62
     7
370
    25
100
AcDbLine
 10
-277.1954981559
 20
-172.7522420118
 30
0.0
 11
-277.1954981559
 21
69.7522420118
 31
0.0
  0
LINE
  5
F5
330
1F
100
AcDbEntity
  8
0
  6
Continuous
 62
     7
370
    25
100
AcDbLine
 10
-295.0
 20
-205.0
 30
0.0
 11
295.0
 21
-205.0
 31
0.0
  0
LINE
  5
F6
330
1F
100
AcDbEntity
  8
0
  6
Continuous
 62
     7
370
    25
100
AcDbLine
 10
262.1946176122
 20
79.6006823796
 30
0.0
 11
-262.1946176122
 21
79.6006823796
 31
0.0
  0
LINE
  5
F7
330
1F
100
AcDbEntity
  8
0
  6
Continuous
 62
     7
370
    25
100
AcDbLine
 10
296.0
 20
-210.0
 30
0.0
 11
-296.0
 21
-210.0
 31
0.0
  0
LINE
  5
F8
330
1F
100
AcDbEntity
  8
0
  6
Continuous
 62
     7
370
    25
100
AcDbLine
 10
-295.0
 20
-205.0
 30
0.0
 11
-296.0
 21
-210.0
 31
0.0
  0
LINE
  5
F9
330
1F
100
AcDbEntity
  8
0
  6
Continuous
 62
     7
370
    25
100
AcDbLine
 10
-272.2714593908
 20
69.7522420118
 30
0.0
 11
-272.2714593908
 21
-172.7522420118
 31
0.0
  0
LINE
  5
FA
330
1F
100
AcDbEntity
  8
0
  6
Continuous
 62
     7
370
    25
100
AcDbLine
 10
255.0528465081
 20
-164.2088334941
 30
0.0
 11
272.2714593908
 21
-172.7522420118
 31
0.0
  0
LINE
  5
FB
330
1F
100
AcDbEntity
  8
0
  6
Continuous
 62
     7
370
    25
100
AcDbLine
 10
262.1946176122
 20
-182.6006823796
 30
0.0
 11
245.204768978
 21
-174.170780475
 31
0.0
  0
LINE
  5
FC
330
1F
100
AcDbEntity
  8
0
  6
Continuous
 62
     7
370
    25
100
AcDbLine
 10
-255.0528465081
 20
61.2088334941
 30
0.0
 11
-272.2714593908
 21
69.7522420118
 31
0.0
  0
LINE
  5
FD
330
1F
100
AcDbEntity
  8
0
  6
Continuous
 62
     7
370
    25
100
AcDbLine
 10
-262.1946176122
 20
79.6006823796
 30
0.0
 11
-245.204768978
 21
71.170780475
 31
0.0
  0
LINE
  5
FE
330
1F
100
AcDbEntity
  8
0
  6
Continuous
 62
     7
370
    25
100
AcDbLine
 10
-245.204768978
 20
-174.170780475
 30
0.0
 11
-262.1946176122
 21
-182.6006823796
 31
0.0
  0
LINE
  5
FF
330
1F
100
AcDbEntity
  8
0
  6
Continuous
 62
     7
370
    25
100
AcDbLine
 10
-272.2714593908
 20
-172.7522420118
 30
0.0
 11
-255.0528465081
 21
-164.2088334941
 31
0.0
  0
LINE
  5
100
330
1F
100
AcDbEntity
  8
0
  6
Continuous
 62
     7
370
    25
100
AcDbLine
 10
245.204768978
 20
71.170780475
 30
0.0
 11
262.1946176122
 21
79.6006823796
 31
0.0
  0
LINE
  5
101
330
1F
100
AcDbEntity
  8
0
  6
Continuous
 62
     7
370
    25
100
AcDbLine
 10
272.2714593908
 20
69.7522420118
 30
0.0
 11
255.0528465081
 21
61.2088334941
 31
0.0
  0
ARC
  5
102
330
1F
100
AcDbEntity
  8
0
  6
Continuous
 62
     7
370
    25
100
AcDbCircle
 10
296.0
 20
-206.0
 30
0.0
 40
4.000000000000085
100
AcDbArc
 50
270.0
 51
0.0
  0
ARC
  5
103
330
1F
100
AcDbEntity
  8
0
  6
Continuous
 62
     7
370
    25
100
AcDbCircle
 10
-262.3144515616
 20
69.7010035678
 30
0.0
 40
14.88113480613392
100
AcDbArc
 50
89.5386068438
 51
179.8027198578
  0
ARC
  5
104
330
1F
100
AcDbEntity
  8
0
  6
Continuous
 62
     7
370
    25
100
AcDbCircle
 10
-262.4293003027
 20
69.7613174654
 30
0.0
 40
9.84216327237972
100
AcDbArc
 50
88.6336741391
 51
180.0528324162
  0
ARC
  5
105
330
1F
100
AcDbEntity
  8
0
  6
Continuous
 62
     7
370
    25
100
AcDbCircle
 10
262.3144515616
 20
-172.7010035678
 30
0.0
 40
14.88113480613386
100
AcDbArc
 50
269.5386068438
 51
359.8027198578
  0
ARC
  5
106
330
1F
100
AcDbEntity
  8
0
  6
Continuous
 62
     7
370
    25
100
AcDbCircle
 10
262.4293003027
 20
-172.7613174654
 30
0.0
 40
9.84216327237967
100
AcDbArc
 50
268.6336741391
 51
0.0528324162
  0
ARC
  5
107
330
1F
100
AcDbEntity
  8
0
  6
Continuous
 62
     7
370
    25
100
AcDbCircle
 10
-262.3144515616
 20
-172.7010035678
 30
0.0
 40
14.88113480613386
100
AcDbArc
 50
180.1972801422
 51
270.4613931562
  0
ARC
  5
108
330
1F
100
AcDbEntity
  8
0
  6
Continuous
 62
     7
370
    25
100
AcDbCircle
 10
-262.4293003027
 20
-172.7613174654
 30
0.0
 40
9.842163272379734
100
AcDbArc
 50
179.9471675838
 51
271.3663258609
  0
ARC
  5
109
330
1F
100
AcDbEntity
  8
0
  6
Continuous
 62
     7
370
    25
100
AcDbCircle
 10
262.4293003027
 20
69.7613174654
 30
0.0
 40
9.842163272379718
100
AcDbArc
 50
359.9471675838
 51
91.3663258609
  0
ARC
  5
10A
330
1F
100
AcDbEntity
  8
0
  6
Continuous
 62
     7
370
    25
100
AcDbCircle
 10
262.3144515616
 20
69.7010035678
 30
0.0
 40
14.88113480613386
100
AcDbArc
 50
0.1972801422
 51
90.4613931562
  0
ARC
  5
10B
330
1F
100
AcDbEntity
  8
0
  6
Continuous
 62
     7
370
    25
100
AcDbCircle
 10
296.0
 20
206.0
 30
0.0
 40
4.000000000000085
100
AcDbArc
 50
0.0
 51
90.0
  0
ARC
  5
10C
330
1F
100
AcDbEntity
  8
0
  6
Continuous
 62
     7
370
    25
100
AcDbCircle
 10
-296.0
 20
206.0
 30
0.0
 40
4.000000000000085
100
AcDbArc
 50
90.0
 51
180.0
  0
ARC
  5
10D
330
1F
100
AcDbEntity
  8
0
  6
Continuous
 62
     7
370
    25
100
AcDbCircle
 10
-296.0
 20
-206.0
 30
0.0
 40
4.000000000000085
100
AcDbArc
 50
180.0
 51
270.0
  0
ARC
  5
10E
330
1F
100
AcDbEntity
  8
0
  6
Continuous
 62
     7
370
    25
100
AcDbCircle
 10
244.9688618308
 20
-164.0888415314
 30
0.0
 40
10.08469855990715
100
AcDbArc
 50
271.3404185409
 51
359.3182547575
  0
ARC
  5
10F
330
1F
100
AcDbEntity
  8
0
  6
Continuous
 62
     7
370
    25
100
AcDbCircle
 10
-244.9688618308
 20
61.0888415314
 30
0.0
 40
10.08469855990716
100
AcDbArc
 50
91.3404185409
 51
179.3182547575
  0
ARC
  5
110
330
1F
100
AcDbEntity
  8
0
  6
Continuous
 62
     7
370
    25
100
AcDbCircle
 10
-244.9688618308
 20
-164.0888415314
 30
0.0
 40
10.08469855990719
100
AcDbArc
 50
180.6817452425
 51
268.6595814591
  0
ARC
  5
111
330
1F
100
AcDbEntity
  8
0
  6
Continuous
 62
     7
370
    25
100
AcDbCircle
 10
244.9688618308
 20
61.0888415314
 30
0.0
 40
10.08469855990706
100
AcDbArc
 50
0.6817452425
 51
88.6595814591
  0
ARC
  5
112
330
1F
100
AcDbEntity
  8
0
  6
Continuous
 62
     7
370
    25
100
AcDbCircle
 10
301.9796282462
 20
-166.1823895949
 30
0.0
 40
547.2427057114749
100
AcDbArc
 50
179.7985141847
 51
180.836406469
  0
ARC
  5
113
330
1F
100
AcDbEntity
  8
0
  6
Continuous
 62
     7
370
    25
100
AcDbCircle
 10
-301.9796282468
 20
-166.1823895949
 30
0.0
 40
547.2427057120819
100
AcDbArc
 50
359.163593531
 51
0.2014858153
  0
ARC
  5
114
330
1F
100
AcDbEntity
  8
0
  6
Continuous
 62
     7
370
    25
100
AcDbCircle
 10
301.9796282462
 20
63.1823895949
 30
0.0
 40
547.2427057114762
100
AcDbArc
 50
179.163593531
 51
180.2014858153
  0
ARC
  5
115
330
1F
100
AcDbEntity
  8
0
  6
Continuous
 62
     7
370
    25
100
AcDbCircle
 10
-301.9796282461
 20
63.1823895949
 30
0.0
 40
547.2427057113615
100
AcDbArc
 50
359.7985141847
 51
0.836406469
  0
ARC
  5
116
330
1F
100
AcDbEntity
  8
0
  6
Continuous
 62
     7
370
    25
100
AcDbCircle
 10
-246.5334201605
 20
-660.8943976247
 30
0.0
 40
722.1534857753034
100
AcDbArc
 50
89.8989422795
 51
90.6759484049
  0
ARC
  5
117
330
1F
100
AcDbEntity
  8
0
  6
Continuous
 62
     7
370
    25
100
AcDbCircle
 10
246.5334201605
 20
557.8943976243
 30
0.0
 40
722.1534857748993
100
AcDbArc
 50
269.8989422795
 51
270.6759484049
  0
ARC
  5
118
330
1F
100
AcDbEntity
  8
0
  6
Continuous
 62
     7
370
    25
100
AcDbCircle
 10
246.5334201605
 20
-660.894397625
 30
0.0
 40
722.1534857756658
100
AcDbArc
 50
89.3240515951
 51
90.1010577205
  0
ARC
  5
119
330
1F
100
AcDbEntity
  8
0
  6
Continuous
 62
     7
370
    25
100
AcDbCircle
 10
-246.5334201605
 20
557.894397625
 30
0.0
 40
722.1534857756637
100
AcDbArc
 50
269.3240515951
 51
270.1010577205
  0
ARC
  5
11A
330
1F
100
AcDbEntity
  8
0
  6
Continuous
 62
     7
370
    25
100
AcDbCircle
 10
0.0355901282
 20
-25.3588303136
 30
0.0
 40
100.0974898138172
100
AcDbArc
 50
82.6093616601
 51
97.4959582999
  0
ARC
  5
11B
330
1F
100
AcDbEntity
  8
0
  6
Continuous
 62
     7
370
    25
100
AcDbCircle
 10
0.0417328109
 20
-23.0443241796
 30
0.0
 40
97.67976146078341
100
AcDbArc
 50
83.2313552391
 51
96.9243856419
  0
LWPOLYLINE
  5
121
330
1B
100
AcDbEntity
 67
     1
  8
0
  6
Continuous
 62
     7
370
    25
100
AcDbPolyline
 90
       10
 70
   128
 43
0.0
 10
296.0
 20
125.0
 10
295.984807753
 20
125.8682408883
 10
295.9396926208
 20
126.7101007166
 10
295.8660254038
 20
127.5
 10
295.7660444431
 20
128.2139380484
 10
295.6427876097
 20
128.8302222156
 10
295.5
 20
129.3301270189
 10
295.3420201433
 20
129.6984631039
 10
295.1736481777
 20
129.9240387651
 10
295.0
 20
130.0
  0
LWPOLYLINE
  5
128
330
1B
100
AcDbEntity
 67
     1
  8
0
  6
Continuous
 62
     7
370
    25
100
AcDbPolyline
 90
        9
 70
   128
 43
0.0
 10
-295.0
 20
130.0
 10
-295.195090322
 20
129.903926402
 10
-295.3826834324
 20
129.6193976626
 10
-295.555570233
 20
129.1573480615
 10
-295.7071067812
 20
128.5355339059
 10
-295.8314696123
 20
127.7778511651
 10
-295.9238795325
 20
126.9134171618
 10
-295.9807852804
 20
125.9754516101
 10
-296.0
 20
125.0
  0
LINE
  5
138
330
1B
100
AcDbEntity
 67
     1
  8
0
  6
Continuous
 62
     7
370
    25
100
AcDbLine
 10
-38.1984153898
 20
0.0
 30
0.0
 11
-37.6011061566
 21
-17.1046984901
 31
0.0
  0
LINE
  5
139
330
1B
100
AcDbEntity
 67
     1
  8
0
  6
Continuous
 62
     7
370
    25
100
AcDbLine
 10
37.6011061566
 20
-17.1046984901
 30
0.0
 11
38.1984153898
 21
0.0
 31
0.0
  0
LINE
  5
13A
330
1B
100
AcDbEntity
 67
     1
  8
0
  6
Continuous
 62
     7
370
    25
100
AcDbLine
 10
300.0
 20
125.0
 30
0.0
 11
-300.0
 21
125.0
 31
0.0
  0
LINE
  5
13B
330
1B
100
AcDbEntity
 67
     1
  8
0
  6
Continuous
 62
     7
370
    25
100
AcDbLine
 10
-300.0
 20
3.0
 30
0.0
 11
300.0
 21
3.0
 31
0.0
  0
LINE
  5
13C
330
1B
100
AcDbEntity
 67
     1
  8
0
  6
Continuous
 62
     7
370
    25
100
AcDbLine
 10
296.0
 20
0.0
 30
0.0
 11
296.0
 21
125.0
 31
0.0
  0
LINE
  5
13D
330
1B
100
AcDbEntity
 67
     1
  8
0
  6
Continuous
 62
     7
370
    25
100
AcDbLine
 10
297.0
 20
0.0
 30
0.0
 11
-297.0
 21
0.0
 31
0.0
  0
LINE
  5
13E
330
1B
100
AcDbEntity
 67
     1
  8
0
  6
Continuous
 62
     7
370
    25
100
AcDbLine
 10
-296.0
 20
125.0
 30
0.0
 11
-296.0
 21
0.0
 31
0.0
  0
LINE
  5
13F
330
1B
100
AcDbEntity
 67
     1
  8
0
  6
Continuous
 62
     7
370
    25
100
AcDbLine
 10
-295.0
 20
130.0
 30
0.0
 11
295.0
 21
130.0
 31
0.0
  0
LINE
  5
140
330
1B
100
AcDbEntity
 67
     1
  8
0
  6
Continuous
 62
     7
370
    25
100
AcDbLine
 10
300.0
 20
125.0
 30
0.0
 11
300.0
 21
3.0
 31
0.0
  0
LINE
  5
141
330
1B
100
AcDbEntity
 67
     1
  8
0
  6
Continuous
 62
     7
370
    25
100
AcDbLine
 10
-300.0
 20
3.0
 30
0.0
 11
-300.0
 21
125.0
 31
0.0
  0
LINE
  5
142
330
1B
100
AcDbEntity
 67
     1
  8
0
  6
Continuous
 62
     7
370
    25
100
AcDbLine
 10
34.6029336756
 20
-20.0
 30
0.0
 11
-34.6029336756
 21
-20.0
 31
0.0
  0
LINE
  5
143
330
1B
100
AcDbEntity
 67
     1
  8
0
  6
Continuous
 62
     8
370
    25
100
AcDbLine
 10
-37.6011061566
 20
-17.1046984901
 30
0.0
 11
37.6011061566
 21
-17.1046984901
 31
0.0
  0
ARC
  5
144
330
1B
100
AcDbEntity
 67
     1
  8
0
  6
Continuous
 62
     7
370
    25
100
AcDbCircle
 10
34.6029336756
 20
-17.0
 30
0.0
 40
2.999999999999989
100
AcDbArc
 50
270.0
 51
358.0
  0
ARC
  5
145
330
1B
100
AcDbEntity
 67
     1
  8
0
  6
Continuous
 62
     7
370
    25
100
AcDbCircle
 10
-34.6029336756
 20
-17.0
 30
0.0
 40
2.999999999999996
100
AcDbArc
 50
182.0
 51
270.0
  0
ARC
  5
146
330
1B
100
AcDbEntity
 67
     1
  8
0
  6
Continuous
 62
     7
370
    25
100
AcDbCircle
 10
295.0
 20
125.0
 30
0.0
 40
5.000000000000057
100
AcDbArc
 50
0.0
 51
90.0
  0
ARC
  5
147
330
1B
100
AcDbEntity
 67
     1
  8
0
  6
Continuous
 62
     7
370
    25
100
AcDbCircle
 10
297.0
 20
3.0
 30
0.0
 40
3.000000000000013
100
AcDbArc
 50
270.0
 51
0.0
  0
ARC
  5
148
330
1B
100
AcDbEntity
 67
     1
  8
0
  6
Continuous
 62
     7
370
    25
100
AcDbCircle
 10
-297.0
 20
3.0
 30
0.0
 40
3.000000000000013
100
AcDbArc
 50
180.0
 51
270.0
  0
ARC
  5
149
330
1B
100
AcDbEntity
 67
     1
  8
0
  6
Continuous
 62
     7
370
    25
100
AcDbCircle
 10
-295.0
 20
125.0
 30
0.0
 40
5.0
100
AcDbArc
 50
90.0
 51
180.0
  0
VIEWPORT
  5
34B
330
1B
100
AcDbEntity
 67
     1
  8
0
100
AcDbViewport
 10
0.0
 20
0.0
 30
0.0
 40
205.6
 41
156.0
 68
     1
 69
     1
 12
0.0
 22
0.0
 13
0.0
 23
0.0
 14
10.0
 24
10.0
 15
10.0
 25
10.0
 16
0.0
 26
0.0
 36
1.0
 17
0.0
 27
0.0
 37
0.0
 42
50.0
 43
0.0
 44
0.0
 45
464.3579766537
 50
0.0
 51
0.0
 72
   100
 90
   557152
  1

281
     0
 71
     1
 74
     0
110
0.0
120
0.0
130
0.0
111
1.0
121
0.0
131
0.0
112
0.0
122
1.0
132
0.0
 79
     0
146
0.0
  0
ENDSEC
  0
SECTION
  2
OBJECTS
  0
DICTIONARY
  5
C
330
0
100
AcDbDictionary
281
     1
  3
ACAD_GROUP
350
D
  3
ACAD_LAYOUT
350
1A
  3
ACAD_MLINESTYLE
350
17
  3
ACAD_PLOTSETTINGS
350
19
  3
ACAD_PLOTSTYLENAME
350
E
  3
ACAD_SCALELIST
350
47
  0
DICTIONARY
  5
D
102
{ACAD_REACTORS
330
C
102
}
330
C
100
AcDbDictionary
281
     1
  0
DICTIONARY
  5
1A
102
{ACAD_REACTORS
330
C
102
}
330
C
100
AcDbDictionary
281
     1
  3
_Back
350
195
  3
_Front
350
1E
  3
_Isometric
350
26F
  3
_Left
350
26
  3
Model
350
22
  0
DICTIONARY
  5
17
102
{ACAD_REACTORS
330
C
102
}
330
C
100
AcDbDictionary
281
     1
  3
Standard
350
18
  0
DICTIONARY
  5
19
102
{ACAD_REACTORS
330
C
102
}
330
C
100
AcDbDictionary
281
     1
  0
ACDBDICTIONARYWDFLT
  5
E
102
{ACAD_REACTORS
330
C
102
}
330
C
100
AcDbDictionary
281
     1
  3
Normal
350
F
100
AcDbDictionaryWithDefault
340
F
  0
DICTIONARY
  5
47
102
{ACAD_REACTORS
330
C
102
}
330
C
100
AcDbDictionary
281
     1
  3
A0
350
48
  3
A1
350
49
  3
A2
350
4A
  3
A3
350
4B
  3
A4
350
4C
  3
A5
350
4D
  3
A6
350
4E
  3
A7
350
4F
  3
A8
350
50
  3
A9
350
51
  3
B0
350
52
  3
B1
350
53
  3
B2
350
54
  3
B3
350
55
  3
B4
350
56
  3
B5
350
57
  3
B6
350
58
  3
B7
350
59
  3
B8
350
5A
  3
B9
350
5B
  3
C0
350
5C
  3
C1
350
5D
  3
C2
350
5E
  3
C3
350
5F
  3
C4
350
60
  3
C5
350
61
  3
C6
350
62
  3
C7
350
63
  3
C8
350
64
  3
C9
350
65
  3
D0
350
66
  3
D1
350
67
  3
D2
350
68
  0
LAYOUT
  5
195
102
{ACAD_REACTORS
330
1A
102
}
330
1A
100
AcDbPlotSettings
  1

  2
none_device
  4
ISO_A4_(210.00_x_297.00_MM)
  6

 40
7.5
 41
20.0
 42
7.5
 43
20.0
 44
210.0
 45
297.0
 46
0.0
 47
0.0
 48
0.0
 49
0.0
140
0.0
141
0.0
142
1.0
143
2.3346303502
 70
   688
 72
     1
 73
     1
 74
     1
  7

 75
     0
147
0.4283333333
148
300.0
149
20.0
100
AcDbLayout
  1
_Back
 70
     1
 71
     3
 10
0.0
 20
0.0
 11
0.0
 21
0.0
 12
0.0
 22
0.0
 32
0.0
 14
0.0
 24
0.0
 34
0.0
 15
0.0
 25
0.0
 35
0.0
146
0.0
 13
0.0
 23
0.0
 33
0.0
 16
1.0
 26
0.0
 36
0.0
 17
0.0
 27
1.0
 37
0.0
 76
     0
330
194
331
34F
  0
LAYOUT
  5
1E
102
{ACAD_REACTORS
330
1A
102
}
330
1A
100
AcDbPlotSettings
  1

  2
none_device
  4
ISO_A4_(210.00_x_297.00_MM)
  6

 40
7.5
 41
20.0
 42
7.5
 43
20.0
 44
210.0
 45
297.0
 46
0.0
 47
0.0
 48
0.0
 49
0.0
140
0.0
141
0.0
142
1.0
143
2.3346303502
 70
   688
 72
     1
 73
     1
 74
     1
  7

 75
     0
147
0.4283333333
148
300.0
149
20.0
100
AcDbLayout
  1
_Front
 70
     1
 71
     1
 10
-346.6926070039
 20
-37.5097276265
 11
346.6926070039
 21
452.7626459144
 12
0.0
 22
0.0
 32
0.0
 14
-300.0
 24
-20.0
 34
0.0
 15
300.0
 25
130.0
 35
0.0
146
0.0
 13
0.0
 23
0.0
 33
0.0
 16
1.0
 26
0.0
 36
0.0
 17
0.0
 27
1.0
 37
0.0
 76
     0
330
1B
331
34B
  0
LAYOUT
  5
26F
102
{ACAD_REACTORS
330
1A
102
}
330
1A
100
AcDbPlotSettings
  1

  2
none_device
  4
ISO_A4_(210.00_x_297.00_MM)
  6

 40
7.5
 41
20.0
 42
7.5
 43
20.0
 44
210.0
 45
297.0
 46
0.0
 47
0.0
 48
0.0
 49
0.0
140
0.0
141
0.0
142
1.0
143
2.3346303502
 70
   688
 72
     1
 73
     1
 74
     1
  7

 75
     0
147
0.4283333333
148
300.0
149
20.0
100
AcDbLayout
  1
_Isometric
 70
     1
 71
     4
 10
0.0
 20
0.0
 11
0.0
 21
0.0
 12
0.0
 22
0.0
 32
0.0
 14
0.0
 24
0.0
 34
0.0
 15
0.0
 25
0.0
 35
0.0
146
0.0
 13
0.0
 23
0.0
 33
0.0
 16
1.0
 26
0.0
 36
0.0
 17
0.0
 27
1.0
 37
0.0
 76
     0
330
26E
331
351
  0
LAYOUT
  5
26
102
{ACAD_REACTORS
330
1A
102
}
330
1A
100
AcDbPlotSettings
  1

  2
none_device
  4
ISO_A4_(210.00_x_297.00_MM)
  6

 40
7.5
 41
20.0
 42
7.5
 43
20.0
 44
210.0
 45
297.0
 46
0.0
 47
0.0
 48
0.0
 49
0.0
140
0.0
141
0.0
142
1.0
143
2.3346303502
 70
   688
 72
     1
 73
     1
 74
     1
  7

 75
     0
147
0.4283333333
148
300.0
149
20.0
100
AcDbLayout
  1
_Left
 70
     1
 71
     2
 10
0.0
 20
0.0
 11
0.0
 21
0.0
 12
0.0
 22
0.0
 32
0.0
 14
0.0
 24
0.0
 34
0.0
 15
0.0
 25
0.0
 35
0.0
146
0.0
 13
0.0
 23
0.0
 33
0.0
 16
1.0
 26
0.0
 36
0.0
 17
0.0
 27
1.0
 37
0.0
 76
     0
330
23
331
34D
  0
LAYOUT
  5
22
102
{ACAD_REACTORS
330
1A
102
}
330
1A
100
AcDbPlotSettings
  1

  2
none_device
  4
ANSI_A_(11.00_x_8.50_Inches)
  6

 40
6.35
 41
19.05
 42
6.35000508
 43
19.05000254
 44
279.4
 45
215.9
 46
133.34999746
 47
88.89999873
 48
0.0
 49
0.0
140
0.0
141
0.0
142
0.01815
143
1.0
 70
  1696
 72
     0
 73
     0
 74
     0
  7

 75
     0
147
0.0179189148
148
-1300.4909072572
149
0.0
100
AcDbLayout
  1
Model
 70
     1
 71
     0
 10
0.0
 20
0.0
 11
420.0
 21
297.0
 12
0.0
 22
0.0
 32
0.0
 14
-300.0
 24
-210.0
 34
0.0
 15
300.0
 25
210.0
 35
0.0
146
0.0
 13
0.0
 23
0.0
 33
0.0
 16
1.0
 26
0.0
 36
0.0
 17
0.0
 27
1.0
 37
0.0
 76
     0
330
1F
331
29
  0
MLINESTYLE
  5
18
102
{ACAD_REACTORS
330
17
102
}
330
17
100
AcDbMlineStyle
  2
Standard
 70
     0
  3

 62
   256
 51
90.0
 52
90.0
 71
     2
 49
0.5
 62
   256
  6
BYLAYER
 49
-0.5
 62
   256
  6
BYLAYER
  0
ACDBPLACEHOLDER
  5
F
102
{ACAD_REACTORS
330
E
102
}
330
E
  0
SCALE
  5
48
102
{ACAD_REACTORS
330
47
102
}
330
47
100
AcDbScale
 70
     0
300
1:1
140
1.0
141
1.0
290
     1
  0
SCALE
  5
49
102
{ACAD_REACTORS
330
47
102
}
330
47
100
AcDbScale
 70
     0
300
1:2
140
1.0
141
2.0
290
     0
  0
SCALE
  5
4A
102
{ACAD_REACTORS
330
47
102
}
330
47
100
AcDbScale
 70
     0
300
1:4
140
1.0
141
4.0
290
     0
  0
SCALE
  5
4B
102
{ACAD_REACTORS
330
47
102
}
330
47
100
AcDbScale
 70
     0
300
1:5
140
1.0
141
5.0
290
     0
  0
SCALE
  5
4C
102
{ACAD_REACTORS
330
47
102
}
330
47
100
AcDbScale
 70
     0
300
1:8
140
1.0
141
8.0
290
     0
  0
SCALE
  5
4D
102
{ACAD_REACTORS
330
47
102
}
330
47
100
AcDbScale
 70
     0
300
1:10
140
1.0
141
10.0
290
     0
  0
SCALE
  5
4E
102
{ACAD_REACTORS
330
47
102
}
330
47
100
AcDbScale
 70
     0
300
1:16
140
1.0
141
16.0
290
     0
  0
SCALE
  5
4F
102
{ACAD_REACTORS
330
47
102
}
330
47
100
AcDbScale
 70
     0
300
1:20
140
1.0
141
20.0
290
     0
  0
SCALE
  5
50
102
{ACAD_REACTORS
330
47
102
}
330
47
100
AcDbScale
 70
     0
300
1:30
140
1.0
141
30.0
290
     0
  0
SCALE
  5
51
102
{ACAD_REACTORS
330
47
102
}
330
47
100
AcDbScale
 70
     0
300
1:40
140
1.0
141
40.0
290
     0
  0
SCALE
  5
52
102
{ACAD_REACTORS
330
47
102
}
330
47
100
AcDbScale
 70
     0
300
1:50
140
1.0
141
50.0
290
     0
  0
SCALE
  5
53
102
{ACAD_REACTORS
330
47
102
}
330
47
100
AcDbScale
 70
     0
300
1:100
140
1.0
141
100.0
290
     0
  0
SCALE
  5
54
102
{ACAD_REACTORS
330
47
102
}
330
47
100
AcDbScale
 70
     0
300
2:1
140
2.0
141
1.0
290
     0
  0
SCALE
  5
55
102
{ACAD_REACTORS
330
47
102
}
330
47
100
AcDbScale
 70
     0
300
4:1
140
4.0
141
1.0
290
     0
  0
SCALE
  5
56
102
{ACAD_REACTORS
330
47
102
}
330
47
100
AcDbScale
 70
     0
300
8:1
140
8.0
141
1.0
290
     0
  0
SCALE
  5
57
102
{ACAD_REACTORS
330
47
102
}
330
47
100
AcDbScale
 70
     0
300
10:1
140
10.0
141
1.0
290
     0
  0
SCALE
  5
58
102
{ACAD_REACTORS
330
47
102
}
330
47
100
AcDbScale
 70
     0
300
100:1
140
100.0
141
1.0
290
     0
  0
SCALE
  5
59
102
{ACAD_REACTORS
330
47
102
}
330
47
100
AcDbScale
 70
     0
300
1/128" = 1'-0"
140
0.0078125
141
12.0
290
     0
  0
SCALE
  5
5A
102
{ACAD_REACTORS
330
47
102
}
330
47
100
AcDbScale
 70
     0
300
1/64" = 1'-0"
140
0.015625
141
12.0
290
     0
  0
SCALE
  5
5B
102
{ACAD_REACTORS
330
47
102
}
330
47
100
AcDbScale
 70
     0
300
1/32" = 1'-0"
140
0.03125
141
12.0
290
     0
  0
SCALE
  5
5C
102
{ACAD_REACTORS
330
47
102
}
330
47
100
AcDbScale
 70
     0
300
1/16" = 1'-0"
140
0.0625
141
12.0
290
     0
  0
SCALE
  5
5D
102
{ACAD_REACTORS
330
47
102
}
330
47
100
AcDbScale
 70
     0
300
3/32" = 1'-0"
140
0.09375
141
12.0
290
     0
  0
SCALE
  5
5E
102
{ACAD_REACTORS
330
47
102
}
330
47
100
AcDbScale
 70
     0
300
1/8" = 1'-0"
140
0.125
141
12.0
290
     0
  0
SCALE
  5
5F
102
{ACAD_REACTORS
330
47
102
}
330
47
100
AcDbScale
 70
     0
300
3/16" = 1'-0"
140
0.1875
141
12.0
290
     0
  0
SCALE
  5
60
102
{ACAD_REACTORS
330
47
102
}
330
47
100
AcDbScale
 70
     0
300
1/4" = 1'-0"
140
0.25
141
12.0
290
     0
  0
SCALE
  5
61
102
{ACAD_REACTORS
330
47
102
}
330
47
100
AcDbScale
 70
     0
300
3/8" = 1'-0"
140
0.375
141
12.0
290
     0
  0
SCALE
  5
62
102
{ACAD_REACTORS
330
47
102
}
330
47
100
AcDbScale
 70
     0
300
1/2" = 1'-0"
140
0.5
141
12.0
290
     0
  0
SCALE
  5
63
102
{ACAD_REACTORS
330
47
102
}
330
47
100
AcDbScale
 70
     0
300
3/4" = 1'-0"
140
0.75
141
12.0
290
     0
  0
SCALE
  5
64
102
{ACAD_REACTORS
330
47
102
}
330
47
100
AcDbScale
 70
     0
300
1" = 1'-0"
140
1.0
141
12.0
290
     0
  0
SCALE
  5
65
102
{ACAD_REACTORS
330
47
102
}
330
47
100
AcDbScale
 70
     0
300
1-1/2" = 1'-0"
140
1.5
141
12.0
290
     0
  0
SCALE
  5
66
102
{ACAD_REACTORS
330
47
102
}
330
47
100
AcDbScale
 70
     0
300
3" = 1'-0"
140
3.0
141
12.0
290
     0
  0
SCALE
  5
67
102
{ACAD_REACTORS
330
47
102
}
330
47
100
AcDbScale
 70
     0
300
6" = 1'-0"
140
6.0
141
12.0
290
     0
  0
SCALE
  5
68
102
{ACAD_REACTORS
330
47
102
}
330
47
100
AcDbScale
 70
     0
300
1'-0" = 1'-0"
140
12.0
141
12.0
290
     0
  0
ENDSEC
  0
EOF
