  0
SECTION
  2
HEADER
  9
$ACADVER
  1
AC1015
  9
$ACADMAINTVER
 70
     6
  9
$DWGCODEPAGE
  3
ANSI_1252
  9
$INSBASE
 10
0.0
 20
0.0
 30
0.0
  9
$EXTMIN
 10
-250.0
 20
-185.0
 30
0.0
  9
$EXTMAX
 10
250.0
 20
185.0
 30
0.0
  9
$LIMMIN
 10
0.0
 20
0.0
  9
$LIMMAX
 10
420.0
 20
297.0
  9
$ORTHOMODE
 70
     0
  9
$REGENMODE
 70
     1
  9
$FILLMODE
 70
     1
  9
$QTEXTMODE
 70
     0
  9
$MIRRTEXT
 70
     1
  9
$LTSCALE
 40
1.0
  9
$ATTMODE
 70
     1
  9
$TEXTSIZE
 40
3.5
  9
$TRACEWID
 40
1.0
  9
$TEXTSTYLE
  7
Standard
  9
$CLAYER
  8
0
  9
$CELTYPE
  6
ByLayer
  9
$CECOLOR
 62
   256
  9
$CELTSCALE
 40
1.0
  9
$DISPSILH
 70
     0
  9
$DIMSCALE
 40
1.0
  9
$DIMASZ
 40
3.302
  9
$DIMEXO
 40
1.0
  9
$DIMDLI
 40
3.75
  9
$DIMRND
 40
0.0
  9
$DIMDLE
 40
0.0
  9
$DIMEXE
 40
1.0
  9
$DIMTP
 40
0.0
  9
$DIMTM
 40
0.0
  9
$DIMTXT
 40
3.5
  9
$DIMCEN
 40
2.5
  9
$DIMTSZ
 40
0.0
  9
$DIMTOL
 70
     0
  9
$DIMLIM
 70
     0
  9
$DIMTIH
 70
     1
  9
$DIMTOH
 70
     1
  9
$DIMSE1
 70
     0
  9
$DIMSE2
 70
     0
  9
$DIMTAD
 70
     1
  9
$DIMZIN
 70
     0
  9
$DIMBLK
  1

  9
$DIMASO
 70
     1
  9
$DIMSHO
 70
     1
  9
$DIMPOST
  1

  9
$DIMAPOST
  1

  9
$DIMALT
 70
     0
  9
$DIMALTD
 70
     3
  9
$DIMALTF
 40
0.0393700787
  9
$DIMLFAC
 40
1.0
  9
$DIMTOFL
 70
     1
  9
$DIMTVP
 40
0.0
  9
$DIMTIX
 70
     0
  9
$DIMSOXD
 70
     0
  9
$DIMSAH
 70
     0
  9
$DIMBLK1
  1

  9
$DIMBLK2
  1

  9
$DIMSTYLE
  2
ISO-25
  9
$DIMCLRD
 70
     0
  9
$DIMCLRE
 70
     0
  9
$DIMCLRT
 70
     0
  9
$DIMTFAC
 40
1.0
  9
$DIMGAP
 40
1.524
  9
$DIMJUST
 70
     0
  9
$DIMSD1
 70
     0
  9
$DIMSD2
 70
     0
  9
$DIMTOLJ
 70
     0
  9
$DIMTZIN
 70
     0
  9
$DIMALTZ
 70
     0
  9
$DIMALTTZ
 70
     0
  9
$DIMUPT
 70
     0
  9
$DIMDEC
 70
     2
  9
$DIMTDEC
 70
     2
  9
$DIMALTU
 70
     2
  9
$DIMALTTD
 70
     3
  9
$DIMTXSTY
  7
Standard
  9
$DIMAUNIT
 70
     0
  9
$DIMADEC
 70
     2
  9
$DIMALTRND
 40
0.0
  9
$DIMAZIN
 70
     0
  9
$DIMDSEP
 70
    44
  9
$DIMATFIT
 70
     3
  9
$DIMFRAC
 70
     0
  9
$DIMLDRBLK
  1

  9
$DIMLUNIT
 70
     2
  9
$DIMLWD
 70
    -2
  9
$DIMLWE
 70
    -2
  9
$DIMTMOVE
 70
     0
  9
$LUNITS
 70
     2
  9
$LUPREC
 70
     2
  9
$SKETCHINC
 40
1.0
  9
$FILLETRAD
 40
10.0
  9
$AUNITS
 70
     0
  9
$AUPREC
 70
     2
  9
$MENU
  1
.
  9
$ELEVATION
 40
0.0
  9
$PELEVATION
 40
0.0
  9
$THICKNESS
 40
0.0
  9
$LIMCHECK
 70
     0
  9
$CHAMFERA
 40
0.0
  9
$CHAMFERB
 40
0.0
  9
$CHAMFERC
 40
0.0
  9
$CHAMFERD
 40
0.0
  9
$SKPOLY
 70
     0
  9
$TDCREATE
 40
2460411.603849572
  9
$TDUCREATE
 40
2460411.562182905
  9
$TDUPDATE
 40
2460411.603900347
  9
$TDUUPDATE
 40
2460411.56223368
  9
$TDINDWG
 40
0.0000000116
  9
$TDUSRTIMER
 40
0.0000000116
  9
$USRTIMER
 70
     1
  9
$ANGBASE
 50
0.0
  9
$ANGDIR
 70
     0
  9
$PDMODE
 70
     0
  9
$PDSIZE
 40
-1.0
  9
$PLINEWID
 40
0.0
  9
$SPLFRAME
 70
     0
  9
$SPLINETYPE
 70
     6
  9
$SPLINESEGS
 70
     8
  9
$HANDSEED
  5
351
  9
$SURFTAB1
 70
     6
  9
$SURFTAB2
 70
     6
  9
$SURFTYPE
 70
     6
  9
$SURFU
 70
     6
  9
$SURFV
 70
     6
  9
$UCSBASE
  2

  9
$UCSNAME
  2

  9
$UCSORG
 10
0.0
 20
0.0
 30
0.0
  9
$UCSXDIR
 10
1.0
 20
0.0
 30
0.0
  9
$UCSYDIR
 10
0.0
 20
1.0
 30
0.0
  9
$UCSORTHOREF
  2

  9
$UCSORTHOVIEW
 70
     0
  9
$UCSORGTOP
 10
0.0
 20
0.0
 30
0.0
  9
$UCSORGBOTTOM
 10
0.0
 20
0.0
 30
0.0
  9
$UCSORGLEFT
 10
0.0
 20
0.0
 30
0.0
  9
$UCSORGRIGHT
 10
0.0
 20
0.0
 30
0.0
  9
$UCSORGFRONT
 10
0.0
 20
0.0
 30
0.0
  9
$UCSORGBACK
 10
0.0
 20
0.0
 30
0.0
  9
$PUCSBASE
  2

  9
$PUCSNAME
  2

  9
$PUCSORG
 10
0.0
 20
0.0
 30
0.0
  9
$PUCSXDIR
 10
1.0
 20
0.0
 30
0.0
  9
$PUCSYDIR
 10
0.0
 20
1.0
 30
0.0
  9
$PUCSORTHOREF
  2

  9
$PUCSORTHOVIEW
 70
     0
  9
$PUCSORGTOP
 10
0.0
 20
0.0
 30
0.0
  9
$PUCSORGBOTTOM
 10
0.0
 20
0.0
 30
0.0
  9
$PUCSORGLEFT
 10
0.0
 20
0.0
 30
0.0
  9
$PUCSORGRIGHT
 10
0.0
 20
0.0
 30
0.0
  9
$PUCSORGFRONT
 10
0.0
 20
0.0
 30
0.0
  9
$PUCSORGBACK
 10
0.0
 20
0.0
 30
0.0
  9
$USERI1
 70
     0
  9
$USERI2
 70
     0
  9
$USERI3
 70
     0
  9
$USERI4
 70
     0
  9
$USERI5
 70
     0
  9
$USERR1
 40
0.0
  9
$USERR2
 40
0.0
  9
$USERR3
 40
0.0
  9
$USERR4
 40
0.0
  9
$USERR5
 40
0.0
  9
$WORLDVIEW
 70
     1
  9
$SHADEDGE
 70
     3
  9
$SHADEDIF
 70
    70
  9
$TILEMODE
 70
     1
  9
$MAXACTVP
 70
    64
  9
$PINSBASE
 10
0.0
 20
0.0
 30
0.0
  9
$PLIMCHECK
 70
     0
  9
$PEXTMIN
 10
-250.0
 20
-20.0
 30
0.0
  9
$PEXTMAX
 10
250.0
 20
130.0
 30
0.0
  9
$PLIMMIN
 10
-288.9105058366
 20
-34.5914396887
  9
$PLIMMAX
 10
288.9105058366
 20
373.9688715953
  9
$UNITMODE
 70
     0
  9
$VISRETAIN
 70
     1
  9
$PLINEGEN
 70
     0
  9
$PSLTSCALE
 70
     1
  9
$TREEDEPTH
 70
  3020
  9
$CMLSTYLE
  2
Standard
  9
$CMLJUST
 70
     0
  9
$CMLSCALE
 40
20.0
  9
$PROXYGRAPHICS
 70
     1
  9
$MEASUREMENT
 70
     1
  9
$CELWEIGHT
370
    -1
  9
$ENDCAPS
280
     0
  9
$JOINSTYLE
280
     0
  9
$LWDISPLAY
290
     1
  9
$INSUNITS
 70
     4
  9
$HYPERLINKBASE
  1

  9
$STYLESHEET
  1

  9
$XEDIT
290
     1
  9
$CEPSNTYPE
380
     0
  9
$PSTYLEMODE
290
     1
  9
$FINGERPRINTGUID
  2
{18a32360-20cf-472e-8c0a-1ab3c9d945fa}
  9
$VERSIONGUID
  2
{FAEB1C32-E019-11D5-929B-00C0DF256EC4}
  9
$EXTNAMES
290
     1
  9
$PSVPSCALE
 40
0.0
  9
$OLESTARTUP
290
     0
  0
ENDSEC
  0
SECTION
  2
CLASSES
  0
CLASS
  1
ACDBDICTIONARYWDFLT
  2
AcDbDictionaryWithDefault
  3
ObjectDBX Classes
 90
        0
280
     0
281
     0
  0
CLASS
  1
VISUALSTYLE
  2
AcDbVisualStyle
  3
ObjectDBX Classes
 90
     4095
280
     0
281
     0
  0
CLASS
  1
MATERIAL
  2
AcDbMaterial
  3
ObjectDBX Classes
 90
     1153
280
     0
281
     0
  0
CLASS
  1
SCALE
  2
AcDbScale
  3
ObjectDBX Classes
 90
     1153
280
     0
281
     0
  0
CLASS
  1
TABLESTYLE
  2
AcDbTableStyle
  3
ObjectDBX Classes
 90
     4095
280
     0
281
     0
  0
CLASS
  1
MLEADERSTYLE
  2
AcDbMLeaderStyle
  3
ACDB_MLEADERSTYLE_CLASS
 90
     4095
280
     0
281
     0
  0
CLASS
  1
SUN
  2
AcDbSun
  3
SCENEOE
 90
     1153
280
     0
281
     0
  0
CLASS
  1
ACDBPLACEHOLDER
  2
AcDbPlaceHolder
  3
ObjectDBX Classes
 90
        0
280
     0
281
     0
  0
CLASS
  1
LAYOUT
  2
AcDbLayout
  3
ObjectDBX Classes
 90
        0
280
     0
281
     0
  0
ENDSEC
  0
SECTION
  2
TABLES
  0
TABLE
  2
VPORT
  5
8
330
0
100
AcDbSymbolTable
 70
     1
  0
VPORT
  5
29
330
8
100
AcDbSymbolTableRecord
100
AcDbViewportTableRecord
  2
*Active
 70
     0
 10
0.0
 20
0.0
 11
1.0
 21
1.0
 12
0.0
 22
0.0
 13
0.0
 23
0.0
 14
10.0
 24
10.0
 15
10.0
 25
10.0
 16
0.0
 26
0.0
 36
1.0
 17
0.0
 27
0.0
 37
0.0
 40
377.4
 41
1.3513513514
 42
50.0
 43
0.0
 44
0.0
 50
0.0
 51
0.0
 71
     0
 72
   100
 73
     1
 74
     3
 75
     0
 76
     0
 77
     0
 78
     0
281
     0
 65
     1
110
0.0
120
0.0
130
0.0
111
1.0
121
0.0
131
0.0
112
0.0
122
1.0
132
0.0
 79
     0
146
0.0
  0
ENDTAB
  0
TABLE
  2
LTYPE
  5
5
330
0
100
AcDbSymbolTable
 70
     6
  0
LTYPE
  5
14
330
5
100
AcDbSymbolTableRecord
100
AcDbLinetypeTableRecord
  2
ByBlock
 70
     0
  3

 72
    65
 73
     0
 40
0.0
  0
LTYPE
  5
15
330
5
100
AcDbSymbolTableRecord
100
AcDbLinetypeTableRecord
  2
ByLayer
 70
     0
  3

 72
    65
 73
     0
 40
0.0
  0
LTYPE
  5
16
330
5
100
AcDbSymbolTableRecord
100
AcDbLinetypeTableRecord
  2
Continuous
 70
     0
  3
Solid line
 72
    65
 73
     0
 40
0.0
  0
LTYPE
  5
6E
330
5
100
AcDbSymbolTableRecord
100
AcDbLinetypeTableRecord
  2
HIDDEN
 70
     0
  3
Hidden __ __ __ __ __ __ __ __ __ __ __ __ __ __
 72
    65
 73
     2
 40
1.905
 49
1.27
 74
     0
 49
-0.635
 74
     0
  0
LTYPE
  5
6F
330
5
100
AcDbSymbolTableRecord
100
AcDbLinetypeTableRecord
  2
PHANTOM
 70
     0
  3
Phantom ______  __  __  ______  __  __  ______
 72
    65
 73
     6
 40
12.7
 49
6.35
 74
     0
 49
-1.27
 74
     0
 49
1.27
 74
     0
 49
-1.27
 74
     0
 49
1.27
 74
     0
 49
-1.27
 74
     0
  0
LTYPE
  5
70
330
5
100
AcDbSymbolTableRecord
100
AcDbLinetypeTableRecord
  2
CENTER
 70
     0
  3
Center ____ _ ____ _ ____ _ ____ _ ____ _ ____
 72
    65
 73
     4
 40
10.16
 49
6.35
 74
     0
 49
-1.27
 74
     0
 49
1.27
 74
     0
 49
-1.27
 74
     0
  0
LTYPE
  5
71
330
5
100
AcDbSymbolTableRecord
100
AcDbLinetypeTableRecord
  2
CENTERX2
 70
     0
  3
Center (2x) ________  __  ________  __  _____
 72
    65
 73
     4
 40
20.32
 49
12.7
 74
     0
 49
-2.54
 74
     0
 49
2.54
 74
     0
 49
-2.54
 74
     0
  0
LTYPE
  5
72
330
5
100
AcDbSymbolTableRecord
100
AcDbLinetypeTableRecord
  2
DOT2
 70
     0
  3
Dot (.5x) ........................................
 72
    65
 73
     2
 40
0.635
 49
0.0
 74
     0
 49
-0.635
 74
     0
  0
ENDTAB
  0
TABLE
  2
LAYER
  5
2
330
0
100
AcDbSymbolTable
 70
     1
  0
LAYER
  5
10
330
2
100
AcDbSymbolTableRecord
100
AcDbLayerTableRecord
  2
0
 70
     0
 62
     7
  6
Continuous
370
    -3
390
F
  0
ENDTAB
  0
TABLE
  2
STYLE
  5
3
330
0
100
AcDbSymbolTable
 70
     1
  0
STYLE
  5
11
330
3
100
AcDbSymbolTableRecord
100
AcDbTextStyleTableRecord
  2
Standard
 70
     0
 40
0.0
 41
1.0
 50
0.0
 71
     0
 42
3.5
  3
txt
  4

  0
ENDTAB
  0
TABLE
  2
VIEW
  5
6
330
0
100
AcDbSymbolTable
 70
     0
  0
ENDTAB
  0
TABLE
  2
UCS
  5
7
330
0
100
AcDbSymbolTable
 70
     0
  0
ENDTAB
  0
TABLE
  2
APPID
  5
9
330
0
100
AcDbSymbolTable
 70
     1
  0
APPID
  5
12
330
9
100
AcDbSymbolTableRecord
100
AcDbRegAppTableRecord
  2
ACAD
 70
     0
  0
ENDTAB
  0
TABLE
  2
DIMSTYLE
  5
A
330
0
100
AcDbSymbolTable
 70
     1
100
AcDbDimStyleTable
  0
DIMSTYLE
105
27
330
A
100
AcDbSymbolTableRecord
100
AcDbDimStyleTableRecord
  2
ISO-25
 70
     0
 41
2.5
 42
0.625
 43
3.75
 44
1.25
 73
     0
 74
     0
 77
     1
 78
     8
140
2.5
141
2.5
143
0.0393700787
147
0.625
171
     3
172
     1
178
     0
271
     2
272
     2
274
     3
278
    44
283
     0
284
     8
340
11
  0
ENDTAB
  0
TABLE
  2
BLOCK_RECORD
  5
1
330
0
100
AcDbSymbolTable
 70
     3
  0
BLOCK_RECORD
  5
1F
330
1
100
AcDbSymbolTableRecord
100
AcDbBlockTableRecord
  2
*Model_Space
340
22
  0
BLOCK_RECORD
  5
1B
330
1
100
AcDbSymbolTableRecord
100
AcDbBlockTableRecord
  2
*Paper_Space
340
1E
  0
BLOCK_RECORD
  5
23
330
1
100
AcDbSymbolTableRecord
100
AcDbBlockTableRecord
  2
*Paper_Space0
340
26
  0
BLOCK_RECORD
  5
194
330
1
100
AcDbSymbolTableRecord
100
AcDbBlockTableRecord
  2
*Paper_Space1
340
195
  0
BLOCK_RECORD
  5
26E
330
1
100
AcDbSymbolTableRecord
100
AcDbBlockTableRecord
  2
*Paper_Space2
340
26F
  0
ENDTAB
  0
ENDSEC
  0
SECTION
  2
BLOCKS
  0
BLOCK
  5
20
330
1F
100
AcDbEntity
  8
0
100
AcDbBlockBegin
  2
*Model_Space
 70
     0
 10
0.0
 20
0.0
 30
0.0
  3
*Model_Space
  1

  0
ENDBLK
  5
21
330
1F
100
AcDbEntity
  8
0
100
AcDbBlockEnd
  0
BLOCK
  5
1C
330
1B
100
AcDbEntity
 67
     1
  8
0
100
AcDbBlockBegin
  2
*Paper_Space
 70
     0
 10
0.0
 20
0.0
 30
0.0
  3
*Paper_Space
  1

  0
ENDBLK
  5
1D
330
1B
100
AcDbEntity
 67
     1
  8
0
100
AcDbBlockEnd
  0
BLOCK
  5
24
330
23
100
AcDbEntity
  8
0
100
AcDbBlockBegin
  2
*Paper_Space0
 70
     0
 10
0.0
 20
0.0
 30
0.0
  3
*Paper_Space0
  1

  0
LWPOLYLINE
  5
161
330
23
100
AcDbEntity
  8
0
  6
Continuous
 62
     7
370
    25
100
AcDbPolyline
 90
        9
 70
   128
 43
0.0
 10
-180.0
 20
130.0
 10
-180.195090322
 20
129.903926402
 10
-180.3826834324
 20
129.6193976626
 10
-180.555570233
 20
129.1573480615
 10
-180.7071067812
 20
128.5355339059
 10
-180.8314696123
 20
127.7778511651
 10
-180.9238795325
 20
126.9134171618
 10
-180.9807852804
 20
125.9754516101
 10
-181.0
 20
125.0
  0
LWPOLYLINE
  5
162
330
23
100
AcDbEntity
  8
0
  6
Continuous
 62
     7
370
    25
100
AcDbPolyline
 90
        9
 70
   128
 43
0.0
 10
181.0
 20
125.0
 10
180.9807852804
 20
125.9754516101
 10
180.9238795325
 20
126.9134171618
 10
180.8314696123
 20
127.7778511651
 10
180.7071067812
 20
128.5355339059
 10
180.555570233
 20
129.1573480615
 10
180.3826834324
 20
129.6193976626
 10
180.195090322
 20
129.903926402
 10
180.0
 20
130.0
  0
SPLINE
  5
165
330
23
100
AcDbEntity
  8
0
  6
Continuous
 62
     7
370
    25
100
AcDbSpline
210
0.0
220
0.0
230
1.0
 70
     8
 71
     3
 72
    24
 73
    20
 74
     0
 42
0.000000001
 43
0.00000001
 40
0.0
 40
0.0
 40
0.0
 40
0.0
 40
0.1249999999999999
 40
0.1249999999999999
 40
0.2499999999999997
 40
0.2499999999999997
 40
0.3749999999999996
 40
0.3749999999999996
 40
0.4999999999999994
 40
0.4999999999999994
 40
0.6249999999999993
 40
0.6249999999999993
 40
0.7499999999999991
 40
0.7499999999999991
 40
0.8124999999999992
 40
0.8124999999999992
 40
0.8749999999999992
 40
0.8749999999999992
 40
1.0
 40
1.0
 40
1.0
 40
1.0
 10
8.288339699016953
 20
-12.89530150989253
 30
0.0
 10
8.51463143895417
 20
-12.89530150989253
 30
0.0
 10
8.742647911332961
 20
-12.85986436251585
 30
0.0
 10
9.201889992431054
 20
-12.72355036350045
 30
0.0
 10
9.434443622242343
 20
-12.62186337696721
 30
0.0
 10
9.895646521711349
 20
-12.3546677818233
 30
0.0
 10
10.12178129432595
 20
-12.19104261184584
 30
0.0
 10
10.56292674802315
 20
-11.80340906389538
 30
0.0
 10
10.77972133496671
 20
-11.57698679632346
 30
0.0
 10
11.18552043460533
 20
-11.07119162895907
 30
0.0
 10
11.37526865470019
 20
-10.79198381182498
 30
0.0
 10
11.72154923239884
 20
-10.17466568310059
 30
0.0
 10
11.87819988524544
 20
-9.834432396708147
 30
0.0
 10
12.07038974092737
 20
-9.294997802768608
 30
0.0
 10
12.12777768603319
 20
-9.109555384391697
 30
0.0
 10
12.22767150634284
 20
-8.726470577400995
 30
0.0
 10
12.27008122082613
 20
-8.528519990661856
 30
0.0
 10
12.36985452249046
 20
-7.931063518398774
 30
0.0
 10
12.40144415798703
 20
-7.523080898287605
 30
0.0
 10
12.39482488332007
 20
-7.104698490107538
 30
0.0
  0
SPLINE
  5
16B
330
23
100
AcDbEntity
  8
0
  6
Continuous
 62
     7
370
    25
100
AcDbSpline
210
0.0
220
0.0
230
1.0
 70
     8
 71
     3
 72
    20
 73
    16
 74
     0
 42
0.000000001
 43
0.00000001
 40
0.0
 40
0.0
 40
0.0
 40
0.0
 40
0.0625000000000001
 40
0.0625000000000001
 40
0.1250000000000002
 40
0.1250000000000002
 40
0.2499999999999998
 40
0.2499999999999998
 40
0.3749999999999994
 40
0.3749999999999994
 40
0.499999999999999
 40
0.499999999999999
 40
0.7499999999999994
 40
0.7499999999999994
 40
1.0
 40
1.0
 40
1.0
 40
1.0
 10
10.21394499143456
 20
-7.104698490107534
 30
0.0
 10
10.21814495601485
 20
-7.244100316999541
 30
0.0
 10
10.20395906661531
 20
-7.380011988167523
 30
0.0
 10
10.14285420074407
 20
-7.645594166612386
 30
0.0
 10
10.0959437057228
 20
-7.773882614407618
 30
0.0
 10
9.920544853925662
 20
-8.135582343341177
 30
0.0
 10
9.764490867873196
 20
-8.339394393282017
 30
0.0
 10
9.41304994167675
 20
-8.704653518951035
 30
0.0
 10
9.219309293439114
 20
-8.8623904478143
 30
0.0
 10
8.81905455309131
 20
-9.139625407128648
 30
0.0
 10
8.61044719562168
 20
-9.260372133133487
 30
0.0
 10
7.968951101171077
 20
-9.580208345780932
 30
0.0
 10
7.530029307225824
 20
-9.733812591771546
 30
0.0
 10
6.644712206286898
 20
-9.944823564061913
 30
0.0
 10
6.20512856648417
 20
-10.00000000000002
 30
0.0
 10
5.769616283307569
 20
-10.00000000000003
 30
0.0
  0
LWPOLYLINE
  5
16C
330
23
100
AcDbEntity
  8
0
  6
Continuous
 62
     7
370
    25
100
AcDbPolyline
 90
        3
 70
   128
 43
0.0
 10
-84.5011154371
 20
-2.4329070804
 10
-87.034376111
 20
-0.1815174361
 10
-87.2151898581
 20
0.0
  0
LWPOLYLINE
  5
175
330
23
100
AcDbEntity
  8
0
  6
Continuous
 62
     8
370
    25
100
AcDbPolyline
 90
        3
 70
   128
 43
0.0
 10
10.2139449914
 20
-7.1046984901
 10
10.1074157169
 20
-0.0203856358
 10
10.1071102627
 20
0.0
  0
LINE
  5
176
330
23
100
AcDbEntity
  8
0
  6
Continuous
 62
     7
370
    25
100
AcDbLine
 10
2.2518984617
 20
-12.8953015099
 30
0.0
 11
2.3988938434
 21
-17.1046984901
 31
0.0
  0
LINE
  5
177
330
23
100
AcDbEntity
  8
0
  6
Continuous
 62
     7
370
    25
100
AcDbLine
 10
77.6011061566
 20
-17.1046984901
 30
0.0
 11
78.1984153898
 21
0.0
 31
0.0
  0
LINE
  5
178
330
23
100
AcDbEntity
  8
0
  6
Continuous
 62
     7
370
    25
100
AcDbLine
 10
182.0
 20
0.0
 30
0.0
 11
-182.0
 21
0.0
 31
0.0
  0
LINE
  5
179
330
23
100
AcDbEntity
  8
0
  6
Continuous
 62
     7
370
    25
100
AcDbLine
 10
-185.0
 20
3.0
 30
0.0
 11
185.0
 21
3.0
 31
0.0
  0
LINE
  5
17A
330
23
100
AcDbEntity
  8
0
  6
Continuous
 62
     7
370
    25
100
AcDbLine
 10
-181.0
 20
125.0
 30
0.0
 11
-181.0
 21
0.0
 31
0.0
  0
LINE
  5
17B
330
23
100
AcDbEntity
  8
0
  6
Continuous
 62
     7
370
    25
100
AcDbLine
 10
181.0
 20
0.0
 30
0.0
 11
181.0
 21
125.0
 31
0.0
  0
LINE
  5
17C
330
23
100
AcDbEntity
  8
0
  6
Continuous
 62
     7
370
    25
100
AcDbLine
 10
185.0
 20
125.0
 30
0.0
 11
-185.0
 21
125.0
 31
0.0
  0
LINE
  5
17D
330
23
100
AcDbEntity
  8
0
  6
Continuous
 62
     7
370
    25
100
AcDbLine
 10
-185.0
 20
3.0
 30
0.0
 11
-185.0
 21
125.0
 31
0.0
  0
LINE
  5
17E
330
23
100
AcDbEntity
  8
0
  6
Continuous
 62
     7
370
    25
100
AcDbLine
 10
185.0
 20
125.0
 30
0.0
 11
185.0
 21
3.0
 31
0.0
  0
LINE
  5
17F
330
23
100
AcDbEntity
  8
0
  6
Continuous
 62
     7
370
    25
100
AcDbLine
 10
-180.0
 20
130.0
 30
0.0
 11
180.0
 21
130.0
 31
0.0
  0
LINE
  5
180
330
23
100
AcDbEntity
  8
0
  6
Continuous
 62
     7
370
    25
100
AcDbLine
 10
74.6029336529
 20
-20.0
 30
0.0
 11
5.3970663244
 21
-20.0
 31
0.0
  0
LINE
  5
181
330
23
100
AcDbEntity
  8
0
  6
Continuous
 62
     7
370
    25
100
AcDbLine
 10
-62.7655314993
 20
-7.1046984901
 30
0.0
 11
10.2139449914
 21
-7.1046984901
 31
0.0
  0
LINE
  5
182
330
23
100
AcDbEntity
  8
0
  6
Continuous
 62
     7
370
    25
100
AcDbLine
 10
-62.7655314993
 20
-10.0
 30
0.0
 11
-62.7655314993
 21
-7.1046984901
 31
0.0
  0
LINE
  5
183
330
23
100
AcDbEntity
  8
0
  6
Continuous
 62
     7
370
    25
100
AcDbLine
 10
5.7696162833
 20
-10.0
 30
0.0
 11
-62.7655314993
 21
-10.0
 31
0.0
  0
LINE
  5
184
330
23
100
AcDbEntity
  8
0
  6
Continuous
 62
     8
370
    25
100
AcDbLine
 10
8.288339699
 20
-12.8953015099
 30
0.0
 11
2.2518984617
 21
-12.8953015099
 31
0.0
  0
LINE
  5
185
330
23
100
AcDbEntity
  8
0
  6
Continuous
 62
     8
370
    25
100
AcDbLine
 10
12.2826633429
 20
0.0
 30
0.0
 11
12.3948248833
 21
-7.1046984901
 31
0.0
  0
LINE
  5
186
330
23
100
AcDbEntity
  8
0
  6
Continuous
 62
     8
370
    25
100
AcDbLine
 10
2.3988938434
 20
-17.1046984901
 30
0.0
 11
77.6011061566
 21
-17.1046984901
 31
0.0
  0
LINE
  5
187
330
23
100
AcDbEntity
  8
0
  6
Continuous
 62
     8
370
    25
100
AcDbLine
 10
-82.8704448616
 20
0.0
 30
0.0
 11
-82.6380653853
 21
-0.1862135351
 31
0.0
  0
ARC
  5
188
330
23
100
AcDbEntity
  8
0
  6
Continuous
 62
     7
370
    25
100
AcDbCircle
 10
74.6029336756
 20
-17.0
 30
0.0
 40
2.999999999999996
100
AcDbArc
 50
270.0
 51
358.0
  0
ARC
  5
189
330
23
100
AcDbEntity
  8
0
  6
Continuous
 62
     7
370
    25
100
AcDbCircle
 10
5.3970663244
 20
-17.0
 30
0.0
 40
3.000000000000007
100
AcDbArc
 50
182.0
 51
270.0
  0
ARC
  5
18A
330
23
100
AcDbEntity
  8
0
  6
Continuous
 62
     7
370
    25
100
AcDbCircle
 10
-0.7462740193
 20
-13.0
 30
0.0
 40
2.999999999999999
100
AcDbArc
 50
2.0
 51
90.0
  0
ARC
  5
18B
330
23
100
AcDbEntity
  8
0
  6
Continuous
 62
     7
370
    25
100
AcDbCircle
 10
-182.0
 20
3.0
 30
0.0
 40
3.000000000000057
100
AcDbArc
 50
180.0
 51
270.0
  0
ARC
  5
18C
330
23
100
AcDbEntity
  8
0
  6
Continuous
 62
     7
370
    25
100
AcDbCircle
 10
182.0
 20
3.0
 30
0.0
 40
3.000000000000032
100
AcDbArc
 50
270.0
 51
0.0
  0
ARC
  5
18D
330
23
100
AcDbEntity
  8
0
  6
Continuous
 62
     7
370
    25
100
AcDbCircle
 10
-180.0
 20
125.0
 30
0.0
 40
5.000000000000057
100
AcDbArc
 50
90.0
 51
180.0
  0
ARC
  5
18E
330
23
100
AcDbEntity
  8
0
  6
Continuous
 62
     7
370
    25
100
AcDbCircle
 10
180.0
 20
125.0
 30
0.0
 40
5.000000000000028
100
AcDbArc
 50
0.0
 51
90.0
  0
ARC
  5
18F
330
23
100
AcDbEntity
  8
0
  6
Continuous
 62
     7
370
    25
100
AcDbCircle
 10
-62.7655314993
 20
24.8953015099
 30
0.0
 40
31.99999999999994
100
AcDbArc
 50
231.60958381
 51
270.0
  0
ARC
  5
190
330
23
100
AcDbEntity
  8
0
  6
Continuous
 62
     7
370
    25
100
AcDbCircle
 10
11.3043849374
 20
-70.0586107299
 30
0.0
 40
62.9633554185715
100
AcDbArc
 50
89.007665174
 51
90.992334826
  0
ARC
  5
191
330
23
100
AcDbEntity
  8
0
  6
Continuous
 62
     7
370
    25
100
AcDbCircle
 10
5.5191945939
 20
-12.7610638079
 30
0.0
 40
2.772396864395622
100
AcDbArc
 50
357.2246894646
 51
84.8175930622
  0
ARC
  5
192
330
23
100
AcDbEntity
  8
0
  6
Continuous
 62
     7
370
    25
100
AcDbCircle
 10
-109.240722514
 20
19.9779909443
 30
0.0
 40
33.38108009928381
100
AcDbArc
 50
317.8274749645
 51
322.8387065503
  0
ARC
  5
193
330
23
100
AcDbEntity
  8
0
  6
Continuous
 62
     7
370
    25
100
AcDbCircle
 10
-62.7655314993
 20
25.0
 30
0.0
 40
35.00000000000001
100
AcDbArc
 50
231.60958381
 51
270.0
  0
VIEWPORT
  5
34B
330
23
100
AcDbEntity
  8
0
100
AcDbViewport
 10
0.0
 20
0.0
 30
0.0
 40
205.6
 41
156.0
 68
     1
 69
     1
 12
0.0
 22
0.0
 13
0.0
 23
0.0
 14
10.0
 24
10.0
 15
10.0
 25
10.0
 16
0.0
 26
0.0
 36
1.0
 17
0.0
 27
0.0
 37
0.0
 42
50.0
 43
0.0
 44
0.0
 45
386.9649805447
 50
0.0
 51
0.0
 72
   100
 90
   557152
  1

281
     0
 71
     1
 74
     0
110
0.0
120
0.0
130
0.0
111
1.0
121
0.0
131
0.0
112
0.0
122
1.0
132
0.0
 79
     0
146
0.0
  0
ENDBLK
  5
25
330
23
100
AcDbEntity
  8
0
100
AcDbBlockEnd
  0
BLOCK
  5
196
330
194
100
AcDbEntity
  8
0
100
AcDbBlockBegin
  2
*Paper_Space1
 70
     0
 10
0.0
 20
0.0
 30
0.0
  3
*Paper_Space1
  1

  0
LWPOLYLINE
  5
1AA
330
194
100
AcDbEntity
  8
0
  6
Continuous
 62
     7
370
    25
100
AcDbPolyline
 90
        9
 70
   128
 43
0.0
 10
-180.0
 20
3.0
 10
-180.0
 20
2.6084211944
 10
-180.0
 20
2.2235424185
 10
-180.0
 20
1.8519490628
 10
-180.0
 20
1.4999992
 10
-180.0
 20
1.1737147968
 10
-180.0
 20
0.8786786766
 10
-180.0
 20
0.619938995
 10
-180.0000018629
 20
0.4019228648
  0
SPLINE
  5
1AB
330
194
100
AcDbEntity
  8
0
  6
Continuous
 62
     7
370
    25
100
AcDbSpline
210
0.0
220
0.0
230
1.0
 70
     8
 71
     3
 72
    12
 73
     8
 74
     0
 42
0.000000001
 43
0.00000001
 40
0.0
 40
0.0
 40
0.0
 40
0.0
 40
0.25
 40
0.25
 40
0.5
 40
0.5
 40
1.0
 40
1.0
 40
1.0
 40
1.0
 10
-182.2261305374773
 20
0.1015303943331103
 30
0.0
 10
-182.0845962871964
 20
0.139318968682578
 30
0.0
 10
-181.9206377333727
 20
0.1781455653305161
 30
0.0
 10
-181.5645776468225
 20
0.2478176328989355
 30
0.0
 10
-181.3754329089275
 20
0.2780411513458036
 30
0.0
 10
-180.8003561006184
 20
0.3517297233895655
 30
0.0
 10
-180.3969272726804
 20
0.3791678928318255
 30
0.0
 10
-180.0
 20
0.4019237886466881
 30
0.0
  0
SPLINE
  5
1B3
330
194
100
AcDbEntity
  8
0
  6
Continuous
 62
     7
370
    25
100
AcDbSpline
210
0.0
220
0.0
230
1.0
 70
     8
 71
     3
 72
    14
 73
    10
 74
     0
 42
0.000000001
 43
0.00000001
 40
0.0
 40
0.0
 40
0.0
 40
0.0
 40
0.25
 40
0.25
 40
0.5
 40
0.5
 40
0.75
 40
0.75
 40
1.0
 40
1.0
 40
1.0
 40
1.0
 10
-180.0000018629462
 20
0.4019228648370621
 30
0.0
 10
-180.1080081712718
 20
0.3483640472081093
 30
0.0
 10
-180.2141438150053
 20
0.3026964408289548
 30
0.0
 10
-180.4174297857624
 20
0.2256734694374117
 30
0.0
 10
-180.5150847872174
 20
0.1942932444267513
 30
0.0
 10
-180.6849208382683
 20
0.1460868530310452
 30
0.0
 10
-180.7587762362794
 20
0.1287017108220004
 30
0.0
 10
-180.8639304051324
 20
0.1058362093891117
 30
0.0
 10
-180.8933120096692
 20
0.1004748505752176
 30
0.0
 10
-180.8933120096691
 20
0.1004748505752176
 30
0.0
  0
SPLINE
  5
1C4
330
194
100
AcDbEntity
  8
0
  6
Continuous
 62
     7
370
    25
100
AcDbSpline
210
0.0
220
0.0
230
1.0
 70
     8
 71
     3
 72
    12
 73
     8
 74
     0
 42
0.000000001
 43
0.00000001
 40
0.0
 40
0.0
 40
0.0
 40
0.0
 40
0.2499999999999917
 40
0.2499999999999917
 40
0.4999999999999833
 40
0.4999999999999833
 40
1.0
 40
1.0
 40
1.0
 40
1.0
 10
182.2261305374773
 20
0.1015303943331103
 30
0.0
 10
182.0840490742624
 20
0.1394650703971899
 30
0.0
 10
181.9197388839824
 20
0.1783447436955882
 30
0.0
 10
181.5635551596892
 20
0.247994286097758
 30
0.0
 10
181.3731329051489
 20
0.2783818415973138
 30
0.0
 10
180.7979564802386
 20
0.3519444090701075
 30
0.0
 10
180.3975121968124
 20
0.3791343590184536
 30
0.0
 10
180.0
 20
0.4019237886466985
 30
0.0
  0
LWPOLYLINE
  5
1C5
330
194
100
AcDbEntity
  8
0
  6
Continuous
 62
     7
370
    25
100
AcDbPolyline
 90
        9
 70
   128
 43
0.0
 10
180.0000018631
 20
0.4019228647
 10
180.0000018472
 20
0.6199389949
 10
180.0000017996
 20
0.8786786765
 10
180.0000017213
 20
1.1737147967
 10
180.0000016135
 20
1.4999991999
 10
180.0000014781
 20
1.8519490627
 10
180.0000013174
 20
2.2235424185
 10
180.0000011342
 20
2.6084211943
 10
180.0
 20
3.0
  0
LWPOLYLINE
  5
1C6
330
194
100
AcDbEntity
  8
0
  6
Continuous
 62
     7
370
    25
100
AcDbPolyline
 90
        9
 70
   128
 43
0.0
 10
246.0
 20
125.0
 10
245.9807852804
 20
125.9754516101
 10
245.9238795325
 20
126.9134171618
 10
245.8314696123
 20
127.7778511651
 10
245.7071067812
 20
128.5355339059
 10
245.555570233
 20
129.1573480615
 10
245.3826834324
 20
129.6193976626
 10
245.195090322
 20
129.903926402
 10
245.0
 20
130.0
  0
SPLINE
  5
1C9
330
194
100
AcDbEntity
  8
0
  6
Continuous
 62
     7
370
    25
100
AcDbSpline
210
0.0
220
0.0
230
1.0
 70
     8
 71
     3
 72
    14
 73
    10
 74
     0
 42
0.000000001
 43
0.00000001
 40
0.0
 40
0.0
 40
0.0
 40
0.0
 40
0.25
 40
0.25
 40
0.5
 40
0.5
 40
0.75
 40
0.75
 40
1.0
 40
1.0
 40
1.0
 40
1.0
 10
180.8933120096691
 20
0.1004748505752176
 30
0.0
 10
180.8933120096692
 20
0.1004748505752176
 30
0.0
 10
180.8639304051409
 20
0.1058362093876372
 30
0.0
 10
180.7587762363165
 20
0.1287017108135315
 30
0.0
 10
180.6849208383228
 20
0.1460868530175768
 30
0.0
 10
180.5150847873106
 20
0.194293244398288
 30
0.0
 10
180.4174297858763
 20
0.2256734693989737
 30
0.0
 10
180.2141438151567
 20
0.3026964407668864
 30
0.0
 10
180.1080081714418
 20
0.3483640471318578
 30
0.0
 10
180.0000018631341
 20
0.4019228647438832
 30
0.0
  0
LWPOLYLINE
  5
1CB
330
194
100
AcDbEntity
  8
0
  6
Continuous
 62
     7
370
    25
100
AcDbPolyline
 90
        9
 70
   128
 43
0.0
 10
-245.0
 20
130.0
 10
-245.195090322
 20
129.903926402
 10
-245.3826834324
 20
129.6193976626
 10
-245.555570233
 20
129.1573480615
 10
-245.7071067812
 20
128.5355339059
 10
-245.8314696123
 20
127.7778511651
 10
-245.9238795325
 20
126.9134171618
 10
-245.9807852804
 20
125.9754516101
 10
-246.0
 20
125.0
  0
SPLINE
  5
1EB
330
194
100
AcDbEntity
  8
0
  6
Continuous
 62
     7
370
    25
100
AcDbSpline
210
0.0
220
0.0
230
1.0
 70
    24
 71
     3
 72
    10
 73
     6
 74
     0
 42
0.000000001
 43
0.00000001
 40
0.0
 40
0.0
 40
0.0
 40
0.0
 40
0.0036838566446889
 40
0.8114285709080956
 40
1.0
 40
1.0
 40
1.0
 40
1.0
 10
-169.9999999999999
 20
10.0
 30
0.0
 10
-170.0057216920156
 20
10.0
 30
0.0
 10
-171.2660162211393
 20
10.00000000000008
 30
0.0
 10
-172.8657023679005
 20
9.999999999999996
 30
0.0
 10
-174.2842100676978
 20
10.0
 30
0.0
 10
-174.5526891302048
 20
10.0
 30
0.0
  0
SPLINE
  5
1EC
330
194
100
AcDbEntity
  8
0
  6
Continuous
 62
     7
370
    25
100
AcDbSpline
210
0.0
220
0.0
230
1.0
 70
    24
 71
     3
 72
    10
 73
     6
 74
     0
 42
0.000000001
 43
0.00000001
 40
0.0
 40
0.0
 40
0.0
 40
0.0
 40
0.2110420915049933
 40
0.9964236685385622
 40
0.9999999999999999
 40
0.9999999999999999
 40
0.9999999999999999
 40
0.9999999999999999
 10
174.6822147631155
 20
10.0
 30
0.0
 10
174.3729877529355
 20
10.0
 30
0.0
 10
172.9129893720555
 20
9.999999999999995
 30
0.0
 10
171.2679610402615
 20
10.00000000000005
 30
0.0
 10
170.0057217073175
 20
10.0
 30
0.0
 10
169.9999999999999
 20
10.0
 30
0.0
  0
LWPOLYLINE
  5
1F4
330
194
100
AcDbEntity
  8
0
  6
Continuous
 62
     7
370
    25
100
AcDbPolyline
 90
        9
 70
   128
 43
0.0
 10
-20.4765663796
 20
-12.8953015099
 10
-20.5172841332
 20
-12.325146837
 10
-20.6162675831
 20
-11.7797900708
 10
-20.7698795198
 20
-11.2792706909
 10
-20.9724753754
 20
-10.841980599
 10
-21.2166106369
 20
-10.4839882962
 10
-21.4933143996
 20
-10.2184484363
 10
-21.7924190086
 20
-10.0551184497
 10
-22.1029336756
 20
-10.0
  0
LWPOLYLINE
  5
1F5
330
194
100
AcDbEntity
  8
0
  6
Continuous
 62
     7
370
    25
100
AcDbPolyline
 90
        9
 70
   128
 43
0.0
 10
20.4765663796
 20
-12.8953015099
 10
20.5172841332
 20
-12.325146837
 10
20.6162675831
 20
-11.7797900708
 10
20.7698795198
 20
-11.2792706909
 10
20.9724753754
 20
-10.841980599
 10
21.2166106369
 20
-10.4839882962
 10
21.4933143996
 20
-10.2184484363
 10
21.7924190086
 20
-10.0551184497
 10
22.1029336756
 20
-10.0
  0
SPLINE
  5
1F6
330
194
100
AcDbEntity
  8
0
  6
Continuous
 62
     7
370
    25
100
AcDbSpline
210
0.0
220
0.0
230
1.0
 70
     8
 71
     3
 72
    24
 73
    20
 74
     0
 42
0.000000001
 43
0.00000001
 40
0.0
 40
0.0
 40
0.0
 40
0.0
 40
0.0625
 40
0.0625
 40
0.125
 40
0.125
 40
0.2500000000000001
 40
0.2500000000000001
 40
0.3750000000000002
 40
0.3750000000000002
 40
0.5000000000000003
 40
0.5000000000000003
 40
0.6250000000000004
 40
0.6250000000000004
 40
0.6875000000000007
 40
0.6875000000000007
 40
0.7500000000000009
 40
0.7500000000000009
 40
1.0
 40
1.0
 40
1.0
 40
1.0
 10
-26.04190139388544
 20
-7.104698490107534
 30
0.0
 10
-26.03475135721397
 20
-7.314263527202873
 30
0.0
 10
-26.01748442992589
 20
-7.522394396793648
 30
0.0
 10
-25.96299182289072
 20
-7.935833619186885
 30
0.0
 10
-25.92563498767511
 20
-8.141061239977091
 30
0.0
 10
-25.78690134843952
 20
-8.739699618144009
 30
0.0
 10
-25.65802891860652
 20
-9.122276448384335
 30
0.0
 10
-25.33487351688557
 20
-9.84821942414639
 30
0.0
 10
-25.14533602889199
 20
-10.18188196789973
 30
0.0
 10
-24.71601310132716
 20
-10.79942077363683
 30
0.0
 10
-24.47406471267469
 20
-11.08437412581573
 30
0.0
 10
-23.96091318910604
 20
-11.58689100126275
 30
0.0
 10
-23.68781391341028
 20
-11.80777602896207
 30
0.0
 10
-23.25355380077808
 20
-12.09688726176913
 30
0.0
 10
-23.10466970607691
 20
-12.18615894613476
 30
0.0
 10
-22.79833085787341
 20
-12.35036300442648
 30
0.0
 10
-22.64054644063664
 20
-12.42533229660515
 30
0.0
 10
-21.845516667291
 20
-12.75688364941503
 30
0.0
 10
-21.17865456723544
 20
-12.89530150989253
 30
0.0
 10
-20.4765663796316
 20
-12.89530150989253
 30
0.0
  0
SPLINE
  5
1F7
330
194
100
AcDbEntity
  8
0
  6
Continuous
 62
     7
370
    25
100
AcDbSpline
210
0.0
220
0.0
230
1.0
 70
     8
 71
     3
 72
    24
 73
    20
 74
     0
 42
0.000000001
 43
0.00000001
 40
0.0
 40
0.0
 40
0.0
 40
0.0
 40
0.1249999999999999
 40
0.1249999999999999
 40
0.2499999999999997
 40
0.2499999999999997
 40
0.3749999999999996
 40
0.3749999999999996
 40
0.4999999999999994
 40
0.4999999999999994
 40
0.6249999999999993
 40
0.6249999999999993
 40
0.7499999999999991
 40
0.7499999999999991
 40
0.8124999999999992
 40
0.8124999999999992
 40
0.8749999999999992
 40
0.8749999999999992
 40
1.0
 40
1.0
 40
1.0
 40
1.0
 10
20.4765663796316
 20
-12.89530150989253
 30
0.0
 10
20.8270199983079
 20
-12.89530150989253
 30
0.0
 10
21.16969064792023
 20
-12.85986436251585
 30
0.0
 10
21.84064313103385
 20
-12.72355036350045
 30
0.0
 10
22.17074088521496
 20
-12.62186337696721
 30
0.0
 10
22.80849810009742
 20
-12.3546677818233
 30
0.0
 10
23.1127991517356
 20
-12.19104261184584
 30
0.0
 10
23.69369022598103
 20
-11.80340906389538
 30
0.0
 10
23.97246781870716
 20
-11.57698679632346
 30
0.0
 10
24.48601795397979
 20
-11.07119162895907
 30
0.0
 10
24.72185456681641
 20
-10.79198381182498
 30
0.0
 10
25.14966560437297
 20
-10.17466568310059
 30
0.0
 10
25.34178799473849
 20
-9.834432396708147
 30
0.0
 10
25.58073581001131
 20
-9.294997802768608
 30
0.0
 10
25.65274036765392
 20
-9.109555384391697
 30
0.0
 10
25.78052191860811
 20
-8.726470577400995
 30
0.0
 10
25.83620909629649
 20
-8.528519990661856
 30
0.0
 10
25.97353537917287
 20
-7.931063518398774
 30
0.0
 10
26.02762682975659
 20
-7.523080898287605
 30
0.0
 10
26.04190139388544
 20
-7.104698490107538
 30
0.0
  0
LWPOLYLINE
  5
1F8
330
194
100
AcDbEntity
  8
0
  6
Continuous
 62
     7
370
    25
100
AcDbPolyline
 90
        3
 70
   128
 43
0.0
 10
26.5268406512
 20
7.1046984901
 10
26.3221836495
 20
1.1089314448
 10
26.0419013939
 20
-7.1046984901
  0
LWPOLYLINE
  5
1F9
330
194
100
AcDbEntity
  8
0
  6
Continuous
 62
     7
370
    25
100
AcDbPolyline
 90
        3
 70
   128
 43
0.0
 10
-26.0419013939
 20
-7.1046984901
 10
-26.2464920715
 20
-1.1089355945
 10
-26.5268406512
 20
7.1046984901
  0
SPLINE
  5
207
330
194
100
AcDbEntity
  8
0
  6
Continuous
 62
     8
370
    25
100
AcDbSpline
210
0.0
220
0.0
230
1.0
 70
     8
 71
     3
 72
    10
 73
     6
 74
     0
 42
0.000000001
 43
0.00000001
 40
0.0
 40
0.0
 40
0.0
 40
0.0
 40
0.3627528602298447
 40
0.9968692022396767
 40
1.0
 40
1.0
 40
1.0
 40
1.0
 10
-174.4020361628316
 20
10.54381136524353
 30
0.0
 10
-173.8904070083968
 20
10.42290251737252
 30
0.0
 10
-172.4844157594215
 20
10.09063688990227
 30
0.0
 10
-170.9616175195786
 20
10.00026468561439
 30
0.0
 10
-170.0047013330724
 20
10.00000129404384
 30
0.0
 10
-169.9999999999999
 20
10.0
 30
0.0
  0
SPLINE
  5
208
330
194
100
AcDbEntity
  8
0
  6
Continuous
 62
     8
370
    25
100
AcDbSpline
210
0.0
220
0.0
230
1.0
 70
     8
 71
     3
 72
    10
 73
     6
 74
     0
 42
0.000000001
 43
0.00000001
 40
0.0
 40
0.0
 40
0.0
 40
0.0
 40
0.0030342185721693
 40
0.6148080751648058
 40
1.0
 40
1.0
 40
1.0
 40
1.0
 10
169.9999999999999
 20
10.0
 30
0.0
 10
170.0047013397854
 20
10.00000127997933
 30
0.0
 10
170.9573095963994
 20
10.00026063559656
 30
0.0
 10
172.5271375255845
 20
10.09590442524629
 30
0.0
 10
173.9774960987736
 20
10.44011301070049
 30
0.0
 10
174.5378627842859
 20
10.57310289866436
 30
0.0
  0
LINE
  5
214
330
194
100
AcDbEntity
  8
0
  6
Continuous
 62
     7
370
    25
100
AcDbLine
 10
-38.4465169281
 20
7.1046984901
 30
0.0
 11
-37.6011061566
 21
-17.1046984901
 31
0.0
  0
LINE
  5
215
330
194
100
AcDbEntity
  8
0
  6
Continuous
 62
     7
370
    25
100
AcDbLine
 10
37.6011061566
 20
-17.1046984901
 30
0.0
 11
38.4465169281
 21
7.1046984901
 31
0.0
  0
LINE
  5
216
330
194
100
AcDbEntity
  8
0
  6
Continuous
 62
     7
370
    25
100
AcDbLine
 10
141.1863575413
 20
35.0
 30
0.0
 11
141.1863575413
 21
38.0
 31
0.0
  0
LINE
  5
217
330
194
100
AcDbEntity
  8
0
  6
Continuous
 62
     7
370
    25
100
AcDbLine
 10
176.0
 20
3.6069791736
 30
0.0
 11
178.9840264965
 21
3.9161488171
 31
0.0
  0
LINE
  5
218
330
194
100
AcDbEntity
  8
0
  6
Continuous
 62
     7
370
    25
100
AcDbLine
 10
-250.0
 20
3.0
 30
0.0
 11
-180.0
 21
3.0
 31
0.0
  0
LINE
  5
219
330
194
100
AcDbEntity
  8
0
  6
Continuous
 62
     7
370
    25
100
AcDbLine
 10
-246.0
 20
125.0
 30
0.0
 11
-246.0
 21
0.0
 31
0.0
  0
LINE
  5
21A
330
194
100
AcDbEntity
  8
0
  6
Continuous
 62
     7
370
    25
100
AcDbLine
 10
-38.1984153898
 20
0.0
 30
0.0
 11
-247.0
 21
0.0
 31
0.0
  0
LINE
  5
21B
330
194
100
AcDbEntity
  8
0
  6
Continuous
 62
     7
370
    25
100
AcDbLine
 10
141.1863575413
 20
35.0
 30
0.0
 11
-141.1863575413
 21
35.0
 31
0.0
  0
LINE
  5
21C
330
194
100
AcDbEntity
  8
0
  6
Continuous
 62
     7
370
    25
100
AcDbLine
 10
-141.1863575413
 20
35.0
 30
0.0
 11
-141.1863575413
 21
38.0
 31
0.0
  0
LINE
  5
21D
330
194
100
AcDbEntity
  8
0
  6
Continuous
 62
     7
370
    25
100
AcDbLine
 10
-141.1863575413
 20
38.0
 30
0.0
 11
141.1863575413
 21
38.0
 31
0.0
  0
LINE
  5
21E
330
194
100
AcDbEntity
  8
0
  6
Continuous
 62
     7
370
    25
100
AcDbLine
 10
-176.0
 20
3.6069791736
 30
0.0
 11
-178.9840264965
 21
3.9161488171
 31
0.0
  0
LINE
  5
21F
330
194
100
AcDbEntity
  8
0
  6
Continuous
 62
     7
370
    25
100
AcDbLine
 10
250.0
 20
125.0
 30
0.0
 11
-250.0
 21
125.0
 31
0.0
  0
LINE
  5
220
330
194
100
AcDbEntity
  8
0
  6
Continuous
 62
     7
370
    25
100
AcDbLine
 10
246.0
 20
0.0
 30
0.0
 11
246.0
 21
125.0
 31
0.0
  0
LINE
  5
221
330
194
100
AcDbEntity
  8
0
  6
Continuous
 62
     7
370
    25
100
AcDbLine
 10
180.0
 20
3.0
 30
0.0
 11
250.0
 21
3.0
 31
0.0
  0
LINE
  5
222
330
194
100
AcDbEntity
  8
0
  6
Continuous
 62
     7
370
    25
100
AcDbLine
 10
135.0
 20
70.0
 30
0.0
 11
145.0
 21
70.0
 31
0.0
  0
LINE
  5
223
330
194
100
AcDbEntity
  8
0
  6
Continuous
 62
     7
370
    25
100
AcDbLine
 10
-135.0
 20
90.0
 30
0.0
 11
-145.0
 21
90.0
 31
0.0
  0
LINE
  5
224
330
194
100
AcDbEntity
  8
0
  6
Continuous
 62
     7
370
    25
100
AcDbLine
 10
-145.0
 20
70.0
 30
0.0
 11
-135.0
 21
70.0
 31
0.0
  0
LINE
  5
225
330
194
100
AcDbEntity
  8
0
  6
Continuous
 62
     7
370
    25
100
AcDbLine
 10
145.0
 20
90.0
 30
0.0
 11
135.0
 21
90.0
 31
0.0
  0
LINE
  5
226
330
194
100
AcDbEntity
  8
0
  6
Continuous
 62
     7
370
    25
100
AcDbLine
 10
247.0
 20
0.0
 30
0.0
 11
38.1984153898
 21
0.0
 31
0.0
  0
LINE
  5
227
330
194
100
AcDbEntity
  8
0
  6
Continuous
 62
     7
370
    25
100
AcDbLine
 10
-245.0
 20
130.0
 30
0.0
 11
245.0
 21
130.0
 31
0.0
  0
LINE
  5
228
330
194
100
AcDbEntity
  8
0
  6
Continuous
 62
     7
370
    25
100
AcDbLine
 10
-250.0
 20
3.0
 30
0.0
 11
-250.0
 21
125.0
 31
0.0
  0
LINE
  5
229
330
194
100
AcDbEntity
  8
0
  6
Continuous
 62
     7
370
    25
100
AcDbLine
 10
250.0
 20
125.0
 30
0.0
 11
250.0
 21
3.0
 31
0.0
  0
LINE
  5
22A
330
194
100
AcDbEntity
  8
0
  6
Continuous
 62
     7
370
    25
100
AcDbLine
 10
-23.0868354655
 20
21.1857328167
 30
0.0
 11
-22.3445324939
 21
-2.4329070804
 31
0.0
  0
LINE
  5
22B
330
194
100
AcDbEntity
  8
0
  6
Continuous
 62
     7
370
    25
100
AcDbLine
 10
-23.0868354655
 20
21.1857328167
 30
0.0
 11
23.0868354655
 21
21.1857328167
 31
0.0
  0
LINE
  5
22C
330
194
100
AcDbEntity
  8
0
  6
Continuous
 62
     7
370
    25
100
AcDbLine
 10
22.3445324939
 20
-2.4329070804
 30
0.0
 11
23.0868354655
 21
21.1857328167
 31
0.0
  0
LINE
  5
22D
330
194
100
AcDbEntity
  8
0
  6
Continuous
 62
     7
370
    25
100
AcDbLine
 10
22.3445324939
 20
-2.4329070804
 30
0.0
 11
-22.3445324939
 21
-2.4329070804
 31
0.0
  0
LINE
  5
22E
330
194
100
AcDbEntity
  8
0
  6
Continuous
 62
     7
370
    25
100
AcDbLine
 10
26.5714346271
 20
35.0
 30
0.0
 11
25.1011061566
 21
-7.1046984901
 31
0.0
  0
LINE
  5
22F
330
194
100
AcDbEntity
  8
0
  6
Continuous
 62
     7
370
    25
100
AcDbLine
 10
-25.1011061566
 20
-7.1046984901
 30
0.0
 11
-26.5714346271
 21
35.0
 31
0.0
  0
LINE
  5
230
330
194
100
AcDbEntity
  8
0
  6
Continuous
 62
     7
370
    25
100
AcDbLine
 10
-22.3445324939
 20
-2.4329070804
 30
0.0
 11
-22.1029336756
 21
-10.0
 31
0.0
  0
LINE
  5
231
330
194
100
AcDbEntity
  8
0
  6
Continuous
 62
     7
370
    25
100
AcDbLine
 10
22.1029336756
 20
-10.0
 30
0.0
 11
22.3445324939
 21
-2.4329070804
 31
0.0
  0
LINE
  5
232
330
194
100
AcDbEntity
  8
0
  6
Continuous
 62
     7
370
    25
100
AcDbLine
 10
22.1029336756
 20
-10.0
 30
0.0
 11
-22.1029336756
 21
-10.0
 31
0.0
  0
LINE
  5
233
330
194
100
AcDbEntity
  8
0
  6
Continuous
 62
     7
370
    25
100
AcDbLine
 10
29.3566243397
 20
28.9532808751
 30
0.0
 11
28.5954817143
 21
10.0
 31
0.0
  0
LINE
  5
234
330
194
100
AcDbEntity
  8
0
  6
Continuous
 62
     7
370
    25
100
AcDbLine
 10
-28.5954817143
 20
10.0
 30
0.0
 11
-29.3566243397
 21
28.9532808751
 31
0.0
  0
LINE
  5
235
330
194
100
AcDbEntity
  8
0
  6
Continuous
 62
     7
370
    25
100
AcDbLine
 10
170.0
 20
10.0
 30
0.0
 11
28.5954817143
 21
10.0
 31
0.0
  0
LINE
  5
236
330
194
100
AcDbEntity
  8
0
  6
Continuous
 62
     7
370
    25
100
AcDbLine
 10
-28.5954817143
 20
10.0
 30
0.0
 11
-170.0
 21
10.0
 31
0.0
  0
LINE
  5
237
330
194
100
AcDbEntity
  8
0
  6
Continuous
 62
     7
370
    25
100
AcDbLine
 10
20.4765663796
 20
-12.8953015099
 30
0.0
 11
-20.4765663796
 21
-12.8953015099
 31
0.0
  0
LINE
  5
238
330
194
100
AcDbEntity
  8
0
  6
Continuous
 62
     7
370
    25
100
AcDbLine
 10
34.6029336756
 20
-20.0
 30
0.0
 11
-34.6029336756
 21
-20.0
 31
0.0
  0
LINE
  5
239
330
194
100
AcDbEntity
  8
0
  6
Continuous
 62
     8
370
    25
100
AcDbLine
 10
-23.5692403055
 20
35.0
 30
0.0
 11
-23.0868354655
 21
21.1857328167
 31
0.0
  0
LINE
  5
23A
330
194
100
AcDbEntity
  8
0
  6
Continuous
 62
     8
370
    25
100
AcDbLine
 10
23.0868354655
 20
21.1857328167
 30
0.0
 11
23.5692403055
 21
35.0
 31
0.0
  0
LINE
  5
23B
330
194
100
AcDbEntity
  8
0
  6
Continuous
 62
     8
370
    25
100
AcDbLine
 10
-170.0
 20
19.8689206618
 30
0.0
 11
-170.0
 21
10.0
 31
0.0
  0
LINE
  5
23C
330
194
100
AcDbEntity
  8
0
  6
Continuous
 62
     8
370
    25
100
AcDbLine
 10
170.0
 20
10.0
 30
0.0
 11
170.0
 21
19.8689206618
 31
0.0
  0
LINE
  5
23D
330
194
100
AcDbEntity
  8
0
  6
Continuous
 62
     8
370
    25
100
AcDbLine
 10
-29.3566243397
 20
28.9532808751
 30
0.0
 11
-29.5677804244
 21
35.0
 31
0.0
  0
LINE
  5
23E
330
194
100
AcDbEntity
  8
0
  6
Continuous
 62
     8
370
    25
100
AcDbLine
 10
29.5677804244
 20
35.0
 30
0.0
 11
29.3566243397
 21
28.9532808751
 31
0.0
  0
LINE
  5
23F
330
194
100
AcDbEntity
  8
0
  6
Continuous
 62
     8
370
    25
100
AcDbLine
 10
29.3566243397
 20
28.9532808751
 30
0.0
 11
160.8512380791
 21
28.9532808751
 31
0.0
  0
LINE
  5
240
330
194
100
AcDbEntity
  8
0
  6
Continuous
 62
     8
370
    25
100
AcDbLine
 10
-160.8512380791
 20
28.9532808751
 30
0.0
 11
-29.3566243397
 21
28.9532808751
 31
0.0
  0
LINE
  5
241
330
194
100
AcDbEntity
  8
0
  6
Continuous
 62
     8
370
    25
100
AcDbLine
 10
-26.5268406512
 20
7.1046984901
 30
0.0
 11
-38.4465169281
 21
7.1046984901
 31
0.0
  0
LINE
  5
242
330
194
100
AcDbEntity
  8
0
  6
Continuous
 62
     8
370
    25
100
AcDbLine
 10
38.4465169281
 20
7.1046984901
 30
0.0
 11
26.5268406512
 21
7.1046984901
 31
0.0
  0
LINE
  5
243
330
194
100
AcDbEntity
  8
0
  6
Continuous
 62
     8
370
    25
100
AcDbLine
 10
-37.6011061566
 20
-17.1046984901
 30
0.0
 11
37.6011061566
 21
-17.1046984901
 31
0.0
  0
LINE
  5
244
330
194
100
AcDbEntity
  8
0
  6
Continuous
 62
     8
370
    25
100
AcDbLine
 10
-176.1104663418
 20
3.0
 30
0.0
 11
-38.3031776983
 21
3.0
 31
0.0
  0
LINE
  5
245
330
194
100
AcDbEntity
  8
0
  6
Continuous
 62
     8
370
    25
100
AcDbLine
 10
38.3031776983
 20
3.0
 30
0.0
 11
176.1104663418
 21
3.0
 31
0.0
  0
ARC
  5
246
330
194
100
AcDbEntity
  8
0
  6
Continuous
 62
     7
370
    25
100
AcDbCircle
 10
34.6029336756
 20
-17.0
 30
0.0
 40
3.000000000000004
100
AcDbArc
 50
270.0
 51
358.0
  0
ARC
  5
247
330
194
100
AcDbEntity
  8
0
  6
Continuous
 62
     7
370
    25
100
AcDbCircle
 10
-34.6029336756
 20
-17.0
 30
0.0
 40
3.000000000000011
100
AcDbArc
 50
182.0
 51
270.0
  0
ARC
  5
248
330
194
100
AcDbEntity
  8
0
  6
Continuous
 62
     7
370
    25
100
AcDbCircle
 10
-41.4446894092
 20
7.0
 30
0.0
 40
3.000000000000002
100
AcDbArc
 50
2.0
 51
90.0
  0
ARC
  5
249
330
194
100
AcDbEntity
  8
0
  6
Continuous
 62
     7
370
    25
100
AcDbCircle
 10
41.4446894092
 20
7.0
 30
0.0
 40
2.999999999999996
100
AcDbArc
 50
90.0
 51
178.0
  0
ARC
  5
24A
330
194
100
AcDbEntity
  8
0
  6
Continuous
 62
     7
370
    25
100
AcDbCircle
 10
141.1863575413
 20
0.0
 30
0.0
 40
34.99999999999999
100
AcDbArc
 50
5.9152074822
 51
90.0
  0
ARC
  5
24B
330
194
100
AcDbEntity
  8
0
  6
Continuous
 62
     7
370
    25
100
AcDbCircle
 10
141.1863575413
 20
0.0
 30
0.0
 40
38.00000000000008
100
AcDbArc
 50
5.9152074822
 51
90.0
  0
ARC
  5
24C
330
194
100
AcDbEntity
  8
0
  6
Continuous
 62
     7
370
    25
100
AcDbCircle
 10
-247.0
 20
3.0
 30
0.0
 40
3.000000000000057
100
AcDbArc
 50
180.0
 51
270.0
  0
ARC
  5
24D
330
194
100
AcDbEntity
  8
0
  6
Continuous
 62
     7
370
    25
100
AcDbCircle
 10
-183.0
 20
3.0
 30
0.0
 40
3.000000000000241
100
AcDbArc
 50
270.0
 51
284.9488418222
  0
ARC
  5
24E
330
194
100
AcDbEntity
  8
0
  6
Continuous
 62
     7
370
    25
100
AcDbCircle
 10
-141.1863575413
 20
0.0
 30
0.0
 40
35.00000000000009
100
AcDbArc
 50
90.0
 51
174.0847925178
  0
ARC
  5
24F
330
194
100
AcDbEntity
  8
0
  6
Continuous
 62
     7
370
    25
100
AcDbCircle
 10
-141.1863575413
 20
0.0
 30
0.0
 40
38.00000000000008
100
AcDbArc
 50
90.0
 51
174.0847925178
  0
ARC
  5
250
330
194
100
AcDbEntity
  8
0
  6
Continuous
 62
     7
370
    25
100
AcDbCircle
 10
-180.0
 20
4.021412013
 30
0.0
 40
1.021412013010187
100
AcDbArc
 50
270.0
 51
354.0847925178
  0
ARC
  5
251
330
194
100
AcDbEntity
  8
0
  6
Continuous
 62
     7
370
    25
100
AcDbCircle
 10
-180.0
 20
4.021412013
 30
0.0
 40
4.021412013010203
100
AcDbArc
 50
257.1653084456
 51
354.0847925178
  0
ARC
  5
252
330
194
100
AcDbEntity
  8
0
  6
Continuous
 62
     7
370
    25
100
AcDbCircle
 10
180.0
 20
4.021412013
 30
0.0
 40
1.021412013010208
100
AcDbArc
 50
185.9152074822
 51
270.0
  0
ARC
  5
253
330
194
100
AcDbEntity
  8
0
  6
Continuous
 62
     7
370
    25
100
AcDbCircle
 10
145.0
 20
80.0
 30
0.0
 40
10.0
100
AcDbArc
 50
270.0
 51
90.0
  0
ARC
  5
254
330
194
100
AcDbEntity
  8
0
  6
Continuous
 62
     7
370
    25
100
AcDbCircle
 10
-145.0
 20
80.0
 30
0.0
 40
10.0
100
AcDbArc
 50
90.0
 51
270.0
  0
ARC
  5
255
330
194
100
AcDbEntity
  8
0
  6
Continuous
 62
     7
370
    25
100
AcDbCircle
 10
-135.0
 20
80.0
 30
0.0
 40
10.0
100
AcDbArc
 50
270.0
 51
90.0
  0
ARC
  5
256
330
194
100
AcDbEntity
  8
0
  6
Continuous
 62
     7
370
    25
100
AcDbCircle
 10
135.0
 20
80.0
 30
0.0
 40
10.0
100
AcDbArc
 50
90.0
 51
270.0
  0
ARC
  5
257
330
194
100
AcDbEntity
  8
0
  6
Continuous
 62
     7
370
    25
100
AcDbCircle
 10
183.0
 20
3.0
 30
0.0
 40
3.000000000000243
100
AcDbArc
 50
255.0511581778
 51
270.0
  0
ARC
  5
258
330
194
100
AcDbEntity
  8
0
  6
Continuous
 62
     7
370
    25
100
AcDbCircle
 10
245.0
 20
125.0
 30
0.0
 40
5.0
100
AcDbArc
 50
0.0
 51
90.0
  0
ARC
  5
259
330
194
100
AcDbEntity
  8
0
  6
Continuous
 62
     7
370
    25
100
AcDbCircle
 10
180.0
 20
4.021412013
 30
0.0
 40
4.021412013010255
100
AcDbArc
 50
185.9152074822
 51
282.8346915544
  0
ARC
  5
25A
330
194
100
AcDbEntity
  8
0
  6
Continuous
 62
     7
370
    25
100
AcDbCircle
 10
247.0
 20
3.0
 30
0.0
 40
3.000000000000057
100
AcDbArc
 50
270.0
 51
0.0
  0
ARC
  5
25B
330
194
100
AcDbEntity
  8
0
  6
Continuous
 62
     7
370
    25
100
AcDbCircle
 10
-245.0
 20
125.0
 30
0.0
 40
5.000000000000057
100
AcDbArc
 50
90.0
 51
180.0
  0
ARC
  5
25C
330
194
100
AcDbEntity
  8
0
  6
Continuous
 62
     7
370
    25
100
AcDbCircle
 10
181.5597286863
 20
-2.8245702453
 30
0.0
 40
3.000000000000472
100
AcDbArc
 50
76.1107907638
 51
102.8346915544
  0
ARC
  5
25D
330
194
100
AcDbEntity
  8
0
  6
Continuous
 62
     7
370
    25
100
AcDbCircle
 10
-181.5597286863
 20
-2.8245702453
 30
0.0
 40
2.999999999999921
100
AcDbArc
 50
77.1653084456
 51
103.8892092362
  0
ARC
  5
25E
330
194
100
AcDbEntity
  8
0
  6
Continuous
 62
     7
370
    25
100
AcDbCircle
 10
16.331957013
 20
-193.743036946
 30
0.0
 40
215.0348912493563
100
AcDbArc
 50
87.4004198986
 51
88.1998748965
  0
ARC
  5
25F
330
194
100
AcDbEntity
  8
0
  6
Continuous
 62
     7
370
    25
100
AcDbCircle
 10
22.6649383369
 20
0.2633676687
 30
0.0
 40
2.715245371396276
100
AcDbArc
 50
263.2231626919
 51
350.469265747
  0
ARC
  5
260
330
194
100
AcDbEntity
  8
0
  6
Continuous
 62
     7
370
    25
100
AcDbCircle
 10
-16.331957013
 20
-193.743036946
 30
0.0
 40
215.0348912493675
100
AcDbArc
 50
91.8001251035
 51
92.5995801014
  0
ARC
  5
261
330
194
100
AcDbEntity
  8
0
  6
Continuous
 62
     7
370
    25
100
AcDbCircle
 10
-22.6649383369
 20
0.2633676687
 30
0.0
 40
2.715245371396274
100
AcDbArc
 50
189.530734253
 51
276.7768373081
  0
ARC
  5
262
330
194
100
AcDbEntity
  8
0
  6
Continuous
 62
     7
370
    25
100
AcDbCircle
 10
-28.1080933597
 20
14.5662619014
 30
0.0
 40
14.44109222179321
100
AcDbArc
 50
83.0411106138
 51
94.9598032154
  0
ARC
  5
263
330
194
100
AcDbEntity
  8
0
  6
Continuous
 62
     7
370
    25
100
AcDbCircle
 10
28.1080933597
 20
14.5662619014
 30
0.0
 40
14.44109222179293
100
AcDbArc
 50
85.0401967846
 51
96.9588893862
  0
ARC
  5
264
330
194
100
AcDbEntity
  8
0
  6
Continuous
 62
     7
370
    25
100
AcDbCircle
 10
-22.1029336756
 20
-7.0
 30
0.0
 40
3.00000000000001
100
AcDbArc
 50
182.0
 51
270.0
  0
ARC
  5
265
330
194
100
AcDbEntity
  8
0
  6
Continuous
 62
     7
370
    25
100
AcDbCircle
 10
22.1029336756
 20
-7.0
 30
0.0
 40
3.000000000000004
100
AcDbArc
 50
270.0
 51
358.0
  0
ARC
  5
266
330
194
100
AcDbEntity
  8
0
  6
Continuous
 62
     7
370
    25
100
AcDbCircle
 10
28.5954817143
 20
7.0
 30
0.0
 40
3.000000000000005
100
AcDbArc
 50
90.0
 51
178.0
  0
ARC
  5
267
330
194
100
AcDbEntity
  8
0
  6
Continuous
 62
     7
370
    25
100
AcDbCircle
 10
-28.5954817143
 20
7.0
 30
0.0
 40
3.000000000000004
100
AcDbArc
 50
2.0
 51
90.0
  0
ARC
  5
268
330
194
100
AcDbEntity
  8
0
  6
Continuous
 62
     7
370
    25
100
AcDbCircle
 10
-25.5715037753
 20
-16.6376134321
 30
0.0
 40
9.54451367078599
100
AcDbArc
 50
87.1750555369
 51
92.8249444631
  0
ARC
  5
269
330
194
100
AcDbEntity
  8
0
  6
Continuous
 62
     7
370
    25
100
AcDbCircle
 10
25.5715037753
 20
-16.6376134321
 30
0.0
 40
9.54451367078592
100
AcDbArc
 50
87.1750555369
 51
92.8249444631
  0
ARC
  5
26A
330
194
100
AcDbEntity
  8
0
  6
Continuous
 62
     7
370
    25
100
AcDbCircle
 10
-29.1383931759
 20
7.4254452401
 30
0.0
 40
2.631175605528325
100
AcDbArc
 50
352.9980889429
 51
78.0921656064
  0
ARC
  5
26B
330
194
100
AcDbEntity
  8
0
  6
Continuous
 62
     7
370
    25
100
AcDbCircle
 10
29.1383931759
 20
7.4254452401
 30
0.0
 40
2.631175605528321
100
AcDbArc
 50
101.9078343936
 51
187.0019110571
  0
ARC
  5
26C
330
194
100
AcDbEntity
  8
0
  6
Continuous
 62
     7
370
    25
100
AcDbCircle
 10
-26.0620749422
 20
-2.3280307812
 30
0.0
 40
9.44417220666622
100
AcDbArc
 50
87.1792261741
 51
92.8207738259
  0
ARC
  5
26D
330
194
100
AcDbEntity
  8
0
  6
Continuous
 62
     7
370
    25
100
AcDbCircle
 10
26.0620749422
 20
-2.3280307812
 30
0.0
 40
9.444172206668405
100
AcDbArc
 50
87.1792261741
 51
92.8207738259
  0
VIEWPORT
  5
34D
330
194
100
AcDbEntity
  8
0
100
AcDbViewport
 10
0.0
 20
0.0
 30
0.0
 40
205.6
 41
156.0
 68
     1
 69
     1
 12
0.0
 22
0.0
 13
0.0
 23
0.0
 14
10.0
 24
10.0
 15
10.0
 25
10.0
 16
0.0
 26
0.0
 36
1.0
 17
0.0
 27
0.0
 37
0.0
 42
50.0
 43
0.0
 44
0.0
 45
386.9649805447
 50
0.0
 51
0.0
 72
   100
 90
   557152
  1

281
     0
 71
     1
 74
     0
110
0.0
120
0.0
130
0.0
111
1.0
121
0.0
131
0.0
112
0.0
122
1.0
132
0.0
 79
     0
146
0.0
  0
ENDBLK
  5
197
330
194
100
AcDbEntity
  8
0
100
AcDbBlockEnd
  0
BLOCK
  5
270
330
26E
100
AcDbEntity
  8
0
100
AcDbBlockBegin
  2
*Paper_Space2
 70
     0
 10
0.0
 20
0.0
 30
0.0
  3
*Paper_Space2
  1

  0
SPLINE
  5
272
330
26E
100
AcDbEntity
  8
0
  6
Continuous
 62
     7
370
    25
100
AcDbSpline
210
0.0
220
0.0
230
1.0
 70
     8
 71
     3
 72
    19
 73
    15
 74
     0
 42
0.000000001
 43
0.00000001
 40
0.0
 40
0.0
 40
0.0
 40
0.0
 40
0.0476216386034088
 40
0.1385761560091709
 40
0.2307123741666313
 40
0.3242351387119941
 40
0.4189632279470261
 40
0.514605061848265
 40
0.6108207451399068
 40
0.7072381896029909
 40
0.8033602774346069
 40
0.8987261399859943
 40
0.9872576830114486
 40
1.0
 40
1.0
 40
1.0
 40
1.0
 10
53.67506830746544
 20
-46.65734249360529
 30
0.0
 10
53.49524098358631
 20
-46.75654375732854
 30
0.0
 10
52.97195409091725
 20
-47.04521357636816
 30
0.0
 10
51.91648492799175
 20
-47.49280367279642
 30
0.0
 10
50.47090341814321
 20
-47.93928150967771
 30
0.0
 10
48.85496556732369
 20
-48.27075540578137
 30
0.0
 10
47.12365370830239
 20
-48.4649260722495
 30
0.0
 10
45.33306534147019
 20
-48.50779735289247
 30
0.0
 10
43.54441123306116
 20
-48.39466827384364
 30
0.0
 10
41.82026936298006
 20
-48.13046827626115
 30
0.0
 10
40.22155449330689
 20
-47.73047049972197
 30
0.0
 10
38.83537981120316
 20
-47.2311029237278
 30
0.0
 10
38.00376259106165
 20
-46.82811373841128
 30
0.0
 10
37.62865473275044
 20
-46.61425667694559
 30
0.0
 10
37.5814585141523
 20
-46.58734909717079
 30
0.0
  0
SPLINE
  5
275
330
26E
100
AcDbEntity
  8
0
  6
Continuous
 62
     7
370
    25
100
AcDbSpline
210
0.0
220
0.0
230
1.0
 70
     8
 71
     3
 72
    12
 73
     8
 74
     0
 42
0.000000001
 43
0.00000001
 40
0.0
 40
0.0
 40
0.0
 40
0.0
 40
0.1950105595395396
 40
0.4144463356182209
 40
0.6555918537746249
 40
0.8831239272427583
 40
0.9999999999999999
 40
0.9999999999999999
 40
0.9999999999999999
 40
0.9999999999999999
 10
43.75495589698438
 20
-174.8598600815446
 30
0.0
 10
44.02241422390746
 20
-174.991572164196
 30
0.0
 10
44.59083023063842
 20
-175.2714933650807
 30
0.0
 10
45.59616071419906
 20
-175.4548281893297
 30
0.0
 10
46.66674636536946
 20
-175.4192528015765
 30
0.0
 10
47.5460196564994
 20
-175.1862036389693
 30
0.0
 10
48.01109930190709
 20
-174.9425460954852
 30
0.0
 10
48.16892565726569
 20
-174.8598600815446
 30
0.0
  0
SPLINE
  5
278
330
26E
100
AcDbEntity
  8
0
  6
Continuous
 62
     7
370
    25
100
AcDbSpline
210
0.0
220
0.0
230
1.0
 70
     8
 71
     3
 72
    12
 73
     8
 74
     0
 42
0.000000001
 43
0.00000001
 40
0.0
 40
0.0
 40
0.0
 40
0.0
 40
0.1216679716705494
 40
0.3481753738373854
 40
0.5590380471281178
 40
0.7811280531778013
 40
1.0
 40
1.0
 40
1.0
 40
1.0
 10
198.6867548512666
 20
37.67806189873175
 30
0.0
 10
198.6866248585922
 20
37.67544377436946
 30
0.0
 10
198.6862528605438
 20
37.6679515279214
 30
0.0
 10
198.605391071751
 20
37.4748275173644
 30
0.0
 10
198.3087875000497
 20
37.08766406993951
 30
0.0
 10
197.7649295126708
 20
36.57052951613903
 30
0.0
 10
197.1650921240253
 20
36.19313126104655
 30
0.0
 10
196.8673621811707
 20
36.00580922502643
 30
0.0
  0
SPLINE
  5
279
330
26E
100
AcDbEntity
  8
0
  6
Continuous
 62
     7
370
    25
100
AcDbSpline
210
0.0
220
0.0
230
1.0
 70
     8
 71
     3
 72
    12
 73
     8
 74
     0
 42
0.000000001
 43
0.00000001
 40
0.0
 40
0.0
 40
0.0
 40
0.0
 40
0.2319288037893444
 40
0.4555691987065666
 40
0.6690049329671344
 40
0.8794273206580633
 40
1.0
 40
1.0
 40
1.0
 40
1.0
 10
305.9345955666557
 20
75.53433785148043
 30
0.0
 10
305.9057793562865
 20
75.91858435140989
 30
0.0
 10
305.8491767366326
 20
76.67334558511014
 30
0.0
 10
305.4190961615429
 20
77.71172111562704
 30
0.0
 10
304.7952452112615
 20
78.5845313799278
 30
0.0
 10
304.1346464336485
 20
79.21249693011353
 30
0.0
 10
303.6535499823069
 20
79.47425445321699
 30
0.0
 10
303.478299370024
 20
79.56960574102142
 30
0.0
  0
SPLINE
  5
27C
330
26E
100
AcDbEntity
  8
0
  6
Continuous
 62
     7
370
    25
100
AcDbSpline
210
0.0
220
0.0
230
1.0
 70
     8
 71
     3
 72
    32
 73
    28
 74
     0
 42
0.000000001
 43
0.00000001
 40
0.0
 40
0.0
 40
0.0
 40
0.0
 40
0.0234698222702344
 40
0.0661263456492272
 40
0.1065769664460102
 40
0.149592449442401
 40
0.191234460575895
 40
0.2323124844444264
 40
0.2732750920535779
 40
0.3142665125676051
 40
0.3553810907260604
 40
0.3966344445545654
 40
0.4380062999530834
 40
0.4794611961766214
 40
0.5209578312150548
 40
0.5624515706993134
 40
0.6038848785584551
 40
0.645213511214759
 40
0.6863951516842779
 40
0.7273947793180867
 40
0.7681972417024211
 40
0.8088334389582418
 40
0.8494178324958467
 40
0.8901501990103305
 40
0.9315334789579283
 40
0.974446126851601
 40
0.9999999999999999
 40
0.9999999999999999
 40
0.9999999999999999
 40
0.9999999999999999
 10
175.1480422500731
 20
113.8349887813311
 30
0.0
 10
175.1517470276409
 20
113.6396300167976
 30
0.0
 10
175.1621852576022
 20
113.0892056871881
 30
0.0
 10
174.8912829836381
 20
112.1883216104338
 30
0.0
 10
174.3486962154085
 20
111.0937325840708
 30
0.0
 10
173.505771912375
 20
109.998237124566
 30
0.0
 10
172.3626793380805
 20
108.9252198176126
 30
0.0
 10
170.9647468404104
 20
107.9327433707921
 30
0.0
 10
169.3310965451649
 20
107.038130995239
 30
0.0
 10
167.4854810885761
 20
106.2603103976891
 30
0.0
 10
165.4587485105358
 20
105.6173897178442
 30
0.0
 10
163.2860538797608
 20
105.1247144948695
 30
0.0
 10
161.0069252898323
 20
104.7943866128942
 30
0.0
 10
158.6637960882371
 20
104.6346605044408
 30
0.0
 10
156.3008209665975
 20
104.649684372085
 30
0.0
 10
153.9630537162156
 20
104.8393627664344
 30
0.0
 10
151.695216041917
 20
105.1992330975178
 30
0.0
 10
149.5406780833046
 20
105.720428591659
 30
0.0
 10
147.5402645341324
 20
106.3897360863087
 30
0.0
 10
145.731315816047
 20
107.189570127075
 30
0.0
 10
144.1463811230024
 20
108.0981398270282
 30
0.0
 10
142.8111091799641
 20
109.0899784711137
 30
0.0
 10
141.7445873777355
 20
110.1368005190937
 30
0.0
 10
140.9499253775301
 20
111.2111757242767
 30
0.0
 10
140.4376860189051
 20
112.2943867279707
 30
0.0
 10
140.1853611725217
 20
113.2196429974431
 30
0.0
 10
140.211525849056
 20
113.7897138777212
 30
0.0
 10
140.2212913346533
 20
114.0024823773981
 30
0.0
  0
SPLINE
  5
27D
330
26E
100
AcDbEntity
  8
0
  6
Continuous
 62
     7
370
    25
100
AcDbSpline
210
0.0
220
0.0
230
1.0
 70
     8
 71
     3
 72
    13
 73
     9
 74
     0
 42
0.000000001
 43
0.00000001
 40
0.0
 40
0.0
 40
0.0
 40
0.0
 40
0.1145565858880669
 40
0.3278782381067046
 40
0.5391961266742598
 40
0.7530043028390431
 40
0.9787534011328161
 40
1.0
 40
1.0
 40
1.0
 40
1.0
 10
-262.507047575525
 20
126.650058006508
 30
0.0
 10
-262.6783852968977
 20
126.7536239573278
 30
0.0
 10
-263.1687797143762
 20
127.0500453391226
 30
0.0
 10
-263.7761182142589
 20
127.5342968405781
 30
0.0
 10
-264.2275993478758
 20
128.0264748842744
 30
0.0
 10
-264.4254296651219
 20
128.3544841906773
 30
0.0
 10
-264.4532544741519
 20
128.4657030114977
 30
0.0
 10
-264.4535392913788
 20
128.4649469845683
 30
0.0
 10
-264.4535637913901
 20
128.4648819510431
 30
0.0
  0
SPLINE
  5
27E
330
26E
100
AcDbEntity
  8
0
  6
Continuous
 62
     7
370
    25
100
AcDbSpline
210
0.0
220
0.0
230
1.0
 70
     8
 71
     3
 72
    11
 73
     7
 74
     0
 42
0.000000001
 43
0.00000001
 40
0.0
 40
0.0
 40
0.0
 40
0.0
 40
0.2932691049406504
 40
0.5553863261680456
 40
0.8195505479571003
 40
0.9999999999999999
 40
0.9999999999999999
 40
0.9999999999999999
 40
0.9999999999999999
 10
304.1415804467964
 20
-27.08999184163451
 30
0.0
 10
304.4378082299463
 20
-26.88692415676967
 30
0.0
 10
304.9987976332652
 20
-26.50235921774083
 30
0.0
 10
305.5758440612277
 20
-25.67231894712285
 30
0.0
 10
305.9014159875309
 20
-24.85377010634405
 30
0.0
 10
305.9028647905557
 20
-24.30790397693105
 30
0.0
 10
305.9034527970148
 20
-24.08636053430049
 30
0.0
  0
SPLINE
  5
27F
330
26E
100
AcDbEntity
  8
0
  6
Continuous
 62
     7
370
    25
100
AcDbSpline
210
0.0
220
0.0
230
1.0
 70
     8
 71
     3
 72
    12
 73
     8
 74
     0
 42
0.000000001
 43
0.00000001
 40
0.0
 40
0.0
 40
0.0
 40
0.0
 40
0.092273887210213
 40
0.3211321796973848
 40
0.5467939952964312
 40
0.772453514186074
 40
1.0
 40
1.0
 40
1.0
 40
1.0
 10
-303.4643375070742
 20
132.638622265007
 30
0.0
 10
-303.6013323621796
 20
132.5702833134657
 30
0.0
 10
-304.0781027438921
 20
132.33244965185
 30
0.0
 10
-304.7519311096192
 20
131.7032277538888
 30
0.0
 10
-305.4167058146591
 20
130.7902191304763
 30
0.0
 10
-305.8509393259624
 20
129.7314280969902
 30
0.0
 10
-305.9066328579601
 20
128.9787640421036
 30
0.0
 10
-305.9345955666557
 20
128.600865119957
 30
0.0
  0
SPLINE
  5
282
330
26E
100
AcDbEntity
  8
0
  6
Continuous
 62
     7
370
    25
100
AcDbSpline
210
0.0
220
0.0
230
1.0
 70
     8
 71
     3
 72
    21
 73
    17
 74
     0
 42
0.000000001
 43
0.00000001
 40
0.0
 40
0.0
 40
0.0
 40
0.0
 40
0.0464198140033187
 40
0.12238124534021
 40
0.1989943575364293
 40
0.2754095243945199
 40
0.3518070275058072
 40
0.4288123574786719
 40
0.5056029529974085
 40
0.5822332764969264
 40
0.6584038931296078
 40
0.7345787014683032
 40
0.8115586983890883
 40
0.8880792097863186
 40
0.9649978884910935
 40
0.9999999999999999
 40
0.9999999999999999
 40
0.9999999999999999
 40
0.9999999999999999
 10
-28.51900296638805
 20
4.600943810146002
 30
0.0
 10
-27.95346266223064
 20
4.597893378083834
 30
0.0
 10
-26.46247162319038
 20
4.589851215860452
 30
0.0
 10
-24.06010478263028
 20
4.37459993355235
 30
0.0
 10
-21.35464143990007
 20
3.984765294663593
 30
0.0
 10
-18.74119420311007
 20
3.414560049873096
 30
0.0
 10
-16.2532549136539
 20
2.682730031970627
 30
0.0
 10
-13.9181909953616
 20
1.800369651309627
 30
0.0
 10
-11.77436231002013
 20
0.7761456069027075
 30
0.0
 10
-9.853767409071935
 20
-0.3683698703277998
 30
0.0
 10
-8.180701913862093
 20
-1.615497691026452
 30
0.0
 10
-6.767411055973036
 20
-2.952664244611769
 30
0.0
 10
-5.620244548949476
 20
-4.356994618458346
 30
0.0
 10
-4.78478821424804
 20
-5.806778423039116
 30
0.0
 10
-4.291614253710014
 20
-7.015042579181216
 30
0.0
 10
-4.185997395300284
 20
-7.736431824836878
 30
0.0
 10
-4.152966775625248
 20
-7.962039120582
 30
0.0
  0
SPLINE
  5
283
330
26E
100
AcDbEntity
  8
0
  6
Continuous
 62
     7
370
    25
100
AcDbSpline
210
0.0
220
0.0
230
1.0
 70
     8
 71
     3
 72
    15
 73
    11
 74
     0
 42
0.000000001
 43
0.00000001
 40
0.0
 40
0.0
 40
0.0
 40
0.0
 40
0.005009283050058
 40
0.1568162231491057
 40
0.3089183938250878
 40
0.4612980040141565
 40
0.6138057304202293
 40
0.7662273216677236
 40
0.9183030757477172
 40
1.0
 40
1.0
 40
1.0
 40
1.0
 10
49.84087714278235
 20
104.1747243060563
 30
0.0
 10
49.82785216143847
 20
104.1853854623354
 30
0.0
 10
49.42010351547012
 20
104.5191342733688
 30
0.0
 10
48.66719213446115
 20
105.3885102123206
 30
0.0
 10
47.63664471079314
 20
106.756552564844
 30
0.0
 10
46.74852315814194
 20
108.2968823771501
 30
0.0
 10
46.02179485864892
 20
109.9271130079092
 30
0.0
 10
45.49541400246763
 20
111.5971701033563
 30
0.0
 10
45.19060671866704
 20
113.013801750495
 30
0.0
 10
45.14741586560994
 20
113.8212180247497
 30
0.0
 10
45.13232188681067
 20
114.1033871245283
 30
0.0
  0
SPLINE
  5
284
330
26E
100
AcDbEntity
  8
0
  6
Continuous
 62
     7
370
    25
100
AcDbSpline
210
0.0
220
0.0
230
1.0
 70
     8
 71
     3
 72
    32
 73
    28
 74
     0
 42
0.000000001
 43
0.00000001
 40
0.0
 40
0.0
 40
0.0
 40
0.0
 40
0.023469822270229
 40
0.0661263456492217
 40
0.1065769664460039
 40
0.1495924494423962
 40
0.1912344605758898
 40
0.2323124844444225
 40
0.2732750920535754
 40
0.3142665125676037
 40
0.3553810907260592
 40
0.3966344445545645
 40
0.438006299953081
 40
0.4794611961766209
 40
0.5209578312150518
 40
0.5624515706993111
 40
0.6038848785584513
 40
0.6452135112147545
 40
0.686395151684274
 40
0.7273947793180838
 40
0.7681972417024158
 40
0.8088334389582371
 40
0.8494178324958404
 40
0.8901501990103232
 40
0.9315334789579217
 40
0.9744461268515939
 40
1.0
 40
1.0
 40
1.0
 40
1.0
 10
104.4373641314185
 20
154.6553943724666
 30
0.0
 10
104.4410689089864
 20
154.4600356079332
 30
0.0
 10
104.4515071389477
 20
153.9096112783238
 30
0.0
 10
104.1806048649835
 20
153.0087272015695
 30
0.0
 10
103.638018096754
 20
151.9141381752065
 30
0.0
 10
102.7950937937205
 20
150.8186427157017
 30
0.0
 10
101.6520012194259
 20
149.7456254087483
 30
0.0
 10
100.254068721756
 20
148.7531489619278
 30
0.0
 10
98.6204184265104
 20
147.8585365863745
 30
0.0
 10
96.7748029699215
 20
147.0807159888247
 30
0.0
 10
94.7480703918813
 20
146.4377953089798
 30
0.0
 10
92.57537576110619
 20
145.9451200860051
 30
0.0
 10
90.29624717117775
 20
145.6147922040297
 30
0.0
 10
87.95311796958252
 20
145.4550660955763
 30
0.0
 10
85.590142847943
 20
145.4700899632205
 30
0.0
 10
83.25237559756114
 20
145.6597683575699
 30
0.0
 10
80.98453792326252
 20
146.0196386886532
 30
0.0
 10
78.82999996465023
 20
146.5408341827945
 30
0.0
 10
76.8295864154779
 20
147.2101416774441
 30
0.0
 10
75.02063769739249
 20
148.0099757182105
 30
0.0
 10
73.43570300434786
 20
148.9185454181638
 30
0.0
 10
72.10043106130965
 20
149.9103840622491
 30
0.0
 10
71.03390925908099
 20
150.9572061102291
 30
0.0
 10
70.23924725887558
 20
152.0315813154121
 30
0.0
 10
69.72700790025054
 20
153.1147923191061
 30
0.0
 10
69.47468305386707
 20
154.0400485885786
 30
0.0
 10
69.50084773040139
 20
154.6101194688567
 30
0.0
 10
69.5106132159986
 20
154.8228879685336
 30
0.0
  0
SPLINE
  5
285
330
26E
100
AcDbEntity
  8
0
  6
Continuous
 62
     7
370
    25
100
AcDbSpline
210
0.0
220
0.0
230
1.0
 70
     8
 71
     3
 72
    32
 73
    28
 74
     0
 42
0.000000001
 43
0.00000001
 40
0.0
 40
0.0
 40
0.0
 40
0.0
 40
0.0234698222702345
 40
0.0661263456492274
 40
0.1065769664460104
 40
0.1495924494424011
 40
0.1912344605758952
 40
0.2323124844444266
 40
0.273275092053578
 40
0.3142665125676052
 40
0.3553810907260606
 40
0.3966344445545656
 40
0.4380062999530835
 40
0.4794611961766216
 40
0.5209578312150549
 40
0.5624515706993135
 40
0.6038848785584552
 40
0.6452135112147591
 40
0.686395151684278
 40
0.7273947793180868
 40
0.7681972417024212
 40
0.8088334389582419
 40
0.8494178324958468
 40
0.8901501990103307
 40
0.9315334789579284
 40
0.9744461268516011
 40
1.0
 40
1.0
 40
1.0
 40
1.0
 10
33.72668601276382
 20
195.4757999636021
 30
0.0
 10
33.73039079033169
 20
195.2804411990686
 30
0.0
 10
33.74082902029298
 20
194.7300168694592
 30
0.0
 10
33.4699267463288
 20
193.8291327927049
 30
0.0
 10
32.92733997809924
 20
192.7345437663419
 30
0.0
 10
32.08441567506569
 20
191.639048306837
 30
0.0
 10
30.94132310077115
 20
190.5660309998837
 30
0.0
 10
29.5433906031011
 20
189.5735545530632
 30
0.0
 10
27.90974030785568
 20
188.67894217751
 30
0.0
 10
26.06412485126676
 20
187.9011215799602
 30
0.0
 10
24.03739227322653
 20
187.2582009001153
 30
0.0
 10
21.86469764245151
 20
186.7655256771406
 30
0.0
 10
19.585569052523
 20
186.4351977951653
 30
0.0
 10
17.24243985092777
 20
186.2754716867117
 30
0.0
 10
14.87946472928828
 20
186.2904955543562
 30
0.0
 10
12.54169747890634
 20
186.4801739487054
 30
0.0
 10
10.27385980460774
 20
186.8400442797889
 30
0.0
 10
8.119321845995342
 20
187.36123977393
 30
0.0
 10
6.118908296823156
 20
188.0305472685797
 30
0.0
 10
4.309959578737713
 20
188.8303813093461
 30
0.0
 10
2.725024885693067
 20
189.7389510092993
 30
0.0
 10
1.389752942654879
 20
190.7307896533847
 30
0.0
 10
0.3232311404262195
 20
191.7776117013648
 30
0.0
 10
-0.4714308597791456
 20
192.8519869065478
 30
0.0
 10
-0.9836702184042173
 20
193.9351979102418
 30
0.0
 10
-1.235995064787582
 20
194.8604541797141
 30
0.0
 10
-1.209830388253244
 20
195.4305250599922
 30
0.0
 10
-1.200064902656034
 20
195.6432935596692
 30
0.0
  0
SPLINE
  5
286
330
26E
100
AcDbEntity
  8
0
  6
Continuous
 62
     7
370
    25
100
AcDbSpline
210
0.0
220
0.0
230
1.0
 70
     8
 71
     3
 72
    12
 73
     8
 74
     0
 42
0.000000001
 43
0.00000001
 40
0.0
 40
0.0
 40
0.0
 40
0.0
 40
0.0852899235304568
 40
0.3562979506097817
 40
0.605918277452753
 40
0.8462433007380471
 40
1.0
 40
1.0
 40
1.0
 40
1.0
 10
-305.9034527970147
 20
28.98560540561494
 30
0.0
 10
-305.9122795199981
 20
28.88131841771621
 30
0.0
 10
-305.9491530823063
 20
28.44566038772257
 30
0.0
 10
-305.7219669280133
 20
27.71340783088827
 30
0.0
 10
-305.2633586292203
 20
26.90329902558802
 30
0.0
 10
-304.7051366620412
 20
26.33483666069183
 30
0.0
 10
-304.2997485125163
 20
26.07709649168366
 30
0.0
 10
-304.1415804467964
 20
25.97653542684218
 30
0.0
  0
SPLINE
  5
288
330
26E
100
AcDbEntity
  8
0
  6
Continuous
 62
     7
370
    25
100
AcDbSpline
210
0.0
220
0.0
230
1.0
 70
     8
 71
     3
 72
    25
 73
    21
 74
     0
 42
0.000000001
 43
0.00000001
 40
0.0
 40
0.0
 40
0.0
 40
0.0
 40
0.0044508058320201
 40
0.0604490183036447
 40
0.116284243876627
 40
0.1727316493011934
 40
0.230382009723871
 40
0.2893576035537639
 40
0.3493628800393407
 40
0.4099341328521177
 40
0.4706661671292408
 40
0.531340730974106
 40
0.5919246657370744
 40
0.6524501499077577
 40
0.7129800715281989
 40
0.7735789152336252
 40
0.8343115624004018
 40
0.8952524215643087
 40
0.9564531866990742
 40
1.0
 40
1.0
 40
1.0
 40
1.0
 10
35.77947230125676
 20
121.2799970133108
 30
0.0
 10
35.74133432740823
 20
121.2656129333824
 30
0.0
 10
35.22336001753195
 20
121.0702542626844
 30
0.0
 10
34.35218512457664
 20
120.422988110492
 30
0.0
 10
33.22113305982359
 20
119.351958039022
 30
0.0
 10
32.29887050797173
 20
118.020089113358
 30
0.0
 10
31.57754124029642
 20
116.4839141124229
 30
0.0
 10
31.07463915439494
 20
114.7510256421498
 30
0.0
 10
30.80171410012706
 20
112.8533533266096
 30
0.0
 10
30.76702755786881
 20
110.8296925799229
 30
0.0
 10
30.97069415374303
 20
108.7256300916344
 30
0.0
 10
31.40608854211507
 20
106.586432623713
 30
0.0
 10
32.06197645699346
 20
104.4548657063918
 30
0.0
 10
32.92416256300579
 20
102.3712725221306
 30
0.0
 10
33.97586477032879
 20
100.3745068122323
 30
0.0
 10
35.19811701562491
 20
98.50251656533283
 30
0.0
 10
36.56977321262274
 20
96.78946153107756
 30
0.0
 10
38.06966528400873
 20
95.27461221922498
 30
0.0
 10
39.51454356062241
 20
94.09568569729073
 30
0.0
 10
40.46924853535339
 20
93.50755119789459
 30
0.0
 10
40.86614896888082
 20
93.2630454668455
 30
0.0
  0
SPLINE
  5
289
330
26E
100
AcDbEntity
  8
0
  6
Continuous
 62
     7
370
    25
100
AcDbSpline
210
0.0
220
0.0
230
1.0
 70
     8
 71
     3
 72
    13
 73
     9
 74
     0
 42
0.000000001
 43
0.00000001
 40
0.0
 40
0.0
 40
0.0
 40
0.0
 40
0.107771567129961
 40
0.3074820681068769
 40
0.5060737304712205
 40
0.7008619145725848
 40
0.8904842223753757
 40
1.0
 40
1.0
 40
1.0
 40
1.0
 10
40.86614896888082
 20
93.2630454668455
 30
0.0
 10
41.17116725509118
 20
93.09597297687985
 30
0.0
 10
42.04141212534789
 20
92.61929999061385
 30
0.0
 10
43.50944087889212
 20
92.05793891092465
 30
0.0
 10
45.24451331213849
 20
91.69222730458426
 30
0.0
 10
46.92863573631885
 20
91.67434030910263
 30
0.0
 10
48.32499724894281
 20
91.8961534833832
 30
0.0
 10
49.0910184448399
 20
92.24352634400279
 30
0.0
 10
49.37146219651312
 20
92.37070108640341
 30
0.0
  0
SPLINE
  5
28C
330
26E
100
AcDbEntity
  8
0
  6
Continuous
 62
     7
370
    25
100
AcDbSpline
210
0.0
220
0.0
230
1.0
 70
     8
 71
     3
 72
    27
 73
    23
 74
     0
 42
0.000000001
 43
0.00000001
 40
0.0
 40
0.0
 40
0.0
 40
0.0
 40
0.0342432612257757
 40
0.0875966025995524
 40
0.137403714902262
 40
0.1905297198180165
 40
0.2418761793833235
 40
0.292704350850105
 40
0.3435027194691655
 40
0.3944649538295401
 40
0.4456296461424504
 40
0.4969422313226428
 40
0.5483107910539456
 40
0.5996146379984167
 40
0.6507267472926472
 40
0.7015534546613089
 40
0.7520399276637588
 40
0.8022277556941932
 40
0.8523391444341348
 40
0.9028239226692576
 40
0.9548419290592887
 40
1.0
 40
1.0
 40
1.0
 40
1.0
 10
37.97534996066021
 20
116.7647288797538
 30
0.0
 10
38.13628758967013
 20
116.8482682189363
 30
0.0
 10
38.54797704409287
 20
117.0619675581305
 30
0.0
 10
39.33107326008506
 20
117.1574253067374
 30
0.0
 10
40.35479908291743
 20
117.0787264651307
 30
0.0
 10
41.49810890821387
 20
116.7347620269901
 30
0.0
 10
42.72709274053304
 20
116.1110830933311
 30
0.0
 10
43.96053846031779
 20
115.2332946171313
 30
0.0
 10
45.16423731373826
 20
114.1190299699952
 30
0.0
 10
46.30108961693998
 20
112.7940077361286
 30
0.0
 10
47.33465246775275
 20
111.2928705539896
 30
0.0
 10
48.23154329604489
 20
109.6579545505182
 30
0.0
 10
48.96320067673038
 20
107.938000812026
 30
0.0
 10
49.50754585494926
 20
106.1862085662103
 30
0.0
 10
49.85041936443757
 20
104.4579470935753
 30
0.0
 10
49.98664524619172
 20
102.8084116625408
 30
0.0
 10
49.92097955066519
 20
101.2897713852149
 30
0.0
 10
49.6682136837748
 20
99.9491482137996
 30
0.0
 10
49.25444303833878
 20
98.82197470112364
 30
0.0
 10
48.70759909611965
 20
97.93609730053002
 30
0.0
 10
48.10734285277535
 20
97.3037555398624
 30
0.0
 10
47.64938754083907
 20
97.06993303563641
 30
0.0
 10
47.43657406830398
 20
96.96127488104311
 30
0.0
  0
LWPOLYLINE
  5
29D
330
26E
100
AcDbEntity
  8
0
  6
Continuous
 62
     7
370
    25
100
AcDbPolyline
 90
       11
 70
   128
 43
0.0
 10
-265.0068444071
 20
126.402517754
 10
-266.5448425029
 20
127.4388345462
 10
-267.7846082207
 20
128.5962988741
 10
-268.6961986722
 20
129.846955597
 10
-269.2575970756
 20
131.1605987861
 10
-269.4552445064
 20
132.5055012604
 10
-269.2843673732
 20
133.8491808628
 10
-268.7490927097
 20
135.1591849711
 10
-267.8623484985
 20
136.4038742955
 10
-266.6455514335
 20
137.5531870321
 10
-265.1280896631
 20
138.579364918
  0
LWPOLYLINE
  5
2A1
330
26E
100
AcDbEntity
  8
0
  6
Continuous
 62
     7
370
    25
100
AcDbPolyline
 90
       11
 70
   128
 43
0.0
 10
199.2459137568
 20
47.9351161365
 10
200.7839118525
 20
46.8987993443
 10
202.0236775704
 20
45.7413350164
 10
202.9352680219
 20
44.4906782936
 10
203.4966664253
 20
43.1770351044
 10
203.6943138561
 20
41.8321326301
 10
203.5234367228
 20
40.4884530277
 10
202.9881620594
 20
39.1784489194
 10
202.1014178481
 20
37.9337595951
 10
200.8846207831
 20
36.7844468584
 10
199.3671590128
 20
35.7582689726
  0
LWPOLYLINE
  5
2A7
330
26E
100
AcDbEntity
  8
0
  6
Continuous
 62
     7
370
    25
100
AcDbPolyline
 90
       47
 70
   128
 43
0.0
 10
100.7627163191
 20
164.3193835125
 10
102.5118337586
 20
163.1613601581
 10
103.9715132516
 20
161.8766292382
 10
105.114563731
 20
160.4891228589
 10
105.9196923292
 20
159.0246876388
 10
106.3719010237
 20
157.5106032354
 10
106.4627660221
 20
155.9750741762
 10
106.1905946814
 20
154.4467044623
 10
105.5604570388
 20
152.9539647297
 10
104.5840913663
 20
151.5246618952
 10
103.2796855089
 20
150.1854211664
 10
101.6715380798
 20
148.9611900639
 10
99.7896058229
 20
147.874773697
 10
97.6689455753
 20
146.946409947
 10
95.349061225
 20
146.193392474
 10
92.8731678281
 20
145.6297485687
 10
90.287386594
 20
145.2659778507
 10
87.6398857346
 20
145.1088566802
 10
84.9799831816
 20
145.1613119272
 10
82.3572278868
 20
145.4223664498
 10
79.8204768191
 20
145.8871572962
 10
77.416984851
 20
146.5470262923
 10
75.1915244903
 20
147.3896813272
 10
73.1855518528
 20
148.399425332
 10
71.4364344133
 20
149.5574486864
 10
69.9767549203
 20
150.8421796063
 10
68.8337044409
 20
152.2296859856
 10
68.0285758427
 20
153.6941212057
 10
67.5763671482
 20
155.2082056091
 10
67.4855021498
 20
156.7437346683
 10
67.7576734905
 20
158.2721043822
 10
68.3878111331
 20
159.7648441148
 10
69.3641768056
 20
161.1941469493
 10
70.668582663
 20
162.5333876781
 10
72.2767300921
 20
163.7576187806
 10
74.158662349
 20
164.8440351475
 10
76.2793225966
 20
165.7723988975
 10
78.5992069469
 20
166.5254163705
 10
81.0751003438
 20
167.0890602758
 10
83.6608815779
 20
167.4528309938
 10
86.3083824373
 20
167.6099521643
 10
88.9682849903
 20
167.5574969173
 10
91.591040285
 20
167.2964423947
 10
94.1277913528
 20
166.8316515483
 10
96.5312833209
 20
166.1717825522
 10
98.7567436816
 20
165.3291275173
 10
100.7627163191
 20
164.3193835125
  0
LWPOLYLINE
  5
2A8
330
26E
100
AcDbEntity
  8
0
  6
Continuous
 62
     7
370
    25
100
AcDbPolyline
 90
       47
 70
   128
 43
0.0
 10
171.4733944377
 20
123.4989779214
 10
173.2225118772
 20
122.340954567
 10
174.6821913702
 20
121.056223647
 10
175.8252418497
 20
119.6687172677
 10
176.6303704479
 20
118.2042820477
 10
177.0825791423
 20
116.6901976442
 10
177.1734441407
 20
115.1546685851
 10
176.9012728001
 20
113.6262988712
 10
176.2711351575
 20
112.1335591386
 10
175.2947694849
 20
110.7042563041
 10
173.9903636276
 20
109.3650155752
 10
172.3822161985
 20
108.1407844728
 10
170.5002839416
 20
107.0543681059
 10
168.379623694
 20
106.1260043559
 10
166.0597393437
 20
105.3729868828
 10
163.5838459468
 20
104.8093429776
 10
160.9980647127
 20
104.4455722596
 10
158.3505638532
 20
104.288451089
 10
155.6906613002
 20
104.3409063361
 10
153.0679060055
 20
104.6019608587
 10
150.5311549377
 20
105.066751705
 10
148.1276629696
 20
105.7266207011
 10
145.9022026089
 20
106.569275736
 10
143.8962299715
 20
107.5790197408
 10
142.147112532
 20
108.7370430952
 10
140.687433039
 20
110.0217740152
 10
139.5443825595
 20
111.4092803945
 10
138.7392539613
 20
112.8737156145
 10
138.2870452669
 20
114.387800018
 10
138.1961802685
 20
115.9233290772
 10
138.4683516091
 20
117.451698791
 10
139.0984892517
 20
118.9444385236
 10
140.0748549243
 20
120.3737413581
 10
141.3792607816
 20
121.712982087
 10
142.9874082107
 20
122.9372131894
 10
144.8693404676
 20
124.0236295563
 10
146.9900007152
 20
124.9519933064
 10
149.3098850655
 20
125.7050107794
 10
151.7857784624
 20
126.2686546847
 10
154.3715596965
 20
126.6324254027
 10
157.019060556
 20
126.7895465732
 10
159.678963109
 20
126.7370913262
 10
162.3017184037
 20
126.4760368035
 10
164.8384694715
 20
126.0112459572
 10
167.2419614396
 20
125.3513769611
 10
169.4674218003
 20
124.5087219262
 10
171.4733944377
 20
123.4989779214
  0
LWPOLYLINE
  5
2A9
330
26E
100
AcDbEntity
  8
0
  6
Continuous
 62
     7
370
    25
100
AcDbPolyline
 90
       47
 70
   128
 43
0.0
 10
30.0520382004
 20
205.1397891037
 10
31.8011556399
 20
203.9817657493
 10
33.2608351329
 20
202.6970348293
 10
34.4038856124
 20
201.30952845
 10
35.2090142106
 20
199.84509323
 10
35.661222905
 20
198.3310088265
 10
35.7520879034
 20
196.7954797673
 10
35.4799165628
 20
195.2671100534
 10
34.8497789202
 20
193.7743703208
 10
33.8734132476
 20
192.3450674864
 10
32.5690073903
 20
191.0058267575
 10
30.9608599612
 20
189.7815956551
 10
29.0789277042
 20
188.6951792882
 10
26.9582674567
 20
187.7668155381
 10
24.6383831064
 20
187.0137980651
 10
22.1624897095
 20
186.4501541598
 10
19.5767084753
 20
186.0863834418
 10
16.9292076159
 20
185.9292622713
 10
14.2693050629
 20
185.9817175183
 10
11.6465497682
 20
186.2427720409
 10
9.1097987004
 20
186.7075628873
 10
6.7063067323
 20
187.3674318834
 10
4.4808463716
 20
188.2100869183
 10
2.4748737342
 20
189.2198309231
 10
0.7257562947
 20
190.3778542775
 10
-0.7339231983
 20
191.6625851975
 10
-1.8769736778
 20
193.0500915768
 10
-2.682102276
 20
194.5145267968
 10
-3.1343109704
 20
196.0286112002
 10
-3.2251759688
 20
197.5641402594
 10
-2.9530046282
 20
199.0925099733
 10
-2.3228669856
 20
200.5852497059
 10
-1.346501313
 20
202.0145525404
 10
-0.0420954557
 20
203.3537932693
 10
1.5660519734
 20
204.5780243717
 10
3.4479842303
 20
205.6644407386
 10
5.5686444779
 20
206.5928044886
 10
7.8885288282
 20
207.3458219617
 10
10.3644222251
 20
207.9094658669
 10
12.9502034592
 20
208.2732365849
 10
15.5977043187
 20
208.4303577555
 10
18.2576068717
 20
208.3779025084
 10
20.8803621664
 20
208.1168479858
 10
23.4171132341
 20
207.6520571394
 10
25.8206052023
 20
206.9921881434
 10
28.046065563
 20
206.1495331085
 10
30.0520382004
 20
205.1397891037
  0
LWPOLYLINE
  5
2B0
330
26E
100
AcDbEntity
  8
0
  6
Continuous
 62
     7
370
    25
100
AcDbPolyline
 90
       16
 70
   128
 43
0.0
 10
172.2788534143
 20
108.8659427535
 10
171.6942839208
 20
109.3451102304
 10
170.0591808754
 20
110.4344576313
 10
168.1721713685
 20
111.3783825274
 10
166.0716694722
 20
112.1576693299
 10
163.8004353476
 20
112.7564540068
 10
161.4047047718
 20
113.1625470288
 10
158.9332479106
 20
113.3676815131
 10
156.4363764986
 20
113.3676815131
 10
153.9649196374
 20
113.1625470288
 10
151.5691890616
 20
112.7564540068
 10
149.297954937
 20
112.1576693299
 10
147.1974530407
 20
111.3783825274
 10
145.3104435338
 20
110.4344576313
 10
143.6753404884
 20
109.3451102304
 10
143.0952901437
 20
108.8698832132
  0
SPLINE
  5
2B3
330
26E
100
AcDbEntity
  8
0
  6
Continuous
 62
     7
370
    25
100
AcDbSpline
210
0.0
220
0.0
230
1.0
 70
     8
 71
     3
 72
    28
 73
    24
 74
     0
 42
0.000000001
 43
0.00000001
 40
0.0
 40
0.0
 40
0.0
 40
0.0
 40
0.0251195712874029
 40
0.0746577364851972
 40
0.122491093076062
 40
0.1716985872010348
 40
0.2197892178664374
 40
0.2692385640950616
 40
0.3179895286646576
 40
0.3681112785945643
 40
0.4176366057104479
 40
0.4685652625453466
 40
0.5186649980900837
 40
0.5702075422409938
 40
0.6204617088726305
 40
0.6721907473382152
 40
0.7221146170125692
 40
0.7735261358399455
 40
0.8227472906007453
 40
0.8734418508059899
 40
0.9218752762549343
 40
0.9717445694167834
 40
1.0
 40
1.0
 40
1.0
 40
1.0
 10
-49.49856874298356
 20
3.682880606448072
 30
0.0
 10
-49.04917534555415
 20
4.03253259656167
 30
0.0
 10
-47.7135357576167
 20
5.071731309022043
 30
0.0
 10
-44.90979069924558
 20
6.472291337360488
 30
0.0
 10
-41.2137165587804
 20
7.855353230133256
 30
0.0
 10
-37.18229579419259
 20
8.83791789705183
 30
0.0
 10
-32.88513500456265
 20
9.429805880841291
 30
0.0
 10
-28.4881245656755
 20
9.601210203023008
 30
0.0
 10
-24.04348939027896
 20
9.347518075994062
 30
0.0
 10
-19.72892307246271
 20
8.672949993568364
 30
0.0
 10
-15.60836718953544
 20
7.580408563743684
 30
0.0
 10
-11.85804953690913
 20
6.108273387392227
 30
0.0
 10
-8.541066994308173
 20
4.272813089742849
 30
0.0
 10
-5.813652109184934
 20
2.151520985648206
 30
0.0
 10
-3.720285565087539
 20
-0.2284561508395927
 30
0.0
 10
-2.367257562335334
 20
-2.752708475529848
 30
0.0
 10
-1.770857154125158
 20
-5.391601509796402
 30
0.0
 10
-1.958296695110124
 20
-8.008705497099148
 30
0.0
 10
-2.922236200050218
 20
-10.57963161116131
 30
0.0
 10
-4.594262189044639
 20
-12.97533375328815
 30
0.0
 10
-6.978156823182667
 20
-15.16408698807443
 30
0.0
 10
-9.458640926615761
 20
-16.84839467932528
 30
0.0
 10
-11.32913027548509
 20
-17.66572630132643
 30
0.0
 10
-12.00563163664303
 20
-17.96133127503848
 30
0.0
  0
SPLINE
  5
2B6
330
26E
100
AcDbEntity
  8
0
  6
Continuous
 62
     7
370
    25
100
AcDbSpline
210
0.0
220
0.0
230
1.0
 70
     8
 71
     3
 72
    10
 73
     6
 74
     0
 42
0.000000001
 43
0.00000001
 40
0.0
 40
0.0
 40
0.0
 40
0.0
 40
0.5
 40
0.5
 40
1.0
 40
1.0
 40
1.0
 40
1.0
 10
-28.24411242446946
 20
-5.755256183684485
 30
0.0
 10
-28.15090332270475
 20
-5.621538489493309
 30
0.0
 10
-28.04776577512815
 20
-5.506156239449514
 30
0.0
 10
-27.8267744605572
 20
-5.302569046294649
 30
0.0
 10
-27.71266095072537
 20
-5.218327480979213
 30
0.0
 10
-27.59641627453208
 20
-5.151220857817468
 30
0.0
  0
SPLINE
  5
2B7
330
26E
100
AcDbEntity
  8
0
  6
Continuous
 62
     7
370
    25
100
AcDbSpline
210
0.0
220
0.0
230
1.0
 70
     8
 71
     3
 72
    17
 73
    13
 74
     0
 42
0.000000001
 43
0.00000001
 40
-0.000308465446305
 40
-0.000308465446305
 40
-0.000308465446305
 40
-0.000308465446305
 40
0.0
 40
0.0
 40
0.0
 40
0.0059997884459214
 40
0.0059997884459214
 40
0.0059997884459214
 40
0.0120079991814762
 40
0.0120079991814762
 40
0.0120079991814762
 40
0.0122805046306323
 40
0.0122805046306323
 40
0.0122805046306323
 40
0.0122805046306323
 10
-28.64981543266527
 20
4.641763894874
 30
0.0
 10
-28.64647532320869
 20
4.556860705602924
 30
0.0
 10
-28.64313586878023
 20
4.471957129545781
 30
0.0
 10
-28.63979706892778
 20
4.387053166990699
 30
0.0
 10
-28.5748559459785
 20
2.735633820267484
 30
0.0
 10
-28.51016245358779
 20
1.084068232163171
 30
0.0
 10
-28.44571331150138
 20
-0.5676415076252064
 30
0.0
 10
-28.3811736979871
 20
-2.221669859170806
 30
0.0
 10
-28.3168791196974
 20
-3.875842817151573
 30
0.0
 10
-28.25282636773993
 20
-5.530158338715271
 30
0.0
 10
-28.24992122260329
 20
-5.605190660435452
 30
0.0
 10
-28.2470165749449
 20
-5.680223275487836
 30
0.0
 10
-28.24411242446942
 20
-5.755256183684457
 30
0.0
  0
SPLINE
  5
2B8
330
26E
100
AcDbEntity
  8
0
  6
Continuous
 62
     7
370
    25
100
AcDbSpline
210
0.0
220
0.0
230
1.0
 70
     8
 71
     3
 72
    28
 73
    24
 74
     0
 42
0.000000001
 43
0.00000001
 40
0.0
 40
0.0
 40
0.0
 40
0.0
 40
0.0277853939878785
 40
0.0769379622861731
 40
0.12437214674346
 40
0.1731684186209305
 40
0.220911969148841
 40
0.2700043281505886
 40
0.3184225872446469
 40
0.3681990785039231
 40
0.4174489523240061
 40
0.4680918939115248
 40
0.5179783716600184
 40
0.5693022303238846
 40
0.6193413132543844
 40
0.6708492594689949
 40
0.7205468044962684
 40
0.7717289494646254
 40
0.8206700288784864
 40
0.8710810535851669
 40
0.9191805643610959
 40
0.9687106797235344
 40
1.0
 40
1.0
 40
1.0
 40
1.0
 10
-48.04848929013916
 20
2.845767556773259
 30
0.0
 10
-47.58835631134684
 20
3.205707731382005
 30
0.0
 10
-46.31424467613328
 20
4.202384747781615
 30
0.0
 10
-43.67808406444207
 20
5.527252767251009
 30
0.0
 10
-40.27343436316475
 20
6.802213708101143
 30
0.0
 10
-36.56048119561586
 20
7.708950642716572
 30
0.0
 10
-32.60065548690927
 20
8.256798710857439
 30
0.0
 10
-28.54612395017779
 20
8.41698152125263
 30
0.0
 10
-24.44644185757615
 20
8.185937619302607
 30
0.0
 10
-20.46369247319468
 20
7.56644991389464
 30
0.0
 10
-16.65644274955875
 20
6.561989751233551
 30
0.0
 10
-13.1872747839935
 20
5.205162040128582
 30
0.0
 10
-10.11465192834909
 20
3.512362695542143
 30
0.0
 10
-7.585927122089766
 20
1.553315260190403
 30
0.0
 10
-5.641700908777408
 20
-0.6452391475202796
 30
0.0
 10
-4.382532765008095
 20
-2.978021893367266
 30
0.0
 10
-3.822542154529726
 20
-5.41748272728345
 30
0.0
 10
-3.989288150259342
 20
-7.836421793142399
 30
0.0
 10
-4.872672990273131
 20
-10.21268506541004
 30
0.0
 10
-6.412792513833035
 20
-12.42489669114209
 30
0.0
 10
-8.6067440127581
 20
-14.4473647018472
 30
0.0
 10
-10.95809692800417
 20
-16.03766029535332
 30
0.0
 10
-12.75692699404123
 20
-16.82194655251842
 30
0.0
 10
-13.45334574052497
 20
-17.1255837122545
 30
0.0
  0
SPLINE
  5
2B9
330
26E
100
AcDbEntity
  8
0
  6
Continuous
 62
     7
370
    25
100
AcDbSpline
210
0.0
220
0.0
230
1.0
 70
     8
 71
     3
 72
    11
 73
     7
 74
     0
 42
0.000000001
 43
0.00000001
 40
0.0
 40
0.0
 40
0.0
 40
0.0
 40
0.0069736758632993
 40
0.0069736758632993
 40
0.0069736758632993
 40
0.0140087787354127
 40
0.0140087787354127
 40
0.0140087787354127
 40
0.0140087787354127
 10
-28.92755112157514
 20
-6.511387442013131
 30
0.0
 10
-28.99889108614538
 20
-4.591107958498313
 30
0.0
 10
-29.07055268661801
 20
-2.671012500978911
 30
0.0
 10
-29.14254122051315
 20
-0.7511041988157232
 30
0.0
 10
-29.21516385900512
 20
1.185715444835216
 30
0.0
 10
-29.28811921765266
 20
3.122344697627091
 30
0.0
 10
-29.3614128785771
 20
5.058780239333005
 30
0.0
  0
SPLINE
  5
2BE
330
26E
100
AcDbEntity
  8
0
  6
Continuous
 62
     7
370
    25
100
AcDbSpline
210
0.0
220
0.0
230
1.0
 70
     8
 71
     3
 72
    10
 73
     6
 74
     0
 42
0.000000001
 43
0.00000001
 40
0.0
 40
0.0
 40
0.0
 40
0.0
 40
0.5
 40
0.5
 40
1.0
 40
1.0
 40
1.0
 40
1.0
 10
-28.64981543266527
 20
4.641763894874
 30
0.0
 10
-28.75421602935434
 20
4.669956392846432
 30
0.0
 10
-28.86885369298967
 20
4.724412247492184
 30
0.0
 10
-29.11145887480713
 20
4.869089887268911
 30
0.0
 10
-29.23660782674386
 20
4.958181701728622
 30
0.0
 10
-29.36141287857708
 20
5.058780239333
 30
0.0
  0
LWPOLYLINE
  5
2C0
330
26E
100
AcDbEntity
  8
0
  6
Continuous
 62
     7
370
    25
100
AcDbPolyline
 90
       16
 70
   128
 43
0.0
 10
72.3966136671
 20
149.7007342081
 10
72.9646623698
 20
150.1655158215
 10
74.5997654152
 20
151.2548632224
 10
76.486774922
 20
152.1987881185
 10
78.5872768183
 20
152.978074921
 10
80.858510943
 20
153.5768595979
 10
83.2542415188
 20
153.9829526199
 10
85.72569838
 20
154.1880871042
 10
88.2225697919
 20
154.1880871042
 10
90.6940266531
 20
153.9829526199
 10
93.0897572289
 20
153.5768595979
 10
95.3609913535
 20
152.978074921
 10
97.4614932499
 20
152.1987881185
 10
99.3485027567
 20
151.2548632224
 10
100.9836058021
 20
150.1655158215
 10
101.5569173927
 20
149.6961572157
  0
SPLINE
  5
2C1
330
26E
100
AcDbEntity
  8
0
  6
Continuous
 62
     7
370
    25
100
AcDbSpline
210
0.0
220
0.0
230
1.0
 70
     8
 71
     3
 72
    10
 73
     6
 74
     0
 42
0.000000001
 43
0.00000001
 40
0.0
 40
0.0
 40
0.0
 40
0.0
 40
0.5
 40
0.5
 40
1.0
 40
1.0
 40
1.0
 40
1.0
 10
-28.24411242446946
 20
-5.755256183684485
 30
0.0
 10
-28.34385885260227
 20
-5.898352320447952
 30
0.0
 10
-28.45454118218082
 20
-6.033945710291317
 30
0.0
 10
-28.68758259048884
 20
-6.289720423963283
 30
0.0
 10
-28.80773988597547
 20
-6.407069090988062
 30
0.0
 10
-28.92755112157514
 20
-6.511387442013127
 30
0.0
  0
LWPOLYLINE
  5
2C4
330
26E
100
AcDbEntity
  8
0
  6
Continuous
 62
     7
370
    25
100
AcDbPolyline
 90
       16
 70
   128
 43
0.0
 10
1.6441816316
 20
190.4846780571
 10
2.2539842511
 20
190.9859214127
 10
3.8890872965
 20
192.0752688135
 10
5.7760968033
 20
193.0191937097
 10
7.8765986997
 20
193.7984805122
 10
10.1478328243
 20
194.3972651891
 10
12.5435634001
 20
194.8033582111
 10
15.0150202613
 20
195.0084926954
 10
17.5118916733
 20
195.0084926954
 10
19.9833485345
 20
194.8033582111
 10
22.3790791103
 20
194.3972651891
 10
24.6503132349
 20
193.7984805122
 10
26.7508151312
 20
193.0191937097
 10
28.6378246381
 20
192.0752688135
 10
30.2729276835
 20
190.9859214127
 10
30.846239274
 20
190.5165628068
  0
LWPOLYLINE
  5
2C7
330
26E
100
AcDbEntity
  8
0
  6
Continuous
 62
     7
370
    25
100
AcDbPolyline
 90
       40
 70
   128
 43
0.0
 10
40.4572356487
 20
94.324174201
 10
42.0563993167
 20
93.561369269
 10
43.6364914964
 20
93.1261657129
 10
45.1565886303
 20
93.0298350763
 10
46.5773210011
 20
93.2748722719
 10
47.8618923867
 20
93.8549309652
 10
48.977033063
 20
94.7549879408
 10
49.8938614722
 20
95.9517321956
 10
50.5886322401
 20
97.4141686821
 10
51.0433511688
 20
99.1044210636
 10
51.2462412768
 20
100.9787126911
 10
51.1920478169
 20
102.9885003961
 10
50.8821743713
 20
105.0817317326
 10
50.3246464995
 20
107.2041931087
 10
49.5339038804
 20
109.3009138894
 10
48.5304263326
 20
111.317590108
 10
47.3402033974
 20
113.2019909098
 10
45.9940612237
 20
114.9053113037
 10
44.5268641866
 20
116.3834361862
 10
42.9766119188
 20
117.5980828995
 10
41.3834551397
 20
118.5177927315
 10
39.7886557729
 20
119.1187456808
 10
38.2335182844
 20
119.3853773816
 10
36.7583199183
 20
119.310782213
 10
35.4012675374
 20
118.8968921505
 10
34.1975080855
 20
118.1544267295
 10
33.1782183
 20
117.1026154144
 10
32.3697972511
 20
115.7686995656
 10
31.7931826192
 20
114.1872269031
 10
31.4633084205
 20
112.399156738
 10
31.3887182234
 20
110.4507991485
 10
31.5713438749
 20
108.3926155726
 10
32.0064554664
 20
106.2779118838
 10
32.6827838363
 20
104.161457797
 10
33.5828124352
 20
102.0980683611
 10
34.683230995
 20
100.1411842789
 10
35.9555392531
 20
98.34148782
 10
37.3667850939
 20
96.7455901774
 10
38.8804179914
 20
95.3948242619
 10
40.4572356487
 20
94.324174201
  0
LWPOLYLINE
  5
2C9
330
26E
100
AcDbEntity
  8
0
  6
Continuous
 62
     7
370
    25
100
AcDbPolyline
 90
       23
 70
   128
 43
0.0
 10
51.0174421335
 20
93.1068816913
 10
51.1101444527
 20
93.1519721121
 10
52.3683160471
 20
93.9763222846
 10
53.4426292258
 20
95.1039365962
 10
54.3090856076
 20
96.5096260066
 10
54.9483299888
 20
98.161989737
 10
55.3460827062
 20
100.0241167123
 10
55.4934586213
 20
102.0544100929
 10
55.3871655998
 20
104.2075164795
 10
55.0295780522
 20
106.4353390335
 10
54.4286838932
 20
108.6881118804
 10
53.5979061056
 20
110.9155117973
 10
52.5558028922
 20
113.0677823507
 10
51.3256531168
 20
115.0968453731
 10
49.9349362926
 20
116.9573749494
 10
48.4147187354
 20
118.6078099233
 10
46.7989595934
 20
120.0112823048
 10
45.1237522558
 20
121.13644084
 10
43.4265180863
 20
121.9581513466
 10
41.7451704917
 20
122.4580581696
 10
40.117267999
 20
122.6249942167
 10
38.5791752596
 20
122.4552304124
 10
37.2579530432
 20
121.9976494204
  0
LWPOLYLINE
  5
2CA
330
26E
100
AcDbEntity
  8
0
  6
Continuous
 62
     7
370
    25
100
AcDbPolyline
 90
       39
 70
   128
 43
0.0
 10
40.5188640654
 20
95.1731851563
 10
39.0167736099
 20
96.1971637244
 10
37.5775100795
 20
97.4942752999
 10
36.2403328316
 20
99.0291380605
 10
35.0417165756
 20
100.759884951
 10
34.0143564385
 20
102.6393057081
 10
33.1862761267
 20
104.6161346327
 10
32.5800635124
 20
106.636448985
 10
32.2122544956
 20
108.6451398561
 10
32.0928819472
 20
110.5874153952
 10
32.2252020394
 20
112.4102953888
 10
32.6056054249
 20
114.0640564226
 10
33.223715691
 20
115.5035882065
 10
34.062672401
 20
116.6896240661
 10
35.0995910027
 20
117.5898120349
 10
36.3061870598
 20
118.1795973317
 10
37.6495477772
 20
118.4428921511
 10
39.0930297764
 20
118.3725144968
 10
40.5972586313
 20
117.9703840877
 10
42.1212029
 20
117.2474699931
 10
43.6232933556
 20
116.223491425
 10
45.0625568859
 20
114.9263798494
 10
46.3997341339
 20
113.3915170889
 10
47.5983503899
 20
111.6607701984
 10
48.625710527
 20
109.7813494413
 10
49.4537908388
 20
107.8045205167
 10
50.060003453
 20
105.7842061643
 10
50.4278124699
 20
103.7755152933
 10
50.5471850182
 20
101.8332397541
 10
50.414864926
 20
100.0103597605
 10
50.0344615405
 20
98.3565987268
 10
49.4163512744
 20
96.9170669429
 10
48.5773945645
 20
95.7310310833
 10
47.5404759628
 20
94.8308431145
 10
46.3338799057
 20
94.2410578177
 10
44.9905191883
 20
93.9777629983
 10
43.5470371891
 20
94.0481406526
 10
42.0428083342
 20
94.4502710617
 10
40.5188640654
 20
95.1731851563
  0
LWPOLYLINE
  5
2CC
330
26E
100
AcDbEntity
  8
0
  6
Continuous
 62
     7
370
    25
100
AcDbPolyline
 90
       14
 70
   128
 43
0.0
 10
38.7867083828
 20
117.1213905493
 10
38.0197011064
 20
116.4445969114
 10
37.251886645
 20
115.3516783182
 10
36.7053878131
 20
114.0080801813
 10
36.3977695326
 20
112.4569868506
 10
36.3389189083
 20
110.7482517418
 10
36.5307274476
 20
108.9367950073
 10
36.9670302663
 20
107.0808383571
 10
37.6338042328
 20
105.2400337649
 10
38.5096186831
 20
103.473546205
 10
39.5663242202
 20
101.838152041
 10
40.7699574588
 20
100.386414187
 10
42.0818326361
 20
99.164992692
 10
43.4597850045
 20
98.213145048
  0
SPLINE
  5
2D5
330
26E
100
AcDbEntity
  8
0
  6
Continuous
 62
     8
370
    25
100
AcDbSpline
210
0.0
220
0.0
230
1.0
 70
     8
 71
     3
 72
     9
 73
     5
 74
     0
 42
0.000000001
 43
0.00000001
 40
0.0
 40
0.0
 40
0.0
 40
0.0
 40
0.5384810161064375
 40
1.0
 40
1.0
 40
1.0
 40
1.0
 10
-105.3608682895009
 20
114.8806983848304
 30
0.0
 10
-117.6722190998285
 20
107.7770879869043
 30
0.0
 10
-140.5353292970025
 20
94.58514586554645
 30
0.0
 10
-163.2624356238771
 20
81.46686453402002
 30
0.0
 10
-173.7514266426973
 20
75.41252866346407
 30
0.0
  0
SPLINE
  5
2D6
330
26E
100
AcDbEntity
  8
0
  6
Continuous
 62
     8
370
    25
100
AcDbSpline
210
0.0
220
0.0
230
1.0
 70
     8
 71
     3
 72
    11
 73
     7
 74
     0
 42
0.000000001
 43
0.00000001
 40
0.0
 40
0.0
 40
0.0
 40
0.0
 40
0.0745255160771434
 40
0.4094151798312349
 40
0.7047037266910675
 40
1.0
 40
1.0
 40
1.0
 40
1.0
 10
114.0805193804933
 20
-11.78601784616194
 30
0.0
 10
108.6702974642726
 20
-8.66149748381555
 30
0.0
 10
78.94857133139286
 20
8.503443242153304
 30
0.0
 10
27.50165932460538
 20
38.22747161122813
 30
0.0
 10
-40.22131819737383
 20
77.2864476495905
 30
0.0
 10
-83.64749554811738
 20
102.3491721769766
 30
0.0
 10
-105.3608682895009
 20
114.8806983848304
 30
0.0
  0
SPLINE
  5
2D7
330
26E
100
AcDbEntity
  8
0
  6
Continuous
 62
     8
370
    25
100
AcDbSpline
210
0.0
220
0.0
230
1.0
 70
     8
 71
     3
 72
    29
 73
    25
 74
     0
 42
0.000000001
 43
0.00000001
 40
0.0
 40
0.0
 40
0.0
 40
0.0
 40
0.0329734621071698
 40
0.0819246841128792
 40
0.1294943709281342
 40
0.1784602115790941
 40
0.2261210722838462
 40
0.2751734881652048
 40
0.3229676811724347
 40
0.3721448788131937
 40
0.4200415100642301
 40
0.46931118749645
 40
0.499568441901915
 40
0.5301598489845061
 40
0.5780438094086492
 40
0.6272973474158858
 40
0.6750752202868637
 40
0.7242307961288444
 40
0.7719008679195051
 40
0.8209600543585398
 40
0.8685526389431646
 40
0.9175419414743594
 40
0.9651029727608048
 40
1.0
 40
1.0
 40
1.0
 40
1.0
 10
-55.12918736667963
 20
6.933367549347827
 30
0.0
 10
-54.40295571857784
 20
7.527831900099754
 30
0.0
 10
-52.59858655133233
 20
9.00481675517598
 30
0.0
 10
-48.92117153797508
 20
10.96344138750064
 30
0.0
 10
-44.31037906778989
 20
12.79477305702528
 30
0.0
 10
-39.26227260894476
 20
14.14041547743931
 30
0.0
 10
-33.86509795200594
 20
14.99729375656728
 30
0.0
 10
-28.35651964575611
 20
15.31869472397855
 30
0.0
 10
-22.7992127207085
 20
15.09754185773808
 30
0.0
 10
-17.44599443644948
 20
14.33900351420546
 30
0.0
 10
-12.35657168546297
 20
13.04763872166005
 30
0.0
 10
-8.320986860546501
 20
11.49369681432261
 30
0.0
 10
-5.199199596905218
 20
9.880223068708801
 30
0.0
 10
-2.422196637076068
 20
8.099061790977371
 30
0.0
 10
0.3321099720112576
 20
5.74874587540631
 30
0.0
 10
2.650088430404008
 20
2.79788947129752
 30
0.0
 10
4.107318289017442
 20
-0.3778845126325356
 30
0.0
 10
4.634684466995721
 20
-3.625869043912003
 30
0.0
 10
4.227022680871484
 20
-6.910574634405732
 30
0.0
 10
2.901101061385251
 20
-10.07212452191536
 30
0.0
 10
0.6762345705680837
 20
-13.08144570112306
 30
0.0
 10
-2.367966492896674
 20
-15.77395992194691
 30
0.0
 10
-5.746212783702843
 20
-17.96440319073488
 30
0.0
 10
-8.307140035680716
 20
-19.02282260772247
 30
0.0
 10
-9.39094857626235
 20
-19.47075567679448
 30
0.0
  0
SPLINE
  5
2DA
330
26E
100
AcDbEntity
  8
0
  6
Continuous
 62
     8
370
    25
100
AcDbSpline
210
0.0
220
0.0
230
1.0
 70
     8
 71
     3
 72
    11
 73
     7
 74
     0
 42
0.000000001
 43
0.00000001
 40
0.0
 40
0.0
 40
0.0
 40
0.0
 40
0.2867624362403002
 40
0.5735291330107459
 40
0.8987597643573955
 40
1.0
 40
1.0
 40
1.0
 40
1.0
 10
-98.31049291452997
 20
126.3384483435826
 30
0.0
 10
-76.76512341855117
 20
113.7150535200228
 30
0.0
 10
-33.67406431947828
 20
88.46807632269638
 30
0.0
 10
33.88439301243335
 20
49.32094943608633
 30
0.0
 10
87.50795652910367
 20
18.39518308157326
 30
0.0
 10
119.5867589950093
 20
0.1258134231654391
 30
0.0
 10
127.2019697213792
 20
-4.211165799627895
 30
0.0
  0
LWPOLYLINE
  5
2DB
330
26E
100
AcDbEntity
  8
0
  6
Continuous
 62
     8
370
    25
100
AcDbPolyline
 90
       14
 70
   128
 43
0.0
 10
43.4597850045
 20
98.213145048
 10
42.0818326361
 20
99.164992692
 10
40.7699574588
 20
100.386414187
 10
39.5663242202
 20
101.838152041
 10
38.5096186831
 20
103.473546205
 10
37.6338042328
 20
105.2400337649
 10
36.9670302663
 20
107.0808383571
 10
36.5307274476
 20
108.9367950073
 10
36.3389189083
 20
110.7482517418
 10
36.3977695326
 20
112.4569868506
 10
36.7053878131
 20
114.0080801813
 10
37.251886645
 20
115.3516783182
 10
38.0197011064
 20
116.4445969114
 10
38.9481528211
 20
117.2290778203
  0
LWPOLYLINE
  5
2E1
330
26E
100
AcDbEntity
  8
0
  6
Continuous
 62
     8
370
    25
100
AcDbPolyline
 90
       18
 70
   128
 43
0.0
 10
170.0591808754
 20
121.0494881858
 10
168.1721713685
 20
121.9934130819
 10
166.0716694722
 20
122.7726998844
 10
163.8004353476
 20
123.3714845613
 10
161.4047047718
 20
123.7775775833
 10
158.9332479106
 20
123.9827120676
 10
156.4363764986
 20
123.9827120676
 10
153.9649196374
 20
123.7775775833
 10
151.5691890616
 20
123.3714845613
 10
149.297954937
 20
122.7726998844
 10
147.1974530407
 20
121.9934130819
 10
145.3104435338
 20
121.0494881858
 10
143.6753404884
 20
119.9601407849
 10
142.3254298872
 20
118.7475468509
 10
141.2881920171
 20
117.4363912995
 10
140.5847420501
 20
116.0533654766
 10
140.2294001989
 20
114.6266237997
 10
140.186163336
 20
114.0314527602
  0
LWPOLYLINE
  5
2E2
330
26E
100
AcDbEntity
  8
0
  6
Continuous
 62
     8
370
    25
100
AcDbPolyline
 90
        7
 70
   128
 43
0.0
 10
175.1840874314
 20
113.8139733128
 10
175.1402242103
 20
114.6266237997
 10
174.7848823591
 20
116.0533654766
 10
174.0814323921
 20
117.4363912995
 10
173.044194522
 20
118.7475468509
 10
171.6942839208
 20
119.9601407849
 10
170.0591808754
 20
121.0494881858
  0
SPLINE
  5
2E3
330
26E
100
AcDbEntity
  8
0
  6
Continuous
 62
     8
370
    25
100
AcDbSpline
210
0.0
220
0.0
230
1.0
 70
     8
 71
     3
 72
    17
 73
    13
 74
     0
 42
0.000000001
 43
0.00000001
 40
0.0
 40
0.0
 40
0.0
 40
0.0
 40
0.0276927444408769
 40
0.135958171575201
 40
0.2472660423667935
 40
0.3573671884126434
 40
0.4705879506610155
 40
0.6127029009671624
 40
0.7239038488534252
 40
0.8383081273140006
 40
0.9532841548828299
 40
1.0
 40
1.0
 40
1.0
 40
1.0
 10
-29.3614128785771
 20
5.058780239333005
 30
0.0
 10
-29.01714399149368
 20
5.059889680898976
 30
0.0
 10
-27.32694789994982
 20
5.065336510017011
 30
0.0
 10
-24.25446735563203
 20
4.870456190502862
 30
0.0
 10
-20.28852505166102
 20
4.235370007461273
 30
0.0
 10
-16.50279942659242
 20
3.213134754089257
 30
0.0
 10
-12.7461460087451
 20
1.717286616401411
 30
0.0
 10
-9.528374509691758
 20
-0.1732622686904245
 30
0.0
 10
-6.970221951402462
 20
-2.377374070249652
 30
0.0
 10
-5.270618782694816
 20
-4.621461738967128
 30
0.0
 10
-4.309826713266504
 20
-6.546405047680618
 30
0.0
 10
-4.211308222315706
 20
-7.707042292510506
 30
0.0
 10
-4.182844363941253
 20
-8.042372379706578
 30
0.0
  0
SPLINE
  5
2E4
330
26E
100
AcDbEntity
  8
0
  6
Continuous
 62
     8
370
    25
100
AcDbSpline
210
0.0
220
0.0
230
1.0
 70
     8
 71
     3
 72
    13
 73
     9
 74
     0
 42
0.000000001
 43
0.00000001
 40
0.0
 40
0.0
 40
0.0
 40
0.0
 40
0.1325012205270664
 40
0.3378042092393227
 40
0.4985972783194625
 40
0.6640318217257103
 40
0.8294178772935265
 40
0.9999999999999999
 40
0.9999999999999999
 40
0.9999999999999999
 40
0.9999999999999999
 10
-7.7355077435837
 20
-13.5292691683182
 30
0.0
 10
-8.33336767310643
 20
-12.97536858709152
 30
0.0
 10
-9.857577034536787
 20
-11.56323104530747
 30
0.0
 10
-12.92367650570926
 20
-9.826086146609645
 30
0.0
 10
-16.6495524342732
 20
-8.32809615030389
 30
0.0
 10
-20.46726084096411
 20
-7.31060391048181
 30
0.0
 10
-24.60769942280761
 20
-6.637895246704165
 30
0.0
 10
-27.47282990015607
 20
-6.553989272120326
 30
0.0
 10
-28.92755112157514
 20
-6.511387442013131
 30
0.0
  0
SPLINE
  5
2E9
330
26E
100
AcDbEntity
  8
0
  6
Continuous
 62
     8
370
    25
100
AcDbSpline
210
0.0
220
0.0
230
1.0
 70
     8
 71
     3
 72
    10
 73
     6
 74
     0
 42
0.000000001
 43
0.00000001
 40
0.0
 40
0.0
 40
0.0
 40
0.0
 40
0.0080465507771712
 40
0.5040232153634017
 40
1.0
 40
1.0
 40
1.0
 40
1.0
 10
-186.2254152395461
 20
82.61360900112005
 30
0.0
 10
-186.0269369765537
 20
82.72711477708691
 30
0.0
 10
-173.594572468652
 20
89.83693707851906
 30
0.0
 10
-148.9581399840362
 20
104.1590249754596
 30
0.0
 10
-124.5315780345856
 20
118.4434879766406
 30
0.0
 10
-112.3182955817577
 20
125.585720341614
 30
0.0
  0
LWPOLYLINE
  5
2ED
330
26E
100
AcDbEntity
  8
0
  6
Continuous
 62
     8
370
    25
100
AcDbPolyline
 90
       14
 70
   128
 43
0.0
 10
40.5422732741
 20
116.9161149665
 10
39.9017374277
 20
116.5325898391
 10
39.0265313414
 20
115.6679556509
 10
38.3615155507
 20
114.5221245613
 10
37.9307254592
 20
113.1365098911
 10
37.749730943
 20
111.5611913648
 10
37.8250736156
 20
109.8531050984
 10
38.1540303964
 20
108.0739857799
 10
38.7247119305
 20
106.2881354169
 10
39.5164923001
 20
104.5600992945
 10
40.5007544998
 20
102.9523331407
 10
41.6419247292
 20
101.522945813
 10
42.898758123
 20
100.3235990939
 10
44.2258294476
 20
99.3976404985
  0
LWPOLYLINE
  5
2EF
330
26E
100
AcDbEntity
  8
0
  6
Continuous
 62
     8
370
    25
100
AcDbPolyline
 90
       18
 70
   128
 43
0.0
 10
99.3485027567
 20
161.8698937769
 10
97.4614932499
 20
162.813818673
 10
95.3609913535
 20
163.5931054755
 10
93.0897572289
 20
164.1918901524
 10
90.6940266531
 20
164.5979831745
 10
88.2225697919
 20
164.8031176587
 10
85.72569838
 20
164.8031176587
 10
83.2542415188
 20
164.5979831745
 10
80.858510943
 20
164.1918901524
 10
78.5872768183
 20
163.5931054755
 10
76.486774922
 20
162.813818673
 10
74.5997654152
 20
161.8698937769
 10
72.9646623698
 20
160.780546376
 10
71.6147517685
 20
159.5679524421
 10
70.5775138984
 20
158.2567968907
 10
69.8740639315
 20
156.8737710678
 10
69.5187220803
 20
155.4470293909
 10
69.4754852173
 20
154.8518583513
  0
LWPOLYLINE
  5
2F0
330
26E
100
AcDbEntity
  8
0
  6
Continuous
 62
     8
370
    25
100
AcDbPolyline
 90
        7
 70
   128
 43
0.0
 10
104.4734093128
 20
154.634378904
 10
104.4295460916
 20
155.4470293909
 10
104.0742042404
 20
156.8737710678
 10
103.3707542734
 20
158.2567968907
 10
102.3335164034
 20
159.5679524421
 10
100.9836058021
 20
160.780546376
 10
99.3485027567
 20
161.8698937769
  0
SPLINE
  5
2F1
330
26E
100
AcDbEntity
  8
0
  6
Continuous
 62
     8
370
    25
100
AcDbSpline
210
0.0
220
0.0
230
1.0
 70
     8
 71
     3
 72
    13
 73
     9
 74
     0
 42
0.000000001
 43
0.00000001
 40
0.0
 40
0.0
 40
0.0
 40
0.0
 40
0.1488266175411578
 40
0.2976627990702451
 40
0.4673287452851074
 40
0.6370006423818996
 40
0.850539246534522
 40
0.9999999999999999
 40
0.9999999999999999
 40
0.9999999999999999
 40
0.9999999999999999
 10
-27.5964162745321
 20
-5.15122085781745
 30
0.0
 10
-26.33238514026022
 20
-5.221255510955074
 30
0.0
 10
-23.80424164176773
 20
-5.361329317840411
 30
0.0
 10
-19.96234772169133
 20
-6.00693892136887
 30
0.0
 10
-16.17185553958362
 20
-7.019037502590322
 30
0.0
 10
-12.28681847805376
 20
-8.570541434672153
 30
0.0
 10
-9.02106224230253
 20
-10.43146998888749
 30
0.0
 10
-7.384598995617068
 20
-11.94977805136274
 30
0.0
 10
-6.710804332527072
 20
-12.57492369486827
 30
0.0
  0
LWPOLYLINE
  5
2F2
330
26E
100
AcDbEntity
  8
0
  6
Continuous
 62
     8
370
    25
100
AcDbPolyline
 90
       18
 70
   128
 43
0.0
 10
28.6378246381
 20
202.6902993681
 10
26.7508151312
 20
203.6342242642
 10
24.6503132349
 20
204.4135110667
 10
22.3790791103
 20
205.0122957436
 10
19.9833485345
 20
205.4183887656
 10
17.5118916733
 20
205.6235232499
 10
15.0150202613
 20
205.6235232499
 10
12.5435634001
 20
205.4183887656
 10
10.1478328243
 20
205.0122957436
 10
7.8765986997
 20
204.4135110667
 10
5.7760968033
 20
203.6342242642
 10
3.8890872965
 20
202.6902993681
 10
2.2539842511
 20
201.6009519672
 10
0.9040736499
 20
200.3883580332
 10
-0.1331642202
 20
199.0772024818
 10
-0.8366141872
 20
197.6941766589
 10
-1.1919560384
 20
196.267434982
 10
-1.2351929014
 20
195.6722639425
  0
LWPOLYLINE
  5
2F3
330
26E
100
AcDbEntity
  8
0
  6
Continuous
 62
     8
370
    25
100
AcDbPolyline
 90
        7
 70
   128
 43
0.0
 10
33.7627311941
 20
195.4547844951
 10
33.718867973
 20
196.267434982
 10
33.3635261218
 20
197.6941766589
 10
32.6600761548
 20
199.0772024818
 10
31.6228382847
 20
200.3883580332
 10
30.2729276835
 20
201.6009519672
 10
28.6378246381
 20
202.6902993681
  0
LWPOLYLINE
  5
2F5
330
26E
100
AcDbEntity
  8
0
  6
Continuous
 62
     8
370
    25
100
AcDbPolyline
 90
       23
 70
   128
 43
0.0
 10
35.7860796663
 20
121.2962227764
 10
37.1703432068
 20
121.7842614218
 10
38.7084359461
 20
121.9540252261
 10
40.3363384389
 20
121.787089179
 10
42.0176860335
 20
121.287182356
 10
43.714920203
 20
120.4654718495
 10
45.3901275406
 20
119.3403133142
 10
47.0058866826
 20
117.9368409327
 10
48.5261042398
 20
116.2864059588
 10
49.916821064
 20
114.4258763825
 10
51.1469708393
 20
112.3968133602
 10
52.1890740528
 20
110.2445428067
 10
53.0198518404
 20
108.0171428898
 10
53.6207459994
 20
105.764370043
 10
53.978333547
 20
103.536547489
 10
54.0846265685
 20
101.3834411023
 10
53.9372506534
 20
99.3531477217
 10
53.539497936
 20
97.4910207464
 10
52.9002535548
 20
95.838657016
 10
52.0337971729
 20
94.4329676056
 10
50.9594839943
 20
93.305353294
 10
49.7013123999
 20
92.4810031215
 10
49.6086100807
 20
92.4359127007
  0
LWPOLYLINE
  5
2F7
330
26E
100
AcDbEntity
  8
0
  6
Continuous
 62
     8
370
    25
100
AcDbPolyline
 90
       15
 70
   128
 43
0.0
 10
37.946738829
 20
116.7871538587
 10
37.5753209557
 20
116.5807396677
 10
36.6108690536
 20
115.7736279208
 10
35.8430545922
 20
114.6807093276
 10
35.2965557603
 20
113.3371111907
 10
34.9889374798
 20
111.78601786
 10
34.9300868555
 20
110.0772827512
 10
35.1218953948
 20
108.2658260167
 10
35.5581982135
 20
106.4098693665
 10
36.22497218
 20
104.5690647743
 10
37.1007866303
 20
102.8025772144
 10
38.1574921674
 20
101.1671830504
 10
39.361125406
 20
99.7154451964
 10
40.6730005832
 20
98.4940237014
 10
42.0509529517
 20
97.5421760574
  0
LINE
  5
2F8
330
26E
100
AcDbEntity
  8
0
  6
Continuous
 62
     7
370
    25
100
AcDbLine
 10
196.8673621812
 20
36.005809225
 30
0.0
 11
53.6750683075
 21
-46.6573424936
 31
0.0
  0
LINE
  5
2F9
330
26E
100
AcDbEntity
  8
0
  6
Continuous
 62
     7
370
    25
100
AcDbLine
 10
37.5814585142
 20
-46.5873490972
 30
0.0
 11
-262.5070475755
 21
126.6500580065
 31
0.0
  0
LINE
  5
2FA
330
26E
100
AcDbEntity
  8
0
  6
Continuous
 62
     7
370
    25
100
AcDbLine
 10
48.1689256573
 20
-174.8598600815
 30
0.0
 11
304.1415804468
 21
-27.0899918416
 31
0.0
  0
LINE
  5
2FB
330
26E
100
AcDbEntity
  8
0
  6
Continuous
 62
     7
370
    25
100
AcDbLine
 10
-304.1415804468
 20
25.9765354268
 30
0.0
 11
43.754955897
 21
-174.8598600815
 31
0.0
  0
LINE
  5
2FC
330
26E
100
AcDbEntity
  8
0
  6
Continuous
 62
     7
370
    25
100
AcDbLine
 10
303.5201382022
 20
79.5759617647
 30
0.0
 11
-43.9621033119
 21
280.1731899587
 31
0.0
  0
LINE
  5
2FD
330
26E
100
AcDbEntity
  8
0
  6
Continuous
 62
     7
370
    25
100
AcDbLine
 10
305.9345955667
 20
-24.0836411986
 30
0.0
 11
305.9345955667
 21
75.5343378515
 31
0.0
  0
LINE
  5
2FE
330
26E
100
AcDbEntity
  8
0
  6
Continuous
 62
     7
370
    25
100
AcDbLine
 10
-47.9617782424
 20
280.1731899587
 30
0.0
 11
-303.5201382022
 21
132.6424890331
 31
0.0
  0
LINE
  5
2FF
330
26E
100
AcDbEntity
  8
0
  6
Continuous
 62
     7
370
    25
100
AcDbLine
 10
-305.9345955667
 20
128.60086512
 30
0.0
 11
-305.9345955667
 21
28.9828860699
 31
0.0
  0
LINE
  5
300
330
26E
100
AcDbEntity
  8
0
  6
Continuous
 62
     7
370
    25
100
AcDbLine
 10
37.2579530432
 20
121.9976494204
 30
0.0
 11
35.8491209904
 21
121.3266804298
 31
0.0
  0
LINE
  5
301
330
26E
100
AcDbEntity
  8
0
  6
Continuous
 62
     7
370
    25
100
AcDbLine
 10
49.6086100807
 20
92.4359127007
 30
0.0
 11
51.0174421335
 21
93.1068816913
 31
0.0
  0
LINE
  5
302
330
26E
100
AcDbEntity
  8
0
  6
Continuous
 62
     7
370
    25
100
AcDbLine
 10
43.1335136524
 20
-73.8683466121
 30
0.0
 11
-304.7630226914
 21
126.9680488963
 31
0.0
  0
LINE
  5
303
330
26E
100
AcDbEntity
  8
0
  6
Continuous
 62
     7
370
    25
100
AcDbLine
 10
-300.5203820043
 20
132.6835691794
 30
0.0
 11
45.9619407771
 21
-67.3364182172
 31
0.0
  0
LINE
  5
304
330
26E
100
AcDbEntity
  8
0
  6
Continuous
 62
     7
370
    25
100
AcDbLine
 10
45.9619407771
 20
-67.3364182172
 30
0.0
 11
300.5203820043
 21
79.6170419109
 31
0.0
  0
LINE
  5
305
330
26E
100
AcDbEntity
  8
0
  6
Continuous
 62
     7
370
    25
100
AcDbLine
 10
304.7630226914
 20
73.9015216278
 30
0.0
 11
48.7903679019
 21
-73.8683466121
 31
0.0
  0
LINE
  5
306
330
26E
100
AcDbEntity
  8
0
  6
Continuous
 62
     7
370
    25
100
AcDbLine
 10
48.7903679019
 20
-73.8683466121
 30
0.0
 11
48.7903679019
 21
-173.4863256621
 31
0.0
  0
LINE
  5
307
330
26E
100
AcDbEntity
  8
0
  6
Continuous
 62
     7
370
    25
100
AcDbLine
 10
43.1335136524
 20
-173.4863256621
 30
0.0
 11
43.1335136524
 21
-73.8683466121
 31
0.0
  0
LINE
  5
308
330
26E
100
AcDbEntity
  8
0
  6
Continuous
 62
     7
370
    25
100
AcDbLine
 10
304.7630226914
 20
-25.7164574222
 30
0.0
 11
304.7630226914
 21
73.9015216278
 31
0.0
  0
LINE
  5
309
330
26E
100
AcDbEntity
  8
0
  6
Continuous
 62
     7
370
    25
100
AcDbLine
 10
48.7903679019
 20
-173.4863256621
 30
0.0
 11
304.7630226914
 21
-25.7164574222
 31
0.0
  0
LINE
  5
30A
330
26E
100
AcDbEntity
  8
0
  6
Continuous
 62
     7
370
    25
100
AcDbLine
 10
-304.7630226914
 20
27.3500698463
 30
0.0
 11
43.1335136524
 21
-173.4863256621
 31
0.0
  0
LINE
  5
30B
330
26E
100
AcDbEntity
  8
0
  6
Continuous
 62
     7
370
    25
100
AcDbLine
 10
-304.7630226914
 20
126.9680488963
 30
0.0
 11
-304.7630226914
 21
27.3500698463
 31
0.0
  0
LINE
  5
30C
330
26E
100
AcDbEntity
  8
0
  6
Continuous
 62
     7
370
    25
100
AcDbLine
 10
35.0816616826
 20
-46.8348893496
 30
0.0
 11
-265.0068444071
 21
126.402517754
 31
0.0
  0
LINE
  5
30D
330
26E
100
AcDbEntity
  8
0
  6
Continuous
 62
     7
370
    25
100
AcDbLine
 10
199.3671590128
 20
35.7582689726
 30
0.0
 11
56.1748651391
 21
-46.9048827461
 31
0.0
  0
LINE
  5
30E
330
26E
100
AcDbEntity
  8
0
  6
Continuous
 62
     7
370
    25
100
AcDbLine
 10
-100.8425923329
 20
221.1725232402
 30
0.0
 11
199.2459137568
 21
47.9351161365
 31
0.0
  0
LINE
  5
30F
330
26E
100
AcDbEntity
  8
0
  6
Continuous
 62
     7
370
    25
100
AcDbLine
 10
-265.1280896631
 20
138.579364918
 30
0.0
 11
-121.9357957894
 21
221.2425166366
 31
0.0
  0
LINE
  5
310
330
26E
100
AcDbEntity
  8
0
  6
Continuous
 62
     7
370
    25
100
AcDbLine
 10
-45.9619407771
 20
279.6370293075
 30
0.0
 11
-300.5203820043
 21
132.6835691794
 31
0.0
  0
LINE
  5
311
330
26E
100
AcDbEntity
  8
0
  6
Continuous
 62
     7
370
    25
100
AcDbLine
 10
300.5203820043
 20
79.6170419109
 30
0.0
 11
-45.9619407771
 21
279.6370293075
 31
0.0
  0
LINE
  5
312
330
26E
100
AcDbEntity
  8
0
  6
Continuous
 62
     7
370
    25
100
AcDbLine
 10
-104.3646724649
 20
215.4123967043
 30
0.0
 11
-98.3104929145
 21
126.3384483436
 31
0.0
  0
LINE
  5
313
330
26E
100
AcDbEntity
  8
0
  6
Continuous
 62
     7
370
    25
100
AcDbLine
 10
195.7238336248
 20
42.1749896006
 30
0.0
 11
-104.3646724649
 21
215.4123967043
 31
0.0
  0
LINE
  5
314
330
26E
100
AcDbEntity
  8
0
  6
Continuous
 62
     7
370
    25
100
AcDbLine
 10
140.186163336
 20
114.0314527602
 30
0.0
 11
140.1848122046
 21
113.9059172073
 31
0.0
  0
LINE
  5
315
330
26E
100
AcDbEntity
  8
0
  6
Continuous
 62
     7
370
    25
100
AcDbLine
 10
15.5563491861
 20
192.6842573958
 30
0.0
 11
12.0103284822
 21
194.731331575
 31
0.0
  0
LINE
  5
316
330
26E
100
AcDbEntity
  8
0
  6
Continuous
 62
     7
370
    25
100
AcDbLine
 10
45.8533702378
 20
113.2670170289
 30
0.0
 11
45.7511751089
 21
110.8847106588
 31
0.0
  0
LINE
  5
317
330
26E
100
AcDbEntity
  8
0
  6
Continuous
 62
     7
370
    25
100
AcDbLine
 10
-14.9443749468
 20
2.1526471335
 30
0.0
 11
-27.5964162745
 21
-5.1512208578
 31
0.0
  0
LINE
  5
318
330
26E
100
AcDbEntity
  8
0
  6
Continuous
 62
     7
370
    25
100
AcDbLine
 10
-118.4539745878
 20
215.8587541017
 30
0.0
 11
-261.6462684615
 21
133.1956023831
 31
0.0
  0
LINE
  5
319
330
26E
100
AcDbEntity
  8
0
  6
Continuous
 62
     7
370
    25
100
AcDbLine
 10
-112.3182955818
 20
125.5857203416
 30
0.0
 11
-118.4539745878
 21
215.8587541017
 31
0.0
  0
LINE
  5
31A
330
26E
100
AcDbEntity
  8
0
  6
Continuous
 62
     7
370
    25
100
AcDbLine
 10
69.4754852173
 20
154.8518583513
 30
0.0
 11
69.4741340859
 21
154.7263227985
 31
0.0
  0
LINE
  5
31B
330
26E
100
AcDbEntity
  8
0
  6
Continuous
 62
     7
370
    25
100
AcDbLine
 10
-1.2351929014
 20
195.6722639425
 30
0.0
 11
-1.2365440327
 21
195.5467283896
 31
0.0
  0
LINE
  5
31C
330
26E
100
AcDbEntity
  8
0
  6
Continuous
 62
     7
370
    25
100
AcDbLine
 10
49.6086100807
 20
92.4359127007
 30
0.0
 11
49.4234666803
 21
92.3514002966
 31
0.0
  0
LINE
  5
31D
330
26E
100
AcDbEntity
  8
0
  6
Continuous
 62
     8
370
    25
100
AcDbLine
 10
193.8296786629
 20
34.2521918567
 30
0.0
 11
195.7238336248
 21
42.1749896006
 31
0.0
  0
LINE
  5
31E
330
26E
100
AcDbEntity
  8
0
  6
Continuous
 62
     8
370
    25
100
AcDbLine
 10
-261.6462684615
 20
133.1956023831
 30
0.0
 11
-259.8831272264
 21
125.1353010315
 31
0.0
  0
LINE
  5
31F
330
26E
100
AcDbEntity
  8
0
  6
Continuous
 62
     8
370
    25
100
AcDbLine
 10
18.8410138599
 20
186.4137188309
 30
0.0
 11
20.5573300339
 21
187.4045270681
 31
0.0
  0
ARC
  5
320
330
26E
100
AcDbEntity
  8
0
  6
Continuous
 62
     7
370
    25
100
AcDbCircle
 10
-45.9619407771
 20
276.7089945091
 30
0.0
 40
4.00000000000023
100
AcDbArc
 50
59.3419046538
 51
120.4938071172
  0
ARC
  5
321
330
26E
100
AcDbEntity
  8
0
  6
Continuous
 62
     7
370
    25
100
AcDbCircle
 10
45.9619407771
 20
-68.4095022723
 30
0.0
 40
6.14808763164696
100
AcDbArc
 50
242.6096722366
 51
297.3903277634
  0
ARC
  5
322
330
26E
100
AcDbEntity
  8
0
  6
Continuous
 62
     7
370
    25
100
AcDbCircle
 10
52.613593752
 20
-74.0950287388
 30
0.0
 40
9.482789857486237
100
AcDbArc
 50
134.5430301514
 51
178.6302378715
  0
ARC
  5
323
330
26E
100
AcDbEntity
  8
0
  6
Continuous
 62
     7
370
    25
100
AcDbCircle
 10
39.2428506017
 20
-74.1242301011
 30
0.0
 40
9.550945657772894
100
AcDbArc
 50
1.5352195441
 51
45.291512433
  0
ARC
  5
324
330
26E
100
AcDbEntity
  8
0
  6
Continuous
 62
     7
370
    25
100
AcDbCircle
 10
-298.0854339513
 20
126.4436830505
 30
0.0
 40
6.698145334525162
100
AcDbArc
 50
111.3168806427
 51
175.5099925271
  0
ARC
  5
325
330
26E
100
AcDbEntity
  8
0
  6
Continuous
 62
     7
370
    25
100
AcDbCircle
 10
298.0854339513
 20
73.377155782
 30
0.0
 40
6.698145334525097
100
AcDbArc
 50
4.4900074729
 51
68.6831193573
  0
ARC
  5
326
330
26E
100
AcDbEntity
  8
0
  6
Continuous
 62
     7
370
    25
100
AcDbCircle
 10
45.9619407771
 20
-168.0274813223
 30
0.0
 40
6.148087631646777
100
AcDbArc
 50
242.6096722366
 51
297.3903277634
  0
ARC
  5
327
330
26E
100
AcDbEntity
  8
0
  6
Continuous
 62
     7
370
    25
100
AcDbCircle
 10
45.6949293398
 20
-26.7794478659
 30
0.0
 40
22.69057477178614
100
AcDbArc
 50
242.1123674694
 51
297.507385737
  0
ARC
  5
328
330
26E
100
AcDbEntity
  8
0
  6
Continuous
 62
     7
370
    25
100
AcDbCircle
 10
-111.4558599902
 20
201.1170817564
 30
0.0
 40
22.69057477178606
100
AcDbArc
 50
62.1123674694
 51
117.507385737
  0
ARC
  5
329
330
26E
100
AcDbEntity
  8
0
  6
Continuous
 62
     7
370
    25
100
AcDbCircle
 10
203.4545131313
 20
41.4048642246
 30
0.0
 40
7.768944505386559
100
AcDbArc
 50
122.8008629154
 51
174.3110005809
  0
ARC
  5
32A
330
26E
100
AcDbEntity
  8
0
  6
Continuous
 62
     7
370
    25
100
AcDbCircle
 10
-96.6339929584
 20
214.6422713283
 30
0.0
 40
7.768944505386727
100
AcDbArc
 50
122.8008629154
 51
174.3110005809
  0
ARC
  5
32B
330
26E
100
AcDbEntity
  8
0
  6
Continuous
 62
     7
370
    25
100
AcDbCircle
 10
-113.8850297302
 20
128.0239814883
 30
0.0
 40
15.66547857566854
100
AcDbArc
 50
302.9656868191
 51
353.8232816786
  0
ARC
  5
32C
330
26E
100
AcDbEntity
  8
0
  6
Continuous
 62
     7
370
    25
100
AcDbCircle
 10
7.6667202598
 20
180.1657583941
 30
0.0
 40
14.79726535044529
100
AcDbArc
 50
26.0921984822
 51
57.7793273054
  0
ARC
  5
32D
330
26E
100
AcDbEntity
  8
0
  6
Continuous
 62
     7
370
    25
100
AcDbCircle
 10
-269.3764897611
 20
132.014038483
 30
0.0
 40
7.820000932909474
100
AcDbArc
 50
8.690395101
 51
57.0932333861
  0
ARC
  5
32E
330
26E
100
AcDbEntity
  8
0
  6
Continuous
 62
     7
370
    25
100
AcDbCircle
 10
-126.1841958874
 20
214.6771902016
 30
0.0
 40
7.820000932909577
100
AcDbArc
 50
8.690395101
 51
57.0932333861
  0
ARC
  5
32F
330
26E
100
AcDbEntity
  8
0
  6
Continuous
 62
     7
370
    25
100
AcDbCircle
 10
-96.7566596757
 20
128.0861641204
 30
0.0
 40
15.76124142206783
100
AcDbArc
 50
189.1282619429
 51
236.9131745806
  0
ARC
  5
330
330
26E
100
AcDbEntity
  8
0
  6
Continuous
 62
     7
370
    25
100
AcDbCircle
 10
-104.2728300782
 20
106.5792191909
 30
0.0
 40
20.63920059409043
100
AcDbArc
 50
73.20883869
 51
112.9429751597
  0
ARC
  5
331
330
26E
100
AcDbEntity
  8
0
  6
Continuous
 62
     7
370
    25
100
AcDbCircle
 10
-111.7796893149
 20
203.9449536705
 30
0.0
 40
13.65594100088023
100
AcDbArc
 50
57.1126986858
 51
119.2581869755
  0
ARC
  5
332
330
26E
100
AcDbEntity
  8
0
  6
Continuous
 62
     7
370
    25
100
AcDbCircle
 10
46.7993595566
 20
103.2518708923
 30
0.0
 40
6.044957925744174
100
AcDbArc
 50
236.4643169574
 51
283.9645658076
  0
ARC
  5
333
330
26E
100
AcDbEntity
  8
0
  6
Continuous
 62
     8
370
    25
100
AcDbCircle
 10
36.5346085843
 20
-48.7683942754
 30
0.0
 40
2.418573132474739
100
AcDbArc
 50
64.1467934394
 51
126.9233081187
  0
ARC
  5
334
330
26E
100
AcDbEntity
  8
0
  6
Continuous
 62
     8
370
    25
100
AcDbCircle
 10
54.7088238804
 20
-48.9506611575
 30
0.0
 40
2.516840535408325
100
AcDbArc
 50
54.3739419024
 51
113.9662176481
  0
ARC
  5
335
330
26E
100
AcDbEntity
  8
0
  6
Continuous
 62
     8
370
    25
100
AcDbCircle
 10
197.9029164931
 20
33.7174751285
 30
0.0
 40
2.511741561229986
100
AcDbArc
 50
54.3410619985
 51
114.3484795725
  0
ARC
  5
336
330
26E
100
AcDbEntity
  8
0
  6
Continuous
 62
     8
370
    25
100
AcDbCircle
 10
-263.5529153432
 20
124.4658748259
 30
0.0
 40
2.421672057446886
100
AcDbArc
 50
64.4131749372
 51
126.8972834919
  0
ARC
  5
337
330
26E
100
AcDbEntity
  8
0
  6
Continuous
 62
     8
370
    25
100
AcDbCircle
 10
47.3635568846
 20
-173.6680759199
 30
0.0
 40
1.438340305756957
100
AcDbArc
 50
304.0211438796
 51
7.2593641606
  0
ARC
  5
338
330
26E
100
AcDbEntity
  8
0
  6
Continuous
 62
     8
370
    25
100
AcDbCircle
 10
44.5602873459
 20
-173.6680847578
 30
0.0
 40
1.438304398031875
100
AcDbArc
 50
172.7400987217
 51
235.9842080335
  0
ARC
  5
339
330
26E
100
AcDbEntity
  8
0
  6
Continuous
 62
     8
370
    25
100
AcDbCircle
 10
303.3359660235
 20
-25.8981495079
 30
0.0
 40
1.438576639435204
100
AcDbArc
 50
304.0563508362
 51
7.2558295572
  0
ARC
  5
33A
330
26E
100
AcDbEntity
  8
0
  6
Continuous
 62
     8
370
    25
100
AcDbCircle
 10
-303.3359660236
 20
27.1683777605
 30
0.0
 40
1.438576639294254
100
AcDbArc
 50
172.7441704394
 51
235.9436491672
  0
ARC
  5
33B
330
26E
100
AcDbEntity
  8
0
  6
Continuous
 62
     8
370
    25
100
AcDbCircle
 10
194.507661849
 20
38.142436908
 30
0.0
 40
4.211953822913576
100
AcDbArc
 50
354.2431739213
 51
73.2172895552
  0
ARC
  5
33C
330
26E
100
AcDbEntity
  8
0
  6
Continuous
 62
     8
370
    25
100
AcDbCircle
 10
46.7961558572
 20
103.2430366682
 30
0.0
 40
6.035824730615785
100
AcDbArc
 50
236.4433372813
 51
284.2685100917
  0
ARC
  5
33D
330
26E
100
AcDbEntity
  8
0
  6
Continuous
 62
     8
370
    25
100
AcDbCircle
 10
304.0221253045
 20
75.6697313971
 30
0.0
 40
1.917157981447734
100
AcDbArc
 50
292.734166205
 51
355.9921455491
  0
ARC
  5
33E
330
26E
100
AcDbEntity
  8
0
  6
Continuous
 62
     8
370
    25
100
AcDbCircle
 10
301.9779698081
 20
76.4255906554
 30
0.0
 40
3.508550031268935
100
AcDbArc
 50
64.1520033655
 51
114.5469526506
  0
ARC
  5
33F
330
26E
100
AcDbEntity
  8
0
  6
Continuous
 62
     8
370
    25
100
AcDbCircle
 10
-44.5825337097
 20
278.489647704
 30
0.0
 40
1.794226407594265
100
AcDbArc
 50
69.769807241
 51
140.2465417532
  0
ARC
  5
340
330
26E
100
AcDbEntity
  8
0
  6
Continuous
 62
     8
370
    25
100
AcDbCircle
 10
303.9327673167
 20
-23.884015691
 30
0.0
 40
2.011757113975193
100
AcDbArc
 50
294.3746582936
 51
354.3052007488
  0
ARC
  5
341
330
26E
100
AcDbEntity
  8
0
  6
Continuous
 62
     8
370
    25
100
AcDbCircle
 10
-260.1661984048
 20
129.1189429999
 30
0.0
 40
4.337021915891835
100
AcDbArc
 50
109.9539110643
 51
188.6413382903
  0
ARC
  5
342
330
26E
100
AcDbEntity
  8
0
  6
Continuous
 62
     8
370
    25
100
AcDbCircle
 10
-301.9784727558
 20
129.4895868565
 30
0.0
 40
3.511061337885033
100
AcDbArc
 50
65.4627408179
 51
115.7116097404
  0
ARC
  5
343
330
26E
100
AcDbEntity
  8
0
  6
Continuous
 62
     8
370
    25
100
AcDbCircle
 10
-303.9326933464
 20
128.8005780435
 30
0.0
 40
2.01186726612473
100
AcDbArc
 50
185.7050267769
 51
245.6244503069
  0
ARC
  5
344
330
26E
100
AcDbEntity
  8
0
  6
Continuous
 62
     8
370
    25
100
AcDbCircle
 10
-47.3413478446
 20
278.489647704
 30
0.0
 40
1.794226407594479
100
AcDbArc
 50
39.7534582468
 51
110.230192759
  0
ARC
  5
345
330
26E
100
AcDbEntity
  8
0
  6
Continuous
 62
     8
370
    25
100
AcDbCircle
 10
-303.9327673167
 20
29.1825115775
 30
0.0
 40
2.011757113974879
100
AcDbArc
 50
185.6947992512
 51
245.6253417064
  0
ARC
  5
346
330
26E
100
AcDbEntity
  8
0
  6
Continuous
 62
     8
370
    25
100
AcDbCircle
 10
47.1927724908
 20
103.7574469029
 30
0.0
 40
5.273581601256269
100
AcDbArc
 50
235.7638614034
 51
291.3767138978
  0
ARC
  5
347
330
26E
100
AcDbEntity
  8
0
  6
Continuous
 62
     8
370
    25
100
AcDbCircle
 10
59.6178786323
 20
114.9254997912
 30
0.0
 40
14.83787203778849
100
AcDbArc
 50
182.113891886
 51
228.9163103454
  0
ARC
  5
348
330
26E
100
AcDbEntity
  8
0
  6
Continuous
 62
     8
370
    25
100
AcDbCircle
 10
45.2928075028
 20
102.1496623224
 30
0.0
 40
5.633697774362857
100
AcDbArc
 50
234.8695546807
 51
292.3940207423
  0
VIEWPORT
  5
34F
330
26E
100
AcDbEntity
  8
0
100
AcDbViewport
 10
0.0
 20
0.0
 30
0.0
 40
205.6
 41
156.0
 68
     1
 69
     1
 12
0.0
 22
0.0
 13
0.0
 23
0.0
 14
10.0
 24
10.0
 15
10.0
 25
10.0
 16
0.0
 26
0.0
 36
1.0
 17
0.0
 27
0.0
 37
0.0
 42
50.0
 43
0.0
 44
0.0
 45
386.9649805447
 50
0.0
 51
0.0
 72
   100
 90
   557152
  1

281
     0
 71
     1
 74
     0
110
0.0
120
0.0
130
0.0
111
1.0
121
0.0
131
0.0
112
0.0
122
1.0
132
0.0
 79
     0
146
0.0
  0
ENDBLK
  5
271
330
26E
100
AcDbEntity
  8
0
100
AcDbBlockEnd
  0
ENDSEC
  0
SECTION
  2
ENTITIES
  0
SPLINE
  5
73
330
1F
100
AcDbEntity
  8
0
  6
Continuous
 62
     7
370
    25
100
AcDbSpline
210
0.0
220
0.0
230
1.0
 70
     8
 71
     3
 72
    22
 73
    18
 74
     0
 42
0.000000001
 43
0.00000001
 40
0.0
 40
0.0
 40
0.0
 40
0.0
 40
0.0336451543084891
 40
0.0685306237671992
 40
0.1019771110602056
 40
0.1382003536314208
 40
0.1831454817209653
 40
0.2497721337017235
 40
0.3474145066238028
 40
0.4380376744078361
 40
0.5335810329806742
 40
0.6263147726242462
 40
0.7178715773461367
 40
0.8088663515722858
 40
0.8995710806919627
 40
0.9853485293675096
 40
0.9999999999999999
 40
0.9999999999999999
 40
0.9999999999999999
 40
0.9999999999999999
 10
-15.97484983743423
 20
60.40294513561842
 30
0.0
 10
-15.9599412890824
 20
60.17221669806677
 30
0.0
 10
-15.92957459470952
 20
59.70225411144085
 30
0.0
 10
-15.58351494200353
 20
59.12390548868031
 30
0.0
 10
-15.17492683030045
 20
58.71559151071318
 30
0.0
 10
-14.75204732405847
 20
58.44950808616726
 30
0.0
 10
-14.28376084359759
 20
58.24648193377635
 30
0.0
 10
-13.64543602757675
 20
58.05788017099995
 30
0.0
 10
-12.73905017118718
 20
57.87895057423474
 30
0.0
 10
-11.48245523730844
 20
57.70657449949254
 30
0.0
 10
-10.0053563433199
 20
57.55950032252025
 30
0.0
 10
-8.298659264412969
 20
57.43504515734472
 30
0.0
 10
-6.43595695527291
 20
57.33681970450801
 30
0.0
 10
-4.444891257325929
 20
57.26487842484919
 30
0.0
 10
-2.399929009250571
 20
57.22099276571724
 30
0.0
 10
-0.9023141438980636
 20
57.20817114511151
 30
0.0
 10
-0.1148782098099873
 20
57.20763845964433
 30
0.0
 10
0.0000000000000002
 20
57.20756074671529
 30
0.0
  0
SPLINE
  5
74
330
1F
100
AcDbEntity
  8
0
  6
Continuous
 62
     7
370
    25
100
AcDbSpline
210
0.0
220
0.0
230
1.0
 70
     8
 71
     3
 72
    21
 73
    17
 74
     0
 42
0.000000001
 43
0.00000001
 40
0.0
 40
0.0
 40
0.0
 40
0.0
 40
0.0474387283036669
 40
0.1378276839569735
 40
0.2283326341078765
 40
0.3189817262023133
 40
0.4099020849258023
 40
0.5013095813169709
 40
0.5936325130505734
 40
0.6878897704407739
 40
0.7873048486237341
 40
0.8467838618707832
 40
0.8933964995345888
 40
0.9300894280257178
 40
0.9673585953557441
 40
1.0
 40
1.0
 40
1.0
 40
1.0
 10
0.0000000000000002
 20
57.20756074671529
 30
0.0
 10
0.372315870549221
 20
57.20833224488398
 30
0.0
 10
1.454036143692734
 20
57.21057374269748
 30
0.0
 10
3.232215983498941
 20
57.23554524702764
 30
0.0
 10
5.275021592227161
 20
57.29114766045112
 30
0.0
 10
7.206248321415555
 20
57.37349209040121
 30
0.0
 10
8.986175568168036
 20
57.48076561470106
 30
0.0
 10
10.58169335052266
 20
57.61192003935709
 30
0.0
 10
11.968719611537
 20
57.76641550050378
 30
0.0
 10
13.14455453377601
 20
57.94965208617059
 30
0.0
 10
13.96959948456508
 20
58.14011340182405
 30
0.0
 10
14.59093158002872
 20
58.36683940327382
 30
0.0
 10
15.09918978147644
 20
58.64971528011034
 30
0.0
 10
15.57590960223229
 20
59.10535763656043
 30
0.0
 10
15.93542498796075
 20
59.71615955833798
 30
0.0
 10
15.96755509488118
 20
60.19514945363143
 30
0.0
 10
15.98255671468825
 20
60.41879092231423
 30
0.0
  0
SPLINE
  5
77
330
1F
100
AcDbEntity
  8
0
  6
Continuous
 62
     7
370
    25
100
AcDbSpline
210
0.0
220
0.0
230
1.0
 70
     8
 71
     3
 72
    10
 73
     6
 74
     0
 42
0.000000001
 43
0.00000001
 40
0.0
 40
0.0
 40
0.0
 40
0.0
 40
0.30208788350471
 40
0.7464610543296291
 40
1.0
 40
1.0
 40
1.0
 40
1.0
 10
11.21244244997621
 20
58.97211249829128
 30
0.0
 10
11.34259243475406
 20
58.95071950755423
 30
0.0
 10
11.66419386322296
 20
58.8978572933019
 30
0.0
 10
11.91975325451934
 20
58.82574431368651
 30
0.0
 10
11.935244664707
 20
58.82026742657334
 30
0.0
 10
11.94087241598555
 20
58.81827777178528
 30
0.0
  0
SPLINE
  5
78
330
1F
100
AcDbEntity
  8
0
  6
Continuous
 62
     7
370
    25
100
AcDbSpline
210
0.0
220
0.0
230
1.0
 70
     8
 71
     3
 72
    10
 73
     6
 74
     0
 42
0.000000001
 43
0.00000001
 40
0.0
 40
0.0
 40
0.0
 40
0.0
 40
0.2112223945088419
 40
0.6413963064741622
 40
1.0
 40
1.0
 40
1.0
 40
1.0
 10
-11.94105712759656
 20
58.81866593262225
 30
0.0
 10
-11.94148421069584
 20
58.81843144409527
 30
0.0
 10
-11.94278108796624
 20
58.81771939802903
 30
0.0
 10
-11.75222631425477
 20
58.87609821357157
 30
0.0
 10
-11.48952826128312
 20
58.92393988100807
 30
0.0
 10
-11.37009726904669
 20
58.94569024324925
 30
0.0
  0
CIRCLE
  5
80
330
1F
100
AcDbEntity
  8
0
  6
Continuous
 62
     7
370
    25
100
AcDbCircle
 10
0.0
 20
123.0
 30
0.0
 40
17.5
  0
CIRCLE
  5
81
330
1F
100
AcDbEntity
  8
0
  6
Continuous
 62
     7
370
    25
100
AcDbCircle
 10
0.0
 20
123.0
 30
0.0
 40
19.5000000000001
  0
CIRCLE
  5
A0
330
1F
100
AcDbEntity
  8
0
  6
Continuous
 62
     7
370
    25
100
AcDbCircle
 10
100.0
 20
123.0
 30
0.0
 40
19.50000000000009
  0
CIRCLE
  5
A1
330
1F
100
AcDbEntity
  8
0
  6
Continuous
 62
     7
370
    25
100
AcDbCircle
 10
-100.0
 20
123.0
 30
0.0
 40
19.50000000000004
  0
CIRCLE
  5
A8
330
1F
100
AcDbEntity
  8
0
  6
Continuous
 62
     7
370
    25
100
AcDbCircle
 10
100.0
 20
123.0
 30
0.0
 40
17.5
  0
CIRCLE
  5
A9
330
1F
100
AcDbEntity
  8
0
  6
Continuous
 62
     7
370
    25
100
AcDbCircle
 10
-100.0
 20
123.0
 30
0.0
 40
17.5
  0
SPLINE
  5
B7
330
1F
100
AcDbEntity
  8
0
  6
Continuous
 62
     7
370
    25
100
AcDbSpline
210
0.0
220
0.0
230
1.0
 70
     8
 71
     3
 72
    10
 73
     6
 74
     0
 42
0.000000001
 43
0.00000001
 40
0.0
 40
0.0
 40
0.0
 40
0.0
 40
0.5000000000000001
 40
0.5000000000000001
 40
1.0
 40
1.0
 40
1.0
 40
1.0
 10
205.0489640263195
 20
46.2069071119672
 30
0.0
 10
205.0099012076553
 20
15.30507946408473
 30
0.0
 10
204.9913202167664
 20
-15.59733033754916
 30
0.0
 10
204.9913201566659
 20
-77.40252222565293
 30
0.0
 10
205.0099012153189
 20
-108.3050855265323
 30
0.0
 10
205.0489640263195
 20
-139.2069071119672
 30
0.0
  0
SPLINE
  5
B8
330
1F
100
AcDbEntity
  8
0
  6
Continuous
 62
     7
370
    25
100
AcDbSpline
210
0.0
220
0.0
230
1.0
 70
     8
 71
     3
 72
    10
 73
     6
 74
     0
 42
0.000000001
 43
0.00000001
 40
0.0
 40
0.0
 40
0.0
 40
0.0
 40
0.5
 40
0.5
 40
1.0
 40
1.0
 40
1.0
 40
1.0
 10
-205.0489640263195
 20
-139.2069071119672
 30
0.0
 10
-205.0099012076553
 20
-108.3050794640847
 30
0.0
 10
-204.9913202167664
 20
-77.40266966245082
 30
0.0
 10
-204.9913201566658
 20
-15.59747777434704
 30
0.0
 10
-205.0099012153189
 20
15.30508552653237
 30
0.0
 10
-205.0489640263195
 20
46.20690711196722
 30
0.0
  0
SPLINE
  5
B9
330
1F
100
AcDbEntity
  8
0
  6
Continuous
 62
     7
370
    25
100
AcDbSpline
210
0.0
220
0.0
230
1.0
 70
     8
 71
     3
 72
    14
 73
    10
 74
     0
 42
0.000000001
 43
0.00000001
 40
0.0
 40
0.0
 40
0.0
 40
0.0
 40
0.2499999999999999
 40
0.2499999999999999
 40
0.4999999999999998
 40
0.4999999999999998
 40
0.7499999999999999
 40
0.7499999999999999
 40
1.0
 40
1.0
 40
1.0
 40
1.0
 10
-195.2008864961974
 20
56.16885409288466
 30
0.0
 10
-162.6680080683612
 20
56.14596189224204
 30
0.0
 10
-130.1348213092578
 20
56.12956865947921
 30
0.0
 10
-65.06791898372347
 20
56.10792832865678
 30
0.0
 10
-32.53413324686464
 20
56.10267703635753
 30
0.0
 10
32.5336223116493
 20
56.1026769808246
 30
0.0
 10
65.067438769734
 20
56.10792820095622
 30
0.0
 10
130.1347457369348
 20
56.12956860233336
 30
0.0
 10
162.6680308801122
 20
56.14596190829383
 30
0.0
 10
195.2008864961973
 20
56.16885409288466
 30
0.0
  0
SPLINE
  5
BA
330
1F
100
AcDbEntity
  8
0
  6
Continuous
 62
     7
370
    25
100
AcDbSpline
210
0.0
220
0.0
230
1.0
 70
     8
 71
     3
 72
    14
 73
    10
 74
     0
 42
0.000000001
 43
0.00000001
 40
0.0
 40
0.0
 40
0.0
 40
0.0
 40
0.2500000000000001
 40
0.2500000000000001
 40
0.5000000000000001
 40
0.5000000000000001
 40
0.7500000000000002
 40
0.7500000000000002
 40
1.0
 40
1.0
 40
1.0
 40
1.0
 10
195.2008864961974
 20
-149.1688540928847
 30
0.0
 10
162.6680080683612
 20
-149.145961892242
 30
0.0
 10
130.1348213092578
 20
-149.1295686594792
 30
0.0
 10
65.06791898372352
 20
-149.1079283286568
 30
0.0
 10
32.53413324686463
 20
-149.1026770363575
 30
0.0
 10
-32.53362231164931
 20
-149.1026769808246
 30
0.0
 10
-65.06743876973397
 20
-149.1079282009562
 30
0.0
 10
-130.1347457369348
 20
-149.1295686023334
 30
0.0
 10
-162.6680308801122
 20
-149.1459619082939
 30
0.0
 10
-195.2008864961973
 20
-149.1688540928847
 30
0.0
  0
SPLINE
  5
BB
330
1F
100
AcDbEntity
  8
0
  6
Continuous
 62
     7
370
    25
100
AcDbSpline
210
0.0
220
0.0
230
1.0
 70
     8
 71
     3
 72
    14
 73
    10
 74
     0
 42
0.000000001
 43
0.00000001
 40
0.0
 40
0.0
 40
0.0
 40
0.0
 40
0.2500000000000001
 40
0.2500000000000001
 40
0.5
 40
0.5
 40
0.7499999999999999
 40
0.7499999999999999
 40
1.0
 40
1.0
 40
1.0
 40
1.0
 10
195.2812605775112
 20
46.27849169909329
 30
0.0
 10
162.7355672359724
 20
46.52986868232703
 30
0.0
 10
130.1890640662169
 20
46.72067053245022
 30
0.0
 10
65.09465785199455
 20
46.97473333463657
 30
0.0
 10
32.54714603358613
 20
47.0383395183506
 30
0.0
 10
-32.54810906306704
 20
47.03833826456243
 30
0.0
 10
-65.09556306414694
 20
46.97473047963612
 30
0.0
 10
-130.1892041602543
 20
46.72066930762031
 30
0.0
 10
-162.7355224188158
 20
46.52986902848659
 30
0.0
 10
-195.2812605775113
 20
46.27849169909332
 30
0.0
  0
SPLINE
  5
BF
330
1F
100
AcDbEntity
  8
0
  6
Continuous
 62
     7
370
    25
100
AcDbSpline
210
0.0
220
0.0
230
1.0
 70
     8
 71
     3
 72
    14
 73
    10
 74
     0
 42
0.000000001
 43
0.00000001
 40
0.0
 40
0.0
 40
0.0
 40
0.0
 40
0.25
 40
0.25
 40
0.5
 40
0.5
 40
0.75
 40
0.75
 40
1.0
 40
1.0
 40
1.0
 40
1.0
 10
-195.2812605775112
 20
-139.2784916990933
 30
0.0
 10
-162.7355672359724
 20
-139.529868682327
 30
0.0
 10
-130.1890640662168
 20
-139.7206705324502
 30
0.0
 10
-65.09465785199446
 20
-139.9747333346366
 30
0.0
 10
-32.54714603358608
 20
-140.0383395183507
 30
0.0
 10
32.54810906306715
 20
-140.0383382645624
 30
0.0
 10
65.09556306414699
 20
-139.9747304796361
 30
0.0
 10
130.1892041602543
 20
-139.7206693076203
 30
0.0
 10
162.7355224188157
 20
-139.5298690284866
 30
0.0
 10
195.2812605775112
 20
-139.2784916990933
 30
0.0
  0
SPLINE
  5
C5
330
1F
100
AcDbEntity
  8
0
  6
Continuous
 62
     7
370
    25
100
AcDbSpline
210
0.0
220
0.0
230
1.0
 70
     8
 71
     3
 72
    10
 73
     6
 74
     0
 42
0.000000001
 43
0.00000001
 40
0.0
 40
0.0
 40
0.0
 40
0.0
 40
0.5
 40
0.5
 40
1.0
 40
1.0
 40
1.0
 40
1.0
 10
-195.2812605775112
 20
46.27849169909332
 30
0.0
 10
-195.5027161871366
 20
15.35325186834262
 30
0.0
 10
-195.614595182332
 20
-15.57341433320618
 30
0.0
 10
-195.6145945051871
 20
-77.42686765320448
 30
0.0
 10
-195.5027162789342
 20
-108.3532390492388
 30
0.0
 10
-195.2812605775112
 20
-139.2784916990933
 30
0.0
  0
SPLINE
  5
C6
330
1F
100
AcDbEntity
  8
0
  6
Continuous
 62
     7
370
    25
100
AcDbSpline
210
0.0
220
0.0
230
1.0
 70
     8
 71
     3
 72
    10
 73
     6
 74
     0
 42
0.000000001
 43
0.00000001
 40
0.0
 40
0.0
 40
0.0
 40
0.0
 40
0.5
 40
0.5
 40
1.0
 40
1.0
 40
1.0
 40
1.0
 10
195.2812605775113
 20
-139.2784916990933
 30
0.0
 10
195.5027161871366
 20
-108.3532518683426
 30
0.0
 10
195.614595182332
 20
-77.42658566679377
 30
0.0
 10
195.6145945051871
 20
-15.57313234679547
 30
0.0
 10
195.5027162789342
 20
15.35323904923881
 30
0.0
 10
195.2812605775112
 20
46.27849169909336
 30
0.0
  0
SPLINE
  5
C7
330
1F
100
AcDbEntity
  8
0
  6
Continuous
 62
     7
370
    25
100
AcDbSpline
210
0.0
220
0.0
230
1.0
 70
    11
 71
     3
 72
   121
 73
   117
 74
     0
 42
0.000000001
 43
0.00000001
 40
0.0
 40
0.0
 40
0.0
 40
0.0
 40
0.03125
 40
0.03125
 40
0.046875
 40
0.046875
 40
0.0625000000000001
 40
0.0625000000000001
 40
0.0937500000000001
 40
0.0937500000000001
 40
0.1015625000000001
 40
0.1015625000000001
 40
0.1093750000000001
 40
0.1093750000000001
 40
0.1250000000000001
 40
0.1250000000000001
 40
0.1562500000000001
 40
0.1562500000000001
 40
0.1640625000000001
 40
0.1640625000000001
 40
0.1718750000000001
 40
0.1718750000000001
 40
0.1875000000000001
 40
0.2031250000000001
 40
0.2031250000000001
 40
0.2109375000000001
 40
0.2109375000000001
 40
0.2187500000000001
 40
0.2187500000000001
 40
0.2500000000000003
 40
0.2500000000000003
 40
0.2656250000000003
 40
0.2656250000000003
 40
0.2734375000000003
 40
0.2734375000000003
 40
0.2812500000000003
 40
0.2812500000000003
 40
0.3125000000000002
 40
0.3125000000000002
 40
0.3203125000000002
 40
0.3203125000000002
 40
0.3281250000000001
 40
0.3281250000000001
 40
0.34375
 40
0.34375
 40
0.3749999999999998
 40
0.3749999999999998
 40
0.4062499999999997
 40
0.4062499999999997
 40
0.4218749999999996
 40
0.4218749999999996
 40
0.4374999999999995
 40
0.4374999999999995
 40
0.4687499999999993
 40
0.4687499999999993
 40
0.4843749999999992
 40
0.4843749999999992
 40
0.4999999999999991
 40
0.515624999999999
 40
0.515624999999999
 40
0.5312499999999989
 40
0.5312499999999989
 40
0.5624999999999987
 40
0.5624999999999987
 40
0.5781249999999987
 40
0.5781249999999987
 40
0.5937499999999986
 40
0.5937499999999986
 40
0.6093749999999984
 40
0.6093749999999984
 40
0.6249999999999983
 40
0.6249999999999983
 40
0.6562499999999981
 40
0.6562499999999981
 40
0.671874999999998
 40
0.671874999999998
 40
0.6796874999999979
 40
0.6796874999999979
 40
0.6874999999999978
 40
0.6874999999999978
 40
0.7187499999999977
 40
0.7187499999999977
 40
0.7265624999999977
 40
0.7265624999999977
 40
0.7343749999999977
 40
0.7343749999999977
 40
0.7499999999999977
 40
0.7499999999999977
 40
0.7812499999999978
 40
0.7812499999999978
 40
0.7890624999999978
 40
0.7890624999999978
 40
0.7968749999999978
 40
0.7968749999999978
 40
0.8124999999999978
 40
0.8281249999999979
 40
0.8281249999999979
 40
0.8359374999999979
 40
0.8359374999999979
 40
0.8437499999999979
 40
0.8437499999999979
 40
0.8749999999999979
 40
0.8749999999999979
 40
0.890624999999998
 40
0.890624999999998
 40
0.8984374999999981
 40
0.8984374999999981
 40
0.9062499999999982
 40
0.9062499999999982
 40
0.9374999999999988
 40
0.9374999999999988
 40
0.9531249999999992
 40
0.9531249999999992
 40
0.9687499999999996
 40
0.9687499999999996
 40
1.0
 40
1.0
 40
1.0
 40
1.0
 10
0.0000000000000024
 20
-72.74718777501707
 30
0.0
 10
-2.167138055813564
 20
-72.74718777501707
 30
0.0
 10
-4.298839425005668
 20
-72.53695248474493
 30
0.0
 10
-7.445316788910275
 20
-71.91858075570755
 30
0.0
 10
-8.485567339020628
 20
-71.661581044008
 30
0.0
 10
-10.54851413421654
 20
-71.04343091056451
 30
0.0
 10
-11.57400238094544
 20
-70.680550226492
 30
0.0
 10
-14.55854992289913
 20
-69.45713473487521
 30
0.0
 10
-16.44759421031164
 20
-68.45814679199302
 30
0.0
 10
-18.68374467993046
 20
-66.98137475162842
 30
0.0
 10
-19.12466104431033
 20
-66.67451646706579
 30
0.0
 10
-19.99365345649323
 20
-66.03740367702058
 30
0.0
 10
-20.42280605775206
 20
-65.70625944461038
 30
0.0
 10
-21.68226449220979
 20
-64.68368292372129
 30
0.0
 10
-22.48178098655855
 20
-63.96592034273174
 30
0.0
 10
-24.76350139946126
 20
-61.70767174462942
 30
0.0
 10
-26.12998832477411
 20
-60.06322398109822
 30
0.0
 10
-27.63945287165396
 20
-57.82918396408069
 30
0.0
 10
-27.93208571214869
 20
-57.37205307654238
 30
0.0
 10
-28.49180543007052
 20
-56.44779769047518
 30
0.0
 10
-28.75913933269313
 20
-55.98047029346539
 30
0.0
 10
-29.52423789562834
 20
-54.56316894353991
 30
0.0
 10
-30.44613427550464
 20
-52.63265466578878
 30
0.0
 10
-31.17432764297759
 20
-50.62172950151179
 30
0.0
 10
-31.64675438324875
 20
-49.08293296209832
 30
0.0
 10
-31.79192166729253
 20
-48.56489124122691
 30
0.0
 10
-32.05718150866289
 20
-47.5183984779182
 30
0.0
 10
-32.17743477349324
 20
-46.98884399257859
 30
0.0
 10
-32.70917869389418
 20
-44.34320722929841
 30
0.0
 10
-32.91968853553176
 20
-42.21507848525081
 30
0.0
 10
-32.92150841959099
 20
-39.00591164564071
 30
0.0
 10
-32.86941118156707
 20
-37.9333398451336
 30
0.0
 10
-32.70973996865962
 20
-36.32007426881399
 30
0.0
 10
-32.64279386259501
 20
-35.781536558933
 30
0.0
 10
-32.48317712122362
 20
-34.71517719000938
 30
0.0
 10
-32.39037985259937
 20
-34.18581056129191
 30
0.0
 10
-31.86254226853944
 20
-31.55772139009499
 30
0.0
 10
-31.23778191933826
 20
-29.51469293988288
 30
0.0
 10
-30.20239919662604
 20
-27.03558788266458
 30
0.0
 10
-29.98248608602115
 20
-26.54353461062869
 30
0.0
 10
-29.51647737409423
 20
-25.56711267322216
 30
0.0
 10
-29.27100132756276
 20
-25.08420731183411
 30
0.0
 10
-28.50343844487033
 20
-23.66251526187629
 30
0.0
 10
-27.9481488893098
 20
-22.74611915419884
 30
0.0
 10
-26.15480014476108
 20
-20.08876726047014
 30
0.0
 10
-24.79049908259377
 20
-18.43875642221825
 30
0.0
 10
-21.71193617409206
 20
-15.39079120891701
 30
0.0
 10
-20.04605681996889
 20
-14.04126619252817
 30
0.0
 10
-17.37248212417696
 20
-12.27266654710987
 30
0.0
 10
-16.45158478101825
 20
-11.72570973832777
 30
0.0
 10
-14.54921344414368
 20
-10.71860973409252
 30
0.0
 10
-13.56388861372967
 20
-10.25741315291852
 30
0.0
 10
-10.57813171451873
 20
-9.034179386954172
 30
0.0
 10
-8.531138832478536
 20
-8.42025691413171
 30
0.0
 10
-5.377080827624444
 20
-7.797529756530272
 30
0.0
 10
-4.309610194933702
 20
-7.639799737454934
 30
0.0
 10
-2.154531515733508
 20
-7.428981320006265
 30
0.0
 10
0.0006436513977103
 20
-7.324349162590749
 30
0.0
 10
2.156009054020499
 20
-7.429071062105246
 30
0.0
 10
4.311470996884128
 20
-7.640036790185574
 30
0.0
 10
5.378256863601865
 20
-7.797727580607147
 30
0.0
 10
8.53185965778561
 20
-8.420468019275285
 30
0.0
 10
10.57894474783895
 20
-9.03441796672704
 30
0.0
 10
13.56534796601708
 20
-10.25805833457071
 30
0.0
 10
14.55067697089661
 20
-10.71933369407927
 30
0.0
 10
16.45255705626428
 20
-11.72627533735152
 30
0.0
 10
17.37331719372679
 20
-12.27318227591545
 30
0.0
 10
19.15560298319154
 20
-13.45225770450505
 30
0.0
 10
20.01712731238922
 20
-14.08442808650526
 30
0.0
 10
21.68035259313955
 20
-15.43488750371045
 30
0.0
 10
22.48325361247581
 20
-16.15435374612105
 30
0.0
 10
24.79122172512768
 20
-18.43964974316531
 30
0.0
 10
26.15532822953786
 20
-20.08943499765639
 30
0.0
 10
27.94870770777987
 20
-22.74700462551934
 30
0.0
 10
28.50406254074105
 20
-23.6635660430154
 30
0.0
 10
29.27176707404682
 20
-25.08567833986896
 30
0.0
 10
29.51735444714338
 20
-25.56888139561446
 30
0.0
 10
29.98315323973168
 20
-26.54500171540468
 30
0.0
 10
30.20298184284206
 20
-27.03692588371991
 30
0.0
 10
31.23802251520693
 20
-29.515497687628
 30
0.0
 10
31.8627644484808
 20
-31.55845557508991
 30
0.0
 10
32.39059756336345
 20
-34.18698766848768
 30
0.0
 10
32.48339492374669
 20
-34.71646966372137
 30
0.0
 10
32.64300596061612
 20
-35.78311658131135
 30
0.0
 10
32.70993719029503
 20
-36.32180079283655
 30
0.0
 10
32.8694830496343
 20
-37.93459942213908
 30
0.0
 10
32.92153878388033
 20
-39.00696271341865
 30
0.0
 10
32.91962616578399
 20
-42.21579832108181
 30
0.0
 10
32.70909991160596
 20
-44.34409598726635
 30
0.0
 10
32.17709134351097
 20
-46.99042828462238
 30
0.0
 10
32.05680877080351
 20
-47.5199679723884
 30
0.0
 10
31.79157318884271
 20
-48.56616679162187
 30
0.0
 10
31.64641859241636
 20
-49.08408907516112
 30
0.0
 10
31.17402081686051
 20
-50.62260395933391
 30
0.0
 10
30.44584177751733
 20
-52.63335761446823
 30
0.0
 10
29.52380300292057
 20
-54.56405749022031
 30
0.0
 10
28.75849762700786
 20
-55.98161717890213
 30
0.0
 10
28.49107787637836
 20
-56.44905049234779
 30
0.0
 10
27.93114488264557
 20
-57.37355509327344
 30
0.0
 10
27.63856795631743
 20
-57.83053703108779
 30
0.0
 10
26.12940419505388
 20
-60.0639147158935
 30
0.0
 10
24.76300951426428
 20
-61.70825217570574
 30
0.0
 10
22.48094027120049
 20
-63.96670557337755
 30
0.0
 10
21.68122634710766
 20
-64.68459913834566
 30
0.0
 10
20.42131049688067
 20
-65.7074369657037
 30
0.0
 10
19.99237184652907
 20
-66.03837303408434
 30
0.0
 10
19.12357817840962
 20
-66.67528057440151
 30
0.0
 10
18.68274368681714
 20
-66.98205772282606
 30
0.0
 10
16.44690717831854
 20
-68.45851276983582
 30
0.0
 10
14.5578118834471
 20
-69.45752913308792
 30
0.0
 10
11.57255787930379
 20
-70.68109637797644
 30
0.0
 10
10.5469377212472
 20
-71.04394919382172
 30
0.0
 10
8.48455028571217
 20
-71.66183982021204
 30
0.0
 10
7.444536116624969
 20
-71.91875390116141
 30
0.0
 10
4.298633435791092
 20
-72.5369535082517
 30
0.0
 10
2.167138055813598
 20
-72.74718777501705
 30
0.0
 10
0.0000000000000016
 20
-72.74718777501707
 30
0.0
  0
SPLINE
  5
C8
330
1F
100
AcDbEntity
  8
0
  6
Continuous
 62
     7
370
    25
100
AcDbSpline
210
0.0
220
0.0
230
1.0
 70
    11
 71
     3
 72
   109
 73
   105
 74
     0
 42
0.000000001
 43
0.00000001
 40
0.0
 40
0.0
 40
0.0
 40
0.0
 40
0.0312499999999998
 40
0.0312499999999998
 40
0.0468749999999997
 40
0.0468749999999997
 40
0.0624999999999996
 40
0.0624999999999996
 40
0.0937499999999994
 40
0.0937499999999994
 40
0.1093749999999994
 40
0.1093749999999994
 40
0.1249999999999994
 40
0.1249999999999994
 40
0.1562499999999994
 40
0.1562499999999994
 40
0.1718749999999994
 40
0.1718749999999994
 40
0.1874999999999994
 40
0.1874999999999994
 40
0.2187499999999993
 40
0.2187499999999993
 40
0.2499999999999993
 40
0.2499999999999993
 40
0.2656249999999993
 40
0.2656249999999993
 40
0.2734374999999993
 40
0.2734374999999993
 40
0.2812499999999993
 40
0.2812499999999993
 40
0.3124999999999996
 40
0.3124999999999996
 40
0.3203124999999996
 40
0.3203124999999996
 40
0.3281249999999996
 40
0.3281249999999996
 40
0.3437499999999996
 40
0.3437499999999996
 40
0.3749999999999995
 40
0.3749999999999995
 40
0.3906249999999996
 40
0.3906249999999996
 40
0.4062499999999996
 40
0.4062499999999996
 40
0.4218749999999996
 40
0.4218749999999996
 40
0.4374999999999996
 40
0.4374999999999996
 40
0.4687499999999996
 40
0.4687499999999996
 40
0.4843749999999995
 40
0.4843749999999995
 40
0.4999999999999994
 40
0.4999999999999994
 40
0.5312499999999993
 40
0.5312499999999993
 40
0.5468749999999993
 40
0.5468749999999993
 40
0.5624999999999993
 40
0.5624999999999993
 40
0.5937499999999993
 40
0.5937499999999993
 40
0.6249999999999992
 40
0.6249999999999992
 40
0.6406249999999992
 40
0.6406249999999992
 40
0.6562499999999992
 40
0.6562499999999992
 40
0.6874999999999991
 40
0.6874999999999991
 40
0.7031249999999991
 40
0.7031249999999991
 40
0.7187499999999991
 40
0.7187499999999991
 40
0.7499999999999989
 40
0.7499999999999989
 40
0.757812499999999
 40
0.757812499999999
 40
0.7656249999999991
 40
0.7656249999999991
 40
0.7812499999999991
 40
0.7968749999999991
 40
0.7968749999999991
 40
0.8046874999999991
 40
0.8046874999999991
 40
0.8124999999999992
 40
0.8124999999999992
 40
0.8437499999999993
 40
0.8437499999999993
 40
0.8593749999999994
 40
0.8593749999999994
 40
0.8749999999999996
 40
0.8749999999999996
 40
0.9062499999999998
 40
0.9062499999999998
 40
0.9218749999999999
 40
0.9218749999999999
 40
0.9374999999999999
 40
0.9374999999999999
 40
0.9531249999999999
 40
0.9531249999999999
 40
0.9687499999999999
 40
0.9687499999999999
 40
1.0
 40
1.0
 40
1.0
 40
1.0
 10
0.0248426344322027
 20
-66.57744682199078
 30
0.0
 10
-1.730453866117388
 20
-66.57904430988502
 30
0.0
 10
-3.457334522141847
 20
-66.41294039094782
 30
0.0
 10
-6.006710385010503
 20
-65.9221392425344
 30
0.0
 10
-6.849628370713603
 20
-65.71797085192557
 30
0.0
 10
-8.52140168042601
 20
-65.22664064963404
 30
0.0
 10
-9.353918068574014
 20
-64.9376813911071
 30
0.0
 10
-11.78022198239369
 20
-63.96145119950146
 30
0.0
 10
-13.31612322469751
 20
-63.16371943063857
 30
0.0
 10
-15.49846104240259
 20
-61.74844236983742
 30
0.0
 10
-16.2055147961553
 20
-61.23998511430463
 30
0.0
 10
-17.5771937267346
 20
-60.14671518270935
 30
0.0
 10
-18.23250918794964
 20
-59.5691247131461
 30
0.0
 10
-20.09911756371158
 20
-57.75493263072403
 30
0.0
 10
-21.21669556493358
 20
-56.4339679206476
 30
0.0
 10
-22.69856452032776
 20
-54.28152352346441
 30
0.0
 10
-23.16172806545304
 20
-53.53132276874683
 30
0.0
 10
-24.00233591915984
 20
-52.00328274760709
 30
0.0
 10
-24.3819211443662
 20
-51.22310332170248
 30
0.0
 10
-25.40077000363029
 20
-48.83497943912958
 30
0.0
 10
-25.9217479591227
 20
-47.17795894106342
 30
0.0
 10
-26.62824201294432
 20
-43.73943377677078
 30
0.0
 10
-26.80269874872654
 20
-42.01367540998064
 30
0.0
 10
-26.80631337294198
 20
-39.41566167808602
 30
0.0
 10
-26.76418429354568
 20
-38.54808269743486
 30
0.0
 10
-26.63434721761208
 20
-37.24429294540971
 30
0.0
 10
-26.57973094564354
 20
-36.80804176381426
 30
0.0
 10
-26.4489052084244
 20
-35.94210554628176
 30
0.0
 10
-26.37278802068051
 20
-35.51246582632833
 30
0.0
 10
-25.93975496632532
 20
-33.38057507302562
 30
0.0
 10
-25.42701368215112
 20
-31.72677621772372
 30
0.0
 10
-24.57964047116521
 20
-29.72371992131027
 30
0.0
 10
-24.39974916647166
 20
-29.3263476072127
 30
0.0
 10
-24.01878305634109
 20
-28.53818975263732
 30
0.0
 10
-23.81751392396788
 20
-28.14720160095312
 30
0.0
 10
-23.18866842706663
 20
-26.99718554884897
 30
0.0
 10
-22.73407800446784
 20
-26.25659739160028
 30
0.0
 10
-21.26737631948747
 20
-24.11077654026564
 30
0.0
 10
-20.15332309384313
 20
-22.78075817032046
 30
0.0
 10
-18.27220037723824
 20
-20.94070343144567
 30
0.0
 10
-17.61812981355429
 20
-20.36161001193798
 30
0.0
 10
-16.26401551205032
 20
-19.27500589883692
 30
0.0
 10
-15.56297967660645
 20
-18.76653458277832
 30
0.0
 10
-14.11350527621063
 20
-17.81844777788105
 30
0.0
 10
-13.36506728927413
 20
-17.37883144943394
 30
0.0
 10
-11.81997641139911
 20
-16.5696343608253
 30
0.0
 10
-11.02036319309653
 20
-16.19927498306898
 30
0.0
 10
-8.59810979878604
 20
-15.21683262744824
 30
0.0
 10
-6.938420518531078
 20
-14.7236350809827
 30
0.0
 10
-4.382652808557746
 20
-14.22270976046656
 30
0.0
 10
-3.517840237554247
 20
-14.09565670392021
 30
0.0
 10
-1.772698875083385
 20
-13.92529735783704
 30
0.0
 10
-0.9028695790687186
 20
-13.88283771093981
 30
0.0
 10
1.69866309824244
 20
-13.87942777975486
 30
0.0
 10
3.42248460340596
 20
-14.04130370461042
 30
0.0
 10
5.992114007071304
 20
-14.53505435995045
 30
0.0
 10
6.848361796311736
 20
-14.74291164348508
 30
0.0
 10
8.519250037286753
 20
-15.2350072782124
 30
0.0
 10
9.338223929228171
 20
-15.51981341365918
 30
0.0
 10
11.74655532248282
 20
-16.48857617304274
 30
0.0
 10
13.28969043189175
 20
-17.28696017088813
 30
0.0
 10
16.23279493399883
 20
-19.19766838051527
 30
0.0
 10
17.58760144385739
 20
-20.28018463683177
 30
0.0
 10
19.45015609160365
 20
-22.08875128418206
 30
0.0
 10
20.04252653537854
 20
-22.72262910967629
 30
0.0
 10
21.16871337792517
 20
-24.05416317575365
 30
0.0
 10
21.70396970880257
 20
-24.75466234424628
 30
0.0
 10
23.18553403255543
 20
-26.90751785010702
 30
0.0
 10
24.02088552617482
 20
-28.42310296157996
 30
0.0
 10
25.04588968108771
 20
-30.8167317263535
 30
0.0
 10
25.34999467737145
 20
-31.63708208883345
 30
0.0
 10
25.87523081985936
 20
-33.31004535493681
 30
0.0
 10
26.09355928090264
 20
-34.15290054035314
 30
0.0
 10
26.61971143980234
 20
-36.70000600465778
 30
0.0
 10
26.79994778726968
 20
-38.42261690255109
 30
0.0
 10
26.80629347764901
 20
-40.60738876470578
 30
0.0
 10
26.79642507486808
 20
-41.04716572619422
 30
0.0
 10
26.7545493659423
 20
-41.921481488849
 30
0.0
 10
26.72261424971314
 20
-42.3564475586538
 30
0.0
 10
26.59443895971971
 20
-43.65489427024541
 30
0.0
 10
26.33737697465721
 20
-45.36898409724169
 30
0.0
 10
25.91067427913946
 20
-47.04926364748173
 30
0.0
 10
25.52616758324792
 20
-48.29662217539687
 30
0.0
 10
25.38723274995074
 20
-48.7102626445412
 30
0.0
 10
25.08744269060304
 20
-49.53317473443497
 30
0.0
 10
24.92655816540395
 20
-49.94228804274146
 30
0.0
 10
24.07652296285615
 20
-51.9538461048845
 30
0.0
 10
23.24534131063442
 20
-53.4740103051487
 30
0.0
 10
21.77821272554931
 20
-55.62438982148466
 30
0.0
 10
21.25217667133987
 20
-56.3193810702701
 30
0.0
 10
20.12389672334726
 20
-57.66445050783324
 30
0.0
 10
19.5306765335948
 20
-58.30373296306887
 30
0.0
 10
17.6688629969976
 20
-60.12382920049084
 30
0.0
 10
16.31813660913573
 20
-61.20866927443148
 30
0.0
 10
14.12667905000248
 20
-62.64181148969102
 30
0.0
 10
13.36669429444891
 20
-63.08728745204399
 30
0.0
 10
11.82334715248529
 20
-63.89404356816762
 30
0.0
 10
11.03621585007988
 20
-64.258038148098
 30
0.0
 10
9.431689468966296
 20
-64.90892073005762
 30
0.0
 10
8.614293374826005
 20
-65.19580614495122
 30
0.0
 10
6.949017083219384
 20
-65.69190904379833
 30
0.0
 10
6.098418753741418
 20
-65.90163916795456
 30
0.0
 10
3.518060608123309
 20
-66.40655325258949
 30
0.0
 10
1.780139134981811
 20
-66.5758493340965
 30
0.0
 10
0.024842634432202
 20
-66.57744682199076
 30
0.0
  0
SPLINE
  5
C9
330
1F
100
AcDbEntity
  8
0
  6
Continuous
 62
     7
370
    25
100
AcDbSpline
210
0.0
220
0.0
230
1.0
 70
    11
 71
     3
 72
    98
 73
    94
 74
     0
 42
0.000000001
 43
0.00000001
 40
0.0
 40
0.0
 40
0.0
 40
0.0
 40
0.03125
 40
0.03125
 40
0.046875
 40
0.046875
 40
0.0625
 40
0.0625
 40
0.09375
 40
0.09375
 40
0.109375
 40
0.109375
 40
0.125
 40
0.125
 40
0.15625
 40
0.15625
 40
0.171875
 40
0.171875
 40
0.1875
 40
0.1875
 40
0.21875
 40
0.21875
 40
0.25
 40
0.25
 40
0.265625
 40
0.265625
 40
0.28125
 40
0.28125
 40
0.3125
 40
0.3125
 40
0.328125
 40
0.328125
 40
0.34375
 40
0.34375
 40
0.375
 40
0.375
 40
0.40625
 40
0.40625
 40
0.421875
 40
0.421875
 40
0.4375
 40
0.4375
 40
0.46875
 40
0.46875
 40
0.484375
 40
0.484375
 40
0.5
 40
0.5
 40
0.53125
 40
0.53125
 40
0.546875
 40
0.546875
 40
0.5625
 40
0.5625
 40
0.59375
 40
0.59375
 40
0.625
 40
0.625
 40
0.640625
 40
0.640625
 40
0.65625
 40
0.65625
 40
0.6875
 40
0.6875
 40
0.703125
 40
0.703125
 40
0.71875
 40
0.71875
 40
0.75
 40
0.75
 40
0.765625
 40
0.765625
 40
0.78125
 40
0.78125
 40
0.796875
 40
0.796875
 40
0.8125
 40
0.8125
 40
0.84375
 40
0.84375
 40
0.875
 40
0.875
 40
0.90625
 40
0.90625
 40
0.921875
 40
0.921875
 40
0.9375
 40
0.9375
 40
0.953125
 40
0.953125
 40
0.96875
 40
0.96875
 40
1.0
 40
1.0
 40
1.0
 40
1.0
 10
0.0229839988836732
 20
-64.53520507115707
 30
0.0
 10
-1.602255189678402
 20
-64.53668419427652
 30
0.0
 10
-3.1978969753392
 20
-64.38314258995118
 30
0.0
 10
-5.557310350756475
 20
-63.92891252078681
 30
0.0
 10
-6.336954945337802
 20
-63.74002821512223
 30
0.0
 10
-7.882364527012867
 20
-63.28583577783163
 30
0.0
 10
-8.652727896208065
 20
-63.01845540636874
 30
0.0
 10
-10.89566886657947
 20
-62.11600232911452
 30
0.0
 10
-12.31490705722357
 20
-61.37892056414395
 30
0.0
 10
-14.33225697752599
 20
-60.07064032969269
 30
0.0
 10
-14.98501998239058
 20
-59.60119425630426
 30
0.0
 10
-16.25191848727616
 20
-58.59143745509509
 30
0.0
 10
-16.85674861776607
 20
-58.05834786355948
 30
0.0
 10
-18.58051413197079
 20
-56.38298777532254
 30
0.0
 10
-19.61146832755461
 20
-55.16416663270709
 30
0.0
 10
-20.97796762669114
 20
-53.17929807440626
 30
0.0
 10
-21.4053661313175
 20
-52.48698894818986
 30
0.0
 10
-22.17999075324847
 20
-51.07889241644246
 30
0.0
 10
-22.52995423738998
 20
-50.35966675598416
 30
0.0
 10
-23.46940181202801
 20
-48.15765525824747
 30
0.0
 10
-23.94887062239367
 20
-46.63272100926307
 30
0.0
 10
-24.60021150105849
 20
-43.46262810851689
 30
0.0
 10
-24.760647111108
 20
-41.87507799789099
 30
0.0
 10
-24.76397826175784
 20
-39.48069832097826
 30
0.0
 10
-24.72515745133933
 20
-38.68181062536781
 30
0.0
 10
-24.56571345164582
 20
-37.08071729683271
 30
0.0
 10
-24.4444677904384
 20
-36.27863956348185
 30
0.0
 10
-23.96548911819654
 20
-33.92055024738579
 30
0.0
 10
-23.49343797687347
 20
-32.39785298359125
 30
0.0
 10
-22.55565861556602
 20
-30.18109133166323
 30
0.0
 10
-22.20256993278852
 20
-29.4505331764914
 30
0.0
 10
-21.42952694463122
 20
-28.03681226883822
 30
0.0
 10
-21.01040516851173
 20
-27.35393892157578
 30
0.0
 10
-19.6566511340878
 20
-25.37336301171968
 30
0.0
 10
-18.62946350347353
 20
-24.14698116001267
 30
0.0
 10
-16.31290045433536
 20
-21.88099286444668
 30
0.0
 10
-15.05985442554301
 20
-20.87776188432446
 30
0.0
 10
-13.05057454907575
 20
-19.5635118785777
 30
0.0
 10
-12.35873500469775
 20
-19.15716265007704
 30
0.0
 10
-10.93132933534107
 20
-18.40960006843445
 30
0.0
 10
-10.19170595496165
 20
-18.06700797856503
 30
0.0
 10
-7.952680059682821
 20
-17.15888039592304
 30
0.0
 10
-6.418114896853939
 20
-16.70275560130551
 30
0.0
 10
-4.053602991872161
 20
-16.23931626485951
 30
0.0
 10
-3.253978320667787
 20
-16.12184904971403
 30
0.0
 10
-1.639722868496407
 20
-15.96426662703358
 30
0.0
 10
-0.8355439839103832
 20
-15.92499386230322
 30
0.0
 10
1.572042444072658
 20
-15.92183800386565
 30
0.0
 10
3.166083595231728
 20
-16.07163807826403
 30
0.0
 10
5.542267806381624
 20
-16.52821899652501
 30
0.0
 10
6.334640008565698
 20
-16.7205848770645
 30
0.0
 10
7.879047798545749
 20
-17.17543034699638
 30
0.0
 10
8.636368580264064
 20
-17.43876570534599
 30
0.0
 10
10.86381224278377
 20
-18.33476540783311
 30
0.0
 10
12.28857212949991
 20
-19.07190012596428
 30
0.0
 10
15.00980675237856
 20
-20.83856695655424
 30
0.0
 10
16.25959805890411
 20
-21.83729136083124
 30
0.0
 10
17.98011848238897
 20
-23.50794099438831
 30
0.0
 10
18.52689557967228
 20
-24.09310028588614
 30
0.0
 10
19.56573179147727
 20
-25.32135670632831
 30
0.0
 10
20.05996848320739
 20
-25.9681665711089
 30
0.0
 10
21.42647205841336
 20
-27.9538268447176
 30
0.0
 10
22.19675932553431
 20
-29.35132794818393
 30
0.0
 10
23.14192078281396
 20
-31.55850568520496
 30
0.0
 10
23.42212630846096
 20
-32.31443661003677
 30
0.0
 10
23.90615816189293
 20
-33.85615719066422
 30
0.0
 10
24.10725027430875
 20
-34.63240388129358
 30
0.0
 10
24.59227738934471
 20
-36.98042202868228
 30
0.0
 10
24.75811401545335
 20
-38.56625223128507
 30
0.0
 10
24.76512852818538
 20
-40.98142300442326
 30
0.0
 10
24.72624665157035
 20
-41.79116622981636
 30
0.0
 10
24.56880303507141
 20
-43.38611469760998
 30
0.0
 10
24.45045001072522
 20
-44.17532498409457
 30
0.0
 10
24.13543001435955
 20
-45.73915747834581
 30
0.0
 10
23.93893698858733
 20
-46.51291549177677
 30
0.0
 10
23.46649055937768
 20
-48.04555472948272
 30
0.0
 10
23.18879131210682
 20
-48.80797716750348
 30
0.0
 10
22.24854019906466
 20
-51.03302674946292
 30
0.0
 10
21.4828329588745
 20
-52.43369013840015
 30
0.0
 10
19.67766664446459
 20
-55.07953330579739
 30
0.0
 10
18.62878957576504
 20
-56.32941818909345
 30
0.0
 10
16.33609448137082
 20
-58.57074159634512
 30
0.0
 10
15.08903335720228
 20
-59.57228371623548
 30
0.0
 10
13.06458864673466
 20
-60.89620438221505
 30
0.0
 10
12.36186748134059
 20
-61.30811010482158
 30
0.0
 10
10.93600708179468
 20
-62.0534524452593
 30
0.0
 10
10.20817753858454
 20
-62.39005814609023
 30
0.0
 10
8.724357687973306
 20
-62.99197563735204
 30
0.0
 10
7.968567952180161
 20
-63.25723296465784
 30
0.0
 10
6.4285812648861
 20
-63.71601070758579
 30
0.0
 10
5.641916074655411
 20
-63.90999253609303
 30
0.0
 10
3.254525314721898
 20
-64.37714782890383
 30
0.0
 10
1.648223187445748
 20
-64.5337259480376
 30
0.0
 10
0.0229839988836732
 20
-64.53520507115707
 30
0.0
  0
SPLINE
  5
CA
330
1F
100
AcDbEntity
  8
0
  6
Continuous
 62
     7
370
    25
100
AcDbSpline
210
0.0
220
0.0
230
1.0
 70
    11
 71
     3
 72
   117
 73
   113
 74
     0
 42
0.000000001
 43
0.00000001
 40
0.0
 40
0.0
 40
0.0
 40
0.0
 40
0.0156250000000001
 40
0.0156250000000001
 40
0.0312500000000002
 40
0.0312500000000002
 40
0.0625000000000004
 40
0.0625000000000004
 40
0.0937500000000006
 40
0.0937500000000006
 40
0.1093750000000007
 40
0.1093750000000007
 40
0.1250000000000008
 40
0.1250000000000008
 40
0.1562500000000011
 40
0.1562500000000011
 40
0.1718750000000012
 40
0.1718750000000012
 40
0.1875000000000013
 40
0.1875000000000013
 40
0.2187500000000014
 40
0.2187500000000014
 40
0.2343750000000015
 40
0.2343750000000015
 40
0.2500000000000016
 40
0.2500000000000016
 40
0.2656250000000017
 40
0.2656250000000017
 40
0.2734375000000018
 40
0.2734375000000018
 40
0.2812500000000018
 40
0.2812500000000018
 40
0.3125000000000019
 40
0.3125000000000019
 40
0.3281250000000021
 40
0.3281250000000021
 40
0.3359375000000022
 40
0.3359375000000022
 40
0.3437500000000023
 40
0.3437500000000023
 40
0.3750000000000028
 40
0.3750000000000028
 40
0.390625000000003
 40
0.390625000000003
 40
0.4062500000000033
 40
0.4062500000000033
 40
0.4218750000000035
 40
0.4218750000000035
 40
0.4375000000000037
 40
0.4375000000000037
 40
0.4687500000000041
 40
0.4687500000000041
 40
0.4843750000000043
 40
0.4843750000000043
 40
0.5000000000000044
 40
0.5000000000000044
 40
0.5156250000000047
 40
0.5156250000000047
 40
0.5312500000000049
 40
0.5312500000000049
 40
0.5625000000000052
 40
0.5625000000000052
 40
0.5781250000000054
 40
0.5781250000000054
 40
0.5859375000000054
 40
0.5859375000000054
 40
0.5937500000000056
 40
0.6250000000000057
 40
0.6250000000000057
 40
0.6328125000000057
 40
0.6328125000000057
 40
0.6406250000000057
 40
0.6406250000000057
 40
0.6562500000000056
 40
0.6562500000000056
 40
0.6875000000000054
 40
0.6875000000000054
 40
0.7031250000000053
 40
0.7031250000000053
 40
0.7187500000000052
 40
0.7187500000000052
 40
0.7343750000000051
 40
0.7343750000000051
 40
0.750000000000005
 40
0.750000000000005
 40
0.7812500000000047
 40
0.7812500000000047
 40
0.7890625000000046
 40
0.7890625000000046
 40
0.7968750000000046
 40
0.7968750000000046
 40
0.8125000000000042
 40
0.8125000000000042
 40
0.8437500000000036
 40
0.8437500000000036
 40
0.8515625000000033
 40
0.8515625000000033
 40
0.8593750000000032
 40
0.8593750000000032
 40
0.8750000000000028
 40
0.8750000000000028
 40
0.8906250000000024
 40
0.8906250000000024
 40
0.9062500000000021
 40
0.9062500000000021
 40
0.9375000000000014
 40
0.9375000000000014
 40
0.9531250000000011
 40
0.9531250000000011
 40
0.9687500000000008
 40
0.9687500000000008
 40
1.0
 40
1.0
 40
1.0
 40
1.0
 10
-0.0323300018536253
 20
-16.44667950963321
 30
0.0
 10
0.7603824451723497
 20
-16.44564137972056
 30
0.0
 10
1.554418318400157
 20
-16.48280857773826
 30
0.0
 10
3.121845053067291
 20
-16.63208898439734
 30
0.0
 10
3.897433128515266
 20
-16.74401607647987
 30
0.0
 10
6.2006323848105
 20
-17.18793678070748
 30
0.0
 10
7.704686183186949
 20
-17.62803500150795
 30
0.0
 10
10.64695126000515
 20
-18.81038215358158
 30
0.0
 10
12.038266528934
 20
-19.53394563011066
 30
0.0
 10
14.00612022325088
 20
-20.80955360488817
 30
0.0
 10
14.64247673402547
 20
-21.26645466776526
 30
0.0
 10
15.87421244587561
 20
-22.24654583970005
 30
0.0
 10
16.47210483955878
 20
-22.77258449169012
 30
0.0
 10
18.16802988957696
 20
-24.41840153147482
 30
0.0
 10
19.17804383879132
 20
-25.61223362113962
 30
0.0
 10
20.51317845406254
 20
-27.54709742712603
 30
0.0
 10
20.92822332928255
 20
-28.21608648555368
 30
0.0
 10
21.69492963394924
 20
-29.60484416380287
 30
0.0
 10
22.04007766572939
 20
-30.31292241832226
 30
0.0
 10
22.96514416048651
 20
-32.47452869685899
 30
0.0
 10
23.43511285673337
 20
-33.9662818329069
 30
0.0
 10
23.91456616219974
 20
-36.28179529455305
 30
0.0
 10
24.03664780235504
 20
-37.06894526282755
 30
0.0
 10
24.1980672507605
 20
-38.63428139844699
 30
0.0
 10
24.23853426018104
 20
-39.41658596003799
 30
0.0
 10
24.24167624987837
 20
-40.98049239985216
 30
0.0
 10
24.20404181822339
 20
-41.76209148320516
 30
0.0
 10
24.08805587073802
 20
-42.93395234411031
 30
0.0
 10
24.03948009747135
 20
-43.32448308133993
 30
0.0
 10
23.92205956444369
 20
-44.10536146917897
 30
0.0
 10
23.85297098345413
 20
-44.49675849355067
 30
0.0
 10
23.46007683587324
 20
-46.43401972000624
 30
0.0
 10
22.99460902205141
 20
-47.92917513556123
 30
0.0
 10
22.07739474930787
 20
-50.09271792319554
 30
0.0
 10
21.73517951558939
 20
-50.80070948422948
 30
0.0
 10
21.16468691329039
 20
-51.84202544512658
 30
0.0
 10
20.96519508954203
 20
-52.18518505738434
 30
0.0
 10
20.55176358449109
 20
-52.85706413067089
 30
0.0
 10
20.33733792279711
 20
-53.18675390521933
 30
0.0
 10
19.22752353814769
 20
-54.80465390828487
 30
0.0
 10
18.21958546929427
 20
-56.00163003528193
 30
0.0
 10
16.52744434508254
 20
-57.65099396342744
 30
0.0
 10
15.93064328246235
 20
-58.17820899719768
 30
0.0
 10
14.70018238760671
 20
-59.16130730748339
 30
0.0
 10
14.06434509018224
 20
-59.61980927826448
 30
0.0
 10
12.75301545280206
 20
-60.47321846848848
 30
0.0
 10
12.07741671502061
 20
-60.86795505784653
 30
0.0
 10
10.68615172002996
 20
-61.59317199644536
 30
0.0
 10
9.968690183674507
 20
-61.92438971240377
 30
0.0
 10
7.765951784100719
 20
-62.81396472605051
 30
0.0
 10
6.263031138166828
 20
-63.25700706306525
 30
0.0
 10
3.959174494590001
 20
-63.70600042327118
 30
0.0
 10
3.182987003194257
 20
-63.81978300455618
 30
0.0
 10
1.613485577403964
 20
-63.9727266520048
 30
0.0
 10
0.8190917306654725
 20
-64.01154892662275
 30
0.0
 10
-0.7618799147144937
 20
-64.01337296573381
 30
0.0
 10
-1.551514056681248
 20
-63.97684475463878
 30
0.0
 10
-3.129032633815263
 20
-63.8268705105625
 30
0.0
 10
-3.910416114067946
 20
-63.71386430046037
 30
0.0
 10
-6.216499652492162
 20
-63.26920277372414
 30
0.0
 10
-7.710515052127701
 20
-62.83073405371993
 30
0.0
 10
-9.886533116500802
 20
-61.96017084145944
 30
0.0
 10
-10.60102898062112
 20
-61.63447590286
 30
0.0
 10
-11.65557122843068
 20
-61.08960672186242
 30
0.0
 10
-12.0035199386263
 20
-60.89887171759764
 30
0.0
 10
-12.68559929481782
 20
-60.50309600168335
 30
0.0
 10
-14.3611516630494
 20
-59.47542003723814
 30
0.0
 10
-15.89207355452947
 20
-58.26120341518671
 30
0.0
 10
-17.30510208617709
 20
-56.89493097914296
 30
0.0
 10
-17.58180966865084
 20
-56.61406924395019
 30
0.0
 10
-18.12305206303422
 20
-56.03664564813518
 30
0.0
 10
-18.38722773650667
 20
-55.74035214730723
 30
0.0
 10
-19.15238387968297
 20
-54.83786601530782
 30
0.0
 10
-19.62905568969981
 20
-54.2148778923611
 30
0.0
 10
-20.9621847866263
 20
-52.28409742463645
 30
0.0
 10
-21.72184030713779
 20
-50.91454293683054
 30
0.0
 10
-22.65812839263248
 20
-48.73056717919149
 30
0.0
 10
-22.93263876145007
 20
-47.9891337269549
 30
0.0
 10
-23.4024445793621
 20
-46.49259651888384
 30
0.0
 10
-23.5986137594038
 20
-45.7354578365203
 30
0.0
 10
-23.91518451762363
 20
-44.20382958454152
 30
0.0
 10
-24.03569137652002
 20
-43.42936412435866
 30
0.0
 10
-24.19778929812682
 20
-41.86236137581869
 30
0.0
 10
-24.23899757182814
 20
-41.06663632124259
 30
0.0
 10
-24.24239131543687
 20
-38.70423520663537
 30
0.0
 10
-24.08668251092946
 20
-37.1474906276778
 30
0.0
 10
-23.69704728674924
 20
-35.22401295578446
 30
0.0
 10
-23.60938300267537
 20
-34.84043860916573
 30
0.0
 10
-23.414037114415
 20
-34.0755947965776
 30
0.0
 10
-23.3059912086716
 20
-33.69324079828678
 30
0.0
 10
-22.954247796739
 20
-32.55986607521307
 30
0.0
 10
-22.68312913440999
 20
-31.8220117341315
 30
0.0
 10
-21.76538469487405
 20
-29.65898198360528
 30
0.0
 10
-21.01418809833524
 20
-28.2844281285826
 30
0.0
 10
-19.89740061109061
 20
-26.65230278698957
 30
0.0
 10
-19.66504634707142
 20
-26.33012148405355
 30
0.0
 10
-19.1875243896027
 20
-25.70157984670523
 30
0.0
 10
-18.94175291007616
 20
-25.39430139532857
 30
0.0
 10
-18.18371424365656
 20
-24.49313666335667
 30
0.0
 10
-17.6507163465931
 20
-23.91992747048264
 30
0.0
 10
-16.53129618875386
 20
-22.82679525997177
 30
0.0
 10
-15.9447812369068
 20
-22.30696469364971
 30
0.0
 10
-14.71679049466667
 20
-21.32212223680132
 30
0.0
 10
-14.07192452196646
 20
-20.85518160561606
 30
0.0
 10
-12.09170855278847
 20
-19.56304034478201
 30
0.0
 10
-10.70430468051376
 20
-18.83918838402031
 30
0.0
 10
-8.52469486619723
 20
-17.95489370239779
 30
0.0
 10
-7.781745175237309
 20
-17.69370066251601
 30
0.0
 10
-6.261487548829726
 20
-17.24159204027529
 30
0.0
 10
-5.4957047309036
 20
-17.05410167806065
 30
0.0
 10
-3.18222122061496
 20
-16.60232410471659
 30
0.0
 10
-1.617754890885299
 20
-16.44875959940126
 30
0.0
 10
-0.0323300018536253
 20
-16.44667950963321
 30
0.0
  0
SPLINE
  5
CB
330
1F
100
AcDbEntity
  8
0
  6
Continuous
 62
     7
370
    25
100
AcDbSpline
210
0.0
220
0.0
230
1.0
 70
     8
 71
     3
 72
    11
 73
     7
 74
     0
 42
0.000000001
 43
0.00000001
 40
0.0
 40
0.0
 40
0.0
 40
0.0
 40
0.0070351014259851
 40
0.0070351014259851
 40
0.0070351014259851
 40
0.0140087769350826
 40
0.0140087769350826
 40
0.0140087769350826
 40
0.0140087769350826
 10
17.93899513135484
 20
-23.5841638631203
 30
0.0
 10
17.85921470588044
 20
-23.56028576133478
 30
0.0
 10
17.77944312754463
 20
-23.53688252631989
 30
0.0
 10
17.69968028337887
 20
-23.51394733504096
 30
0.0
 10
17.62061387628461
 20
-23.49121239887599
 30
0.0
 10
17.54155604838148
 20
-23.46893736898787
 30
0.0
 10
17.46250668576253
 20
-23.44711583789786
 30
0.0
  0
SPLINE
  5
CC
330
1F
100
AcDbEntity
  8
0
  6
Continuous
 62
     7
370
    25
100
AcDbSpline
210
0.0
220
0.0
230
1.0
 70
     8
 71
     3
 72
    11
 73
     7
 74
     0
 42
0.000000001
 43
0.00000001
 40
0.0
 40
0.0
 40
0.0
 40
0.0
 40
0.0069736758632993
 40
0.0069736758632993
 40
0.0069736758632993
 40
0.0140087787354127
 40
0.0140087787354127
 40
0.0140087787354127
 40
0.0140087787354127
 10
-17.46257248426711
 20
-23.44716263810544
 30
0.0
 10
-17.54163602477542
 20
-23.46898904303159
 30
0.0
 10
-17.62070597439077
 20
-23.49126390070599
 30
0.0
 10
-17.69978258807249
 20
-23.51399444799413
 30
0.0
 10
-17.77955574107131
 20
-23.53692521528598
 30
0.0
 10
-17.85933567917145
 20
-23.56031973483299
 30
0.0
 10
-17.9391226473852
 20
-23.58418565593455
 30
0.0
  0
SPLINE
  5
CD
330
1F
100
AcDbEntity
  8
0
  6
Continuous
 62
     7
370
    25
100
AcDbSpline
210
0.0
220
0.0
230
1.0
 70
     8
 71
     3
 72
    32
 73
    28
 74
     0
 42
0.000000001
 43
0.00000001
 40
0.3730655349076597
 40
0.3730655349076597
 40
0.3730655349076597
 40
0.3730655349076597
 40
0.3756103905937929
 40
0.3756103905937929
 40
0.4068603905937929
 40
0.4068603905937929
 40
0.4381103905937929
 40
0.4381103905937929
 40
0.4537353905937929
 40
0.4537353905937929
 40
0.4693603905937929
 40
0.4693603905937929
 40
0.5006103905937929
 40
0.5006103905937929
 40
0.5162353905937929
 40
0.5162353905937929
 40
0.5318603905937929
 40
0.5318603905937929
 40
0.5631103905937929
 40
0.5631103905937929
 40
0.5787353905937929
 40
0.5787353905937929
 40
0.5943603905937929
 40
0.5943603905937929
 40
0.6256103905937929
 40
0.6256103905937929
 40
0.6275448556861332
 40
0.6275448556861332
 40
0.6275448556861332
 40
0.6275448556861332
 10
17.46250668206993
 20
-23.44711584158182
 30
0.0
 10
17.37169079579811
 20
-23.35608602112233
 30
0.0
 10
17.28017038636924
 20
-23.26579795966091
 30
0.0
 10
16.0554879231124
 20
-22.07661399143134
 30
0.0
 10
14.82183780885501
 20
-21.0907685646154
 30
0.0
 10
12.13470259988402
 20
-19.34623959006738
 30
0.0
 10
10.7281372530089
 20
-18.61851913587963
 30
0.0
 10
8.528495542885986
 20
-17.73370289809942
 30
0.0
 10
7.780650513759105
 20
-17.47366751628279
 30
0.0
 10
6.255682643218179
 20
-17.02454731793238
 30
0.0
 10
5.473127729078318
 20
-16.83456236013801
 30
0.0
 10
3.126675672055685
 20
-16.38369444638983
 30
0.0
 10
1.552581229508325
 20
-16.23575032555966
 30
0.0
 10
-0.8251962420091784
 20
-16.23886710845157
 30
0.0
 10
-1.619284549680051
 20
-16.27765004268739
 30
0.0
 10
-3.213423844930684
 20
-16.43326874017185
 30
0.0
 10
-4.003029079921608
 20
-16.5492626123443
 30
0.0
 10
-6.338145379466982
 20
-17.00694047562959
 30
0.0
 10
-7.853479651498699
 20
-17.45736743660856
 30
0.0
 10
-10.06434373115895
 20
-18.3540728473925
 30
0.0
 10
-10.79474704102222
 20
-18.69239728315
 30
0.0
 10
-12.2040646742313
 20
-19.43048678088768
 30
0.0
 10
-12.88720529519079
 20
-19.83172297910476
 30
0.0
 10
-14.87113566207169
 20
-21.12939212245915
 30
0.0
 10
-16.10813578682719
 20
-22.11978232004585
 30
0.0
 10
-17.32248308473405
 20
-23.30761822732429
 30
0.0
 10
-17.39277551892069
 20
-23.37721429544706
 30
0.0
 10
-17.46257248079131
 20
-23.44716264157367
 30
0.0
  0
LWPOLYLINE
  5
CF
330
1F
100
AcDbEntity
  8
0
  6
Continuous
 62
     7
370
    25
100
AcDbPolyline
 90
       23
 70
   128
 43
0.0
 10
16.0
 20
62.4201305414
 10
15.9552607549
 20
62.5243410504
 10
15.5988465949
 20
62.7304341778
 10
14.8939799783
 20
62.9295956347
 10
13.8564064606
 20
63.1173764833
 10
12.5093037195
 20
63.2895820098
 10
10.8827638043
 20
63.4423654272
 10
9.013120929
 20
63.5723138064
 10
6.9421398259
 20
63.6765243154
 10
4.7160827906
 20
63.7526690636
 10
2.3846762588
 20
63.7990471031
 10
0.0
 20
63.8146224253
 10
-2.3846762588
 20
63.7990471031
 10
-4.7160827906
 20
63.7526690636
 10
-6.9421398259
 20
63.6765243154
 10
-9.013120929
 20
63.5723138064
 10
-10.8827638043
 20
63.4423654272
 10
-12.5093037195
 20
63.2895820098
 10
-13.8564064606
 20
63.1173764833
 10
-14.8939799783
 20
62.9295956347
 10
-15.5988465949
 20
62.7304341778
 10
-15.9552607549
 20
62.5243410504
 10
-16.0
 20
62.4201305414
  0
LWPOLYLINE
  5
D1
330
1F
100
AcDbEntity
  8
0
  6
Continuous
 62
     8
370
    25
100
AcDbPolyline
 90
       14
 70
   128
 43
0.0
 10
0.0
 20
57.2151713505
 10
2.245757932
 20
57.2309723662
 10
4.4333519132
 20
57.2779661753
 10
6.5061244086
 20
57.3549356628
 10
8.4103916993
 20
57.4598873594
 10
10.0968342628
 20
57.5901030713
 10
11.5217741225
 20
57.74221028
 10
12.6483060845
 20
57.9122694886
 10
13.4472535628
 20
58.095876253
 10
13.8979242374
 20
58.2882752545
 10
13.9886459744
 20
58.4844834598
 10
13.7170691286
 20
58.6794191797
 10
13.0902273976
 20
58.8680336814
 10
12.9114869834
 20
58.9070689026
  0
LWPOLYLINE
  5
D2
330
1F
100
AcDbEntity
  8
0
  6
Continuous
 62
     8
370
    25
100
AcDbPolyline
 90
       14
 70
   128
 43
0.0
 10
-13.0227534687
 20
58.8832329939
 10
-13.0902273976
 20
58.8680336814
 10
-13.7170691286
 20
58.6794191797
 10
-13.9886459744
 20
58.4844834598
 10
-13.8979242374
 20
58.2882752545
 10
-13.4472535628
 20
58.095876253
 10
-12.6483060845
 20
57.9122694886
 10
-11.5217741225
 20
57.74221028
 10
-10.0968342628
 20
57.5901030713
 10
-8.4103916993
 20
57.4598873594
 10
-6.5061244086
 20
57.3549356628
 10
-4.4333519132
 20
57.2779661753
 10
-2.245757932
 20
57.2309723662
 10
0.0
 20
57.2151713505
  0
LWPOLYLINE
  5
D3
330
1F
100
AcDbEntity
  8
0
  6
Continuous
 62
     8
370
    25
100
AcDbPolyline
 90
       23
 70
   128
 43
0.0
 10
-15.999985008
 20
60.4258321656
 10
-15.9552607549
 20
60.5319516542
 10
-15.5988465949
 20
60.7380447816
 10
-14.8939799783
 20
60.9372062385
 10
-13.8564064606
 20
61.1249870872
 10
-12.5093037195
 20
61.2971926136
 10
-10.8827638043
 20
61.449976031
 10
-9.013120929
 20
61.5799244102
 10
-6.9421398259
 20
61.6841349192
 10
-4.7160827906
 20
61.7602796674
 10
-2.3846762588
 20
61.806657707
 10
0.0
 20
61.8222330291
 10
2.3846762588
 20
61.806657707
 10
4.7160827906
 20
61.7602796674
 10
6.9421398259
 20
61.6841349192
 10
9.013120929
 20
61.5799244102
 10
10.8827638043
 20
61.449976031
 10
12.5093037195
 20
61.2971926136
 10
13.8564064606
 20
61.1249870872
 10
14.8939799783
 20
60.9372062385
 10
15.5988465949
 20
60.7380447816
 10
15.9552607549
 20
60.5319516542
 10
15.9999976673
 20
60.4269881346
  0
LWPOLYLINE
  5
D4
330
1F
100
AcDbEntity
  8
0
  6
Continuous
 62
     8
370
    25
100
AcDbPolyline
 90
       14
 70
   128
 43
0.0
 10
0.0
 20
57.3023270933
 10
-2.1397296736
 20
57.3177800728
 10
-4.2210930997
 20
57.3637174943
 10
-6.1873161095
 20
57.4388863048
 10
-7.984765265
 20
57.541236095
 10
-9.5644108388
 20
57.6679750295
 10
-10.8831642174
 20
57.8156460004
 10
-11.9050532465
 20
57.9802209288
 10
-12.6022034572
 20
58.1572106394
 10
-12.9555984091
 20
58.3417873145
 10
-12.9555984091
 20
58.5289161835
 10
-12.6022034572
 20
58.7134928586
 10
-11.9050532465
 20
58.8904825692
 10
-11.7344762407
 20
58.9229728819
  0
LWPOLYLINE
  5
D5
330
1F
100
AcDbEntity
  8
0
  6
Continuous
 62
     8
370
    25
100
AcDbPolyline
 90
       14
 70
   128
 43
0.0
 10
11.5543230334
 20
58.9546246055
 10
11.9050532465
 20
58.8904825692
 10
12.6022034572
 20
58.7134928586
 10
12.9555984091
 20
58.5289161835
 10
12.9555984091
 20
58.3417873145
 10
12.6022034572
 20
58.1572106394
 10
11.9050532465
 20
57.9802209288
 10
10.8831642174
 20
57.8156460004
 10
9.5644108388
 20
57.6679750295
 10
7.984765265
 20
57.541236095
 10
6.1873161095
 20
57.4388863048
 10
4.2210930997
 20
57.3637174943
 10
2.1397296736
 20
57.3177800728
 10
0.0
 20
57.3023270933
  0
LWPOLYLINE
  5
D6
330
1F
100
AcDbEntity
  8
0
  6
Continuous
 62
     8
370
    25
100
AcDbPolyline
 90
        3
 70
   128
 43
0.0
 10
0.0
 20
59.469027975
 10
1.9641258428
 20
59.48443489
 10
3.6402870789
 20
59.5230481205
  0
LWPOLYLINE
  5
D7
330
1F
100
AcDbEntity
  8
0
  6
Continuous
 62
     8
370
    25
100
AcDbPolyline
 90
        3
 70
   128
 43
0.0
 10
-3.6402870789
 20
59.5230481205
 10
-1.9641258428
 20
59.48443489
 10
0.0
 20
59.469027975
  0
LINE
  5
D8
330
1F
100
AcDbEntity
  8
0
  6
Continuous
 62
     7
370
    25
100
AcDbLine
 10
-16.0
 20
62.4201305414
 30
0.0
 11
-16.0
 21
60.4277411452
 31
0.0
  0
LINE
  5
D9
330
1F
100
AcDbEntity
  8
0
  6
Continuous
 62
     7
370
    25
100
AcDbLine
 10
16.0
 20
60.4277411452
 30
0.0
 11
16.0
 21
62.4201305414
 31
0.0
  0
LINE
  5
DA
330
1F
100
AcDbEntity
  8
0
  6
Continuous
 62
     7
370
    25
100
AcDbLine
 10
246.0
 20
-185.0
 30
0.0
 11
245.0
 21
-180.0
 31
0.0
  0
LINE
  5
DB
330
1F
100
AcDbEntity
  8
0
  6
Continuous
 62
     7
370
    25
100
AcDbLine
 10
245.0
 20
-180.0
 30
0.0
 11
250.0
 21
-181.0
 31
0.0
  0
LINE
  5
DC
330
1F
100
AcDbEntity
  8
0
  6
Continuous
 62
     7
370
    25
100
AcDbLine
 10
-212.1946176122
 20
64.6006823796
 30
0.0
 11
-212.1946176122
 21
69.5816558701
 31
0.0
  0
LINE
  5
DD
330
1F
100
AcDbEntity
  8
0
  6
Continuous
 62
     7
370
    25
100
AcDbLine
 10
-227.1954981559
 20
54.7522420118
 30
0.0
 11
-222.2714593908
 21
54.7522420118
 31
0.0
  0
LINE
  5
DE
330
1F
100
AcDbEntity
  8
0
  6
Continuous
 62
     7
370
    25
100
AcDbLine
 10
245.0
 20
-180.0
 30
0.0
 11
245.0
 21
180.0
 31
0.0
  0
LINE
  5
DF
330
1F
100
AcDbEntity
  8
0
  6
Continuous
 62
     7
370
    25
100
AcDbLine
 10
250.0
 20
181.0
 30
0.0
 11
245.0
 21
180.0
 31
0.0
  0
LINE
  5
E0
330
1F
100
AcDbEntity
  8
0
  6
Continuous
 62
     7
370
    25
100
AcDbLine
 10
250.0
 20
181.0
 30
0.0
 11
250.0
 21
-181.0
 31
0.0
  0
LINE
  5
E1
330
1F
100
AcDbEntity
  8
0
  6
Continuous
 62
     7
370
    25
100
AcDbLine
 10
-250.0
 20
-181.0
 30
0.0
 11
-245.0
 21
-180.0
 31
0.0
  0
LINE
  5
E2
330
1F
100
AcDbEntity
  8
0
  6
Continuous
 62
     7
370
    25
100
AcDbLine
 10
-250.0
 20
-181.0
 30
0.0
 11
-250.0
 21
181.0
 31
0.0
  0
LINE
  5
E3
330
1F
100
AcDbEntity
  8
0
  6
Continuous
 62
     7
370
    25
100
AcDbLine
 10
-245.0
 20
180.0
 30
0.0
 11
-250.0
 21
181.0
 31
0.0
  0
LINE
  5
E4
330
1F
100
AcDbEntity
  8
0
  6
Continuous
 62
     7
370
    25
100
AcDbLine
 10
-245.0
 20
180.0
 30
0.0
 11
-245.0
 21
-180.0
 31
0.0
  0
LINE
  5
E5
330
1F
100
AcDbEntity
  8
0
  6
Continuous
 62
     7
370
    25
100
AcDbLine
 10
-246.0
 20
185.0
 30
0.0
 11
-245.0
 21
180.0
 31
0.0
  0
LINE
  5
E6
330
1F
100
AcDbEntity
  8
0
  6
Continuous
 62
     7
370
    25
100
AcDbLine
 10
-246.0
 20
185.0
 30
0.0
 11
246.0
 21
185.0
 31
0.0
  0
LINE
  5
E7
330
1F
100
AcDbEntity
  8
0
  6
Continuous
 62
     7
370
    25
100
AcDbLine
 10
245.0
 20
180.0
 30
0.0
 11
246.0
 21
185.0
 31
0.0
  0
LINE
  5
E8
330
1F
100
AcDbEntity
  8
0
  6
Continuous
 62
     7
370
    25
100
AcDbLine
 10
245.0
 20
180.0
 30
0.0
 11
-245.0
 21
180.0
 31
0.0
  0
LINE
  5
E9
330
1F
100
AcDbEntity
  8
0
  6
Continuous
 62
     7
370
    25
100
AcDbLine
 10
212.1946176122
 20
-162.5816558701
 30
0.0
 11
212.1946176122
 21
-157.6006823796
 31
0.0
  0
LINE
  5
EA
330
1F
100
AcDbEntity
  8
0
  6
Continuous
 62
     7
370
    25
100
AcDbLine
 10
222.2714593908
 20
-147.7522420118
 30
0.0
 11
227.1954981559
 21
-147.7522420118
 31
0.0
  0
LINE
  5
EB
330
1F
100
AcDbEntity
  8
0
  6
Continuous
 62
     7
370
    25
100
AcDbLine
 10
212.1946176122
 20
-162.5816558701
 30
0.0
 11
-212.1946176122
 21
-162.5816558701
 31
0.0
  0
LINE
  5
EC
330
1F
100
AcDbEntity
  8
0
  6
Continuous
 62
     7
370
    25
100
AcDbLine
 10
-212.1946176122
 20
-162.5816558701
 30
0.0
 11
-212.1946176122
 21
-157.6006823796
 31
0.0
  0
LINE
  5
ED
330
1F
100
AcDbEntity
  8
0
  6
Continuous
 62
     7
370
    25
100
AcDbLine
 10
-212.1946176122
 20
-157.6006823796
 30
0.0
 11
212.1946176122
 21
-157.6006823796
 31
0.0
  0
LINE
  5
EE
330
1F
100
AcDbEntity
  8
0
  6
Continuous
 62
     7
370
    25
100
AcDbLine
 10
222.2714593908
 20
-147.7522420118
 30
0.0
 11
222.2714593908
 21
54.7522420118
 31
0.0
  0
LINE
  5
EF
330
1F
100
AcDbEntity
  8
0
  6
Continuous
 62
     7
370
    25
100
AcDbLine
 10
222.2714593908
 20
54.7522420118
 30
0.0
 11
227.1954981559
 21
54.7522420118
 31
0.0
  0
LINE
  5
F0
330
1F
100
AcDbEntity
  8
0
  6
Continuous
 62
     7
370
    25
100
AcDbLine
 10
227.1954981559
 20
54.7522420118
 30
0.0
 11
227.1954981559
 21
-147.7522420118
 31
0.0
  0
LINE
  5
F1
330
1F
100
AcDbEntity
  8
0
  6
Continuous
 62
     7
370
    25
100
AcDbLine
 10
-227.1954981559
 20
-147.7522420118
 30
0.0
 11
-222.2714593908
 21
-147.7522420118
 31
0.0
  0
LINE
  5
F2
330
1F
100
AcDbEntity
  8
0
  6
Continuous
 62
     7
370
    25
100
AcDbLine
 10
212.1946176122
 20
64.6006823796
 30
0.0
 11
212.1946176122
 21
69.5816558701
 31
0.0
  0
LINE
  5
F3
330
1F
100
AcDbEntity
  8
0
  6
Continuous
 62
     7
370
    25
100
AcDbLine
 10
-212.1946176122
 20
69.5816558701
 30
0.0
 11
212.1946176122
 21
69.5816558701
 31
0.0
  0
LINE
  5
F4
330
1F
100
AcDbEntity
  8
0
  6
Continuous
 62
     7
370
    25
100
AcDbLine
 10
-227.1954981559
 20
-147.7522420118
 30
0.0
 11
-227.1954981559
 21
54.7522420118
 31
0.0
  0
LINE
  5
F5
330
1F
100
AcDbEntity
  8
0
  6
Continuous
 62
     7
370
    25
100
AcDbLine
 10
-245.0
 20
-180.0
 30
0.0
 11
245.0
 21
-180.0
 31
0.0
  0
LINE
  5
F6
330
1F
100
AcDbEntity
  8
0
  6
Continuous
 62
     7
370
    25
100
AcDbLine
 10
212.1946176122
 20
64.6006823796
 30
0.0
 11
-212.1946176122
 21
64.6006823796
 31
0.0
  0
LINE
  5
F7
330
1F
100
AcDbEntity
  8
0
  6
Continuous
 62
     7
370
    25
100
AcDbLine
 10
246.0
 20
-185.0
 30
0.0
 11
-246.0
 21
-185.0
 31
0.0
  0
LINE
  5
F8
330
1F
100
AcDbEntity
  8
0
  6
Continuous
 62
     7
370
    25
100
AcDbLine
 10
-245.0
 20
-180.0
 30
0.0
 11
-246.0
 21
-185.0
 31
0.0
  0
LINE
  5
F9
330
1F
100
AcDbEntity
  8
0
  6
Continuous
 62
     7
370
    25
100
AcDbLine
 10
-222.2714593908
 20
54.7522420118
 30
0.0
 11
-222.2714593908
 21
-147.7522420118
 31
0.0
  0
LINE
  5
FA
330
1F
100
AcDbEntity
  8
0
  6
Continuous
 62
     7
370
    25
100
AcDbLine
 10
205.0489640263
 20
-139.206907112
 30
0.0
 11
222.2714593908
 21
-147.7522420118
 31
0.0
  0
LINE
  5
FB
330
1F
100
AcDbEntity
  8
0
  6
Continuous
 62
     7
370
    25
100
AcDbLine
 10
212.1946176122
 20
-157.6006823796
 30
0.0
 11
195.2008864962
 21
-149.1688540929
 31
0.0
  0
LINE
  5
FC
330
1F
100
AcDbEntity
  8
0
  6
Continuous
 62
     7
370
    25
100
AcDbLine
 10
-205.0489640263
 20
46.206907112
 30
0.0
 11
-222.2714593908
 21
54.7522420118
 31
0.0
  0
LINE
  5
FD
330
1F
100
AcDbEntity
  8
0
  6
Continuous
 62
     7
370
    25
100
AcDbLine
 10
-212.1946176122
 20
64.6006823796
 30
0.0
 11
-195.2008864962
 21
56.1688540929
 31
0.0
  0
LINE
  5
FE
330
1F
100
AcDbEntity
  8
0
  6
Continuous
 62
     7
370
    25
100
AcDbLine
 10
-195.2008864962
 20
-149.1688540929
 30
0.0
 11
-212.1946176122
 21
-157.6006823796
 31
0.0
  0
LINE
  5
FF
330
1F
100
AcDbEntity
  8
0
  6
Continuous
 62
     7
370
    25
100
AcDbLine
 10
-222.2714593908
 20
-147.7522420118
 30
0.0
 11
-205.0489640263
 21
-139.206907112
 31
0.0
  0
LINE
  5
100
330
1F
100
AcDbEntity
  8
0
  6
Continuous
 62
     7
370
    25
100
AcDbLine
 10
195.2008864962
 20
56.1688540929
 30
0.0
 11
212.1946176122
 21
64.6006823796
 31
0.0
  0
LINE
  5
101
330
1F
100
AcDbEntity
  8
0
  6
Continuous
 62
     7
370
    25
100
AcDbLine
 10
222.2714593908
 20
54.7522420118
 30
0.0
 11
205.0489640263
 21
46.206907112
 31
0.0
  0
ARC
  5
102
330
1F
100
AcDbEntity
  8
0
  6
Continuous
 62
     7
370
    25
100
AcDbCircle
 10
246.0
 20
-181.0
 30
0.0
 40
3.999999999999972
100
AcDbArc
 50
270.0
 51
0.0
  0
ARC
  5
103
330
1F
100
AcDbEntity
  8
0
  6
Continuous
 62
     7
370
    25
100
AcDbCircle
 10
-212.3144515616
 20
54.7010035678
 30
0.0
 40
14.8811348061338
100
AcDbArc
 50
89.5386068438
 51
179.8027198578
  0
ARC
  5
104
330
1F
100
AcDbEntity
  8
0
  6
Continuous
 62
     7
370
    25
100
AcDbCircle
 10
-212.4293003027
 20
54.7613174654
 30
0.0
 40
9.842163272379663
100
AcDbArc
 50
88.6336741391
 51
180.0528324162
  0
ARC
  5
105
330
1F
100
AcDbEntity
  8
0
  6
Continuous
 62
     7
370
    25
100
AcDbCircle
 10
212.3144515616
 20
-147.7010035678
 30
0.0
 40
14.88113480613377
100
AcDbArc
 50
269.5386068438
 51
359.8027198578
  0
ARC
  5
106
330
1F
100
AcDbEntity
  8
0
  6
Continuous
 62
     7
370
    25
100
AcDbCircle
 10
212.4293003027
 20
-147.7613174654
 30
0.0
 40
9.842163272379668
100
AcDbArc
 50
268.6336741391
 51
0.0528324162
  0
ARC
  5
107
330
1F
100
AcDbEntity
  8
0
  6
Continuous
 62
     7
370
    25
100
AcDbCircle
 10
-212.3144515616
 20
-147.7010035678
 30
0.0
 40
14.8811348061338
100
AcDbArc
 50
180.1972801422
 51
270.4613931562
  0
ARC
  5
108
330
1F
100
AcDbEntity
  8
0
  6
Continuous
 62
     7
370
    25
100
AcDbCircle
 10
-212.4293003027
 20
-147.7613174654
 30
0.0
 40
9.84216327237972
100
AcDbArc
 50
179.9471675838
 51
271.3663258609
  0
ARC
  5
109
330
1F
100
AcDbEntity
  8
0
  6
Continuous
 62
     7
370
    25
100
AcDbCircle
 10
212.4293003027
 20
54.7613174654
 30
0.0
 40
9.842163272379668
100
AcDbArc
 50
359.9471675838
 51
91.3663258609
  0
ARC
  5
10A
330
1F
100
AcDbEntity
  8
0
  6
Continuous
 62
     7
370
    25
100
AcDbCircle
 10
212.3144515616
 20
54.7010035678
 30
0.0
 40
14.88113480613375
100
AcDbArc
 50
0.1972801422
 51
90.4613931562
  0
ARC
  5
10B
330
1F
100
AcDbEntity
  8
0
  6
Continuous
 62
     7
370
    25
100
AcDbCircle
 10
246.0
 20
181.0
 30
0.0
 40
3.999999999999972
100
AcDbArc
 50
0.0
 51
90.0
  0
ARC
  5
10C
330
1F
100
AcDbEntity
  8
0
  6
Continuous
 62
     7
370
    25
100
AcDbCircle
 10
-246.0
 20
181.0
 30
0.0
 40
4.0
100
AcDbArc
 50
90.0
 51
180.0
  0
ARC
  5
10D
330
1F
100
AcDbEntity
  8
0
  6
Continuous
 62
     7
370
    25
100
AcDbCircle
 10
-246.0
 20
-181.0
 30
0.0
 40
4.0
100
AcDbArc
 50
180.0
 51
270.0
  0
ARC
  5
10E
330
1F
100
AcDbEntity
  8
0
  6
Continuous
 62
     7
370
    25
100
AcDbCircle
 10
194.964979349
 20
-139.0869151493
 30
0.0
 40
10.08469855990713
100
AcDbArc
 50
271.3404185409
 51
359.3182547575
  0
ARC
  5
10F
330
1F
100
AcDbEntity
  8
0
  6
Continuous
 62
     7
370
    25
100
AcDbCircle
 10
-194.964979349
 20
46.0869151493
 30
0.0
 40
10.08469855990719
100
AcDbArc
 50
91.3404185409
 51
179.3182547575
  0
ARC
  5
110
330
1F
100
AcDbEntity
  8
0
  6
Continuous
 62
     7
370
    25
100
AcDbCircle
 10
-194.964979349
 20
-139.0869151493
 30
0.0
 40
10.0846985599071
100
AcDbArc
 50
180.6817452425
 51
268.6595814591
  0
ARC
  5
111
330
1F
100
AcDbEntity
  8
0
  6
Continuous
 62
     7
370
    25
100
AcDbCircle
 10
194.964979349
 20
46.0869151493
 30
0.0
 40
10.08469855990719
100
AcDbArc
 50
0.6817452425
 51
88.6595814591
  0
ARC
  5
112
330
1F
100
AcDbEntity
  8
0
  6
Continuous
 62
     7
370
    25
100
AcDbCircle
 10
177.624561722
 20
48.1935783763
 30
0.0
 40
372.9107398048904
100
AcDbArc
 50
178.7745472816
 51
180.294244318
  0
ARC
  5
113
330
1F
100
AcDbEntity
  8
0
  6
Continuous
 62
     7
370
    25
100
AcDbCircle
 10
-177.6245617213
 20
48.1935783763
 30
0.0
 40
372.9107398041785
100
AcDbArc
 50
359.705755682
 51
1.2254527184
  0
ARC
  5
114
330
1F
100
AcDbEntity
  8
0
  6
Continuous
 62
     7
370
    25
100
AcDbCircle
 10
177.6245617212
 20
-141.1935783763
 30
0.0
 40
372.9107398041015
100
AcDbArc
 50
179.705755682
 51
181.2254527184
  0
ARC
  5
115
330
1F
100
AcDbEntity
  8
0
  6
Continuous
 62
     7
370
    25
100
AcDbCircle
 10
-177.6245617214
 20
-141.1935783763
 30
0.0
 40
372.9107398043403
100
AcDbArc
 50
358.7745472816
 51
0.294244318
  0
ARC
  5
116
330
1F
100
AcDbEntity
  8
0
  6
Continuous
 62
     7
370
    25
100
AcDbCircle
 10
196.5444625961
 20
354.7942719374
 30
0.0
 40
494.074378456015
100
AcDbArc
 50
269.8535114826
 51
270.9862808625
  0
ARC
  5
117
330
1F
100
AcDbEntity
  8
0
  6
Continuous
 62
     7
370
    25
100
AcDbCircle
 10
-196.5444625961
 20
-447.7942719378
 30
0.0
 40
494.0743784564374
100
AcDbArc
 50
89.8535114826
 51
90.9862808625
  0
ARC
  5
118
330
1F
100
AcDbEntity
  8
0
  6
Continuous
 62
     7
370
    25
100
AcDbCircle
 10
196.5444625961
 20
-447.7942719379
 30
0.0
 40
494.0743784565636
100
AcDbArc
 50
89.0137191375
 51
90.1464885174
  0
ARC
  5
119
330
1F
100
AcDbEntity
  8
0
  6
Continuous
 62
     7
370
    25
100
AcDbCircle
 10
-196.5444625961
 20
354.7942719376
 30
0.0
 40
494.0743784562799
100
AcDbArc
 50
269.0137191375
 51
270.1464885174
  0
ARC
  5
11A
330
1F
100
AcDbEntity
  8
0
  6
Continuous
 62
     7
370
    25
100
AcDbCircle
 10
0.0355901282
 20
-40.3588303136
 30
0.0
 40
100.0974898138173
100
AcDbArc
 50
82.6093616601
 51
97.4959582999
  0
ARC
  5
11B
330
1F
100
AcDbEntity
  8
0
  6
Continuous
 62
     7
370
    25
100
AcDbCircle
 10
0.0417328109
 20
-38.0443241796
 30
0.0
 40
97.67976146078489
100
AcDbArc
 50
83.2313552391
 51
96.9243856419
  0
LWPOLYLINE
  5
121
330
1B
100
AcDbEntity
 67
     1
  8
0
  6
Continuous
 62
     7
370
    25
100
AcDbPolyline
 90
       10
 70
   128
 43
0.0
 10
246.0
 20
125.0
 10
245.984807753
 20
125.8682408883
 10
245.9396926208
 20
126.7101007166
 10
245.8660254038
 20
127.5
 10
245.7660444431
 20
128.2139380484
 10
245.6427876097
 20
128.8302222156
 10
245.5
 20
129.3301270189
 10
245.3420201433
 20
129.6984631039
 10
245.1736481777
 20
129.9240387651
 10
245.0
 20
130.0
  0
LWPOLYLINE
  5
128
330
1B
100
AcDbEntity
 67
     1
  8
0
  6
Continuous
 62
     7
370
    25
100
AcDbPolyline
 90
        9
 70
   128
 43
0.0
 10
-245.0
 20
130.0
 10
-245.195090322
 20
129.903926402
 10
-245.3826834324
 20
129.6193976626
 10
-245.555570233
 20
129.1573480615
 10
-245.7071067812
 20
128.5355339059
 10
-245.8314696123
 20
127.7778511651
 10
-245.9238795325
 20
126.9134171618
 10
-245.9807852804
 20
125.9754516101
 10
-246.0
 20
125.0
  0
LINE
  5
138
330
1B
100
AcDbEntity
 67
     1
  8
0
  6
Continuous
 62
     7
370
    25
100
AcDbLine
 10
-38.1984153898
 20
0.0
 30
0.0
 11
-37.6011061566
 21
-17.1046984901
 31
0.0
  0
LINE
  5
139
330
1B
100
AcDbEntity
 67
     1
  8
0
  6
Continuous
 62
     7
370
    25
100
AcDbLine
 10
37.6011061566
 20
-17.1046984901
 30
0.0
 11
38.1984153898
 21
0.0
 31
0.0
  0
LINE
  5
13A
330
1B
100
AcDbEntity
 67
     1
  8
0
  6
Continuous
 62
     7
370
    25
100
AcDbLine
 10
250.0
 20
125.0
 30
0.0
 11
-250.0
 21
125.0
 31
0.0
  0
LINE
  5
13B
330
1B
100
AcDbEntity
 67
     1
  8
0
  6
Continuous
 62
     7
370
    25
100
AcDbLine
 10
-250.0
 20
3.0
 30
0.0
 11
250.0
 21
3.0
 31
0.0
  0
LINE
  5
13C
330
1B
100
AcDbEntity
 67
     1
  8
0
  6
Continuous
 62
     7
370
    25
100
AcDbLine
 10
246.0
 20
0.0
 30
0.0
 11
246.0
 21
125.0
 31
0.0
  0
LINE
  5
13D
330
1B
100
AcDbEntity
 67
     1
  8
0
  6
Continuous
 62
     7
370
    25
100
AcDbLine
 10
247.0
 20
0.0
 30
0.0
 11
-247.0
 21
0.0
 31
0.0
  0
LINE
  5
13E
330
1B
100
AcDbEntity
 67
     1
  8
0
  6
Continuous
 62
     7
370
    25
100
AcDbLine
 10
-246.0
 20
125.0
 30
0.0
 11
-246.0
 21
0.0
 31
0.0
  0
LINE
  5
13F
330
1B
100
AcDbEntity
 67
     1
  8
0
  6
Continuous
 62
     7
370
    25
100
AcDbLine
 10
-245.0
 20
130.0
 30
0.0
 11
245.0
 21
130.0
 31
0.0
  0
LINE
  5
140
330
1B
100
AcDbEntity
 67
     1
  8
0
  6
Continuous
 62
     7
370
    25
100
AcDbLine
 10
250.0
 20
125.0
 30
0.0
 11
250.0
 21
3.0
 31
0.0
  0
LINE
  5
141
330
1B
100
AcDbEntity
 67
     1
  8
0
  6
Continuous
 62
     7
370
    25
100
AcDbLine
 10
-250.0
 20
3.0
 30
0.0
 11
-250.0
 21
125.0
 31
0.0
  0
LINE
  5
142
330
1B
100
AcDbEntity
 67
     1
  8
0
  6
Continuous
 62
     7
370
    25
100
AcDbLine
 10
34.6029336756
 20
-20.0
 30
0.0
 11
-34.6029336756
 21
-20.0
 31
0.0
  0
LINE
  5
143
330
1B
100
AcDbEntity
 67
     1
  8
0
  6
Continuous
 62
     8
370
    25
100
AcDbLine
 10
-37.6011061566
 20
-17.1046984901
 30
0.0
 11
37.6011061566
 21
-17.1046984901
 31
0.0
  0
ARC
  5
144
330
1B
100
AcDbEntity
 67
     1
  8
0
  6
Continuous
 62
     7
370
    25
100
AcDbCircle
 10
34.6029336756
 20
-17.0
 30
0.0
 40
3.000000000000004
100
AcDbArc
 50
270.0
 51
358.0
  0
ARC
  5
145
330
1B
100
AcDbEntity
 67
     1
  8
0
  6
Continuous
 62
     7
370
    25
100
AcDbCircle
 10
-34.6029336756
 20
-17.0
 30
0.0
 40
3.000000000000011
100
AcDbArc
 50
182.0
 51
270.0
  0
ARC
  5
146
330
1B
100
AcDbEntity
 67
     1
  8
0
  6
Continuous
 62
     7
370
    25
100
AcDbCircle
 10
245.0
 20
125.0
 30
0.0
 40
5.0
100
AcDbArc
 50
0.0
 51
90.0
  0
ARC
  5
147
330
1B
100
AcDbEntity
 67
     1
  8
0
  6
Continuous
 62
     7
370
    25
100
AcDbCircle
 10
247.0
 20
3.0
 30
0.0
 40
3.000000000000057
100
AcDbArc
 50
270.0
 51
0.0
  0
ARC
  5
148
330
1B
100
AcDbEntity
 67
     1
  8
0
  6
Continuous
 62
     7
370
    25
100
AcDbCircle
 10
-247.0
 20
3.0
 30
0.0
 40
3.000000000000004
100
AcDbArc
 50
180.0
 51
270.0
  0
ARC
  5
149
330
1B
100
AcDbEntity
 67
     1
  8
0
  6
Continuous
 62
     7
370
    25
100
AcDbCircle
 10
-245.0
 20
125.0
 30
0.0
 40
5.0
100
AcDbArc
 50
90.0
 51
180.0
  0
VIEWPORT
  5
349
330
1B
100
AcDbEntity
 67
     1
  8
0
100
AcDbViewport
 10
0.0
 20
0.0
 30
0.0
 40
205.6
 41
156.0
 68
     1
 69
     1
 12
0.0
 22
0.0
 13
0.0
 23
0.0
 14
10.0
 24
10.0
 15
10.0
 25
10.0
 16
0.0
 26
0.0
 36
1.0
 17
0.0
 27
0.0
 37
0.0
 42
50.0
 43
0.0
 44
0.0
 45
386.9649805447
 50
0.0
 51
0.0
 72
   100
 90
   557152
  1

281
     0
 71
     1
 74
     0
110
0.0
120
0.0
130
0.0
111
1.0
121
0.0
131
0.0
112
0.0
122
1.0
132
0.0
 79
     0
146
0.0
  0
ENDSEC
  0
SECTION
  2
OBJECTS
  0
DICTIONARY
  5
C
330
0
100
AcDbDictionary
281
     1
  3
ACAD_GROUP
350
D
  3
ACAD_LAYOUT
350
1A
  3
ACAD_MLINESTYLE
350
17
  3
ACAD_PLOTSETTINGS
350
19
  3
ACAD_PLOTSTYLENAME
350
E
  3
ACAD_SCALELIST
350
47
  0
DICTIONARY
  5
D
102
{ACAD_REACTORS
330
C
102
}
330
C
100
AcDbDictionary
281
     1
  0
DICTIONARY
  5
1A
102
{ACAD_REACTORS
330
C
102
}
330
C
100
AcDbDictionary
281
     1
  3
_Back
350
195
  3
_Front
350
1E
  3
_Isometric
350
26F
  3
_Left
350
26
  3
Model
350
22
  0
DICTIONARY
  5
17
102
{ACAD_REACTORS
330
C
102
}
330
C
100
AcDbDictionary
281
     1
  3
Standard
350
18
  0
DICTIONARY
  5
19
102
{ACAD_REACTORS
330
C
102
}
330
C
100
AcDbDictionary
281
     1
  0
ACDBDICTIONARYWDFLT
  5
E
102
{ACAD_REACTORS
330
C
102
}
330
C
100
AcDbDictionary
281
     1
  3
Normal
350
F
100
AcDbDictionaryWithDefault
340
F
  0
DICTIONARY
  5
47
102
{ACAD_REACTORS
330
C
102
}
330
C
100
AcDbDictionary
281
     1
  3
A0
350
48
  3
A1
350
49
  3
A2
350
4A
  3
A3
350
4B
  3
A4
350
4C
  3
A5
350
4D
  3
A6
350
4E
  3
A7
350
4F
  3
A8
350
50
  3
A9
350
51
  3
B0
350
52
  3
B1
350
53
  3
B2
350
54
  3
B3
350
55
  3
B4
350
56
  3
B5
350
57
  3
B6
350
58
  3
B7
350
59
  3
B8
350
5A
  3
B9
350
5B
  3
C0
350
5C
  3
C1
350
5D
  3
C2
350
5E
  3
C3
350
5F
  3
C4
350
60
  3
C5
350
61
  3
C6
350
62
  3
C7
350
63
  3
C8
350
64
  3
C9
350
65
  3
D0
350
66
  3
D1
350
67
  3
D2
350
68
  0
LAYOUT
  5
195
102
{ACAD_REACTORS
330
1A
102
}
330
1A
100
AcDbPlotSettings
  1

  2
none_device
  4
ISO_A4_(210.00_x_297.00_MM)
  6

 40
7.5
 41
20.0
 42
7.5
 43
20.0
 44
210.0
 45
297.0
 46
0.0
 47
0.0
 48
0.0
 49
0.0
140
0.0
141
0.0
142
1.0
143
1.9455252918
 70
   688
 72
     1
 73
     1
 74
     1
  7

 75
     0
147
0.514
148
250.0
149
20.0
100
AcDbLayout
  1
_Back
 70
     1
 71
     3
 10
0.0
 20
0.0
 11
0.0
 21
0.0
 12
0.0
 22
0.0
 32
0.0
 14
0.0
 24
0.0
 34
0.0
 15
0.0
 25
0.0
 35
0.0
146
0.0
 13
0.0
 23
0.0
 33
0.0
 16
1.0
 26
0.0
 36
0.0
 17
0.0
 27
1.0
 37
0.0
 76
     0
330
194
331
34D
  0
LAYOUT
  5
1E
102
{ACAD_REACTORS
330
1A
102
}
330
1A
100
AcDbPlotSettings
  1

  2
none_device
  4
ISO_A4_(210.00_x_297.00_MM)
  6

 40
7.5
 41
20.0
 42
7.5
 43
20.0
 44
210.0
 45
297.0
 46
0.0
 47
0.0
 48
0.0
 49
0.0
140
0.0
141
0.0
142
1.0
143
1.9455252918
 70
   688
 72
     1
 73
     1
 74
     1
  7

 75
     0
147
0.514
148
250.0
149
20.0
100
AcDbLayout
  1
_Front
 70
     1
 71
     1
 10
-288.9105058366
 20
-34.5914396887
 11
288.9105058366
 21
373.9688715953
 12
0.0
 22
0.0
 32
0.0
 14
-250.0
 24
-20.0
 34
0.0
 15
250.0
 25
130.0
 35
0.0
146
0.0
 13
0.0
 23
0.0
 33
0.0
 16
1.0
 26
0.0
 36
0.0
 17
0.0
 27
1.0
 37
0.0
 76
     0
330
1B
331
349
  0
LAYOUT
  5
26F
102
{ACAD_REACTORS
330
1A
102
}
330
1A
100
AcDbPlotSettings
  1

  2
none_device
  4
ISO_A4_(210.00_x_297.00_MM)
  6

 40
7.5
 41
20.0
 42
7.5
 43
20.0
 44
210.0
 45
297.0
 46
0.0
 47
0.0
 48
0.0
 49
0.0
140
0.0
141
0.0
142
1.0
143
1.9455252918
 70
   688
 72
     1
 73
     1
 74
     1
  7

 75
     0
147
0.514
148
250.0
149
20.0
100
AcDbLayout
  1
_Isometric
 70
     1
 71
     4
 10
0.0
 20
0.0
 11
0.0
 21
0.0
 12
0.0
 22
0.0
 32
0.0
 14
0.0
 24
0.0
 34
0.0
 15
0.0
 25
0.0
 35
0.0
146
0.0
 13
0.0
 23
0.0
 33
0.0
 16
1.0
 26
0.0
 36
0.0
 17
0.0
 27
1.0
 37
0.0
 76
     0
330
26E
331
34F
  0
LAYOUT
  5
26
102
{ACAD_REACTORS
330
1A
102
}
330
1A
100
AcDbPlotSettings
  1

  2
none_device
  4
ISO_A4_(210.00_x_297.00_MM)
  6

 40
7.5
 41
20.0
 42
7.5
 43
20.0
 44
210.0
 45
297.0
 46
0.0
 47
0.0
 48
0.0
 49
0.0
140
0.0
141
0.0
142
1.0
143
1.9455252918
 70
   688
 72
     1
 73
     1
 74
     1
  7

 75
     0
147
0.514
148
250.0
149
20.0
100
AcDbLayout
  1
_Left
 70
     1
 71
     2
 10
0.0
 20
0.0
 11
0.0
 21
0.0
 12
0.0
 22
0.0
 32
0.0
 14
0.0
 24
0.0
 34
0.0
 15
0.0
 25
0.0
 35
0.0
146
0.0
 13
0.0
 23
0.0
 33
0.0
 16
1.0
 26
0.0
 36
0.0
 17
0.0
 27
1.0
 37
0.0
 76
     0
330
23
331
34B
  0
LAYOUT
  5
22
102
{ACAD_REACTORS
330
1A
102
}
330
1A
100
AcDbPlotSettings
  1

  2
none_device
  4
ANSI_A_(11.00_x_8.50_Inches)
  6

 40
6.35
 41
19.05
 42
6.35000508
 43
19.05000254
 44
279.4
 45
215.9
 46
133.34999746
 47
88.89999873
 48
0.0
 49
0.0
140
0.0
141
0.0
142
0.02178
143
1.0
 70
  1696
 72
     0
 73
     0
 74
     0
  7

 75
     0
147
0.0179189148
148
-1300.4909072572
149
0.0
100
AcDbLayout
  1
Model
 70
     1
 71
     0
 10
0.0
 20
0.0
 11
420.0
 21
297.0
 12
0.0
 22
0.0
 32
0.0
 14
-250.0
 24
-185.0
 34
0.0
 15
250.0
 25
185.0
 35
0.0
146
0.0
 13
0.0
 23
0.0
 33
0.0
 16
1.0
 26
0.0
 36
0.0
 17
0.0
 27
1.0
 37
0.0
 76
     0
330
1F
331
29
  0
MLINESTYLE
  5
18
102
{ACAD_REACTORS
330
17
102
}
330
17
100
AcDbMlineStyle
  2
Standard
 70
     0
  3

 62
   256
 51
90.0
 52
90.0
 71
     2
 49
0.5
 62
   256
  6
BYLAYER
 49
-0.5
 62
   256
  6
BYLAYER
  0
ACDBPLACEHOLDER
  5
F
102
{ACAD_REACTORS
330
E
102
}
330
E
  0
SCALE
  5
48
102
{ACAD_REACTORS
330
47
102
}
330
47
100
AcDbScale
 70
     0
300
1:1
140
1.0
141
1.0
290
     1
  0
SCALE
  5
49
102
{ACAD_REACTORS
330
47
102
}
330
47
100
AcDbScale
 70
     0
300
1:2
140
1.0
141
2.0
290
     0
  0
SCALE
  5
4A
102
{ACAD_REACTORS
330
47
102
}
330
47
100
AcDbScale
 70
     0
300
1:4
140
1.0
141
4.0
290
     0
  0
SCALE
  5
4B
102
{ACAD_REACTORS
330
47
102
}
330
47
100
AcDbScale
 70
     0
300
1:5
140
1.0
141
5.0
290
     0
  0
SCALE
  5
4C
102
{ACAD_REACTORS
330
47
102
}
330
47
100
AcDbScale
 70
     0
300
1:8
140
1.0
141
8.0
290
     0
  0
SCALE
  5
4D
102
{ACAD_REACTORS
330
47
102
}
330
47
100
AcDbScale
 70
     0
300
1:10
140
1.0
141
10.0
290
     0
  0
SCALE
  5
4E
102
{ACAD_REACTORS
330
47
102
}
330
47
100
AcDbScale
 70
     0
300
1:16
140
1.0
141
16.0
290
     0
  0
SCALE
  5
4F
102
{ACAD_REACTORS
330
47
102
}
330
47
100
AcDbScale
 70
     0
300
1:20
140
1.0
141
20.0
290
     0
  0
SCALE
  5
50
102
{ACAD_REACTORS
330
47
102
}
330
47
100
AcDbScale
 70
     0
300
1:30
140
1.0
141
30.0
290
     0
  0
SCALE
  5
51
102
{ACAD_REACTORS
330
47
102
}
330
47
100
AcDbScale
 70
     0
300
1:40
140
1.0
141
40.0
290
     0
  0
SCALE
  5
52
102
{ACAD_REACTORS
330
47
102
}
330
47
100
AcDbScale
 70
     0
300
1:50
140
1.0
141
50.0
290
     0
  0
SCALE
  5
53
102
{ACAD_REACTORS
330
47
102
}
330
47
100
AcDbScale
 70
     0
300
1:100
140
1.0
141
100.0
290
     0
  0
SCALE
  5
54
102
{ACAD_REACTORS
330
47
102
}
330
47
100
AcDbScale
 70
     0
300
2:1
140
2.0
141
1.0
290
     0
  0
SCALE
  5
55
102
{ACAD_REACTORS
330
47
102
}
330
47
100
AcDbScale
 70
     0
300
4:1
140
4.0
141
1.0
290
     0
  0
SCALE
  5
56
102
{ACAD_REACTORS
330
47
102
}
330
47
100
AcDbScale
 70
     0
300
8:1
140
8.0
141
1.0
290
     0
  0
SCALE
  5
57
102
{ACAD_REACTORS
330
47
102
}
330
47
100
AcDbScale
 70
     0
300
10:1
140
10.0
141
1.0
290
     0
  0
SCALE
  5
58
102
{ACAD_REACTORS
330
47
102
}
330
47
100
AcDbScale
 70
     0
300
100:1
140
100.0
141
1.0
290
     0
  0
SCALE
  5
59
102
{ACAD_REACTORS
330
47
102
}
330
47
100
AcDbScale
 70
     0
300
1/128" = 1'-0"
140
0.0078125
141
12.0
290
     0
  0
SCALE
  5
5A
102
{ACAD_REACTORS
330
47
102
}
330
47
100
AcDbScale
 70
     0
300
1/64" = 1'-0"
140
0.015625
141
12.0
290
     0
  0
SCALE
  5
5B
102
{ACAD_REACTORS
330
47
102
}
330
47
100
AcDbScale
 70
     0
300
1/32" = 1'-0"
140
0.03125
141
12.0
290
     0
  0
SCALE
  5
5C
102
{ACAD_REACTORS
330
47
102
}
330
47
100
AcDbScale
 70
     0
300
1/16" = 1'-0"
140
0.0625
141
12.0
290
     0
  0
SCALE
  5
5D
102
{ACAD_REACTORS
330
47
102
}
330
47
100
AcDbScale
 70
     0
300
3/32" = 1'-0"
140
0.09375
141
12.0
290
     0
  0
SCALE
  5
5E
102
{ACAD_REACTORS
330
47
102
}
330
47
100
AcDbScale
 70
     0
300
1/8" = 1'-0"
140
0.125
141
12.0
290
     0
  0
SCALE
  5
5F
102
{ACAD_REACTORS
330
47
102
}
330
47
100
AcDbScale
 70
     0
300
3/16" = 1'-0"
140
0.1875
141
12.0
290
     0
  0
SCALE
  5
60
102
{ACAD_REACTORS
330
47
102
}
330
47
100
AcDbScale
 70
     0
300
1/4" = 1'-0"
140
0.25
141
12.0
290
     0
  0
SCALE
  5
61
102
{ACAD_REACTORS
330
47
102
}
330
47
100
AcDbScale
 70
     0
300
3/8" = 1'-0"
140
0.375
141
12.0
290
     0
  0
SCALE
  5
62
102
{ACAD_REACTORS
330
47
102
}
330
47
100
AcDbScale
 70
     0
300
1/2" = 1'-0"
140
0.5
141
12.0
290
     0
  0
SCALE
  5
63
102
{ACAD_REACTORS
330
47
102
}
330
47
100
AcDbScale
 70
     0
300
3/4" = 1'-0"
140
0.75
141
12.0
290
     0
  0
SCALE
  5
64
102
{ACAD_REACTORS
330
47
102
}
330
47
100
AcDbScale
 70
     0
300
1" = 1'-0"
140
1.0
141
12.0
290
     0
  0
SCALE
  5
65
102
{ACAD_REACTORS
330
47
102
}
330
47
100
AcDbScale
 70
     0
300
1-1/2" = 1'-0"
140
1.5
141
12.0
290
     0
  0
SCALE
  5
66
102
{ACAD_REACTORS
330
47
102
}
330
47
100
AcDbScale
 70
     0
300
3" = 1'-0"
140
3.0
141
12.0
290
     0
  0
SCALE
  5
67
102
{ACAD_REACTORS
330
47
102
}
330
47
100
AcDbScale
 70
     0
300
6" = 1'-0"
140
6.0
141
12.0
290
     0
  0
SCALE
  5
68
102
{ACAD_REACTORS
330
47
102
}
330
47
100
AcDbScale
 70
     0
300
1'-0" = 1'-0"
140
12.0
141
12.0
290
     0
  0
ENDSEC
  0
EOF
