  0
SECTION
  2
HEADER
  9
$ACADVER
  1
AC1015
  9
$ACADMAINTVER
 70
     6
  9
$DWGCODEPAGE
  3
ANSI_1252
  9
$INSBASE
 10
0.0
 20
0.0
 30
0.0
  9
$EXTMIN
 10
-850.0
 20
-375.0
 30
0.0
  9
$EXTMAX
 10
850.0
 20
375.0
 30
0.0
  9
$LIMMIN
 10
0.0
 20
0.0
  9
$LIMMAX
 10
420.0
 20
297.0
  9
$ORTHOMODE
 70
     0
  9
$REGENMODE
 70
     1
  9
$FILLMODE
 70
     1
  9
$QTEXTMODE
 70
     0
  9
$MIRRTEXT
 70
     1
  9
$LTSCALE
 40
1.0
  9
$ATTMODE
 70
     1
  9
$TEXTSIZE
 40
3.5
  9
$TRACEWID
 40
1.0
  9
$TEXTSTYLE
  7
Standard
  9
$CLAYER
  8
0
  9
$CELTYPE
  6
ByLayer
  9
$CECOLOR
 62
   256
  9
$CELTSCALE
 40
1.0
  9
$DISPSILH
 70
     0
  9
$DIMSCALE
 40
1.0
  9
$DIMASZ
 40
3.302
  9
$DIMEXO
 40
1.0
  9
$DIMDLI
 40
3.75
  9
$DIMRND
 40
0.0
  9
$DIMDLE
 40
0.0
  9
$DIMEXE
 40
1.0
  9
$DIMTP
 40
0.0
  9
$DIMTM
 40
0.0
  9
$DIMTXT
 40
3.5
  9
$DIMCEN
 40
2.5
  9
$DIMTSZ
 40
0.0
  9
$DIMTOL
 70
     0
  9
$DIMLIM
 70
     0
  9
$DIMTIH
 70
     1
  9
$DIMTOH
 70
     1
  9
$DIMSE1
 70
     0
  9
$DIMSE2
 70
     0
  9
$DIMTAD
 70
     1
  9
$DIMZIN
 70
     1
  9
$DIMBLK
  1

  9
$DIMASO
 70
     1
  9
$DIMSHO
 70
     1
  9
$DIMPOST
  1

  9
$DIMAPOST
  1

  9
$DIMALT
 70
     0
  9
$DIMALTD
 70
     3
  9
$DIMALTF
 40
0.0393700787
  9
$DIMLFAC
 40
1.0
  9
$DIMTOFL
 70
     1
  9
$DIMTVP
 40
0.0
  9
$DIMTIX
 70
     0
  9
$DIMSOXD
 70
     0
  9
$DIMSAH
 70
     0
  9
$DIMBLK1
  1

  9
$DIMBLK2
  1

  9
$DIMSTYLE
  2
ISO-25
  9
$DIMCLRD
 70
     0
  9
$DIMCLRE
 70
     0
  9
$DIMCLRT
 70
     0
  9
$DIMTFAC
 40
1.0
  9
$DIMGAP
 40
1.524
  9
$DIMJUST
 70
     0
  9
$DIMSD1
 70
     0
  9
$DIMSD2
 70
     0
  9
$DIMTOLJ
 70
     0
  9
$DIMTZIN
 70
     1
  9
$DIMALTZ
 70
     0
  9
$DIMALTTZ
 70
     0
  9
$DIMUPT
 70
     0
  9
$DIMDEC
 70
     2
  9
$DIMTDEC
 70
     2
  9
$DIMALTU
 70
     2
  9
$DIMALTTD
 70
     3
  9
$DIMTXSTY
  7
Standard
  9
$DIMAUNIT
 70
     0
  9
$DIMADEC
 70
     2
  9
$DIMALTRND
 40
0.0
  9
$DIMAZIN
 70
     0
  9
$DIMDSEP
 70
    44
  9
$DIMATFIT
 70
     3
  9
$DIMFRAC
 70
     0
  9
$DIMLDRBLK
  1

  9
$DIMLUNIT
 70
     2
  9
$DIMLWD
 70
    -2
  9
$DIMLWE
 70
    -2
  9
$DIMTMOVE
 70
     0
  9
$LUNITS
 70
     2
  9
$LUPREC
 70
     2
  9
$SKETCHINC
 40
1.0
  9
$FILLETRAD
 40
10.0
  9
$AUNITS
 70
     0
  9
$AUPREC
 70
     2
  9
$MENU
  1
.
  9
$ELEVATION
 40
0.0
  9
$PELEVATION
 40
0.0
  9
$THICKNESS
 40
0.0
  9
$LIMCHECK
 70
     0
  9
$CHAMFERA
 40
0.0
  9
$CHAMFERB
 40
0.0
  9
$CHAMFERC
 40
0.0
  9
$CHAMFERD
 40
0.0
  9
$SKPOLY
 70
     0
  9
$TDCREATE
 40
2459439.581230486
  9
$TDUCREATE
 40
2459439.539563819
  9
$TDUPDATE
 40
2459439.58130434
  9
$TDUUPDATE
 40
2459439.539637674
  9
$TDINDWG
 40
0.0000000116
  9
$TDUSRTIMER
 40
0.0000000116
  9
$USRTIMER
 70
     1
  9
$ANGBASE
 50
0.0
  9
$ANGDIR
 70
     0
  9
$PDMODE
 70
     0
  9
$PDSIZE
 40
-1.0
  9
$PLINEWID
 40
0.0
  9
$SPLFRAME
 70
     0
  9
$SPLINETYPE
 70
     6
  9
$SPLINESEGS
 70
     8
  9
$HANDSEED
  5
163
  9
$SURFTAB1
 70
     6
  9
$SURFTAB2
 70
     6
  9
$SURFTYPE
 70
     6
  9
$SURFU
 70
     6
  9
$SURFV
 70
     6
  9
$UCSBASE
  2

  9
$UCSNAME
  2

  9
$UCSORG
 10
0.0
 20
0.0
 30
0.0
  9
$UCSXDIR
 10
1.0
 20
0.0
 30
0.0
  9
$UCSYDIR
 10
0.0
 20
1.0
 30
0.0
  9
$UCSORTHOREF
  2

  9
$UCSORTHOVIEW
 70
     0
  9
$UCSORGTOP
 10
0.0
 20
0.0
 30
0.0
  9
$UCSORGBOTTOM
 10
0.0
 20
0.0
 30
0.0
  9
$UCSORGLEFT
 10
0.0
 20
0.0
 30
0.0
  9
$UCSORGRIGHT
 10
0.0
 20
0.0
 30
0.0
  9
$UCSORGFRONT
 10
0.0
 20
0.0
 30
0.0
  9
$UCSORGBACK
 10
0.0
 20
0.0
 30
0.0
  9
$PUCSBASE
  2

  9
$PUCSNAME
  2

  9
$PUCSORG
 10
0.0
 20
0.0
 30
0.0
  9
$PUCSXDIR
 10
1.0
 20
0.0
 30
0.0
  9
$PUCSYDIR
 10
0.0
 20
1.0
 30
0.0
  9
$PUCSORTHOREF
  2

  9
$PUCSORTHOVIEW
 70
     0
  9
$PUCSORGTOP
 10
0.0
 20
0.0
 30
0.0
  9
$PUCSORGBOTTOM
 10
0.0
 20
0.0
 30
0.0
  9
$PUCSORGLEFT
 10
0.0
 20
0.0
 30
0.0
  9
$PUCSORGRIGHT
 10
0.0
 20
0.0
 30
0.0
  9
$PUCSORGFRONT
 10
0.0
 20
0.0
 30
0.0
  9
$PUCSORGBACK
 10
0.0
 20
0.0
 30
0.0
  9
$USERI1
 70
     0
  9
$USERI2
 70
     0
  9
$USERI3
 70
     0
  9
$USERI4
 70
     0
  9
$USERI5
 70
     0
  9
$USERR1
 40
0.0
  9
$USERR2
 40
0.0
  9
$USERR3
 40
0.0
  9
$USERR4
 40
0.0
  9
$USERR5
 40
0.0
  9
$WORLDVIEW
 70
     1
  9
$SHADEDGE
 70
     3
  9
$SHADEDIF
 70
    70
  9
$TILEMODE
 70
     0
  9
$MAXACTVP
 70
    64
  9
$PINSBASE
 10
0.0
 20
0.0
 30
0.0
  9
$PLIMCHECK
 70
     0
  9
$PEXTMIN
 10
-850.0
 20
-375.0
 30
0.0
  9
$PEXTMAX
 10
850.0
 20
375.0
 30
0.0
  9
$PLIMMIN
 10
0.0
 20
0.0
  9
$PLIMMAX
 10
0.0
 20
0.0
  9
$UNITMODE
 70
     0
  9
$VISRETAIN
 70
     1
  9
$PLINEGEN
 70
     0
  9
$PSLTSCALE
 70
     1
  9
$TREEDEPTH
 70
  3020
  9
$CMLSTYLE
  2
Standard
  9
$CMLJUST
 70
     0
  9
$CMLSCALE
 40
20.0
  9
$PROXYGRAPHICS
 70
     1
  9
$MEASUREMENT
 70
     1
  9
$CELWEIGHT
370
    -1
  9
$ENDCAPS
280
     0
  9
$JOINSTYLE
280
     0
  9
$LWDISPLAY
290
     1
  9
$INSUNITS
 70
     4
  9
$HYPERLINKBASE
  1

  9
$STYLESHEET
  1

  9
$XEDIT
290
     1
  9
$CEPSNTYPE
380
     0
  9
$PSTYLEMODE
290
     1
  9
$FINGERPRINTGUID
  2
{636268d6-239a-4d79-9811-1e361eb245d3}
  9
$VERSIONGUID
  2
{FAEB1C32-E019-11D5-929B-00C0DF256EC4}
  9
$EXTNAMES
290
     1
  9
$PSVPSCALE
 40
0.0
  9
$OLESTARTUP
290
     0
  0
ENDSEC
  0
SECTION
  2
CLASSES
  0
CLASS
  1
ACDBDICTIONARYWDFLT
  2
AcDbDictionaryWithDefault
  3
ObjectDBX Classes
 90
        0
280
     0
281
     0
  0
CLASS
  1
VISUALSTYLE
  2
AcDbVisualStyle
  3
ObjectDBX Classes
 90
     4095
280
     0
281
     0
  0
CLASS
  1
MATERIAL
  2
AcDbMaterial
  3
ObjectDBX Classes
 90
     1153
280
     0
281
     0
  0
CLASS
  1
SCALE
  2
AcDbScale
  3
ObjectDBX Classes
 90
     1153
280
     0
281
     0
  0
CLASS
  1
TABLESTYLE
  2
AcDbTableStyle
  3
ObjectDBX Classes
 90
     4095
280
     0
281
     0
  0
CLASS
  1
MLEADERSTYLE
  2
AcDbMLeaderStyle
  3
ACDB_MLEADERSTYLE_CLASS
 90
     4095
280
     0
281
     0
  0
CLASS
  1
SUN
  2
AcDbSun
  3
SCENEOE
 90
     1153
280
     0
281
     0
  0
CLASS
  1
ACDBPLACEHOLDER
  2
AcDbPlaceHolder
  3
ObjectDBX Classes
 90
        0
280
     0
281
     0
  0
CLASS
  1
LAYOUT
  2
AcDbLayout
  3
ObjectDBX Classes
 90
        0
280
     0
281
     0
  0
ENDSEC
  0
SECTION
  2
TABLES
  0
TABLE
  2
VPORT
  5
8
330
0
100
AcDbSymbolTable
 70
     1
  0
VPORT
  5
29
330
8
100
AcDbSymbolTableRecord
100
AcDbViewportTableRecord
  2
*Active
 70
     0
 10
0.0
 20
0.0
 11
1.0
 21
1.0
 12
0.0
 22
0.0
 13
0.0
 23
0.0
 14
10.0
 24
10.0
 15
10.0
 25
10.0
 16
0.0
 26
0.0
 36
1.0
 17
0.0
 27
0.0
 37
0.0
 40
765.0
 41
2.2666666667
 42
50.0
 43
0.0
 44
0.0
 50
0.0
 51
0.0
 71
     0
 72
   100
 73
     1
 74
     3
 75
     0
 76
     0
 77
     0
 78
     0
281
     0
 65
     1
110
0.0
120
0.0
130
0.0
111
1.0
121
0.0
131
0.0
112
0.0
122
1.0
132
0.0
 79
     0
146
0.0
  0
ENDTAB
  0
TABLE
  2
LTYPE
  5
5
330
0
100
AcDbSymbolTable
 70
     6
  0
LTYPE
  5
14
330
5
100
AcDbSymbolTableRecord
100
AcDbLinetypeTableRecord
  2
ByBlock
 70
     0
  3

 72
    65
 73
     0
 40
0.0
  0
LTYPE
  5
15
330
5
100
AcDbSymbolTableRecord
100
AcDbLinetypeTableRecord
  2
ByLayer
 70
     0
  3

 72
    65
 73
     0
 40
0.0
  0
LTYPE
  5
16
330
5
100
AcDbSymbolTableRecord
100
AcDbLinetypeTableRecord
  2
Continuous
 70
     0
  3
Solid line
 72
    65
 73
     0
 40
0.0
  0
LTYPE
  5
6E
330
5
100
AcDbSymbolTableRecord
100
AcDbLinetypeTableRecord
  2
HIDDEN
 70
     0
  3
Hidden __ __ __ __ __ __ __ __ __ __ __ __ __ __
 72
    65
 73
     2
 40
1.905
 49
1.27
 74
     0
 49
-0.635
 74
     0
  0
LTYPE
  5
6F
330
5
100
AcDbSymbolTableRecord
100
AcDbLinetypeTableRecord
  2
PHANTOM
 70
     0
  3
Phantom ______  __  __  ______  __  __  ______
 72
    65
 73
     6
 40
12.7
 49
6.35
 74
     0
 49
-1.27
 74
     0
 49
1.27
 74
     0
 49
-1.27
 74
     0
 49
1.27
 74
     0
 49
-1.27
 74
     0
  0
LTYPE
  5
70
330
5
100
AcDbSymbolTableRecord
100
AcDbLinetypeTableRecord
  2
CENTER
 70
     0
  3
Center ____ _ ____ _ ____ _ ____ _ ____ _ ____
 72
    65
 73
     4
 40
10.16
 49
6.35
 74
     0
 49
-1.27
 74
     0
 49
1.27
 74
     0
 49
-1.27
 74
     0
  0
LTYPE
  5
71
330
5
100
AcDbSymbolTableRecord
100
AcDbLinetypeTableRecord
  2
CENTERX2
 70
     0
  3
Center (2x) ________  __  ________  __  _____
 72
    65
 73
     4
 40
20.32
 49
12.7
 74
     0
 49
-2.54
 74
     0
 49
2.54
 74
     0
 49
-2.54
 74
     0
  0
LTYPE
  5
72
330
5
100
AcDbSymbolTableRecord
100
AcDbLinetypeTableRecord
  2
DOT2
 70
     0
  3
Dot (.5x) ........................................
 72
    65
 73
     2
 40
0.635
 49
0.0
 74
     0
 49
-0.635
 74
     0
  0
ENDTAB
  0
TABLE
  2
LAYER
  5
2
330
0
100
AcDbSymbolTable
 70
     1
  0
LAYER
  5
10
330
2
100
AcDbSymbolTableRecord
100
AcDbLayerTableRecord
  2
0
 70
     0
 62
     7
  6
Continuous
370
    -3
390
F
  0
ENDTAB
  0
TABLE
  2
STYLE
  5
3
330
0
100
AcDbSymbolTable
 70
     1
  0
STYLE
  5
11
330
3
100
AcDbSymbolTableRecord
100
AcDbTextStyleTableRecord
  2
Standard
 70
     0
 40
0.0
 41
1.0
 50
0.0
 71
     0
 42
3.5
  3
txt
  4

  0
ENDTAB
  0
TABLE
  2
VIEW
  5
6
330
0
100
AcDbSymbolTable
 70
     0
  0
ENDTAB
  0
TABLE
  2
UCS
  5
7
330
0
100
AcDbSymbolTable
 70
     0
  0
ENDTAB
  0
TABLE
  2
APPID
  5
9
330
0
100
AcDbSymbolTable
 70
     1
  0
APPID
  5
12
330
9
100
AcDbSymbolTableRecord
100
AcDbRegAppTableRecord
  2
ACAD
 70
     0
  0
ENDTAB
  0
TABLE
  2
DIMSTYLE
  5
A
330
0
100
AcDbSymbolTable
 70
     1
100
AcDbDimStyleTable
  0
DIMSTYLE
105
27
330
A
100
AcDbSymbolTableRecord
100
AcDbDimStyleTableRecord
  2
ISO-25
 70
     0
 41
2.5
 42
0.625
 43
3.75
 44
1.25
 73
     0
 74
     0
 77
     1
 78
     8
140
2.5
141
2.5
143
0.0393700787
147
0.625
171
     3
172
     1
178
     0
271
     2
272
     2
274
     3
278
    44
283
     0
284
     8
340
11
  0
ENDTAB
  0
TABLE
  2
BLOCK_RECORD
  5
1
330
0
100
AcDbSymbolTable
 70
     1
  0
BLOCK_RECORD
  5
1F
330
1
100
AcDbSymbolTableRecord
100
AcDbBlockTableRecord
  2
*Model_Space
340
22
  0
BLOCK_RECORD
  5
23
330
1
100
AcDbSymbolTableRecord
100
AcDbBlockTableRecord
  2
*Paper_Space
340
26
  0
BLOCK_RECORD
  5
1B
330
1
100
AcDbSymbolTableRecord
100
AcDbBlockTableRecord
  2
*Paper_Space0
340
1E
  0
ENDTAB
  0
ENDSEC
  0
SECTION
  2
BLOCKS
  0
BLOCK
  5
20
330
1F
100
AcDbEntity
  8
0
100
AcDbBlockBegin
  2
*Model_Space
 70
     0
 10
0.0
 20
0.0
 30
0.0
  3
*Model_Space
  1

  0
ENDBLK
  5
21
330
1F
100
AcDbEntity
  8
0
100
AcDbBlockEnd
  0
BLOCK
  5
24
330
23
100
AcDbEntity
 67
     1
  8
0
100
AcDbBlockBegin
  2
*Paper_Space
 70
     0
 10
0.0
 20
0.0
 30
0.0
  3
*Paper_Space
  1

  0
ENDBLK
  5
25
330
23
100
AcDbEntity
 67
     1
  8
0
100
AcDbBlockEnd
  0
BLOCK
  5
1C
330
1B
100
AcDbEntity
  8
0
100
AcDbBlockBegin
  2
*Paper_Space0
 70
     0
 10
0.0
 20
0.0
 30
0.0
  3
*Paper_Space0
  1

  0
LWPOLYLINE
  5
101
330
1B
100
AcDbEntity
  8
0
  6
Continuous
 62
     7
370
    25
100
AcDbPolyline
 90
       10
 70
   128
 43
0.0
 10
845.0
 20
-10.0
 10
844.9240387651
 20
-8.2635182233
 10
844.6984631039
 20
-6.5797985667
 10
844.3301270189
 20
-5.0
 10
843.8302222156
 20
-3.5721239031
 10
843.2139380484
 20
-2.3395555688
 10
842.5
 20
-1.3397459622
 10
841.7101007166
 20
-0.6030737921
 10
840.8682408883
 20
-0.1519224699
 10
840.0
 20
0.0
  0
LWPOLYLINE
  5
104
330
1B
100
AcDbEntity
  8
0
  6
Continuous
 62
     7
370
    25
100
AcDbPolyline
 90
        9
 70
   128
 43
0.0
 10
-840.0
 20
0.0
 10
-840.9754516101
 20
-0.192147196
 10
-841.9134171618
 20
-0.7612046749
 10
-842.7778511651
 20
-1.685303877
 10
-843.5355339059
 20
-2.9289321881
 10
-844.1573480615
 20
-4.4442976698
 10
-844.6193976626
 20
-6.1731656763
 10
-844.903926402
 20
-8.0490967798
 10
-845.0
 20
-10.0
  0
LWPOLYLINE
  5
109
330
1B
100
AcDbEntity
  8
0
  6
Continuous
 62
     7
370
    25
100
AcDbPolyline
 90
       19
 70
   128
 43
0.0
 10
-656.2964322372
 20
-360.6265531316
 10
-660.538768335
 20
-361.1344120272
 10
-664.7499754367
 20
-361.5605699301
 10
-668.8991529611
 20
-361.9018998209
 10
-672.955855482
 20
-362.1558971228
 10
-676.8903161268
 20
-362.3206980793
 10
-680.6736649974
 20
-362.3950934302
 10
-684.2781410091
 20
-362.3785372845
 10
-687.6772955923
 20
-362.2711511264
 10
-690.8461867654
 20
-362.0737229235
 10
-693.7615621505
 20
-361.787701345
 10
-696.402029593
 20
-361.4151851318
 10
-698.748214131
 20
-360.9589076967
 10
-700.7829001624
 20
-360.4222170675
 10
-702.4911577683
 20
-359.8090513197
 10
-703.8604522643
 20
-359.1239096807
 10
-704.8807361759
 20
-358.3718195154
 10
-705.5445229644
 20
-357.5582994368
 10
-705.8469419603
 20
-356.6893188126
  0
LWPOLYLINE
  5
10C
330
1B
100
AcDbEntity
  8
0
  6
Continuous
 62
     7
370
    25
100
AcDbPolyline
 90
       18
 70
   128
 43
0.0
 10
505.8139258699
 20
-377.4693142664
 10
505.2417401587
 20
-378.0069836026
 10
504.368399154
 20
-378.3399642419
 10
503.2002856576
 20
-378.4658225994
 10
501.7459368129
 20
-378.3836388408
 10
500.0159817104
 20
-378.0940136051
 10
498.023063706
 20
-377.5990636148
 10
495.7817480165
 20
-376.9024062058
 10
493.3084152702
 20
-376.0091328904
 10
490.6211417891
 20
-374.9257721455
 10
487.7395674786
 20
-373.6602416999
 10
484.6847522893
 20
-372.2217906675
 10
481.4790223006
 20
-370.6209319499
 10
478.145806551
 20
-368.8693654036
 10
474.7094658068
 20
-366.9798923311
 10
471.1951145225
 20
-364.9663219233
 10
467.6284372913
 20
-362.8433703349
 10
464.0355011301
 20
-360.6265531316
  0
LINE
  5
115
330
1B
100
AcDbEntity
  8
0
  6
Continuous
 62
     7
370
    25
100
AcDbLine
 10
-600.0
 20
-400.0
 30
0.0
 11
-589.99995
 21
-420.0001
 31
0.0
  0
LINE
  5
116
330
1B
100
AcDbEntity
  8
0
  6
Continuous
 62
     7
370
    25
100
AcDbLine
 10
-530.00005
 20
-420.0001
 30
0.0
 11
-520.0
 21
-400.0
 31
0.0
  0
LINE
  5
117
330
1B
100
AcDbEntity
  8
0
  6
Continuous
 62
     7
370
    25
100
AcDbLine
 10
-850.0
 20
-40.0
 30
0.0
 11
-850.0
 21
-10.0
 31
0.0
  0
LINE
  5
118
330
1B
100
AcDbEntity
  8
0
  6
Continuous
 62
     7
370
    25
100
AcDbLine
 10
-845.0
 20
-10.0
 30
0.0
 11
-845.0
 21
-40.0
 31
0.0
  0
LINE
  5
119
330
1B
100
AcDbEntity
  8
0
  6
Continuous
 62
     7
370
    25
100
AcDbLine
 10
845.0
 20
-40.0
 30
0.0
 11
845.0
 21
-10.0
 31
0.0
  0
LINE
  5
11A
330
1B
100
AcDbEntity
  8
0
  6
Continuous
 62
     7
370
    25
100
AcDbLine
 10
850.0
 20
-10.0
 30
0.0
 11
-850.0
 21
-10.0
 31
0.0
  0
LINE
  5
11B
330
1B
100
AcDbEntity
  8
0
  6
Continuous
 62
     7
370
    25
100
AcDbLine
 10
850.0
 20
-10.0
 30
0.0
 11
850.0
 21
-40.0
 31
0.0
  0
LINE
  5
11C
330
1B
100
AcDbEntity
  8
0
  6
Continuous
 62
     7
370
    25
100
AcDbLine
 10
-850.0
 20
-40.0
 30
0.0
 11
850.0
 21
-40.0
 31
0.0
  0
LINE
  5
11D
330
1B
100
AcDbEntity
  8
0
  6
Continuous
 62
     7
370
    25
100
AcDbLine
 10
-840.0
 20
0.0
 30
0.0
 11
840.0
 21
0.0
 31
0.0
  0
LINE
  5
11E
330
1B
100
AcDbEntity
  8
0
  6
Continuous
 62
     7
370
    25
100
AcDbLine
 10
-656.2964322372
 20
-360.6265531316
 30
0.0
 11
464.0355011301
 21
-360.6265531316
 31
0.0
  0
LINE
  5
11F
330
1B
100
AcDbEntity
  8
0
  6
Continuous
 62
     7
370
    25
100
AcDbLine
 10
-705.8469419603
 20
-356.6893188126
 30
0.0
 11
-748.6
 21
-40.0
 31
0.0
  0
LINE
  5
120
330
1B
100
AcDbEntity
  8
0
  6
Continuous
 62
     7
370
    25
100
AcDbLine
 10
727.7
 20
-40.0
 30
0.0
 11
505.8139258699
 21
-377.4693142664
 31
0.0
  0
LINE
  5
121
330
1B
100
AcDbEntity
  8
0
  6
Continuous
 62
     7
370
    25
100
AcDbLine
 10
464.0355011301
 20
-360.6265531316
 30
0.0
 11
464.0355011301
 21
-400.0
 31
0.0
  0
LINE
  5
122
330
1B
100
AcDbEntity
  8
0
  6
Continuous
 62
     7
370
    25
100
AcDbLine
 10
464.0355011301
 20
-400.0
 30
0.0
 11
-656.2964322372
 21
-400.0
 31
0.0
  0
LINE
  5
123
330
1B
100
AcDbEntity
  8
0
  6
Continuous
 62
     7
370
    25
100
AcDbLine
 10
-656.2964322372
 20
-400.0
 30
0.0
 11
-656.2964322372
 21
-360.6265531316
 31
0.0
  0
LINE
  5
124
330
1B
100
AcDbEntity
  8
0
  6
Continuous
 62
     7
370
    25
100
AcDbLine
 10
-530.0000001513
 20
-420.0
 30
0.0
 11
-589.9999997571
 21
-420.0
 31
0.0
  0
LINE
  5
125
330
1B
100
AcDbEntity
  8
0
  6
Continuous
 62
     8
370
    25
100
AcDbLine
 10
-699.5810169099
 20
-40.0
 30
0.0
 11
-656.2964322372
 21
-360.6265531316
 31
0.0
  0
LINE
  5
126
330
1B
100
AcDbEntity
  8
0
  6
Continuous
 62
     8
370
    25
100
AcDbLine
 10
464.0355011301
 20
-360.6265531316
 30
0.0
 11
674.8474598142
 21
-40.0
 31
0.0
  0
ARC
  5
127
330
1B
100
AcDbEntity
  8
0
  6
Continuous
 62
     7
370
    25
100
AcDbCircle
 10
840.0
 20
-10.0
 30
0.0
 40
10.00000000000012
100
AcDbArc
 50
0.0
 51
90.0
  0
ARC
  5
128
330
1B
100
AcDbEntity
  8
0
  6
Continuous
 62
     7
370
    25
100
AcDbCircle
 10
-840.0
 20
-10.0
 30
0.0
 40
10.00000000000012
100
AcDbArc
 50
90.0
 51
180.0
  0
ARC
  5
129
330
1B
100
AcDbEntity
  8
0
  6
Continuous
 62
     7
370
    25
100
AcDbCircle
 10
464.0355011301
 20
-350.0
 30
0.0
 40
49.99999999999983
100
AcDbArc
 50
270.0
 51
326.6750802388
  0
ARC
  5
12A
330
1B
100
AcDbEntity
  8
0
  6
Continuous
 62
     7
370
    25
100
AcDbCircle
 10
-656.2964322372
 20
-350.0
 30
0.0
 40
50.00000000000012
100
AcDbArc
 50
187.6884477699
 51
270.0
  0
VIEWPORT
  5
15F
330
1B
100
AcDbEntity
  8
0
100
AcDbViewport
 10
0.0
 20
0.0
 30
0.0
 40
205.6
 41
156.0
 68
     1
 69
     1
 12
0.0
 22
0.0
 13
0.0
 23
0.0
 14
10.0
 24
10.0
 15
10.0
 25
10.0
 16
0.0
 26
0.0
 36
1.0
 17
0.0
 27
0.0
 37
0.0
 42
50.0
 43
0.0
 44
0.0
 45
1315.6809338521
 50
0.0
 51
0.0
 72
   100
 90
   557152
  1

281
     0
 71
     1
 74
     0
110
0.0
120
0.0
130
0.0
111
1.0
121
0.0
131
0.0
112
0.0
122
1.0
132
0.0
 79
     0
146
0.0
  0
ENDBLK
  5
1D
330
1B
100
AcDbEntity
  8
0
100
AcDbBlockEnd
  0
ENDSEC
  0
SECTION
  2
ENTITIES
  0
LWPOLYLINE
  5
77
330
1F
100
AcDbEntity
  8
0
  6
Continuous
 62
     7
370
    25
100
AcDbPolyline
 90
       20
 70
   128
 43
0.0
 10
748.6436348712
 20
250.7787405355
 10
748.5330791687
 20
254.6671799514
 10
748.051879482
 20
258.4909133289
 10
747.2028515752
 20
262.2275658992
 10
745.990963578
 20
265.8552724511
 10
744.4233069143
 20
269.3528052765
 10
742.5090548062
 20
272.6996983854
 10
740.2594085966
 20
275.8763672639
 10
737.6875322037
 20
278.8642234736
 10
734.8084750923
 20
281.645783423
 10
731.6390842103
 20
284.2047706737
 10
728.1979054086
 20
286.5262111825
 10
724.5050749186
 20
288.5965209231
 10
720.5822015245
 20
290.4035853735
 10
716.452240118
 20
291.9368304048
 10
712.1393573767
 20
293.1872841563
 10
707.6687903518
 20
294.1476295347
 10
703.066698792
 20
294.8122470307
 10
698.3600120685
 20
295.1772476012
 10
693.5762715962
 20
295.2404954271
  0
LWPOLYLINE
  5
79
330
1F
100
AcDbEntity
  8
0
  6
Continuous
 62
     7
370
    25
100
AcDbPolyline
 90
       21
 70
   128
 43
0.0
 10
693.5762715962
 20
305.0120385366
 10
698.7334297981
 20
304.8498960124
 10
703.8190715616
 20
304.364324759
 10
708.8063382111
 20
303.557889212
 10
713.6688906173
 20
302.4348483798
 10
718.381048301
 20
301.0011333505
 10
722.917925059
 20
299.2643159682
 10
727.255560395
 20
297.2335688441
 10
731.3710460616
 20
294.9196169133
 10
735.2426470449
 20
292.3346807935
 10
738.8499163533
 20
289.4924122448
 10
742.1738030036
 20
286.4078220705
 10
745.1967526345
 20
283.0972008413
 10
747.902800216
 20
279.5780328601
 10
750.2776543652
 20
275.8689038228
 10
752.3087728229
 20
271.9894026619
 10
753.9854286929
 20
267.960018092
 10
755.2987670935
 20
263.8020304033
 10
756.2418519227
 20
259.5373990746
 10
756.8097024897
 20
255.1886467989
 10
756.9993198192
 20
250.7787405355
  0
LWPOLYLINE
  5
87
330
1F
100
AcDbEntity
  8
0
  6
Continuous
 62
     7
370
    25
100
AcDbPolyline
 90
       21
 70
   128
 43
0.0
 10
756.9993198192
 20
-250.7787405355
 10
756.8097024897
 20
-255.1886467989
 10
756.2418519227
 20
-259.5373990746
 10
755.2987670935
 20
-263.8020304033
 10
753.9854286929
 20
-267.960018092
 10
752.3087728229
 20
-271.9894026619
 10
750.2776543652
 20
-275.8689038228
 10
747.902800216
 20
-279.5780328601
 10
745.1967526345
 20
-283.0972008413
 10
742.1738030036
 20
-286.4078220705
 10
738.8499163533
 20
-289.4924122448
 10
735.2426470449
 20
-292.3346807935
 10
731.3710460616
 20
-294.9196169133
 10
727.255560395
 20
-297.2335688441
 10
722.917925059
 20
-299.2643159682
 10
718.381048301
 20
-301.0011333505
 10
713.6688906173
 20
-302.4348483798
 10
708.8063382111
 20
-303.557889212
 10
703.8190715616
 20
-304.364324759
 10
698.7334297981
 20
-304.8498960124
 10
693.5762715962
 20
-305.0120385366
  0
LWPOLYLINE
  5
8C
330
1F
100
AcDbEntity
  8
0
  6
Continuous
 62
     7
370
    25
100
AcDbPolyline
 90
       19
 70
   128
 43
0.0
 10
-750.8124688974
 20
-245.3551617221
 10
-750.6508247626
 20
-249.7649872219
 10
-750.1188282269
 20
-254.1296437555
 10
-749.2203829221
 20
-258.4171047758
 10
-747.9620813716
 20
-262.5959101732
 10
-746.3531566168
 20
-266.635397121
 10
-744.4054144673
 20
-270.5059250693
 10
-742.1331468738
 20
-274.1790932393
 10
-739.5530270578
 20
-277.627949019
 10
-736.6839871685
 20
-280.8271857339
 10
-733.5470793643
 20
-283.7533283399
 10
-730.1653213386
 20
-286.3849056758
 10
-726.5635274226
 20
-288.7026080123
 10
-722.7681265051
 20
-290.6894287414
 10
-718.8069681054
 20
-292.3307891656
 10
-714.7091180216
 20
-293.6146454719
 10
-710.5046450549
 20
-294.5315771059
 10
-706.2244003729
 20
-295.0748558968
 10
-701.899791134
 20
-295.2404954271
  0
LWPOLYLINE
  5
8E
330
1F
100
AcDbEntity
  8
0
  6
Continuous
 62
     7
370
    25
100
AcDbPolyline
 90
       20
 70
   128
 43
0.0
 10
693.5762715962
 20
-295.2404954271
 10
698.3600120685
 20
-295.1772476012
 10
703.066698792
 20
-294.8122470307
 10
707.6687903518
 20
-294.1476295347
 10
712.1393573767
 20
-293.1872841563
 10
716.452240118
 20
-291.9368304048
 10
720.5822015245
 20
-290.4035853735
 10
724.5050749186
 20
-288.5965209231
 10
728.1979054086
 20
-286.5262111825
 10
731.6390842103
 20
-284.2047706737
 10
734.8084750923
 20
-281.645783423
 10
737.6875322037
 20
-278.8642234736
 10
740.2594085966
 20
-275.8763672639
 10
742.5090548062
 20
-272.6996983854
 10
744.4233069143
 20
-269.3528052765
 10
745.990963578
 20
-265.8552724511
 10
747.2028515752
 20
-262.2275658992
 10
748.051879482
 20
-258.4909133289
 10
748.5330791687
 20
-254.6671799514
 10
748.6436348712
 20
-250.7787405355
  0
LWPOLYLINE
  5
96
330
1F
100
AcDbEntity
  8
0
  6
Continuous
 62
     7
370
    25
100
AcDbPolyline
 90
       19
 70
   128
 43
0.0
 10
-701.899791134
 20
295.2404954271
 10
-706.2244003729
 20
295.0748558968
 10
-710.5046450549
 20
294.5315771059
 10
-714.7091180216
 20
293.6146454719
 10
-718.8069681054
 20
292.3307891656
 10
-722.7681265051
 20
290.6894287414
 10
-726.5635274226
 20
288.7026080123
 10
-730.1653213386
 20
286.3849056758
 10
-733.5470793643
 20
283.7533283399
 10
-736.6839871685
 20
280.8271857339
 10
-739.5530270578
 20
277.627949019
 10
-742.1331468738
 20
274.1790932393
 10
-744.4054144673
 20
270.5059250693
 10
-746.3531566168
 20
266.635397121
 10
-747.9620813716
 20
262.5959101732
 10
-749.2203829221
 20
258.4171047758
 10
-750.1188282269
 20
254.1296437555
 10
-750.6508247626
 20
249.7649872219
 10
-750.8124688974
 20
245.3551617221
  0
LWPOLYLINE
  5
9F
330
1F
100
AcDbEntity
  8
0
  6
Continuous
 62
     7
370
    25
100
AcDbPolyline
 90
       18
 70
   128
 43
0.0
 10
462.9569211753
 20
-218.9519650597
 10
466.5498573365
 20
-218.2828233463
 10
470.1165345677
 20
-217.2614960308
 10
473.630885852
 20
-215.8954474713
 10
477.0672265962
 20
-214.1946614171
 10
480.4004423458
 20
-212.1715680422
 10
483.6061723345
 20
-209.8409530998
 10
486.6609875238
 20
-207.2198498607
 10
489.5425618343
 20
-204.3274146257
 10
492.2298353154
 20
-201.1847867225
 10
494.7031680617
 20
-197.8149340087
 10
496.9444837512
 20
-194.2424850114
 10
498.9374017556
 20
-190.4935489305
 10
500.6673568581
 20
-186.5955248195
 10
502.1217057028
 20
-182.5769013398
 10
503.2898191992
 20
-178.4670485521
 10
504.1631602039
 20
-174.296003265
 10
504.7353459151
 20
-170.094249512
  0
LWPOLYLINE
  5
A2
330
1F
100
AcDbEntity
  8
0
  6
Continuous
 62
     7
370
    25
100
AcDbPolyline
 90
       18
 70
   128
 43
0.0
 10
504.7353459151
 20
170.094249512
 10
504.1631602039
 20
174.296003265
 10
503.2898191992
 20
178.4670485521
 10
502.1217057028
 20
182.5769013398
 10
500.6673568581
 20
186.5955248195
 10
498.9374017556
 20
190.4935489305
 10
496.9444837512
 20
194.2424850114
 10
494.7031680617
 20
197.8149340087
 10
492.2298353154
 20
201.1847867225
 10
489.5425618343
 20
204.3274146257
 10
486.6609875238
 20
207.2198498607
 10
483.6061723345
 20
209.8409530998
 10
480.4004423458
 20
212.1715680422
 10
477.0672265962
 20
214.1946614171
 10
473.630885852
 20
215.8954474713
 10
470.1165345677
 20
217.2614960308
 10
466.5498573365
 20
218.2828233463
 10
462.9569211753
 20
218.9519650597
  0
LWPOLYLINE
  5
AF
330
1F
100
AcDbEntity
  8
0
  6
Continuous
 62
     7
370
    25
100
AcDbPolyline
 90
       54
 70
   128
 43
0.0
 10
-738.4818572895
 20
0.0
 10
-738.5055460904
 20
-2.956829273
 10
-738.5762799545
 20
-5.8721511445
 10
-738.6930659332
 20
-8.7050408859
 10
-738.8542646074
 20
-11.4157309348
 10
-739.0576131011
 20
-13.9661691451
 10
-739.3002568472
 20
-16.3205529548
 10
-739.5787896594
 20
-18.445831976
 10
-739.8893015475
 20
-20.3121719501
 10
-740.2274336053
 20
-21.8933735549
 10
-740.5884391999
 20
-23.1672401858
 10
-740.967250604
 20
-24.1158895477
 10
-741.358550136
 20
-24.7260046831
 10
-741.7568448081
 20
-24.9890209127
 10
-742.1565434362
 20
-24.9012460654
 10
-742.5520351277
 20
-24.4639123075
 10
-742.9377680463
 20
-23.6831588464
 10
-743.3083273472
 20
-22.5699457491
 10
-743.6585111901
 20
-21.1399000875
 10
-743.9834037616
 20
-19.413096568
 10
-744.278444282
 20
-17.4137757266
 10
-744.5394910293
 20
-15.1700036455
 10
-744.7628794792
 20
-12.7132779662
 10
-744.9454737477
 20
-10.0780857322
 10
-745.0847106114
 20
-7.3014192659
 10
-745.1786354901
 20
-4.4222568781
 10
-745.2259298842
 20
-1.4810156973
 10
-745.2259298842
 20
1.4810156973
 10
-745.1786354901
 20
4.4222568781
 10
-745.0847106114
 20
7.3014192659
 10
-744.9454737477
 20
10.0780857322
 10
-744.7628794792
 20
12.7132779662
 10
-744.5394910293
 20
15.1700036455
 10
-744.278444282
 20
17.4137757266
 10
-743.9834037616
 20
19.413096568
 10
-743.6585111901
 20
21.1399000875
 10
-743.3083273472
 20
22.5699457491
 10
-742.9377680463
 20
23.6831588464
 10
-742.5520351277
 20
24.4639123075
 10
-742.1565434362
 20
24.9012460654
 10
-741.7568448081
 20
24.9890209127
 10
-741.358550136
 20
24.7260046831
 10
-740.967250604
 20
24.1158895477
 10
-740.5884391999
 20
23.1672401858
 10
-740.2274336053
 20
21.8933735549
 10
-739.8893015475
 20
20.3121719501
 10
-739.5787896594
 20
18.445831976
 10
-739.3002568472
 20
16.3205529548
 10
-739.0576131011
 20
13.9661691451
 10
-738.8542646074
 20
11.4157309348
 10
-738.6930659332
 20
8.7050408859
 10
-738.5762799545
 20
5.8721511445
 10
-738.5055460904
 20
2.956829273
 10
-738.4818572895
 20
0.0
  0
LWPOLYLINE
  5
B0
330
1F
100
AcDbEntity
  8
0
  6
Continuous
 62
     7
370
    25
100
AcDbPolyline
 90
       12
 70
   128
 43
0.0
 10
-740.5
 20
0.0
 10
-740.523688801
 20
-2.956829273
 10
-740.594422665
 20
-5.8721511445
 10
-740.7112086437
 20
-8.7050408859
 10
-740.8724073179
 20
-11.4157309348
 10
-741.0757558116
 20
-13.9661691451
 10
-741.3183995577
 20
-16.3205529548
 10
-741.5969323699
 20
-18.445831976
 10
-741.907444258
 20
-20.3121719501
 10
-742.2455763158
 20
-21.8933735549
 10
-742.6065819104
 20
-23.1672401858
 10
-742.8659286447
 20
-23.8564522824
  0
LWPOLYLINE
  5
B1
330
1F
100
AcDbEntity
  8
0
  6
Continuous
 62
     7
370
    25
100
AcDbPolyline
 90
       12
 70
   128
 43
0.0
 10
-742.8659286447
 20
23.8564522824
 10
-742.6065819104
 20
23.1672401858
 10
-742.2455763158
 20
21.8933735549
 10
-741.907444258
 20
20.3121719501
 10
-741.5969323699
 20
18.445831976
 10
-741.3183995577
 20
16.3205529548
 10
-741.0757558116
 20
13.9661691451
 10
-740.8724073179
 20
11.4157309348
 10
-740.7112086437
 20
8.7050408859
 10
-740.594422665
 20
5.8721511445
 10
-740.523688801
 20
2.956829273
 10
-740.5
 20
0.0
  0
CIRCLE
  5
BE
330
1F
100
AcDbEntity
  8
0
  6
Continuous
 62
     7
370
    25
100
AcDbCircle
 10
-560.0
 20
0.0
 30
0.0
 40
26.00000000000041
  0
LINE
  5
BF
330
1F
100
AcDbEntity
  8
0
  6
Continuous
 62
     7
370
    25
100
AcDbLine
 10
-850.0
 20
-370.0
 30
0.0
 11
-840.0
 21
-365.0
 31
0.0
  0
LINE
  5
C0
330
1F
100
AcDbEntity
  8
0
  6
Continuous
 62
     7
370
    25
100
AcDbLine
 10
-850.0
 20
-370.0
 30
0.0
 11
-850.0
 21
370.0
 31
0.0
  0
LINE
  5
C1
330
1F
100
AcDbEntity
  8
0
  6
Continuous
 62
     7
370
    25
100
AcDbLine
 10
-840.0
 20
365.0
 30
0.0
 11
-850.0
 21
370.0
 31
0.0
  0
LINE
  5
C2
330
1F
100
AcDbEntity
  8
0
  6
Continuous
 62
     7
370
    25
100
AcDbLine
 10
-840.0
 20
365.0
 30
0.0
 11
-840.0
 21
-365.0
 31
0.0
  0
LINE
  5
C3
330
1F
100
AcDbEntity
  8
0
  6
Continuous
 62
     7
370
    25
100
AcDbLine
 10
693.5762715962
 20
295.2404954271
 30
0.0
 11
693.5762715962
 21
305.0120385366
 31
0.0
  0
LINE
  5
C4
330
1F
100
AcDbEntity
  8
0
  6
Continuous
 62
     7
370
    25
100
AcDbLine
 10
748.6436348712
 20
250.7787405355
 30
0.0
 11
756.9993198192
 21
250.7787405355
 31
0.0
  0
LINE
  5
C5
330
1F
100
AcDbEntity
  8
0
  6
Continuous
 62
     7
370
    25
100
AcDbLine
 10
-701.899791134
 20
305.0120385366
 30
0.0
 11
693.5762715962
 21
305.0120385366
 31
0.0
  0
LINE
  5
C6
330
1F
100
AcDbEntity
  8
0
  6
Continuous
 62
     7
370
    25
100
AcDbLine
 10
693.5762715962
 20
295.2404954271
 30
0.0
 11
-701.899791134
 21
295.2404954271
 31
0.0
  0
LINE
  5
C7
330
1F
100
AcDbEntity
  8
0
  6
Continuous
 62
     7
370
    25
100
AcDbLine
 10
-701.899791134
 20
305.0120385366
 30
0.0
 11
-701.899791134
 21
295.2404954271
 31
0.0
  0
LINE
  5
C8
330
1F
100
AcDbEntity
  8
0
  6
Continuous
 62
     7
370
    25
100
AcDbLine
 10
-760.7225708421
 20
-245.3551617221
 30
0.0
 11
-760.7225708421
 21
245.3551617221
 31
0.0
  0
LINE
  5
C9
330
1F
100
AcDbEntity
  8
0
  6
Continuous
 62
     7
370
    25
100
AcDbLine
 10
-760.7225708421
 20
245.3551617221
 30
0.0
 11
-750.8124688974
 21
245.3551617221
 31
0.0
  0
LINE
  5
CA
330
1F
100
AcDbEntity
  8
0
  6
Continuous
 62
     7
370
    25
100
AcDbLine
 10
-750.8124688974
 20
245.3551617221
 30
0.0
 11
-750.8124688974
 21
-245.3551617221
 31
0.0
  0
LINE
  5
CB
330
1F
100
AcDbEntity
  8
0
  6
Continuous
 62
     7
370
    25
100
AcDbLine
 10
-760.7225708421
 20
-245.3551617221
 30
0.0
 11
-750.8124688974
 21
-245.3551617221
 31
0.0
  0
LINE
  5
CC
330
1F
100
AcDbEntity
  8
0
  6
Continuous
 62
     7
370
    25
100
AcDbLine
 10
748.6436348712
 20
-250.7787405355
 30
0.0
 11
748.6436348712
 21
250.7787405355
 31
0.0
  0
LINE
  5
CD
330
1F
100
AcDbEntity
  8
0
  6
Continuous
 62
     7
370
    25
100
AcDbLine
 10
756.9993198192
 20
250.7787405355
 30
0.0
 11
756.9993198192
 21
-250.7787405355
 31
0.0
  0
LINE
  5
CE
330
1F
100
AcDbEntity
  8
0
  6
Continuous
 62
     7
370
    25
100
AcDbLine
 10
748.6436348712
 20
-250.7787405355
 30
0.0
 11
756.9993198192
 21
-250.7787405355
 31
0.0
  0
LINE
  5
CF
330
1F
100
AcDbEntity
  8
0
  6
Continuous
 62
     7
370
    25
100
AcDbLine
 10
693.5762715962
 20
-305.0120385366
 30
0.0
 11
-701.899791134
 21
-305.0120385366
 31
0.0
  0
LINE
  5
D0
330
1F
100
AcDbEntity
  8
0
  6
Continuous
 62
     7
370
    25
100
AcDbLine
 10
840.0
 20
-365.0
 30
0.0
 11
840.0
 21
365.0
 31
0.0
  0
LINE
  5
D1
330
1F
100
AcDbEntity
  8
0
  6
Continuous
 62
     7
370
    25
100
AcDbLine
 10
-840.0
 20
-365.0
 30
0.0
 11
840.0
 21
-365.0
 31
0.0
  0
LINE
  5
D2
330
1F
100
AcDbEntity
  8
0
  6
Continuous
 62
     7
370
    25
100
AcDbLine
 10
840.0
 20
365.0
 30
0.0
 11
-840.0
 21
365.0
 31
0.0
  0
LINE
  5
D3
330
1F
100
AcDbEntity
  8
0
  6
Continuous
 62
     7
370
    25
100
AcDbLine
 10
-701.899791134
 20
-305.0120385366
 30
0.0
 11
-701.899791134
 21
-295.2404954271
 31
0.0
  0
LINE
  5
D4
330
1F
100
AcDbEntity
  8
0
  6
Continuous
 62
     7
370
    25
100
AcDbLine
 10
693.5762715962
 20
-295.2404954271
 30
0.0
 11
693.5762715962
 21
-305.0120385366
 31
0.0
  0
LINE
  5
D5
330
1F
100
AcDbEntity
  8
0
  6
Continuous
 62
     7
370
    25
100
AcDbLine
 10
-845.0
 20
375.0
 30
0.0
 11
-840.0
 21
365.0
 31
0.0
  0
LINE
  5
D6
330
1F
100
AcDbEntity
  8
0
  6
Continuous
 62
     7
370
    25
100
AcDbLine
 10
-845.0
 20
375.0
 30
0.0
 11
845.0
 21
375.0
 31
0.0
  0
LINE
  5
D7
330
1F
100
AcDbEntity
  8
0
  6
Continuous
 62
     7
370
    25
100
AcDbLine
 10
840.0
 20
365.0
 30
0.0
 11
845.0
 21
375.0
 31
0.0
  0
LINE
  5
D8
330
1F
100
AcDbEntity
  8
0
  6
Continuous
 62
     7
370
    25
100
AcDbLine
 10
845.0
 20
-375.0
 30
0.0
 11
840.0
 21
-365.0
 31
0.0
  0
LINE
  5
D9
330
1F
100
AcDbEntity
  8
0
  6
Continuous
 62
     7
370
    25
100
AcDbLine
 10
845.0
 20
-375.0
 30
0.0
 11
-845.0
 21
-375.0
 31
0.0
  0
LINE
  5
DA
330
1F
100
AcDbEntity
  8
0
  6
Continuous
 62
     7
370
    25
100
AcDbLine
 10
-840.0
 20
-365.0
 30
0.0
 11
-845.0
 21
-375.0
 31
0.0
  0
LINE
  5
DB
330
1F
100
AcDbEntity
  8
0
  6
Continuous
 62
     7
370
    25
100
AcDbLine
 10
-701.899791134
 20
-295.2404954271
 30
0.0
 11
693.5762715962
 21
-295.2404954271
 31
0.0
  0
LINE
  5
DC
330
1F
100
AcDbEntity
  8
0
  6
Continuous
 62
     7
370
    25
100
AcDbLine
 10
840.0
 20
-365.0
 30
0.0
 11
850.0
 21
-370.0
 31
0.0
  0
LINE
  5
DD
330
1F
100
AcDbEntity
  8
0
  6
Continuous
 62
     7
370
    25
100
AcDbLine
 10
850.0
 20
370.0
 30
0.0
 11
840.0
 21
365.0
 31
0.0
  0
LINE
  5
DE
330
1F
100
AcDbEntity
  8
0
  6
Continuous
 62
     7
370
    25
100
AcDbLine
 10
850.0
 20
370.0
 30
0.0
 11
850.0
 21
-370.0
 31
0.0
  0
LINE
  5
DF
330
1F
100
AcDbEntity
  8
0
  6
Continuous
 62
     7
370
    25
100
AcDbLine
 10
504.7353459151
 20
-170.094249512
 30
0.0
 11
748.6436348712
 21
-250.7787405355
 31
0.0
  0
LINE
  5
E0
330
1F
100
AcDbEntity
  8
0
  6
Continuous
 62
     7
370
    25
100
AcDbLine
 10
693.5762715962
 20
-295.2404954271
 30
0.0
 11
462.9569211753
 21
-218.9519650597
 31
0.0
  0
LINE
  5
E1
330
1F
100
AcDbEntity
  8
0
  6
Continuous
 62
     7
370
    25
100
AcDbLine
 10
462.9569211753
 20
218.9519650597
 30
0.0
 11
693.5762715962
 21
295.2404954271
 31
0.0
  0
LINE
  5
E2
330
1F
100
AcDbEntity
  8
0
  6
Continuous
 62
     7
370
    25
100
AcDbLine
 10
748.6436348712
 20
250.7787405355
 30
0.0
 11
504.7353459151
 21
170.094249512
 31
0.0
  0
LINE
  5
E3
330
1F
100
AcDbEntity
  8
0
  6
Continuous
 62
     7
370
    25
100
AcDbLine
 10
504.7353459151
 20
170.094249512
 30
0.0
 11
504.7353459151
 21
-170.094249512
 31
0.0
  0
LINE
  5
E4
330
1F
100
AcDbEntity
  8
0
  6
Continuous
 62
     7
370
    25
100
AcDbLine
 10
-654.5482895266
 20
-218.9519650597
 30
0.0
 11
-701.899791134
 21
-295.2404954271
 31
0.0
  0
LINE
  5
E5
330
1F
100
AcDbEntity
  8
0
  6
Continuous
 62
     7
370
    25
100
AcDbLine
 10
-750.8124688974
 20
-245.3551617221
 30
0.0
 11
-704.0987992498
 21
-170.094249512
 31
0.0
  0
LINE
  5
E6
330
1F
100
AcDbEntity
  8
0
  6
Continuous
 62
     7
370
    25
100
AcDbLine
 10
-704.0987992498
 20
170.094249512
 30
0.0
 11
-750.8124688974
 21
245.3551617221
 31
0.0
  0
LINE
  5
E7
330
1F
100
AcDbEntity
  8
0
  6
Continuous
 62
     7
370
    25
100
AcDbLine
 10
-701.899791134
 20
295.2404954271
 30
0.0
 11
-654.5482895266
 21
218.9519650597
 31
0.0
  0
LINE
  5
E8
330
1F
100
AcDbEntity
  8
0
  6
Continuous
 62
     7
370
    25
100
AcDbLine
 10
-654.5482895266
 20
218.9519650597
 30
0.0
 11
462.9569211753
 21
218.9519650597
 31
0.0
  0
LINE
  5
E9
330
1F
100
AcDbEntity
  8
0
  6
Continuous
 62
     7
370
    25
100
AcDbLine
 10
462.9569211753
 20
-218.9519650597
 30
0.0
 11
-654.5482895266
 21
-218.9519650597
 31
0.0
  0
LINE
  5
EA
330
1F
100
AcDbEntity
  8
0
  6
Continuous
 62
     7
370
    25
100
AcDbLine
 10
-704.0987992498
 20
-170.094249512
 30
0.0
 11
-704.0987992498
 21
170.094249512
 31
0.0
  0
LINE
  5
EB
330
1F
100
AcDbEntity
  8
0
  6
Continuous
 62
     7
370
    25
100
AcDbLine
 10
-654.5482895266
 20
218.9519650597
 30
0.0
 11
-654.5482895266
 21
-218.9519650597
 31
0.0
  0
LINE
  5
EC
330
1F
100
AcDbEntity
  8
0
  6
Continuous
 62
     7
370
    25
100
AcDbLine
 10
-704.0987992498
 20
-170.094249512
 30
0.0
 11
504.7353459151
 21
-170.094249512
 31
0.0
  0
LINE
  5
ED
330
1F
100
AcDbEntity
  8
0
  6
Continuous
 62
     7
370
    25
100
AcDbLine
 10
504.7353459151
 20
170.094249512
 30
0.0
 11
-704.0987992498
 21
170.094249512
 31
0.0
  0
LINE
  5
EE
330
1F
100
AcDbEntity
  8
0
  6
Continuous
 62
     7
370
    25
100
AcDbLine
 10
462.9569211753
 20
-218.9519650597
 30
0.0
 11
462.9569211753
 21
218.9519650597
 31
0.0
  0
ARC
  5
EF
330
1F
100
AcDbEntity
  8
0
  6
Continuous
 62
     7
370
    25
100
AcDbCircle
 10
-701.7646301387
 20
-246.0501566012
 30
0.0
 40
58.96203685304295
100
AcDbArc
 50
179.3246299208
 51
269.8686585169
  0
ARC
  5
F0
330
1F
100
AcDbEntity
  8
0
  6
Continuous
 62
     7
370
    25
100
AcDbCircle
 10
-701.7646301387
 20
246.0501566012
 30
0.0
 40
58.96203685304294
100
AcDbArc
 50
90.1313414831
 51
180.6753700792
  0
ARC
  5
F1
330
1F
100
AcDbEntity
  8
0
  6
Continuous
 62
     7
370
    25
100
AcDbCircle
 10
845.0
 20
-370.0
 30
0.0
 40
5.000000000000171
100
AcDbArc
 50
270.0
 51
360.0
  0
ARC
  5
F2
330
1F
100
AcDbEntity
  8
0
  6
Continuous
 62
     7
370
    25
100
AcDbCircle
 10
-845.0
 20
-370.0
 30
0.0
 40
4.999999999999943
100
AcDbArc
 50
180.0
 51
270.0
  0
ARC
  5
F3
330
1F
100
AcDbEntity
  8
0
  6
Continuous
 62
     7
370
    25
100
AcDbCircle
 10
-845.0
 20
370.0
 30
0.0
 40
4.999999999999943
100
AcDbArc
 50
90.0
 51
180.0
  0
ARC
  5
F4
330
1F
100
AcDbEntity
  8
0
  6
Continuous
 62
     7
370
    25
100
AcDbCircle
 10
845.0
 20
370.0
 30
0.0
 40
4.999999999999943
100
AcDbArc
 50
0.0
 51
90.0
  0
ARC
  5
F5
330
1F
100
AcDbEntity
  8
0
  6
Continuous
 62
     7
370
    25
100
AcDbCircle
 10
-653.2402498091
 20
-168.0699559839
 30
0.0
 40
50.89881939197274
100
AcDbArc
 50
182.2793077429
 51
268.5274038194
  0
ARC
  5
F6
330
1F
100
AcDbEntity
  8
0
  6
Continuous
 62
     7
370
    25
100
AcDbCircle
 10
-653.2402498091
 20
168.0699559839
 30
0.0
 40
50.89881939197318
100
AcDbArc
 50
91.4725961806
 51
177.7206922571
  0
LWPOLYLINE
  5
12E
330
23
100
AcDbEntity
 67
     1
  8
0
  6
Continuous
 62
     7
370
    25
100
AcDbPolyline
 90
        9
 70
   128
 43
0.0
 10
370.0
 20
-10.0
 10
369.903926402
 20
-8.0490967798
 10
369.6193976626
 20
-6.1731656763
 10
369.1573480615
 20
-4.4442976698
 10
368.5355339059
 20
-2.9289321881
 10
367.7778511651
 20
-1.685303877
 10
366.9134171618
 20
-0.7612046749
 10
365.9754516101
 20
-0.192147196
 10
365.0
 20
0.0
  0
LWPOLYLINE
  5
139
330
23
100
AcDbEntity
 67
     1
  8
0
  6
Continuous
 62
     7
370
    25
100
AcDbPolyline
 90
        9
 70
   128
 43
0.0
 10
-365.0
 20
0.0
 10
-365.9754516101
 20
-0.192147196
 10
-366.9134171618
 20
-0.7612046749
 10
-367.7778511651
 20
-1.685303877
 10
-368.5355339059
 20
-2.9289321881
 10
-369.1573480615
 20
-4.4442976698
 10
-369.6193976626
 20
-6.1731656763
 10
-369.903926402
 20
-8.0490967798
 10
-370.0
 20
-10.0
  0
LWPOLYLINE
  5
13C
330
23
100
AcDbEntity
 67
     1
  8
0
  6
Continuous
 62
     7
370
    25
100
AcDbPolyline
 90
       18
 70
   128
 43
0.0
 10
-171.7060091462
 20
-377.4693142664
 10
-175.9077628991
 20
-378.0069836026
 10
-180.0788081862
 20
-378.3399642419
 10
-184.188660974
 20
-378.4658225994
 10
-188.2072844536
 20
-378.3836388408
 10
-192.1053085647
 20
-378.0940136051
 10
-195.8542446455
 20
-377.5990636148
 10
-199.4266936428
 20
-376.9024062058
 10
-202.7965463567
 20
-376.0091328904
 10
-205.9391742599
 20
-374.9257721455
 10
-208.8316094948
 20
-373.6602416999
 10
-211.4527127339
 20
-372.2217906675
 10
-213.7833276763
 20
-370.6209319499
 10
-215.8064210512
 20
-368.8693654036
 10
-217.5072071054
 20
-366.9798923311
 10
-218.8732556649
 20
-364.9663219233
 10
-219.8945829804
 20
-362.8433703349
 10
-220.5637246939
 20
-360.6265531316
  0
LWPOLYLINE
  5
13F
330
23
100
AcDbEntity
 67
     1
  8
0
  6
Continuous
 62
     7
370
    25
100
AcDbPolyline
 90
       18
 70
   128
 43
0.0
 10
220.5637246939
 20
-360.6265531316
 10
219.8945829804
 20
-362.8433703349
 10
218.8732556649
 20
-364.9663219233
 10
217.5072071054
 20
-366.9798923311
 10
215.8064210512
 20
-368.8693654036
 10
213.7833276763
 20
-370.6209319499
 10
211.4527127339
 20
-372.2217906675
 10
208.8316094948
 20
-373.6602416999
 10
205.9391742599
 20
-374.9257721455
 10
202.7965463567
 20
-376.0091328904
 10
199.4266936428
 20
-376.9024062058
 10
195.8542446455
 20
-377.5990636148
 10
192.1053085647
 20
-378.0940136051
 10
188.2072844536
 20
-378.3836388408
 10
184.188660974
 20
-378.4658225994
 10
180.0788081862
 20
-378.3399642419
 10
175.9077628991
 20
-378.0069836026
 10
171.7060091462
 20
-377.4693142664
  0
LINE
  5
149
330
23
100
AcDbEntity
 67
     1
  8
0
  6
Continuous
 62
     7
370
    25
100
AcDbLine
 10
-40.0
 20
-400.0
 30
0.0
 11
-29.99995
 21
-420.0001
 31
0.0
  0
LINE
  5
14A
330
23
100
AcDbEntity
 67
     1
  8
0
  6
Continuous
 62
     7
370
    25
100
AcDbLine
 10
29.99995
 20
-420.0001
 30
0.0
 11
40.0
 21
-400.0
 31
0.0
  0
LINE
  5
14B
330
23
100
AcDbEntity
 67
     1
  8
0
  6
Continuous
 62
     7
370
    25
100
AcDbLine
 10
375.0
 20
-10.0
 30
0.0
 11
-375.0
 21
-10.0
 31
0.0
  0
LINE
  5
14C
330
23
100
AcDbEntity
 67
     1
  8
0
  6
Continuous
 62
     7
370
    25
100
AcDbLine
 10
-370.0
 20
-10.0
 30
0.0
 11
-370.0
 21
-40.0
 31
0.0
  0
LINE
  5
14D
330
23
100
AcDbEntity
 67
     1
  8
0
  6
Continuous
 62
     7
370
    25
100
AcDbLine
 10
370.0
 20
-40.0
 30
0.0
 11
370.0
 21
-10.0
 31
0.0
  0
LINE
  5
14E
330
23
100
AcDbEntity
 67
     1
  8
0
  6
Continuous
 62
     7
370
    25
100
AcDbLine
 10
-375.0
 20
-40.0
 30
0.0
 11
375.0
 21
-40.0
 31
0.0
  0
LINE
  5
14F
330
23
100
AcDbEntity
 67
     1
  8
0
  6
Continuous
 62
     7
370
    25
100
AcDbLine
 10
-375.0
 20
-40.0
 30
0.0
 11
-375.0
 21
-10.0
 31
0.0
  0
LINE
  5
150
330
23
100
AcDbEntity
 67
     1
  8
0
  6
Continuous
 62
     7
370
    25
100
AcDbLine
 10
375.0
 20
-10.0
 30
0.0
 11
375.0
 21
-40.0
 31
0.0
  0
LINE
  5
151
330
23
100
AcDbEntity
 67
     1
  8
0
  6
Continuous
 62
     7
370
    25
100
AcDbLine
 10
-365.0
 20
0.0
 30
0.0
 11
365.0
 21
0.0
 31
0.0
  0
LINE
  5
152
330
23
100
AcDbEntity
 67
     1
  8
0
  6
Continuous
 62
     7
370
    25
100
AcDbLine
 10
-220.5637246939
 20
-360.6265531316
 30
0.0
 11
-290.3
 21
-40.0
 31
0.0
  0
LINE
  5
153
330
23
100
AcDbEntity
 67
     1
  8
0
  6
Continuous
 62
     7
370
    25
100
AcDbLine
 10
290.3
 20
-40.0
 30
0.0
 11
220.5637246939
 21
-360.6265531316
 31
0.0
  0
LINE
  5
154
330
23
100
AcDbEntity
 67
     1
  8
0
  6
Continuous
 62
     7
370
    25
100
AcDbLine
 10
-171.7060091462
 20
-377.4693142664
 30
0.0
 11
171.7060091462
 21
-377.4693142664
 31
0.0
  0
LINE
  5
155
330
23
100
AcDbEntity
 67
     1
  8
0
  6
Continuous
 62
     7
370
    25
100
AcDbLine
 10
-171.7060091462
 20
-377.4693142664
 30
0.0
 11
-171.7060091462
 21
-400.0
 31
0.0
  0
LINE
  5
156
330
23
100
AcDbEntity
 67
     1
  8
0
  6
Continuous
 62
     7
370
    25
100
AcDbLine
 10
171.7060091462
 20
-377.4693142664
 30
0.0
 11
171.7060091462
 21
-400.0
 31
0.0
  0
LINE
  5
157
330
23
100
AcDbEntity
 67
     1
  8
0
  6
Continuous
 62
     7
370
    25
100
AcDbLine
 10
171.7060091462
 20
-400.0
 30
0.0
 11
-171.7060091462
 21
-400.0
 31
0.0
  0
LINE
  5
158
330
23
100
AcDbEntity
 67
     1
  8
0
  6
Continuous
 62
     7
370
    25
100
AcDbLine
 10
30.0
 20
-420.0
 30
0.0
 11
-30.0
 21
-420.0
 31
0.0
  0
LINE
  5
159
330
23
100
AcDbEntity
 67
     1
  8
0
  6
Continuous
 62
     8
370
    25
100
AcDbLine
 10
-245.1055849991
 20
-40.0
 30
0.0
 11
-171.7060091462
 21
-377.4693142664
 31
0.0
  0
LINE
  5
15A
330
23
100
AcDbEntity
 67
     1
  8
0
  6
Continuous
 62
     8
370
    25
100
AcDbLine
 10
171.7060091462
 20
-377.4693142664
 30
0.0
 11
245.1055849991
 21
-40.0
 31
0.0
  0
ARC
  5
15B
330
23
100
AcDbEntity
 67
     1
  8
0
  6
Continuous
 62
     7
370
    25
100
AcDbCircle
 10
365.0
 20
-10.0
 30
0.0
 40
10.00000000000006
100
AcDbArc
 50
0.0
 51
90.0
  0
ARC
  5
15C
330
23
100
AcDbEntity
 67
     1
  8
0
  6
Continuous
 62
     7
370
    25
100
AcDbCircle
 10
-365.0
 20
-10.0
 30
0.0
 40
10.0
100
AcDbArc
 50
90.0
 51
180.0
  0
ARC
  5
15D
330
23
100
AcDbEntity
 67
     1
  8
0
  6
Continuous
 62
     7
370
    25
100
AcDbCircle
 10
-171.7060091462
 20
-350.0
 30
0.0
 40
49.99999999999998
100
AcDbArc
 50
192.2707203578
 51
270.0
  0
ARC
  5
15E
330
23
100
AcDbEntity
 67
     1
  8
0
  6
Continuous
 62
     7
370
    25
100
AcDbCircle
 10
171.7060091462
 20
-350.0
 30
0.0
 40
49.99999999999999
100
AcDbArc
 50
270.0
 51
347.7292796422
  0
VIEWPORT
  5
161
330
23
100
AcDbEntity
 67
     1
  8
0
100
AcDbViewport
 10
0.0
 20
0.0
 30
0.0
 40
205.6
 41
156.0
 68
     1
 69
     1
 12
0.0
 22
0.0
 13
0.0
 23
0.0
 14
10.0
 24
10.0
 15
10.0
 25
10.0
 16
0.0
 26
0.0
 36
1.0
 17
0.0
 27
0.0
 37
0.0
 42
50.0
 43
0.0
 44
0.0
 45
1315.6809338521
 50
0.0
 51
0.0
 72
   100
 90
   557152
  1

281
     0
 71
     1
 74
     0
110
0.0
120
0.0
130
0.0
111
1.0
121
0.0
131
0.0
112
0.0
122
1.0
132
0.0
 79
     0
146
0.0
  0
ENDSEC
  0
SECTION
  2
OBJECTS
  0
DICTIONARY
  5
C
330
0
100
AcDbDictionary
281
     1
  3
ACAD_GROUP
350
D
  3
ACAD_LAYOUT
350
1A
  3
ACAD_MLINESTYLE
350
17
  3
ACAD_PLOTSETTINGS
350
19
  3
ACAD_PLOTSTYLENAME
350
E
  3
ACAD_SCALELIST
350
47
  0
DICTIONARY
  5
D
102
{ACAD_REACTORS
330
C
102
}
330
C
100
AcDbDictionary
281
     1
  0
DICTIONARY
  5
1A
102
{ACAD_REACTORS
330
C
102
}
330
C
100
AcDbDictionary
281
     1
  3
_Front
350
1E
  3
_Right
350
26
  3
Model
350
22
  0
DICTIONARY
  5
17
102
{ACAD_REACTORS
330
C
102
}
330
C
100
AcDbDictionary
281
     1
  3
Standard
350
18
  0
DICTIONARY
  5
19
102
{ACAD_REACTORS
330
C
102
}
330
C
100
AcDbDictionary
281
     1
  0
ACDBDICTIONARYWDFLT
  5
E
102
{ACAD_REACTORS
330
C
102
}
330
C
100
AcDbDictionary
281
     1
  3
Normal
350
F
100
AcDbDictionaryWithDefault
340
F
  0
DICTIONARY
  5
47
102
{ACAD_REACTORS
330
C
102
}
330
C
100
AcDbDictionary
281
     1
  3
A0
350
48
  3
A1
350
49
  3
A2
350
4A
  3
A3
350
4B
  3
A4
350
4C
  3
A5
350
4D
  3
A6
350
4E
  3
A7
350
4F
  3
A8
350
50
  3
A9
350
51
  3
B0
350
52
  3
B1
350
53
  3
B2
350
54
  3
B3
350
55
  3
B4
350
56
  3
B5
350
57
  3
B6
350
58
  3
B7
350
59
  3
B8
350
5A
  3
B9
350
5B
  3
C0
350
5C
  3
C1
350
5D
  3
C2
350
5E
  3
C3
350
5F
  3
C4
350
60
  3
C5
350
61
  3
C6
350
62
  3
C7
350
63
  3
C8
350
64
  3
C9
350
65
  3
D0
350
66
  3
D1
350
67
  3
D2
350
68
  0
LAYOUT
  5
1E
102
{ACAD_REACTORS
330
1A
102
}
330
1A
100
AcDbPlotSettings
  1

  2
none_device
  4
ISO_A4_(210.00_x_297.00_MM)
  6

 40
7.5
 41
20.0
 42
7.5
 43
20.0
 44
210.0
 45
297.0
 46
0.0
 47
0.0
 48
0.0
 49
0.0
140
0.0
141
0.0
142
1.0
143
6.6147859922
 70
   688
 72
     1
 73
     1
 74
     1
  7

 75
     0
147
0.1511764706
148
850.0
149
420.0001
100
AcDbLayout
  1
_Front
 70
     1
 71
     1
 10
-982.2957198444
 20
-469.6109949416
 11
982.2957198444
 21
919.4940634241
 12
0.0
 22
0.0
 32
0.0
 14
1.0000000000E+20
 24
1.0000000000E+20
 34
1.0000000000E+20
 15
-1.0000000000E+20
 25
-1.0000000000E+20
 35
-1.0000000000E+20
146
0.0
 13
0.0
 23
0.0
 33
0.0
 16
1.0
 26
0.0
 36
0.0
 17
0.0
 27
1.0
 37
0.0
 76
     0
330
1B
331
15F
  0
LAYOUT
  5
26
102
{ACAD_REACTORS
330
1A
102
}
330
1A
100
AcDbPlotSettings
  1

  2
none_device
  4
ANSI_A_(11.00_x_8.50_Inches)
  6

 40
6.35
 41
19.05
 42
6.35000508
 43
19.05000254
 44
279.4
 45
215.9
 46
133.34999746
 47
88.89999873
 48
0.0
 49
0.0
140
0.0
141
0.0
142
0.0064058824
143
1.0
 70
  1696
 72
     0
 73
     0
 74
     1
  7

 75
     0
147
0.0061764705
148
21590.0
149
9525.0
100
AcDbLayout
  1
_Right
 70
     1
 71
     2
 10
0.0
 20
0.0
 11
0.0
 21
0.0
 12
0.0
 22
0.0
 32
0.0
 14
-850.0
 24
-375.0
 34
0.0
 15
850.0
 25
375.0
 35
0.0
146
0.0
 13
0.0
 23
0.0
 33
0.0
 16
1.0
 26
0.0
 36
0.0
 17
0.0
 27
1.0
 37
0.0
 76
     0
330
23
331
161
  0
LAYOUT
  5
22
102
{ACAD_REACTORS
330
1A
102
}
330
1A
100
AcDbPlotSettings
  1

  2
none_device
  4
Letter_(8.50_x_11.00_Inches)
  6

 40
6.35
 41
6.35
 42
6.35000508
 43
6.35000508
 44
215.9
 45
279.4
 46
0.0
 47
0.0
 48
0.0
 49
0.0
140
0.0
141
0.0
142
1.0
143
1.0
 70
  1712
 72
     1
 73
     0
 74
     0
  7

 75
     0
147
1.0
148
0.0
149
0.0
100
AcDbLayout
  1
Model
 70
     1
 71
     0
 10
0.0
 20
0.0
 11
420.0
 21
297.0
 12
0.0
 22
0.0
 32
0.0
 14
-850.0
 24
-375.0
 34
0.0
 15
850.0
 25
375.0
 35
0.0
146
0.0
 13
0.0
 23
0.0
 33
0.0
 16
1.0
 26
0.0
 36
0.0
 17
0.0
 27
1.0
 37
0.0
 76
     0
330
1F
331
29
  0
MLINESTYLE
  5
18
102
{ACAD_REACTORS
330
17
102
}
330
17
100
AcDbMlineStyle
  2
Standard
 70
     0
  3

 62
   256
 51
90.0
 52
90.0
 71
     2
 49
0.5
 62
   256
  6
BYLAYER
 49
-0.5
 62
   256
  6
BYLAYER
  0
ACDBPLACEHOLDER
  5
F
102
{ACAD_REACTORS
330
E
102
}
330
E
  0
SCALE
  5
48
102
{ACAD_REACTORS
330
47
102
}
330
47
100
AcDbScale
 70
     0
300
1:1
140
1.0
141
1.0
290
     1
  0
SCALE
  5
49
102
{ACAD_REACTORS
330
47
102
}
330
47
100
AcDbScale
 70
     0
300
1:2
140
1.0
141
2.0
290
     0
  0
SCALE
  5
4A
102
{ACAD_REACTORS
330
47
102
}
330
47
100
AcDbScale
 70
     0
300
1:4
140
1.0
141
4.0
290
     0
  0
SCALE
  5
4B
102
{ACAD_REACTORS
330
47
102
}
330
47
100
AcDbScale
 70
     0
300
1:5
140
1.0
141
5.0
290
     0
  0
SCALE
  5
4C
102
{ACAD_REACTORS
330
47
102
}
330
47
100
AcDbScale
 70
     0
300
1:8
140
1.0
141
8.0
290
     0
  0
SCALE
  5
4D
102
{ACAD_REACTORS
330
47
102
}
330
47
100
AcDbScale
 70
     0
300
1:10
140
1.0
141
10.0
290
     0
  0
SCALE
  5
4E
102
{ACAD_REACTORS
330
47
102
}
330
47
100
AcDbScale
 70
     0
300
1:16
140
1.0
141
16.0
290
     0
  0
SCALE
  5
4F
102
{ACAD_REACTORS
330
47
102
}
330
47
100
AcDbScale
 70
     0
300
1:20
140
1.0
141
20.0
290
     0
  0
SCALE
  5
50
102
{ACAD_REACTORS
330
47
102
}
330
47
100
AcDbScale
 70
     0
300
1:30
140
1.0
141
30.0
290
     0
  0
SCALE
  5
51
102
{ACAD_REACTORS
330
47
102
}
330
47
100
AcDbScale
 70
     0
300
1:40
140
1.0
141
40.0
290
     0
  0
SCALE
  5
52
102
{ACAD_REACTORS
330
47
102
}
330
47
100
AcDbScale
 70
     0
300
1:50
140
1.0
141
50.0
290
     0
  0
SCALE
  5
53
102
{ACAD_REACTORS
330
47
102
}
330
47
100
AcDbScale
 70
     0
300
1:100
140
1.0
141
100.0
290
     0
  0
SCALE
  5
54
102
{ACAD_REACTORS
330
47
102
}
330
47
100
AcDbScale
 70
     0
300
2:1
140
2.0
141
1.0
290
     0
  0
SCALE
  5
55
102
{ACAD_REACTORS
330
47
102
}
330
47
100
AcDbScale
 70
     0
300
4:1
140
4.0
141
1.0
290
     0
  0
SCALE
  5
56
102
{ACAD_REACTORS
330
47
102
}
330
47
100
AcDbScale
 70
     0
300
8:1
140
8.0
141
1.0
290
     0
  0
SCALE
  5
57
102
{ACAD_REACTORS
330
47
102
}
330
47
100
AcDbScale
 70
     0
300
10:1
140
10.0
141
1.0
290
     0
  0
SCALE
  5
58
102
{ACAD_REACTORS
330
47
102
}
330
47
100
AcDbScale
 70
     0
300
100:1
140
100.0
141
1.0
290
     0
  0
SCALE
  5
59
102
{ACAD_REACTORS
330
47
102
}
330
47
100
AcDbScale
 70
     0
300
1/128" = 1'-0"
140
0.0078125
141
12.0
290
     0
  0
SCALE
  5
5A
102
{ACAD_REACTORS
330
47
102
}
330
47
100
AcDbScale
 70
     0
300
1/64" = 1'-0"
140
0.015625
141
12.0
290
     0
  0
SCALE
  5
5B
102
{ACAD_REACTORS
330
47
102
}
330
47
100
AcDbScale
 70
     0
300
1/32" = 1'-0"
140
0.03125
141
12.0
290
     0
  0
SCALE
  5
5C
102
{ACAD_REACTORS
330
47
102
}
330
47
100
AcDbScale
 70
     0
300
1/16" = 1'-0"
140
0.0625
141
12.0
290
     0
  0
SCALE
  5
5D
102
{ACAD_REACTORS
330
47
102
}
330
47
100
AcDbScale
 70
     0
300
3/32" = 1'-0"
140
0.09375
141
12.0
290
     0
  0
SCALE
  5
5E
102
{ACAD_REACTORS
330
47
102
}
330
47
100
AcDbScale
 70
     0
300
1/8" = 1'-0"
140
0.125
141
12.0
290
     0
  0
SCALE
  5
5F
102
{ACAD_REACTORS
330
47
102
}
330
47
100
AcDbScale
 70
     0
300
3/16" = 1'-0"
140
0.1875
141
12.0
290
     0
  0
SCALE
  5
60
102
{ACAD_REACTORS
330
47
102
}
330
47
100
AcDbScale
 70
     0
300
1/4" = 1'-0"
140
0.25
141
12.0
290
     0
  0
SCALE
  5
61
102
{ACAD_REACTORS
330
47
102
}
330
47
100
AcDbScale
 70
     0
300
3/8" = 1'-0"
140
0.375
141
12.0
290
     0
  0
SCALE
  5
62
102
{ACAD_REACTORS
330
47
102
}
330
47
100
AcDbScale
 70
     0
300
1/2" = 1'-0"
140
0.5
141
12.0
290
     0
  0
SCALE
  5
63
102
{ACAD_REACTORS
330
47
102
}
330
47
100
AcDbScale
 70
     0
300
3/4" = 1'-0"
140
0.75
141
12.0
290
     0
  0
SCALE
  5
64
102
{ACAD_REACTORS
330
47
102
}
330
47
100
AcDbScale
 70
     0
300
1" = 1'-0"
140
1.0
141
12.0
290
     0
  0
SCALE
  5
65
102
{ACAD_REACTORS
330
47
102
}
330
47
100
AcDbScale
 70
     0
300
1-1/2" = 1'-0"
140
1.5
141
12.0
290
     0
  0
SCALE
  5
66
102
{ACAD_REACTORS
330
47
102
}
330
47
100
AcDbScale
 70
     0
300
3" = 1'-0"
140
3.0
141
12.0
290
     0
  0
SCALE
  5
67
102
{ACAD_REACTORS
330
47
102
}
330
47
100
AcDbScale
 70
     0
300
6" = 1'-0"
140
6.0
141
12.0
290
     0
  0
SCALE
  5
68
102
{ACAD_REACTORS
330
47
102
}
330
47
100
AcDbScale
 70
     0
300
1'-0" = 1'-0"
140
12.0
141
12.0
290
     0
  0
ENDSEC
  0
EOF
