  0
SECTION
  2
HEADER
  9
$ACADVER
  1
AC1015
  9
$ACADMAINTVER
 70
     6
  9
$DWGCODEPAGE
  3
ANSI_1252
  9
$INSBASE
 10
0.0
 20
0.0
 30
0.0
  9
$EXTMIN
 10
-800.0
 20
-422.2039982781
 30
0.0
  9
$EXTMAX
 10
800.0
 20
0.0
 30
0.0
  9
$LIMMIN
 10
0.0
 20
0.0
  9
$LIMMAX
 10
420.0
 20
297.0
  9
$ORTHOMODE
 70
     0
  9
$REGENMODE
 70
     1
  9
$FILLMODE
 70
     1
  9
$QTEXTMODE
 70
     0
  9
$MIRRTEXT
 70
     1
  9
$LTSCALE
 40
1.0
  9
$ATTMODE
 70
     1
  9
$TEXTSIZE
 40
3.5
  9
$TRACEWID
 40
1.0
  9
$TEXTSTYLE
  7
Standard
  9
$CLAYER
  8
0
  9
$CELTYPE
  6
ByLayer
  9
$CECOLOR
 62
   256
  9
$CELTSCALE
 40
1.0
  9
$DISPSILH
 70
     0
  9
$DIMSCALE
 40
1.0
  9
$DIMASZ
 40
3.302
  9
$DIMEXO
 40
1.0
  9
$DIMDLI
 40
3.75
  9
$DIMRND
 40
0.0
  9
$DIMDLE
 40
0.0
  9
$DIMEXE
 40
1.0
  9
$DIMTP
 40
0.0
  9
$DIMTM
 40
0.0
  9
$DIMTXT
 40
3.5
  9
$DIMCEN
 40
2.5
  9
$DIMTSZ
 40
0.0
  9
$DIMTOL
 70
     0
  9
$DIMLIM
 70
     0
  9
$DIMTIH
 70
     1
  9
$DIMTOH
 70
     1
  9
$DIMSE1
 70
     0
  9
$DIMSE2
 70
     0
  9
$DIMTAD
 70
     1
  9
$DIMZIN
 70
     1
  9
$DIMBLK
  1

  9
$DIMASO
 70
     1
  9
$DIMSHO
 70
     1
  9
$DIMPOST
  1

  9
$DIMAPOST
  1

  9
$DIMALT
 70
     0
  9
$DIMALTD
 70
     3
  9
$DIMALTF
 40
0.0393700787
  9
$DIMLFAC
 40
1.0
  9
$DIMTOFL
 70
     1
  9
$DIMTVP
 40
0.0
  9
$DIMTIX
 70
     0
  9
$DIMSOXD
 70
     0
  9
$DIMSAH
 70
     0
  9
$DIMBLK1
  1

  9
$DIMBLK2
  1

  9
$DIMSTYLE
  2
ISO-25
  9
$DIMCLRD
 70
     0
  9
$DIMCLRE
 70
     0
  9
$DIMCLRT
 70
     0
  9
$DIMTFAC
 40
1.0
  9
$DIMGAP
 40
1.524
  9
$DIMJUST
 70
     0
  9
$DIMSD1
 70
     0
  9
$DIMSD2
 70
     0
  9
$DIMTOLJ
 70
     0
  9
$DIMTZIN
 70
     1
  9
$DIMALTZ
 70
     0
  9
$DIMALTTZ
 70
     0
  9
$DIMUPT
 70
     0
  9
$DIMDEC
 70
     2
  9
$DIMTDEC
 70
     2
  9
$DIMALTU
 70
     2
  9
$DIMALTTD
 70
     3
  9
$DIMTXSTY
  7
Standard
  9
$DIMAUNIT
 70
     0
  9
$DIMADEC
 70
     2
  9
$DIMALTRND
 40
0.0
  9
$DIMAZIN
 70
     0
  9
$DIMDSEP
 70
    44
  9
$DIMATFIT
 70
     3
  9
$DIMFRAC
 70
     0
  9
$DIMLDRBLK
  1

  9
$DIMLUNIT
 70
     2
  9
$DIMLWD
 70
    -2
  9
$DIMLWE
 70
    -2
  9
$DIMTMOVE
 70
     0
  9
$LUNITS
 70
     2
  9
$LUPREC
 70
     2
  9
$SKETCHINC
 40
1.0
  9
$FILLETRAD
 40
10.0
  9
$AUNITS
 70
     0
  9
$AUPREC
 70
     2
  9
$MENU
  1
.
  9
$ELEVATION
 40
0.0
  9
$PELEVATION
 40
0.0
  9
$THICKNESS
 40
0.0
  9
$LIMCHECK
 70
     0
  9
$CHAMFERA
 40
0.0
  9
$CHAMFERB
 40
0.0
  9
$CHAMFERC
 40
0.0
  9
$CHAMFERD
 40
0.0
  9
$SKPOLY
 70
     0
  9
$TDCREATE
 40
2460388.501224722
  9
$TDUCREATE
 40
2460388.501224722
  9
$TDUPDATE
 40
2460388.501363646
  9
$TDUUPDATE
 40
2460388.501363646
  9
$TDINDWG
 40
0.0000000116
  9
$TDUSRTIMER
 40
0.0000000116
  9
$USRTIMER
 70
     1
  9
$ANGBASE
 50
0.0
  9
$ANGDIR
 70
     0
  9
$PDMODE
 70
     0
  9
$PDSIZE
 40
-1.0
  9
$PLINEWID
 40
0.0
  9
$SPLFRAME
 70
     0
  9
$SPLINETYPE
 70
     6
  9
$SPLINESEGS
 70
     8
  9
$HANDSEED
  5
360
  9
$SURFTAB1
 70
     6
  9
$SURFTAB2
 70
     6
  9
$SURFTYPE
 70
     6
  9
$SURFU
 70
     6
  9
$SURFV
 70
     6
  9
$UCSBASE
  2

  9
$UCSNAME
  2

  9
$UCSORG
 10
0.0
 20
0.0
 30
0.0
  9
$UCSXDIR
 10
1.0
 20
0.0
 30
0.0
  9
$UCSYDIR
 10
0.0
 20
1.0
 30
0.0
  9
$UCSORTHOREF
  2

  9
$UCSORTHOVIEW
 70
     0
  9
$UCSORGTOP
 10
0.0
 20
0.0
 30
0.0
  9
$UCSORGBOTTOM
 10
0.0
 20
0.0
 30
0.0
  9
$UCSORGLEFT
 10
0.0
 20
0.0
 30
0.0
  9
$UCSORGRIGHT
 10
0.0
 20
0.0
 30
0.0
  9
$UCSORGFRONT
 10
0.0
 20
0.0
 30
0.0
  9
$UCSORGBACK
 10
0.0
 20
0.0
 30
0.0
  9
$PUCSBASE
  2

  9
$PUCSNAME
  2

  9
$PUCSORG
 10
0.0
 20
0.0
 30
0.0
  9
$PUCSXDIR
 10
1.0
 20
0.0
 30
0.0
  9
$PUCSYDIR
 10
0.0
 20
1.0
 30
0.0
  9
$PUCSORTHOREF
  2

  9
$PUCSORTHOVIEW
 70
     0
  9
$PUCSORGTOP
 10
0.0
 20
0.0
 30
0.0
  9
$PUCSORGBOTTOM
 10
0.0
 20
0.0
 30
0.0
  9
$PUCSORGLEFT
 10
0.0
 20
0.0
 30
0.0
  9
$PUCSORGRIGHT
 10
0.0
 20
0.0
 30
0.0
  9
$PUCSORGFRONT
 10
0.0
 20
0.0
 30
0.0
  9
$PUCSORGBACK
 10
0.0
 20
0.0
 30
0.0
  9
$USERI1
 70
     0
  9
$USERI2
 70
     0
  9
$USERI3
 70
     0
  9
$USERI4
 70
     0
  9
$USERI5
 70
     0
  9
$USERR1
 40
0.0
  9
$USERR2
 40
0.0
  9
$USERR3
 40
0.0
  9
$USERR4
 40
0.0
  9
$USERR5
 40
0.0
  9
$WORLDVIEW
 70
     1
  9
$SHADEDGE
 70
     3
  9
$SHADEDIF
 70
    70
  9
$TILEMODE
 70
     0
  9
$MAXACTVP
 70
    64
  9
$PINSBASE
 10
0.0
 20
0.0
 30
0.0
  9
$PLIMCHECK
 70
     0
  9
$PEXTMIN
 10
-800.0
 20
-422.2039982781
 30
0.0
  9
$PEXTMAX
 10
800.0
 20
0.0
 30
0.0
  9
$PLIMMIN
 10
0.0
 20
0.0
  9
$PLIMMAX
 10
0.0
 20
0.0
  9
$UNITMODE
 70
     0
  9
$VISRETAIN
 70
     1
  9
$PLINEGEN
 70
     0
  9
$PSLTSCALE
 70
     1
  9
$TREEDEPTH
 70
  3020
  9
$CMLSTYLE
  2
Standard
  9
$CMLJUST
 70
     0
  9
$CMLSCALE
 40
20.0
  9
$PROXYGRAPHICS
 70
     1
  9
$MEASUREMENT
 70
     1
  9
$CELWEIGHT
370
    -1
  9
$ENDCAPS
280
     0
  9
$JOINSTYLE
280
     0
  9
$LWDISPLAY
290
     1
  9
$INSUNITS
 70
     4
  9
$HYPERLINKBASE
  1

  9
$STYLESHEET
  1

  9
$XEDIT
290
     1
  9
$CEPSNTYPE
380
     0
  9
$PSTYLEMODE
290
     1
  9
$FINGERPRINTGUID
  2
{85b2a6d6-1f03-4333-8883-bc2323312537}
  9
$VERSIONGUID
  2
{FAEB1C32-E019-11D5-929B-00C0DF256EC4}
  9
$EXTNAMES
290
     1
  9
$PSVPSCALE
 40
0.0
  9
$OLESTARTUP
290
     0
  0
ENDSEC
  0
SECTION
  2
CLASSES
  0
CLASS
  1
ACDBDICTIONARYWDFLT
  2
AcDbDictionaryWithDefault
  3
ObjectDBX Classes
 90
        0
280
     0
281
     0
  0
CLASS
  1
VISUALSTYLE
  2
AcDbVisualStyle
  3
ObjectDBX Classes
 90
     4095
280
     0
281
     0
  0
CLASS
  1
MATERIAL
  2
AcDbMaterial
  3
ObjectDBX Classes
 90
     1153
280
     0
281
     0
  0
CLASS
  1
SCALE
  2
AcDbScale
  3
ObjectDBX Classes
 90
     1153
280
     0
281
     0
  0
CLASS
  1
TABLESTYLE
  2
AcDbTableStyle
  3
ObjectDBX Classes
 90
     4095
280
     0
281
     0
  0
CLASS
  1
MLEADERSTYLE
  2
AcDbMLeaderStyle
  3
ACDB_MLEADERSTYLE_CLASS
 90
     4095
280
     0
281
     0
  0
CLASS
  1
SUN
  2
AcDbSun
  3
SCENEOE
 90
     1153
280
     0
281
     0
  0
CLASS
  1
ACDBPLACEHOLDER
  2
AcDbPlaceHolder
  3
ObjectDBX Classes
 90
        0
280
     0
281
     0
  0
CLASS
  1
LAYOUT
  2
AcDbLayout
  3
ObjectDBX Classes
 90
        0
280
     0
281
     0
  0
ENDSEC
  0
SECTION
  2
TABLES
  0
TABLE
  2
VPORT
  5
8
330
0
100
AcDbSymbolTable
 70
     1
  0
VPORT
  5
29
330
8
100
AcDbSymbolTableRecord
100
AcDbViewportTableRecord
  2
*Active
 70
     0
 10
0.0
 20
0.0
 11
1.0
 21
1.0
 12
0.0
 22
-211.1019991391
 13
0.0
 23
0.0
 14
10.0
 24
10.0
 15
10.0
 25
10.0
 16
0.0
 26
0.0
 36
1.0
 17
0.0
 27
0.0
 37
0.0
 40
430.6480782437
 41
3.7896372524
 42
50.0
 43
0.0
 44
0.0
 50
0.0
 51
0.0
 71
     0
 72
   100
 73
     1
 74
     3
 75
     0
 76
     0
 77
     0
 78
     0
281
     0
 65
     1
110
0.0
120
0.0
130
0.0
111
1.0
121
0.0
131
0.0
112
0.0
122
1.0
132
0.0
 79
     0
146
0.0
  0
ENDTAB
  0
TABLE
  2
LTYPE
  5
5
330
0
100
AcDbSymbolTable
 70
     6
  0
LTYPE
  5
14
330
5
100
AcDbSymbolTableRecord
100
AcDbLinetypeTableRecord
  2
ByBlock
 70
     0
  3

 72
    65
 73
     0
 40
0.0
  0
LTYPE
  5
15
330
5
100
AcDbSymbolTableRecord
100
AcDbLinetypeTableRecord
  2
ByLayer
 70
     0
  3

 72
    65
 73
     0
 40
0.0
  0
LTYPE
  5
16
330
5
100
AcDbSymbolTableRecord
100
AcDbLinetypeTableRecord
  2
Continuous
 70
     0
  3
Solid line
 72
    65
 73
     0
 40
0.0
  0
LTYPE
  5
6E
330
5
100
AcDbSymbolTableRecord
100
AcDbLinetypeTableRecord
  2
HIDDEN
 70
     0
  3
Hidden __ __ __ __ __ __ __ __ __ __ __ __ __ __
 72
    65
 73
     2
 40
1.905
 49
1.27
 74
     0
 49
-0.635
 74
     0
  0
LTYPE
  5
6F
330
5
100
AcDbSymbolTableRecord
100
AcDbLinetypeTableRecord
  2
PHANTOM
 70
     0
  3
Phantom ______  __  __  ______  __  __  ______
 72
    65
 73
     6
 40
12.7
 49
6.35
 74
     0
 49
-1.27
 74
     0
 49
1.27
 74
     0
 49
-1.27
 74
     0
 49
1.27
 74
     0
 49
-1.27
 74
     0
  0
LTYPE
  5
70
330
5
100
AcDbSymbolTableRecord
100
AcDbLinetypeTableRecord
  2
CENTER
 70
     0
  3
Center ____ _ ____ _ ____ _ ____ _ ____ _ ____
 72
    65
 73
     4
 40
10.16
 49
6.35
 74
     0
 49
-1.27
 74
     0
 49
1.27
 74
     0
 49
-1.27
 74
     0
  0
LTYPE
  5
71
330
5
100
AcDbSymbolTableRecord
100
AcDbLinetypeTableRecord
  2
CENTERX2
 70
     0
  3
Center (2x) ________  __  ________  __  _____
 72
    65
 73
     4
 40
20.32
 49
12.7
 74
     0
 49
-2.54
 74
     0
 49
2.54
 74
     0
 49
-2.54
 74
     0
  0
LTYPE
  5
72
330
5
100
AcDbSymbolTableRecord
100
AcDbLinetypeTableRecord
  2
DOT2
 70
     0
  3
Dot (.5x) ........................................
 72
    65
 73
     2
 40
0.635
 49
0.0
 74
     0
 49
-0.635
 74
     0
  0
ENDTAB
  0
TABLE
  2
LAYER
  5
2
330
0
100
AcDbSymbolTable
 70
     1
  0
LAYER
  5
10
330
2
100
AcDbSymbolTableRecord
100
AcDbLayerTableRecord
  2
0
 70
     0
 62
     7
  6
Continuous
370
    -3
390
F
  0
ENDTAB
  0
TABLE
  2
STYLE
  5
3
330
0
100
AcDbSymbolTable
 70
     1
  0
STYLE
  5
11
330
3
100
AcDbSymbolTableRecord
100
AcDbTextStyleTableRecord
  2
Standard
 70
     0
 40
0.0
 41
1.0
 50
0.0
 71
     0
 42
3.5
  3
txt
  4

  0
ENDTAB
  0
TABLE
  2
VIEW
  5
6
330
0
100
AcDbSymbolTable
 70
     0
  0
ENDTAB
  0
TABLE
  2
UCS
  5
7
330
0
100
AcDbSymbolTable
 70
     0
  0
ENDTAB
  0
TABLE
  2
APPID
  5
9
330
0
100
AcDbSymbolTable
 70
     1
  0
APPID
  5
12
330
9
100
AcDbSymbolTableRecord
100
AcDbRegAppTableRecord
  2
ACAD
 70
     0
  0
ENDTAB
  0
TABLE
  2
DIMSTYLE
  5
A
330
0
100
AcDbSymbolTable
 70
     1
100
AcDbDimStyleTable
  0
DIMSTYLE
105
27
330
A
100
AcDbSymbolTableRecord
100
AcDbDimStyleTableRecord
  2
ISO-25
 70
     0
 41
2.5
 42
0.625
 43
3.75
 44
1.25
 73
     0
 74
     0
 77
     1
 78
     8
140
2.5
141
2.5
143
0.0393700787
147
0.625
171
     3
172
     1
178
     0
271
     2
272
     2
274
     3
278
    44
283
     0
284
     8
340
11
  0
ENDTAB
  0
TABLE
  2
BLOCK_RECORD
  5
1
330
0
100
AcDbSymbolTable
 70
     4
  0
BLOCK_RECORD
  5
1F
330
1
100
AcDbSymbolTableRecord
100
AcDbBlockTableRecord
  2
*Model_Space
340
22
  0
BLOCK_RECORD
  5
2AC
330
1
100
AcDbSymbolTableRecord
100
AcDbBlockTableRecord
  2
*Paper_Space
340
2AD
  0
BLOCK_RECORD
  5
1B
330
1
100
AcDbSymbolTableRecord
100
AcDbBlockTableRecord
  2
*Paper_Space0
340
1E
  0
BLOCK_RECORD
  5
23
330
1
100
AcDbSymbolTableRecord
100
AcDbBlockTableRecord
  2
*Paper_Space1
340
26
  0
BLOCK_RECORD
  5
15B
330
1
100
AcDbSymbolTableRecord
100
AcDbBlockTableRecord
  2
*Paper_Space2
340
15C
  0
BLOCK_RECORD
  5
1FA
330
1
100
AcDbSymbolTableRecord
100
AcDbBlockTableRecord
  2
*Paper_Space3
340
1FB
  0
ENDTAB
  0
ENDSEC
  0
SECTION
  2
BLOCKS
  0
BLOCK
  5
20
330
1F
100
AcDbEntity
  8
0
100
AcDbBlockBegin
  2
*Model_Space
 70
     0
 10
0.0
 20
0.0
 30
0.0
  3
*Model_Space
  1

  0
ENDBLK
  5
21
330
1F
100
AcDbEntity
  8
0
100
AcDbBlockEnd
  0
BLOCK
  5
2AE
330
2AC
100
AcDbEntity
 67
     1
  8
0
100
AcDbBlockBegin
  2
*Paper_Space
 70
     0
 10
0.0
 20
0.0
 30
0.0
  3
*Paper_Space
  1

  0
ENDBLK
  5
2AF
330
2AC
100
AcDbEntity
 67
     1
  8
0
100
AcDbBlockEnd
  0
BLOCK
  5
1C
330
1B
100
AcDbEntity
  8
0
100
AcDbBlockBegin
  2
*Paper_Space0
 70
     0
 10
0.0
 20
0.0
 30
0.0
  3
*Paper_Space0
  1

  0
SPLINE
  5
BB
330
1B
100
AcDbEntity
  8
0
  6
Continuous
 62
     7
370
    25
100
AcDbSpline
210
0.0
220
0.0
230
1.0
 70
     8
 71
     3
 72
    19
 73
    15
 74
     0
 42
0.000000001
 43
0.00000001
 40
0.0
 40
0.0
 40
0.0
 40
0.0
 40
0.0831931975656929
 40
0.1461539297884643
 40
0.1881001138344717
 40
0.2190412499003787
 40
0.2640397173935657
 40
0.3243709504222598
 40
0.400171611088638
 40
0.4914457271013484
 40
0.5979494446310942
 40
0.719060671615308
 40
0.8536524532787801
 40
0.9999999999999999
 40
0.9999999999999999
 40
0.9999999999999999
 40
0.9999999999999999
 10
-460.3826756188989
 20
-362.776756692705
 30
0.0
 10
-459.5598371026089
 20
-363.8592032048
 30
0.0
 10
-458.1142732072904
 20
-365.7608468025664
 30
0.0
 10
-456.0452285636752
 20
-368.0365996833518
 30
0.0
 10
-454.4820071069381
 20
-369.6120806839352
 30
0.0
 10
-453.0790183639113
 20
-370.9316192870354
 30
0.0
 10
-451.4049948716059
 20
-372.3998557737758
 30
0.0
 10
-449.0871757532793
 20
-374.2414732465329
 30
0.0
 10
-446.037169792047
 20
-376.3675039432284
 30
0.0
 10
-442.1806452171839
 20
-378.6356401586634
 30
0.0
 10
-437.4614706593377
 20
-380.8634504965227
 30
0.0
 10
-431.8631361086955
 20
-382.8057438796672
 30
0.0
 10
-425.4353105670896
 20
-384.2779683847252
 30
0.0
 10
-420.8471718133792
 20
-384.5521081359246
 30
0.0
 10
-418.4571082559459
 20
-384.6949136316075
 30
0.0
  0
SPLINE
  5
BC
330
1B
100
AcDbEntity
  8
0
  6
Continuous
 62
     7
370
    25
100
AcDbSpline
210
0.0
220
0.0
230
1.0
 70
     8
 71
     3
 72
    20
 73
    16
 74
     0
 42
0.000000001
 43
0.00000001
 40
0.0
 40
0.0
 40
0.0
 40
0.0
 40
0.0984211279595867
 40
0.1908056801064602
 40
0.2756208082649572
 40
0.3516936415273721
 40
0.4182072048440179
 40
0.4755066054219604
 40
0.5384641541409864
 40
0.6123717611155319
 40
0.6966614151428888
 40
0.7661485718912641
 40
0.840371658582854
 40
0.91860799054086
 40
1.0
 40
1.0
 40
1.0
 40
1.0
 10
608.8249856609062
 20
-402.0732292427447
 30
0.0
 10
611.2235767234985
 20
-401.9294356525695
 30
0.0
 10
615.8736433147197
 20
-401.650667929245
 30
0.0
 10
622.4472597515346
 20
-400.1306955695895
 30
0.0
 10
628.2776767447012
 20
-398.0687338013447
 30
0.0
 10
633.2724167506519
 20
-395.638465096592
 30
0.0
 10
637.4311453906022
 20
-393.0868139843384
 30
0.0
 10
641.0987142846215
 20
-390.381268724224
 30
0.0
 10
644.6670594614122
 20
-387.2627587810159
 30
0.0
 10
648.3815863482947
 20
-383.3428347310157
 30
0.0
 10
651.7462675687872
 20
-378.9126997782118
 30
0.0
 10
654.6288308608272
 20
-374.1503835666304
 30
0.0
 10
656.953772724494
 20
-369.2570691846201
 30
0.0
 10
658.8951400755111
 20
-363.8792011968583
 30
0.0
 10
659.6948577672896
 20
-360.0668424050295
 30
0.0
 10
660.1026213846775
 20
-358.1229799299112
 30
0.0
  0
SPLINE
  5
BD
330
1B
100
AcDbEntity
  8
0
  6
Continuous
 62
     7
370
    25
100
AcDbSpline
210
0.0
220
0.0
230
1.0
 70
     8
 71
     3
 72
     8
 73
     4
 74
     0
 42
0.000000001
 43
0.00000001
 40
0.0
 40
0.0
 40
0.0
 40
0.0
 40
1.0
 40
1.0
 40
1.0
 40
1.0
 10
-418.4571082559461
 20
-384.6949136316075
 30
0.0
 10
-418.4571082559461
 20
-384.6949136316075
 30
0.0
 10
-418.5316060140676
 20
-384.5835896710095
 30
0.0
 10
-418.677483955593
 20
-384.3664843305735
 30
0.0
  0
SPLINE
  5
BE
330
1B
100
AcDbEntity
  8
0
  6
Continuous
 62
     7
370
    25
100
AcDbSpline
210
0.0
220
0.0
230
1.0
 70
     8
 71
     3
 72
    26
 73
    22
 74
     0
 42
0.000000001
 43
0.00000001
 40
0.0
 40
0.0
 40
0.0
 40
0.0
 40
0.25
 40
0.25
 40
0.375
 40
0.375
 40
0.5
 40
0.5
 40
0.625
 40
0.625
 40
0.6875
 40
0.6875
 40
0.75
 40
0.75
 40
0.8125
 40
0.8125
 40
0.875
 40
0.875
 40
0.9375
 40
0.9375
 40
1.0
 40
1.0
 40
1.0
 40
1.0
 10
-418.677483955593
 20
-384.3664843305735
 30
0.0
 10
-333.2088598707652
 20
-386.1284109830945
 30
0.0
 10
-247.7393973654346
 20
-387.8836881549095
 30
0.0
 10
-119.5286077542075
 20
-390.4896276383484
 30
0.0
 10
-76.79058654757098
 20
-391.3536650943295
 30
0.0
 10
8.690272086339004
 20
-393.0648347113301
 30
0.0
 10
51.43292497688626
 20
-393.9123186634919
 30
0.0
 10
136.9300290177768
 20
-395.573062156038
 30
0.0
 10
179.68370416842
 20
-396.3876265061572
 30
0.0
 10
243.8405153511279
 20
-397.5477777877936
 30
0.0
 10
265.2306760941876
 20
-397.9239052733771
 30
0.0
 10
308.0282672080691
 20
-398.6398465068402
 30
0.0
 10
329.4356324173776
 20
-398.979921509927
 30
0.0
 10
372.2822771469249
 20
-399.5959553721656
 30
0.0
 10
393.7221430510905
 20
-399.8720007507852
 30
0.0
 10
436.6511255139262
 20
-400.3121040459171
 30
0.0
 10
458.1409874088573
 20
-400.4747707237667
 30
0.0
 10
501.1529162607017
 20
-400.6338662283492
 30
0.0
 10
522.672846036797
 20
-400.628509166743
 30
0.0
 10
565.6813471028787
 20
-400.4501181874405
 30
0.0
 10
587.168999786006
 20
-400.2790024624135
 30
0.0
 10
608.6298411179259
 20
-400.052331544326
 30
0.0
  0
SPLINE
  5
BF
330
1B
100
AcDbEntity
  8
0
  6
Continuous
 62
     7
370
    25
100
AcDbSpline
210
0.0
220
0.0
230
1.0
 70
     8
 71
     3
 72
    14
 73
    10
 74
     0
 42
0.000000001
 43
0.00000001
 40
0.0
 40
0.0
 40
0.0
 40
0.0
 40
0.2500000000000002
 40
0.2500000000000002
 40
0.5000000000000001
 40
0.5000000000000001
 40
0.75
 40
0.75
 40
1.0
 40
1.0
 40
1.0
 40
1.0
 10
608.6298411179259
 20
-400.052331544326
 30
0.0
 10
608.6199713762602
 20
-400.3053069511693
 30
0.0
 10
608.61689601122
 20
-400.5506527066638
 30
0.0
 10
608.629651709059
 20
-401.0132625407642
 30
0.0
 10
608.6459325572844
 20
-401.2307979156386
 30
0.0
 10
608.6977426722706
 20
-401.6125530308951
 30
0.0
 10
608.7341779548443
 20
-401.7766479749723
 30
0.0
 10
608.7993074926467
 20
-402.0080150109234
 30
0.0
 10
608.8249848402504
 20
-402.0732285427785
 30
0.0
 10
608.8249856612189
 20
-402.0732292433324
 30
0.0
  0
LWPOLYLINE
  5
D2
330
1B
100
AcDbEntity
  8
0
  6
Continuous
 62
     7
370
    25
100
AcDbPolyline
 90
       19
 70
   128
 43
0.0
 10
-417.5815893728
 20
-339.0416126418
 10
-421.1334478204
 20
-341.5391897978
 10
-424.6612585678
 20
-343.9666180064
 10
-428.1411367289
 20
-346.3074624727
 10
-431.5495219426
 20
-348.5458746129
 10
-434.8633378881
 20
-350.6666993569
 10
-438.0601485214
 20
-352.6555777548
 10
-441.1183099779
 20
-354.4990441935
 10
-444.0171171109
 20
-356.1846175653
 10
-446.7369436752
 20
-357.7008857703
 10
-449.2593752058
 20
-359.0375829819
 10
-451.5673336917
 20
-360.1856591509
 10
-453.6451932023
 20
-361.1373412785
 10
-455.478885682
 20
-361.886186043
 10
-457.055996197
 20
-362.4271234241
 10
-458.3658469906
 20
-362.7564910293
 10
-459.399569776
 20
-362.8720588898
 10
-460.1501657789
 20
-362.7730445586
 10
-460.6125531224
 20
-362.4601184077
  0
LWPOLYLINE
  5
D6
330
1B
100
AcDbEntity
  8
0
  6
Continuous
 62
     7
370
    25
100
AcDbPolyline
 90
       20
 70
   128
 43
0.0
 10
660.4589601735
 20
-356.1020822353
 10
660.1770655862
 20
-356.6906231871
 10
659.5515339541
 20
-357.2143627582
 10
658.5864903272
 20
-357.6698471636
 10
657.288298657
 20
-358.0540727248
 10
655.6655198299
 20
-358.3645056778
 10
653.7288552128
 20
-358.5990988817
 10
651.4910760832
 20
-358.7563053185
 10
648.9669394092
 20
-358.8350882952
 10
646.1730905351
 20
-358.8349282796
 10
643.1279534147
 20
-358.7558263269
 10
639.8516091143
 20
-358.5983040728
 10
636.3656633893
 20
-358.3634002929
 10
632.6931042054
 20
-358.0526640534
 10
628.8581501454
 20
-357.6681444951
 10
624.8860906999
 20
-357.2123773208
 10
620.8031194974
 20
-356.6883680738
 10
616.6361615703
 20
-356.0995723173
 10
612.4126957991
 20
-355.4498728476
 10
608.1605737037
 20
-354.7435540886
  0
LWPOLYLINE
  5
D7
330
1B
100
AcDbEntity
  8
0
  6
Continuous
 62
     7
370
    25
100
AcDbPolyline
 90
        9
 70
   128
 43
0.0
 10
608.1605737037
 20
-354.7435540886
 10
608.1489004651
 20
-354.7415436766
 10
608.1372272223
 20
-354.7395328738
 10
608.1255539761
 20
-354.7375216803
 10
608.113880727
 20
-354.7355100962
 10
608.1022074756
 20
-354.7334981215
 10
608.0905342224
 20
-354.7314857565
 10
608.0788609681
 20
-354.7294730011
 10
608.0671877132
 20
-354.7274598556
  0
SPLINE
  5
D8
330
1B
100
AcDbEntity
  8
0
  6
Continuous
 62
     7
370
    25
100
AcDbSpline
210
0.0
220
0.0
230
1.0
 70
     8
 71
     3
 72
    24
 73
    20
 74
     0
 42
0.000000001
 43
0.00000001
 40
0.0
 40
0.0
 40
0.0
 40
0.0
 40
0.0625000000000002
 40
0.0625000000000002
 40
0.1250000000000003
 40
0.1250000000000003
 40
0.2500000000000003
 40
0.2500000000000003
 40
0.3125000000000003
 40
0.3125000000000003
 40
0.3750000000000002
 40
0.3750000000000002
 40
0.5000000000000002
 40
0.5000000000000002
 40
0.6250000000000002
 40
0.6250000000000002
 40
0.7500000000000001
 40
0.7500000000000001
 40
1.0
 40
1.0
 40
1.0
 40
1.0
 10
608.067187713232
 20
-354.7274598555591
 30
0.0
 10
586.6967258827891
 20
-354.9541400330814
 30
0.0
 10
565.3262581547586
 20
-355.125246498678
 30
0.0
 10
522.5853053136041
 20
-355.3036374779714
 30
0.0
 10
501.2148199959341
 20
-355.308994539584
 30
0.0
 10
437.1033370121481
 20
-355.0703512827056
 30
0.0
 10
394.3616307592337
 20
-354.579100614527
 30
0.0
 10
330.2550064543206
 20
-353.655049821156
 30
0.0
 10
308.8867508012782
 20
-353.3149748180736
 30
0.0
 10
266.1509307062886
 20
-352.5990335846096
 30
0.0
 10
244.7833713097821
 20
-352.2229060990283
 30
0.0
 10
180.6813066494965
 20
-351.0627548173886
 30
0.0
 10
137.9473911942111
 20
-350.2481904672532
 30
0.0
 10
52.48017083814869
 20
-348.5874469747436
 30
0.0
 10
9.746891136256263
 20
-347.7399630225814
 30
0.0
 10
-75.71935537511193
 20
-346.028793405544
 30
0.0
 10
-118.4523153906912
 20
-345.1647559495931
 30
0.0
 10
-246.6509284039559
 20
-342.55881646612
 30
0.0
 10
-332.1163230436544
 20
-340.8035365436504
 30
0.0
 10
-417.5815893727968
 20
-339.0416126418055
 30
0.0
  0
LWPOLYLINE
  5
DC
330
1B
100
AcDbEntity
  8
0
  6
Continuous
 62
     7
370
    25
100
AcDbPolyline
 90
       18
 70
   128
 43
0.0
 10
608.1605737037
 20
-354.7435540886
 10
608.2060289792
 20
-359.0568986556
 10
608.2505377141
 20
-363.2871189854
 10
608.2937964732
 20
-367.4053758476
 10
608.335510343
 20
-371.3835933149
 10
608.375394942
 20
-375.1946501687
 10
608.4131783599
 20
-378.812564796
 10
608.4486030108
 20
-382.2126723177
 10
608.4814273897
 20
-385.3717927392
 10
608.5114277187
 20
-388.2683889784
 10
608.5383994725
 20
-390.8827136937
 10
608.5621587732
 20
-393.1969439096
 10
608.5825436434
 20
-395.1953025239
 10
608.5994151108
 20
-396.864165867
 10
608.6126581551
 20
-398.19215658
 10
608.622182493
 20
-399.1702211793
 10
608.6279231929
 20
-399.7916917782
 10
608.6298411179
 20
-400.0523315443
  0
SPLINE
  5
E0
330
1B
100
AcDbEntity
  8
0
  6
Continuous
 62
     7
370
    25
100
AcDbSpline
210
0.0
220
0.0
230
1.0
 70
    24
 71
     3
 72
    10
 73
     6
 74
     0
 42
0.000000001
 43
0.00000001
 40
0.0
 40
0.0
 40
0.0
 40
0.0
 40
0.1199976295886005
 40
0.5599987942222521
 40
1.0
 40
1.0
 40
1.0
 40
1.0
 10
660.1183357697282
 20
-358.0338592236681
 30
0.0
 10
660.1141297561766
 20
-358.057712711857
 30
0.0
 10
660.0945013474696
 20
-358.1690309493051
 30
0.0
 10
660.2367892230341
 20
-357.3620763074639
 30
0.0
 10
660.3849031876905
 20
-356.5220802724756
 30
0.0
 10
660.4589601734812
 20
-356.1020822353445
 30
0.0
  0
LINE
  5
E9
330
1B
100
AcDbEntity
  8
0
  6
Continuous
 62
     7
370
    25
100
AcDbLine
 10
559.235745596
 20
-403.1119757449
 30
0.0
 11
608.8249856614
 21
-402.0732292435
 31
0.0
  0
LINE
  5
EA
330
1B
100
AcDbEntity
  8
0
  6
Continuous
 62
     7
370
    25
100
AcDbLine
 10
559.235745596
 20
-403.1119757449
 30
0.0
 11
460.764254404
 21
-403.1119757449
 31
0.0
  0
LINE
  5
EB
330
1B
100
AcDbEntity
  8
0
  6
Continuous
 62
     7
370
    25
100
AcDbLine
 10
460.764254404
 20
-403.1119757449
 30
0.0
 11
-418.4571082559
 21
-384.6949136316
 31
0.0
  0
LINE
  5
EC
330
1B
100
AcDbEntity
  8
0
  6
Continuous
 62
     7
370
    25
100
AcDbLine
 10
790.0
 20
-40.0
 30
0.0
 11
790.0
 21
0.0
 31
0.0
  0
LINE
  5
ED
330
1B
100
AcDbEntity
  8
0
  6
Continuous
 62
     7
370
    25
100
AcDbLine
 10
800.0
 20
-10.0
 30
0.0
 11
800.0
 21
-40.0
 31
0.0
  0
LINE
  5
EE
330
1B
100
AcDbEntity
  8
0
  6
Continuous
 62
     7
370
    25
100
AcDbLine
 10
800.0
 20
-10.0
 30
0.0
 11
-800.0
 21
-10.0
 31
0.0
  0
LINE
  5
EF
330
1B
100
AcDbEntity
  8
0
  6
Continuous
 62
     7
370
    25
100
AcDbLine
 10
-790.0
 20
0.0
 30
0.0
 11
-790.0
 21
-40.0
 31
0.0
  0
LINE
  5
F0
330
1B
100
AcDbEntity
  8
0
  6
Continuous
 62
     7
370
    25
100
AcDbLine
 10
-800.0
 20
-40.0
 30
0.0
 11
-800.0
 21
-10.0
 31
0.0
  0
LINE
  5
F1
330
1B
100
AcDbEntity
  8
0
  6
Continuous
 62
     7
370
    25
100
AcDbLine
 10
-800.0
 20
-40.0
 30
0.0
 11
800.0
 21
-40.0
 31
0.0
  0
LINE
  5
F2
330
1B
100
AcDbEntity
  8
0
  6
Continuous
 62
     7
370
    25
100
AcDbLine
 10
-790.0
 20
0.0
 30
0.0
 11
790.0
 21
0.0
 31
0.0
  0
LINE
  5
F3
330
1B
100
AcDbEntity
  8
0
  6
Continuous
 62
     7
370
    25
100
AcDbLine
 10
-694.8937164078
 20
-40.0
 30
0.0
 11
-460.4113548034
 21
-362.7372831816
 31
0.0
  0
LINE
  5
F4
330
1B
100
AcDbEntity
  8
0
  6
Continuous
 62
     7
370
    25
100
AcDbLine
 10
660.4589601735
 20
-356.1020822353
 30
0.0
 11
716.1962859297
 21
-40.0
 31
0.0
  0
LINE
  5
F5
330
1B
100
AcDbEntity
  8
0
  6
Continuous
 62
     7
370
    25
100
AcDbLine
 10
608.0671877132
 20
-354.7274598556
 30
0.0
 11
608.6298411179
 21
-400.0523315443
 31
0.0
  0
LINE
  5
F6
330
1B
100
AcDbEntity
  8
0
  6
Continuous
 62
     7
370
    25
100
AcDbLine
 10
465.5518420972
 20
-405.2269880515
 30
0.0
 11
554.4481579028
 21
-405.2269880515
 31
0.0
  0
LINE
  5
F7
330
1B
100
AcDbEntity
  8
0
  6
Continuous
 62
     7
370
    25
100
AcDbLine
 10
538.3199981875
 20
-422.2039982781
 30
0.0
 11
554.4481579028
 21
-405.2269880515
 31
0.0
  0
LINE
  5
F8
330
1B
100
AcDbEntity
  8
0
  6
Continuous
 62
     7
370
    25
100
AcDbLine
 10
481.6800018125
 20
-422.2039982781
 30
0.0
 11
538.3199981875
 21
-422.2039982781
 31
0.0
  0
LINE
  5
F9
330
1B
100
AcDbEntity
  8
0
  6
Continuous
 62
     7
370
    25
100
AcDbLine
 10
481.6800018125
 20
-422.2039982781
 30
0.0
 11
465.5518420972
 21
-405.2269880515
 31
0.0
  0
LINE
  5
FA
330
1B
100
AcDbEntity
  8
0
  6
Continuous
 62
     8
370
    25
100
AcDbLine
 10
-417.5815893728
 20
-339.0416126418
 30
0.0
 11
-634.8480386004
 21
-40.0
 31
0.0
  0
LINE
  5
FB
330
1B
100
AcDbEntity
  8
0
  6
Continuous
 62
     8
370
    25
100
AcDbLine
 10
663.5621304556
 20
-40.0
 30
0.0
 11
608.0671877132
 21
-354.7274598556
 31
0.0
  0
ARC
  5
FC
330
1B
100
AcDbEntity
  8
0
  6
Continuous
 62
     7
370
    25
100
AcDbCircle
 10
-790.0
 20
-10.0
 30
0.0
 40
10.0
100
AcDbArc
 50
90.0
 51
180.0
  0
ARC
  5
FD
330
1B
100
AcDbEntity
  8
0
  6
Continuous
 62
     7
370
    25
100
AcDbCircle
 10
790.0
 20
-10.0
 30
0.0
 40
10.0
100
AcDbArc
 50
0.0
 51
90.0
  0
ARC
  5
FE
330
1B
100
AcDbEntity
  8
0
  6
Continuous
 62
     7
370
    25
100
AcDbCircle
 10
-460.0010683305
 20
-361.9977067997
 30
0.0
 40
0.766640819364689
100
AcDbArc
 50
216.0000392187
 51
217.0969773857
  0
ARC
  5
FF
330
1B
100
AcDbEntity
  8
0
  6
Continuous
 62
     7
370
    25
100
AcDbCircle
 10
-4005.7473479596
 20
-274.9602634945
 30
0.0
 40
3588.737930025425
100
AcDbArc
 50
358.2530108849
 51
358.9768587
  0
ARC
  5
100
330
1B
100
AcDbEntity
  8
0
  6
Continuous
 62
     7
370
    25
100
AcDbCircle
 10
-417.5816245112
 20
-331.1776353592
 30
0.0
 40
53.20013686848161
100
AcDbArc
 50
216.0162788335
 51
268.8196917165
  0
ARC
  5
101
330
1B
100
AcDbEntity
  8
0
  6
Continuous
 62
     7
370
    25
100
AcDbCircle
 10
608.0743007887
 20
-346.8618673077
 30
0.0
 40
53.19336528896905
100
AcDbArc
 50
270.5983959597
 51
349.9964081617
  0
ARC
  5
102
330
1B
100
AcDbEntity
  8
0
  6
Continuous
 62
     7
370
    25
100
AcDbCircle
 10
-417.5822708883
 20
-331.1785364678
 30
0.0
 40
53.19922264018879
100
AcDbArc
 50
216.0000964126
 51
268.8203677284
  0
ARC
  5
103
330
1B
100
AcDbEntity
  8
0
  6
Continuous
 62
     7
370
    25
100
AcDbCircle
 10
460.6218459488
 20
-409.9104843925
 30
0.0
 40
6.800000000002048
100
AcDbArc
 50
43.5311992856
 51
88.8
  0
ARC
  5
104
330
1B
100
AcDbEntity
  8
0
  6
Continuous
 62
     7
370
    25
100
AcDbCircle
 10
559.3781540512
 20
-409.9104843925
 30
0.0
 40
6.800000000002119
100
AcDbArc
 50
91.2
 51
136.4688007144
  0
VIEWPORT
  5
356
330
1B
100
AcDbEntity
  8
0
100
AcDbViewport
 10
0.0
 20
0.0
 30
0.0
 40
205.6
 41
156.0
 68
     1
 69
     1
 12
0.0
 22
-211.1019991391
 13
0.0
 23
0.0
 14
10.0
 24
10.0
 15
10.0
 25
10.0
 16
0.0
 26
0.0
 36
1.0
 17
0.0
 27
0.0
 37
0.0
 42
50.0
 43
0.0
 44
0.0
 45
1238.2879377432
 50
0.0
 51
0.0
 72
   100
 90
   557152
  1

281
     0
 71
     1
 74
     0
110
0.0
120
0.0
130
0.0
111
1.0
121
0.0
131
0.0
112
0.0
122
1.0
132
0.0
 79
     0
146
0.0
  0
ENDBLK
  5
1D
330
1B
100
AcDbEntity
  8
0
100
AcDbBlockEnd
  0
BLOCK
  5
24
330
23
100
AcDbEntity
  8
0
100
AcDbBlockBegin
  2
*Paper_Space1
 70
     0
 10
0.0
 20
0.0
 30
0.0
  3
*Paper_Space1
  1

  0
SPLINE
  5
107
330
23
100
AcDbEntity
  8
0
  6
Continuous
 62
     7
370
    25
100
AcDbSpline
210
0.0
220
0.0
230
1.0
 70
     8
 71
     3
 72
    26
 73
    22
 74
     0
 42
0.000000001
 43
0.00000001
 40
0.0
 40
0.0
 40
0.0
 40
0.0
 40
0.0815142393158001
 40
0.1577961826784171
 40
0.2276239099266394
 40
0.290055645683838
 40
0.344424897309169
 40
0.3903045259024157
 40
0.4311560988033739
 40
0.471973401917313
 40
0.5532202522734052
 40
0.5801266655688666
 40
0.6069038734334147
 40
0.6364295898491173
 40
0.6632615973941443
 40
0.6949118137275038
 40
0.7317934899905176
 40
0.774143382572277
 40
0.8393256865821935
 40
0.914602570917875
 40
1.0
 40
1.0
 40
1.0
 40
1.0
 10
168.6349757369484
 20
-400.6052881962297
 30
0.0
 10
170.921509545721
 20
-400.472614250679
 30
0.0
 10
175.3478074492274
 20
-400.2157825323866
 30
0.0
 10
181.6091491798061
 20
-398.8331387429445
 30
0.0
 10
187.1653424911532
 20
-396.9654665835196
 30
0.0
 10
191.9330777601527
 20
-394.7720962981505
 30
0.0
 10
195.893853116535
 20
-392.4878013465817
 30
0.0
 10
199.1604520340887
 20
-390.2403517874055
 30
0.0
 10
201.9668672663686
 20
-388.0110030491374
 30
0.0
 10
205.3592849461536
 20
-384.9386391135232
 30
0.0
 10
208.1842435525221
 20
-381.8331920708775
 30
0.0
 10
210.4843456971101
 20
-378.8225328264796
 30
0.0
 10
211.8250314160116
 20
-376.9048131346145
 30
0.0
 10
213.0692536614682
 20
-374.9397712976835
 30
0.0
 10
214.1787904828276
 20
-373.0092690965069
 30
0.0
 10
215.2129503343665
 20
-371.0310440302829
 30
0.0
 10
216.2307680978887
 20
-368.8573505501879
 30
0.0
 10
217.3432743300029
 20
-366.1616114854788
 30
0.0
 10
218.4542348326382
 20
-362.9255351816548
 30
0.0
 10
219.4809643589848
 20
-359.1203580138243
 30
0.0
 10
219.9152975859937
 20
-356.5797595544398
 30
0.0
 10
220.1461430781108
 20
-355.2294467872878
 30
0.0
  0
SPLINE
  5
108
330
23
100
AcDbEntity
  8
0
  6
Continuous
 62
     7
370
    25
100
AcDbSpline
210
0.0
220
0.0
230
1.0
 70
     8
 71
     3
 72
    26
 73
    22
 74
     0
 42
0.000000001
 43
0.00000001
 40
0.0
 40
0.0
 40
0.0
 40
0.0
 40
0.0801195514671266
 40
0.1509447637622608
 40
0.212645140551974
 40
0.2531168169939324
 40
0.2888323563129664
 40
0.3201133103205064
 40
0.3474572562303034
 40
0.3791221343650097
 40
0.4090554201397987
 40
0.4386956585832716
 40
0.5254499868700896
 40
0.5674810834929296
 40
0.6084789310070909
 40
0.6532183327846901
 40
0.7070028539667358
 40
0.7694094566642548
 40
0.8397533257246126
 40
0.9170490041052982
 40
1.0
 40
1.0
 40
1.0
 40
1.0
 10
-220.1461518923622
 20
-355.2293878097535
 30
0.0
 10
-219.9462720566237
 20
-356.4179976402729
 30
0.0
 10
-219.5696996216322
 20
-358.6573315704793
 30
0.0
 10
-218.6930627015325
 20
-362.0924443779699
 30
0.0
 10
-217.7301635869653
 20
-365.0863572118083
 30
0.0
 10
-216.7429967180846
 20
-367.6489738723584
 30
0.0
 10
-215.8133153608759
 20
-369.7755454986661
 30
0.0
 10
-214.8372503048009
 20
-371.7705734251826
 30
0.0
 10
-213.7406741038677
 20
-373.7996651165399
 30
0.0
 10
-212.4588028409287
 20
-375.935576771244
 30
0.0
 10
-211.0335280245835
 20
-378.0630241831444
 30
0.0
 10
-208.5907956359441
 20
-381.3637493624116
 30
0.0
 10
-205.6142525727342
 20
-384.6941695084046
 30
0.0
 10
-202.0880868931425
 20
-387.9094970923722
 30
0.0
 10
-199.2806313234335
 20
-390.1501257838784
 30
0.0
 10
-196.0564212952781
 20
-392.382852394068
 30
0.0
 10
-192.1468870029111
 20
-394.6604603527966
 30
0.0
 10
-187.3905358024465
 20
-396.8764914123034
 30
0.0
 10
-181.8005216155159
 20
-398.7828292741684
 30
0.0
 10
-175.4592824179247
 20
-400.2048099016822
 30
0.0
 10
-170.9626410667383
 20
-400.4686858920063
 30
0.0
 10
-168.6349741747491
 20
-400.6052801538785
 30
0.0
  0
LWPOLYLINE
  5
11D
330
23
100
AcDbEntity
  8
0
  6
Continuous
 62
     7
370
    25
100
AcDbPolyline
 90
       19
 70
   128
 43
0.0
 10
222.5654311008
 20
-339.0416126418
 10
222.0100714248
 20
-341.5391897978
 10
221.1022399021
 20
-343.9666180064
 10
219.8480829659
 20
-346.3074624727
 10
218.2560918301
 20
-348.5458746129
 10
216.337045
 20
-350.6666993569
 10
214.1039352972
 20
-352.6555777548
 10
211.5718818919
 20
-354.4990441935
 10
208.7580279395
 20
-356.1846175653
 10
205.6814245134
 20
-357.7008857703
 10
202.3629016207
 20
-359.0375829819
 10
198.8249271735
 20
-360.1856591509
 10
195.0914548709
 20
-361.1373412785
 10
191.1877620218
 20
-361.886186043
 10
187.1402784055
 20
-362.4271234241
 10
182.9764073303
 20
-362.7564910293
 10
178.7243401008
 20
-362.8720588898
 10
174.4128651497
 20
-362.7730445586
 10
170.071173127
 20
-362.4601184077
  0
LWPOLYLINE
  5
120
330
23
100
AcDbEntity
  8
0
  6
Continuous
 62
     7
370
    25
100
AcDbPolyline
 90
       19
 70
   128
 43
0.0
 10
-170.071173127
 20
-362.4601184077
 10
-174.4128651497
 20
-362.7730445586
 10
-178.7243401008
 20
-362.8720588898
 10
-182.9764073303
 20
-362.7564910293
 10
-187.1402784055
 20
-362.4271234241
 10
-191.1877620218
 20
-361.886186043
 10
-195.0914548709
 20
-361.1373412785
 10
-198.8249271735
 20
-360.1856591509
 10
-202.3629016207
 20
-359.0375829819
 10
-205.6814245134
 20
-357.7008857703
 10
-208.7580279395
 20
-356.1846175653
 10
-211.5718818919
 20
-354.4990441935
 10
-214.1039352972
 20
-352.6555777548
 10
-216.337045
 20
-350.6666993569
 10
-218.2560918301
 20
-348.5458746129
 10
-219.8480829659
 20
-346.3074624727
 10
-221.1022399021
 20
-343.9666180064
 10
-222.0100714248
 20
-341.5391897978
 10
-222.5654311008
 20
-339.0416126418
  0
SPLINE
  5
122
330
23
100
AcDbEntity
  8
0
  6
Continuous
 62
     7
370
    25
100
AcDbSpline
210
0.0
220
0.0
230
1.0
 70
     8
 71
     3
 72
     9
 73
     5
 74
     0
 42
0.000000001
 43
0.00000001
 40
0.0
 40
0.0
 40
0.0
 40
0.0
 40
0.5
 40
1.0
 40
1.0
 40
1.0
 40
1.0
 10
169.949787169972
 20
-362.448327391671
 30
0.0
 10
113.299858113315
 20
-362.6654328273075
 30
0.0
 10
0.0000000000000971
 20
-362.888080558103
 30
0.0
 10
-113.2998581133146
 20
-362.6654328273076
 30
0.0
 10
-169.949787169972
 20
-362.448327391671
 30
0.0
  0
SPLINE
  5
123
330
23
100
AcDbEntity
  8
0
  6
Continuous
 62
     7
370
    25
100
AcDbSpline
210
0.0
220
0.0
230
1.0
 70
     8
 71
     3
 72
     8
 73
     4
 74
     0
 42
0.000000001
 43
0.00000001
 40
0.0
 40
0.0
 40
0.0
 40
0.0
 40
1.0
 40
1.0
 40
1.0
 40
1.0
 10
-0.0000000000003473
 20
-384.6949136316075
 30
0.0
 10
56.71798992420457
 20
-384.6949136316075
 30
0.0
 10
113.4359483229644
 20
-384.5835896710095
 30
0.0
 10
170.150574953215
 20
-384.3664843305735
 30
0.0
  0
SPLINE
  5
124
330
23
100
AcDbEntity
  8
0
  6
Continuous
 62
     7
370
    25
100
AcDbSpline
210
0.0
220
0.0
230
1.0
 70
     8
 71
     3
 72
     8
 73
     4
 74
     0
 42
0.000000001
 43
0.00000001
 40
0.0
 40
0.0
 40
0.0
 40
0.0
 40
1.0
 40
1.0
 40
1.0
 40
1.0
 10
-170.150574953215
 20
-384.3664843305735
 30
0.0
 10
-113.4359483229646
 20
-384.583589671009
 30
0.0
 10
-56.71798992420492
 20
-384.6949136316075
 30
0.0
 10
-0.0000000000003473
 20
-384.6949136316075
 30
0.0
  0
LWPOLYLINE
  5
127
330
23
100
AcDbEntity
  8
0
  6
Continuous
 62
     7
370
    25
100
AcDbPolyline
 90
       12
 70
   128
 43
0.0
 10
170.071173127
 20
-362.4601184077
 10
170.0841318046
 20
-365.9513540258
 10
170.0961480213
 20
-369.1986470106
 10
170.1071374804
 20
-372.1792167967
 10
170.117023088
 20
-374.8721539482
 10
170.1257354942
 20
-377.2585668433
 10
170.1332135793
 20
-379.3217142039
 10
170.1394048827
 20
-381.0471225398
 10
170.1442659707
 20
-382.4226876838
 10
170.1477627418
 20
-383.4387597054
 10
170.1498706652
 20
-384.0882106073
 10
170.1505749532
 20
-384.3664843306
  0
LWPOLYLINE
  5
128
330
23
100
AcDbEntity
  8
0
  6
Continuous
 62
     7
370
    25
100
AcDbPolyline
 90
       12
 70
   128
 43
0.0
 10
-170.071173127
 20
-362.4601184077
 10
-170.0841318046
 20
-365.9513540258
 10
-170.0961480213
 20
-369.1986470106
 10
-170.1071374804
 20
-372.1792167967
 10
-170.117023088
 20
-374.8721539482
 10
-170.1257354942
 20
-377.2585668433
 10
-170.1332135793
 20
-379.3217142039
 10
-170.1394048827
 20
-381.0471225398
 10
-170.1442659707
 20
-382.4226876838
 10
-170.1477627418
 20
-383.4387597054
 10
-170.1498706652
 20
-384.0882106073
 10
-170.1505749532
 20
-384.3664843306
  0
SPLINE
  5
12D
330
23
100
AcDbEntity
  8
0
  6
Continuous
 62
     7
370
    25
100
AcDbSpline
210
0.0
220
0.0
230
1.0
 70
    24
 71
     3
 72
    13
 73
     9
 74
     0
 42
0.000000001
 43
0.00000001
 40
0.0
 40
0.0
 40
0.0
 40
0.0
 40
0.0704762591556309
 40
0.1771443796769038
 40
0.283810939198399
 40
0.390477315720442
 40
0.4971437105304015
 40
1.0
 40
1.0
 40
1.0
 40
1.0
 10
220.163620311602
 20
-355.1125038873834
 30
0.0
 10
220.1754967079671
 20
-355.0330370637558
 30
0.0
 10
220.2053484182042
 20
-354.8332946065785
 30
0.0
 10
220.4010278745507
 20
-353.5239727915346
 30
0.0
 10
220.6441084631209
 20
-351.8974825949102
 30
0.0
 10
220.9144278469519
 20
-350.0887333634514
 30
0.0
 10
221.5404404178864
 20
-345.8999854441778
 30
0.0
 10
222.102079110428
 20
-342.1419732028977
 30
0.0
 10
222.5654311008265
 20
-339.0416126418055
 30
0.0
  0
SPLINE
  5
12F
330
23
100
AcDbEntity
  8
0
  6
Continuous
 62
     7
370
    25
100
AcDbSpline
210
0.0
220
0.0
230
1.0
 70
    24
 71
     3
 72
    13
 73
     9
 74
     0
 42
0.000000001
 43
0.00000001
 40
0.0
 40
0.0
 40
0.0
 40
0.0
 40
0.3199988509863007
 40
0.63999660206338
 40
0.740566779915758
 40
0.8411365492570222
 40
0.9417066291313888
 40
1.0
 40
1.0
 40
1.0
 40
1.0
 10
-222.565431100826
 20
-339.041612641807
 30
0.0
 10
-222.271374060306
 20
-341.0091942429033
 30
0.0
 10
-221.6832609900073
 20
-344.9443506820684
 30
0.0
 10
-221.0191853821186
 20
-349.3877843285091
 30
0.0
 10
-220.5853861058447
 20
-352.2904030621258
 30
0.0
 10
-220.3631299138876
 20
-353.7775539674456
 30
0.0
 10
-220.1923773326459
 20
-354.920086166629
 30
0.0
 10
-220.1711798114246
 20
-355.061922092986
 30
0.0
 10
-220.163401590819
 20
-355.1139673823144
 30
0.0
  0
SPLINE
  5
136
330
23
100
AcDbEntity
  8
0
  6
Continuous
 62
     8
370
    25
100
AcDbSpline
210
0.0
220
0.0
230
1.0
 70
     8
 71
     3
 72
    46
 73
    42
 74
     0
 42
0.000000001
 43
0.00000001
 40
0.0
 40
0.0
 40
0.0
 40
0.0
 40
0.036530376951382
 40
0.0718280811266837
 40
0.1058930895256113
 40
0.1387791822855521
 40
0.1741304909996181
 40
0.2075254355179867
 40
0.2423245808299514
 40
0.2756989321868906
 40
0.3105266332773636
 40
0.3555694365542527
 40
0.4011532900187893
 40
0.4469538488864968
 40
0.4732980964808967
 40
0.5002814988009359
 40
0.5273114696674291
 40
0.5530933784669859
 40
0.5677049318388954
 40
0.5819467926260433
 40
0.5958191562801413
 40
0.609322409985928
 40
0.6224819154859164
 40
0.6366459021488486
 40
0.6504141993836775
 40
0.6631318903792014
 40
0.6759813207627317
 40
0.6884848889068171
 40
0.70137152229046
 40
0.7141241572054933
 40
0.7265666679142445
 40
0.7495524093501419
 40
0.7722693029838172
 40
0.794699337580596
 40
0.8176933144890934
 40
0.8403612831659759
 40
0.8628702082629361
 40
0.90347176261413
 40
0.9439724279748537
 40
0.9845091604850197
 40
1.0
 40
1.0
 40
1.0
 40
1.0
 10
170.150574953215
 20
-384.3664843305735
 30
0.0
 10
170.1183222918421
 20
-384.5995143126215
 30
0.0
 10
170.0549052956057
 20
-385.0577109657182
 30
0.0
 10
169.9623589328449
 20
-385.7321503571164
 30
0.0
 10
169.8721275867148
 20
-386.3825533107527
 30
0.0
 10
169.7824384856282
 20
-387.0323322399292
 30
0.0
 10
169.6955720982753
 20
-387.6767789074385
 30
0.0
 10
169.60709201695
 20
-388.3321158731881
 30
0.0
 10
169.5221818256808
 20
-388.9735753725464
 30
0.0
 10
169.4362587654142
 20
-389.6225194836365
 30
0.0
 10
169.3442205193636
 20
-390.3340359659372
 30
0.0
 10
169.2433906904816
 20
-391.1193498175713
 30
0.0
 10
169.1372680259971
 20
-391.9689991340941
 30
0.0
 10
169.0497568691208
 20
-392.697556686342
 30
0.0
 10
168.9771735791655
 20
-393.3071800086374
 30
0.0
 10
168.9211618917112
 20
-393.7987307373627
 30
0.0
 10
168.8681448874488
 20
-394.2837942610612
 30
0.0
 10
168.8230362462649
 20
-394.6907569215692
 30
0.0
 10
168.7899172601211
 20
-395.0184252464971
 30
0.0
 10
168.76489890126
 20
-395.2733931360336
 30
0.0
 10
168.7405867162003
 20
-395.5204373869087
 30
0.0
 10
168.7169412091529
 20
-395.7597047185786
 30
0.0
 10
168.694210117403
 20
-395.9992409518906
 30
0.0
 10
168.6733852967792
 20
-396.2386939444312
 30
0.0
 10
168.6532918550131
 20
-396.4737702239858
 30
0.0
 10
168.6351225528953
 20
-396.6994234006974
 30
0.0
 10
168.6187971033598
 20
-396.915964430766
 30
0.0
 10
168.6029669582335
 20
-397.1314508099118
 30
0.0
 10
168.5889091055195
 20
-397.3441780737363
 30
0.0
 10
168.5759692046619
 20
-397.5541215976834
 30
0.0
 10
168.5608779765146
 20
-397.8164015261431
 30
0.0
 10
168.5465533940949
 20
-398.1266895456585
 30
0.0
 10
168.534563395893
 20
-398.4790383695634
 30
0.0
 10
168.5274673096947
 20
-398.8181303152324
 30
0.0
 10
168.527366685981
 20
-399.1408665970554
 30
0.0
 10
168.5326308652282
 20
-399.444522362607
 30
0.0
 10
168.5466140835191
 20
-399.7968165022004
 30
0.0
 10
168.5745739866531
 20
-400.1656383568854
 30
0.0
 10
168.6122138826239
 20
-400.465836796655
 30
0.0
 10
168.6365568240374
 20
-400.6147776195494
 30
0.0
 10
168.6334124798795
 20
-400.5955573228418
 30
0.0
 10
168.6325431127273
 20
-400.5902431798053
 30
0.0
  0
SPLINE
  5
138
330
23
100
AcDbEntity
  8
0
  6
Continuous
 62
     8
370
    25
100
AcDbSpline
210
0.0
220
0.0
230
1.0
 70
     8
 71
     3
 72
    38
 73
    34
 74
     0
 42
0.000000001
 43
0.00000001
 40
0.0
 40
0.0
 40
0.0
 40
0.0
 40
0.0099703032064934
 40
0.0486908667141858
 40
0.0872498980842711
 40
0.1259311644837053
 40
0.1646854635292713
 40
0.2035105249429642
 40
0.2375611147578266
 40
0.2716138684534297
 40
0.305669340246028
 40
0.3397274887180849
 40
0.3609495116994205
 40
0.3825283303842442
 40
0.4038726795923739
 40
0.4252375973449598
 40
0.4469165739850705
 40
0.4748122633796065
 40
0.5041623690715268
 40
0.5329212899644683
 40
0.5617131708662199
 40
0.591170435356722
 40
0.6194990672502261
 40
0.6653504880608141
 40
0.7107536561707769
 40
0.7559126283719605
 40
0.7913590148469921
 40
0.8254959440887669
 40
0.8609082141933517
 40
0.8938905834209426
 40
0.9280231529226649
 40
0.9633929669530589
 40
0.9999999999999999
 40
0.9999999999999999
 40
0.9999999999999999
 40
0.9999999999999999
 10
-168.6333018178763
 20
-400.5956754737987
 30
0.0
 10
-168.6340187053037
 20
-400.6002247235894
 30
0.0
 10
-168.6375196891207
 20
-400.6224413914895
 30
0.0
 10
-168.6185305500885
 20
-400.5030662376804
 30
0.0
 10
-168.5827820731823
 20
-400.2464831567788
 30
0.0
 10
-168.5499619336921
 20
-399.8598143990331
 30
0.0
 10
-168.5287165340495
 20
-399.3866109792005
 30
0.0
 10
-168.5256492253921
 20
-398.8687638640816
 30
0.0
 10
-168.5376086537826
 20
-398.3320708728187
 30
0.0
 10
-168.5611852101637
 20
-397.7915374259313
 30
0.0
 10
-168.5952534707686
 20
-397.2297506580589
 30
0.0
 10
-168.6325501249845
 20
-396.7241213996867
 30
0.0
 10
-168.6694680887672
 20
-396.2811993921865
 30
0.0
 10
-168.7025560826829
 20
-395.9071090165301
 30
0.0
 10
-168.738381049857
 20
-395.5283126768683
 30
0.0
 10
-168.776449591354
 20
-395.1455545050684
 30
0.0
 10
-168.8199165178396
 20
-394.7205698971792
 30
0.0
 10
-168.8725110796456
 20
-394.2440301402111
 30
0.0
 10
-168.9295992671891
 20
-393.7207868896971
 30
0.0
 10
-168.9912948466579
 20
-393.188598034665
 30
0.0
 10
-169.0550199995656
 20
-392.6527790982952
 30
0.0
 10
-169.119248453954
 20
-392.1170186037094
 30
0.0
 10
-169.1996224726014
 20
-391.4729975106446
 30
0.0
 10
-169.2932569877495
 20
-390.7264090540336
 30
0.0
 10
-169.4039061094021
 20
-389.8707345268713
 30
0.0
 10
-169.5083635689811
 20
-389.0772761784236
 30
0.0
 10
-169.6043555682584
 20
-388.3526847149673
 30
0.0
 10
-169.6940182833285
 20
-387.688197761097
 30
0.0
 10
-169.7816465437506
 20
-387.038060670103
 30
0.0
 10
-169.8715833791262
 20
-386.3868615576831
 30
0.0
 10
-169.962011359823
 20
-385.7349626435071
 30
0.0
 10
-170.0547186990484
 20
-385.0591484231286
 30
0.0
 10
-170.1182588022355
 20
-384.6000031300271
 30
0.0
 10
-170.150574953215
 20
-384.366484330574
 30
0.0
  0
LINE
  5
13C
330
23
100
AcDbEntity
  8
0
  6
Continuous
 62
     7
370
    25
100
AcDbLine
 10
49.235745596
 20
-403.1119757449
 30
0.0
 11
168.632977074
 21
-400.6109602764
 31
0.0
  0
LINE
  5
13D
330
23
100
AcDbEntity
  8
0
  6
Continuous
 62
     7
370
    25
100
AcDbLine
 10
-168.633621706
 20
-400.6109467733
 30
0.0
 11
-49.235745596
 21
-403.1119757449
 31
0.0
  0
LINE
  5
13E
330
23
100
AcDbEntity
  8
0
  6
Continuous
 62
     7
370
    25
100
AcDbLine
 10
28.3199981875
 20
-422.2039982781
 30
0.0
 11
44.4481579028
 21
-405.2269880515
 31
0.0
  0
LINE
  5
13F
330
23
100
AcDbEntity
  8
0
  6
Continuous
 62
     7
370
    25
100
AcDbLine
 10
-44.4481579028
 20
-405.2269880515
 30
0.0
 11
-28.3199981875
 21
-422.2039982781
 31
0.0
  0
LINE
  5
140
330
23
100
AcDbEntity
  8
0
  6
Continuous
 62
     7
370
    25
100
AcDbLine
 10
-350.0
 20
-40.0
 30
0.0
 11
-350.0
 21
-10.0
 31
0.0
  0
LINE
  5
141
330
23
100
AcDbEntity
  8
0
  6
Continuous
 62
     7
370
    25
100
AcDbLine
 10
-340.0
 20
0.0
 30
0.0
 11
-340.0
 21
-40.0
 31
0.0
  0
LINE
  5
142
330
23
100
AcDbEntity
  8
0
  6
Continuous
 62
     7
370
    25
100
AcDbLine
 10
350.0
 20
-10.0
 30
0.0
 11
-350.0
 21
-10.0
 31
0.0
  0
LINE
  5
143
330
23
100
AcDbEntity
  8
0
  6
Continuous
 62
     7
370
    25
100
AcDbLine
 10
340.0
 20
-40.0
 30
0.0
 11
340.0
 21
0.0
 31
0.0
  0
LINE
  5
144
330
23
100
AcDbEntity
  8
0
  6
Continuous
 62
     7
370
    25
100
AcDbLine
 10
-340.0
 20
0.0
 30
0.0
 11
340.0
 21
0.0
 31
0.0
  0
LINE
  5
145
330
23
100
AcDbEntity
  8
0
  6
Continuous
 62
     7
370
    25
100
AcDbLine
 10
350.0
 20
-10.0
 30
0.0
 11
350.0
 21
-40.0
 31
0.0
  0
LINE
  5
146
330
23
100
AcDbEntity
  8
0
  6
Continuous
 62
     7
370
    25
100
AcDbLine
 10
-350.0
 20
-40.0
 30
0.0
 11
350.0
 21
-40.0
 31
0.0
  0
LINE
  5
147
330
23
100
AcDbEntity
  8
0
  6
Continuous
 62
     7
370
    25
100
AcDbLine
 10
222.5654311008
 20
-339.0416126418
 30
0.0
 11
267.2574995552
 21
-40.0
 31
0.0
  0
LINE
  5
148
330
23
100
AcDbEntity
  8
0
  6
Continuous
 62
     7
370
    25
100
AcDbLine
 10
169.94978717
 20
-362.4483273917
 30
0.0
 11
170.071173127
 21
-362.4601184077
 31
0.0
  0
LINE
  5
149
330
23
100
AcDbEntity
  8
0
  6
Continuous
 62
     7
370
    25
100
AcDbLine
 10
-170.071173127
 20
-362.4601184077
 30
0.0
 11
-169.94978717
 21
-362.4483273917
 31
0.0
  0
LINE
  5
14A
330
23
100
AcDbEntity
  8
0
  6
Continuous
 62
     7
370
    25
100
AcDbLine
 10
-267.2574995552
 20
-40.0
 30
0.0
 11
-222.5654311008
 21
-339.0416126418
 31
0.0
  0
LINE
  5
14B
330
23
100
AcDbEntity
  8
0
  6
Continuous
 62
     7
370
    25
100
AcDbLine
 10
0.0
 20
-422.2039982781
 30
0.0
 11
0.0
 21
-384.6949136316
 31
0.0
  0
LINE
  5
14C
330
23
100
AcDbEntity
  8
0
  6
Continuous
 62
     7
370
    25
100
AcDbLine
 10
219.775425425
 20
-357.2822697402
 30
0.0
 11
220.1620461109
 21
-355.1133454291
 31
0.0
  0
LINE
  5
14D
330
23
100
AcDbEntity
  8
0
  6
Continuous
 62
     7
370
    25
100
AcDbLine
 10
-220.1618530257
 20
-355.1145754723
 30
0.0
 11
-219.8224137217
 21
-357.0441534799
 31
0.0
  0
LINE
  5
14E
330
23
100
AcDbEntity
  8
0
  6
Continuous
 62
     7
370
    25
100
AcDbLine
 10
-28.3199981875
 20
-422.2039982781
 30
0.0
 11
28.3199981875
 21
-422.2039982781
 31
0.0
  0
LINE
  5
14F
330
23
100
AcDbEntity
  8
0
  6
Continuous
 62
     8
370
    25
100
AcDbLine
 10
218.140012582
 20
-40.0
 30
0.0
 11
169.94978717
 21
-362.4483273917
 31
0.0
  0
LINE
  5
150
330
23
100
AcDbEntity
  8
0
  6
Continuous
 62
     8
370
    25
100
AcDbLine
 10
-169.94978717
 20
-362.4483273917
 30
0.0
 11
-218.140012582
 21
-40.0
 31
0.0
  0
LINE
  5
151
330
23
100
AcDbEntity
  8
0
  6
Continuous
 62
     8
370
    25
100
AcDbLine
 10
49.235745596
 20
-403.1119757449
 30
0.0
 11
-49.235745596
 21
-403.1119757449
 31
0.0
  0
LINE
  5
152
330
23
100
AcDbEntity
  8
0
  6
Continuous
 62
     8
370
    25
100
AcDbLine
 10
-44.4481579028
 20
-405.2269880515
 30
0.0
 11
44.4481579028
 21
-405.2269880515
 31
0.0
  0
ARC
  5
153
330
23
100
AcDbEntity
  8
0
  6
Continuous
 62
     7
370
    25
100
AcDbCircle
 10
-49.3781540512
 20
-409.9104843925
 30
0.0
 40
6.800000000000144
100
AcDbArc
 50
43.5311992856
 51
88.8
  0
ARC
  5
154
330
23
100
AcDbEntity
  8
0
  6
Continuous
 62
     7
370
    25
100
AcDbCircle
 10
49.3781540512
 20
-409.9104843925
 30
0.0
 40
6.799999999999857
100
AcDbArc
 50
91.2
 51
136.4688007144
  0
ARC
  5
155
330
23
100
AcDbEntity
  8
0
  6
Continuous
 62
     7
370
    25
100
AcDbCircle
 10
340.0
 20
-10.0
 30
0.0
 40
10.00000000000017
100
AcDbArc
 50
0.0
 51
90.0
  0
ARC
  5
156
330
23
100
AcDbEntity
  8
0
  6
Continuous
 62
     7
370
    25
100
AcDbCircle
 10
-340.0
 20
-10.0
 30
0.0
 40
10.00000000000006
100
AcDbArc
 50
90.0
 51
180.0
  0
ARC
  5
157
330
23
100
AcDbEntity
  8
0
  6
Continuous
 62
     7
370
    25
100
AcDbCircle
 10
-1512.6255706815
 20
-361.1083454488
 30
0.0
 40
1342.67645215811
100
AcDbArc
 50
359.0074601763
 51
359.9428191933
  0
ARC
  5
158
330
23
100
AcDbEntity
  8
0
  6
Continuous
 62
     7
370
    25
100
AcDbCircle
 10
1512.6255706954
 20
-361.1083454487
 30
0.0
 40
1342.676452172032
100
AcDbArc
 50
180.0571808067
 51
180.9925398237
  0
ARC
  5
159
330
23
100
AcDbEntity
  8
0
  6
Continuous
 62
     7
370
    25
100
AcDbCircle
 10
169.9584050562
 20
-331.1748692864
 30
0.0
 40
53.19196217734254
100
AcDbArc
 50
270.2069964624
 51
351.4951308133
  0
ARC
  5
15A
330
23
100
AcDbEntity
  8
0
  6
Continuous
 62
     7
370
    25
100
AcDbCircle
 10
-169.9581973191
 20
-331.1746290538
 30
0.0
 40
53.19220315930541
100
AcDbArc
 50
188.5050920136
 51
269.7927807107
  0
VIEWPORT
  5
358
330
23
100
AcDbEntity
  8
0
100
AcDbViewport
 10
0.0
 20
0.0
 30
0.0
 40
205.6
 41
156.0
 68
     1
 69
     1
 12
0.0
 22
-211.1019991391
 13
0.0
 23
0.0
 14
10.0
 24
10.0
 15
10.0
 25
10.0
 16
0.0
 26
0.0
 36
1.0
 17
0.0
 27
0.0
 37
0.0
 42
50.0
 43
0.0
 44
0.0
 45
1238.2879377432
 50
0.0
 51
0.0
 72
   100
 90
   557152
  1

281
     0
 71
     1
 74
     0
110
0.0
120
0.0
130
0.0
111
1.0
121
0.0
131
0.0
112
0.0
122
1.0
132
0.0
 79
     0
146
0.0
  0
ENDBLK
  5
25
330
23
100
AcDbEntity
  8
0
100
AcDbBlockEnd
  0
BLOCK
  5
15D
330
15B
100
AcDbEntity
  8
0
100
AcDbBlockBegin
  2
*Paper_Space2
 70
     0
 10
0.0
 20
0.0
 30
0.0
  3
*Paper_Space2
  1

  0
LWPOLYLINE
  5
15F
330
15B
100
AcDbEntity
  8
0
  6
Continuous
 62
     7
370
    25
100
AcDbPolyline
 90
       18
 70
   128
 43
0.0
 10
458.0242244758
 20
-170.063871716
 10
457.5556131902
 20
-174.3838258564
 10
456.7836035383
 20
-178.6701261395
 10
455.7140549871
 20
-182.8902400259
 10
454.3550852903
 20
-187.0121373237
 10
452.7170088758
 20
-191.0045332937
 10
450.8122585603
 20
-194.8371260975
 10
448.6552911854
 20
-198.4808267846
 10
446.262477892
 20
-201.9079800747
 10
443.6519798652
 20
-205.092574258
 10
440.8436104928
 20
-208.0104386211
 10
437.858684984
 20
-210.6394269
 10
434.7198585893
 20
-212.9595853681
 10
431.4509546497
 20
-214.9533042823
 10
428.07678378
 20
-216.6054515391
 10
424.6229555597
 20
-217.9034875259
 10
421.1156841582
 20
-218.8375602948
 10
417.5815893728
 20
-219.4005803381
  0
SPLINE
  5
162
330
15B
100
AcDbEntity
  8
0
  6
Continuous
 62
     7
370
    25
100
AcDbSpline
210
0.0
220
0.0
230
1.0
 70
     8
 71
     3
 72
    42
 73
    38
 74
     0
 42
0.000000001
 43
0.00000001
 40
0.0
 40
0.0
 40
0.0
 40
0.0
 40
0.0113531841711363
 40
0.0225531994548803
 40
0.0336000905441097
 40
0.0444939040186178
 40
0.0552346884520612
 40
0.0658224945265518
 40
0.076257375155556
 40
0.086539385615817
 40
0.0966685836891077
 40
0.1066450298147128
 40
0.1164687872536051
 40
0.1261399222653961
 40
0.1356585042992944
 40
0.207368040473144
 40
0.2740093002092376
 40
0.3447238643076304
 40
0.4111368455138923
 40
0.4790882677805204
 40
0.5434429459146509
 40
0.6073531054326822
 40
0.6685304394463932
 40
0.727949838422732
 40
0.7856881453113622
 40
0.8134342264633808
 40
0.8409928529544389
 40
0.8684081349969969
 40
0.8957248772168261
 40
0.9086912137174483
 40
0.9216673297619484
 40
0.9346580832979012
 40
0.9476683158762216
 40
0.9607028473419332
 40
0.9737664706447458
 40
0.9868639467964112
 40
1.0
 40
1.0
 40
1.0
 40
1.0
 10
657.3745652384628
 20
-268.7263926315302
 30
0.0
 10
657.6905140352902
 20
-268.7295232744887
 30
0.0
 10
658.3181490780205
 20
-268.7357423240524
 30
0.0
 10
659.2532917136986
 20
-268.7318473520285
 30
0.0
 10
660.1755641337769
 20
-268.7185958974314
 30
0.0
 10
661.0848776263382
 20
-268.6954265440171
 30
0.0
 10
661.9811336039112
 20
-268.6629523802703
 30
0.0
 10
662.8642459999384
 20
-268.6214734283925
 30
0.0
 10
663.7341350770711
 20
-268.5713667743966
 30
0.0
 10
664.5907288249248
 20
-268.5129840094321
 30
0.0
 10
665.4339620460413
 20
-268.446677941618
 30
0.0
 10
666.2637772214603
 20
-268.3727953698269
 30
0.0
 10
667.0801206331261
 20
-268.2916789584707
 30
0.0
 10
667.8829553306103
 20
-268.2036660471464
 30
0.0
 10
670.3953299981887
 20
-267.9026129043903
 30
0.0
 10
674.4628613951745
 20
-267.2373549519698
 30
0.0
 10
680.123986404419
 20
-265.8575629944222
 30
0.0
 10
685.517784840062
 20
-264.0674563460773
 30
0.0
 10
690.7699606034006
 20
-261.799100096945
 30
0.0
 10
695.6378279272956
 20
-259.1380888544451
 30
0.0
 10
700.1630036816655
 20
-256.0468538044838
 30
0.0
 10
704.1991256112947
 20
-252.6195757235485
 30
0.0
 10
707.7389036896724
 20
-248.8653241319265
 30
0.0
 10
710.7210928859273
 20
-244.8647010506433
 30
0.0
 10
712.7409065167465
 20
-241.3456507049746
 30
0.0
 10
714.0559064118445
 20
-238.4733248225859
 30
0.0
 10
714.8900576728093
 20
-236.3168519750176
 30
0.0
 10
715.5882305674963
 20
-234.1251455281581
 30
0.0
 10
716.0517325146996
 20
-232.2902101722769
 30
0.0
 10
716.3507836949398
 20
-230.832503149139
 30
0.0
 10
716.5384110434651
 20
-229.7609744490183
 30
0.0
 10
716.6950911307125
 20
-228.683266034216
 30
0.0
 10
716.8206569895721
 20
-227.5998698005027
 30
0.0
 10
716.915201112059
 20
-226.511292633205
 30
0.0
 10
716.9778658215889
 20
-225.4180548713312
 30
0.0
 10
717.0113995247527
 20
-224.3206238432727
 30
0.0
 10
717.0071916049975
 20
-223.587826656741
 30
0.0
 10
717.0050845511947
 20
-223.2208892653071
 30
0.0
  0
LWPOLYLINE
  5
165
330
15B
100
AcDbEntity
  8
0
  6
Continuous
 62
     7
370
    25
100
AcDbPolyline
 90
       18
 70
   128
 43
0.0
 10
417.5815893728
 20
219.4005803381
 10
421.1156841582
 20
218.8375602948
 10
424.6229555597
 20
217.9034875259
 10
428.07678378
 20
216.6054515391
 10
431.4509546497
 20
214.9533042823
 10
434.7198585893
 20
212.9595853681
 10
437.858684984
 20
210.6394269
 10
440.8436104928
 20
208.0104386211
 10
443.6519798652
 20
205.092574258
 10
446.262477892
 20
201.9079800747
 10
448.6552911854
 20
198.4808267846
 10
450.8122585603
 20
194.8371260975
 10
452.7170088758
 20
191.0045332937
 10
454.3550852903
 20
187.0121373237
 10
455.7140549871
 20
182.8902400259
 10
456.7836035383
 20
178.6701261395
 10
457.5556131902
 20
174.3838258564
 10
458.0242244758
 20
170.063871716
  0
SPLINE
  5
167
330
15B
100
AcDbEntity
  8
0
  6
Continuous
 62
     7
370
    25
100
AcDbSpline
210
0.0
220
0.0
230
1.0
 70
     8
 71
     3
 72
    42
 73
    38
 74
     0
 42
0.000000001
 43
0.00000001
 40
0.0
 40
0.0
 40
0.0
 40
0.0
 40
0.0075114271904242
 40
0.0150096086003917
 40
0.0224954208734355
 40
0.029969745005317
 40
0.0374334660598797
 40
0.044887472877891
 40
0.0523326577793072
 40
0.0597699162594412
 40
0.0672001466794953
 40
0.0746242499519846
 40
0.0820431292215785
 40
0.0894576895419043
 40
0.0968688375488855
 40
0.1042774811311999
 40
0.1315938949603904
 40
0.1590090507053571
 40
0.1865677534267669
 40
0.2143141127910892
 40
0.2720519365179694
 40
0.3314717119704295
 40
0.392648531485223
 40
0.4565590916359111
 40
0.5209132267198189
 40
0.588865071594567
 40
0.6552774896351813
 40
0.7259924920499355
 40
0.7926331837505861
 40
0.864343161970163
 40
0.8821416001817923
 40
0.9004664312362107
 40
0.9193180735905692
 40
0.9386969114852738
 40
0.958603298542963
 40
0.9790375609087835
 40
1.0
 40
1.0
 40
1.0
 40
1.0
 10
717.0050845511952
 20
223.220889265307
 30
0.0
 10
717.007028279686
 20
223.4306942402506
 30
0.0
 10
717.0109123090634
 20
223.8499342164209
 30
0.0
 10
717.0037178527581
 20
224.4782988242704
 30
0.0
 10
716.9869930581332
 20
225.1054380860972
 30
0.0
 10
716.9598227526127
 20
225.7312707647229
 30
0.0
 10
716.9224717991053
 20
226.3556973488727
 30
0.0
 10
716.8748908265392
 20
226.9786235134286
 30
0.0
 10
716.817115672363
 20
227.5999538697234
 30
0.0
 10
716.7491605827424
 20
228.2195936429948
 30
0.0
 10
716.6710467500264
 20
228.8374482865684
 30
0.0
 10
716.582794733249
 20
229.4534234376124
 30
0.0
 10
716.4844262565074
 20
230.0674255645342
 30
0.0
 10
716.3759645505655
 20
230.6793595096989
 30
0.0
 10
716.257431160701
 20
231.2891377491781
 30
0.0
 10
716.0136911051289
 20
232.4408124546287
 30
0.0
 10
715.5882335290556
 20
234.1251375627753
 30
0.0
 10
714.8900678707818
 20
236.3168223056475
 30
0.0
 10
714.0559133442222
 20
238.4733070586255
 30
0.0
 10
712.7409164056805
 20
241.3456321922145
 30
0.0
 10
710.7210993805265
 20
244.8646909526548
 30
0.0
 10
707.7389196629729
 20
248.8653050833676
 30
0.0
 10
704.1991350584642
 20
252.6195668851499
 30
0.0
 10
700.1630245831718
 20
256.0468378122108
 30
0.0
 10
695.6378394976541
 20
259.1380818468205
 30
0.0
 10
690.769985777217
 20
261.7990879689787
 30
0.0
 10
685.5177962485931
 20
264.0674515317004
 30
0.0
 10
680.1240205198451
 20
265.8575548470766
 30
0.0
 10
674.4628497898295
 20
267.2373534879677
 30
0.0
 10
670.1676551010986
 20
267.9398585695781
 30
0.0
 10
667.1856633711794
 20
268.2839553691317
 30
0.0
 10
665.6623638127853
 20
268.4307339973876
 30
0.0
 10
664.0927489478047
 20
268.5516759998017
 30
0.0
 10
662.4771688810899
 20
268.6447601802648
 30
0.0
 10
660.8161049386287
 20
268.7069059319832
 30
0.0
 10
659.1100585618942
 20
268.7388884687763
 30
0.0
 10
657.9579628408959
 20
268.7305931901792
 30
0.0
 10
657.3745652384629
 20
268.7263926315305
 30
0.0
  0
SPLINE
  5
16C
330
15B
100
AcDbEntity
  8
0
  6
Continuous
 62
     7
370
    25
100
AcDbSpline
210
0.0
220
0.0
230
1.0
 70
     8
 71
     3
 72
    39
 73
    35
 74
     0
 42
0.000000001
 43
0.00000001
 40
0.0
 40
0.0
 40
0.0
 40
0.0
 40
0.0093570848510056
 40
0.0186688307352197
 40
0.0279352979818869
 40
0.0371565478090954
 40
0.0463326423400824
 40
0.0554636446198841
 40
0.0645496186323297
 40
0.0735906293174038
 40
0.0825867425889677
 40
0.09153802535285
 40
0.1004445455253363
 40
0.1093063720520221
 40
0.1181235749270984
 40
0.1809217449516749
 40
0.2422267936129054
 40
0.3069026333415362
 40
0.3705526376727945
 40
0.4360157437473672
 40
0.5009797527012525
 40
0.5660851446612033
 40
0.6312426582716286
 40
0.6948911569925149
 40
0.7591157544307392
 40
0.8203333443280093
 40
0.8825798049387985
 40
0.8990142780119103
 40
0.9155610880889773
 40
0.9322208125797597
 40
0.9489940172307476
 40
0.9658812563810031
 40
0.9828830732132205
 40
1.0
 40
1.0
 40
1.0
 40
1.0
 10
-669.0291668297153
 20
268.72639263153
 30
0.0
 10
-669.2715877590367
 20
268.7266073063115
 30
0.0
 10
-669.755254987478
 20
268.7270356156858
 30
0.0
 10
-670.4789273061222
 20
268.7146858434582
 30
0.0
 10
-671.1988490031085
 20
268.6929699937324
 30
0.0
 10
-671.9148914342035
 20
268.6610967595036
 30
0.0
 10
-672.6269226363238
 20
268.6194517563269
 30
0.0
 10
-673.3348161672482
 20
268.568108902507
 30
0.0
 10
-674.038448709529
 20
268.5072262809747
 30
0.0
 10
-674.7377007663986
 20
268.4369407192708
 30
0.0
 10
-675.4324561435321
 20
268.3573958182777
 30
0.0
 10
-676.1226031963776
 20
268.2687340642943
 30
0.0
 10
-676.8080302559196
 20
268.1711000674825
 30
0.0
 10
-677.4886424191817
 20
268.0646350208282
 30
0.0
 10
-679.5442763205696
 20
267.7143305560499
 30
0.0
 10
-682.9086946463757
 20
266.9475276264291
 30
0.0
 10
-687.5578977730676
 20
265.402186311477
 30
0.0
 10
-692.0532894091002
 20
263.3942149485893
 30
0.0
 10
-696.4145903635916
 20
260.8856574906602
 30
0.0
 10
-700.5010794836869
 20
257.9359592353278
 30
0.0
 10
-704.2846991483078
 20
254.5496873576756
 30
0.0
 10
-707.6878674276876
 20
250.7917040618432
 30
0.0
 10
-710.6579868969354
 20
246.7250631260601
 30
0.0
 10
-713.1790709387044
 20
242.3930804352894
 30
0.0
 10
-715.2011326464419
 20
237.9187710132614
 30
0.0
 10
-716.7538937471041
 20
233.3009615611477
 30
0.0
 10
-717.5698674908792
 20
229.7614792908727
 30
0.0
 10
-717.9747200293851
 20
227.3269458609707
 30
0.0
 10
-718.1529540122143
 20
226.0527612348022
 30
0.0
 10
-718.2990179523292
 20
224.7657129223576
 30
0.0
 10
-718.4124570643588
 20
223.4665272888593
 30
0.0
 10
-718.4917607281715
 20
222.1560086694493
 30
0.0
 10
-718.5394258793202
 20
220.83495821531
 30
0.0
 10
-718.5417518650678
 20
219.9508451700816
 30
0.0
 10
-718.5429187816516
 20
219.507297235392
 30
0.0
  0
SPLINE
  5
170
330
15B
100
AcDbEntity
  8
0
  6
Continuous
 62
     7
370
    25
100
AcDbSpline
210
0.0
220
0.0
230
1.0
 70
     8
 71
     3
 72
    39
 73
    35
 74
     0
 42
0.000000001
 43
0.00000001
 40
0.0
 40
0.0
 40
0.0
 40
0.0
 40
0.0092312516229248
 40
0.0184290698321042
 40
0.0275935365758533
 40
0.0367247347004849
 40
0.0458227479611959
 40
0.0548876610330693
 40
0.0639195595222005
 40
0.072918529976926
 40
0.0818846598991836
 40
0.090818037755976
 40
0.0997187529909624
 40
0.108586896036156
 40
0.1174225583237412
 40
0.1796684586646078
 40
0.2408866037639019
 40
0.3051106204935013
 40
0.3687596946699941
 40
0.4339166167750858
 40
0.4990225948889227
 40
0.5639860114723395
 40
0.6294497045572203
 40
0.6930991252697326
 40
0.7577755433410531
 40
0.819080027140735
 40
0.8818787569184331
 40
0.8982886212524986
 40
0.9148526389102227
 40
0.9315712495386096
 40
0.9484448806947889
 40
0.9654739482533844
 40
0.9826588567983627
 40
1.0
 40
1.0
 40
1.0
 40
1.0
 10
-718.5429187816516
 20
-219.5072972353921
 30
0.0
 10
-718.5431282036827
 20
-219.7464951017525
 30
0.0
 10
-718.5435462892682
 20
-220.2240245162795
 30
0.0
 10
-718.5312763485794
 20
-220.9389529577567
 30
0.0
 10
-718.5096684969768
 20
-221.6510569151327
 30
0.0
 10
-718.4778994531692
 20
-222.3602078626701
 30
0.0
 10
-718.4363159801059
 20
-223.0662729606845
 30
0.0
 10
-718.3849548050557
 20
-223.7691238646443
 30
0.0
 10
-718.323936979717
 20
-224.4686343586476
 30
0.0
 10
-718.2533626875894
 20
-225.1646810715395
 30
0.0
 10
-718.1733392962739
 20
-225.8571429771377
 30
0.0
 10
-718.083973461975
 20
-226.5459026757294
 30
0.0
 10
-717.9853744490417
 20
-227.2308417856226
 30
0.0
 10
-717.8776483944514
 20
-227.9118579972593
 30
0.0
 10
-717.5255688563552
 20
-229.9536316261512
 30
0.0
 10
-716.7538895205496
 20
-233.3009829802524
 30
0.0
 10
-715.2011456799045
 20
-237.9187336715129
 30
0.0
 10
-713.1790772380238
 20
-242.3930696548828
 30
0.0
 10
-710.6580035965954
 20
-246.725037084743
 30
0.0
 10
-707.6878771126651
 20
-250.7916922906741
 30
0.0
 10
-704.2847208570273
 20
-254.5496657720916
 30
0.0
 10
-700.5010913370186
 20
-257.9359496104513
 30
0.0
 10
-696.4146165583347
 20
-260.8856408775216
 30
0.0
 10
-692.0533003465665
 20
-263.3942086583301
 30
0.0
 10
-687.5579351795471
 20
-265.4021734010082
 30
0.0
 10
-682.9086740215876
 20
-266.9475315291004
 30
0.0
 10
-679.3522006837966
 20
-267.7581087321074
 30
0.0
 10
-676.9033533247065
 20
-268.1606518854854
 30
0.0
 10
-675.6277912789526
 20
-268.3372300429331
 30
0.0
 10
-674.3362463507267
 20
-268.4824518891447
 30
0.0
 10
-673.0294091306578
 20
-268.5956316076982
 30
0.0
 10
-671.70805908684
 20
-268.6750242012212
 30
0.0
 10
-670.3729842297835
 20
-268.7228978744697
 30
0.0
 10
-669.4784552478511
 20
-268.7252242035345
 30
0.0
 10
-669.0291668297155
 20
-268.7263926315304
 30
0.0
  0
SPLINE
  5
172
330
15B
100
AcDbEntity
  8
0
  6
Continuous
 62
     7
370
    25
100
AcDbSpline
210
0.0
220
0.0
230
1.0
 70
     8
 71
     3
 72
    22
 73
    18
 74
     0
 42
0.000000001
 43
0.00000001
 40
0.0
 40
0.0
 40
0.0
 40
0.0
 40
0.125
 40
0.125
 40
0.25
 40
0.25
 40
0.375
 40
0.375
 40
0.5
 40
0.5
 40
0.625
 40
0.625
 40
0.75
 40
0.75
 40
0.875
 40
0.875
 40
1.0
 40
1.0
 40
1.0
 40
1.0
 10
-669.0291668297149
 20
-278.6165512651495
 30
0.0
 10
-672.5717021546
 20
-278.6165512651495
 30
0.0
 10
-676.2345800121518
 20
-278.3069354407278
 30
0.0
 10
-683.6313257109819
 20
-276.9567033373245
 30
0.0
 10
-687.3644385934023
 20
-275.9149765299941
 30
0.0
 10
-694.6793491192918
 20
-273.049214295129
 30
0.0
 10
-698.2597312833672
 20
-271.2245506077699
 30
0.0
 10
-705.0274405164703
 20
-266.8323568298858
 30
0.0
 10
-708.2131209354894
 20
-264.265107250367
 30
0.0
 10
-713.9782281858563
 20
-258.5245296444541
 30
0.0
 10
-716.5564476927468
 20
-255.3524038055371
 30
0.0
 10
-720.9674094342643
 20
-248.6134901340854
 30
0.0
 10
-722.7998699592541
 20
-245.048341945317
 30
0.0
 10
-725.6778776741975
 20
-237.7645552383989
 30
0.0
 10
-726.724055808547
 20
-234.047326176996
 30
0.0
 10
-728.0800574905014
 20
-226.6820524932088
 30
0.0
 10
-728.390996311773
 20
-223.0347596174487
 30
0.0
 10
-728.390996311773
 20
-219.507297235392
 30
0.0
  0
SPLINE
  5
176
330
15B
100
AcDbEntity
  8
0
  6
Continuous
 62
     7
370
    25
100
AcDbSpline
210
0.0
220
0.0
230
1.0
 70
     8
 71
     3
 72
    22
 73
    18
 74
     0
 42
0.000000001
 43
0.00000001
 40
0.0
 40
0.0
 40
0.0
 40
0.0
 40
0.1250000000000004
 40
0.1250000000000004
 40
0.2500000000000009
 40
0.2500000000000009
 40
0.3750000000000013
 40
0.3750000000000013
 40
0.500000000000001
 40
0.500000000000001
 40
0.6250000000000008
 40
0.6250000000000008
 40
0.7500000000000004
 40
0.7500000000000004
 40
0.8750000000000002
 40
0.8750000000000002
 40
1.0
 40
1.0
 40
1.0
 40
1.0
 10
-728.390996311773
 20
219.507297235392
 30
0.0
 10
-728.3909963117734
 20
223.0347596174487
 30
0.0
 10
-728.0800574905013
 20
226.6820524932088
 30
0.0
 10
-726.7240558085465
 20
234.0473261769959
 30
0.0
 10
-725.6778776741972
 20
237.7645552383989
 30
0.0
 10
-722.799869959254
 20
245.048341945317
 30
0.0
 10
-720.9674094342643
 20
248.6134901340855
 30
0.0
 10
-716.5564476927468
 20
255.3524038055371
 30
0.0
 10
-713.9782281858564
 20
258.524529644454
 30
0.0
 10
-708.2131209354894
 20
264.265107250367
 30
0.0
 10
-705.0274405164704
 20
266.8323568298858
 30
0.0
 10
-698.2597312833674
 20
271.2245506077699
 30
0.0
 10
-694.6793491192919
 20
273.0492142951291
 30
0.0
 10
-687.3644385934023
 20
275.9149765299941
 30
0.0
 10
-683.6313257109816
 20
276.9567033373245
 30
0.0
 10
-676.2345800121518
 20
278.3069354407278
 30
0.0
 10
-672.5717021546
 20
278.6165512651496
 30
0.0
 10
-669.0291668297149
 20
278.6165512651495
 30
0.0
  0
SPLINE
  5
178
330
15B
100
AcDbEntity
  8
0
  6
Continuous
 62
     7
370
    25
100
AcDbSpline
210
0.0
220
0.0
230
1.0
 70
     8
 71
     3
 72
    22
 73
    18
 74
     0
 42
0.000000001
 43
0.00000001
 40
0.0
 40
0.0
 40
0.0
 40
0.0
 40
0.125
 40
0.125
 40
0.25
 40
0.25
 40
0.375
 40
0.375
 40
0.5
 40
0.5
 40
0.625
 40
0.625
 40
0.75
 40
0.75
 40
0.875
 40
0.875
 40
1.0
 40
1.0
 40
1.0
 40
1.0
 10
657.3745652384621
 20
278.6165512651495
 30
0.0
 10
661.5347820319797
 20
278.6165512651496
 30
0.0
 10
665.8035078191729
 20
278.3264381893043
 30
0.0
 10
674.3643828875778
 20
277.0699556417453
 30
0.0
 10
678.6556718141643
 20
276.1027026011957
 30
0.0
 10
687.0195719781922
 20
273.4488822191102
 30
0.0
 10
691.0907459844339
 20
271.7618287329997
 30
0.0
 10
698.7593321991558
 20
267.702179407312
 30
0.0
 10
702.355154555882
 20
265.3298025846775
 30
0.0
 10
708.8523259670425
 20
260.0151031124885
 30
0.0
 10
711.7525348968574
 20
257.0737130872
 30
0.0
 10
716.7154190027638
 20
250.8007939153573
 30
0.0
 10
718.7778264326498
 20
247.470565270782
 30
0.0
 10
722.0220975352903
 20
240.6288778695783
 30
0.0
 10
723.204555515333
 20
237.1185947710038
 30
0.0
 10
724.7405939177564
 20
230.1157814960804
 30
0.0
 10
725.0952544949441
 20
226.6239550915709
 30
0.0
 10
725.0952544949439
 20
223.220889265307
 30
0.0
  0
SPLINE
  5
17B
330
15B
100
AcDbEntity
  8
0
  6
Continuous
 62
     7
370
    25
100
AcDbSpline
210
0.0
220
0.0
230
1.0
 70
     8
 71
     3
 72
    22
 73
    18
 74
     0
 42
0.000000001
 43
0.00000001
 40
0.0
 40
0.0
 40
0.0
 40
0.0
 40
0.1250000000000006
 40
0.1250000000000006
 40
0.2500000000000012
 40
0.2500000000000012
 40
0.375000000000001
 40
0.375000000000001
 40
0.5000000000000008
 40
0.5000000000000008
 40
0.6250000000000006
 40
0.6250000000000006
 40
0.7500000000000004
 40
0.7500000000000004
 40
0.8750000000000002
 40
0.8750000000000002
 40
1.0
 40
1.0
 40
1.0
 40
1.0
 10
725.0952544949439
 20
-223.220889265307
 30
0.0
 10
725.095254494944
 20
-226.6239550915708
 30
0.0
 10
724.7405939177564
 20
-230.1157814960804
 30
0.0
 10
723.2045555153328
 20
-237.1185947710037
 30
0.0
 10
722.0220975352901
 20
-240.6288778695781
 30
0.0
 10
718.7778264326497
 20
-247.4705652707819
 30
0.0
 10
716.7154190027635
 20
-250.8007939153572
 30
0.0
 10
711.7525348968574
 20
-257.0737130871997
 30
0.0
 10
708.8523259670428
 20
-260.0151031124885
 30
0.0
 10
702.3551545558822
 20
-265.3298025846773
 30
0.0
 10
698.7593321991557
 20
-267.7021794073121
 30
0.0
 10
691.0907459844342
 20
-271.7618287329997
 30
0.0
 10
687.0195719781926
 20
-273.4488822191103
 30
0.0
 10
678.6556718141644
 20
-276.1027026011956
 30
0.0
 10
674.3643828875782
 20
-277.0699556417456
 30
0.0
 10
665.8035078191728
 20
-278.3264381893044
 30
0.0
 10
661.5347820319797
 20
-278.6165512651494
 30
0.0
 10
657.3745652384621
 20
-278.6165512651495
 30
0.0
  0
SPLINE
  5
19A
330
15B
100
AcDbEntity
  8
0
  6
Continuous
 62
     7
370
    25
100
AcDbSpline
210
0.0
220
0.0
230
1.0
 70
     8
 71
     3
 72
     9
 73
     5
 74
     0
 42
0.000000001
 43
0.00000001
 40
0.0
 40
0.0
 40
0.0
 40
0.0
 40
0.5
 40
1.0
 40
1.0
 40
1.0
 40
1.0
 10
458.032439091543
 20
169.9497871699725
 30
0.0
 10
457.8747027594929
 20
113.299858113315
 30
0.0
 10
457.7129397143061
 20
0.0000000000001804
 30
0.0
 10
457.8747027594932
 20
-113.2998581133146
 30
0.0
 10
458.032439091544
 20
-169.949787169972
 30
0.0
  0
SPLINE
  5
19B
330
15B
100
AcDbEntity
  8
0
  6
Continuous
 62
     7
370
    25
100
AcDbSpline
210
0.0
220
0.0
230
1.0
 70
     8
 71
     3
 72
    38
 73
    34
 74
     0
 42
0.000000001
 43
0.00000001
 40
0.0
 40
0.0
 40
0.0
 40
0.0
 40
0.0625
 40
0.0625
 40
0.125
 40
0.125
 40
0.1875
 40
0.1875
 40
0.25
 40
0.25
 40
0.3125
 40
0.3125
 40
0.375
 40
0.375
 40
0.4375
 40
0.4375
 40
0.5
 40
0.5
 40
0.5625
 40
0.5625
 40
0.625
 40
0.625
 40
0.6875
 40
0.6875
 40
0.75
 40
0.75
 40
0.8125
 40
0.8125
 40
0.875
 40
0.875
 40
0.9375
 40
0.9375
 40
1.0
 40
1.0
 40
1.0
 40
1.0
 10
-711.3599779452859
 20
0.000000000000006
 30
0.0
 10
-711.3599779452858
 20
1.083333333333341
 30
0.0
 10
-711.3481298327126
 20
2.235048424569932
 30
0.0
 10
-711.2906844384182
 20
4.667606442686727
 30
0.0
 10
-711.2450597743918
 20
5.948800000000013
 30
0.0
 10
-711.1081359963057
 20
8.611200000000013
 30
0.0
 10
-711.0167625193848
 20
9.992761856667942
 30
0.0
 10
-710.7759908209447
 20
12.79375499726466
 30
0.0
 10
-710.6264577055385
 20
14.21333333333335
 30
0.0
 10
-710.2596975856651
 20
16.98666666666668
 30
0.0
 10
-710.0422958044688
 20
18.34002627134549
 30
0.0
 10
-709.5375905666367
 20
20.83805592043537
 30
0.0
 10
-709.2501554563934
 20
21.98154555940025
 30
0.0
 10
-708.615622377027
 20
23.90080738177626
 30
0.0
 10
-708.2685590650492
 20
24.67487179487182
 30
0.0
 10
-707.5393791817503
 20
25.72512820512823
 30
0.0
 10
-707.1575182384007
 20
26.00000000000002
 30
0.0
 10
-706.3934346553303
 20
26.00000000000002
 30
0.0
 10
-706.0115737119808
 20
25.72512820512823
 30
0.0
 10
-705.2823938286817
 20
24.67487179487181
 30
0.0
 10
-704.9353305167039
 20
23.90080738177626
 30
0.0
 10
-704.300797437338
 20
21.98154555940024
 30
0.0
 10
-704.0133623270948
 20
20.83805592043537
 30
0.0
 10
-703.5086570892629
 20
18.34002627134548
 30
0.0
 10
-703.2912553080664
 20
16.98666666666668
 30
0.0
 10
-702.9244951881926
 20
14.21333333333334
 30
0.0
 10
-702.7749620727867
 20
12.79375499726466
 30
0.0
 10
-702.5341903743468
 20
9.992761856667931
 30
0.0
 10
-702.4428168974255
 20
8.611200000000002
 30
0.0
 10
-702.3058931193397
 20
5.9488
 30
0.0
 10
-702.2602684553141
 20
4.667606442686728
 30
0.0
 10
-702.2028230610194
 20
2.235048424569934
 30
0.0
 10
-702.1909749484458
 20
1.083333333333343
 30
0.0
 10
-702.190974948446
 20
0.0000000000000092
 30
0.0
  0
SPLINE
  5
19C
330
15B
100
AcDbEntity
  8
0
  6
Continuous
 62
     7
370
    25
100
AcDbSpline
210
0.0
220
0.0
230
1.0
 70
     8
 71
     3
 72
    38
 73
    34
 74
     0
 42
0.000000001
 43
0.00000001
 40
0.0
 40
0.0
 40
0.0
 40
0.0
 40
0.0624999999999999
 40
0.0624999999999999
 40
0.1249999999999999
 40
0.1249999999999999
 40
0.1874999999999999
 40
0.1874999999999999
 40
0.2499999999999999
 40
0.2499999999999999
 40
0.3124999999999999
 40
0.3124999999999999
 40
0.3749999999999999
 40
0.3749999999999999
 40
0.4374999999999999
 40
0.4374999999999999
 40
0.4999999999999999
 40
0.4999999999999999
 40
0.5624999999999998
 40
0.5624999999999998
 40
0.6249999999999998
 40
0.6249999999999998
 40
0.6874999999999997
 40
0.6874999999999997
 40
0.7499999999999997
 40
0.7499999999999997
 40
0.8124999999999997
 40
0.8124999999999997
 40
0.8749999999999998
 40
0.8749999999999998
 40
0.9374999999999998
 40
0.9374999999999998
 40
1.0
 40
1.0
 40
1.0
 40
1.0
 10
-702.190974948446
 20
0.0000000000000092
 30
0.0
 10
-702.1909749484458
 20
-1.083333333333325
 30
0.0
 10
-702.2028230610192
 20
-2.235048424569916
 30
0.0
 10
-702.2602684553137
 20
-4.667606442686711
 30
0.0
 10
-702.3058931193395
 20
-5.948799999999997
 30
0.0
 10
-702.4428168974254
 20
-8.611199999999997
 30
0.0
 10
-702.534190374347
 20
-9.992761856667935
 30
0.0
 10
-702.7749620727866
 20
-12.79375499726465
 30
0.0
 10
-702.9244951881933
 20
-14.21333333333334
 30
0.0
 10
-703.2912553080668
 20
-16.98666666666668
 30
0.0
 10
-703.5086570892628
 20
-18.34002627134548
 30
0.0
 10
-704.0133623270946
 20
-20.83805592043537
 30
0.0
 10
-704.3007974373379
 20
-21.98154555940024
 30
0.0
 10
-704.9353305167039
 20
-23.90080738177626
 30
0.0
 10
-705.2823938286821
 20
-24.67487179487181
 30
0.0
 10
-706.0115737119808
 20
-25.72512820512821
 30
0.0
 10
-706.3934346553307
 20
-26.00000000000002
 30
0.0
 10
-707.1575182384006
 20
-26.00000000000002
 30
0.0
 10
-707.5393791817501
 20
-25.72512820512821
 30
0.0
 10
-708.268559065049
 20
-24.67487179487181
 30
0.0
 10
-708.615622377027
 20
-23.90080738177625
 30
0.0
 10
-709.2501554563934
 20
-21.98154555940024
 30
0.0
 10
-709.5375905666367
 20
-20.83805592043536
 30
0.0
 10
-710.0422958044688
 20
-18.34002627134548
 30
0.0
 10
-710.2596975856651
 20
-16.98666666666668
 30
0.0
 10
-710.6264577055385
 20
-14.21333333333334
 30
0.0
 10
-710.7759908209446
 20
-12.79375499726466
 30
0.0
 10
-711.0167625193849
 20
-9.99276185666793
 30
0.0
 10
-711.1081359963061
 20
-8.611199999999998
 30
0.0
 10
-711.2450597743921
 20
-5.948799999999994
 30
0.0
 10
-711.2906844384182
 20
-4.667606442686715
 30
0.0
 10
-711.3481298327125
 20
-2.235048424569922
 30
0.0
 10
-711.3599779452859
 20
-1.083333333333326
 30
0.0
 10
-711.3599779452859
 20
-0.0000000000000055
 30
0.0
  0
SPLINE
  5
19D
330
15B
100
AcDbEntity
  8
0
  6
Continuous
 62
     7
370
    25
100
AcDbSpline
210
0.0
220
0.0
230
1.0
 70
     8
 71
     3
 72
    22
 73
    18
 74
     0
 42
0.000000001
 43
0.00000001
 40
0.0
 40
0.0
 40
0.0
 40
0.0
 40
0.1250000000000001
 40
0.1250000000000001
 40
0.2500000000000001
 40
0.2500000000000001
 40
0.3750000000000001
 40
0.3750000000000001
 40
0.5000000000000001
 40
0.5000000000000001
 40
0.6250000000000001
 40
0.6250000000000001
 40
0.7500000000000001
 40
0.7500000000000001
 40
0.8750000000000001
 40
0.8750000000000001
 40
1.0
 40
1.0
 40
1.0
 40
1.0
 10
-657.307575363842
 20
-167.6055215968675
 30
0.0
 10
-657.262970549
 20
-153.6398136481715
 30
0.0
 10
-657.219710256847
 20
-139.674026911367
 30
0.0
 10
-657.1381419712101
 20
-111.742163236446
 30
0.0
 10
-657.099785788705
 20
-97.77608912217373
 30
0.0
 10
-657.0324736655267
 20
-69.84339004589394
 30
0.0
 10
-657.0035398569328
 20
-55.87676378696189
 30
0.0
 10
-656.962742116464
 20
-27.94251098600943
 30
0.0
 10
-656.951240041919
 20
-13.97486323939738
 30
0.0
 10
-656.9512331081579
 20
13.96177987489913
 30
0.0
 10
-656.962729641308
 20
27.93119097669291
 30
0.0
 10
-657.0035234862719
 20
55.86833107385345
 30
0.0
 10
-657.0324577588001
 20
69.83621208966802
 30
0.0
 10
-657.0997726450839
 20
97.77121172563729
 30
0.0
 10
-657.1381311287009
 20
111.738332131872
 30
0.0
 10
-657.219704521044
 20
139.672180991803
 30
0.0
 10
-657.2629676486541
 20
153.6389055538475
 30
0.0
 10
-657.307575363842
 20
167.6055215968675
 30
0.0
  0
SPLINE
  5
19E
330
15B
100
AcDbEntity
  8
0
  6
Continuous
 62
     7
370
    25
100
AcDbSpline
210
0.0
220
0.0
230
1.0
 70
     8
 71
     3
 72
    24
 73
    20
 74
     0
 42
0.000000001
 43
0.00000001
 40
0.0
 40
0.0
 40
0.0
 40
0.0
 40
0.0625
 40
0.0625
 40
0.125
 40
0.125
 40
0.25
 40
0.25
 40
0.3125
 40
0.3125
 40
0.375
 40
0.375
 40
0.5
 40
0.5
 40
0.625
 40
0.625
 40
0.75
 40
0.75
 40
1.0
 40
1.0
 40
1.0
 40
1.0
 10
-608.067187713232
 20
217.0563147649635
 30
0.0
 10
-586.6967258827891
 20
217.022437185447
 30
0.0
 10
-565.3262581547592
 20
216.996865152826
 30
0.0
 10
-522.5853053136049
 20
216.970204442339
 30
0.0
 10
-501.2148199959346
 20
216.9694038241171
 30
0.0
 10
-437.1033370121488
 20
217.0050692978225
 30
0.0
 10
-394.3616307592342
 20
217.0784872020951
 30
0.0
 10
-330.2550064543217
 20
217.216587518462
 30
0.0
 10
-308.8867508012787
 20
217.2674120682065
 30
0.0
 10
-266.1509307062898
 20
217.3744102024546
 30
0.0
 10
-244.7833713097833
 20
217.43062283181
 30
0.0
 10
-180.6813066494979
 20
217.6040086025676
 30
0.0
 10
-137.9473911942124
 20
217.7257460603585
 30
0.0
 10
-52.48017083815038
 20
217.973945838298
 30
0.0
 10
-9.746891136258096
 20
218.100603163576
 30
0.0
 10
75.71935537510981
 20
218.3563391763205
 30
0.0
 10
118.452315390689
 20
218.4854704393155
 30
0.0
 10
246.6509284039539
 20
218.8749307045755
 30
0.0
 10
332.1163230436524
 20
219.1372590466364
 30
0.0
 10
417.5815893727965
 20
219.4005803380685
 30
0.0
  0
SPLINE
  5
19F
330
15B
100
AcDbEntity
  8
0
  6
Continuous
 62
     7
370
    25
100
AcDbSpline
210
0.0
220
0.0
230
1.0
 70
     8
 71
     3
 72
    24
 73
    20
 74
     0
 42
0.000000001
 43
0.00000001
 40
0.0
 40
0.0
 40
0.0
 40
0.0
 40
0.2499999999999999
 40
0.2499999999999999
 40
0.3749999999999998
 40
0.3749999999999998
 40
0.4999999999999998
 40
0.4999999999999998
 40
0.6249999999999998
 40
0.6249999999999998
 40
0.6874999999999997
 40
0.6874999999999997
 40
0.7499999999999997
 40
0.7499999999999997
 40
0.8749999999999997
 40
0.8749999999999997
 40
0.9374999999999999
 40
0.9374999999999999
 40
1.0
 40
1.0
 40
1.0
 40
1.0
 10
417.581589372796
 20
-219.400580338068
 30
0.0
 10
332.1179678276791
 20
-219.13726411427
 30
0.0
 10
246.6542423979222
 20
-218.874940886177
 30
0.0
 10
118.4582324030448
 20
-218.4854883579389
 30
0.0
 10
75.72615700707472
 20
-218.3563596855315
 30
0.0
 10
-9.738258100545488
 20
-218.1006288387115
 30
0.0
 10
-52.47059231269127
 20
-217.9739740965245
 30
0.0
 10
-137.9357958215459
 20
-217.725779291977
 30
0.0
 10
-180.6686447221107
 20
-217.6040442702486
 30
0.0
 10
-244.7688826009779
 20
-217.430661312179
 30
0.0
 10
-266.1357941156979
 20
-217.3744494741245
 30
0.0
 10
-308.8701848382927
 20
-217.2674521715811
 30
0.0
 10
-330.23765996321
 20
-217.21662767958
 30
0.0
 10
-394.3415887520498
 20
-217.078524795108
 30
0.0
 10
-437.0794916563018
 20
-217.0050991668391
 30
0.0
 10
-501.1941343930865
 20
-216.9694070360566
 30
0.0
 10
-522.5670094490023
 20
-216.970198531567
 30
0.0
 10
-565.3153824603905
 20
-216.99685287088
 30
0.0
 10
-586.6908503024207
 20
-217.0224278711675
 30
0.0
 10
-608.0671877132321
 20
-217.0563147649635
 30
0.0
  0
SPLINE
  5
1A1
330
15B
100
AcDbEntity
  8
0
  6
Continuous
 62
     7
370
    25
100
AcDbSpline
210
0.0
220
0.0
230
1.0
 70
     8
 71
     3
 72
    15
 73
    11
 74
     0
 42
0.000000001
 43
0.00000001
 40
0.0
 40
0.0
 40
0.0
 40
0.0
 40
0.0354436660297101
 40
0.190722384015856
 40
0.3373770941405954
 40
0.4739667512903895
 40
0.6294989108841533
 40
0.7683062087839468
 40
0.8913279612896281
 40
1.0
 40
1.0
 40
1.0
 40
1.0
 10
-708.3511688516851
 20
24.32565438099103
 30
0.0
 10
-708.2882924130968
 20
24.222659695081
 30
0.0
 10
-707.9499542666991
 20
23.66844524047976
 30
0.0
 10
-707.4053323112782
 20
21.83421649071039
 30
0.0
 10
-706.7626240390357
 20
19.00578899776654
 30
0.0
 10
-706.2193014063264
 20
15.52111745156217
 30
0.0
 10
-705.7970461778075
 20
11.61596172701529
 30
0.0
 10
-705.5165828880599
 20
7.472490758001847
 30
0.0
 10
-705.3671205687959
 20
3.614115102335433
 30
0.0
 10
-705.3502653923863
 20
1.15391505777662
 30
0.0
 10
-705.342359758085
 20
0.0000000000000092
 30
0.0
  0
SPLINE
  5
1A2
330
15B
100
AcDbEntity
  8
0
  6
Continuous
 62
     7
370
    25
100
AcDbSpline
210
0.0
220
0.0
230
1.0
 70
     8
 71
     3
 72
    15
 73
    11
 74
     0
 42
0.000000001
 43
0.00000001
 40
0.0
 40
0.0
 40
0.0
 40
0.0
 40
0.1086720387103735
 40
0.2316937912160563
 40
0.3705010891158506
 40
0.5260332487096172
 40
0.662622905859412
 40
0.8092776159841529
 40
0.9645563339703005
 40
1.0
 40
1.0
 40
1.0
 40
1.0
 10
-705.342359758085
 20
0.0000000000000092
 30
0.0
 10
-705.3502653923864
 20
-1.153915057776608
 30
0.0
 10
-705.367120568796
 20
-3.614115102335431
 30
0.0
 10
-705.5165828880602
 20
-7.472490758001824
 30
0.0
 10
-705.7970461778067
 20
-11.61596172701531
 30
0.0
 10
-706.2193014063276
 20
-15.52111745156216
 30
0.0
 10
-706.7626240390349
 20
-19.00578899776652
 30
0.0
 10
-707.4053323112782
 20
-21.83421649071038
 30
0.0
 10
-707.9499542666994
 20
-23.6684452404797
 30
0.0
 10
-708.2882924130965
 20
-24.22265969508092
 30
0.0
 10
-708.3511688516851
 20
-24.32565438099092
 30
0.0
  0
SPLINE
  5
1A3
330
15B
100
AcDbEntity
  8
0
  6
Continuous
 62
     7
370
    25
100
AcDbSpline
210
0.0
220
0.0
230
1.0
 70
     8
 71
     3
 72
    39
 73
    35
 74
     0
 42
0.000000001
 43
0.00000001
 40
0.0
 40
0.0
 40
0.0
 40
0.0
 40
0.0647112163574646
 40
0.1249998006187232
 40
0.1874996868321216
 40
0.2499995613716949
 40
0.3124994223233651
 40
0.3749992665630691
 40
0.4071054467041205
 40
0.4374990920720134
 40
0.4696891623263718
 40
0.4999988972731195
 40
0.5322839767535434
 40
0.5624986871497079
 40
0.5937485819348597
 40
0.6249984843220338
 40
0.6562484053796807
 40
0.687498366140409
 40
0.7187484024631903
 40
0.7499985797704787
 40
0.7812490378604101
 40
0.8124998729168937
 40
0.8282735991925803
 40
0.8437505104367629
 40
0.8593755387354147
 40
0.875000409867231
 40
0.8906251675052785
 40
0.9062498701711437
 40
0.9218745784098143
 40
0.9374993520551906
 40
0.9531242471942113
 40
0.9687493041066826
 40
0.9842159041807349
 40
1.0
 40
1.0
 40
1.0
 40
1.0
 10
418.6115654844481
 20
170.1384974925678
 30
0.0
 10
396.4556979747187
 20
170.0753632520089
 30
0.0
 10
353.6581865517772
 20
169.9534096259406
 30
0.0
 10
289.4618385335681
 20
169.7692388429463
 30
0.0
 10
226.022510881015
 20
169.5933754121807
 30
0.0
 10
161.8259586187126
 20
169.4185206229413
 30
0.0
 10
97.62925919658305
 20
169.2489653914325
 30
0.0
 10
43.83867400905972
 20
169.1115995774504
 30
0.0
 10
1.040603988195846
 20
169.0086429776251
 30
0.0
 10
-31.37991834359134
 20
168.9305868186121
 30
0.0
 10
-63.18546938863565
 20
168.8607498929636
 30
0.0
 10
-95.63873198236911
 20
168.788409415213
 30
0.0
 10
-127.4158052307202
 20
168.727235100306
 30
0.0
 10
-159.5149373415011
 20
168.6643002543821
 30
0.0
 10
-191.2598416429093
 20
168.6117034534372
 30
0.0
 10
-223.3594465694085
 20
168.5646899589265
 30
0.0
 10
-255.4593863198774
 20
168.5263840048787
 30
0.0
 10
-287.5597586207181
 20
168.4982047619265
 30
0.0
 10
-319.6606985493358
 20
168.482016192411
 30
0.0
 10
-351.7624006487966
 20
168.4788708887675
 30
0.0
 10
-383.8650902785059
 20
168.4896204895477
 30
0.0
 10
-410.6689791360985
 20
168.508724115918
 30
0.0
 10
-432.0719309398398
 20
168.5249851793798
 30
0.0
 10
-448.1242048957723
 20
168.5398448941378
 30
0.0
 10
-464.125697162035
 20
168.5518680256843
 30
0.0
 10
-480.17797963945
 20
168.5620250884198
 30
0.0
 10
-496.2302649453485
 20
168.5679660685837
 30
0.0
 10
-512.2825498169824
 20
168.5694410870191
 30
0.0
 10
-528.3348309401865
 20
168.5666301806096
 30
0.0
 10
-544.3871047003464
 20
168.5595089042793
 30
0.0
 10
-560.4393699850344
 20
168.5485485143572
 30
0.0
 10
-576.4372937833427
 20
168.5360354965204
 30
0.0
 10
-592.4895511274653
 20
168.5212993818614
 30
0.0
 10
-603.1909411636788
 20
168.5133295102667
 30
0.0
 10
-608.5959973041099
 20
168.5093040889658
 30
0.0
  0
SPLINE
  5
1A7
330
15B
100
AcDbEntity
  8
0
  6
Continuous
 62
     7
370
    25
100
AcDbSpline
210
0.0
220
0.0
230
1.0
 70
     8
 71
     3
 72
    40
 73
    36
 74
     0
 42
0.000000001
 43
0.00000001
 40
0.0
 40
0.0
 40
0.0
 40
0.0
 40
0.0105650770527501
 40
0.0209706497806921
 40
0.0312537902105958
 40
0.0468805967503224
 40
0.0625073955036978
 40
0.0781342917442689
 40
0.0937612231206324
 40
0.1093879881905319
 40
0.1250143862159422
 40
0.1406403439648993
 40
0.1562659727823781
 40
0.1717426374839613
 40
0.1875165044412719
 40
0.2187663979852964
 40
0.2500159431212342
 40
0.2812653085804188
 40
0.3125145881170776
 40
0.343763833649046
 40
0.3750130718982774
 40
0.4062623160623442
 40
0.4375115725064542
 40
0.4687608442378399
 40
0.5000101312253442
 40
0.5303186190538581
 40
0.5625087463000155
 40
0.5929009768637306
 40
0.625007410889966
 40
0.6875061144446356
 40
0.7500048499058526
 40
0.8125036100326839
 40
0.8750023906621908
 40
0.935288522083642
 40
1.0
 40
1.0
 40
1.0
 40
1.0
 10
-608.5959973041097
 20
-168.509304088966
 30
0.0
 10
-604.97813046018
 20
-168.5119981934735
 30
0.0
 10
-597.797016857466
 20
-168.5173457287369
 30
0.0
 10
-587.0944590365308
 20
-168.5262484140361
 30
0.0
 10
-574.6584621639057
 20
-168.5374457879073
 30
0.0
 10
-560.4343413950354
 20
-168.5485465246982
 30
0.0
 10
-544.3800992746194
 20
-168.5595147423973
 30
0.0
 10
-528.3256850077148
 20
-168.5666327931685
 30
0.0
 10
-512.2712094170482
 20
-168.56944145101
 30
0.0
 10
-496.216895148287
 20
-168.5679626372008
 30
0.0
 10
-480.1629697465547
 20
-168.5620174492974
 30
0.0
 10
-464.1095478625392
 20
-168.5518567137193
 30
0.0
 10
-448.1075624269649
 20
-168.5398314110172
 30
0.0
 10
-432.0551192659738
 20
-168.5249713593058
 30
0.0
 10
-410.6525263898134
 20
-168.5087110203833
 30
0.0
 10
-383.8492247146175
 20
-168.489612111731
 30
0.0
 10
-351.7474484118073
 20
-168.4788694447237
 30
0.0
 10
-319.6465962857501
 20
-168.4820197604798
 30
0.0
 10
-287.5464385547836
 20
-168.4982172994031
 30
0.0
 10
-255.4468041635744
 20
-168.526385650233
 30
0.0
 10
-223.3475686691955
 20
-168.5647490483001
 30
0.0
 10
-191.248641094589
 20
-168.6115601162269
 30
0.0
 10
-159.1499546009383
 20
-168.6655075705893
 30
0.0
 10
-127.0514602149266
 20
-168.7257622727119
 30
0.0
 10
-95.27524369461622
 20
-168.7897663959815
 30
0.0
 10
-63.17703060086552
 20
-168.8606160387094
 30
0.0
 10
-31.3723718311114
 20
-168.9306427372867
 30
0.0
 10
1.047772661045568
 20
-169.0086524613119
 30
0.0
 10
43.84505467160663
 20
-169.1116200199019
 30
0.0
 10
97.63495096510205
 20
-169.2489783952745
 30
0.0
 10
161.830493014872
 20
-169.4185344363276
 30
0.0
 10
226.0258999574169
 20
-169.5933801833584
 30
0.0
 10
289.463627755498
 20
-169.7692604543494
 30
0.0
 10
353.6588473223396
 20
-169.9533504781828
 30
0.0
 10
396.4556084462736
 20
-170.0753421787878
 30
0.0
 10
418.6115654844489
 20
-170.1384974925694
 30
0.0
  0
SPLINE
  5
1AE
330
15B
100
AcDbEntity
  8
0
  6
Continuous
 62
     7
370
    25
100
AcDbSpline
210
0.0
220
0.0
230
1.0
 70
     8
 71
     3
 72
    18
 73
    14
 74
     0
 42
0.000000001
 43
0.00000001
 40
0.0
 40
0.0
 40
0.0
 40
0.0
 40
0.0638396117424243
 40
0.1250005707732528
 40
0.2500006901714252
 40
0.3750003955111649
 40
0.4999998291490849
 40
0.7499996005337597
 40
0.8125005722748916
 40
0.8750015129679336
 40
0.9375015792789291
 40
0.9687620149855336
 40
1.0
 40
1.0
 40
1.0
 40
1.0
 10
-608.5959973041099
 20
168.5093040889658
 30
0.0
 10
-608.5932765345943
 20
164.9237213961561
 30
0.0
 10
-608.5879491566056
 20
157.90300383659
 30
0.0
 10
-608.5809079194647
 20
143.8614886179105
 30
0.0
 10
-608.5798213611042
 20
126.384690025536
 30
0.0
 10
-608.5923300659292
 20
105.3219434345742
 30
0.0
 10
-608.6276381739478
 20
77.23770572981825
 30
0.0
 10
-608.6847731845462
 20
52.66288066196002
 30
0.0
 10
-608.7267690432877
 20
31.59790523171029
 30
0.0
 10
-608.7436053165432
 20
21.06521521630064
 30
0.0
 10
-608.753265522215
 20
12.28733620499298
 30
0.0
 10
-608.7570893121881
 20
5.265605430236926
 30
0.0
 10
-608.7576764528902
 20
1.754781423835284
 30
0.0
 10
-608.757969917785
 20
-0.0000000000004144
 30
0.0
  0
SPLINE
  5
1AF
330
15B
100
AcDbEntity
  8
0
  6
Continuous
 62
     7
370
    25
100
AcDbSpline
210
0.0
220
0.0
230
1.0
 70
     8
 71
     3
 72
    20
 73
    16
 74
     0
 42
0.000000001
 43
0.00000001
 40
0.0
 40
0.0
 40
0.0
 40
0.0
 40
0.0312393323285924
 40
0.0625014516028676
 40
0.125001844784798
 40
0.1875015363132414
 40
0.2500008107783789
 40
0.3301851328354509
 40
0.413197952991146
 40
0.4999974550784655
 40
0.6249967396989801
 40
0.7499969659843103
 40
0.8749980806235553
 40
0.9361591611373574
 40
1.0
 40
1.0
 40
1.0
 40
1.0
 10
-608.757969917785
 20
0.0
 30
0.0
 10
-608.757677309095
 20
-1.754857586109065
 30
0.0
 10
-608.7570918782769
 20
-5.265852806315259
 30
0.0
 10
-608.7532623939262
 20
-12.28777409770777
 30
0.0
 10
-608.7436200718269
 20
-21.06569832480952
 30
0.0
 10
-608.7267154783901
 20
-31.59824375721862
 30
0.0
 10
-608.7040112409021
 20
-43.12401208814401
 30
0.0
 10
-608.6754920270516
 20
-55.80185113424688
 30
0.0
 10
-608.6476851146788
 20
-69.84441023977907
 30
0.0
 10
-608.6158011862796
 20
-86.40393846639991
 30
0.0
 10
-608.592427364143
 20
-105.3214840200023
 30
0.0
 10
-608.5797936001538
 20
-126.3843095026782
 30
0.0
 10
-608.5809150578309
 20
-143.8612056999365
 30
0.0
 10
-608.5879415111148
 20
-157.9028562767414
 30
0.0
 10
-608.5932739347451
 20
-164.9236514963049
 30
0.0
 10
-608.5959973041096
 20
-168.509304088966
 30
0.0
  0
SPLINE
  5
1B1
330
15B
100
AcDbEntity
  8
0
  6
Continuous
 62
     7
370
    25
100
AcDbSpline
210
0.0
220
0.0
230
1.0
 70
     8
 71
     3
 72
    15
 73
    11
 74
     0
 42
0.000000001
 43
0.00000001
 40
0.0
 40
0.0
 40
0.0
 40
0.0
 40
0.0834132955438833
 40
0.1667348013879699
 40
0.2500003488151854
 40
0.5000005633294761
 40
0.6250339886796836
 40
0.7500005014494707
 40
0.8750120944748578
 40
1.0
 40
1.0
 40
1.0
 40
1.0
 10
418.6115654844489
 20
-170.1384974925694
 30
0.0
 10
418.5996115938451
 20
-165.4079244226842
 30
0.0
 10
418.5757169669435
 20
-155.951983902463
 30
0.0
 10
418.5437350165317
 20
-141.7738201083752
 30
0.0
 10
418.4951762983505
 20
-118.148051501385
 30
0.0
 10
418.4528958700628
 20
-92.15661660940532
 30
0.0
 10
418.4202453254459
 20
-63.80014871110404
 30
0.0
 10
418.4030585781058
 20
-42.53212786270528
 30
0.0
 10
418.3920197375519
 20
-21.2666742945464
 30
0.0
 10
418.3907348801505
 20
-7.088443634826347
 30
0.0
 10
418.3900925123202
 20
0.0000000000019477
 30
0.0
  0
SPLINE
  5
1B2
330
15B
100
AcDbEntity
  8
0
  6
Continuous
 62
     7
370
    25
100
AcDbSpline
210
0.0
220
0.0
230
1.0
 70
     8
 71
     3
 72
    15
 73
    11
 74
     0
 42
0.000000001
 43
0.00000001
 40
0.0
 40
0.0
 40
0.0
 40
0.0
 40
0.0833280264583096
 40
0.1666480659806358
 40
0.2499997558037576
 40
0.3749632094641288
 40
0.4999994534751881
 40
0.7499994200960519
 40
0.8749151225113356
 40
1.0
 40
1.0
 40
1.0
 40
1.0
 10
418.3900925123202
 20
0.0000000000019477
 30
0.0
 10
418.3903763057589
 20
4.725785353429917
 30
0.0
 10
418.3909438654352
 20
14.17690309689895
 30
0.0
 10
418.3957849069608
 20
28.35514605734335
 30
0.0
 10
418.4048829756362
 20
44.89465494691849
 30
0.0
 10
418.4202771112895
 20
63.80000498331518
 30
0.0
 10
418.4528461633325
 20
92.15644552813481
 30
0.0
 10
418.4992351330528
 20
120.5101213454684
 30
0.0
 10
418.5584526724429
 20
148.866473461308
 30
0.0
 10
418.5938532286093
 20
163.0446247031972
 30
0.0
 10
418.6115654844481
 20
170.1384974925678
 30
0.0
  0
LINE
  5
1C0
330
15B
100
AcDbEntity
  8
0
  6
Continuous
 62
     7
370
    25
100
AcDbLine
 10
458.0242244758
 20
-170.063871716
 30
0.0
 11
458.0324390915
 21
-169.94978717
 31
0.0
  0
LINE
  5
1C1
330
15B
100
AcDbEntity
  8
0
  6
Continuous
 62
     7
370
    25
100
AcDbLine
 10
458.0324390915
 20
-169.94978717
 30
0.0
 11
717.0050845512
 21
-223.2208892653
 31
0.0
  0
LINE
  5
1C2
330
15B
100
AcDbEntity
  8
0
  6
Continuous
 62
     7
370
    25
100
AcDbLine
 10
657.3745652385
 20
-268.7263926315
 30
0.0
 11
417.5815893728
 21
-219.4005803381
 31
0.0
  0
LINE
  5
1C3
330
15B
100
AcDbEntity
  8
0
  6
Continuous
 62
     7
370
    25
100
AcDbLine
 10
458.0324390915
 20
169.94978717
 30
0.0
 11
458.0242244758
 21
170.063871716
 31
0.0
  0
LINE
  5
1C4
330
15B
100
AcDbEntity
  8
0
  6
Continuous
 62
     7
370
    25
100
AcDbLine
 10
417.5815893728
 20
219.4005803381
 30
0.0
 11
657.3745652385
 21
268.7263926315
 31
0.0
  0
LINE
  5
1C5
330
15B
100
AcDbEntity
  8
0
  6
Continuous
 62
     7
370
    25
100
AcDbLine
 10
717.0050845512
 20
223.2208892653
 30
0.0
 11
458.0324390915
 21
169.94978717
 31
0.0
  0
LINE
  5
1C6
330
15B
100
AcDbEntity
  8
0
  6
Continuous
 62
     7
370
    25
100
AcDbLine
 10
-608.0671877132
 20
217.056314765
 30
0.0
 11
-608.1549565013
 21
217.0539738874
 31
0.0
  0
LINE
  5
1C7
330
15B
100
AcDbEntity
  8
0
  6
Continuous
 62
     7
370
    25
100
AcDbLine
 10
-657.3075753638
 20
167.6055215969
 30
0.0
 11
-718.5429187817
 21
219.5072972354
 31
0.0
  0
LINE
  5
1C8
330
15B
100
AcDbEntity
  8
0
  6
Continuous
 62
     7
370
    25
100
AcDbLine
 10
-669.0291668297
 20
268.7263926315
 30
0.0
 11
-608.0671877132
 21
217.056314765
 31
0.0
  0
LINE
  5
1C9
330
15B
100
AcDbEntity
  8
0
  6
Continuous
 62
     7
370
    25
100
AcDbLine
 10
-608.0671877132
 20
-217.056314765
 30
0.0
 11
-669.0291668297
 21
-268.7263926315
 31
0.0
  0
LINE
  5
1CA
330
15B
100
AcDbEntity
  8
0
  6
Continuous
 62
     7
370
    25
100
AcDbLine
 10
-718.5429187817
 20
-219.5072972354
 30
0.0
 11
-657.3075753638
 21
-167.6055215969
 31
0.0
  0
LINE
  5
1CB
330
15B
100
AcDbEntity
  8
0
  6
Continuous
 62
     7
370
    25
100
AcDbLine
 10
-718.5429187817
 20
-219.5072972354
 30
0.0
 11
-728.3909963118
 21
-219.5072972354
 31
0.0
  0
LINE
  5
1CC
330
15B
100
AcDbEntity
  8
0
  6
Continuous
 62
     7
370
    25
100
AcDbLine
 10
-669.0291668297
 20
-278.6165512651
 30
0.0
 11
-669.0291668297
 21
-268.7263926315
 31
0.0
  0
LINE
  5
1CD
330
15B
100
AcDbEntity
  8
0
  6
Continuous
 62
     7
370
    25
100
AcDbLine
 10
-718.5429187817
 20
219.5072972354
 30
0.0
 11
-728.3909963118
 21
219.5072972354
 31
0.0
  0
LINE
  5
1CE
330
15B
100
AcDbEntity
  8
0
  6
Continuous
 62
     7
370
    25
100
AcDbLine
 10
-669.0291668297
 20
268.7263926315
 30
0.0
 11
-669.0291668297
 21
278.6165512651
 31
0.0
  0
LINE
  5
1CF
330
15B
100
AcDbEntity
  8
0
  6
Continuous
 62
     7
370
    25
100
AcDbLine
 10
725.0952544949
 20
223.2208892653
 30
0.0
 11
717.0050845512
 21
223.2208892653
 31
0.0
  0
LINE
  5
1D0
330
15B
100
AcDbEntity
  8
0
  6
Continuous
 62
     7
370
    25
100
AcDbLine
 10
657.3745652385
 20
268.7263926315
 30
0.0
 11
657.3745652385
 21
278.6165512651
 31
0.0
  0
LINE
  5
1D1
330
15B
100
AcDbEntity
  8
0
  6
Continuous
 62
     7
370
    25
100
AcDbLine
 10
657.3745652385
 20
-278.6165512651
 30
0.0
 11
657.3745652385
 21
-268.7263926315
 31
0.0
  0
LINE
  5
1D2
330
15B
100
AcDbEntity
  8
0
  6
Continuous
 62
     7
370
    25
100
AcDbLine
 10
725.0952544949
 20
-223.2208892653
 30
0.0
 11
717.0050845512
 21
-223.2208892653
 31
0.0
  0
LINE
  5
1D3
330
15B
100
AcDbEntity
  8
0
  6
Continuous
 62
     7
370
    25
100
AcDbLine
 10
657.3745652385
 20
-278.6165512651
 30
0.0
 11
-669.0291668297
 21
-278.6165512651
 31
0.0
  0
LINE
  5
1D4
330
15B
100
AcDbEntity
  8
0
  6
Continuous
 62
     7
370
    25
100
AcDbLine
 10
-669.0291668297
 20
-268.7263926315
 30
0.0
 11
657.3745652385
 21
-268.7263926315
 31
0.0
  0
LINE
  5
1D5
330
15B
100
AcDbEntity
  8
0
  6
Continuous
 62
     7
370
    25
100
AcDbLine
 10
-718.5429187817
 20
219.5072972354
 30
0.0
 11
-718.5429187817
 21
-219.5072972354
 31
0.0
  0
LINE
  5
1D6
330
15B
100
AcDbEntity
  8
0
  6
Continuous
 62
     7
370
    25
100
AcDbLine
 10
-728.3909963118
 20
-219.5072972354
 30
0.0
 11
-728.3909963118
 21
219.5072972354
 31
0.0
  0
LINE
  5
1D7
330
15B
100
AcDbEntity
  8
0
  6
Continuous
 62
     7
370
    25
100
AcDbLine
 10
725.0952544949
 20
223.2208892653
 30
0.0
 11
725.0952544949
 21
-223.2208892653
 31
0.0
  0
LINE
  5
1D8
330
15B
100
AcDbEntity
  8
0
  6
Continuous
 62
     7
370
    25
100
AcDbLine
 10
717.0050845512
 20
-223.2208892653
 30
0.0
 11
717.0050845512
 21
223.2208892653
 31
0.0
  0
LINE
  5
1D9
330
15B
100
AcDbEntity
  8
0
  6
Continuous
 62
     7
370
    25
100
AcDbLine
 10
657.3745652385
 20
268.7263926315
 30
0.0
 11
-669.0291668297
 21
268.7263926315
 31
0.0
  0
LINE
  5
1DA
330
15B
100
AcDbEntity
  8
0
  6
Continuous
 62
     7
370
    25
100
AcDbLine
 10
-669.0291668297
 20
278.6165512651
 30
0.0
 11
657.3745652385
 21
278.6165512651
 31
0.0
  0
LINE
  5
1DB
330
15B
100
AcDbEntity
  8
0
  6
Continuous
 62
     7
370
    25
100
AcDbLine
 10
-790.0
 20
350.0
 30
0.0
 11
790.0
 21
350.0
 31
0.0
  0
LINE
  5
1DC
330
15B
100
AcDbEntity
  8
0
  6
Continuous
 62
     7
370
    25
100
AcDbLine
 10
800.0
 20
340.0
 30
0.0
 11
-800.0
 21
340.0
 31
0.0
  0
LINE
  5
1DD
330
15B
100
AcDbEntity
  8
0
  6
Continuous
 62
     7
370
    25
100
AcDbLine
 10
-790.0
 20
350.0
 30
0.0
 11
-790.0
 21
-350.0
 31
0.0
  0
LINE
  5
1DE
330
15B
100
AcDbEntity
  8
0
  6
Continuous
 62
     7
370
    25
100
AcDbLine
 10
-800.0
 20
-340.0
 30
0.0
 11
800.0
 21
-340.0
 31
0.0
  0
LINE
  5
1DF
330
15B
100
AcDbEntity
  8
0
  6
Continuous
 62
     7
370
    25
100
AcDbLine
 10
790.0
 20
-350.0
 30
0.0
 11
790.0
 21
350.0
 31
0.0
  0
LINE
  5
1E0
330
15B
100
AcDbEntity
  8
0
  6
Continuous
 62
     7
370
    25
100
AcDbLine
 10
790.0
 20
-350.0
 30
0.0
 11
-790.0
 21
-350.0
 31
0.0
  0
LINE
  5
1E1
330
15B
100
AcDbEntity
  8
0
  6
Continuous
 62
     7
370
    25
100
AcDbLine
 10
800.0
 20
340.0
 30
0.0
 11
800.0
 21
-340.0
 31
0.0
  0
LINE
  5
1E2
330
15B
100
AcDbEntity
  8
0
  6
Continuous
 62
     7
370
    25
100
AcDbLine
 10
-800.0
 20
-340.0
 30
0.0
 11
-800.0
 21
340.0
 31
0.0
  0
LINE
  5
1E3
330
15B
100
AcDbEntity
  8
0
  6
Continuous
 62
     7
370
    25
100
AcDbLine
 10
-702.1909749484
 20
0.0
 30
0.0
 11
-705.3423597581
 21
0.0
 31
0.0
  0
LINE
  5
1E4
330
15B
100
AcDbEntity
  8
0
  6
Continuous
 62
     7
370
    25
100
AcDbLine
 10
458.0242244758
 20
170.063871716
 30
0.0
 11
418.6115654844
 21
170.1384974926
 31
0.0
  0
LINE
  5
1E5
330
15B
100
AcDbEntity
  8
0
  6
Continuous
 62
     7
370
    25
100
AcDbLine
 10
418.6115654844
 20
-170.1384974926
 30
0.0
 11
458.0242244758
 21
-170.063871716
 31
0.0
  0
LINE
  5
1E6
330
15B
100
AcDbEntity
  8
0
  6
Continuous
 62
     7
370
    25
100
AcDbLine
 10
418.6115654844
 20
-170.1384974926
 30
0.0
 11
458.0324390915
 21
-169.94978717
 31
0.0
  0
LINE
  5
1E7
330
15B
100
AcDbEntity
  8
0
  6
Continuous
 62
     7
370
    25
100
AcDbLine
 10
458.0324390915
 20
169.94978717
 30
0.0
 11
418.6115654844
 21
170.1384974926
 31
0.0
  0
LINE
  5
1E8
330
15B
100
AcDbEntity
  8
0
  6
Continuous
 62
     7
370
    25
100
AcDbLine
 10
-536.0
 20
0.0
 30
0.0
 11
-608.7579699178
 21
0.0
 31
0.0
  0
LINE
  5
1E9
330
15B
100
AcDbEntity
  8
0
  6
Continuous
 62
     7
370
    25
100
AcDbLine
 10
-484.0
 20
0.0
 30
0.0
 11
418.3900925123
 21
0.0
 31
0.0
  0
ARC
  5
1EA
330
15B
100
AcDbEntity
  8
0
  6
Continuous
 62
     7
370
    25
100
AcDbCircle
 10
-606.4545622697
 20
166.2102487431
 30
0.0
 40
50.87215080071272
100
AcDbArc
 50
91.9154598641
 51
178.4283488959
  0
ARC
  5
1EB
330
15B
100
AcDbEntity
  8
0
  6
Continuous
 62
     7
370
    25
100
AcDbCircle
 10
-606.4558675988
 20
-166.2110152976
 30
0.0
 40
50.87082494355471
100
AcDbArc
 50
181.570828382
 51
268.1848675216
  0
ARC
  5
1EC
330
15B
100
AcDbEntity
  8
0
  6
Continuous
 62
     7
370
    25
100
AcDbCircle
 10
-790.0
 20
-340.0
 30
0.0
 40
10.00000000000006
100
AcDbArc
 50
180.0
 51
270.0
  0
ARC
  5
1ED
330
15B
100
AcDbEntity
  8
0
  6
Continuous
 62
     7
370
    25
100
AcDbCircle
 10
-790.0
 20
340.0
 30
0.0
 40
10.00000000000017
100
AcDbArc
 50
90.0
 51
180.0
  0
ARC
  5
1EE
330
15B
100
AcDbEntity
  8
0
  6
Continuous
 62
     7
370
    25
100
AcDbCircle
 10
790.0
 20
-340.0
 30
0.0
 40
10.00000000000017
100
AcDbArc
 50
270.0
 51
0.0
  0
ARC
  5
1EF
330
15B
100
AcDbEntity
  8
0
  6
Continuous
 62
     7
370
    25
100
AcDbCircle
 10
790.0
 20
340.0
 30
0.0
 40
10.00000000000017
100
AcDbArc
 50
0.0
 51
90.0
  0
ARC
  5
1F0
330
15B
100
AcDbEntity
  8
0
  6
Continuous
 62
     7
370
    25
100
AcDbCircle
 10
965.1331809845
 20
175.6434788782
 30
0.0
 40
1573.745348856299
100
AcDbArc
 50
178.4920974364
 51
180.2597367522
  0
ARC
  5
1F1
330
15B
100
AcDbEntity
  8
0
  6
Continuous
 62
     7
370
    25
100
AcDbCircle
 10
-404.9948917855
 20
177.5602675645
 30
0.0
 40
823.6398965128462
100
AcDbArc
 50
359.4837041548
 51
2.9118375624
  0
ARC
  5
1F2
330
15B
100
AcDbEntity
  8
0
  6
Continuous
 62
     7
370
    25
100
AcDbCircle
 10
965.1331809855
 20
-175.6434788782
 30
0.0
 40
1573.745348857327
100
AcDbArc
 50
179.7402632478
 51
181.5079025636
  0
ARC
  5
1F3
330
15B
100
AcDbEntity
  8
0
  6
Continuous
 62
     7
370
    25
100
AcDbCircle
 10
-404.9948917855
 20
-177.5602675645
 30
0.0
 40
823.6398965128964
100
AcDbArc
 50
357.0881624376
 51
0.5162958452
  0
ARC
  5
1F4
330
15B
100
AcDbEntity
  8
0
  6
Continuous
 62
     7
370
    25
100
AcDbCircle
 10
-614.8557617956
 20
807.272292675
 30
0.0
 40
975.8016751546807
100
AcDbArc
 50
267.5065859011
 51
270.3675547555
  0
ARC
  5
1F5
330
15B
100
AcDbEntity
  8
0
  6
Continuous
 62
     7
370
    25
100
AcDbCircle
 10
970.7674318412
 20
178.4347197672
 30
0.0
 40
1579.394616680056
100
AcDbArc
 50
178.5988676918
 51
180.3600671836
  0
ARC
  5
1F6
330
15B
100
AcDbEntity
  8
0
  6
Continuous
 62
     7
370
    25
100
AcDbCircle
 10
-614.8557617956
 20
-807.2722926751
 30
0.0
 40
975.8016751548392
100
AcDbArc
 50
89.6324452445
 51
92.4934140989
  0
ARC
  5
1F7
330
15B
100
AcDbEntity
  8
0
  6
Continuous
 62
     7
370
    25
100
AcDbCircle
 10
-510.0
 20
0.0
 30
0.0
 40
49.16872985238268
100
AcDbArc
 50
0.0
 51
180.0
  0
ARC
  5
1F8
330
15B
100
AcDbEntity
  8
0
  6
Continuous
 62
     7
370
    25
100
AcDbCircle
 10
-510.0
 20
0.0
 30
0.0
 40
42.12815971527198
100
AcDbArc
 50
180.0
 51
0.0
  0
ARC
  5
1F9
330
15B
100
AcDbEntity
  8
0
  6
Continuous
 62
     7
370
    25
100
AcDbCircle
 10
-510.0
 20
0.0
 30
0.0
 40
26.0
100
AcDbArc
 50
180.0
 51
0.0
  0
VIEWPORT
  5
35A
330
15B
100
AcDbEntity
  8
0
100
AcDbViewport
 10
0.0
 20
0.0
 30
0.0
 40
205.6
 41
156.0
 68
     1
 69
     1
 12
0.0
 22
-211.1019991391
 13
0.0
 23
0.0
 14
10.0
 24
10.0
 15
10.0
 25
10.0
 16
0.0
 26
0.0
 36
1.0
 17
0.0
 27
0.0
 37
0.0
 42
50.0
 43
0.0
 44
0.0
 45
1238.2879377432
 50
0.0
 51
0.0
 72
   100
 90
   557152
  1

281
     0
 71
     1
 74
     0
110
0.0
120
0.0
130
0.0
111
1.0
121
0.0
131
0.0
112
0.0
122
1.0
132
0.0
 79
     0
146
0.0
  0
ENDBLK
  5
15E
330
15B
100
AcDbEntity
  8
0
100
AcDbBlockEnd
  0
BLOCK
  5
1FC
330
1FA
100
AcDbEntity
  8
0
100
AcDbBlockBegin
  2
*Paper_Space3
 70
     0
 10
0.0
 20
0.0
 30
0.0
  3
*Paper_Space3
  1

  0
SPLINE
  5
20C
330
1FA
100
AcDbEntity
  8
0
  6
Continuous
 62
     7
370
    25
100
AcDbSpline
210
0.0
220
0.0
230
1.0
 70
     8
 71
     3
 72
     8
 73
     4
 74
     0
 42
0.000000001
 43
0.00000001
 40
0.0
 40
0.0
 40
0.0
 40
0.0
 40
1.0
 40
1.0
 40
1.0
 40
1.0
 10
418.4571082559461
 20
0.0000000000003473
 30
0.0
 10
418.4571082559461
 20
-56.71798992420457
 30
0.0
 10
418.5316060140676
 20
-113.4359483229644
 30
0.0
 10
418.677483955593
 20
-170.150574953215
 30
0.0
  0
SPLINE
  5
20D
330
1FA
100
AcDbEntity
  8
0
  6
Continuous
 62
     7
370
    25
100
AcDbSpline
210
0.0
220
0.0
230
1.0
 70
     8
 71
     3
 72
    26
 73
    22
 74
     0
 42
0.000000001
 43
0.00000001
 40
0.0
 40
0.0
 40
0.0
 40
0.0
 40
0.25
 40
0.25
 40
0.375
 40
0.375
 40
0.5
 40
0.5
 40
0.625
 40
0.625
 40
0.6875
 40
0.6875
 40
0.75
 40
0.75
 40
0.8125
 40
0.8125
 40
0.875
 40
0.875
 40
0.9375
 40
0.9375
 40
1.0
 40
1.0
 40
1.0
 40
1.0
 10
418.677483955593
 20
-170.150574953215
 30
0.0
 10
333.2088598707652
 20
-169.9048515568185
 30
0.0
 10
247.7393973654346
 20
-169.664219315565
 30
0.0
 10
119.5286077542075
 20
-169.323071511986
 30
0.0
 10
76.79058654757098
 20
-169.212743500787
 30
0.0
 10
-8.690272086339004
 20
-169.0040171545
 30
0.0
 10
-51.43292497688626
 20
-168.9054542955836
 30
0.0
 10
-136.9300290177768
 20
-168.7308614628825
 30
0.0
 10
-179.68370416842
 20
-168.6545103489695
 30
0.0
 10
-243.8405153511279
 20
-168.5744934087125
 30
0.0
 10
-265.2306760941876
 20
-168.553745237648
 30
0.0
 10
-308.0282672080691
 20
-168.528613298889
 30
0.0
 10
-329.4356324173776
 20
-168.5244344703545
 30
0.0
 10
-372.2822771469249
 20
-168.5351962518145
 30
0.0
 10
-393.7221430510905
 20
-168.5506847024796
 30
0.0
 10
-436.6511255139262
 20
-168.5906320594991
 30
0.0
 10
-458.1409874088573
 20
-168.6145174590415
 30
0.0
 10
-501.1529162607017
 20
-168.639510010344
 30
0.0
 10
-522.672846036797
 20
-168.6384590608134
 30
0.0
 10
-565.6813471028787
 20
-168.6108927052105
 30
0.0
 10
-587.168999786006
 20
-168.5866624285105
 30
0.0
 10
-608.6298411179259
 20
-168.56714616846
 30
0.0
  0
SPLINE
  5
20E
330
1FA
100
AcDbEntity
  8
0
  6
Continuous
 62
     7
370
    25
100
AcDbSpline
210
0.0
220
0.0
230
1.0
 70
     8
 71
     3
 72
    14
 73
    10
 74
     0
 42
0.000000001
 43
0.00000001
 40
0.0
 40
0.0
 40
0.0
 40
0.0
 40
0.2500000000000002
 40
0.2500000000000002
 40
0.5000000000000001
 40
0.5000000000000001
 40
0.75
 40
0.75
 40
1.0
 40
1.0
 40
1.0
 40
1.0
 10
-608.6298411179259
 20
-168.56714616846
 30
0.0
 10
-608.6199713762602
 20
-154.5806204786227
 30
0.0
 10
-608.61689601122
 20
-140.5888979355747
 30
0.0
 10
-608.629651709059
 20
-112.5826493892271
 30
0.0
 10
-608.6459325572844
 20
-98.56831544091065
 30
0.0
 10
-608.6977426722706
 20
-70.49535552900326
 30
0.0
 10
-608.7341779548443
 20
-56.43524068196318
 30
0.0
 10
-608.7993074926467
 20
-28.2521180746478
 30
0.0
 10
-608.8249848402504
 20
-14.12704177007534
 30
0.0
 10
-608.8249856612189
 20
0.0000000000002632
 30
0.0
  0
SPLINE
  5
211
330
1FA
100
AcDbEntity
  8
0
  6
Continuous
 62
     7
370
    25
100
AcDbSpline
210
0.0
220
0.0
230
1.0
 70
     8
 71
     3
 72
    14
 73
    10
 74
     0
 42
0.000000001
 43
0.00000001
 40
0.0
 40
0.0
 40
0.0
 40
0.0
 40
0.25
 40
0.25
 40
0.5
 40
0.5
 40
0.75
 40
0.75
 40
1.0
 40
1.0
 40
1.0
 40
1.0
 10
-608.8249856615332
 20
0.0000000000002639
 30
0.0
 10
-608.8249864825658
 20
14.12814448222333
 30
0.0
 10
-608.7993065874471
 20
28.25253781327178
 30
0.0
 10
-608.7341785612115
 20
56.43495041854002
 30
0.0
 10
-608.6977440929377
 20
70.4948992624764
 30
0.0
 10
-608.645933041565
 20
98.56773989296033
 30
0.0
 10
-608.6296521879992
 20
112.58211836008
 30
0.0
 10
-608.6168959273684
 20
140.5885629206504
 30
0.0
 10
-608.6199712483599
 20
154.5804387803426
 30
0.0
 10
-608.6298411182423
 20
168.5671461684584
 30
0.0
  0
SPLINE
  5
212
330
1FA
100
AcDbEntity
  8
0
  6
Continuous
 62
     7
370
    25
100
AcDbSpline
210
0.0
220
0.0
230
1.0
 70
     8
 71
     3
 72
    26
 73
    22
 74
     0
 42
0.000000001
 43
0.00000001
 40
0.0
 40
0.0
 40
0.0
 40
0.0
 40
0.0625
 40
0.0625
 40
0.125
 40
0.125
 40
0.1875
 40
0.1875
 40
0.25
 40
0.25
 40
0.3125
 40
0.3125
 40
0.375
 40
0.375
 40
0.5
 40
0.5
 40
0.625
 40
0.625
 40
0.75
 40
0.75
 40
1.0
 40
1.0
 40
1.0
 40
1.0
 10
-608.6298410515641
 20
168.5671835169357
 30
0.0
 10
-587.1669426136939
 20
168.586701624811
 30
0.0
 10
-565.6769023924516
 20
168.6109352317629
 30
0.0
 10
-522.6626764079934
 20
168.638500485476
 30
0.0
 10
-501.1388650183538
 20
168.6395446779985
 30
0.0
 10
-458.1231573185025
 20
168.6145388432991
 30
0.0
 10
-436.6329206633191
 20
168.5906505379759
 30
0.0
 10
-393.7052575279077
 20
168.5507082611511
 30
0.0
 10
-372.2660947210393
 20
168.5352250905583
 30
0.0
 10
-329.4206348648661
 20
168.5244726298489
 30
0.0
 10
-308.0138134290428
 20
168.528655687776
 30
0.0
 10
-265.2172557991346
 20
168.5537941641568
 30
0.0
 10
-243.8275844109448
 20
168.5745447311266
 30
0.0
 10
-179.6721940061272
 20
168.654566870383
 30
0.0
 10
-136.9194048832516
 20
168.7309189450715
 30
0.0
 10
-51.42402704483499
 20
168.905511836901
 30
0.0
 10
-8.682212296544146
 20
169.0040737496068
 30
0.0
 10
76.79699338761203
 20
169.2127974616095
 30
0.0
 10
119.534200315069
 20
169.3231237632211
 30
0.0
 10
247.7425669121437
 20
169.6642659287123
 30
0.0
 10
333.2104404728142
 20
169.9048937600414
 30
0.0
 10
418.6774838366507
 20
170.1506126226931
 30
0.0
  0
SPLINE
  5
213
330
1FA
100
AcDbEntity
  8
0
  6
Continuous
 62
     7
370
    25
100
AcDbSpline
210
0.0
220
0.0
230
1.0
 70
     8
 71
     3
 72
     8
 73
     4
 74
     0
 42
0.000000001
 43
0.00000001
 40
0.0
 40
0.0
 40
0.0
 40
0.0
 40
1.0
 40
1.0
 40
1.0
 40
1.0
 10
418.677483955593
 20
170.150574953215
 30
0.0
 10
418.5316060140696
 20
113.4359483229646
 30
0.0
 10
418.4571082559461
 20
56.71798992420492
 30
0.0
 10
418.4571082559461
 20
0.0000000000003473
 30
0.0
  0
SPLINE
  5
214
330
1FA
100
AcDbEntity
  8
0
  6
Continuous
 62
     7
370
    25
100
AcDbSpline
210
0.0
220
0.0
230
1.0
 70
     8
 71
     3
 72
    22
 73
    18
 74
     0
 42
0.000000001
 43
0.00000001
 40
0.0
 40
0.0
 40
0.0
 40
0.0
 40
0.1250000000000001
 40
0.1250000000000001
 40
0.2500000000000001
 40
0.2500000000000001
 40
0.3750000000000001
 40
0.3750000000000001
 40
0.5000000000000001
 40
0.5000000000000001
 40
0.6250000000000001
 40
0.6250000000000001
 40
0.7500000000000001
 40
0.7500000000000001
 40
0.8750000000000001
 40
0.8750000000000001
 40
1.0
 40
1.0
 40
1.0
 40
1.0
 10
-660.458960173481
 20
167.6055215968675
 30
0.0
 10
-660.4143553586392
 20
153.6398136481715
 30
0.0
 10
-660.3710950664861
 20
139.674026911367
 30
0.0
 10
-660.2895267808492
 20
111.742163236446
 30
0.0
 10
-660.2511705983441
 20
97.77608912217373
 30
0.0
 10
-660.183858475166
 20
69.84339004589394
 30
0.0
 10
-660.154924666572
 20
55.87676378696189
 30
0.0
 10
-660.1141269261027
 20
27.94251098600943
 30
0.0
 10
-660.102624851558
 20
13.97486323939738
 30
0.0
 10
-660.1026179177979
 20
-13.96177987489913
 30
0.0
 10
-660.1141144509469
 20
-27.93119097669291
 30
0.0
 10
-660.1549082959119
 20
-55.86833107385345
 30
0.0
 10
-660.183842568439
 20
-69.83621208966802
 30
0.0
 10
-660.2511574547229
 20
-97.77121172563729
 30
0.0
 10
-660.2895159383401
 20
-111.738332131872
 30
0.0
 10
-660.3710893306833
 20
-139.672180991803
 30
0.0
 10
-660.414352458294
 20
-153.6389055538475
 30
0.0
 10
-660.458960173481
 20
-167.6055215968675
 30
0.0
  0
SPLINE
  5
217
330
1FA
100
AcDbEntity
  8
0
  6
Continuous
 62
     7
370
    25
100
AcDbSpline
210
0.0
220
0.0
230
1.0
 70
     8
 71
     3
 72
    24
 73
    20
 74
     0
 42
0.000000001
 43
0.00000001
 40
0.0
 40
0.0
 40
0.0
 40
0.0
 40
0.0625000000000002
 40
0.0625000000000002
 40
0.1250000000000003
 40
0.1250000000000003
 40
0.2500000000000003
 40
0.2500000000000003
 40
0.3125000000000003
 40
0.3125000000000003
 40
0.3750000000000002
 40
0.3750000000000002
 40
0.5000000000000002
 40
0.5000000000000002
 40
0.6250000000000002
 40
0.6250000000000002
 40
0.7500000000000001
 40
0.7500000000000001
 40
1.0
 40
1.0
 40
1.0
 40
1.0
 10
-608.067187713232
 20
-220.2211655277215
 30
0.0
 10
-586.6967258827891
 20
-220.187287948205
 30
0.0
 10
-565.3262581547586
 20
-220.1617159155845
 30
0.0
 10
-522.5853053136041
 20
-220.1350552050969
 30
0.0
 10
-501.2148199959341
 20
-220.134254586875
 30
0.0
 10
-437.1033370121481
 20
-220.1699200605806
 30
0.0
 10
-394.3616307592337
 20
-220.2433379648536
 30
0.0
 10
-330.2550064543206
 20
-220.38143828122
 30
0.0
 10
-308.8867508012782
 20
-220.4322628309645
 30
0.0
 10
-266.1509307062886
 20
-220.539260965213
 30
0.0
 10
-244.7833713097821
 20
-220.595473594568
 30
0.0
 10
-180.6813066494965
 20
-220.7688593653255
 30
0.0
 10
-137.9473911942111
 20
-220.8905968231165
 30
0.0
 10
-52.48017083814869
 20
-221.138796601056
 30
0.0
 10
-9.746891136256263
 20
-221.265453926334
 30
0.0
 10
75.71935537511193
 20
-221.5211899390785
 30
0.0
 10
118.4523153906912
 20
-221.6503212020736
 30
0.0
 10
246.6509284039559
 20
-222.0397814673335
 30
0.0
 10
332.1163230436544
 20
-222.3021098093949
 30
0.0
 10
417.5815893727968
 20
-222.5654311008265
 30
0.0
  0
LWPOLYLINE
  5
219
330
1FA
100
AcDbEntity
  8
0
  6
Continuous
 62
     7
370
    25
100
AcDbPolyline
 90
       18
 70
   128
 43
0.0
 10
418.6774839556
 20
-170.1505749532
 10
418.6596680536
 20
-174.5843711863
 10
418.634348335
 20
-178.9859090425
 10
418.6017010341
 20
-183.3245522299
 10
418.561953388
 20
-187.5701022266
 10
418.5153820546
 20
-191.6930084727
 10
418.4623111873
 20
-195.6645740532
 10
418.4031101783
 20
-199.4571554384
 10
418.3381910881
 20
-203.0443548936
 10
418.2680057769
 20
-206.4012042162
 10
418.1930427599
 20
-209.5043385236
 10
418.1138238067
 20
-212.3321588815
 10
418.0309003098
 20
-214.8649826397
 10
417.9448494467
 20
-217.0851804311
 10
417.8562701623
 20
-218.9772988779
 10
417.7657790006
 20
-220.528168153
 10
417.6740058126
 20
-221.7269936466
 10
417.5815893728
 20
-222.5654311008
  0
SPLINE
  5
21B
330
1FA
100
AcDbEntity
  8
0
  6
Continuous
 62
     7
370
    25
100
AcDbSpline
210
0.0
220
0.0
230
1.0
 70
     8
 71
     3
 72
    24
 73
    20
 74
     0
 42
0.000000001
 43
0.00000001
 40
0.0
 40
0.0
 40
0.0
 40
0.0
 40
0.2500000000000004
 40
0.2500000000000004
 40
0.3750000000000006
 40
0.3750000000000006
 40
0.5000000000000008
 40
0.5000000000000008
 40
0.625000000000001
 40
0.625000000000001
 40
0.687500000000001
 40
0.687500000000001
 40
0.7500000000000009
 40
0.7500000000000009
 40
0.8750000000000008
 40
0.8750000000000008
 40
0.9375000000000004
 40
0.9375000000000004
 40
1.0
 40
1.0
 40
1.0
 40
1.0
 10
417.581589372796
 20
222.565431100826
 30
0.0
 10
332.1179678276791
 20
222.302114877028
 30
0.0
 10
246.654242397922
 20
222.0397916489351
 30
0.0
 10
118.4582324030446
 20
221.650339120697
 30
0.0
 10
75.72615700707466
 20
221.5212104482896
 30
0.0
 10
-9.73825810054578
 20
221.2654796014697
 30
0.0
 10
-52.47059231269162
 20
221.1388248592826
 30
0.0
 10
-137.9357958215463
 20
220.8906300547351
 30
0.0
 10
-180.6686447221111
 20
220.7688950330065
 30
0.0
 10
-244.7688826009779
 20
220.595512074937
 30
0.0
 10
-266.1357941156971
 20
220.5393002368825
 30
0.0
 10
-308.8701848382922
 20
220.432302934339
 30
0.0
 10
-330.2376599632098
 20
220.381478442338
 30
0.0
 10
-394.3415887520493
 20
220.243375557866
 30
0.0
 10
-437.0794916563021
 20
220.169949929597
 30
0.0
 10
-501.1941343930866
 20
220.134257798815
 30
0.0
 10
-522.5670094490031
 20
220.1350492943255
 30
0.0
 10
-565.3153824603907
 20
220.1617036336379
 30
0.0
 10
-586.6908503024201
 20
220.187278633926
 30
0.0
 10
-608.0671877132318
 20
220.2211655277215
 30
0.0
  0
LWPOLYLINE
  5
21C
330
1FA
100
AcDbEntity
  8
0
  6
Continuous
 62
     7
370
    25
100
AcDbPolyline
 90
       18
 70
   128
 43
0.0
 10
417.5815893728
 20
222.5654311008
 10
417.6740058126
 20
221.7269936466
 10
417.7657790006
 20
220.528168153
 10
417.8562701623
 20
218.9772988779
 10
417.9448494467
 20
217.0851804311
 10
418.0309003098
 20
214.8649826397
 10
418.1138238067
 20
212.3321588815
 10
418.1930427599
 20
209.5043385236
 10
418.2680057769
 20
206.4012042162
 10
418.3381910881
 20
203.0443548936
 10
418.4031101783
 20
199.4571554384
 10
418.4623111873
 20
195.6645740532
 10
418.5153820546
 20
191.6930084727
 10
418.561953388
 20
187.5701022266
 10
418.6017010341
 20
183.3245522299
 10
418.634348335
 20
178.9859090425
 10
418.6596680536
 20
174.5843711863
 10
418.6774839556
 20
170.1505749532
  0
SPLINE
  5
222
330
1FA
100
AcDbEntity
  8
0
  6
Continuous
 62
     7
370
    25
100
AcDbSpline
210
0.0
220
0.0
230
1.0
 70
     8
 71
     3
 72
     9
 73
     5
 74
     0
 42
0.000000001
 43
0.00000001
 40
0.0
 40
0.0
 40
0.0
 40
0.0
 40
0.5
 40
1.0
 40
1.0
 40
1.0
 40
1.0
 10
460.6212934735429
 20
-169.949787169972
 30
0.0
 10
460.4635571414919
 20
-113.299858113315
 30
0.0
 10
460.3017940963059
 20
-0.0000000000000971
 30
0.0
 10
460.463557141493
 20
113.2998581133146
 30
0.0
 10
460.6212934735429
 20
169.949787169972
 30
0.0
  0
LWPOLYLINE
  5
225
330
1FA
100
AcDbEntity
  8
0
  6
Continuous
 62
     7
370
    25
100
AcDbPolyline
 90
       19
 70
   128
 43
0.0
 10
417.5815893728
 20
-222.5654311008
 10
421.1334478204
 20
-222.0100714248
 10
424.6612585678
 20
-221.1022399021
 10
428.1411367289
 20
-219.8480829659
 10
431.5495219426
 20
-218.2560918301
 10
434.8633378881
 20
-216.337045
 10
438.0601485214
 20
-214.1039352972
 10
441.1183099779
 20
-211.5718818919
 10
444.0171171109
 20
-208.7580279395
 10
446.7369436752
 20
-205.6814245134
 10
449.2593752058
 20
-202.3629016207
 10
451.5673336917
 20
-198.8249271735
 10
453.6451932023
 20
-195.0914548709
 10
455.478885682
 20
-191.1877620218
 10
457.055996197
 20
-187.1402784055
 10
458.3658469906
 20
-182.9764073303
 10
459.399569776
 20
-178.7243401008
 10
460.1501657789
 20
-174.4128651497
 10
460.6125531224
 20
-170.071173127
  0
LWPOLYLINE
  5
229
330
1FA
100
AcDbEntity
  8
0
  6
Continuous
 62
     7
370
    25
100
AcDbPolyline
 90
       19
 70
   128
 43
0.0
 10
460.6125531224
 20
170.071173127
 10
460.1501657789
 20
174.4128651497
 10
459.399569776
 20
178.7243401008
 10
458.3658469906
 20
182.9764073303
 10
457.055996197
 20
187.1402784055
 10
455.478885682
 20
191.1877620218
 10
453.6451932023
 20
195.0914548709
 10
451.5673336917
 20
198.8249271735
 10
449.2593752058
 20
202.3629016207
 10
446.7369436752
 20
205.6814245134
 10
444.0171171109
 20
208.7580279395
 10
441.1183099779
 20
211.5718818919
 10
438.0601485214
 20
214.1039352972
 10
434.8633378881
 20
216.337045
 10
431.5495219426
 20
218.2560918301
 10
428.1411367289
 20
219.8480829659
 10
424.6612585678
 20
221.1022399021
 10
421.1334478204
 20
222.0100714248
 10
417.5815893728
 20
222.5654311008
  0
SPLINE
  5
22D
330
1FA
100
AcDbEntity
  8
0
  6
Continuous
 62
     7
370
    25
100
AcDbSpline
210
0.0
220
0.0
230
1.0
 70
     8
 71
     3
 72
    22
 73
    18
 74
     0
 42
0.000000001
 43
0.00000001
 40
0.0
 40
0.0
 40
0.0
 40
0.0
 40
0.1250000000000003
 40
0.1250000000000003
 40
0.2500000000000006
 40
0.2500000000000006
 40
0.3750000000000009
 40
0.3750000000000009
 40
0.5000000000000012
 40
0.5000000000000012
 40
0.6250000000000016
 40
0.6250000000000016
 40
0.750000000000001
 40
0.750000000000001
 40
0.8750000000000006
 40
0.8750000000000006
 40
1.0
 40
1.0
 40
1.0
 40
1.0
 10
657.3745652384621
 20
271.8912433942885
 30
0.0
 10
661.6011111634809
 20
271.92750546039
 30
0.0
 10
665.7903632068956
 20
271.6536083136007
 30
0.0
 10
673.951385900946
 20
270.494873771839
 30
0.0
 10
677.9229150263351
 20
269.6100585009015
 30
0.0
 10
685.5120845408811
 20
267.2598144738233
 30
0.0
 10
689.1295754861077
 20
265.7944319980372
 30
0.0
 10
695.8865623015649
 20
262.3332983606783
 30
0.0
 10
699.0259251150749
 20
260.337615354745
 30
0.0
 10
704.7189458823161
 20
255.8843185703241
 30
0.0
 10
707.2724917307619
 20
253.4267924847651
 30
0.0
 10
711.7062600803611
 20
248.1340929587756
 30
0.0
 10
713.5863952735358
 20
245.299023740204
 30
0.0
 10
716.608820680087
 20
239.3484757147286
 30
0.0
 10
717.7510513769367
 20
236.2331140841971
 30
0.0
 10
719.2584562836751
 20
229.8288378262156
 30
0.0
 10
719.6236014036729
 20
226.540115739327
 30
0.0
 10
719.593938933195
 20
223.220889265307
 30
0.0
  0
SPLINE
  5
22F
330
1FA
100
AcDbEntity
  8
0
  6
Continuous
 62
     7
370
    25
100
AcDbSpline
210
0.0
220
0.0
230
1.0
 70
     8
 71
     3
 72
    22
 73
    18
 74
     0
 42
0.000000001
 43
0.00000001
 40
0.0
 40
0.0
 40
0.0
 40
0.0
 40
0.1249999999999995
 40
0.1249999999999995
 40
0.2499999999999991
 40
0.2499999999999991
 40
0.3749999999999986
 40
0.3749999999999986
 40
0.4999999999999989
 40
0.4999999999999989
 40
0.6249999999999992
 40
0.6249999999999992
 40
0.7499999999999994
 40
0.7499999999999994
 40
0.8749999999999998
 40
0.8749999999999998
 40
1.0
 40
1.0
 40
1.0
 40
1.0
 10
719.593938933195
 20
-223.220889265307
 30
0.0
 10
719.6236014036722
 20
-226.5401157392895
 30
0.0
 10
719.2584562836639
 20
-229.8288378262644
 30
0.0
 10
717.7510513769471
 20
-236.2331140841479
 30
0.0
 10
716.6088206800811
 20
-239.3484757147254
 30
0.0
 10
713.586395273543
 20
-245.2990237402071
 30
0.0
 10
711.7062600803611
 20
-248.1340929587756
 30
0.0
 10
707.2724917307622
 20
-253.4267924847651
 30
0.0
 10
704.7189458823068
 20
-255.884318570313
 30
0.0
 10
699.0259251150842
 20
-260.3376153547562
 30
0.0
 10
695.8865623015669
 20
-262.333298360682
 30
0.0
 10
689.1295754861052
 20
-265.7944319980336
 30
0.0
 10
685.5120845408827
 20
-267.259814473828
 30
0.0
 10
677.9229150263336
 20
-269.6100585008971
 30
0.0
 10
673.951385901284
 20
-270.4948737718026
 30
0.0
 10
665.7903632065579
 20
-271.6536083136374
 30
0.0
 10
661.601111163732
 20
-271.9275054604005
 30
0.0
 10
657.374565238463
 20
-271.8912433942885
 30
0.0
  0
SPLINE
  5
231
330
1FA
100
AcDbEntity
  8
0
  6
Continuous
 62
     7
370
    25
100
AcDbSpline
210
0.0
220
0.0
230
1.0
 70
     8
 71
     3
 72
    22
 73
    18
 74
     0
 42
0.000000001
 43
0.00000001
 40
0.0
 40
0.0
 40
0.0
 40
0.0
 40
0.1250000000000006
 40
0.1250000000000006
 40
0.2500000000000011
 40
0.2500000000000011
 40
0.3750000000000017
 40
0.3750000000000017
 40
0.5000000000000013
 40
0.5000000000000013
 40
0.6250000000000011
 40
0.6250000000000011
 40
0.7500000000000008
 40
0.7500000000000008
 40
0.8750000000000004
 40
0.8750000000000004
 40
1.0
 40
1.0
 40
1.0
 40
1.0
 10
-721.69430359129
 20
219.507297235392
 30
0.0
 10
-721.7053732653112
 20
222.978657754873
 30
0.0
 10
-721.3782446067905
 20
226.4401279714314
 30
0.0
 10
-720.059726671555
 20
233.2151769571645
 30
0.0
 10
-719.0683677620466
 20
236.528549365655
 30
0.0
 10
-716.4582253294911
 20
242.8840777521872
 30
0.0
 10
-714.8395022340723
 20
245.9260865928885
 30
0.0
 10
-711.0348001429758
 20
251.6257477614451
 30
0.0
 10
-708.848909230486
 20
254.2832681357299
 30
0.0
 10
-703.991135083477
 20
259.1151055715845
 30
0.0
 10
-701.319364312065
 20
261.2893107705049
 30
0.0
 10
-695.5891668966614
 20
265.0736402092646
 30
0.0
 10
-692.5308729130364
 20
266.6836768377441
 30
0.0
 10
-686.1413443121712
 20
269.2797682863746
 30
0.0
 10
-682.8102576197415
 20
270.2657630040993
 30
0.0
 10
-675.9990088377982
 20
271.5770741454435
 30
0.0
 10
-672.51905418294
 20
271.9023603692181
 30
0.0
 10
-669.0291668297149
 20
271.8912433942885
 30
0.0
  0
SPLINE
  5
234
330
1FA
100
AcDbEntity
  8
0
  6
Continuous
 62
     7
370
    25
100
AcDbSpline
210
0.0
220
0.0
230
1.0
 70
     8
 71
     3
 72
    22
 73
    18
 74
     0
 42
0.000000001
 43
0.00000001
 40
0.0
 40
0.0
 40
0.0
 40
0.0
 40
0.1250000000000007
 40
0.1250000000000007
 40
0.2500000000000014
 40
0.2500000000000014
 40
0.3750000000000022
 40
0.3750000000000022
 40
0.5000000000000029
 40
0.5000000000000029
 40
0.6250000000000021
 40
0.6250000000000021
 40
0.7500000000000014
 40
0.7500000000000014
 40
0.8750000000000007
 40
0.8750000000000007
 40
1.0
 40
1.0
 40
1.0
 40
1.0
 10
-669.0291668297149
 20
-271.8912433942885
 30
0.0
 10
-672.5190541829401
 20
-271.902360369214
 30
0.0
 10
-675.9990088377979
 20
-271.5770741454436
 30
0.0
 10
-682.8102576197412
 20
-270.2657630040989
 30
0.0
 10
-686.141344312357
 20
-269.2797682862997
 30
0.0
 10
-692.5308729128512
 20
-266.6836768378185
 30
0.0
 10
-695.5891668966148
 20
-265.0736402093032
 30
0.0
 10
-701.3193643121108
 20
-261.2893107704675
 30
0.0
 10
-703.9911350836398
 20
-259.1151055714257
 30
0.0
 10
-708.8489092303232
 20
-254.2832681358892
 30
0.0
 10
-711.0348001430013
 20
-251.6257477614076
 30
0.0
 10
-714.8395022340484
 20
-245.926086592926
 30
0.0
 10
-716.458225329488
 20
-242.8840777521855
 30
0.0
 10
-719.0683677620501
 20
-236.528549365656
 30
0.0
 10
-720.059726671545
 20
-233.2151769572165
 30
0.0
 10
-721.378244606801
 20
-226.4401279713796
 30
0.0
 10
-721.7053732652772
 20
-222.9786577549155
 30
0.0
 10
-721.69430359129
 20
-219.507297235392
 30
0.0
  0
SPLINE
  5
237
330
1FA
100
AcDbEntity
  8
0
  6
Continuous
 62
     7
370
    25
100
AcDbSpline
210
0.0
220
0.0
230
1.0
 70
     8
 71
     3
 72
    38
 73
    34
 74
     0
 42
0.000000001
 43
0.00000001
 40
0.0
 40
0.0
 40
0.0
 40
0.0
 40
0.0625000000000001
 40
0.0625000000000001
 40
0.1250000000000003
 40
0.1250000000000003
 40
0.1875000000000004
 40
0.1875000000000004
 40
0.2500000000000006
 40
0.2500000000000006
 40
0.3125000000000007
 40
0.3125000000000007
 40
0.3750000000000008
 40
0.3750000000000008
 40
0.4375000000000008
 40
0.4375000000000008
 40
0.5000000000000008
 40
0.5000000000000008
 40
0.5625000000000007
 40
0.5625000000000007
 40
0.6250000000000006
 40
0.6250000000000006
 40
0.6875000000000006
 40
0.6875000000000006
 40
0.7500000000000004
 40
0.7500000000000004
 40
0.8125000000000003
 40
0.8125000000000003
 40
0.8750000000000002
 40
0.8750000000000002
 40
0.9375000000000002
 40
0.9375000000000002
 40
1.0
 40
1.0
 40
1.0
 40
1.0
 10
-714.511362754925
 20
-0.000000000000006
 30
0.0
 10
-714.5113627549252
 20
-1.08333333333334
 30
0.0
 10
-714.4995146423519
 20
-2.235048424569932
 30
0.0
 10
-714.4420692480572
 20
-4.667606442686728
 30
0.0
 10
-714.3964445840311
 20
-5.948800000000012
 30
0.0
 10
-714.2595208059452
 20
-8.611200000000014
 30
0.0
 10
-714.1681473290237
 20
-9.992761856667938
 30
0.0
 10
-713.9273756305835
 20
-12.79375499726466
 30
0.0
 10
-713.7778425151773
 20
-14.21333333333335
 30
0.0
 10
-713.4110823953041
 20
-16.98666666666669
 30
0.0
 10
-713.1936806141078
 20
-18.3400262713455
 30
0.0
 10
-712.6889753762757
 20
-20.83805592043538
 30
0.0
 10
-712.4015402660324
 20
-21.98154555940025
 30
0.0
 10
-711.7670071866665
 20
-23.90080738177626
 30
0.0
 10
-711.4199438746886
 20
-24.67487179487182
 30
0.0
 10
-710.6907639913892
 20
-25.72512820512822
 30
0.0
 10
-710.3089030480397
 20
-26.00000000000002
 30
0.0
 10
-709.5448194649697
 20
-26.00000000000002
 30
0.0
 10
-709.1629585216197
 20
-25.72512820512822
 30
0.0
 10
-708.4337786383209
 20
-24.67487179487182
 30
0.0
 10
-708.086715326343
 20
-23.90080738177626
 30
0.0
 10
-707.4521822469767
 20
-21.98154555940025
 30
0.0
 10
-707.1647471367335
 20
-20.83805592043537
 30
0.0
 10
-706.6600418989017
 20
-18.34002627134548
 30
0.0
 10
-706.4426401177052
 20
-16.98666666666667
 30
0.0
 10
-706.0758799978319
 20
-14.21333333333335
 30
0.0
 10
-705.926346882426
 20
-12.79375499726465
 30
0.0
 10
-705.6855751839862
 20
-9.992761856667936
 30
0.0
 10
-705.5942017070647
 20
-8.611199999999998
 30
0.0
 10
-705.4572779289786
 20
-5.9488
 30
0.0
 10
-705.4116532649527
 20
-4.667606442686729
 30
0.0
 10
-705.3542078706585
 20
-2.235048424569932
 30
0.0
 10
-705.3423597580854
 20
-1.083333333333346
 30
0.0
 10
-705.342359758085
 20
-0.0000000000000034
 30
0.0
  0
SPLINE
  5
238
330
1FA
100
AcDbEntity
  8
0
  6
Continuous
 62
     7
370
    25
100
AcDbSpline
210
0.0
220
0.0
230
1.0
 70
     8
 71
     3
 72
    38
 73
    34
 74
     0
 42
0.000000001
 43
0.00000001
 40
0.0
 40
0.0
 40
0.0
 40
0.0
 40
0.0624999999999999
 40
0.0624999999999999
 40
0.1249999999999998
 40
0.1249999999999998
 40
0.1874999999999997
 40
0.1874999999999997
 40
0.2499999999999996
 40
0.2499999999999996
 40
0.3124999999999996
 40
0.3124999999999996
 40
0.3749999999999994
 40
0.3749999999999994
 40
0.4374999999999994
 40
0.4374999999999994
 40
0.4999999999999993
 40
0.4999999999999993
 40
0.5624999999999992
 40
0.5624999999999992
 40
0.6249999999999991
 40
0.6249999999999991
 40
0.6874999999999992
 40
0.6874999999999992
 40
0.7499999999999992
 40
0.7499999999999992
 40
0.8124999999999994
 40
0.8124999999999994
 40
0.8749999999999997
 40
0.8749999999999997
 40
0.9374999999999999
 40
0.9374999999999999
 40
1.0
 40
1.0
 40
1.0
 40
1.0
 10
-705.342359758085
 20
-0.0000000000000092
 30
0.0
 10
-705.3423597580849
 20
1.083333333333325
 30
0.0
 10
-705.3542078706582
 20
2.235048424569916
 30
0.0
 10
-705.4116532649526
 20
4.667606442686708
 30
0.0
 10
-705.4572779289787
 20
5.948799999999997
 30
0.0
 10
-705.5942017070648
 20
8.6112
 30
0.0
 10
-705.6855751839861
 20
9.992761856667933
 30
0.0
 10
-705.9263468824258
 20
12.79375499726466
 30
0.0
 10
-706.0758799978322
 20
14.21333333333334
 30
0.0
 10
-706.4426401177059
 20
16.98666666666668
 30
0.0
 10
-706.6600418989018
 20
18.34002627134548
 30
0.0
 10
-707.1647471367332
 20
20.83805592043536
 30
0.0
 10
-707.4521822469766
 20
21.98154555940023
 30
0.0
 10
-708.0867153263428
 20
23.90080738177626
 30
0.0
 10
-708.4337786383211
 20
24.67487179487181
 30
0.0
 10
-709.16295852162
 20
25.72512820512822
 30
0.0
 10
-709.5448194649698
 20
26.00000000000002
 30
0.0
 10
-710.3089030480397
 20
26.00000000000001
 30
0.0
 10
-710.6907639913894
 20
25.72512820512822
 30
0.0
 10
-711.4199438746882
 20
24.67487179487181
 30
0.0
 10
-711.7670071866664
 20
23.90080738177625
 30
0.0
 10
-712.4015402660323
 20
21.98154555940025
 30
0.0
 10
-712.688975376276
 20
20.83805592043537
 30
0.0
 10
-713.193680614108
 20
18.34002627134548
 30
0.0
 10
-713.411082395304
 20
16.98666666666668
 30
0.0
 10
-713.7778425151773
 20
14.21333333333334
 30
0.0
 10
-713.9273756305835
 20
12.79375499726465
 30
0.0
 10
-714.1681473290237
 20
9.992761856667936
 30
0.0
 10
-714.259520805945
 20
8.611199999999993
 30
0.0
 10
-714.3964445840309
 20
5.948799999999997
 30
0.0
 10
-714.442069248057
 20
4.667606442686712
 30
0.0
 10
-714.4995146423516
 20
2.235048424569918
 30
0.0
 10
-714.5113627549251
 20
1.083333333333331
 30
0.0
 10
-714.511362754925
 20
-0.000000000000006
 30
0.0
  0
SPLINE
  5
23D
330
1FA
100
AcDbEntity
  8
0
  6
Continuous
 62
     7
370
    25
100
AcDbSpline
210
0.0
220
0.0
230
1.0
 70
     8
 71
     3
 72
    15
 73
    11
 74
     0
 42
0.000000001
 43
0.00000001
 40
0.0
 40
0.0
 40
0.0
 40
0.0
 40
0.1086720387103724
 40
0.2316937912160541
 40
0.3705010891158473
 40
0.5260332487096113
 40
0.6626229058594058
 40
0.8092776159841439
 40
0.9645563339702898
 40
1.0
 40
1.0
 40
1.0
 40
1.0
 10
-711.3599779452859
 20
-0.000000000000006
 30
0.0
 10
-711.3520723109847
 20
-1.153915057776624
 30
0.0
 10
-711.335217134575
 20
-3.614115102335449
 30
0.0
 10
-711.1857548153101
 20
-7.472490758001846
 30
0.0
 10
-710.9052915255635
 20
-11.61596172701531
 30
0.0
 10
-710.4830362970436
 20
-15.5211174515622
 30
0.0
 10
-709.9397136643352
 20
-19.0057889977665
 30
0.0
 10
-709.2970053920919
 20
-21.8342164907104
 30
0.0
 10
-708.7523834366708
 20
-23.66844524047976
 30
0.0
 10
-708.4140452902735
 20
-24.222659695081
 30
0.0
 10
-708.3511688516851
 20
-24.32565438099102
 30
0.0
  0
SPLINE
  5
23E
330
1FA
100
AcDbEntity
  8
0
  6
Continuous
 62
     7
370
    25
100
AcDbSpline
210
0.0
220
0.0
230
1.0
 70
     8
 71
     3
 72
    15
 73
    11
 74
     0
 42
0.000000001
 43
0.00000001
 40
0.0
 40
0.0
 40
0.0
 40
0.0
 40
0.0354436660297
 40
0.1907223840158479
 40
0.3373770941405878
 40
0.4739667512903833
 40
0.6294989108841497
 40
0.7683062087839443
 40
0.8913279612896268
 40
1.0
 40
1.0
 40
1.0
 40
1.0
 10
-708.3511688516851
 20
24.32565438099092
 30
0.0
 10
-708.4140452902735
 20
24.22265969508093
 30
0.0
 10
-708.7523834366708
 20
23.6684452404797
 30
0.0
 10
-709.2970053920916
 20
21.83421649071039
 30
0.0
 10
-709.939713664335
 20
19.00578899776649
 30
0.0
 10
-710.4830362970436
 20
15.52111745156217
 30
0.0
 10
-710.9052915255638
 20
11.61596172701531
 30
0.0
 10
-711.1857548153107
 20
7.472490758001833
 30
0.0
 10
-711.3352171345746
 20
3.614115102335425
 30
0.0
 10
-711.3520723109845
 20
1.153915057776608
 30
0.0
 10
-711.3599779452859
 20
-0.000000000000006
 30
0.0
  0
SPLINE
  5
261
330
1FA
100
AcDbEntity
  8
0
  6
Continuous
 62
     7
370
    25
100
AcDbSpline
210
0.0
220
0.0
230
1.0
 70
     8
 71
     3
 72
    22
 73
    18
 74
     0
 42
0.000000001
 43
0.00000001
 40
0.0
 40
0.0
 40
0.0
 40
0.0
 40
0.1250000000000004
 40
0.1250000000000004
 40
0.2500000000000009
 40
0.2500000000000009
 40
0.3750000000000013
 40
0.3750000000000013
 40
0.500000000000001
 40
0.500000000000001
 40
0.6250000000000008
 40
0.6250000000000008
 40
0.7500000000000004
 40
0.7500000000000004
 40
0.8750000000000002
 40
0.8750000000000002
 40
1.0
 40
1.0
 40
1.0
 40
1.0
 10
-728.390996311773
 20
-219.507297235392
 30
0.0
 10
-728.3909963117734
 20
-223.0347596174487
 30
0.0
 10
-728.0800574905013
 20
-226.6820524932088
 30
0.0
 10
-726.7240558085465
 20
-234.0473261769959
 30
0.0
 10
-725.6778776741972
 20
-237.7645552383989
 30
0.0
 10
-722.799869959254
 20
-245.048341945317
 30
0.0
 10
-720.9674094342643
 20
-248.6134901340855
 30
0.0
 10
-716.5564476927468
 20
-255.3524038055371
 30
0.0
 10
-713.9782281858564
 20
-258.524529644454
 30
0.0
 10
-708.2131209354894
 20
-264.265107250367
 30
0.0
 10
-705.0274405164704
 20
-266.8323568298858
 30
0.0
 10
-698.2597312833674
 20
-271.2245506077699
 30
0.0
 10
-694.6793491192919
 20
-273.0492142951291
 30
0.0
 10
-687.3644385934023
 20
-275.9149765299941
 30
0.0
 10
-683.6313257109816
 20
-276.9567033373245
 30
0.0
 10
-676.2345800121518
 20
-278.3069354407278
 30
0.0
 10
-672.5717021546
 20
-278.6165512651496
 30
0.0
 10
-669.0291668297149
 20
-278.6165512651495
 30
0.0
  0
SPLINE
  5
264
330
1FA
100
AcDbEntity
  8
0
  6
Continuous
 62
     7
370
    25
100
AcDbSpline
210
0.0
220
0.0
230
1.0
 70
     8
 71
     3
 72
    22
 73
    18
 74
     0
 42
0.000000001
 43
0.00000001
 40
0.0
 40
0.0
 40
0.0
 40
0.0
 40
0.125
 40
0.125
 40
0.25
 40
0.25
 40
0.375
 40
0.375
 40
0.5
 40
0.5
 40
0.625
 40
0.625
 40
0.75
 40
0.75
 40
0.875
 40
0.875
 40
1.0
 40
1.0
 40
1.0
 40
1.0
 10
-669.0291668297149
 20
278.6165512651495
 30
0.0
 10
-672.5717021546
 20
278.6165512651495
 30
0.0
 10
-676.2345800121518
 20
278.3069354407278
 30
0.0
 10
-683.6313257109819
 20
276.9567033373245
 30
0.0
 10
-687.3644385934023
 20
275.9149765299941
 30
0.0
 10
-694.6793491192918
 20
273.049214295129
 30
0.0
 10
-698.2597312833672
 20
271.2245506077699
 30
0.0
 10
-705.0274405164703
 20
266.8323568298858
 30
0.0
 10
-708.2131209354894
 20
264.265107250367
 30
0.0
 10
-713.9782281858563
 20
258.5245296444541
 30
0.0
 10
-716.5564476927468
 20
255.3524038055371
 30
0.0
 10
-720.9674094342643
 20
248.6134901340854
 30
0.0
 10
-722.7998699592541
 20
245.048341945317
 30
0.0
 10
-725.6778776741975
 20
237.7645552383989
 30
0.0
 10
-726.724055808547
 20
234.047326176996
 30
0.0
 10
-728.0800574905014
 20
226.6820524932088
 30
0.0
 10
-728.390996311773
 20
223.0347596174487
 30
0.0
 10
-728.390996311773
 20
219.507297235392
 30
0.0
  0
SPLINE
  5
265
330
1FA
100
AcDbEntity
  8
0
  6
Continuous
 62
     7
370
    25
100
AcDbSpline
210
0.0
220
0.0
230
1.0
 70
     8
 71
     3
 72
    22
 73
    18
 74
     0
 42
0.000000001
 43
0.00000001
 40
0.0
 40
0.0
 40
0.0
 40
0.0
 40
0.1250000000000006
 40
0.1250000000000006
 40
0.2500000000000012
 40
0.2500000000000012
 40
0.375000000000001
 40
0.375000000000001
 40
0.5000000000000008
 40
0.5000000000000008
 40
0.6250000000000006
 40
0.6250000000000006
 40
0.7500000000000004
 40
0.7500000000000004
 40
0.8750000000000002
 40
0.8750000000000002
 40
1.0
 40
1.0
 40
1.0
 40
1.0
 10
725.0952544949439
 20
223.220889265307
 30
0.0
 10
725.095254494944
 20
226.6239550915708
 30
0.0
 10
724.7405939177564
 20
230.1157814960804
 30
0.0
 10
723.2045555153328
 20
237.1185947710037
 30
0.0
 10
722.0220975352901
 20
240.6288778695781
 30
0.0
 10
718.7778264326497
 20
247.4705652707819
 30
0.0
 10
716.7154190027635
 20
250.8007939153572
 30
0.0
 10
711.7525348968574
 20
257.0737130871997
 30
0.0
 10
708.8523259670428
 20
260.0151031124885
 30
0.0
 10
702.3551545558822
 20
265.3298025846773
 30
0.0
 10
698.7593321991557
 20
267.7021794073121
 30
0.0
 10
691.0907459844342
 20
271.7618287329997
 30
0.0
 10
687.0195719781926
 20
273.4488822191103
 30
0.0
 10
678.6556718141644
 20
276.1027026011956
 30
0.0
 10
674.3643828875782
 20
277.0699556417456
 30
0.0
 10
665.8035078191728
 20
278.3264381893044
 30
0.0
 10
661.5347820319797
 20
278.6165512651494
 30
0.0
 10
657.3745652384621
 20
278.6165512651495
 30
0.0
  0
SPLINE
  5
268
330
1FA
100
AcDbEntity
  8
0
  6
Continuous
 62
     7
370
    25
100
AcDbSpline
210
0.0
220
0.0
230
1.0
 70
     8
 71
     3
 72
    22
 73
    18
 74
     0
 42
0.000000001
 43
0.00000001
 40
0.0
 40
0.0
 40
0.0
 40
0.0
 40
0.125
 40
0.125
 40
0.25
 40
0.25
 40
0.375
 40
0.375
 40
0.5
 40
0.5
 40
0.625
 40
0.625
 40
0.75
 40
0.75
 40
0.875
 40
0.875
 40
1.0
 40
1.0
 40
1.0
 40
1.0
 10
657.3745652384621
 20
-278.6165512651495
 30
0.0
 10
661.5347820319797
 20
-278.6165512651496
 30
0.0
 10
665.8035078191729
 20
-278.3264381893043
 30
0.0
 10
674.3643828875778
 20
-277.0699556417453
 30
0.0
 10
678.6556718141643
 20
-276.1027026011957
 30
0.0
 10
687.0195719781922
 20
-273.4488822191102
 30
0.0
 10
691.0907459844339
 20
-271.7618287329997
 30
0.0
 10
698.7593321991558
 20
-267.702179407312
 30
0.0
 10
702.355154555882
 20
-265.3298025846775
 30
0.0
 10
708.8523259670425
 20
-260.0151031124885
 30
0.0
 10
711.7525348968574
 20
-257.0737130872
 30
0.0
 10
716.7154190027638
 20
-250.8007939153573
 30
0.0
 10
718.7778264326498
 20
-247.470565270782
 30
0.0
 10
722.0220975352903
 20
-240.6288778695783
 30
0.0
 10
723.204555515333
 20
-237.1185947710038
 30
0.0
 10
724.7405939177564
 20
-230.1157814960804
 30
0.0
 10
725.0952544949441
 20
-226.6239550915709
 30
0.0
 10
725.0952544949439
 20
-223.220889265307
 30
0.0
  0
LINE
  5
26B
330
1FA
100
AcDbEntity
  8
0
  6
Continuous
 62
     7
370
    25
100
AcDbLine
 10
-484.0
 20
0.0
 30
0.0
 11
418.4571082559
 21
0.0
 31
0.0
  0
LINE
  5
26C
330
1FA
100
AcDbEntity
  8
0
  6
Continuous
 62
     7
370
    25
100
AcDbLine
 10
-536.0
 20
0.0
 30
0.0
 11
-608.8249856614
 21
0.0
 31
0.0
  0
LINE
  5
26D
330
1FA
100
AcDbEntity
  8
0
  6
Continuous
 62
     7
370
    25
100
AcDbLine
 10
-608.1605737037
 20
-220.218674834
 30
0.0
 11
-608.0671877132
 21
-220.2211655277
 31
0.0
  0
LINE
  5
26E
330
1FA
100
AcDbEntity
  8
0
  6
Continuous
 62
     7
370
    25
100
AcDbLine
 10
460.6212934735
 20
169.94978717
 30
0.0
 11
418.6774839556
 21
170.1505749532
 31
0.0
  0
LINE
  5
26F
330
1FA
100
AcDbEntity
  8
0
  6
Continuous
 62
     7
370
    25
100
AcDbLine
 10
418.6774839556
 20
-170.1505749532
 30
0.0
 11
460.6212934735
 21
-169.94978717
 31
0.0
  0
LINE
  5
270
330
1FA
100
AcDbEntity
  8
0
  6
Continuous
 62
     7
370
    25
100
AcDbLine
 10
418.6774839556
 20
-170.1505749532
 30
0.0
 11
460.6125531224
 21
-170.071173127
 31
0.0
  0
LINE
  5
271
330
1FA
100
AcDbEntity
  8
0
  6
Continuous
 62
     7
370
    25
100
AcDbLine
 10
460.6125531224
 20
-170.071173127
 30
0.0
 11
460.6212934735
 21
-169.94978717
 31
0.0
  0
LINE
  5
272
330
1FA
100
AcDbEntity
  8
0
  6
Continuous
 62
     7
370
    25
100
AcDbLine
 10
460.6125531224
 20
170.071173127
 30
0.0
 11
418.6774839556
 21
170.1505749532
 31
0.0
  0
LINE
  5
273
330
1FA
100
AcDbEntity
  8
0
  6
Continuous
 62
     7
370
    25
100
AcDbLine
 10
460.6212934735
 20
169.94978717
 30
0.0
 11
460.6125531224
 21
170.071173127
 31
0.0
  0
LINE
  5
274
330
1FA
100
AcDbEntity
  8
0
  6
Continuous
 62
     7
370
    25
100
AcDbLine
 10
719.5939389332
 20
223.2208892653
 30
0.0
 11
719.5939389332
 21
-223.2208892653
 31
0.0
  0
LINE
  5
275
330
1FA
100
AcDbEntity
  8
0
  6
Continuous
 62
     7
370
    25
100
AcDbLine
 10
719.5939389332
 20
-223.2208892653
 30
0.0
 11
460.6212934735
 21
-169.94978717
 31
0.0
  0
LINE
  5
276
330
1FA
100
AcDbEntity
  8
0
  6
Continuous
 62
     7
370
    25
100
AcDbLine
 10
460.6212934735
 20
169.94978717
 30
0.0
 11
719.5939389332
 21
223.2208892653
 31
0.0
  0
LINE
  5
277
330
1FA
100
AcDbEntity
  8
0
  6
Continuous
 62
     7
370
    25
100
AcDbLine
 10
657.3745652385
 20
271.8912433943
 30
0.0
 11
417.5815893728
 21
222.5654311008
 31
0.0
  0
LINE
  5
278
330
1FA
100
AcDbEntity
  8
0
  6
Continuous
 62
     7
370
    25
100
AcDbLine
 10
417.5815893728
 20
-222.5654311008
 30
0.0
 11
657.3745652385
 21
-271.8912433943
 31
0.0
  0
LINE
  5
279
330
1FA
100
AcDbEntity
  8
0
  6
Continuous
 62
     7
370
    25
100
AcDbLine
 10
-608.0671877132
 20
220.2211655277
 30
0.0
 11
-669.0291668297
 21
271.8912433943
 31
0.0
  0
LINE
  5
27A
330
1FA
100
AcDbEntity
  8
0
  6
Continuous
 62
     7
370
    25
100
AcDbLine
 10
-721.6943035913
 20
219.5072972354
 30
0.0
 11
-660.4589601735
 21
167.6055215969
 31
0.0
  0
LINE
  5
27B
330
1FA
100
AcDbEntity
  8
0
  6
Continuous
 62
     7
370
    25
100
AcDbLine
 10
-660.4589601735
 20
-167.6055215969
 30
0.0
 11
-721.6943035913
 21
-219.5072972354
 31
0.0
  0
LINE
  5
27C
330
1FA
100
AcDbEntity
  8
0
  6
Continuous
 62
     7
370
    25
100
AcDbLine
 10
-669.0291668297
 20
-271.8912433943
 30
0.0
 11
-608.0671877132
 21
-220.2211655277
 31
0.0
  0
LINE
  5
27D
330
1FA
100
AcDbEntity
  8
0
  6
Continuous
 62
     7
370
    25
100
AcDbLine
 10
-721.6943035913
 20
-219.5072972354
 30
0.0
 11
-721.6943035913
 21
219.5072972354
 31
0.0
  0
LINE
  5
27E
330
1FA
100
AcDbEntity
  8
0
  6
Continuous
 62
     7
370
    25
100
AcDbLine
 10
657.3745652385
 20
-271.8912433943
 30
0.0
 11
-669.0291668297
 21
-271.8912433943
 31
0.0
  0
LINE
  5
27F
330
1FA
100
AcDbEntity
  8
0
  6
Continuous
 62
     7
370
    25
100
AcDbLine
 10
-669.0291668297
 20
271.8912433943
 30
0.0
 11
657.3745652385
 21
271.8912433943
 31
0.0
  0
LINE
  5
280
330
1FA
100
AcDbEntity
  8
0
  6
Continuous
 62
     7
370
    25
100
AcDbLine
 10
-711.3599779453
 20
0.0
 30
0.0
 11
-714.5113627549
 21
0.0
 31
0.0
  0
LINE
  5
281
330
1FA
100
AcDbEntity
  8
0
  6
Continuous
 62
     7
370
    25
100
AcDbLine
 10
-796.8
 20
-340.0
 30
0.0
 11
-796.8
 21
340.0
 31
0.0
  0
LINE
  5
282
330
1FA
100
AcDbEntity
  8
0
  6
Continuous
 62
     7
370
    25
100
AcDbLine
 10
790.0
 20
-346.8
 30
0.0
 11
-790.0
 21
-346.8
 31
0.0
  0
LINE
  5
283
330
1FA
100
AcDbEntity
  8
0
  6
Continuous
 62
     7
370
    25
100
AcDbLine
 10
-800.0
 20
-340.0
 30
0.0
 11
-800.0
 21
340.0
 31
0.0
  0
LINE
  5
284
330
1FA
100
AcDbEntity
  8
0
  6
Continuous
 62
     7
370
    25
100
AcDbLine
 10
796.8
 20
340.0
 30
0.0
 11
796.8
 21
-340.0
 31
0.0
  0
LINE
  5
285
330
1FA
100
AcDbEntity
  8
0
  6
Continuous
 62
     7
370
    25
100
AcDbLine
 10
800.0
 20
340.0
 30
0.0
 11
800.0
 21
-340.0
 31
0.0
  0
LINE
  5
286
330
1FA
100
AcDbEntity
  8
0
  6
Continuous
 62
     7
370
    25
100
AcDbLine
 10
-790.0
 20
346.8
 30
0.0
 11
790.0
 21
346.8
 31
0.0
  0
LINE
  5
287
330
1FA
100
AcDbEntity
  8
0
  6
Continuous
 62
     7
370
    25
100
AcDbLine
 10
790.0
 20
-350.0
 30
0.0
 11
-790.0
 21
-350.0
 31
0.0
  0
LINE
  5
288
330
1FA
100
AcDbEntity
  8
0
  6
Continuous
 62
     7
370
    25
100
AcDbLine
 10
-790.0
 20
350.0
 30
0.0
 11
790.0
 21
350.0
 31
0.0
  0
LINE
  5
289
330
1FA
100
AcDbEntity
  8
0
  6
Continuous
 62
     7
370
    25
100
AcDbLine
 10
790.0
 20
346.8
 30
0.0
 11
790.0
 21
-346.8
 31
0.0
  0
LINE
  5
28A
330
1FA
100
AcDbEntity
  8
0
  6
Continuous
 62
     7
370
    25
100
AcDbLine
 10
-796.8
 20
340.0
 30
0.0
 11
796.8
 21
340.0
 31
0.0
  0
LINE
  5
28B
330
1FA
100
AcDbEntity
  8
0
  6
Continuous
 62
     7
370
    25
100
AcDbLine
 10
-790.0
 20
-346.8
 30
0.0
 11
-790.0
 21
346.8
 31
0.0
  0
LINE
  5
28C
330
1FA
100
AcDbEntity
  8
0
  6
Continuous
 62
     7
370
    25
100
AcDbLine
 10
796.8
 20
-340.0
 30
0.0
 11
-796.8
 21
-340.0
 31
0.0
  0
LINE
  5
28D
330
1FA
100
AcDbEntity
  8
0
  6
Continuous
 62
     7
370
    25
100
AcDbLine
 10
-669.0291668297
 20
-278.6165512651
 30
0.0
 11
657.3745652385
 21
-278.6165512651
 31
0.0
  0
LINE
  5
28E
330
1FA
100
AcDbEntity
  8
0
  6
Continuous
 62
     7
370
    25
100
AcDbLine
 10
-669.0291668297
 20
-271.8912433943
 30
0.0
 11
-669.0291668297
 21
-278.6165512651
 31
0.0
  0
LINE
  5
28F
330
1FA
100
AcDbEntity
  8
0
  6
Continuous
 62
     7
370
    25
100
AcDbLine
 10
657.3745652385
 20
-271.8912433943
 30
0.0
 11
657.3745652385
 21
-278.6165512651
 31
0.0
  0
LINE
  5
290
330
1FA
100
AcDbEntity
  8
0
  6
Continuous
 62
     7
370
    25
100
AcDbLine
 10
-669.0291668297
 20
278.6165512651
 30
0.0
 11
-669.0291668297
 21
271.8912433943
 31
0.0
  0
LINE
  5
291
330
1FA
100
AcDbEntity
  8
0
  6
Continuous
 62
     7
370
    25
100
AcDbLine
 10
657.3745652385
 20
278.6165512651
 30
0.0
 11
-669.0291668297
 21
278.6165512651
 31
0.0
  0
LINE
  5
292
330
1FA
100
AcDbEntity
  8
0
  6
Continuous
 62
     7
370
    25
100
AcDbLine
 10
657.3745652385
 20
278.6165512651
 30
0.0
 11
657.3745652385
 21
271.8912433943
 31
0.0
  0
LINE
  5
293
330
1FA
100
AcDbEntity
  8
0
  6
Continuous
 62
     7
370
    25
100
AcDbLine
 10
-721.6943035913
 20
-219.5072972354
 30
0.0
 11
-728.3909963118
 21
-219.5072972354
 31
0.0
  0
LINE
  5
294
330
1FA
100
AcDbEntity
  8
0
  6
Continuous
 62
     7
370
    25
100
AcDbLine
 10
-721.6943035913
 20
219.5072972354
 30
0.0
 11
-728.3909963118
 21
219.5072972354
 31
0.0
  0
LINE
  5
295
330
1FA
100
AcDbEntity
  8
0
  6
Continuous
 62
     7
370
    25
100
AcDbLine
 10
725.0952544949
 20
223.2208892653
 30
0.0
 11
719.5939389332
 21
223.2208892653
 31
0.0
  0
LINE
  5
296
330
1FA
100
AcDbEntity
  8
0
  6
Continuous
 62
     7
370
    25
100
AcDbLine
 10
725.0952544949
 20
-223.2208892653
 30
0.0
 11
719.5939389332
 21
-223.2208892653
 31
0.0
  0
LINE
  5
297
330
1FA
100
AcDbEntity
  8
0
  6
Continuous
 62
     7
370
    25
100
AcDbLine
 10
-728.3909963118
 20
219.5072972354
 30
0.0
 11
-728.3909963118
 21
-219.5072972354
 31
0.0
  0
LINE
  5
298
330
1FA
100
AcDbEntity
  8
0
  6
Continuous
 62
     7
370
    25
100
AcDbLine
 10
725.0952544949
 20
-223.2208892653
 30
0.0
 11
725.0952544949
 21
223.2208892653
 31
0.0
  0
ARC
  5
299
330
1FA
100
AcDbEntity
  8
0
  6
Continuous
 62
     7
370
    25
100
AcDbCircle
 10
-510.0
 20
0.0
 30
0.0
 40
28.31999818750251
100
AcDbArc
 50
180.0
 51
0.0
  0
ARC
  5
29A
330
1FA
100
AcDbEntity
  8
0
  6
Continuous
 62
     7
370
    25
100
AcDbCircle
 10
-510.0
 20
0.0
 30
0.0
 40
26.0
100
AcDbArc
 50
180.0
 51
0.0
  0
ARC
  5
29B
330
1FA
100
AcDbEntity
  8
0
  6
Continuous
 62
     7
370
    25
100
AcDbCircle
 10
-510.0
 20
0.0
 30
0.0
 40
44.44815790277403
100
AcDbArc
 50
0.0
 51
180.0
  0
ARC
  5
29C
330
1FA
100
AcDbEntity
  8
0
  6
Continuous
 62
     7
370
    25
100
AcDbCircle
 10
-510.0
 20
0.0
 30
0.0
 40
49.235745596009
100
AcDbArc
 50
0.0
 51
180.0
  0
ARC
  5
29D
330
1FA
100
AcDbEntity
  8
0
  6
Continuous
 62
     7
370
    25
100
AcDbCircle
 10
-615.5856403057
 20
-853.7426374585
 30
0.0
 40
1022.3334469936
100
AcDbArc
 50
89.6101653402
 51
92.5156940032
  0
ARC
  5
29E
330
1FA
100
AcDbEntity
  8
0
  6
Continuous
 62
     7
370
    25
100
AcDbCircle
 10
-615.5856403057
 20
853.7426374579
 30
0.0
 40
1022.333446992964
100
AcDbArc
 50
267.4843059968
 51
270.3898346598
  0
ARC
  5
29F
330
1FA
100
AcDbEntity
  8
0
  6
Continuous
 62
     7
370
    25
100
AcDbCircle
 10
1038.8329296873
 20
-176.4518493409
 30
0.0
 40
1647.481638663507
100
AcDbArc
 50
179.7257863587
 51
181.5223794526
  0
ARC
  5
2A0
330
1FA
100
AcDbEntity
  8
0
  6
Continuous
 62
     7
370
    25
100
AcDbCircle
 10
1090.2792913387
 20
175.891457896
 30
0.0
 40
1698.92492061506
100
AcDbArc
 50
178.5048230084
 51
180.2470111802
  0
ARC
  5
2A1
330
1FA
100
AcDbEntity
  8
0
  6
Continuous
 62
     7
370
    25
100
AcDbCircle
 10
1096.3427969065
 20
-178.9049275546
 30
0.0
 40
1705.003978334391
100
AcDbArc
 50
179.6526020586
 51
181.388463066
  0
ARC
  5
2A2
330
1FA
100
AcDbEntity
  8
0
  6
Continuous
 62
     7
370
    25
100
AcDbCircle
 10
-606.3523122303
 20
-166.1219035381
 30
0.0
 40
54.12698471367052
100
AcDbArc
 50
181.57067129
 51
268.08551995
  0
ARC
  5
2A3
330
1FA
100
AcDbEntity
  8
0
  6
Continuous
 62
     7
370
    25
100
AcDbCircle
 10
-606.3414068119
 20
166.110478829
 30
0.0
 40
54.13820032771386
100
AcDbArc
 50
91.826745541
 51
178.4175585554
  0
ARC
  5
2A4
330
1FA
100
AcDbEntity
  8
0
  6
Continuous
 62
     7
370
    25
100
AcDbCircle
 10
790.0
 20
-340.0
 30
0.0
 40
6.800000000000011
100
AcDbArc
 50
270.0
 51
0.0
  0
ARC
  5
2A5
330
1FA
100
AcDbEntity
  8
0
  6
Continuous
 62
     7
370
    25
100
AcDbCircle
 10
-790.0
 20
-340.0
 30
0.0
 40
10.00000000000017
100
AcDbArc
 50
180.0
 51
270.0
  0
ARC
  5
2A6
330
1FA
100
AcDbEntity
  8
0
  6
Continuous
 62
     7
370
    25
100
AcDbCircle
 10
790.0
 20
340.0
 30
0.0
 40
10.00000000000017
100
AcDbArc
 50
0.0
 51
90.0
  0
ARC
  5
2A7
330
1FA
100
AcDbEntity
  8
0
  6
Continuous
 62
     7
370
    25
100
AcDbCircle
 10
790.0
 20
340.0
 30
0.0
 40
6.799999999999955
100
AcDbArc
 50
0.0
 51
90.0
  0
ARC
  5
2A8
330
1FA
100
AcDbEntity
  8
0
  6
Continuous
 62
     7
370
    25
100
AcDbCircle
 10
-790.0
 20
340.0
 30
0.0
 40
10.00000000000006
100
AcDbArc
 50
90.0
 51
180.0
  0
ARC
  5
2A9
330
1FA
100
AcDbEntity
  8
0
  6
Continuous
 62
     7
370
    25
100
AcDbCircle
 10
790.0
 20
-340.0
 30
0.0
 40
10.00000000000006
100
AcDbArc
 50
270.0
 51
0.0
  0
ARC
  5
2AA
330
1FA
100
AcDbEntity
  8
0
  6
Continuous
 62
     7
370
    25
100
AcDbCircle
 10
-790.0
 20
-340.0
 30
0.0
 40
6.799999999999955
100
AcDbArc
 50
180.0
 51
270.0
  0
ARC
  5
2AB
330
1FA
100
AcDbEntity
  8
0
  6
Continuous
 62
     7
370
    25
100
AcDbCircle
 10
-790.0
 20
340.0
 30
0.0
 40
6.800000000000011
100
AcDbArc
 50
90.0
 51
180.0
  0
VIEWPORT
  5
35C
330
1FA
100
AcDbEntity
  8
0
100
AcDbViewport
 10
0.0
 20
0.0
 30
0.0
 40
205.6
 41
156.0
 68
     1
 69
     1
 12
0.0
 22
-211.1019991391
 13
0.0
 23
0.0
 14
10.0
 24
10.0
 15
10.0
 25
10.0
 16
0.0
 26
0.0
 36
1.0
 17
0.0
 27
0.0
 37
0.0
 42
50.0
 43
0.0
 44
0.0
 45
1238.2879377432
 50
0.0
 51
0.0
 72
   100
 90
   557152
  1

281
     0
 71
     1
 74
     0
110
0.0
120
0.0
130
0.0
111
1.0
121
0.0
131
0.0
112
0.0
122
1.0
132
0.0
 79
     0
146
0.0
  0
ENDBLK
  5
1FD
330
1FA
100
AcDbEntity
  8
0
100
AcDbBlockEnd
  0
ENDSEC
  0
SECTION
  2
ENTITIES
  0
SPLINE
  5
73
330
1F
100
AcDbEntity
  8
0
  6
Continuous
 62
     7
370
    25
100
AcDbSpline
210
0.0
220
0.0
230
1.0
 70
     8
 71
     3
 72
    19
 73
    15
 74
     0
 42
0.000000001
 43
0.00000001
 40
0.0
 40
0.0
 40
0.0
 40
0.0
 40
0.1360171241780818
 40
0.2606271544794506
 40
0.3723640783896328
 40
0.4702587137562979
 40
0.5537573799561577
 40
0.6226172020231583
 40
0.6768000931846802
 40
0.717792054834564
 40
0.7667415400175324
 40
0.8304579021801048
 40
0.9084597180112295
 40
1.0
 40
1.0
 40
1.0
 40
1.0
 10
418.4571082559461
 20
-384.6949136316075
 30
0.0
 10
420.6784704697674
 20
-384.568322393292
 30
0.0
 10
424.9349000653411
 20
-384.3257565073893
 30
0.0
 10
430.9043355081472
 20
-383.0501889531207
 30
0.0
 10
436.1092665223525
 20
-381.3771116349353
 30
0.0
 10
440.5083557633091
 20
-379.4667738009219
 30
0.0
 10
444.1135951663093
 20
-377.531002566451
 30
0.0
 10
446.9687716196866
 20
-375.7287072611174
 30
0.0
 10
449.151121208418
 20
-374.1716810030486
 30
0.0
 10
451.0062746372605
 20
-372.7210873709852
 30
0.0
 10
452.9192366173004
 20
-371.0942189269945
 30
0.0
 10
455.1821749825887
 20
-368.9521466103147
 30
0.0
 10
457.7918479100731
 20
-366.1680641893339
 30
0.0
 10
459.4742837955057
 20
-363.9658114453832
 30
0.0
 10
460.3826756188991
 20
-362.776756692705
 30
0.0
  0
SPLINE
  5
74
330
1F
100
AcDbEntity
  8
0
  6
Continuous
 62
     7
370
    25
100
AcDbSpline
210
0.0
220
0.0
230
1.0
 70
     8
 71
     3
 72
    19
 73
    15
 74
     0
 42
0.000000001
 43
0.00000001
 40
0.0
 40
0.0
 40
0.0
 40
0.0
 40
0.1052826249854011
 40
0.208611271385946
 40
0.2756973679758809
 40
0.3408960434993718
 40
0.4107547972063268
 40
0.4899633597564674
 40
0.578142043843188
 40
0.6745593663676113
 40
0.7516383732815629
 40
0.8320900669967964
 40
0.9151601985754365
 40
1.0
 40
1.0
 40
1.0
 40
1.0
 10
-660.1026213846775
 20
-358.1229799299112
 30
0.0
 10
-659.5510883924733
 20
-360.6337447076008
 30
0.0
 10
-658.4582585097554
 20
-365.6086760649591
 30
0.0
 10
-655.8343543810471
 20
-371.8350075642858
 30
0.0
 10
-653.0485541547612
 20
-376.8619080143305
 30
0.0
 10
-650.2663043043176
 20
-380.9375996328555
 30
0.0
 10
-646.9316904470862
 20
-384.9670306048285
 30
0.0
 10
-642.7994994484822
 20
-389.0290840544664
 30
0.0
 10
-637.7145746330432
 20
-392.9903891949476
 30
0.0
 10
-632.2099468820253
 20
-396.2503301622552
 30
0.0
 10
-626.536710848972
 20
-398.7559256866326
 30
0.0
 10
-620.9348901781948
 20
-400.522835892802
 30
0.0
 10
-614.983515600033
 20
-401.7366586433669
 30
0.0
 10
-610.892202302244
 20
-401.9602535243678
 30
0.0
 10
-608.8249856609062
 20
-402.0732292427447
 30
0.0
  0
SPLINE
  5
76
330
1F
100
AcDbEntity
  8
0
  6
Continuous
 62
     7
370
    25
100
AcDbSpline
210
0.0
220
0.0
230
1.0
 70
     8
 71
     3
 72
    14
 73
    10
 74
     0
 42
0.000000001
 43
0.00000001
 40
0.0
 40
0.0
 40
0.0
 40
0.0
 40
0.25
 40
0.25
 40
0.5
 40
0.5
 40
0.75
 40
0.75
 40
1.0
 40
1.0
 40
1.0
 40
1.0
 10
-608.8249856615332
 20
-402.0732292433258
 30
0.0
 10
-608.8249864825658
 20
-402.0732299439345
 30
0.0
 10
-608.7993065874471
 20
-402.0080114026629
 30
0.0
 10
-608.7341785612115
 20
-401.7766505201338
 30
0.0
 10
-608.6977440929377
 20
-401.6125587672441
 30
0.0
 10
-608.645933041565
 20
-401.23080621057
 30
0.0
 10
-608.6296521879992
 20
-401.0132710961212
 30
0.0
 10
-608.6168959273684
 20
-400.550658456691
 30
0.0
 10
-608.6199712483599
 20
-400.3053102375572
 30
0.0
 10
-608.6298411182423
 20
-400.0523315443226
 30
0.0
  0
SPLINE
  5
77
330
1F
100
AcDbEntity
  8
0
  6
Continuous
 62
     7
370
    25
100
AcDbSpline
210
0.0
220
0.0
230
1.0
 70
     8
 71
     3
 72
    26
 73
    22
 74
     0
 42
0.000000001
 43
0.00000001
 40
0.0
 40
0.0
 40
0.0
 40
0.0
 40
0.0625
 40
0.0625
 40
0.125
 40
0.125
 40
0.1875
 40
0.1875
 40
0.25
 40
0.25
 40
0.3125
 40
0.3125
 40
0.375
 40
0.375
 40
0.5
 40
0.5
 40
0.625
 40
0.625
 40
0.75
 40
0.75
 40
1.0
 40
1.0
 40
1.0
 40
1.0
 10
-608.6298410515641
 20
-400.0523308697687
 30
0.0
 10
-587.1669426136939
 20
-400.2790234779587
 30
0.0
 10
-565.6769023924516
 20
-400.4501542078897
 30
0.0
 10
-522.6626764079934
 20
-400.6285322262919
 30
0.0
 10
-501.1388650183538
 20
-400.6338539469858
 30
0.0
 10
-458.1231573185025
 20
-400.4746635126938
 30
0.0
 10
-436.6329206633191
 20
-400.311947730286
 30
0.0
 10
-393.7052575279077
 20
-399.8717959347314
 30
0.0
 10
-372.2660947210393
 20
-399.5957381252379
 30
0.0
 10
-329.4206348648661
 20
-398.9796893109431
 30
0.0
 10
-308.0138134290428
 20
-398.6396123430363
 30
0.0
 10
-265.2172557991346
 20
-397.9236721937664
 30
0.0
 10
-243.8275844109448
 20
-397.5475478254777
 30
0.0
 10
-179.6721940061272
 20
-396.3874094337307
 30
0.0
 10
-136.9194048832516
 20
-395.5728582067811
 30
0.0
 10
-51.42402704483499
 20
-393.9121428123732
 30
0.0
 10
-8.682212296544146
 20
-393.0646741086622
 30
0.0
 10
76.79699338761203
 20
-391.3535356337225
 30
0.0
 10
119.534200315069
 20
-390.4895141256764
 30
0.0
 10
247.7425669121437
 20
-387.883622837263
 30
0.0
 10
333.2104404728142
 20
-386.1283782445024
 30
0.0
 10
418.6774838366507
 20
-384.3664841908073
 30
0.0
  0
SPLINE
  5
78
330
1F
100
AcDbEntity
  8
0
  6
Continuous
 62
     7
370
    25
100
AcDbSpline
210
0.0
220
0.0
230
1.0
 70
     8
 71
     3
 72
     8
 73
     4
 74
     0
 42
0.000000001
 43
0.00000001
 40
0.0
 40
0.0
 40
0.0
 40
0.0
 40
1.0
 40
1.0
 40
1.0
 40
1.0
 10
418.677483955593
 20
-384.3664843305735
 30
0.0
 10
418.5316060140696
 20
-384.583589671009
 30
0.0
 10
418.4571082559461
 20
-384.6949136316075
 30
0.0
 10
418.4571082559461
 20
-384.6949136316075
 30
0.0
  0
LWPOLYLINE
  5
8C
330
1F
100
AcDbEntity
  8
0
  6
Continuous
 62
     7
370
    25
100
AcDbPolyline
 90
       19
 70
   128
 43
0.0
 10
460.6125531224
 20
-362.4601184077
 10
460.1501657789
 20
-362.7730445586
 10
459.399569776
 20
-362.8720588898
 10
458.3658469906
 20
-362.7564910293
 10
457.055996197
 20
-362.4271234241
 10
455.478885682
 20
-361.886186043
 10
453.6451932023
 20
-361.1373412785
 10
451.5673336917
 20
-360.1856591509
 10
449.2593752058
 20
-359.0375829819
 10
446.7369436752
 20
-357.7008857703
 10
444.0171171109
 20
-356.1846175653
 10
441.1183099779
 20
-354.4990441935
 10
438.0601485214
 20
-352.6555777548
 10
434.8633378881
 20
-350.6666993569
 10
431.5495219426
 20
-348.5458746129
 10
428.1411367289
 20
-346.3074624727
 10
424.6612585678
 20
-343.9666180064
 10
421.1334478204
 20
-341.5391897978
 10
417.5815893728
 20
-339.0416126418
  0
LWPOLYLINE
  5
8D
330
1F
100
AcDbEntity
  8
0
  6
Continuous
 62
     7
370
    25
100
AcDbPolyline
 90
       20
 70
   128
 43
0.0
 10
-608.0671877132
 20
-354.7274598556
 10
-612.324523305
 20
-355.4357547947
 10
-616.553719194
 20
-356.0873930176
 10
-620.7268216726
 20
-356.6780673924
 10
-624.8162477934
 20
-357.2038737398
 10
-628.7949676847
 20
-357.6613366386
 10
-632.6366832093
 20
-358.0474323973
 10
-636.3160017878
 20
-358.3596090393
 10
-639.8086042352
 20
-358.5958031714
 10
-643.0914055042
 20
-358.7544536218
 10
-646.1427072695
 20
-358.8345117587
 10
-648.9423413478
 20
-358.8354484221
 10
-651.4718030034
 20
-358.757257421
 10
-653.7143732584
 20
-358.6004555743
 10
-655.6552294007
 20
-358.3660792948
 10
-657.2815429571
 20
-358.0556777389
 10
-658.5825644862
 20
-357.6713025672
 10
-659.5496946286
 20
-357.2154943835
 10
-660.176540946
 20
-356.6912659423
 10
-660.4589601735
 20
-356.1020822353
  0
SPLINE
  5
8F
330
1F
100
AcDbEntity
  8
0
  6
Continuous
 62
     7
370
    25
100
AcDbSpline
210
0.0
220
0.0
230
1.0
 70
     8
 71
     3
 72
    24
 73
    20
 74
     0
 42
0.000000001
 43
0.00000001
 40
0.0
 40
0.0
 40
0.0
 40
0.0
 40
0.2500000000000004
 40
0.2500000000000004
 40
0.3750000000000006
 40
0.3750000000000006
 40
0.5000000000000008
 40
0.5000000000000008
 40
0.625000000000001
 40
0.625000000000001
 40
0.687500000000001
 40
0.687500000000001
 40
0.7500000000000009
 40
0.7500000000000009
 40
0.8750000000000008
 40
0.8750000000000008
 40
0.9375000000000004
 40
0.9375000000000004
 40
1.0
 40
1.0
 40
1.0
 40
1.0
 10
417.581589372796
 20
-339.041612641807
 30
0.0
 10
332.1179678276791
 20
-340.8035026353226
 30
0.0
 10
246.654242397922
 20
-342.5587483394324
 30
0.0
 10
118.4582324030446
 20
-345.1646360532811
 30
0.0
 10
75.72615700707466
 20
-346.0286561752071
 30
0.0
 10
-9.73825810054578
 20
-347.7397912262367
 30
0.0
 10
-52.47059231269162
 20
-348.5872578945334
 30
0.0
 10
-137.9357958215463
 20
-350.2479681093006
 30
0.0
 10
-180.6686447221111
 20
-351.0625161593606
 30
0.0
 10
-244.7688826009779
 20
-352.2226486208656
 30
0.0
 10
-266.1357941156971
 20
-352.5987708117306
 30
0.0
 10
-308.8701848382922
 20
-353.3147064801275
 30
0.0
 10
-330.2376599632098
 20
-353.6547810968399
 30
0.0
 10
-394.3415887520493
 20
-354.578849073805
 30
0.0
 10
-437.0794916563021
 20
-355.0701514244474
 30
0.0
 10
-501.1941343930866
 20
-355.3089730479904
 30
0.0
 10
-522.5670094490031
 20
-355.3036770278682
 30
0.0
 10
-565.3153824603907
 20
-355.1253286790971
 30
0.0
 10
-586.6908503024201
 20
-354.9542023563764
 30
0.0
 10
-608.0671877132318
 20
-354.7274598555591
 30
0.0
  0
SPLINE
  5
95
330
1F
100
AcDbEntity
  8
0
  6
Continuous
 62
     7
370
    25
100
AcDbSpline
210
0.0
220
0.0
230
1.0
 70
    24
 71
     3
 72
     9
 73
     5
 74
     0
 42
0.000000001
 43
0.00000001
 40
0.0
 40
0.0
 40
0.0
 40
0.0
 40
0.1182010579097624
 40
1.0
 40
1.0
 40
1.0
 40
1.0
 10
460.4109270637051
 20
-362.7378719148473
 30
0.0
 10
460.4015635147027
 20
-362.7507597344058
 30
0.0
 10
460.3223463810491
 20
-362.859792764959
 30
0.0
 10
460.4812087790488
 20
-362.6411374325083
 30
0.0
 10
460.6212934735429
 20
-362.448327391671
 30
0.0
  0
SPLINE
  5
96
330
1F
100
AcDbEntity
  8
0
  6
Continuous
 62
     7
370
    25
100
AcDbSpline
210
0.0
220
0.0
230
1.0
 70
    24
 71
     3
 72
    10
 73
     6
 74
     0
 42
0.000000001
 43
0.00000001
 40
0.0
 40
0.0
 40
0.0
 40
0.0
 40
0.3733365533588575
 40
0.7466649535900792
 40
1.0
 40
1.0
 40
1.0
 40
1.0
 10
-660.458960173481
 20
-356.1020822353445
 30
0.0
 10
-660.3951014305883
 20
-356.4642431629368
 30
0.0
 10
-660.267385339385
 20
-357.1885571090531
 30
0.0
 10
-660.1210432293847
 20
-358.0185044569392
 30
0.0
 10
-660.1191150914927
 20
-358.0294394703133
 30
0.0
 10
-660.1183356222177
 20
-358.0338600602414
 30
0.0
  0
LINE
  5
9F
330
1F
100
AcDbEntity
  8
0
  6
Continuous
 62
     7
370
    25
100
AcDbLine
 10
-559.235745596
 20
-403.1119757449
 30
0.0
 11
-608.8249856614
 21
-402.0732292435
 31
0.0
  0
LINE
  5
A0
330
1F
100
AcDbEntity
  8
0
  6
Continuous
 62
     7
370
    25
100
AcDbLine
 10
-460.764254404
 20
-403.1119757449
 30
0.0
 11
418.4571082559
 21
-384.6949136316
 31
0.0
  0
LINE
  5
A1
330
1F
100
AcDbEntity
  8
0
  6
Continuous
 62
     7
370
    25
100
AcDbLine
 10
-460.764254404
 20
-403.1119757449
 30
0.0
 11
-559.235745596
 21
-403.1119757449
 31
0.0
  0
LINE
  5
A2
330
1F
100
AcDbEntity
  8
0
  6
Continuous
 62
     7
370
    25
100
AcDbLine
 10
-790.0
 20
0.0
 30
0.0
 11
790.0
 21
0.0
 31
0.0
  0
LINE
  5
A3
330
1F
100
AcDbEntity
  8
0
  6
Continuous
 62
     7
370
    25
100
AcDbLine
 10
790.0
 20
-40.0
 30
0.0
 11
790.0
 21
0.0
 31
0.0
  0
LINE
  5
A4
330
1F
100
AcDbEntity
  8
0
  6
Continuous
 62
     7
370
    25
100
AcDbLine
 10
800.0
 20
-10.0
 30
0.0
 11
-800.0
 21
-10.0
 31
0.0
  0
LINE
  5
A5
330
1F
100
AcDbEntity
  8
0
  6
Continuous
 62
     7
370
    25
100
AcDbLine
 10
-790.0
 20
0.0
 30
0.0
 11
-790.0
 21
-40.0
 31
0.0
  0
LINE
  5
A6
330
1F
100
AcDbEntity
  8
0
  6
Continuous
 62
     7
370
    25
100
AcDbLine
 10
800.0
 20
-10.0
 30
0.0
 11
800.0
 21
-40.0
 31
0.0
  0
LINE
  5
A7
330
1F
100
AcDbEntity
  8
0
  6
Continuous
 62
     7
370
    25
100
AcDbLine
 10
-800.0
 20
-40.0
 30
0.0
 11
-800.0
 21
-10.0
 31
0.0
  0
LINE
  5
A8
330
1F
100
AcDbEntity
  8
0
  6
Continuous
 62
     7
370
    25
100
AcDbLine
 10
-800.0
 20
-40.0
 30
0.0
 11
800.0
 21
-40.0
 31
0.0
  0
LINE
  5
A9
330
1F
100
AcDbEntity
  8
0
  6
Continuous
 62
     7
370
    25
100
AcDbLine
 10
460.6212934735
 20
-362.4483273917
 30
0.0
 11
694.8937164078
 21
-40.0
 31
0.0
  0
LINE
  5
AA
330
1F
100
AcDbEntity
  8
0
  6
Continuous
 62
     7
370
    25
100
AcDbLine
 10
-716.1962859297
 20
-40.0
 30
0.0
 11
-660.4589601735
 21
-356.1020822353
 31
0.0
  0
LINE
  5
AB
330
1F
100
AcDbEntity
  8
0
  6
Continuous
 62
     7
370
    25
100
AcDbLine
 10
-608.6298411179
 20
-400.0523315443
 30
0.0
 11
-608.0671877132
 21
-354.7274598556
 31
0.0
  0
LINE
  5
AC
330
1F
100
AcDbEntity
  8
0
  6
Continuous
 62
     7
370
    25
100
AcDbLine
 10
-554.4481579028
 20
-405.2269880515
 30
0.0
 11
-465.5518420972
 21
-405.2269880515
 31
0.0
  0
LINE
  5
AD
330
1F
100
AcDbEntity
  8
0
  6
Continuous
 62
     7
370
    25
100
AcDbLine
 10
-538.3199981875
 20
-422.2039982781
 30
0.0
 11
-554.4481579028
 21
-405.2269880515
 31
0.0
  0
LINE
  5
AE
330
1F
100
AcDbEntity
  8
0
  6
Continuous
 62
     7
370
    25
100
AcDbLine
 10
-481.6800018125
 20
-422.2039982781
 30
0.0
 11
-465.5518420972
 21
-405.2269880515
 31
0.0
  0
LINE
  5
AF
330
1F
100
AcDbEntity
  8
0
  6
Continuous
 62
     7
370
    25
100
AcDbLine
 10
-538.3199981875
 20
-422.2039982781
 30
0.0
 11
-481.6800018125
 21
-422.2039982781
 31
0.0
  0
LINE
  5
B0
330
1F
100
AcDbEntity
  8
0
  6
Continuous
 62
     8
370
    25
100
AcDbLine
 10
634.8480386004
 20
-40.0
 30
0.0
 11
417.5815893728
 21
-339.0416126418
 31
0.0
  0
LINE
  5
B1
330
1F
100
AcDbEntity
  8
0
  6
Continuous
 62
     8
370
    25
100
AcDbLine
 10
-608.0671877132
 20
-354.7274598556
 30
0.0
 11
-663.5621304556
 21
-40.0
 31
0.0
  0
ARC
  5
B2
330
1F
100
AcDbEntity
  8
0
  6
Continuous
 62
     7
370
    25
100
AcDbCircle
 10
790.0
 20
-10.0
 30
0.0
 40
10.0
100
AcDbArc
 50
0.0
 51
90.0
  0
ARC
  5
B3
330
1F
100
AcDbEntity
  8
0
  6
Continuous
 62
     7
370
    25
100
AcDbCircle
 10
-790.0
 20
-10.0
 30
0.0
 40
10.0
100
AcDbArc
 50
90.0
 51
180.0
  0
ARC
  5
B4
330
1F
100
AcDbEntity
  8
0
  6
Continuous
 62
     7
370
    25
100
AcDbCircle
 10
460.0010683206
 20
-361.9977067924
 30
0.0
 40
0.7666408317240216
100
AcDbArc
 50
322.9030226255
 51
323.9999607749
  0
ARC
  5
B5
330
1F
100
AcDbEntity
  8
0
  6
Continuous
 62
     7
370
    25
100
AcDbCircle
 10
3850.3284810725
 20
-278.7180831626
 30
0.0
 40
3433.276882321419
100
AcDbArc
 50
181.0067529131
 51
181.763377502
  0
ARC
  5
B6
330
1F
100
AcDbEntity
  8
0
  6
Continuous
 62
     7
370
    25
100
AcDbCircle
 10
417.5816245112
 20
-331.1776353592
 30
0.0
 40
53.20013686848369
100
AcDbArc
 50
271.1803082835
 51
323.9837211665
  0
ARC
  5
B7
330
1F
100
AcDbEntity
  8
0
  6
Continuous
 62
     7
370
    25
100
AcDbCircle
 10
-608.0743007887
 20
-346.8618673077
 30
0.0
 40
53.19336528896903
100
AcDbArc
 50
190.0035918383
 51
269.4016040403
  0
ARC
  5
B8
330
1F
100
AcDbEntity
  8
0
  6
Continuous
 62
     7
370
    25
100
AcDbCircle
 10
417.5822708883
 20
-331.1785364678
 30
0.0
 40
53.19922264019282
100
AcDbArc
 50
271.1796322716
 51
323.9999035874
  0
ARC
  5
B9
330
1F
100
AcDbEntity
  8
0
  6
Continuous
 62
     7
370
    25
100
AcDbCircle
 10
-460.6218459488
 20
-409.9104843925
 30
0.0
 40
6.800000000002048
100
AcDbArc
 50
91.2
 51
136.4688007144
  0
ARC
  5
BA
330
1F
100
AcDbEntity
  8
0
  6
Continuous
 62
     7
370
    25
100
AcDbCircle
 10
-559.3781540512
 20
-409.9104843925
 30
0.0
 40
6.800000000002119
100
AcDbArc
 50
43.5311992856
 51
88.8
  0
SPLINE
  5
2B0
330
2AC
100
AcDbEntity
 67
     1
  8
0
  6
Continuous
 62
     7
370
    25
100
AcDbSpline
210
0.0
220
0.0
230
1.0
 70
     8
 71
     3
 72
    25
 73
    21
 74
     0
 42
0.000000001
 43
0.00000001
 40
0.0
 40
0.0
 40
0.0
 40
0.0
 40
0.0516292580718038
 40
0.1042445449867651
 40
0.1581566394577208
 40
0.2135291588136198
 40
0.2820972789812843
 40
0.3412116505570025
 40
0.390316661667074
 40
0.4154182133092746
 40
0.4456381620010126
 40
0.4836230593776981
 40
0.529720129098243
 40
0.5843408812013138
 40
0.6367023394044643
 40
0.6955689700401239
 40
0.7611864409035712
 40
0.8337507694932834
 40
0.9133635384332628
 40
0.9999999999999999
 40
0.9999999999999999
 40
0.9999999999999999
 40
0.9999999999999999
 10
350.031832190588
 20
-386.5285114451058
 30
0.0
 10
348.9885605903803
 20
-387.0976147038845
 30
0.0
 10
346.8820927207466
 20
-388.2466901017788
 30
0.0
 10
343.2311338128879
 20
-389.7454131106145
 30
0.0
 10
339.202303201457
 20
-391.0544166262236
 30
0.0
 10
334.4797718899911
 20
-392.2000866891307
 30
0.0
 10
329.3610390878703
 20
-393.0291661815994
 30
0.0
 10
324.2686075602211
 20
-393.4794467406413
 30
0.0
 10
320.3832853153052
 20
-393.6010248720993
 30
0.0
 10
317.3381202164522
 20
-393.5847397747937
 30
0.0
 10
314.622366437307
 20
-393.4980194283065
 30
0.0
 10
311.3144438146937
 20
-393.2860586777794
 30
0.0
 10
307.3447707906833
 20
-392.8790196087381
 30
0.0
 10
303.0432717693531
 20
-392.2449020136464
 30
0.0
 10
298.4994773524355
 20
-391.3607471250212
 30
0.0
 10
293.8016886860339
 20
-390.2173472053034
 30
0.0
 10
288.7718884825286
 20
-388.7148530184422
 30
0.0
 10
283.4955215652803
 20
-386.7967972744041
 30
0.0
 10
278.0371752438886
 20
-384.4354930334318
 30
0.0
 10
274.612457772839
 20
-382.5606645850087
 30
0.0
 10
272.8277553555515
 20
-381.583646512077
 30
0.0
  0
SPLINE
  5
2B3
330
2AC
100
AcDbEntity
 67
     1
  8
0
  6
Continuous
 62
     7
370
    25
100
AcDbSpline
210
0.0
220
0.0
230
1.0
 70
     8
 71
     3
 72
     9
 73
     5
 74
     0
 42
0.000000001
 43
0.00000001
 40
0.0
 40
0.0
 40
0.0
 40
0.0
 40
0.4955078421025705
 40
1.0
 40
1.0
 40
1.0
 40
1.0
 10
670.7131078217327
 20
-200.6360808372181
 30
0.0
 10
670.0024974279562
 20
-201.259820260472
 30
0.0
 10
668.5683921860268
 20
-202.518608457662
 30
0.0
 10
666.6710402547176
 20
-203.6954562795267
 30
0.0
 10
665.7138410846005
 20
-204.2891667766962
 30
0.0
  0
SPLINE
  5
2B8
330
2AC
100
AcDbEntity
 67
     1
  8
0
  6
Continuous
 62
     7
370
    25
100
AcDbSpline
210
0.0
220
0.0
230
1.0
 70
     8
 71
     3
 72
    54
 73
    50
 74
     0
 42
0.000000001
 43
0.00000001
 40
0.0
 40
0.0
 40
0.0
 40
0.0
 40
0.025780352301108
 40
0.0502881136688002
 40
0.0735199212248015
 40
0.0954709955105058
 40
0.1161358261215071
 40
0.1355105281467105
 40
0.1525950263836027
 40
0.1685319596801357
 40
0.183321813697355
 40
0.1969651060625873
 40
0.2094632299090232
 40
0.2220612435475367
 40
0.2338691364983456
 40
0.2457451257818337
 40
0.2576940515577171
 40
0.2697161573314257
 40
0.2818116166944121
 40
0.2939805884956339
 40
0.3062232307191046
 40
0.3505413126785078
 40
0.3952096464478824
 40
0.4398807826112731
 40
0.4845559770919973
 40
0.5170481676168797
 40
0.5495409005799152
 40
0.5820341983785217
 40
0.6142651964951904
 40
0.645253990878345
 40
0.6749080225352585
 40
0.7032273331336589
 40
0.7111516041240694
 40
0.7196666845645797
 40
0.7290473445394327
 40
0.7392935817988067
 40
0.750405397235318
 40
0.7623827990354292
 40
0.7776102617827868
 40
0.7940400328870728
 40
0.8116720922593181
 40
0.8305064175453599
 40
0.8509644134283838
 40
0.8726742021197982
 40
0.89563576748665
 40
0.9198491043504782
 40
0.945314224806642
 40
0.9720311660651506
 40
1.0
 40
1.0
 40
1.0
 40
1.0
 10
-575.4380673118798
 20
-149.2963480551431
 30
0.0
 10
-569.1815844836126
 20
-152.9694387652575
 30
0.0
 10
-556.9774564732563
 20
-160.1343060637585
 30
0.0
 10
-539.1418965963462
 20
-170.5517641272249
 30
0.0
 10
-522.2392146115996
 20
-180.3812318291179
 30
0.0
 10
-506.272201040988
 20
-189.6210395601676
 30
0.0
 10
-491.2439139222472
 20
-198.2783920173998
 30
0.0
 10
-477.3986536637948
 20
-206.21938111061
 30
0.0
 10
-464.7026428600015
 20
-213.4742224286623
 30
0.0
 10
-453.120834327532
 20
-220.0721859808617
 30
0.0
 10
-442.3759120139015
 20
-226.1774879984536
 30
0.0
 10
-432.4671057021513
 20
-231.7954146728636
 30
0.0
 10
-423.0922167888162
 20
-237.1011836739712
 30
0.0
 10
-414.1654140798843
 20
-242.1454545220815
 30
0.0
 10
-405.3925547290459
 20
-247.0959644588844
 30
0.0
 10
-396.777771869238
 20
-251.9514854129577
 30
0.0
 10
-388.1128804654472
 20
-256.8301206089546
 30
0.0
 10
-379.3964079930791
 20
-261.7331189076124
 30
0.0
 10
-370.6282178606629
 20
-266.6608723830967
 30
0.0
 10
-361.8081500182712
 20
-271.6138349554293
 30
0.0
 10
-345.2056124997558
 20
-280.9304142788194
 30
0.0
 10
-320.7613645132822
 20
-294.6277756017132
 30
0.0
 10
-288.496263113175
 20
-312.6791416567546
 30
0.0
 10
-256.1507603600259
 20
-330.7562205464757
 30
0.0
 10
-226.7488198149973
 20
-347.1743689629234
 30
0.0
 10
-200.2878204523865
 20
-361.9432724612753
 30
0.0
 10
-176.7675842961488
 20
-375.0663760389849
 30
0.0
 10
-153.3114415788814
 20
-388.1498752385332
 30
0.0
 10
-130.2190013608989
 20
-401.0273958254892
 30
0.0
 10
-107.8122540636062
 20
-413.5202300660719
 30
0.0
 10
-86.34971782772965
 20
-425.4847376316046
 30
0.0
 10
-70.45191630431164
 20
-434.3459440081226
 30
0.0
 10
-59.65392198953745
 20
-440.3641521089247
 30
0.0
 10
-53.42502602213076
 20
-443.8356861871368
 30
0.0
 10
-46.63615238785604
 20
-447.6191865718636
 30
0.0
 10
-39.22101742833521
 20
-451.7515666491826
 30
0.0
 10
-31.17963285611308
 20
-456.2327917411664
 30
0.0
 10
-21.93681752390235
 20
-461.3833593645638
 30
0.0
 10
-11.41139463719695
 20
-467.2484312816805
 30
0.0
 10
0.4778028877577001
 20
-473.8731465886074
 30
0.0
 10
13.23679242364975
 20
-480.9821924854413
 30
0.0
 10
26.96718959604735
 20
-488.632134519992
 30
0.0
 10
41.68091140459423
 20
-496.8295555418861
 30
0.0
 10
57.3898779250446
 20
-505.5810432153374
 30
0.0
 10
74.0043718191447
 20
-514.836573317715
 30
0.0
 10
91.52437965878256
 20
-524.5961078111222
 30
0.0
 10
109.9498991660966
 20
-534.8596148686448
 30
0.0
 10
129.2809709047748
 20
-545.6271337148429
 30
0.0
 10
142.470095853054
 20
-552.9732250708785
 30
0.0
 10
149.2156241759148
 20
-556.7303558508795
 30
0.0
  0
SPLINE
  5
2BC
330
2AC
100
AcDbEntity
 67
     1
  8
0
  6
Continuous
 62
     7
370
    25
100
AcDbSpline
210
0.0
220
0.0
230
1.0
 70
     8
 71
     3
 72
    12
 73
     8
 74
     0
 42
0.000000001
 43
0.00000001
 40
0.0
 40
0.0
 40
0.0
 40
0.0
 40
0.2142891402607241
 40
0.4530407649727597
 40
0.6252411672844954
 40
0.8075543586586054
 40
1.0
 40
1.0
 40
1.0
 40
1.0
 10
-665.0813179220154
 20
159.8597365439078
 30
0.0
 10
-666.4801175353376
 20
160.7267964559928
 30
0.0
 10
-669.437398740032
 20
162.5598967492241
 30
0.0
 10
-672.5288469068444
 20
165.2554369439318
 30
0.0
 10
-674.813070274424
 20
167.852640007311
 30
0.0
 10
-676.3991458957071
 20
170.2742577598953
 30
0.0
 10
-676.9801314738659
 20
171.9380291009446
 30
0.0
 10
-677.2784783904382
 20
172.7924066761271
 30
0.0
  0
SPLINE
  5
2D2
330
2AC
100
AcDbEntity
 67
     1
  8
0
  6
Continuous
 62
     7
370
    25
100
AcDbSpline
210
0.0
220
0.0
230
1.0
 70
     8
 71
     3
 72
    22
 73
    18
 74
     0
 42
0.000000001
 43
0.00000001
 40
0.0
 40
0.0
 40
0.0
 40
0.0
 40
0.1250000000000006
 40
0.1250000000000006
 40
0.2500000000000012
 40
0.2500000000000012
 40
0.375000000000001
 40
0.375000000000001
 40
0.5000000000000008
 40
0.5000000000000008
 40
0.6250000000000006
 40
0.6250000000000006
 40
0.7500000000000004
 40
0.7500000000000004
 40
0.8750000000000002
 40
0.8750000000000002
 40
1.0
 40
1.0
 40
1.0
 40
1.0
 10
354.8787669575692
 20
-387.1064961691499
 30
0.0
 10
352.4724360349938
 20
-388.4956414419642
 30
0.0
 10
349.7525590064901
 20
-389.7762452567436
 30
0.0
 10
343.714679081892
 20
-392.0078049324521
 30
0.0
 10
340.396410042849
 20
-392.958032587289
 30
0.0
 10
333.2645603900148
 20
-394.4265125111643
 30
0.0
 10
329.4513908532918
 20
-394.9440422731708
 30
0.0
 10
321.5064781635176
 20
-395.4788039004721
 30
0.0
 10
317.3758439293919
 20
-395.4956141906716
 30
0.0
 10
309.0235899292756
 20
-395.012924349182
 30
0.0
 10
304.8034358180771
 20
-394.5135089199791
 30
0.0
 10
296.5103209361008
 20
-393.0403262443473
 30
0.0
 10
292.4386392286438
 20
-392.0671185782483
 30
0.0
 10
284.6479343172686
 20
-389.7362408516818
 30
0.0
 10
280.9295836331526
 20
-388.3793559210069
 30
0.0
 10
273.9876634895708
 20
-385.3976732680288
 30
0.0
 10
270.7640776151799
 20
-383.773587422356
 30
0.0
 10
267.8223601092773
 20
-382.0753700537716
 30
0.0
  0
SPLINE
  5
2D4
330
2AC
100
AcDbEntity
 67
     1
  8
0
  6
Continuous
 62
     7
370
    25
100
AcDbSpline
210
0.0
220
0.0
230
1.0
 70
     8
 71
     3
 72
    22
 73
    18
 74
     0
 42
0.000000001
 43
0.00000001
 40
0.0
 40
0.0
 40
0.0
 40
0.0
 40
0.125
 40
0.125
 40
0.25
 40
0.25
 40
0.375
 40
0.375
 40
0.5
 40
0.5
 40
0.625
 40
0.625
 40
0.75
 40
0.75
 40
0.875
 40
0.875
 40
1.0
 40
1.0
 40
1.0
 40
1.0
 10
661.8456656100711
 20
-154.6105575128363
 30
0.0
 10
664.7873831159736
 20
-156.3087748814207
 30
0.0
 10
667.6006871438826
 20
-158.1697113955593
 30
0.0
 10
672.7656726278212
 20
-162.1771965927281
 30
0.0
 10
675.1161209437453
 20
-164.3237547518931
 30
0.0
 10
679.1537570786729
 20
-168.8212329657144
 30
0.0
 10
680.8395848656237
 20
-171.1717647829528
 30
0.0
 10
683.3914886127342
 20
-175.9592780992317
 30
0.0
 10
684.2565952463028
 20
-178.3955212107336
 30
0.0
 10
685.0927291729123
 20
-183.2171748132181
 30
0.0
 10
685.0636097410461
 20
-185.6017391996988
 30
0.0
 10
684.1372750623304
 20
-190.1882396690981
 30
0.0
 10
683.2407900840916
 20
-192.3895355867471
 30
0.0
 10
680.6970326246264
 20
-196.5066647557699
 30
0.0
 10
679.0510116978961
 20
-198.4222606974033
 30
0.0
 10
675.1854181143314
 20
-201.9078545849217
 30
0.0
 10
672.9671068841253
 20
-203.4780061718608
 30
0.0
 10
670.5607759615498
 20
-204.8671514446749
 30
0.0
  0
SPLINE
  5
2D6
330
2AC
100
AcDbEntity
 67
     1
  8
0
  6
Continuous
 62
     7
370
    25
100
AcDbSpline
210
0.0
220
0.0
230
1.0
 70
     8
 71
     3
 72
    22
 73
    18
 74
     0
 42
0.000000001
 43
0.00000001
 40
0.0
 40
0.0
 40
0.0
 40
0.0
 40
0.1250000000000004
 40
0.1250000000000004
 40
0.2500000000000009
 40
0.2500000000000009
 40
0.3750000000000013
 40
0.3750000000000013
 40
0.500000000000001
 40
0.500000000000001
 40
0.6250000000000008
 40
0.6250000000000008
 40
0.7500000000000004
 40
0.7500000000000004
 40
0.8750000000000002
 40
0.8750000000000002
 40
1.0
 40
1.0
 40
1.0
 40
1.0
 10
-359.8351144522023
 20
386.9359280174048
 30
0.0
 10
-357.3408218814698
 20
388.3758524688353
 30
0.0
 10
-354.5419294069908
 20
389.7377657258336
 30
0.0
 10
-348.3750564552795
 20
392.190774930056
 30
0.0
 10
-345.0068189256103
 20
393.2811087520251
 30
0.0
 10
-337.8213451808886
 20
395.0795656059983
 30
0.0
 10
-334.0046594571986
 20
395.7868557379804
 30
0.0
 10
-326.120506943303
 20
396.7371351577462
 30
0.0
 10
-322.054398755118
 20
396.9795701313109
 30
0.0
 10
-313.9186509710471
 20
396.9695570309547
 30
0.0
 10
-309.8507151573895
 20
396.71711105397
 30
0.0
 10
-301.9594720609363
 20
395.7474160102695
 30
0.0
 10
-298.1375274867626
 20
395.0307246070354
 30
0.0
 10
-290.9387047405919
 20
393.2145642292881
 30
0.0
 10
-287.5623832168902
 20
392.1159295174128
 30
0.0
 10
-281.377335898043
 20
389.6477181436366
 30
0.0
 10
-278.5683586772988
 20
388.2789029811793
 30
0.0
 10
-276.0634079264798
 20
386.832825693352
 30
0.0
  0
SPLINE
  5
2D8
330
2AC
100
AcDbEntity
 67
     1
  8
0
  6
Continuous
 62
     7
370
    25
100
AcDbSpline
210
0.0
220
0.0
230
1.0
 70
     8
 71
     3
 72
    22
 73
    18
 74
     0
 42
0.000000001
 43
0.00000001
 40
0.0
 40
0.0
 40
0.0
 40
0.0
 40
0.125
 40
0.125
 40
0.25
 40
0.25
 40
0.375
 40
0.375
 40
0.5
 40
0.5
 40
0.625
 40
0.625
 40
0.75
 40
0.75
 40
0.875
 40
0.875
 40
1.0
 40
1.0
 40
1.0
 40
1.0
 10
-670.0867134272736
 20
159.3680131524167
 30
0.0
 10
-672.5916641780927
 20
160.814090440244
 30
0.0
 10
-674.9627785008144
 20
162.4356784733079
 30
0.0
 10
-679.2383092666772
 20
166.0062302891461
 30
0.0
 10
-681.1414066111644
 20
167.9553392168289
 30
0.0
 10
-684.2874295382524
 20
172.1111311296752
 30
0.0
 10
-685.5289099789928
 20
174.3174927686176
 30
0.0
 10
-687.2086530661917
 20
178.8730104412798
 30
0.0
 10
-687.6459497064973
 20
181.2213798000572
 30
0.0
 10
-687.6632947844308
 20
185.9180470244284
 30
0.0
 10
-687.2433395896652
 20
188.2653613174781
 30
0.0
 10
-685.5972289937324
 20
192.8167856839583
 30
0.0
 10
-684.3720337969963
 20
195.0201114531369
 30
0.0
 10
-681.2566775953617
 20
199.1681971514781
 30
0.0
 10
-679.3679593719476
 20
201.1126392887416
 30
0.0
 10
-675.1187623894572
 20
204.6726992657571
 30
0.0
 10
-672.7596038130891
 20
206.2884654987223
 30
0.0
 10
-670.2653112423565
 20
207.7283899501526
 30
0.0
  0
LWPOLYLINE
  5
2DD
330
2AC
100
AcDbEntity
 67
     1
  8
0
  6
Continuous
 62
     7
370
    25
100
AcDbPolyline
 90
       19
 70
   128
 43
0.0
 10
205.4437800101
 20
-553.4111344131
 10
202.0467829129
 20
-555.2501992906
 10
198.4673582144
 20
-556.7846137623
 10
194.729740251
 20
-558.003989143
 10
190.8592343992
 20
-558.9000697059
 10
186.8820457475
 20
-559.4667885771
 10
182.8251016753
 20
-559.7003088117
 10
178.7158695425
 20
-559.5990493712
 10
174.5821707231
 20
-559.1636958283
 10
170.4519922418
 20
-558.3971957248
 10
166.3532972888
 20
-557.3047386157
 10
162.3138358967
 20
-555.8937209333
 10
158.3609570597
 20
-554.1736959104
 10
154.5214235687
 20
-552.1563089002
 10
150.8212308151
 20
-549.8552185318
 10
147.2854307898
 20
-547.2860042358
 10
143.9379624702
 20
-544.4660607635
 10
140.8014897421
 20
-541.4144804173
 10
137.8972479551
 20
-538.1519237865
  0
SPLINE
  5
2DE
330
2AC
100
AcDbEntity
 67
     1
  8
0
  6
Continuous
 62
     7
370
    25
100
AcDbSpline
210
0.0
220
0.0
230
1.0
 70
     8
 71
     3
 72
    24
 73
    20
 74
     0
 42
0.000000001
 43
0.00000001
 40
0.0
 40
0.0
 40
0.0
 40
0.0
 40
0.2500000000000004
 40
0.2500000000000004
 40
0.3750000000000006
 40
0.3750000000000006
 40
0.5000000000000008
 40
0.5000000000000008
 40
0.625000000000001
 40
0.625000000000001
 40
0.687500000000001
 40
0.687500000000001
 40
0.7500000000000009
 40
0.7500000000000009
 40
0.8750000000000008
 40
0.8750000000000008
 40
0.9375000000000004
 40
0.9375000000000004
 40
1.0
 40
1.0
 40
1.0
 40
1.0
 10
137.8972479550582
 20
-538.1519237864966
 30
0.0
 10
77.65153430318942
 20
-504.5964951741237
 30
0.0
 10
17.40504503979043
 20
-471.0360041670281
 30
0.0
 10
-72.96783842497832
 20
-420.6747105034037
 30
0.0
 10
-103.0926709517385
 20
-403.8841008532909
 30
0.0
 10
-163.3443094085339
 20
-370.2900012051889
 30
0.0
 10
-193.4710742788022
 20
-353.4867792031474
 30
0.0
 10
-253.7285990060507
 20
-319.854260032744
 30
0.0
 10
-283.8592065836879
 20
-303.0259567873862
 30
0.0
 10
-329.0623191981123
 20
-277.7364995756526
 30
0.0
 10
-344.1312594513119
 20
-269.2986128518582
 30
0.0
 10
-374.2733784029372
 20
-252.3951751910553
 30
0.0
 10
-389.3465266176569
 20
-243.9298232203366
 30
0.0
 10
-434.5771958788332
 20
-218.4605045474538
 30
0.0
 10
-464.7455370764607
 20
-201.3859150217998
 30
0.0
 10
-510.0561975812827
 20
-175.3944957431712
 30
0.0
 10
-525.1696621386168
 20
-166.6660001339667
 30
0.0
 10
-555.4161740437369
 20
-149.0811925910177
 30
0.0
 10
-570.5489965620033
 20
-140.2263481132567
 30
0.0
 10
-585.688311354516
 20
-131.3291287434169
 30
0.0
  0
LWPOLYLINE
  5
2E6
330
2AC
100
AcDbEntity
 67
     1
  8
0
  6
Continuous
 62
     7
370
    25
100
AcDbPolyline
 90
       17
 70
   128
 43
0.0
 10
-311.1882850824
 20
-6.8291621579
 10
-308.085033369
 20
-4.823950371
 10
-305.0077157316
 20
-2.5244116746
 10
-301.9800251536
 20
0.0517492482
 10
-299.0252725285
 20
2.884697936
 10
-296.1662071835
 20
5.9526228583
 10
-293.424841727
 20
9.2319033483
 10
-290.8222825688
 20
12.6972914634
 10
-288.3785674167
 20
16.3221063752
 10
-286.1125110014
 20
20.0784397911
 10
-284.041560218
 20
23.9373708274
 10
-282.1816597979
 20
27.8691886772
 10
-280.5471295466
 20
31.8436213611
 10
-279.1505540923
 20
35.8300687982
 10
-278.002685994
 20
39.7978384034
 10
-277.1123629551
 20
43.7163813963
 10
-276.4864397794
 20
47.5555280038
  0
SPLINE
  5
2E9
330
2AC
100
AcDbEntity
 67
     1
  8
0
  6
Continuous
 62
     7
370
    25
100
AcDbSpline
210
0.0
220
0.0
230
1.0
 70
     8
 71
     3
 72
    38
 73
    34
 74
     0
 42
0.000000001
 43
0.00000001
 40
0.0
 40
0.0
 40
0.0
 40
0.0
 40
0.0625
 40
0.0625
 40
0.125
 40
0.125
 40
0.1875
 40
0.1875
 40
0.25
 40
0.25
 40
0.3125
 40
0.3125
 40
0.375
 40
0.375
 40
0.4375
 40
0.4375
 40
0.5
 40
0.5
 40
0.5625
 40
0.5625
 40
0.625
 40
0.625
 40
0.6875
 40
0.6875
 40
0.75
 40
0.75
 40
0.8125
 40
0.8125
 40
0.875
 40
0.875
 40
0.9375
 40
0.9375
 40
1.0
 40
1.0
 40
1.0
 40
1.0
 10
-503.0074642698238
 20
250.3695284278761
 30
0.0
 10
-502.2414319235382
 20
250.8117494884467
 30
0.0
 10
-501.4186684917853
 20
251.2221811809169
 30
0.0
 10
-499.6579701936917
 20
251.9256917560817
 30
0.0
 10
-498.7197680319804
 20
252.2187757870917
 30
0.0
 10
-496.740347205759
 20
252.6156142655283
 30
0.0
 10
-495.698824643129
 20
252.7191390771664
 30
0.0
 10
-493.5479720986713
 20
252.6492583124952
 30
0.0
 10
-492.438442750896
 20
252.4752330281602
 30
0.0
 10
-490.2180613765739
 20
251.7592010860198
 30
0.0
 10
-489.1073653489957
 20
251.2161523209343
 30
0.0
 10
-486.9841111483478
 20
249.692629728731
 30
0.0
 10
-485.9722945548149
 20
248.7110106479073
 30
0.0
 10
-484.1664888620332
 20
246.2970253690543
 30
0.0
 10
-483.3737318450576
 20
244.8641366908942
 30
0.0
 10
-482.1154803751953
 20
241.6184911201502
 30
0.0
 10
-481.6511002025717
 20
239.806483434473
 30
0.0
 10
-481.1108115195893
 20
235.9562378986369
 30
0.0
 10
-481.0351587671873
 20
233.9198226499152
 30
0.0
 10
-481.2621941566787
 20
229.8167392263439
 30
0.0
 10
-481.5641295308532
 20
227.7518980822594
 30
0.0
 10
-482.4725699370209
 20
223.7710118829071
 30
0.0
 10
-483.0778918993454
 20
221.8558385850473
 30
0.0
 10
-484.4873851076507
 20
218.2929043237536
 30
0.0
 10
-485.290628587777
 20
216.644961799195
 30
0.0
 10
-486.9923328264361
 20
213.6647580269328
 30
0.0
 10
-487.8903904143802
 20
212.3317774736636
 30
0.0
 10
-489.7007403574686
 20
209.9751431878496
 30
0.0
 10
-490.6130413097955
 20
208.950749692719
 30
0.0
 10
-492.3988226720364
 20
207.1739832142389
 30
0.0
 10
-493.2725018151033
 20
206.4210904322437
 30
0.0
 10
-494.9519600574897
 20
205.1386409089385
 30
0.0
 10
-495.7579677277529
 20
204.6088030584143
 30
0.0
 10
-496.5240000740384
 20
204.1665819978437
 30
0.0
  0
SPLINE
  5
2EA
330
2AC
100
AcDbEntity
 67
     1
  8
0
  6
Continuous
 62
     7
370
    25
100
AcDbSpline
210
0.0
220
0.0
230
1.0
 70
     8
 71
     3
 72
    38
 73
    34
 74
     0
 42
0.000000001
 43
0.00000001
 40
0.0
 40
0.0
 40
0.0
 40
0.0
 40
0.0624999999999999
 40
0.0624999999999999
 40
0.1249999999999999
 40
0.1249999999999999
 40
0.1874999999999999
 40
0.1874999999999999
 40
0.2499999999999999
 40
0.2499999999999999
 40
0.3124999999999999
 40
0.3124999999999999
 40
0.3749999999999999
 40
0.3749999999999999
 40
0.4374999999999999
 40
0.4374999999999999
 40
0.4999999999999999
 40
0.4999999999999999
 40
0.5624999999999998
 40
0.5624999999999998
 40
0.6249999999999998
 40
0.6249999999999998
 40
0.6874999999999997
 40
0.6874999999999997
 40
0.7499999999999997
 40
0.7499999999999997
 40
0.8124999999999997
 40
0.8124999999999997
 40
0.8749999999999998
 40
0.8749999999999998
 40
0.9374999999999998
 40
0.9374999999999998
 40
1.0
 40
1.0
 40
1.0
 40
1.0
 10
-496.5240000740384
 20
204.1665819978437
 30
0.0
 10
-497.2900324203238
 20
203.724360937273
 30
0.0
 10
-498.1127958520769
 20
203.3139292448029
 30
0.0
 10
-499.8734941501706
 20
202.6104186696382
 30
0.0
 10
-500.8116963118814
 20
202.317334638628
 30
0.0
 10
-502.7911171381027
 20
201.9204961601913
 30
0.0
 10
-503.832639700733
 20
201.8169713485534
 30
0.0
 10
-505.9834922451905
 20
201.8868521132244
 30
0.0
 10
-507.0930215929662
 20
202.0608773975597
 30
0.0
 10
-509.3134029672882
 20
202.7769093397
 30
0.0
 10
-510.4240989948663
 20
203.3199581047855
 30
0.0
 10
-512.547353195514
 20
204.8434806969886
 30
0.0
 10
-513.5591697890467
 20
205.8250997778123
 30
0.0
 10
-515.3649754818281
 20
208.2390850566652
 30
0.0
 10
-516.1577324988041
 20
209.6719737348254
 30
0.0
 10
-517.4159839686664
 20
212.9176193055694
 30
0.0
 10
-517.8803641412901
 20
214.7296269912466
 30
0.0
 10
-518.4206528242721
 20
218.5798725270826
 30
0.0
 10
-518.496305576674
 20
220.6162877758043
 30
0.0
 10
-518.2692701871827
 20
224.7193711993755
 30
0.0
 10
-517.9673348130084
 20
226.7842123434601
 30
0.0
 10
-517.058894406841
 20
230.7650985428125
 30
0.0
 10
-516.4535724445165
 20
232.6802718406724
 30
0.0
 10
-515.0440792362115
 20
236.2432061019663
 30
0.0
 10
-514.240835756085
 20
237.8911486265247
 30
0.0
 10
-512.5391315174256
 20
240.8713523987868
 30
0.0
 10
-511.6410739294815
 20
242.2043329520559
 30
0.0
 10
-509.8307239863935
 20
244.5609672378702
 30
0.0
 10
-508.9184230340666
 20
245.5853607330008
 30
0.0
 10
-507.1326416718257
 20
247.3621272114809
 30
0.0
 10
-506.2589625287592
 20
248.1150199934764
 30
0.0
 10
-504.5795042863725
 20
249.3974695167814
 30
0.0
 10
-503.7734966161092
 20
249.9273073673055
 30
0.0
 10
-503.0074642698238
 20
250.3695284278761
 30
0.0
  0
SPLINE
  5
2F0
330
2AC
100
AcDbEntity
 67
     1
  8
0
  6
Continuous
 62
     7
370
    25
100
AcDbSpline
210
0.0
220
0.0
230
1.0
 70
     8
 71
     3
 72
    11
 73
     7
 74
     0
 42
0.000000001
 43
0.00000001
 40
0.0
 40
0.0
 40
0.0
 40
0.0
 40
0.2204901801659293
 40
0.4700952183726622
 40
0.7517283457665438
 40
1.0
 40
1.0
 40
1.0
 40
1.0
 10
-498.7523656430625
 20
204.9992594221569
 30
0.0
 10
-499.5741497560119
 20
204.5672279813957
 30
0.0
 10
-501.3262313305354
 20
203.6461170533002
 30
0.0
 10
-504.1555494719534
 20
202.8396281067443
 30
0.0
 10
-507.0546585482687
 20
202.5191388291376
 30
0.0
 10
-508.8756889589652
 20
202.9355589790542
 30
0.0
 10
-509.728880415522
 20
203.1306606710195
 30
0.0
  0
SPLINE
  5
2F1
330
2AC
100
AcDbEntity
 67
     1
  8
0
  6
Continuous
 62
     7
370
    25
100
AcDbSpline
210
0.0
220
0.0
230
1.0
 70
     8
 71
     3
 72
    36
 73
    32
 74
     0
 42
0.000000001
 43
0.00000001
 40
0.0
 40
0.0
 40
0.0
 40
0.0
 40
0.0625
 40
0.0625
 40
0.1250000000000001
 40
0.1250000000000001
 40
0.1875000000000001
 40
0.1875000000000001
 40
0.2500000000000002
 40
0.2500000000000002
 40
0.3125000000000002
 40
0.3125000000000002
 40
0.3750000000000002
 40
0.3750000000000002
 40
0.4375000000000003
 40
0.4375000000000003
 40
0.5000000000000003
 40
0.5000000000000003
 40
0.5625000000000003
 40
0.5625000000000003
 40
0.6250000000000004
 40
0.6250000000000004
 40
0.6875000000000003
 40
0.6875000000000003
 40
0.7500000000000002
 40
0.7500000000000002
 40
0.8125000000000002
 40
0.8125000000000002
 40
0.8750000000000001
 40
0.8750000000000001
 40
1.0
 40
1.0
 40
1.0
 40
1.0
 10
-490.9166611695754
 20
251.7182801829636
 30
0.0
 10
-490.1610123135735
 20
251.2451198086349
 30
0.0
 10
-489.4244000157224
 20
250.6675013401668
 30
0.0
 10
-488.0285200772647
 20
249.2913253164296
 30
0.0
 10
-487.3694272496078
 20
248.4926064941947
 30
0.0
 10
-486.1697163516368
 20
246.6793188622152
 30
0.0
 10
-485.6293149812142
 20
245.6646966217189
 30
0.0
 10
-484.7037472501089
 20
243.44568992304
 30
0.0
 10
-484.3187798528734
 20
242.241408712133
 30
0.0
 10
-483.7299818928091
 20
239.6895717972506
 30
0.0
 10
-483.526264997742
 20
238.3422696582791
 30
0.0
 10
-483.3100700349139
 20
235.5658356570586
 30
0.0
 10
-483.2975796446351
 20
234.1370375606928
 30
0.0
 10
-483.4565044172791
 20
231.2648791641929
 30
0.0
 10
-483.6277903776148
 20
229.8218302134635
 30
0.0
 10
-484.1317074389117
 20
226.9841805782056
 30
0.0
 10
-484.4641443362718
 20
225.5897849820454
 30
0.0
 10
-485.2576553628685
 20
222.9001647580858
 30
0.0
 10
-485.7185346210429
 20
221.605008458017
 30
0.0
 10
-486.7321552066729
 20
219.1481376249606
 30
0.0
 10
-487.2847479145379
 20
217.9863764210923
 30
0.0
 10
-488.4462618071066
 20
215.8139120764092
 30
0.0
 10
-489.055098077015
 20
214.8030955960107
 30
0.0
 10
-490.2983514191865
 20
212.9360798769824
 30
0.0
 10
-490.9327407835789
 20
212.0797482509633
 30
0.0
 10
-492.2027867942514
 20
210.5150649600969
 30
0.0
 10
-492.8384550918965
 20
209.8065939425757
 30
0.0
 10
-494.0933466939343
 20
208.5246823771267
 30
0.0
 10
-494.7126023803173
 20
207.9511501233908
 30
0.0
 10
-496.5279399684247
 20
206.4090197910249
 30
0.0
 10
-497.679920358263
 20
205.6183689069559
 30
0.0
 10
-498.7523656430625
 20
204.9992594221569
 30
0.0
  0
LWPOLYLINE
  5
2F3
330
2AC
100
AcDbEntity
 67
     1
  8
0
  6
Continuous
 62
     7
370
    25
100
AcDbPolyline
 90
       19
 70
   128
 43
0.0
 10
-346.2716429796
 20
46.4147192478
 10
-343.0717480038
 20
47.550590681
 10
-339.6395506856
 20
48.582526952
 10
-336.0002676574
 20
49.5029463413
 10
-332.1806370271
 20
50.3050864529
 10
-328.208721931
 20
50.9830538983
 10
-324.1137043519
 20
51.5318675956
 10
-319.9256707163
 20
51.947495366
 10
-315.6753908474
 20
52.2268835586
 10
-311.3940918964
 20
52.3679794856
 10
-307.1132289144
 20
52.3697465038
 10
-302.8642537493
 20
52.2321716308
 10
-298.6783839664
 20
51.9562656402
 10
-294.5863734911
 20
51.5440556359
 10
-290.6182866564
 20
50.9985701583
 10
-286.8032773185
 20
50.3238169333
 10
-283.1693746607
 20
49.5247534277
 10
-279.743277261
 20
48.607250426
 10
-276.550156935
 20
47.5780488973
  0
SPLINE
  5
2F4
330
2AC
100
AcDbEntity
 67
     1
  8
0
  6
Continuous
 62
     7
370
    25
100
AcDbSpline
210
0.0
220
0.0
230
1.0
 70
     8
 71
     3
 72
    39
 73
    35
 74
     0
 42
0.000000001
 43
0.00000001
 40
0.0
 40
0.0
 40
0.0
 40
0.0
 40
0.0093570848510056
 40
0.0186688307352197
 40
0.0279352979818869
 40
0.0371565478090954
 40
0.0463326423400824
 40
0.0554636446198841
 40
0.0645496186323297
 40
0.0735906293174038
 40
0.0825867425889677
 40
0.09153802535285
 40
0.1004445455253363
 40
0.1093063720520221
 40
0.1181235749270984
 40
0.1809217449516749
 40
0.2422267936129054
 40
0.3069026333415362
 40
0.3705526376727945
 40
0.4360157437473672
 40
0.5009797527012525
 40
0.5660851446612033
 40
0.6312426582716286
 40
0.6948911569925149
 40
0.7591157544307392
 40
0.8203333443280093
 40
0.8825798049387985
 40
0.8990142780119103
 40
0.9155610880889773
 40
0.9322208125797597
 40
0.9489940172307476
 40
0.9658812563810031
 40
0.9828830732132205
 40
1.0
 40
1.0
 40
1.0
 40
1.0
 10
-283.0568061633231
 20
375.8371388723256
 30
0.0
 10
-283.228071848354
 20
375.9427476967765
 30
0.0
 10
-283.5697733649595
 20
376.1534536270115
 30
0.0
 10
-284.0902195765181
 20
376.4631063014025
 30
0.0
 10
-284.6146365149808
 20
376.7670869507496
 30
0.0
 10
-285.1434927536868
 20
377.065000483923
 30
0.0
 10
-285.6764223092713
 20
377.3569582013702
 30
0.0
 10
-286.2132835054475
 20
377.6429383212497
 30
0.0
 10
-286.7538773620997
 20
377.9229560304909
 30
0.0
 10
-287.2980226305713
 20
378.1970182460063
 30
0.0
 10
-287.8455356079091
 20
378.4651355080417
 30
0.0
 10
-288.3962365964657
 20
378.7273191642224
 30
0.0
 10
-288.9499443794965
 20
378.9835806641452
 30
0.0
 10
-289.5064920119458
 20
379.2339369666374
 30
0.0
 10
-291.2077473457787
 20
379.9776652917752
 30
0.0
 10
-294.1289619100731
 20
381.1113598764421
 30
0.0
 10
-298.5091662911211
 20
382.4688971806044
 30
0.0
 10
-303.1077383681754
 20
383.5597077793403
 30
0.0
 10
-307.9654618373894
 20
384.3766444374485
 30
0.0
 10
-312.9407976442534
 20
384.8834645593454
 30
0.0
 10
-318.0106765741668
 20
385.0705323439527
 30
0.0
 10
-323.0743754141041
 20
384.9314487432059
 30
0.0
 10
-328.0501164140863
 20
384.4710887871889
 30
0.0
 10
-332.8959663725891
 20
383.7005949549455
 30
0.0
 10
-337.4895944515508
 20
382.6518130047874
 30
0.0
 10
-341.8528467332088
 20
381.3366137379814
 30
0.0
 10
-344.9326192159033
 20
380.1658724075066
 30
0.0
 10
-346.9403682885704
 20
379.2924416311619
 30
0.0
 10
-347.9673833361143
 20
378.8206470193734
 30
0.0
 10
-348.9807467281007
 20
378.3293110906843
 30
0.0
 10
-349.9796232649354
 20
377.8185558340202
 30
0.0
 10
-350.9623760260462
 20
377.288070282427
 30
0.0
 10
-351.9302041120612
 20
376.7392822891775
 30
0.0
 10
-352.5570111619728
 20
376.3591235884231
 30
0.0
 10
-352.8714720490026
 20
376.1684029475684
 30
0.0
  0
LWPOLYLINE
  5
2F5
330
2AC
100
AcDbEntity
 67
     1
  8
0
  6
Continuous
 62
     7
370
    25
100
AcDbPolyline
 90
       17
 70
   128
 43
0.0
 10
-311.1882850824
 20
-6.8291621579
 10
-314.2576436346
 20
-4.881845564
 10
-317.3059814523
 20
-2.6475323982
 10
-320.3104478077
 20
-0.1429713559
 10
-323.2485208394
 20
2.6130630551
 10
-326.0981763784
 20
5.5999112505
 10
-328.8380530447
 20
8.7951834366
 10
-331.4476123746
 20
12.1749274473
 10
-333.9072927799
 20
15.7138082917
 10
-336.1986561835
 20
19.3852980695
 10
-338.3045262342
 20
23.1618748266
 10
-340.2091170625
 20
27.0152288637
 10
-341.8981516135
 20
30.9164749494
 10
-343.3589686696
 20
34.8363688471
 10
-344.5806177605
 20
38.7455265341
 10
-345.5539412494
 20
42.6146444676
 10
-346.2716429796
 20
46.4147192478
  0
LWPOLYLINE
  5
2F6
330
2AC
100
AcDbEntity
 67
     1
  8
0
  6
Continuous
 62
     7
370
    25
100
AcDbPolyline
 90
       17
 70
   128
 43
0.0
 10
-276.550156935
 20
47.5780488973
 10
-277.1757413853
 20
43.7387720709
 10
-278.0651158012
 20
39.8199632305
 10
-279.211435846
 20
35.851780256
 10
-280.605879813
 20
31.8647609947
 10
-282.2377165143
 20
27.8895882518
 10
-284.0943878648
 20
23.9568536657
 10
-286.1616055247
 20
20.0968222843
 10
-288.4234608584
 20
16.3391996555
 10
-290.8625473619
 20
12.7129032224
 10
-293.4600946177
 20
9.2458397848
 10
-296.1961127457
 20
5.9646907365
 10
-299.0495462391
 20
2.8947067351
 10
-301.9984360006
 20
0.0595133802
 10
-305.0200883324
 20
-2.519070601
 10
-308.0912495794
 20
-4.8212012637
 10
-311.1882850824
 20
-6.8291621579
  0
SPLINE
  5
300
330
2AC
100
AcDbEntity
 67
     1
  8
0
  6
Continuous
 62
     8
370
    25
100
AcDbSpline
210
0.0
220
0.0
230
1.0
 70
     8
 71
     3
 72
    22
 73
    18
 74
     0
 42
0.000000001
 43
0.00000001
 40
0.0
 40
0.0
 40
0.0
 40
0.0
 40
0.0456278485914206
 40
0.1083614595263659
 40
0.1738845410866494
 40
0.2413163655295351
 40
0.310742150498988
 40
0.3832702884684031
 40
0.441384168784405
 40
0.5020858324773161
 40
0.5630099894789609
 40
0.6244721315803891
 40
0.6890735353865991
 40
0.7646999306277932
 40
0.8460791452963918
 40
0.9193754838848466
 40
1.0
 40
1.0
 40
1.0
 40
1.0
 10
670.9444268995434
 20
-200.3596737697854
 30
0.0
 10
671.5122516289811
 20
-199.8038195971966
 30
0.0
 10
672.8607771092862
 20
-198.4837229613699
 30
0.0
 10
674.429013200835
 20
-196.2383932625089
 30
0.0
 10
675.7041812929278
 20
-193.6623966926593
 30
0.0
 10
676.4204959145683
 20
-190.9648210561089
 30
0.0
 10
676.5732399803956
 20
-188.1858875148597
 30
0.0
 10
676.172272516573
 20
-185.5716225829639
 30
0.0
 10
675.3511831223154
 20
-183.1328393017033
 30
0.0
 10
674.2358793926215
 20
-180.9033555619371
 30
0.0
 10
672.7714168495243
 20
-178.7070085082332
 30
0.0
 10
670.9678177723082
 20
-176.5475179635215
 30
0.0
 10
668.7102315190363
 20
-174.3158945507383
 30
0.0
 10
665.8833580125046
 20
-171.9901306272731
 30
0.0
 10
662.577935715888
 20
-169.7263841807938
 30
0.0
 10
658.893404880664
 20
-167.5611429639885
 30
0.0
 10
656.2414005501247
 20
-166.27823694475
 30
0.0
 10
654.8522673732284
 20
-165.6062443338625
 30
0.0
  0
SPLINE
  5
304
330
2AC
100
AcDbEntity
 67
     1
  8
0
  6
Continuous
 62
     8
370
    25
100
AcDbSpline
210
0.0
220
0.0
230
1.0
 70
     8
 71
     3
 72
    14
 73
    10
 74
     0
 42
0.000000001
 43
0.00000001
 40
0.0
 40
0.0
 40
0.0
 40
0.0
 40
0.0967265235736064
 40
0.1934528191611817
 40
0.2901812979515742
 40
0.3869083612006302
 40
0.4836352585026485
 40
0.5803621723884625
 40
1.0
 40
1.0
 40
1.0
 40
1.0
 10
-276.4864397793912
 20
47.5555280037721
 30
0.0
 10
-253.9484718472876
 20
34.29613628691595
 30
0.0
 10
-208.8725891054471
 20
7.777384105811428
 30
0.0
 10
-141.1060712041584
 20
-30.75620372963582
 30
0.0
 10
-73.27092170999344
 20
-68.65492657585914
 30
0.0
 10
-5.405578220250145
 20
-106.2730731983022
 30
0.0
 10
62.47204130304083
 20
-143.7690260270408
 30
0.0
 10
205.8975910764527
 20
-222.8525115102133
 30
0.0
 10
326.7110336438041
 20
-289.303471567003
 30
0.0
 10
424.8933580957431
 20
-343.3066485462648
 30
0.0
  0
LWPOLYLINE
  5
305
330
2AC
100
AcDbEntity
 67
     1
  8
0
  6
Continuous
 62
     8
370
    25
100
AcDbPolyline
 90
        9
 70
   128
 43
0.0
 10
137.8972479551
 20
-538.1519237865
 10
138.5554610558
 20
-541.405487236
 10
139.4680521354
 20
-544.442219303
 10
140.6286692306
 20
-547.2409832365
 10
142.0292340278
 20
-549.7822986297
 10
143.6599980905
 20
-552.0484770105
 10
145.5096107125
 20
-554.0237449597
 10
147.5651979225
 20
-555.6943538996
 10
149.2154829318
 20
-556.7302771821
  0
LWPOLYLINE
  5
306
330
2AC
100
AcDbEntity
 67
     1
  8
0
  6
Continuous
 62
     8
370
    25
100
AcDbPolyline
 90
        3
 70
   128
 43
0.0
 10
205.4437800101
 20
-553.4111344131
 10
203.4768194567
 20
-555.1369481911
 10
201.5458502995
 20
-556.4155928999
  0
LWPOLYLINE
  5
307
330
2AC
100
AcDbEntity
 67
     1
  8
0
  6
Continuous
 62
     8
370
    25
100
AcDbPolyline
 90
        9
 70
   128
 43
0.0
 10
-585.6883113545
 20
-131.3291287434
 10
-585.1359315612
 20
-134.4948465568
 10
-584.333560418
 20
-137.4486866007
 10
-583.2866705626
 20
-140.1705019689
 10
-582.0024023925
 20
-142.6417282983
 10
-580.4895153632
 20
-144.8455103886
 10
-578.7583282437
 20
-146.7668171648
 10
-576.8206487367
 20
-148.3925441979
 10
-575.4373921839
 20
-149.2967447855
  0
LWPOLYLINE
  5
308
330
2AC
100
AcDbEntity
 67
     1
  8
0
  6
Continuous
 62
     8
370
    25
100
AcDbPolyline
 90
        3
 70
   128
 43
0.0
 10
205.535793205
 20
-553.3555241741
 10
203.5631533871
 20
-555.0861719439
 10
201.8210228195
 20
-556.2561108008
  0
SPLINE
  5
309
330
2AC
100
AcDbEntity
 67
     1
  8
0
  6
Continuous
 62
     8
370
    25
100
AcDbSpline
210
0.0
220
0.0
230
1.0
 70
     8
 71
     3
 72
     9
 73
     5
 74
     0
 42
0.000000001
 43
0.00000001
 40
0.0
 40
0.0
 40
0.0
 40
0.0
 40
0.5340595377931586
 40
0.9999999999999999
 40
0.9999999999999999
 40
0.9999999999999999
 40
0.9999999999999999
 10
-311.1882850823915
 20
-6.829162157946711
 30
0.0
 10
-316.8843060464819
 20
-10.24055237180717
 30
0.0
 10
-327.5498228306729
 20
-16.62821137319296
 30
0.0
 10
-338.2261398386862
 20
-22.99258192325453
 30
0.0
 10
-343.2006679200667
 20
-25.95799967900581
 30
0.0
  0
SPLINE
  5
30A
330
2AC
100
AcDbEntity
 67
     1
  8
0
  6
Continuous
 62
     8
370
    25
100
AcDbSpline
210
0.0
220
0.0
230
1.0
 70
     8
 71
     3
 72
    48
 73
    44
 74
     0
 42
0.000000001
 43
0.00000001
 40
0.0
 40
0.0
 40
0.0
 40
0.0
 40
0.0187826146936164
 40
0.0510427480560032
 40
0.0857175011444477
 40
0.1184777645672912
 40
0.1526114189647138
 40
0.1853508197699427
 40
0.2195127815232761
 40
0.2636973481198171
 40
0.3084115001286293
 40
0.3533381988614249
 40
0.3631163053374067
 40
0.3727391004352603
 40
0.3822066320761952
 40
0.3917480221783503
 40
0.4020214053501635
 40
0.4121241530331496
 40
0.4199423297626674
 40
0.4276551928123311
 40
0.4352627704279516
 40
0.4427651015725981
 40
0.4501622366672168
 40
0.4574542383647932
 40
0.4827935686472499
 40
0.506977767135538
 40
0.5305256656732622
 40
0.5548162552300292
 40
0.5792878410695804
 40
0.6035622724647202
 40
0.6276186232885067
 40
0.6501657434140007
 40
0.6724494232443545
 40
0.6944517142205918
 40
0.7170070805464986
 40
0.7392428241952718
 40
0.761322289428834
 40
0.8011494688899098
 40
0.8408774108674735
 40
0.8806409799012656
 40
0.9204185927027297
 40
0.9601858025779881
 40
1.0
 40
1.0
 40
1.0
 40
1.0
 10
359.1925587591637
 20
-381.23491267747
 30
0.0
 10
354.989892640185
 20
-378.9220595453166
 30
0.0
 10
343.5689253588064
 20
-372.6367589287224
 30
0.0
 10
324.3894994292099
 20
-362.0807520007728
 30
0.0
 10
302.0841782554166
 20
-349.8017020438738
 30
0.0
 10
279.359636467094
 20
-337.2908567419983
 30
0.0
 10
257.0693679158341
 20
-325.0165382412666
 30
0.0
 10
234.4655841557312
 20
-312.568187875836
 30
0.0
 10
209.6148227982465
 20
-298.8788961237183
 30
0.0
 10
182.0858699031051
 20
-283.7111325281245
 30
0.0
 10
152.1512774223241
 20
-267.2115188096968
 30
0.0
 10
129.9148939097606
 20
-254.9494438063259
 30
0.0
 10
115.5278453560518
 20
-247.0134187534208
 30
0.0
 10
109.0713574117115
 20
-243.4516681675641
 30
0.0
 10
102.6679234117981
 20
-239.9187780046279
 30
0.0
 10
96.11923438362015
 20
-236.3051663250093
 30
0.0
 10
89.42896904861811
 20
-232.6125458788005
 30
0.0
 10
83.12428194512327
 20
-229.132139345792
 30
0.0
 10
77.39223903955244
 20
-225.9674804390971
 30
0.0
 10
72.21816630063903
 20
-223.1106191831116
 30
0.0
 10
67.11473387677789
 20
-220.2925061860062
 30
0.0
 10
62.08194332667468
 20
-217.5131101799408
 30
0.0
 10
57.11982825179422
 20
-214.7723724349877
 30
0.0
 10
48.16963115341527
 20
-209.8280236061271
 30
0.0
 10
35.46819841461848
 20
-202.807268894427
 30
0.0
 10
19.13236397258275
 20
-193.7745031621075
 30
0.0
 10
3.032477731404082
 20
-184.8667053714141
 30
0.0
 10
-13.12849087034473
 20
-175.9170487690793
 30
0.0
 10
-29.44945962824671
 20
-166.8706654577766
 30
0.0
 10
-45.71538962108061
 20
-157.8453034780089
 30
0.0
 10
-61.54853201538781
 20
-149.0494722934556
 30
0.0
 10
-76.9332822408705
 20
-140.4901906696274
 30
0.0
 10
-91.85608247151458
 20
-132.1749464492814
 30
0.0
 10
-106.7775895569448
 20
-123.8458325974396
 30
0.0
 10
-121.6837688696422
 20
-115.5066869483709
 30
0.0
 10
-136.6037444868051
 20
-107.1397483544775
 30
0.0
 10
-155.3725073833991
 20
-96.58462381925607
 30
0.0
 10
-178.0361535227011
 20
-83.78225637194373
 30
0.0
 10
-204.6388193189636
 20
-68.64959510562178
 30
0.0
 10
-231.2392919083775
 20
-53.401915265541
 30
0.0
 10
-257.866931598702
 20
-38.01422341555867
 30
0.0
 10
-284.5225262915171
 20
-22.49550675743522
 30
0.0
 10
-302.2962007598255
 20
-12.05333216179084
 30
0.0
 10
-311.1882850823915
 20
-6.829162157946711
 30
0.0
  0
LWPOLYLINE
  5
30B
330
2AC
100
AcDbEntity
 67
     1
  8
0
  6
Continuous
 62
     8
370
    25
100
AcDbPolyline
 90
        9
 70
   128
 43
0.0
 10
-585.6883113545
 20
-131.3291287434
 10
-588.4981483444
 20
-130.0538415235
 10
-591.0435001471
 20
-128.6025812154
 10
-593.3075427556
 20
-126.9849402115
 10
-595.275311532
 20
-125.2116106304
 10
-596.933800119
 20
-123.2943136452
 10
-598.2720464076
 20
-121.24572201
 10
-599.2812049942
 20
-119.0793762968
 10
-599.7346643373
 20
-117.6975120636
  0
SPLINE
  5
30C
330
2AC
100
AcDbEntity
 67
     1
  8
0
  6
Continuous
 62
     8
370
    25
100
AcDbSpline
210
0.0
220
0.0
230
1.0
 70
     8
 71
     3
 72
    16
 73
    12
 74
     0
 42
0.000000001
 43
0.00000001
 40
0.0
 40
0.0
 40
0.0
 40
0.0
 40
0.1319440006650097
 40
0.2659785073330576
 40
0.4029000243710532
 40
0.5103682058333835
 40
0.6168743168153227
 40
0.7259035598444292
 40
0.8348475566000174
 40
0.9435530004092018
 40
1.0
 40
1.0
 40
1.0
 40
1.0
 10
-663.3016688391563
 20
196.9608648803161
 30
0.0
 10
-664.7039079810002
 20
196.1461662202652
 30
0.0
 10
-667.5306031849643
 20
194.5038609056285
 30
0.0
 10
-671.0608057875979
 20
191.6261242933869
 30
0.0
 10
-673.7701082234437
 20
188.6974006592926
 30
0.0
 10
-675.6914601001013
 20
185.8087691841907
 30
0.0
 10
-676.9709816062108
 20
183.0428698042258
 30
0.0
 10
-677.751846328659
 20
180.1828010966805
 30
0.0
 10
-677.9816551547683
 20
177.2551084195736
 30
0.0
 10
-677.8123169943068
 20
174.7785255442264
 30
0.0
 10
-677.3652049581771
 20
173.3004246979714
 30
0.0
 10
-677.2123877645536
 20
172.7952286733406
 30
0.0
  0
SPLINE
  5
310
330
2AC
100
AcDbEntity
 67
     1
  8
0
  6
Continuous
 62
     8
370
    25
100
AcDbSpline
210
0.0
220
0.0
230
1.0
 70
     8
 71
     3
 72
     9
 73
     5
 74
     0
 42
0.000000001
 43
0.00000001
 40
0.0
 40
0.0
 40
0.0
 40
0.0
 40
0.1337502972872455
 40
0.9999999999999999
 40
0.9999999999999999
 40
0.9999999999999999
 40
0.9999999999999999
 10
-406.302048215314
 20
10.4696517810773
 30
0.0
 10
-403.6226028427071
 20
12.05195693626303
 30
0.0
 10
-383.5894109399461
 20
23.88224955824909
 30
0.0
 10
-363.5932829265857
 20
35.95591240026904
 30
0.0
 10
-346.271642979606
 20
46.4147192478228
 30
0.0
  0
LINE
  5
312
330
2AC
100
AcDbEntity
 67
     1
  8
0
  6
Continuous
 62
     7
370
    25
100
AcDbLine
 10
665.5611822984
 20
-204.3720709397
 30
0.0
 11
349.8791732944
 21
-386.6114156642
 31
0.0
  0
LINE
  5
313
330
2AC
100
AcDbEntity
 67
     1
  8
0
  6
Continuous
 62
     7
370
    25
100
AcDbLine
 10
272.8219537725
 20
-381.5802895488
 30
0.0
 11
-665.0871197641
 21
159.8630936574
 31
0.0
  0
LINE
  5
314
330
2AC
100
AcDbEntity
 67
     1
  8
0
  6
Continuous
 62
     7
370
    25
100
AcDbLine
 10
809.0306627408
 20
-216.3534576355
 30
0.0
 11
809.0306627408
 21
-191.857233279
 31
0.0
  0
LINE
  5
315
330
2AC
100
AcDbEntity
 67
     1
  8
0
  6
Continuous
 62
     7
370
    25
100
AcDbLine
 10
804.030256404
 20
-183.1967446552
 30
0.0
 11
-313.1984578708
 21
461.7656636848
 31
0.0
  0
LINE
  5
316
330
2AC
100
AcDbEntity
 67
     1
  8
0
  6
Continuous
 62
     7
370
    25
100
AcDbLine
 10
201.5458502995
 20
-556.4155928999
 30
0.0
 11
201.6579760467
 21
-556.3511815787
 31
0.0
  0
LINE
  5
317
330
2AC
100
AcDbEntity
 67
     1
  8
0
  6
Continuous
 62
     7
370
    25
100
AcDbLine
 10
201.8215300416
 20
-556.2558114539
 30
0.0
 11
306.9738720813
 21
-495.6167158973
 31
0.0
  0
LINE
  5
318
330
2AC
100
AcDbEntity
 67
     1
  8
0
  6
Continuous
 62
     7
370
    25
100
AcDbLine
 10
-647.9980046423
 20
55.6768139226
 30
0.0
 11
-599.7346643373
 21
-117.6975120636
 31
0.0
  0
LINE
  5
319
330
2AC
100
AcDbEntity
 67
     1
  8
0
  6
Continuous
 62
     7
370
    25
100
AcDbLine
 10
-809.0306627408
 20
175.5264170413
 30
0.0
 11
-809.0306627408
 21
151.0301926847
 31
0.0
  0
LINE
  5
31A
330
2AC
100
AcDbEntity
 67
     1
  8
0
  6
Continuous
 62
     7
370
    25
100
AcDbLine
 10
-323.1976451971
 20
461.7656636848
 30
0.0
 11
-804.030256404
 21
184.1869056651
 31
0.0
  0
LINE
  5
31B
330
2AC
100
AcDbEntity
 67
     1
  8
0
  6
Continuous
 62
     7
370
    25
100
AcDbLine
 10
311.1269837221
 20
-498.0142562144
 30
0.0
 11
311.1269837221
 21
-473.5180318578
 31
0.0
  0
LINE
  5
31C
330
2AC
100
AcDbEntity
 67
     1
  8
0
  6
Continuous
 62
     7
370
    25
100
AcDbLine
 10
325.2691193458
 20
-473.5180318578
 30
0.0
 11
325.2691193458
 21
-498.0142562144
 31
0.0
  0
LINE
  5
31D
330
2AC
100
AcDbEntity
 67
     1
  8
0
  6
Continuous
 62
     7
370
    25
100
AcDbLine
 10
318.1980515339
 20
-461.2705831798
 30
0.0
 11
799.0306627408
 21
-183.6918251601
 31
0.0
  0
LINE
  5
31E
330
2AC
100
AcDbEntity
 67
     1
  8
0
  6
Continuous
 62
     7
370
    25
100
AcDbLine
 10
806.1017305527
 20
-195.9392738381
 30
0.0
 11
325.2691193458
 21
-473.5180318578
 31
0.0
  0
LINE
  5
31F
330
2AC
100
AcDbEntity
 67
     1
  8
0
  6
Continuous
 62
     7
370
    25
100
AcDbLine
 10
-799.0306627408
 20
183.6918251601
 30
0.0
 11
318.1980515339
 21
-461.2705831798
 31
0.0
  0
LINE
  5
320
330
2AC
100
AcDbEntity
 67
     1
  8
0
  6
Continuous
 62
     7
370
    25
100
AcDbLine
 10
311.1269837221
 20
-473.5180318578
 30
0.0
 11
-806.1017305527
 21
171.4443764821
 31
0.0
  0
LINE
  5
321
330
2AC
100
AcDbEntity
 67
     1
  8
0
  6
Continuous
 62
     7
370
    25
100
AcDbLine
 10
806.1017305527
 20
-220.4354981947
 30
0.0
 11
806.1017305527
 21
-195.9392738381
 31
0.0
  0
LINE
  5
322
330
2AC
100
AcDbEntity
 67
     1
  8
0
  6
Continuous
 62
     7
370
    25
100
AcDbLine
 10
325.2691193458
 20
-498.0142562144
 30
0.0
 11
806.1017305527
 21
-220.4354981947
 31
0.0
  0
LINE
  5
323
330
2AC
100
AcDbEntity
 67
     1
  8
0
  6
Continuous
 62
     7
370
    25
100
AcDbLine
 10
-806.1017305527
 20
171.4443764821
 30
0.0
 11
-806.1017305527
 21
146.9481521256
 31
0.0
  0
LINE
  5
324
330
2AC
100
AcDbEntity
 67
     1
  8
0
  6
Continuous
 62
     7
370
    25
100
AcDbLine
 10
-806.1017305527
 20
146.9481521256
 30
0.0
 11
311.1269837221
 21
-498.0142562144
 31
0.0
  0
LINE
  5
325
330
2AC
100
AcDbEntity
 67
     1
  8
0
  6
Continuous
 62
     7
370
    25
100
AcDbLine
 10
670.5607759615
 20
-204.8671514447
 30
0.0
 11
354.8787669576
 21
-387.1064961691
 31
0.0
  0
LINE
  5
326
330
2AC
100
AcDbEntity
 67
     1
  8
0
  6
Continuous
 62
     7
370
    25
100
AcDbLine
 10
-276.0634079265
 20
386.8328256934
 30
0.0
 11
661.8456656101
 21
-154.6105575128
 31
0.0
  0
LINE
  5
327
330
2AC
100
AcDbEntity
 67
     1
  8
0
  6
Continuous
 62
     7
370
    25
100
AcDbLine
 10
-670.2653112424
 20
207.7283899502
 30
0.0
 11
-359.8351144522
 21
386.9359280174
 31
0.0
  0
LINE
  5
328
330
2AC
100
AcDbEntity
 67
     1
  8
0
  6
Continuous
 62
     7
370
    25
100
AcDbLine
 10
267.8223601093
 20
-382.0753700538
 30
0.0
 11
-670.0867134273
 21
159.3680131524
 31
0.0
  0
LINE
  5
329
330
2AC
100
AcDbEntity
 67
     1
  8
0
  6
Continuous
 62
     7
370
    25
100
AcDbLine
 10
-318.1980515339
 20
461.2705831798
 30
0.0
 11
-799.0306627408
 21
183.6918251601
 31
0.0
  0
LINE
  5
32A
330
2AC
100
AcDbEntity
 67
     1
  8
0
  6
Continuous
 62
     7
370
    25
100
AcDbLine
 10
799.0306627408
 20
-183.6918251601
 30
0.0
 11
-318.1980515339
 21
461.2705831798
 31
0.0
  0
LINE
  5
32B
330
2AC
100
AcDbEntity
 67
     1
  8
0
  6
Continuous
 62
     7
370
    25
100
AcDbLine
 10
205.4437800101
 20
-553.4111344131
 30
0.0
 11
205.535793205
 21
-553.3555241741
 31
0.0
  0
LINE
  5
32C
330
2AC
100
AcDbEntity
 67
     1
  8
0
  6
Continuous
 62
     7
370
    25
100
AcDbLine
 10
670.5180942614
 20
-200.7974456377
 30
0.0
 11
670.7002372217
 21
-200.610415472
 31
0.0
  0
LINE
  5
32D
330
2AC
100
AcDbEntity
 67
     1
  8
0
  6
Continuous
 62
     7
370
    25
100
AcDbLine
 10
-283.0568061633
 20
375.8371388723
 30
0.0
 11
-276.4864397794
 21
47.5555280038
 31
0.0
  0
LINE
  5
32E
330
2AC
100
AcDbEntity
 67
     1
  8
0
  6
Continuous
 62
     7
370
    25
100
AcDbLine
 10
654.8522673732
 20
-165.6062443339
 30
0.0
 11
-283.0568061633
 21
375.8371388723
 31
0.0
  0
LINE
  5
32F
330
2AC
100
AcDbEntity
 67
     1
  8
0
  6
Continuous
 62
     7
370
    25
100
AcDbLine
 10
201.8210228195
 20
-556.2561108008
 30
0.0
 11
201.6579760467
 21
-556.3511815787
 31
0.0
  0
LINE
  5
330
330
2AC
100
AcDbEntity
 67
     1
  8
0
  6
Continuous
 62
     7
370
    25
100
AcDbLine
 10
-677.2123877646
 20
172.7952286733
 30
0.0
 11
-677.0745096817
 21
172.2949322175
 31
0.0
  0
LINE
  5
331
330
2AC
100
AcDbEntity
 67
     1
  8
0
  6
Continuous
 62
     7
370
    25
100
AcDbLine
 10
-352.871472049
 20
376.1684029476
 30
0.0
 11
-663.3016688392
 21
196.9608648803
 31
0.0
  0
LINE
  5
332
330
2AC
100
AcDbEntity
 67
     1
  8
0
  6
Continuous
 62
     7
370
    25
100
AcDbLine
 10
-346.2716429796
 20
46.4147192478
 30
0.0
 11
-352.871472049
 21
376.1684029476
 31
0.0
  0
LINE
  5
333
330
2AC
100
AcDbEntity
 67
     1
  8
0
  6
Continuous
 62
     7
370
    25
100
AcDbLine
 10
-496.524000074
 20
204.1665819978
 30
0.0
 11
-498.7523656431
 21
204.9992594222
 31
0.0
  0
LINE
  5
334
330
2AC
100
AcDbEntity
 67
     1
  8
0
  6
Continuous
 62
     7
370
    25
100
AcDbLine
 10
-276.4864397794
 20
47.5555280038
 30
0.0
 11
-276.550156935
 21
47.5780488973
 31
0.0
  0
LINE
  5
335
330
2AC
100
AcDbEntity
 67
     1
  8
0
  6
Continuous
 62
     8
370
    25
100
AcDbLine
 10
205.535793205
 20
-553.3555241741
 30
0.0
 11
273.8657950085
 21
-476.5038298323
 31
0.0
  0
LINE
  5
336
330
2AC
100
AcDbEntity
 67
     1
  8
0
  6
Continuous
 62
     8
370
    25
100
AcDbLine
 10
220.2362273156
 20
-445.5441393988
 30
0.0
 11
137.8972479551
 21
-538.1519237865
 31
0.0
  0
LINE
  5
337
330
2AC
100
AcDbEntity
 67
     1
  8
0
  6
Continuous
 62
     8
370
    25
100
AcDbLine
 10
306.3232958968
 20
-495.2411462601
 30
0.0
 11
205.535793205
 21
-553.3555241741
 31
0.0
  0
LINE
  5
338
330
2AC
100
AcDbEntity
 67
     1
  8
0
  6
Continuous
 62
     8
370
    25
100
AcDbLine
 10
-585.6883113545
 20
-131.3291287434
 30
0.0
 11
-635.7834545824
 21
48.6255042643
 31
0.0
  0
LINE
  5
339
330
2AC
100
AcDbEntity
 67
     1
  8
0
  6
Continuous
 62
     8
370
    25
100
AcDbLine
 10
530.2170905963
 20
-282.5045519827
 30
0.0
 11
654.8522673732
 21
-165.6062443339
 31
0.0
  0
LINE
  5
33A
330
2AC
100
AcDbEntity
 67
     1
  8
0
  6
Continuous
 62
     8
370
    25
100
AcDbLine
 10
-663.3016688392
 20
196.9608648803
 30
0.0
 11
-650.6552749853
 21
151.5317670039
 31
0.0
  0
ARC
  5
33B
330
2AC
100
AcDbEntity
 67
     1
  8
0
  6
Continuous
 62
     7
370
    25
100
AcDbCircle
 10
799.0306627408
 20
-191.857233279
 30
0.0
 40
9.9999999999994
100
AcDbArc
 50
360.0
 51
60.0026882664
  0
ARC
  5
33C
330
2AC
100
AcDbEntity
 67
     1
  8
0
  6
Continuous
 62
     7
370
    25
100
AcDbCircle
 10
175.1021265751
 20
-510.2531679681
 30
0.0
 40
53.19999999999902
100
AcDbArc
 50
240.8832339057
 51
299.805844533
  0
ARC
  5
33D
330
2AC
100
AcDbEntity
 67
     1
  8
0
  6
Continuous
 62
     7
370
    25
100
AcDbCircle
 10
-799.0306627408
 20
175.5264170413
 30
0.0
 40
9.999999999999886
100
AcDbArc
 50
119.9973117337
 51
180.0
  0
ARC
  5
33E
330
2AC
100
AcDbEntity
 67
     1
  8
0
  6
Continuous
 62
     7
370
    25
100
AcDbCircle
 10
-548.4834327345
 20
-103.430372925
 30
0.0
 40
53.1999999999991
100
AcDbArc
 50
195.5559536978
 51
239.5576848034
  0
ARC
  5
33F
330
2AC
100
AcDbEntity
 67
     1
  8
0
  6
Continuous
 62
     7
370
    25
100
AcDbCircle
 10
-318.1980515339
 20
453.105175061
 30
0.0
 40
10.00000000000044
100
AcDbArc
 50
60.0026882664
 51
119.9973117336
  0
ARC
  5
340
330
2AC
100
AcDbEntity
 67
     1
  8
0
  6
Continuous
 62
     7
370
    25
100
AcDbCircle
 10
309.9169583321
 20
-474.2166403804
 30
0.0
 40
15.36804807572092
100
AcDbArc
 50
2.6054784857
 51
57.39452166
  0
ARC
  5
341
330
2AC
100
AcDbEntity
 67
     1
  8
0
  6
Continuous
 62
     7
370
    25
100
AcDbCircle
 10
318.1980515339
 20
-459.8709210082
 30
0.0
 40
15.37021907911726
100
AcDbArc
 50
242.6096722366
 51
297.3903277634
  0
ARC
  5
342
330
2AC
100
AcDbEntity
 67
     1
  8
0
  6
Continuous
 62
     7
370
    25
100
AcDbCircle
 10
326.4791447358
 20
-474.2166403804
 30
0.0
 40
15.3680480757204
100
AcDbArc
 50
122.60547834
 51
177.3945215143
  0
ARC
  5
343
330
2AC
100
AcDbEntity
 67
     1
  8
0
  6
Continuous
 62
     7
370
    25
100
AcDbCircle
 10
318.1980515339
 20
-484.3671453648
 30
0.0
 40
15.37021907911693
100
AcDbArc
 50
242.6096722366
 51
297.3903277634
  0
ARC
  5
344
330
2AC
100
AcDbEntity
 67
     1
  8
0
  6
Continuous
 62
     7
370
    25
100
AcDbCircle
 10
790.749569539
 20
-196.6378823607
 30
0.0
 40
15.36804807572105
100
AcDbArc
 50
2.6054784857
 51
57.39452166
  0
ARC
  5
345
330
2AC
100
AcDbEntity
 67
     1
  8
0
  6
Continuous
 62
     7
370
    25
100
AcDbCircle
 10
-790.749569539
 20
170.7457679595
 30
0.0
 40
15.36804807572068
100
AcDbArc
 50
122.60547834
 51
177.3945215143
  0
ARC
  5
346
330
2AC
100
AcDbEntity
 67
     1
  8
0
  6
Continuous
 62
     7
370
    25
100
AcDbCircle
 10
670.3244916041
 20
-167.7249889155
 30
0.0
 40
15.61661939258528
100
AcDbArc
 50
122.8837345615
 51
172.2024953991
  0
ARC
  5
347
330
2AC
100
AcDbEntity
 67
     1
  8
0
  6
Continuous
 62
     7
370
    25
100
AcDbCircle
 10
804.0260921159
 20
-215.8543938665
 30
0.0
 40
5.029392784937468
100
AcDbArc
 50
294.3746582936
 51
354.3052007488
  0
ARC
  5
348
330
2AC
100
AcDbEntity
 67
     1
  8
0
  6
Continuous
 62
     7
370
    25
100
AcDbCircle
 10
-267.5845819324
 20
373.7183942907
 30
0.0
 40
15.61661939258515
100
AcDbArc
 50
122.8837345615
 51
172.2024953991
  0
ARC
  5
349
330
2AC
100
AcDbEntity
 67
     1
  8
0
  6
Continuous
 62
     7
370
    25
100
AcDbCircle
 10
-678.7621114384
 20
194.5977370802
 30
0.0
 40
15.64000186581955
100
AcDbArc
 50
8.690395101
 51
57.0932333861
  0
ARC
  5
34A
330
2AC
100
AcDbEntity
 67
     1
  8
0
  6
Continuous
 62
     7
370
    25
100
AcDbCircle
 10
-804.0260921159
 20
151.5292564537
 30
0.0
 40
5.029392784937343
100
AcDbArc
 50
185.6947992512
 51
245.6253417064
  0
ARC
  5
34B
330
2AC
100
AcDbEntity
 67
     1
  8
0
  6
Continuous
 62
     7
370
    25
100
AcDbCircle
 10
-368.3319146482
 20
373.8052751474
 30
0.0
 40
15.64000186581936
100
AcDbArc
 50
8.690395101
 51
57.0932333861
  0
ARC
  5
34C
330
2AC
100
AcDbEntity
 67
     1
  8
0
  6
Continuous
 62
     8
370
    25
100
AcDbCircle
 10
270.7339191165
 20
-385.9891300951
 30
0.0
 40
4.877980474888413
100
AcDbArc
 50
64.6123924588
 51
126.6466233081
  0
ARC
  5
34D
330
2AC
100
AcDbEntity
 67
     1
  8
0
  6
Continuous
 62
     8
370
    25
100
AcDbCircle
 10
351.967620457
 20
-391.0129898117
 30
0.0
 40
4.871905841355827
100
AcDbArc
 50
53.3062621583
 51
115.3832794126
  0
ARC
  5
34E
330
2AC
100
AcDbEntity
 67
     1
  8
0
  6
Continuous
 62
     8
370
    25
100
AcDbCircle
 10
667.649629461
 20
-208.7736450872
 30
0.0
 40
4.871905841355912
100
AcDbArc
 50
53.3062621583
 51
115.3832794126
  0
ARC
  5
34F
330
2AC
100
AcDbEntity
 67
     1
  8
0
  6
Continuous
 62
     8
370
    25
100
AcDbCircle
 10
-667.1747113384
 20
155.4528793113
 30
0.0
 40
4.879347206281541
100
AcDbArc
 50
64.669289425
 51
126.6411690041
  0
ARC
  5
350
330
2AC
100
AcDbEntity
 67
     1
  8
0
  6
Continuous
 62
     8
370
    25
100
AcDbCircle
 10
804.0260921159
 20
-191.35816951
 30
0.0
 40
5.029392784937488
100
AcDbArc
 50
294.3746582936
 51
354.3052007488
  0
ARC
  5
351
330
2AC
100
AcDbEntity
 67
     1
  8
0
  6
Continuous
 62
     8
370
    25
100
AcDbCircle
 10
801.9598632893
 20
-187.7806384513
 30
0.0
 40
5.029772359018398
100
AcDbArc
 50
65.6928809539
 51
125.6175774752
  0
ARC
  5
352
330
2AC
100
AcDbEntity
 67
     1
  8
0
  6
Continuous
 62
     8
370
    25
100
AcDbCircle
 10
-315.2688509854
 20
457.1817698886
 30
0.0
 40
5.029772359018637
100
AcDbArc
 50
65.6928809539
 51
125.6175774752
  0
ARC
  5
353
330
2AC
100
AcDbEntity
 67
     1
  8
0
  6
Continuous
 62
     8
370
    25
100
AcDbCircle
 10
-804.0260921159
 20
176.0254808102
 30
0.0
 40
5.029392784937477
100
AcDbArc
 50
185.6947992512
 51
245.6253417064
  0
ARC
  5
354
330
2AC
100
AcDbEntity
 67
     1
  8
0
  6
Continuous
 62
     8
370
    25
100
AcDbCircle
 10
-801.9598632893
 20
179.6030118689
 30
0.0
 40
5.029772359018584
100
AcDbArc
 50
54.3824225248
 51
114.3071190461
  0
ARC
  5
355
330
2AC
100
AcDbEntity
 67
     1
  8
0
  6
Continuous
 62
     8
370
    25
100
AcDbCircle
 10
-321.1272520825
 20
457.1817698886
 30
0.0
 40
5.02977235901833
100
AcDbArc
 50
54.3824225248
 51
114.3071190461
  0
VIEWPORT
  5
35E
330
2AC
100
AcDbEntity
 67
     1
  8
0
100
AcDbViewport
 10
0.0
 20
0.0
 30
0.0
 40
205.6
 41
156.0
 68
     1
 69
     1
 12
0.0
 22
-211.1019991391
 13
0.0
 23
0.0
 14
10.0
 24
10.0
 15
10.0
 25
10.0
 16
0.0
 26
0.0
 36
1.0
 17
0.0
 27
0.0
 37
0.0
 42
50.0
 43
0.0
 44
0.0
 45
1238.2879377432
 50
0.0
 51
0.0
 72
   100
 90
   557152
  1

281
     0
 71
     1
 74
     0
110
0.0
120
0.0
130
0.0
111
1.0
121
0.0
131
0.0
112
0.0
122
1.0
132
0.0
 79
     0
146
0.0
  0
ENDSEC
  0
SECTION
  2
OBJECTS
  0
DICTIONARY
  5
C
330
0
100
AcDbDictionary
281
     1
  3
ACAD_GROUP
350
D
  3
ACAD_LAYOUT
350
1A
  3
ACAD_MLINESTYLE
350
17
  3
ACAD_PLOTSETTINGS
350
19
  3
ACAD_PLOTSTYLENAME
350
E
  3
ACAD_SCALELIST
350
47
  0
DICTIONARY
  5
D
102
{ACAD_REACTORS
330
C
102
}
330
C
100
AcDbDictionary
281
     1
  0
DICTIONARY
  5
1A
102
{ACAD_REACTORS
330
C
102
}
330
C
100
AcDbDictionary
281
     1
  3
_Back
350
1E
  3
_Bottom
350
1FB
  3
_Isometric
350
2AD
  3
_Right
350
26
  3
_Top
350
15C
  3
Model
350
22
  0
DICTIONARY
  5
17
102
{ACAD_REACTORS
330
C
102
}
330
C
100
AcDbDictionary
281
     1
  3
Standard
350
18
  0
DICTIONARY
  5
19
102
{ACAD_REACTORS
330
C
102
}
330
C
100
AcDbDictionary
281
     1
  0
ACDBDICTIONARYWDFLT
  5
E
102
{ACAD_REACTORS
330
C
102
}
330
C
100
AcDbDictionary
281
     1
  3
Normal
350
F
100
AcDbDictionaryWithDefault
340
F
  0
DICTIONARY
  5
47
102
{ACAD_REACTORS
330
C
102
}
330
C
100
AcDbDictionary
281
     1
  3
A0
350
48
  3
A1
350
49
  3
A2
350
4A
  3
A3
350
4B
  3
A4
350
4C
  3
A5
350
4D
  3
A6
350
4E
  3
A7
350
4F
  3
A8
350
50
  3
A9
350
51
  3
B0
350
52
  3
B1
350
53
  3
B2
350
54
  3
B3
350
55
  3
B4
350
56
  3
B5
350
57
  3
B6
350
58
  3
B7
350
59
  3
B8
350
5A
  3
B9
350
5B
  3
C0
350
5C
  3
C1
350
5D
  3
C2
350
5E
  3
C3
350
5F
  3
C4
350
60
  3
C5
350
61
  3
C6
350
62
  3
C7
350
63
  3
C8
350
64
  3
C9
350
65
  3
D0
350
66
  3
D1
350
67
  3
D2
350
68
  0
LAYOUT
  5
1E
102
{ACAD_REACTORS
330
1A
102
}
330
1A
100
AcDbPlotSettings
  1

  2
none_device
  4
ISO_A4_(210.00_x_297.00_MM)
  6

 40
7.5
 41
20.0
 42
7.5
 43
20.0
 44
210.0
 45
297.0
 46
0.0
 47
0.0
 48
0.0
 49
0.0
140
0.0
141
0.0
142
1.0
143
6.2256809339
 70
   688
 72
     1
 73
     1
 74
     1
  7

 75
     0
147
0.160625
148
800.0
149
422.2039982781
100
AcDbLayout
  1
_Back
 70
     1
 71
     1
 10
-924.513618677
 20
-468.896605282
 11
924.513618677
 21
838.4963908269
 12
0.0
 22
0.0
 32
0.0
 14
1.0000000000E+20
 24
1.0000000000E+20
 34
1.0000000000E+20
 15
-1.0000000000E+20
 25
-1.0000000000E+20
 35
-1.0000000000E+20
146
0.0
 13
0.0
 23
0.0
 33
0.0
 16
1.0
 26
0.0
 36
0.0
 17
0.0
 27
1.0
 37
0.0
 76
     0
330
1B
331
356
  0
LAYOUT
  5
1FB
102
{ACAD_REACTORS
330
1A
102
}
330
1A
100
AcDbPlotSettings
  1

  2
none_device
  4
ISO_A4_(210.00_x_297.00_MM)
  6

 40
7.5
 41
20.0
 42
7.5
 43
20.0
 44
210.0
 45
297.0
 46
0.0
 47
0.0
 48
0.0
 49
0.0
140
0.0
141
0.0
142
1.0
143
6.2256809339
 70
   688
 72
     1
 73
     1
 74
     1
  7

 75
     0
147
0.160625
148
800.0
149
422.2039982781
100
AcDbLayout
  1
_Bottom
 70
     1
 71
     4
 10
0.0
 20
0.0
 11
0.0
 21
0.0
 12
0.0
 22
0.0
 32
0.0
 14
0.0
 24
0.0
 34
0.0
 15
0.0
 25
0.0
 35
0.0
146
0.0
 13
0.0
 23
0.0
 33
0.0
 16
1.0
 26
0.0
 36
0.0
 17
0.0
 27
1.0
 37
0.0
 76
     0
330
1FA
331
35C
  0
LAYOUT
  5
2AD
102
{ACAD_REACTORS
330
1A
102
}
330
1A
100
AcDbPlotSettings
  1

  2
none_device
  4
ANSI_A_(11.00_x_8.50_Inches)
  6

 40
6.35
 41
19.05
 42
6.35000508
 43
19.05000254
 44
279.4
 45
215.9
 46
133.34999746
 47
125.3950484637
 48
0.0
 49
0.0
140
0.0
141
0.0
142
0.00680625
143
1.0
 70
   672
 72
     0
 73
     0
 74
     1
  7

 75
     0
147
0.0065624999
148
20320.0
149
10723.9815562644
100
AcDbLayout
  1
_Isometric
 70
     1
 71
     5
 10
0.0
 20
0.0
 11
0.0
 21
0.0
 12
0.0
 22
0.0
 32
0.0
 14
-800.0
 24
-422.2039982781
 34
0.0
 15
800.0
 25
0.0
 35
0.0
146
0.0
 13
0.0
 23
0.0
 33
0.0
 16
1.0
 26
0.0
 36
0.0
 17
0.0
 27
1.0
 37
0.0
 76
     0
330
2AC
331
35E
  0
LAYOUT
  5
26
102
{ACAD_REACTORS
330
1A
102
}
330
1A
100
AcDbPlotSettings
  1

  2
none_device
  4
ISO_A4_(210.00_x_297.00_MM)
  6

 40
7.5
 41
20.0
 42
7.5
 43
20.0
 44
210.0
 45
297.0
 46
0.0
 47
0.0
 48
0.0
 49
0.0
140
0.0
141
0.0
142
1.0
143
6.2256809339
 70
   688
 72
     1
 73
     1
 74
     1
  7

 75
     0
147
0.160625
148
800.0
149
422.2039982781
100
AcDbLayout
  1
_Right
 70
     1
 71
     2
 10
0.0
 20
0.0
 11
0.0
 21
0.0
 12
0.0
 22
0.0
 32
0.0
 14
0.0
 24
0.0
 34
0.0
 15
0.0
 25
0.0
 35
0.0
146
0.0
 13
0.0
 23
0.0
 33
0.0
 16
1.0
 26
0.0
 36
0.0
 17
0.0
 27
1.0
 37
0.0
 76
     0
330
23
331
358
  0
LAYOUT
  5
15C
102
{ACAD_REACTORS
330
1A
102
}
330
1A
100
AcDbPlotSettings
  1

  2
none_device
  4
ISO_A4_(210.00_x_297.00_MM)
  6

 40
7.5
 41
20.0
 42
7.5
 43
20.0
 44
210.0
 45
297.0
 46
0.0
 47
0.0
 48
0.0
 49
0.0
140
0.0
141
0.0
142
1.0
143
6.2256809339
 70
   688
 72
     1
 73
     1
 74
     1
  7

 75
     0
147
0.160625
148
800.0
149
422.2039982781
100
AcDbLayout
  1
_Top
 70
     1
 71
     3
 10
0.0
 20
0.0
 11
0.0
 21
0.0
 12
0.0
 22
0.0
 32
0.0
 14
0.0
 24
0.0
 34
0.0
 15
0.0
 25
0.0
 35
0.0
146
0.0
 13
0.0
 23
0.0
 33
0.0
 16
1.0
 26
0.0
 36
0.0
 17
0.0
 27
1.0
 37
0.0
 76
     0
330
15B
331
35A
  0
LAYOUT
  5
22
102
{ACAD_REACTORS
330
1A
102
}
330
1A
100
AcDbPlotSettings
  1

  2
none_device
  4
Letter_(8.50_x_11.00_Inches)
  6

 40
6.35
 41
6.35
 42
6.35000508
 43
6.35000508
 44
215.9
 45
279.4
 46
0.0
 47
0.0
 48
0.0
 49
0.0
140
0.0
141
0.0
142
1.0
143
1.0
 70
  1712
 72
     1
 73
     0
 74
     0
  7

 75
     0
147
1.0
148
0.0
149
0.0
100
AcDbLayout
  1
Model
 70
     1
 71
     0
 10
0.0
 20
0.0
 11
420.0
 21
297.0
 12
0.0
 22
0.0
 32
0.0
 14
-800.0
 24
-422.2039982781
 34
0.0
 15
800.0
 25
0.0
 35
0.0
146
0.0
 13
0.0
 23
0.0
 33
0.0
 16
1.0
 26
0.0
 36
0.0
 17
0.0
 27
1.0
 37
0.0
 76
     0
330
1F
331
29
  0
MLINESTYLE
  5
18
102
{ACAD_REACTORS
330
17
102
}
330
17
100
AcDbMlineStyle
  2
Standard
 70
     0
  3

 62
   256
 51
90.0
 52
90.0
 71
     2
 49
0.5
 62
   256
  6
BYLAYER
 49
-0.5
 62
   256
  6
BYLAYER
  0
ACDBPLACEHOLDER
  5
F
102
{ACAD_REACTORS
330
E
102
}
330
E
  0
SCALE
  5
48
102
{ACAD_REACTORS
330
47
102
}
330
47
100
AcDbScale
 70
     0
300
1:1
140
1.0
141
1.0
290
     1
  0
SCALE
  5
49
102
{ACAD_REACTORS
330
47
102
}
330
47
100
AcDbScale
 70
     0
300
1:2
140
1.0
141
2.0
290
     0
  0
SCALE
  5
4A
102
{ACAD_REACTORS
330
47
102
}
330
47
100
AcDbScale
 70
     0
300
1:4
140
1.0
141
4.0
290
     0
  0
SCALE
  5
4B
102
{ACAD_REACTORS
330
47
102
}
330
47
100
AcDbScale
 70
     0
300
1:5
140
1.0
141
5.0
290
     0
  0
SCALE
  5
4C
102
{ACAD_REACTORS
330
47
102
}
330
47
100
AcDbScale
 70
     0
300
1:8
140
1.0
141
8.0
290
     0
  0
SCALE
  5
4D
102
{ACAD_REACTORS
330
47
102
}
330
47
100
AcDbScale
 70
     0
300
1:10
140
1.0
141
10.0
290
     0
  0
SCALE
  5
4E
102
{ACAD_REACTORS
330
47
102
}
330
47
100
AcDbScale
 70
     0
300
1:16
140
1.0
141
16.0
290
     0
  0
SCALE
  5
4F
102
{ACAD_REACTORS
330
47
102
}
330
47
100
AcDbScale
 70
     0
300
1:20
140
1.0
141
20.0
290
     0
  0
SCALE
  5
50
102
{ACAD_REACTORS
330
47
102
}
330
47
100
AcDbScale
 70
     0
300
1:30
140
1.0
141
30.0
290
     0
  0
SCALE
  5
51
102
{ACAD_REACTORS
330
47
102
}
330
47
100
AcDbScale
 70
     0
300
1:40
140
1.0
141
40.0
290
     0
  0
SCALE
  5
52
102
{ACAD_REACTORS
330
47
102
}
330
47
100
AcDbScale
 70
     0
300
1:50
140
1.0
141
50.0
290
     0
  0
SCALE
  5
53
102
{ACAD_REACTORS
330
47
102
}
330
47
100
AcDbScale
 70
     0
300
1:100
140
1.0
141
100.0
290
     0
  0
SCALE
  5
54
102
{ACAD_REACTORS
330
47
102
}
330
47
100
AcDbScale
 70
     0
300
2:1
140
2.0
141
1.0
290
     0
  0
SCALE
  5
55
102
{ACAD_REACTORS
330
47
102
}
330
47
100
AcDbScale
 70
     0
300
4:1
140
4.0
141
1.0
290
     0
  0
SCALE
  5
56
102
{ACAD_REACTORS
330
47
102
}
330
47
100
AcDbScale
 70
     0
300
8:1
140
8.0
141
1.0
290
     0
  0
SCALE
  5
57
102
{ACAD_REACTORS
330
47
102
}
330
47
100
AcDbScale
 70
     0
300
10:1
140
10.0
141
1.0
290
     0
  0
SCALE
  5
58
102
{ACAD_REACTORS
330
47
102
}
330
47
100
AcDbScale
 70
     0
300
100:1
140
100.0
141
1.0
290
     0
  0
SCALE
  5
59
102
{ACAD_REACTORS
330
47
102
}
330
47
100
AcDbScale
 70
     0
300
1/128" = 1'-0"
140
0.0078125
141
12.0
290
     0
  0
SCALE
  5
5A
102
{ACAD_REACTORS
330
47
102
}
330
47
100
AcDbScale
 70
     0
300
1/64" = 1'-0"
140
0.015625
141
12.0
290
     0
  0
SCALE
  5
5B
102
{ACAD_REACTORS
330
47
102
}
330
47
100
AcDbScale
 70
     0
300
1/32" = 1'-0"
140
0.03125
141
12.0
290
     0
  0
SCALE
  5
5C
102
{ACAD_REACTORS
330
47
102
}
330
47
100
AcDbScale
 70
     0
300
1/16" = 1'-0"
140
0.0625
141
12.0
290
     0
  0
SCALE
  5
5D
102
{ACAD_REACTORS
330
47
102
}
330
47
100
AcDbScale
 70
     0
300
3/32" = 1'-0"
140
0.09375
141
12.0
290
     0
  0
SCALE
  5
5E
102
{ACAD_REACTORS
330
47
102
}
330
47
100
AcDbScale
 70
     0
300
1/8" = 1'-0"
140
0.125
141
12.0
290
     0
  0
SCALE
  5
5F
102
{ACAD_REACTORS
330
47
102
}
330
47
100
AcDbScale
 70
     0
300
3/16" = 1'-0"
140
0.1875
141
12.0
290
     0
  0
SCALE
  5
60
102
{ACAD_REACTORS
330
47
102
}
330
47
100
AcDbScale
 70
     0
300
1/4" = 1'-0"
140
0.25
141
12.0
290
     0
  0
SCALE
  5
61
102
{ACAD_REACTORS
330
47
102
}
330
47
100
AcDbScale
 70
     0
300
3/8" = 1'-0"
140
0.375
141
12.0
290
     0
  0
SCALE
  5
62
102
{ACAD_REACTORS
330
47
102
}
330
47
100
AcDbScale
 70
     0
300
1/2" = 1'-0"
140
0.5
141
12.0
290
     0
  0
SCALE
  5
63
102
{ACAD_REACTORS
330
47
102
}
330
47
100
AcDbScale
 70
     0
300
3/4" = 1'-0"
140
0.75
141
12.0
290
     0
  0
SCALE
  5
64
102
{ACAD_REACTORS
330
47
102
}
330
47
100
AcDbScale
 70
     0
300
1" = 1'-0"
140
1.0
141
12.0
290
     0
  0
SCALE
  5
65
102
{ACAD_REACTORS
330
47
102
}
330
47
100
AcDbScale
 70
     0
300
1-1/2" = 1'-0"
140
1.5
141
12.0
290
     0
  0
SCALE
  5
66
102
{ACAD_REACTORS
330
47
102
}
330
47
100
AcDbScale
 70
     0
300
3" = 1'-0"
140
3.0
141
12.0
290
     0
  0
SCALE
  5
67
102
{ACAD_REACTORS
330
47
102
}
330
47
100
AcDbScale
 70
     0
300
6" = 1'-0"
140
6.0
141
12.0
290
     0
  0
SCALE
  5
68
102
{ACAD_REACTORS
330
47
102
}
330
47
100
AcDbScale
 70
     0
300
1'-0" = 1'-0"
140
12.0
141
12.0
290
     0
  0
ENDSEC
  0
EOF
