ISO-10303-21;
HEADER;
FILE_DESCRIPTION (( 'STEP AP214' ),
    '1' );
FILE_NAME ('UN120T_STEP_V10321.STEP',
    '2021-03-12T16:10:12',
    ( '' ),
    ( '' ),
    'SwSTEP 2.0',
    'SolidWorks 2019',
    '' );
FILE_SCHEMA (( 'AUTOMOTIVE_DESIGN' ));
ENDSEC;

DATA;
#1 = CARTESIAN_POINT ( 'NONE',  ( 0.000000000000000000, 0.000000000000000000, 0.000000000000000000 ) ) ;
#2 = ORIENTED_EDGE ( 'NONE', *, *, #284, .T. ) ;
#3 = EDGE_CURVE ( 'NONE', #121, #139, #155, .T. ) ;
#4 = CARTESIAN_POINT ( 'NONE',  ( -350.0461917754560091, 201.7615598902029888, 252.5288085907110371 ) ) ;
#5 = FACE_OUTER_BOUND ( 'NONE', #286, .T. ) ;
#6 = FILL_AREA_STYLE_COLOUR ( '', #280 ) ;
#7 = FILL_AREA_STYLE_COLOUR ( '', #197 ) ;
#8 =( NAMED_UNIT ( * ) PLANE_ANGLE_UNIT ( ) SI_UNIT ( $, .RADIAN. ) );
#9 = VECTOR ( 'NONE', #196, 1000.000000000000000 ) ;
#10 = FILL_AREA_STYLE ('',( #281 ) ) ;
#11 = PRESENTATION_STYLE_ASSIGNMENT (( #122 ) ) ;
#12 = VECTOR ( 'NONE', #289, 1000.000000000000000 ) ;
#13 = SURFACE_STYLE_FILL_AREA ( #198 ) ;
#14 = APPLICATION_PROTOCOL_DEFINITION ( 'draft international standard', 'automotive_design', 1998, #50 ) ;
#15 = FACE_OUTER_BOUND ( 'NONE', #153, .T. ) ;
#16 = FILL_AREA_STYLE_COLOUR ( '', #127 ) ;
#17 = DIRECTION ( 'NONE',  ( 0.000000000000000000, -1.000000000000000000, 0.000000000000000000 ) ) ;
#18 = EDGE_CURVE ( 'NONE', #67, #58, #172, .T. ) ;
#19 = MECHANICAL_DESIGN_GEOMETRIC_PRESENTATION_REPRESENTATION (  '', ( #48 ), #79 ) ;
#20 = SURFACE_STYLE_FILL_AREA ( #275 ) ;
#21 = EDGE_CURVE ( 'NONE', #126, #121, #154, .T. ) ;
#22 = AXIS2_PLACEMENT_3D ( 'NONE', #246, #17, #176 ) ;
#23 =( LENGTH_UNIT ( ) NAMED_UNIT ( * ) SI_UNIT ( .MILLI., .METRE. ) );
#24 = PRESENTATION_STYLE_ASSIGNMENT (( #137 ) ) ;
#25 =( NAMED_UNIT ( * ) SI_UNIT ( $, .STERADIAN. ) SOLID_ANGLE_UNIT ( ) );
#26 = AXIS2_PLACEMENT_3D ( 'NONE', #116, #183, #247 ) ;
#27 = PRESENTATION_LAYER_ASSIGNMENT (  '', '', ( #156 ) ) ;
#28 = EDGE_CURVE ( 'NONE', #126, #242, #244, .T. ) ;
#29 = FACE_OUTER_BOUND ( 'NONE', #211, .T. ) ;
#30 =( GEOMETRIC_REPRESENTATION_CONTEXT ( 3 ) GLOBAL_UNCERTAINTY_ASSIGNED_CONTEXT ( ( #170 ) ) GLOBAL_UNIT_ASSIGNED_CONTEXT ( ( #23, #250, #98 ) ) REPRESENTATION_CONTEXT ( 'NONE', 'WORKASPACE' ) );
#31 = CARTESIAN_POINT ( 'NONE',  ( 841.9538082245438773, 201.7615598902029888, 252.5288085907110371 ) ) ;
#32 = ORIENTED_EDGE ( 'NONE', *, *, #28, .T. ) ;
#33 =( NAMED_UNIT ( * ) SI_UNIT ( $, .STERADIAN. ) SOLID_ANGLE_UNIT ( ) );
#34 = ORIENTED_EDGE ( 'NONE', *, *, #28, .F. ) ;
#35 = UNCERTAINTY_MEASURE_WITH_UNIT (LENGTH_MEASURE( 1.000000000000000082E-05 ), #77, 'distance_accuracy_value', 'NONE');
#36 = DIRECTION ( 'NONE',  ( 0.000000000000000000, 0.000000000000000000, 1.000000000000000000 ) ) ;
#37 = ORIENTED_EDGE ( 'NONE', *, *, #18, .F. ) ;
#38 = VECTOR ( 'NONE', #149, 1000.000000000000000 ) ;
#39 = CARTESIAN_POINT ( 'NONE',  ( -350.0461917754560091, 161.7615598902029888, 252.5288085907110371 ) ) ;
#40 = ORIENTED_EDGE ( 'NONE', *, *, #18, .T. ) ;
#41 = DIRECTION ( 'NONE',  ( 0.000000000000000000, -1.000000000000000000, 0.000000000000000000 ) ) ;
#42 =( GEOMETRIC_REPRESENTATION_CONTEXT ( 3 ) GLOBAL_UNCERTAINTY_ASSIGNED_CONTEXT ( ( #35 ) ) GLOBAL_UNIT_ASSIGNED_CONTEXT ( ( #77, #54, #229 ) ) REPRESENTATION_CONTEXT ( 'NONE', 'WORKASPACE' ) );
#43 =( NAMED_UNIT ( * ) SI_UNIT ( $, .STERADIAN. ) SOLID_ANGLE_UNIT ( ) );
#44 = DIRECTION ( 'NONE',  ( 1.000000000000000000, 0.000000000000000000, 0.000000000000000000 ) ) ;
#45 = DIRECTION ( 'NONE',  ( 0.000000000000000000, 0.000000000000000000, -1.000000000000000000 ) ) ;
#46 = ADVANCED_FACE ( 'NONE', ( #15 ), #91, .F. ) ;
#47 = CARTESIAN_POINT ( 'NONE',  ( 841.9538082245438773, 161.7615598902029888, 252.5288085907110371 ) ) ;
#48 = STYLED_ITEM ( 'NONE', ( #192 ), #206 ) ;
#49 = PLANE ( 'NONE',  #230 ) ;
#50 = APPLICATION_CONTEXT ( 'automotive_design' ) ;
#51 = SURFACE_STYLE_FILL_AREA ( #97 ) ;
#52 = SURFACE_STYLE_FILL_AREA ( #136 ) ;
#53 = SURFACE_SIDE_STYLE ('',( #52 ) ) ;
#54 =( NAMED_UNIT ( * ) PLANE_ANGLE_UNIT ( ) SI_UNIT ( $, .RADIAN. ) );
#55 = PRESENTATION_LAYER_ASSIGNMENT (  '', '', ( #175 ) ) ;
#56 = EDGE_CURVE ( 'NONE', #139, #60, #110, .T. ) ;
#57 = SURFACE_STYLE_FILL_AREA ( #256 ) ;
#58 = VERTEX_POINT ( 'NONE', #292 ) ;
#59 =( NAMED_UNIT ( * ) PLANE_ANGLE_UNIT ( ) SI_UNIT ( $, .RADIAN. ) );
#60 = VERTEX_POINT ( 'NONE', #174 ) ;
#61 = DIRECTION ( 'NONE',  ( 0.000000000000000000, -1.000000000000000000, 0.000000000000000000 ) ) ;
#62 = ORIENTED_EDGE ( 'NONE', *, *, #21, .F. ) ;
#63 = LINE ( 'NONE', #167, #235 ) ;
#64 = UNCERTAINTY_MEASURE_WITH_UNIT (LENGTH_MEASURE( 1.000000000000000082E-05 ), #147, 'distance_accuracy_value', 'NONE');
#65 = PLANE ( 'NONE',  #288 ) ;
#66 = VECTOR ( 'NONE', #104, 1000.000000000000000 ) ;
#67 = VERTEX_POINT ( 'NONE', #262 ) ;
#68 = LINE ( 'NONE', #39, #12 ) ;
#69 = ORIENTED_EDGE ( 'NONE', *, *, #158, .F. ) ;
#70 = PRESENTATION_LAYER_ASSIGNMENT (  '', '', ( #253 ) ) ;
#71 = LINE ( 'NONE', #93, #228 ) ;
#72 =( LENGTH_UNIT ( ) NAMED_UNIT ( * ) SI_UNIT ( .MILLI., .METRE. ) );
#73 = EDGE_LOOP ( 'NONE', ( #128, #62, #254, #40 ) ) ;
#74 = CARTESIAN_POINT ( 'NONE',  ( 841.9538082245438773, 201.7615598902029888, 252.5288085907110371 ) ) ;
#75 = STYLED_ITEM ( 'NONE', ( #78 ), #146 ) ;
#76 =( NAMED_UNIT ( * ) PLANE_ANGLE_UNIT ( ) SI_UNIT ( $, .RADIAN. ) );
#77 =( LENGTH_UNIT ( ) NAMED_UNIT ( * ) SI_UNIT ( .MILLI., .METRE. ) );
#78 = PRESENTATION_STYLE_ASSIGNMENT (( #270 ) ) ;
#79 =( GEOMETRIC_REPRESENTATION_CONTEXT ( 3 ) GLOBAL_UNCERTAINTY_ASSIGNED_CONTEXT ( ( #191 ) ) GLOBAL_UNIT_ASSIGNED_CONTEXT ( ( #117, #59, #140 ) ) REPRESENTATION_CONTEXT ( 'NONE', 'WORKASPACE' ) );
#80 =( LENGTH_UNIT ( ) NAMED_UNIT ( * ) SI_UNIT ( .MILLI., .METRE. ) );
#81 = SURFACE_SIDE_STYLE ('',( #57 ) ) ;
#82 = PRESENTATION_STYLE_ASSIGNMENT (( #119 ) ) ;
#83 =( GEOMETRIC_REPRESENTATION_CONTEXT ( 3 ) GLOBAL_UNCERTAINTY_ASSIGNED_CONTEXT ( ( #212 ) ) GLOBAL_UNIT_ASSIGNED_CONTEXT ( ( #80, #274, #25 ) ) REPRESENTATION_CONTEXT ( 'NONE', 'WORKASPACE' ) );
#84 = UNCERTAINTY_MEASURE_WITH_UNIT (LENGTH_MEASURE( 1.000000000000000082E-05 ), #120, 'distance_accuracy_value', 'NONE');
#85 = CARTESIAN_POINT ( 'NONE',  ( 245.9538082245439909, 161.7615598902029888, 26.52880859071099806 ) ) ;
#86 = ORIENTED_EDGE ( 'NONE', *, *, #239, .F. ) ;
#87 = PRESENTATION_LAYER_ASSIGNMENT (  '', '', ( #224 ) ) ;
#88 = ORIENTED_EDGE ( 'NONE', *, *, #284, .F. ) ;
#89 = DIRECTION ( 'NONE',  ( 0.000000000000000000, 0.000000000000000000, 1.000000000000000000 ) ) ;
#90 = EDGE_CURVE ( 'NONE', #265, #67, #71, .T. ) ;
#91 = PLANE ( 'NONE',  #22 ) ;
#92 = SURFACE_STYLE_FILL_AREA ( #245 ) ;
#93 = CARTESIAN_POINT ( 'NONE',  ( -350.0461917754560091, 201.7615598902029888, -199.4711914092890197 ) ) ;
#94 = LINE ( 'NONE', #180, #166 ) ;
#95 = VECTOR ( 'NONE', #241, 1000.000000000000000 ) ;
#96 = COLOUR_RGB ( '',0.7921568627450980005, 0.8196078431372548767, 0.9333333333333333481 ) ;
#97 = FILL_AREA_STYLE ('',( #6 ) ) ;
#98 =( NAMED_UNIT ( * ) SI_UNIT ( $, .STERADIAN. ) SOLID_ANGLE_UNIT ( ) );
#99 = PLANE ( 'NONE',  #113 ) ;
#100 = PRESENTATION_STYLE_ASSIGNMENT (( #163 ) ) ;
#101 = DIRECTION ( 'NONE',  ( 0.000000000000000000, 0.000000000000000000, -1.000000000000000000 ) ) ;
#102 = CARTESIAN_POINT ( 'NONE',  ( -350.0461917754560091, 201.7615598902029888, 252.5288085907110371 ) ) ;
#103 = CLOSED_SHELL ( 'NONE', ( #124, #217, #134, #146, #46, #206 ) ) ;
#104 = DIRECTION ( 'NONE',  ( 0.000000000000000000, -1.000000000000000000, 0.000000000000000000 ) ) ;
#105 = PRESENTATION_LAYER_ASSIGNMENT (  '', '', ( #75 ) ) ;
#106 = EDGE_CURVE ( 'NONE', #67, #126, #94, .T. ) ;
#107 = FACE_OUTER_BOUND ( 'NONE', #209, .T. ) ;
#108 = PRODUCT_RELATED_PRODUCT_CATEGORY ( 'part', '', ( #184 ) ) ;
#109 = FILL_AREA_STYLE_COLOUR ( '', #214 ) ;
#110 = LINE ( 'NONE', #47, #135 ) ;
#111 = CARTESIAN_POINT ( 'NONE',  ( -350.0461917754560091, 201.7615598902029888, -199.4711914092890197 ) ) ;
#112 = DIRECTION ( 'NONE',  ( 1.000000000000000000, 0.000000000000000000, 0.000000000000000000 ) ) ;
#113 = AXIS2_PLACEMENT_3D ( 'NONE', #102, #101, #187 ) ;
#114 = SURFACE_SIDE_STYLE ('',( #20 ) ) ;
#115 = VECTOR ( 'NONE', #41, 1000.000000000000000 ) ;
#116 = CARTESIAN_POINT ( 'NONE',  ( -350.0461917754560091, 201.7615598902029888, 252.5288085907110371 ) ) ;
#117 =( LENGTH_UNIT ( ) NAMED_UNIT ( * ) SI_UNIT ( .MILLI., .METRE. ) );
#118 = FILL_AREA_STYLE_COLOUR ( '', #201 ) ;
#119 = SURFACE_STYLE_USAGE ( .BOTH. , #81 ) ;
#120 =( LENGTH_UNIT ( ) NAMED_UNIT ( * ) SI_UNIT ( .MILLI., .METRE. ) );
#121 = VERTEX_POINT ( 'NONE', #225 ) ;
#122 = SURFACE_STYLE_USAGE ( .BOTH. , #145 ) ;
#123 = PRESENTATION_LAYER_ASSIGNMENT (  '', '', ( #177 ) ) ;
#124 = ADVANCED_FACE ( 'NONE', ( #107 ), #49, .F. ) ;
#125 = PRODUCT_DEFINITION_CONTEXT ( 'detailed design', #142, 'design' ) ;
#126 = VERTEX_POINT ( 'NONE', #4 ) ;
#127 = COLOUR_RGB ( '',0.7921568627450980005, 0.8196078431372548767, 0.9333333333333333481 ) ;
#128 = ORIENTED_EDGE ( 'NONE', *, *, #239, .T. ) ;
#129 = LINE ( 'NONE', #237, #95 ) ;
#130 = CARTESIAN_POINT ( 'NONE',  ( -350.0461917754560091, 201.7615598902029888, 252.5288085907110371 ) ) ;
#131 = SURFACE_STYLE_USAGE ( .BOTH. , #287 ) ;
#132 = PRESENTATION_STYLE_ASSIGNMENT (( #200 ) ) ;
#133 = DIRECTION ( 'NONE',  ( -1.000000000000000000, 0.000000000000000000, 0.000000000000000000 ) ) ;
#134 = ADVANCED_FACE ( 'NONE', ( #248 ), #249, .F. ) ;
#135 = VECTOR ( 'NONE', #45, 1000.000000000000000 ) ;
#136 = FILL_AREA_STYLE ('',( #185 ) ) ;
#137 = SURFACE_STYLE_USAGE ( .BOTH. , #53 ) ;
#138 = STYLED_ITEM ( 'NONE', ( #11 ), #217 ) ;
#139 = VERTEX_POINT ( 'NONE', #164 ) ;
#140 =( NAMED_UNIT ( * ) SI_UNIT ( $, .STERADIAN. ) SOLID_ANGLE_UNIT ( ) );
#141 = DIRECTION ( 'NONE',  ( 0.000000000000000000, 0.000000000000000000, -1.000000000000000000 ) ) ;
#142 = APPLICATION_CONTEXT ( 'automotive_design' ) ;
#143 = ORIENTED_EDGE ( 'NONE', *, *, #158, .T. ) ;
#144 = UNCERTAINTY_MEASURE_WITH_UNIT (LENGTH_MEASURE( 1.000000000000000082E-05 ), #232, 'distance_accuracy_value', 'NONE');
#145 = SURFACE_SIDE_STYLE ('',( #169 ) ) ;
#146 = ADVANCED_FACE ( 'NONE', ( #5 ), #99, .F. ) ;
#147 =( LENGTH_UNIT ( ) NAMED_UNIT ( * ) SI_UNIT ( .MILLI., .METRE. ) );
#148 = ORIENTED_EDGE ( 'NONE', *, *, #3, .T. ) ;
#149 = DIRECTION ( 'NONE',  ( 0.000000000000000000, 0.000000000000000000, -1.000000000000000000 ) ) ;
#150 = ORIENTED_EDGE ( 'NONE', *, *, #90, .T. ) ;
#151 = PRESENTATION_LAYER_ASSIGNMENT (  '', '', ( #138 ) ) ;
#152 = SURFACE_SIDE_STYLE ('',( #13 ) ) ;
#153 = EDGE_LOOP ( 'NONE', ( #233, #150, #220, #32 ) ) ;
#154 = LINE ( 'NONE', #222, #189 ) ;
#155 = LINE ( 'NONE', #218, #9 ) ;
#156 = STYLED_ITEM ( 'NONE', ( #132 ), #282 ) ;
#157 = ORIENTED_EDGE ( 'NONE', *, *, #179, .F. ) ;
#158 = EDGE_CURVE ( 'NONE', #242, #139, #277, .T. ) ;
#159 = MANIFOLD_SOLID_BREP ( 'NONE', #103 ) ;
#160 = SURFACE_SIDE_STYLE ('',( #51 ) ) ;
#161 = PRODUCT_DEFINITION ( 'UNKNOWN', '', #252, #125 ) ;
#162 = COLOUR_RGB ( '',0.7921568627450980005, 0.8196078431372548767, 0.9333333333333333481 ) ;
#163 = SURFACE_STYLE_USAGE ( .BOTH. , #160 ) ;
#164 = CARTESIAN_POINT ( 'NONE',  ( 841.9538082245438773, 161.7615598902029888, 252.5288085907110371 ) ) ;
#165 =( GEOMETRIC_REPRESENTATION_CONTEXT ( 3 ) GLOBAL_UNCERTAINTY_ASSIGNED_CONTEXT ( ( #144 ) ) GLOBAL_UNIT_ASSIGNED_CONTEXT ( ( #232, #243, #267 ) ) REPRESENTATION_CONTEXT ( 'NONE', 'WORKASPACE' ) );
#166 = VECTOR ( 'NONE', #269, 1000.000000000000000 ) ;
#167 = CARTESIAN_POINT ( 'NONE',  ( 841.9538082245438773, 201.7615598902029888, -199.4711914092890197 ) ) ;
#168 = ORIENTED_EDGE ( 'NONE', *, *, #179, .T. ) ;
#169 = SURFACE_STYLE_FILL_AREA ( #10 ) ;
#170 = UNCERTAINTY_MEASURE_WITH_UNIT (LENGTH_MEASURE( 1.000000000000000082E-05 ), #23, 'distance_accuracy_value', 'NONE');
#171 = ORIENTED_EDGE ( 'NONE', *, *, #271, .F. ) ;
#172 = LINE ( 'NONE', #111, #115 ) ;
#173 = CARTESIAN_POINT ( 'NONE',  ( 841.9538082245438773, 201.7615598902029888, 252.5288085907110371 ) ) ;
#174 = CARTESIAN_POINT ( 'NONE',  ( 841.9538082245438773, 161.7615598902029888, -199.4711914092890197 ) ) ;
#175 = STYLED_ITEM ( 'NONE', ( #24 ), #124 ) ;
#176 = DIRECTION ( 'NONE',  ( 0.000000000000000000, 0.000000000000000000, -1.000000000000000000 ) ) ;
#177 = STYLED_ITEM ( 'NONE', ( #100 ), #134 ) ;
#178 = CARTESIAN_POINT ( 'NONE',  ( 841.9538082245438773, 201.7615598902029888, -199.4711914092890197 ) ) ;
#179 = EDGE_CURVE ( 'NONE', #265, #60, #63, .T. ) ;
#180 = CARTESIAN_POINT ( 'NONE',  ( -350.0461917754560091, 201.7615598902029888, 252.5288085907110371 ) ) ;
#181 = AXIS2_PLACEMENT_3D ( 'NONE', #1, #36, #195 ) ;
#182 = VECTOR ( 'NONE', #112, 1000.000000000000000 ) ;
#183 = DIRECTION ( 'NONE',  ( 1.000000000000000000, 0.000000000000000000, 0.000000000000000000 ) ) ;
#184 = PRODUCT ( 'UN120T_STEP_V10321', 'UN120T_STEP_V10321', '', ( #261 ) ) ;
#185 = FILL_AREA_STYLE_COLOUR ( '', #96 ) ;
#186 = DIRECTION ( 'NONE',  ( -1.000000000000000000, 0.000000000000000000, 0.000000000000000000 ) ) ;
#187 = DIRECTION ( 'NONE',  ( 0.000000000000000000, -1.000000000000000000, 0.000000000000000000 ) ) ;
#188 = PRODUCT_DEFINITION_SHAPE ( 'NONE', 'NONE',  #161 ) ;
#189 = VECTOR ( 'NONE', #264, 1000.000000000000000 ) ;
#190 = SURFACE_SIDE_STYLE ('',( #285 ) ) ;
#191 = UNCERTAINTY_MEASURE_WITH_UNIT (LENGTH_MEASURE( 1.000000000000000082E-05 ), #117, 'distance_accuracy_value', 'NONE');
#192 = PRESENTATION_STYLE_ASSIGNMENT (( #213 ) ) ;
#193 = COLOUR_RGB ( '',0.7921568627450980005, 0.8196078431372548767, 0.9333333333333333481 ) ;
#194 = ORIENTED_EDGE ( 'NONE', *, *, #3, .F. ) ;
#195 = DIRECTION ( 'NONE',  ( 1.000000000000000000, 0.000000000000000000, 0.000000000000000000 ) ) ;
#196 = DIRECTION ( 'NONE',  ( 1.000000000000000000, 0.000000000000000000, 0.000000000000000000 ) ) ;
#197 = COLOUR_RGB ( '',0.7921568627450980005, 0.8196078431372548767, 0.9333333333333333481 ) ;
#198 = FILL_AREA_STYLE ('',( #109 ) ) ;
#199 = ORIENTED_EDGE ( 'NONE', *, *, #56, .F. ) ;
#200 = SURFACE_STYLE_USAGE ( .BOTH. , #152 ) ;
#201 = COLOUR_RGB ( '',0.7921568627450980005, 0.8196078431372548767, 0.9333333333333333481 ) ;
#202 = PRESENTATION_STYLE_ASSIGNMENT (( #131 ) ) ;
#203 = DIRECTION ( 'NONE',  ( 0.000000000000000000, 0.000000000000000000, 1.000000000000000000 ) ) ;
#204 = MECHANICAL_DESIGN_GEOMETRIC_PRESENTATION_REPRESENTATION (  '', ( #138 ), #165 ) ;
#205 = MECHANICAL_DESIGN_GEOMETRIC_PRESENTATION_REPRESENTATION (  '', ( #253 ), #260 ) ;
#206 = ADVANCED_FACE ( 'NONE', ( #29 ), #65, .T. ) ;
#207 = PRESENTATION_LAYER_ASSIGNMENT (  '', '', ( #48 ) ) ;
#208 = FILL_AREA_STYLE ('',( #118 ) ) ;
#209 = EDGE_LOOP ( 'NONE', ( #290, #157, #171, #143 ) ) ;
#210 = DIRECTION ( 'NONE',  ( 0.000000000000000000, -1.000000000000000000, 0.000000000000000000 ) ) ;
#211 = EDGE_LOOP ( 'NONE', ( #199, #194, #86, #88 ) ) ;
#212 = UNCERTAINTY_MEASURE_WITH_UNIT (LENGTH_MEASURE( 1.000000000000000082E-05 ), #80, 'distance_accuracy_value', 'NONE');
#213 = SURFACE_STYLE_USAGE ( .BOTH. , #190 ) ;
#214 = COLOUR_RGB ( '',0.7921568627450980005, 0.8196078431372548767, 0.9333333333333333481 ) ;
#215 = MECHANICAL_DESIGN_GEOMETRIC_PRESENTATION_REPRESENTATION (  '', ( #175 ), #42 ) ;
#216 =( NAMED_UNIT ( * ) SI_UNIT ( $, .STERADIAN. ) SOLID_ANGLE_UNIT ( ) );
#217 = ADVANCED_FACE ( 'NONE', ( #279 ), #234, .F. ) ;
#218 = CARTESIAN_POINT ( 'NONE',  ( -350.0461917754560091, 161.7615598902029888, 252.5288085907110371 ) ) ;
#219 =( NAMED_UNIT ( * ) PLANE_ANGLE_UNIT ( ) SI_UNIT ( $, .RADIAN. ) );
#220 = ORIENTED_EDGE ( 'NONE', *, *, #106, .T. ) ;
#221 = CARTESIAN_POINT ( 'NONE',  ( -350.0461917754560091, 201.7615598902029888, -199.4711914092890197 ) ) ;
#222 = CARTESIAN_POINT ( 'NONE',  ( -350.0461917754560091, 201.7615598902029888, 252.5288085907110371 ) ) ;
#223 = EDGE_LOOP ( 'NONE', ( #2, #37, #255, #168 ) ) ;
#224 = STYLED_ITEM ( 'NONE', ( #82 ), #159 ) ;
#225 = CARTESIAN_POINT ( 'NONE',  ( -350.0461917754560091, 161.7615598902029888, 252.5288085907110371 ) ) ;
#226 = APPLICATION_PROTOCOL_DEFINITION ( 'draft international standard', 'automotive_design', 1998, #142 ) ;
#227 = FILL_AREA_STYLE_COLOUR ( '', #193 ) ;
#228 = VECTOR ( 'NONE', #133, 1000.000000000000000 ) ;
#229 =( NAMED_UNIT ( * ) SI_UNIT ( $, .STERADIAN. ) SOLID_ANGLE_UNIT ( ) );
#230 = AXIS2_PLACEMENT_3D ( 'NONE', #273, #186, #203 ) ;
#231 = MECHANICAL_DESIGN_GEOMETRIC_PRESENTATION_REPRESENTATION (  '', ( #156 ), #268 ) ;
#232 =( LENGTH_UNIT ( ) NAMED_UNIT ( * ) SI_UNIT ( .MILLI., .METRE. ) );
#233 = ORIENTED_EDGE ( 'NONE', *, *, #271, .T. ) ;
#234 = PLANE ( 'NONE',  #240 ) ;
#235 = VECTOR ( 'NONE', #61, 1000.000000000000000 ) ;
#236 = UNCERTAINTY_MEASURE_WITH_UNIT (LENGTH_MEASURE( 1.000000000000000082E-05 ), #72, 'distance_accuracy_value', 'NONE');
#237 = CARTESIAN_POINT ( 'NONE',  ( -350.0461917754560091, 161.7615598902029888, -199.4711914092890197 ) ) ;
#238 = ORIENTED_EDGE ( 'NONE', *, *, #21, .T. ) ;
#239 = EDGE_CURVE ( 'NONE', #58, #121, #68, .T. ) ;
#240 = AXIS2_PLACEMENT_3D ( 'NONE', #221, #89, #44 ) ;
#241 = DIRECTION ( 'NONE',  ( -1.000000000000000000, 0.000000000000000000, 0.000000000000000000 ) ) ;
#242 = VERTEX_POINT ( 'NONE', #173 ) ;
#243 =( NAMED_UNIT ( * ) PLANE_ANGLE_UNIT ( ) SI_UNIT ( $, .RADIAN. ) );
#244 = LINE ( 'NONE', #130, #182 ) ;
#245 = FILL_AREA_STYLE ('',( #16 ) ) ;
#246 = CARTESIAN_POINT ( 'NONE',  ( 245.9538082245439909, 201.7615598902029888, 26.52880859071099806 ) ) ;
#247 = DIRECTION ( 'NONE',  ( 0.000000000000000000, 1.000000000000000000, 0.000000000000000000 ) ) ;
#248 = FACE_OUTER_BOUND ( 'NONE', #73, .T. ) ;
#249 = PLANE ( 'NONE',  #26 ) ;
#250 =( NAMED_UNIT ( * ) PLANE_ANGLE_UNIT ( ) SI_UNIT ( $, .RADIAN. ) );
#251 = MECHANICAL_DESIGN_GEOMETRIC_PRESENTATION_REPRESENTATION (  '', ( #177 ), #83 ) ;
#252 = PRODUCT_DEFINITION_FORMATION_WITH_SPECIFIED_SOURCE ( 'ANY', '', #184, .NOT_KNOWN. ) ;
#253 = STYLED_ITEM ( 'NONE', ( #202 ), #46 ) ;
#254 = ORIENTED_EDGE ( 'NONE', *, *, #106, .F. ) ;
#255 = ORIENTED_EDGE ( 'NONE', *, *, #90, .F. ) ;
#256 = FILL_AREA_STYLE ('',( #7 ) ) ;
#257 = MECHANICAL_DESIGN_GEOMETRIC_PRESENTATION_REPRESENTATION (  '', ( #224 ), #276 ) ;
#258 =( NAMED_UNIT ( * ) PLANE_ANGLE_UNIT ( ) SI_UNIT ( $, .RADIAN. ) );
#259 =( LENGTH_UNIT ( ) NAMED_UNIT ( * ) SI_UNIT ( .MILLI., .METRE. ) );
#260 =( GEOMETRIC_REPRESENTATION_CONTEXT ( 3 ) GLOBAL_UNCERTAINTY_ASSIGNED_CONTEXT ( ( #283 ) ) GLOBAL_UNIT_ASSIGNED_CONTEXT ( ( #259, #76, #43 ) ) REPRESENTATION_CONTEXT ( 'NONE', 'WORKASPACE' ) );
#261 = PRODUCT_CONTEXT ( 'NONE', #50, 'mechanical' ) ;
#262 = CARTESIAN_POINT ( 'NONE',  ( -350.0461917754560091, 201.7615598902029888, -199.4711914092890197 ) ) ;
#263 = LINE ( 'NONE', #74, #38 ) ;
#264 = DIRECTION ( 'NONE',  ( 0.000000000000000000, -1.000000000000000000, 0.000000000000000000 ) ) ;
#265 = VERTEX_POINT ( 'NONE', #178 ) ;
#266 = MECHANICAL_DESIGN_GEOMETRIC_PRESENTATION_REPRESENTATION (  '', ( #75 ), #30 ) ;
#267 =( NAMED_UNIT ( * ) SI_UNIT ( $, .STERADIAN. ) SOLID_ANGLE_UNIT ( ) );
#268 =( GEOMETRIC_REPRESENTATION_CONTEXT ( 3 ) GLOBAL_UNCERTAINTY_ASSIGNED_CONTEXT ( ( #64 ) ) GLOBAL_UNIT_ASSIGNED_CONTEXT ( ( #147, #258, #291 ) ) REPRESENTATION_CONTEXT ( 'NONE', 'WORKASPACE' ) );
#269 = DIRECTION ( 'NONE',  ( 0.000000000000000000, 0.000000000000000000, 1.000000000000000000 ) ) ;
#270 = SURFACE_STYLE_USAGE ( .BOTH. , #114 ) ;
#271 = EDGE_CURVE ( 'NONE', #242, #265, #263, .T. ) ;
#272 = SHAPE_DEFINITION_REPRESENTATION ( #188, #282 ) ;
#273 = CARTESIAN_POINT ( 'NONE',  ( 841.9538082245438773, 201.7615598902029888, 252.5288085907110371 ) ) ;
#274 =( NAMED_UNIT ( * ) PLANE_ANGLE_UNIT ( ) SI_UNIT ( $, .RADIAN. ) );
#275 = FILL_AREA_STYLE ('',( #227 ) ) ;
#276 =( GEOMETRIC_REPRESENTATION_CONTEXT ( 3 ) GLOBAL_UNCERTAINTY_ASSIGNED_CONTEXT ( ( #84 ) ) GLOBAL_UNIT_ASSIGNED_CONTEXT ( ( #120, #8, #33 ) ) REPRESENTATION_CONTEXT ( 'NONE', 'WORKASPACE' ) );
#277 = LINE ( 'NONE', #31, #66 ) ;
#278 =( GEOMETRIC_REPRESENTATION_CONTEXT ( 3 ) GLOBAL_UNCERTAINTY_ASSIGNED_CONTEXT ( ( #236 ) ) GLOBAL_UNIT_ASSIGNED_CONTEXT ( ( #72, #219, #216 ) ) REPRESENTATION_CONTEXT ( 'NONE', 'WORKASPACE' ) );
#279 = FACE_OUTER_BOUND ( 'NONE', #223, .T. ) ;
#280 = COLOUR_RGB ( '',0.7921568627450980005, 0.8196078431372548767, 0.9333333333333333481 ) ;
#281 = FILL_AREA_STYLE_COLOUR ( '', #162 ) ;
#282 = ADVANCED_BREP_SHAPE_REPRESENTATION ( 'UN120T_STEP_V10321', ( #159, #181 ), #278 ) ;
#283 = UNCERTAINTY_MEASURE_WITH_UNIT (LENGTH_MEASURE( 1.000000000000000082E-05 ), #259, 'distance_accuracy_value', 'NONE');
#284 = EDGE_CURVE ( 'NONE', #60, #58, #129, .T. ) ;
#285 = SURFACE_STYLE_FILL_AREA ( #208 ) ;
#286 = EDGE_LOOP ( 'NONE', ( #148, #69, #34, #238 ) ) ;
#287 = SURFACE_SIDE_STYLE ('',( #92 ) ) ;
#288 = AXIS2_PLACEMENT_3D ( 'NONE', #85, #210, #141 ) ;
#289 = DIRECTION ( 'NONE',  ( 0.000000000000000000, 0.000000000000000000, 1.000000000000000000 ) ) ;
#290 = ORIENTED_EDGE ( 'NONE', *, *, #56, .T. ) ;
#291 =( NAMED_UNIT ( * ) SI_UNIT ( $, .STERADIAN. ) SOLID_ANGLE_UNIT ( ) );
#292 = CARTESIAN_POINT ( 'NONE',  ( -350.0461917754560091, 161.7615598902029888, -199.4711914092890197 ) ) ;
ENDSEC;
END-ISO-10303-21;
