ISO-10303-21;
HEADER;
FILE_DESCRIPTION (( 'STEP AP214' ),
    '1' );
FILE_NAME ('UN060T.STEP',
    '2021-03-12T15:59:30',
    ( '' ),
    ( '' ),
    'SwSTEP 2.0',
    'SolidWorks 2019',
    '' );
FILE_SCHEMA (( 'AUTOMOTIVE_DESIGN' ));
ENDSEC;

DATA;
#1 = CARTESIAN_POINT ( 'NONE',  ( 246.9538082245439909, 201.7615598902029888, -209.4711914092890197 ) ) ;
#2 = ORIENTED_EDGE ( 'NONE', *, *, #85, .F. ) ;
#3 = STYLED_ITEM ( 'NONE', ( #236 ), #36 ) ;
#4 = AXIS2_PLACEMENT_3D ( 'NONE', #35, #216, #12 ) ;
#5 = CARTESIAN_POINT ( 'NONE',  ( -355.0461917754560091, 201.7615598902029888, 250.5288085907110371 ) ) ;
#6 = FILL_AREA_STYLE ('',( #161 ) ) ;
#7 = STYLED_ITEM ( 'NONE', ( #72 ), #242 ) ;
#8 = ORIENTED_EDGE ( 'NONE', *, *, #101, .T. ) ;
#9 = DIRECTION ( 'NONE',  ( 0.000000000000000000, 0.000000000000000000, -1.000000000000000000 ) ) ;
#10 = SURFACE_STYLE_FILL_AREA ( #6 ) ;
#11 = ORIENTED_EDGE ( 'NONE', *, *, #290, .T. ) ;
#12 = DIRECTION ( 'NONE',  ( 1.000000000000000000, 0.000000000000000000, 0.000000000000000000 ) ) ;
#13 = PRESENTATION_LAYER_ASSIGNMENT (  '', '', ( #24 ) ) ;
#14 = DIRECTION ( 'NONE',  ( 0.000000000000000000, 0.000000000000000000, 1.000000000000000000 ) ) ;
#15 = SURFACE_STYLE_USAGE ( .BOTH. , #232 ) ;
#16 = PRODUCT_DEFINITION_CONTEXT ( 'detailed design', #263, 'design' ) ;
#17 = SURFACE_SIDE_STYLE ('',( #261 ) ) ;
#18 = DIRECTION ( 'NONE',  ( 1.000000000000000000, 0.000000000000000000, 0.000000000000000000 ) ) ;
#19 = PRODUCT_RELATED_PRODUCT_CATEGORY ( 'part', '', ( #182 ) ) ;
#20 = SURFACE_STYLE_USAGE ( .BOTH. , #92 ) ;
#21 = LINE ( 'NONE', #1, #141 ) ;
#22 = PRODUCT_DEFINITION ( 'UNKNOWN', '', #118, #16 ) ;
#23 = VERTEX_POINT ( 'NONE', #34 ) ;
#24 = STYLED_ITEM ( 'NONE', ( #47 ), #215 ) ;
#25 = DIRECTION ( 'NONE',  ( 0.000000000000000000, -1.000000000000000000, 0.000000000000000000 ) ) ;
#26 = MECHANICAL_DESIGN_GEOMETRIC_PRESENTATION_REPRESENTATION (  '', ( #87 ), #127 ) ;
#27 = ORIENTED_EDGE ( 'NONE', *, *, #183, .F. ) ;
#28 = FACE_OUTER_BOUND ( 'NONE', #145, .T. ) ;
#29 = VERTEX_POINT ( 'NONE', #126 ) ;
#30 = FACE_OUTER_BOUND ( 'NONE', #260, .T. ) ;
#31 = VECTOR ( 'NONE', #60, 1000.000000000000000 ) ;
#32 = PLANE ( 'NONE',  #255 ) ;
#33 = PLANE ( 'NONE',  #64 ) ;
#34 = CARTESIAN_POINT ( 'NONE',  ( -355.0461917754560091, 201.7615598902029888, 250.5288085907110371 ) ) ;
#35 = CARTESIAN_POINT ( 'NONE',  ( 0.000000000000000000, 0.000000000000000000, 0.000000000000000000 ) ) ;
#36 = ADVANCED_FACE ( 'NONE', ( #198 ), #32, .F. ) ;
#37 = MANIFOLD_SOLID_BREP ( 'NONE', #117 ) ;
#38 =( NAMED_UNIT ( * ) SI_UNIT ( $, .STERADIAN. ) SOLID_ANGLE_UNIT ( ) );
#39 = ORIENTED_EDGE ( 'NONE', *, *, #156, .T. ) ;
#40 = CARTESIAN_POINT ( 'NONE',  ( 246.9538082245439909, 201.7615598902029888, 250.5288085907110371 ) ) ;
#41 = UNCERTAINTY_MEASURE_WITH_UNIT (LENGTH_MEASURE( 1.000000000000000082E-05 ), #152, 'distance_accuracy_value', 'NONE');
#42 =( NAMED_UNIT ( * ) SI_UNIT ( $, .STERADIAN. ) SOLID_ANGLE_UNIT ( ) );
#43 = VECTOR ( 'NONE', #243, 1000.000000000000000 ) ;
#44 = SURFACE_STYLE_USAGE ( .BOTH. , #180 ) ;
#45 = COLOUR_RGB ( '',0.7921568627450980005, 0.8196078431372548767, 0.9333333333333333481 ) ;
#46 = FACE_OUTER_BOUND ( 'NONE', #226, .T. ) ;
#47 = PRESENTATION_STYLE_ASSIGNMENT (( #20 ) ) ;
#48 = ORIENTED_EDGE ( 'NONE', *, *, #286, .T. ) ;
#49 = DIRECTION ( 'NONE',  ( 0.000000000000000000, -1.000000000000000000, 0.000000000000000000 ) ) ;
#50 = CARTESIAN_POINT ( 'NONE',  ( 246.9538082245439909, 161.7615598902029888, 250.5288085907110371 ) ) ;
#51 = LINE ( 'NONE', #191, #71 ) ;
#52 = VECTOR ( 'NONE', #25, 1000.000000000000000 ) ;
#53 = FACE_OUTER_BOUND ( 'NONE', #172, .T. ) ;
#54 = APPLICATION_PROTOCOL_DEFINITION ( 'draft international standard', 'automotive_design', 1998, #79 ) ;
#55 = VERTEX_POINT ( 'NONE', #50 ) ;
#56 = ORIENTED_EDGE ( 'NONE', *, *, #153, .F. ) ;
#57 = COLOUR_RGB ( '',0.7921568627450980005, 0.8196078431372548767, 0.9333333333333333481 ) ;
#58 = SURFACE_STYLE_USAGE ( .BOTH. , #209 ) ;
#59 = CARTESIAN_POINT ( 'NONE',  ( -355.0461917754560091, 161.7615598902029888, 250.5288085907110371 ) ) ;
#60 = DIRECTION ( 'NONE',  ( 0.000000000000000000, 0.000000000000000000, 1.000000000000000000 ) ) ;
#61 = MECHANICAL_DESIGN_GEOMETRIC_PRESENTATION_REPRESENTATION (  '', ( #3 ), #231 ) ;
#62 = COLOUR_RGB ( '',0.7921568627450980005, 0.8196078431372548767, 0.9333333333333333481 ) ;
#63 = PRESENTATION_LAYER_ASSIGNMENT (  '', '', ( #292 ) ) ;
#64 = AXIS2_PLACEMENT_3D ( 'NONE', #219, #170, #241 ) ;
#65 = SHAPE_DEFINITION_REPRESENTATION ( #159, #194 ) ;
#66 = DIRECTION ( 'NONE',  ( 0.000000000000000000, 0.000000000000000000, 1.000000000000000000 ) ) ;
#67 =( NAMED_UNIT ( * ) PLANE_ANGLE_UNIT ( ) SI_UNIT ( $, .RADIAN. ) );
#68 = ORIENTED_EDGE ( 'NONE', *, *, #101, .F. ) ;
#69 = SURFACE_STYLE_USAGE ( .BOTH. , #163 ) ;
#70 = AXIS2_PLACEMENT_3D ( 'NONE', #5, #102, #49 ) ;
#71 = VECTOR ( 'NONE', #280, 1000.000000000000000 ) ;
#72 = PRESENTATION_STYLE_ASSIGNMENT (( #276 ) ) ;
#73 = ORIENTED_EDGE ( 'NONE', *, *, #290, .F. ) ;
#74 = SURFACE_SIDE_STYLE ('',( #78 ) ) ;
#75 = COLOUR_RGB ( '',0.7921568627450980005, 0.8196078431372548767, 0.9333333333333333481 ) ;
#76 =( GEOMETRIC_REPRESENTATION_CONTEXT ( 3 ) GLOBAL_UNCERTAINTY_ASSIGNED_CONTEXT ( ( #135 ) ) GLOBAL_UNIT_ASSIGNED_CONTEXT ( ( #83, #113, #38 ) ) REPRESENTATION_CONTEXT ( 'NONE', 'WORKASPACE' ) );
#77 = ORIENTED_EDGE ( 'NONE', *, *, #95, .T. ) ;
#78 = SURFACE_STYLE_FILL_AREA ( #196 ) ;
#79 = APPLICATION_CONTEXT ( 'automotive_design' ) ;
#80 =( NAMED_UNIT ( * ) SI_UNIT ( $, .STERADIAN. ) SOLID_ANGLE_UNIT ( ) );
#81 = FILL_AREA_STYLE ('',( #237 ) ) ;
#82 = PRESENTATION_STYLE_ASSIGNMENT (( #44 ) ) ;
#83 =( LENGTH_UNIT ( ) NAMED_UNIT ( * ) SI_UNIT ( .MILLI., .METRE. ) );
#84 = CARTESIAN_POINT ( 'NONE',  ( -355.0461917754560091, 201.7615598902029888, -209.4711914092890197 ) ) ;
#85 = EDGE_CURVE ( 'NONE', #29, #187, #279, .T. ) ;
#86 =( GEOMETRIC_REPRESENTATION_CONTEXT ( 3 ) GLOBAL_UNCERTAINTY_ASSIGNED_CONTEXT ( ( #151 ) ) GLOBAL_UNIT_ASSIGNED_CONTEXT ( ( #204, #67, #108 ) ) REPRESENTATION_CONTEXT ( 'NONE', 'WORKASPACE' ) );
#87 = STYLED_ITEM ( 'NONE', ( #173 ), #194 ) ;
#88 = SURFACE_STYLE_FILL_AREA ( #138 ) ;
#89 = LINE ( 'NONE', #221, #31 ) ;
#90 = STYLED_ITEM ( 'NONE', ( #82 ), #91 ) ;
#91 = ADVANCED_FACE ( 'NONE', ( #53 ), #103, .F. ) ;
#92 = SURFACE_SIDE_STYLE ('',( #205 ) ) ;
#93 = FILL_AREA_STYLE ('',( #119 ) ) ;
#94 = FILL_AREA_STYLE ('',( #278 ) ) ;
#95 = EDGE_CURVE ( 'NONE', #169, #23, #89, .T. ) ;
#96 = ORIENTED_EDGE ( 'NONE', *, *, #251, .F. ) ;
#97 =( GEOMETRIC_REPRESENTATION_CONTEXT ( 3 ) GLOBAL_UNCERTAINTY_ASSIGNED_CONTEXT ( ( #265 ) ) GLOBAL_UNIT_ASSIGNED_CONTEXT ( ( #281, #235, #213 ) ) REPRESENTATION_CONTEXT ( 'NONE', 'WORKASPACE' ) );
#98 = MECHANICAL_DESIGN_GEOMETRIC_PRESENTATION_REPRESENTATION (  '', ( #268 ), #240 ) ;
#99 = CARTESIAN_POINT ( 'NONE',  ( -355.0461917754560091, 201.7615598902029888, -209.4711914092890197 ) ) ;
#100 = FILL_AREA_STYLE_COLOUR ( '', #57 ) ;
#101 = EDGE_CURVE ( 'NONE', #55, #29, #288, .T. ) ;
#102 = DIRECTION ( 'NONE',  ( 0.000000000000000000, 0.000000000000000000, -1.000000000000000000 ) ) ;
#103 = PLANE ( 'NONE',  #105 ) ;
#104 = PRODUCT_CONTEXT ( 'NONE', #79, 'mechanical' ) ;
#105 = AXIS2_PLACEMENT_3D ( 'NONE', #157, #66, #18 ) ;
#106 = ORIENTED_EDGE ( 'NONE', *, *, #85, .T. ) ;
#107 = PRESENTATION_STYLE_ASSIGNMENT (( #15 ) ) ;
#108 =( NAMED_UNIT ( * ) SI_UNIT ( $, .STERADIAN. ) SOLID_ANGLE_UNIT ( ) );
#109 = MECHANICAL_DESIGN_GEOMETRIC_PRESENTATION_REPRESENTATION (  '', ( #292 ), #97 ) ;
#110 = VECTOR ( 'NONE', #177, 1000.000000000000000 ) ;
#111 = CARTESIAN_POINT ( 'NONE',  ( 246.9538082245439909, 201.7615598902029888, 250.5288085907110371 ) ) ;
#112 = UNCERTAINTY_MEASURE_WITH_UNIT (LENGTH_MEASURE( 1.000000000000000082E-05 ), #233, 'distance_accuracy_value', 'NONE');
#113 =( NAMED_UNIT ( * ) PLANE_ANGLE_UNIT ( ) SI_UNIT ( $, .RADIAN. ) );
#114 = COLOUR_RGB ( '',0.7921568627450980005, 0.8196078431372548767, 0.9333333333333333481 ) ;
#115 = CARTESIAN_POINT ( 'NONE',  ( 246.9538082245439909, 161.7615598902029888, 250.5288085907110371 ) ) ;
#116 = LINE ( 'NONE', #224, #155 ) ;
#117 = CLOSED_SHELL ( 'NONE', ( #36, #91, #274, #234, #242, #215 ) ) ;
#118 = PRODUCT_DEFINITION_FORMATION_WITH_SPECIFIED_SOURCE ( 'ANY', '', #182, .NOT_KNOWN. ) ;
#119 = FILL_AREA_STYLE_COLOUR ( '', #133 ) ;
#120 = VERTEX_POINT ( 'NONE', #272 ) ;
#121 =( NAMED_UNIT ( * ) PLANE_ANGLE_UNIT ( ) SI_UNIT ( $, .RADIAN. ) );
#122 = ORIENTED_EDGE ( 'NONE', *, *, #156, .F. ) ;
#123 =( GEOMETRIC_REPRESENTATION_CONTEXT ( 3 ) GLOBAL_UNCERTAINTY_ASSIGNED_CONTEXT ( ( #112 ) ) GLOBAL_UNIT_ASSIGNED_CONTEXT ( ( #233, #208, #165 ) ) REPRESENTATION_CONTEXT ( 'NONE', 'WORKASPACE' ) );
#124 = CARTESIAN_POINT ( 'NONE',  ( 246.9538082245439909, 201.7615598902029888, 250.5288085907110371 ) ) ;
#125 = CARTESIAN_POINT ( 'NONE',  ( -54.04619177545599484, 161.7615598902029888, 20.52880859071100161 ) ) ;
#126 = CARTESIAN_POINT ( 'NONE',  ( 246.9538082245439909, 161.7615598902029888, -209.4711914092890197 ) ) ;
#127 =( GEOMETRIC_REPRESENTATION_CONTEXT ( 3 ) GLOBAL_UNCERTAINTY_ASSIGNED_CONTEXT ( ( #246 ) ) GLOBAL_UNIT_ASSIGNED_CONTEXT ( ( #130, #287, #42 ) ) REPRESENTATION_CONTEXT ( 'NONE', 'WORKASPACE' ) );
#128 = PRESENTATION_LAYER_ASSIGNMENT (  '', '', ( #87 ) ) ;
#129 =( NAMED_UNIT ( * ) PLANE_ANGLE_UNIT ( ) SI_UNIT ( $, .RADIAN. ) );
#130 =( LENGTH_UNIT ( ) NAMED_UNIT ( * ) SI_UNIT ( .MILLI., .METRE. ) );
#131 = DIRECTION ( 'NONE',  ( 0.000000000000000000, 0.000000000000000000, -1.000000000000000000 ) ) ;
#132 = VECTOR ( 'NONE', #131, 1000.000000000000000 ) ;
#133 = COLOUR_RGB ( '',0.7921568627450980005, 0.8196078431372548767, 0.9333333333333333481 ) ;
#134 = EDGE_CURVE ( 'NONE', #120, #55, #225, .T. ) ;
#135 = UNCERTAINTY_MEASURE_WITH_UNIT (LENGTH_MEASURE( 1.000000000000000082E-05 ), #83, 'distance_accuracy_value', 'NONE');
#136 = DIRECTION ( 'NONE',  ( 1.000000000000000000, 0.000000000000000000, 0.000000000000000000 ) ) ;
#137 =( GEOMETRIC_REPRESENTATION_CONTEXT ( 3 ) GLOBAL_UNCERTAINTY_ASSIGNED_CONTEXT ( ( #176 ) ) GLOBAL_UNIT_ASSIGNED_CONTEXT ( ( #269, #175, #201 ) ) REPRESENTATION_CONTEXT ( 'NONE', 'WORKASPACE' ) );
#138 = FILL_AREA_STYLE ('',( #150 ) ) ;
#139 = ORIENTED_EDGE ( 'NONE', *, *, #134, .F. ) ;
#140 = ORIENTED_EDGE ( 'NONE', *, *, #183, .T. ) ;
#141 = VECTOR ( 'NONE', #250, 1000.000000000000000 ) ;
#142 =( LENGTH_UNIT ( ) NAMED_UNIT ( * ) SI_UNIT ( .MILLI., .METRE. ) );
#143 = DIRECTION ( 'NONE',  ( 0.000000000000000000, -1.000000000000000000, 0.000000000000000000 ) ) ;
#144 = PRESENTATION_STYLE_ASSIGNMENT (( #69 ) ) ;
#145 = EDGE_LOOP ( 'NONE', ( #147, #73, #56, #185 ) ) ;
#146 = VERTEX_POINT ( 'NONE', #174 ) ;
#147 = ORIENTED_EDGE ( 'NONE', *, *, #134, .T. ) ;
#148 = MECHANICAL_DESIGN_GEOMETRIC_PRESENTATION_REPRESENTATION (  '', ( #7 ), #123 ) ;
#149 =( NAMED_UNIT ( * ) PLANE_ANGLE_UNIT ( ) SI_UNIT ( $, .RADIAN. ) );
#150 = FILL_AREA_STYLE_COLOUR ( '', #228 ) ;
#151 = UNCERTAINTY_MEASURE_WITH_UNIT (LENGTH_MEASURE( 1.000000000000000082E-05 ), #204, 'distance_accuracy_value', 'NONE');
#152 =( LENGTH_UNIT ( ) NAMED_UNIT ( * ) SI_UNIT ( .MILLI., .METRE. ) );
#153 = EDGE_CURVE ( 'NONE', #23, #164, #264, .T. ) ;
#154 = FILL_AREA_STYLE_COLOUR ( '', #75 ) ;
#155 = VECTOR ( 'NONE', #179, 1000.000000000000000 ) ;
#156 = EDGE_CURVE ( 'NONE', #187, #120, #116, .T. ) ;
#157 = CARTESIAN_POINT ( 'NONE',  ( -355.0461917754560091, 201.7615598902029888, -209.4711914092890197 ) ) ;
#158 = LINE ( 'NONE', #206, #178 ) ;
#159 = PRODUCT_DEFINITION_SHAPE ( 'NONE', 'NONE',  #22 ) ;
#160 = ORIENTED_EDGE ( 'NONE', *, *, #202, .T. ) ;
#161 = FILL_AREA_STYLE_COLOUR ( '', #45 ) ;
#162 = EDGE_LOOP ( 'NONE', ( #8, #256, #258, #11 ) ) ;
#163 = SURFACE_SIDE_STYLE ('',( #10 ) ) ;
#164 = VERTEX_POINT ( 'NONE', #111 ) ;
#165 =( NAMED_UNIT ( * ) SI_UNIT ( $, .STERADIAN. ) SOLID_ANGLE_UNIT ( ) );
#166 = CARTESIAN_POINT ( 'NONE',  ( -355.0461917754560091, 161.7615598902029888, -209.4711914092890197 ) ) ;
#167 = VECTOR ( 'NONE', #136, 1000.000000000000000 ) ;
#168 = SURFACE_SIDE_STYLE ('',( #188 ) ) ;
#169 = VERTEX_POINT ( 'NONE', #84 ) ;
#170 = DIRECTION ( 'NONE',  ( 1.000000000000000000, 0.000000000000000000, 0.000000000000000000 ) ) ;
#171 = FILL_AREA_STYLE_COLOUR ( '', #283 ) ;
#172 = EDGE_LOOP ( 'NONE', ( #106, #96, #27, #160 ) ) ;
#173 = PRESENTATION_STYLE_ASSIGNMENT (( #197 ) ) ;
#174 = CARTESIAN_POINT ( 'NONE',  ( 246.9538082245439909, 201.7615598902029888, -209.4711914092890197 ) ) ;
#175 =( NAMED_UNIT ( * ) PLANE_ANGLE_UNIT ( ) SI_UNIT ( $, .RADIAN. ) );
#176 = UNCERTAINTY_MEASURE_WITH_UNIT (LENGTH_MEASURE( 1.000000000000000082E-05 ), #269, 'distance_accuracy_value', 'NONE');
#177 = DIRECTION ( 'NONE',  ( 0.000000000000000000, -1.000000000000000000, 0.000000000000000000 ) ) ;
#178 = VECTOR ( 'NONE', #266, 1000.000000000000000 ) ;
#179 = DIRECTION ( 'NONE',  ( 0.000000000000000000, 0.000000000000000000, 1.000000000000000000 ) ) ;
#180 = SURFACE_SIDE_STYLE ('',( #88 ) ) ;
#181 = PRESENTATION_LAYER_ASSIGNMENT (  '', '', ( #268 ) ) ;
#182 = PRODUCT ( 'UN060T', 'UN060T', '', ( #104 ) ) ;
#183 = EDGE_CURVE ( 'NONE', #146, #169, #158, .T. ) ;
#184 = PLANE ( 'NONE',  #254 ) ;
#185 = ORIENTED_EDGE ( 'NONE', *, *, #267, .T. ) ;
#186 = SURFACE_STYLE_FILL_AREA ( #93 ) ;
#187 = VERTEX_POINT ( 'NONE', #252 ) ;
#188 = SURFACE_STYLE_FILL_AREA ( #94 ) ;
#189 = EDGE_LOOP ( 'NONE', ( #39, #273, #275, #210 ) ) ;
#190 = DIRECTION ( 'NONE',  ( 0.000000000000000000, -1.000000000000000000, 0.000000000000000000 ) ) ;
#191 = CARTESIAN_POINT ( 'NONE',  ( -355.0461917754560091, 201.7615598902029888, 250.5288085907110371 ) ) ;
#192 =( LENGTH_UNIT ( ) NAMED_UNIT ( * ) SI_UNIT ( .MILLI., .METRE. ) );
#193 = MECHANICAL_DESIGN_GEOMETRIC_PRESENTATION_REPRESENTATION (  '', ( #24 ), #86 ) ;
#194 = ADVANCED_BREP_SHAPE_REPRESENTATION ( 'UN060T', ( #37, #4 ), #76 ) ;
#195 = LINE ( 'NONE', #40, #110 ) ;
#196 = FILL_AREA_STYLE ('',( #100 ) ) ;
#197 = SURFACE_STYLE_USAGE ( .BOTH. , #17 ) ;
#198 = FACE_OUTER_BOUND ( 'NONE', #162, .T. ) ;
#199 =( GEOMETRIC_REPRESENTATION_CONTEXT ( 3 ) GLOBAL_UNCERTAINTY_ASSIGNED_CONTEXT ( ( #222 ) ) GLOBAL_UNIT_ASSIGNED_CONTEXT ( ( #142, #121, #253 ) ) REPRESENTATION_CONTEXT ( 'NONE', 'WORKASPACE' ) );
#200 =( NAMED_UNIT ( * ) SI_UNIT ( $, .STERADIAN. ) SOLID_ANGLE_UNIT ( ) );
#201 =( NAMED_UNIT ( * ) SI_UNIT ( $, .STERADIAN. ) SOLID_ANGLE_UNIT ( ) );
#202 = EDGE_CURVE ( 'NONE', #146, #29, #21, .T. ) ;
#203 = MECHANICAL_DESIGN_GEOMETRIC_PRESENTATION_REPRESENTATION (  '', ( #262 ), #199 ) ;
#204 =( LENGTH_UNIT ( ) NAMED_UNIT ( * ) SI_UNIT ( .MILLI., .METRE. ) );
#205 = SURFACE_STYLE_FILL_AREA ( #245 ) ;
#206 = CARTESIAN_POINT ( 'NONE',  ( -355.0461917754560091, 201.7615598902029888, -209.4711914092890197 ) ) ;
#207 = MECHANICAL_DESIGN_GEOMETRIC_PRESENTATION_REPRESENTATION (  '', ( #90 ), #137 ) ;
#208 =( NAMED_UNIT ( * ) PLANE_ANGLE_UNIT ( ) SI_UNIT ( $, .RADIAN. ) );
#209 = SURFACE_SIDE_STYLE ('',( #186 ) ) ;
#210 = ORIENTED_EDGE ( 'NONE', *, *, #251, .T. ) ;
#211 = CARTESIAN_POINT ( 'NONE',  ( -54.04619177545599484, 201.7615598902029888, 20.52880859071100161 ) ) ;
#212 = DIRECTION ( 'NONE',  ( 0.000000000000000000, 0.000000000000000000, -1.000000000000000000 ) ) ;
#213 =( NAMED_UNIT ( * ) SI_UNIT ( $, .STERADIAN. ) SOLID_ANGLE_UNIT ( ) );
#214 = FACE_OUTER_BOUND ( 'NONE', #189, .T. ) ;
#215 = ADVANCED_FACE ( 'NONE', ( #46 ), #184, .T. ) ;
#216 = DIRECTION ( 'NONE',  ( 0.000000000000000000, 0.000000000000000000, 1.000000000000000000 ) ) ;
#217 = DIRECTION ( 'NONE',  ( -1.000000000000000000, 0.000000000000000000, 0.000000000000000000 ) ) ;
#218 = VECTOR ( 'NONE', #259, 1000.000000000000000 ) ;
#219 = CARTESIAN_POINT ( 'NONE',  ( -355.0461917754560091, 201.7615598902029888, 250.5288085907110371 ) ) ;
#220 = SURFACE_STYLE_FILL_AREA ( #285 ) ;
#221 = CARTESIAN_POINT ( 'NONE',  ( -355.0461917754560091, 201.7615598902029888, 250.5288085907110371 ) ) ;
#222 = UNCERTAINTY_MEASURE_WITH_UNIT (LENGTH_MEASURE( 1.000000000000000082E-05 ), #142, 'distance_accuracy_value', 'NONE');
#223 = VECTOR ( 'NONE', #257, 1000.000000000000000 ) ;
#224 = CARTESIAN_POINT ( 'NONE',  ( -355.0461917754560091, 161.7615598902029888, 250.5288085907110371 ) ) ;
#225 = LINE ( 'NONE', #59, #167 ) ;
#226 = EDGE_LOOP ( 'NONE', ( #68, #139, #122, #2 ) ) ;
#227 = LINE ( 'NONE', #99, #52 ) ;
#228 = COLOUR_RGB ( '',0.7921568627450980005, 0.8196078431372548767, 0.9333333333333333481 ) ;
#229 = ORIENTED_EDGE ( 'NONE', *, *, #153, .T. ) ;
#230 = PLANE ( 'NONE',  #70 ) ;
#231 =( GEOMETRIC_REPRESENTATION_CONTEXT ( 3 ) GLOBAL_UNCERTAINTY_ASSIGNED_CONTEXT ( ( #289 ) ) GLOBAL_UNIT_ASSIGNED_CONTEXT ( ( #192, #129, #80 ) ) REPRESENTATION_CONTEXT ( 'NONE', 'WORKASPACE' ) );
#232 = SURFACE_SIDE_STYLE ('',( #220 ) ) ;
#233 =( LENGTH_UNIT ( ) NAMED_UNIT ( * ) SI_UNIT ( .MILLI., .METRE. ) );
#234 = ADVANCED_FACE ( 'NONE', ( #28 ), #230, .F. ) ;
#235 =( NAMED_UNIT ( * ) PLANE_ANGLE_UNIT ( ) SI_UNIT ( $, .RADIAN. ) );
#236 = PRESENTATION_STYLE_ASSIGNMENT (( #238 ) ) ;
#237 = FILL_AREA_STYLE_COLOUR ( '', #62 ) ;
#238 = SURFACE_STYLE_USAGE ( .BOTH. , #74 ) ;
#239 = PRESENTATION_LAYER_ASSIGNMENT (  '', '', ( #262 ) ) ;
#240 =( GEOMETRIC_REPRESENTATION_CONTEXT ( 3 ) GLOBAL_UNCERTAINTY_ASSIGNED_CONTEXT ( ( #41 ) ) GLOBAL_UNIT_ASSIGNED_CONTEXT ( ( #152, #149, #200 ) ) REPRESENTATION_CONTEXT ( 'NONE', 'WORKASPACE' ) );
#241 = DIRECTION ( 'NONE',  ( 0.000000000000000000, 1.000000000000000000, 0.000000000000000000 ) ) ;
#242 = ADVANCED_FACE ( 'NONE', ( #30 ), #282, .F. ) ;
#243 = DIRECTION ( 'NONE',  ( 1.000000000000000000, 0.000000000000000000, 0.000000000000000000 ) ) ;
#244 = CARTESIAN_POINT ( 'NONE',  ( 246.9538082245439909, 201.7615598902029888, 250.5288085907110371 ) ) ;
#245 = FILL_AREA_STYLE ('',( #154 ) ) ;
#246 = UNCERTAINTY_MEASURE_WITH_UNIT (LENGTH_MEASURE( 1.000000000000000082E-05 ), #130, 'distance_accuracy_value', 'NONE');
#247 = AXIS2_PLACEMENT_3D ( 'NONE', #211, #190, #212 ) ;
#248 = APPLICATION_PROTOCOL_DEFINITION ( 'draft international standard', 'automotive_design', 1998, #263 ) ;
#249 = PRESENTATION_LAYER_ASSIGNMENT (  '', '', ( #90 ) ) ;
#250 = DIRECTION ( 'NONE',  ( 0.000000000000000000, -1.000000000000000000, 0.000000000000000000 ) ) ;
#251 = EDGE_CURVE ( 'NONE', #169, #187, #227, .T. ) ;
#252 = CARTESIAN_POINT ( 'NONE',  ( -355.0461917754560091, 161.7615598902029888, -209.4711914092890197 ) ) ;
#253 =( NAMED_UNIT ( * ) SI_UNIT ( $, .STERADIAN. ) SOLID_ANGLE_UNIT ( ) );
#254 = AXIS2_PLACEMENT_3D ( 'NONE', #125, #143, #9 ) ;
#255 = AXIS2_PLACEMENT_3D ( 'NONE', #124, #217, #14 ) ;
#256 = ORIENTED_EDGE ( 'NONE', *, *, #202, .F. ) ;
#257 = DIRECTION ( 'NONE',  ( -1.000000000000000000, 0.000000000000000000, 0.000000000000000000 ) ) ;
#258 = ORIENTED_EDGE ( 'NONE', *, *, #286, .F. ) ;
#259 = DIRECTION ( 'NONE',  ( 0.000000000000000000, 0.000000000000000000, -1.000000000000000000 ) ) ;
#260 = EDGE_LOOP ( 'NONE', ( #48, #140, #77, #229 ) ) ;
#261 = SURFACE_STYLE_FILL_AREA ( #81 ) ;
#262 = STYLED_ITEM ( 'NONE', ( #144 ), #234 ) ;
#263 = APPLICATION_CONTEXT ( 'automotive_design' ) ;
#264 = LINE ( 'NONE', #271, #43 ) ;
#265 = UNCERTAINTY_MEASURE_WITH_UNIT (LENGTH_MEASURE( 1.000000000000000082E-05 ), #281, 'distance_accuracy_value', 'NONE');
#266 = DIRECTION ( 'NONE',  ( -1.000000000000000000, 0.000000000000000000, 0.000000000000000000 ) ) ;
#267 = EDGE_CURVE ( 'NONE', #23, #120, #51, .T. ) ;
#268 = STYLED_ITEM ( 'NONE', ( #284 ), #274 ) ;
#269 =( LENGTH_UNIT ( ) NAMED_UNIT ( * ) SI_UNIT ( .MILLI., .METRE. ) );
#270 = PRESENTATION_LAYER_ASSIGNMENT (  '', '', ( #3 ) ) ;
#271 = CARTESIAN_POINT ( 'NONE',  ( -355.0461917754560091, 201.7615598902029888, 250.5288085907110371 ) ) ;
#272 = CARTESIAN_POINT ( 'NONE',  ( -355.0461917754560091, 161.7615598902029888, 250.5288085907110371 ) ) ;
#273 = ORIENTED_EDGE ( 'NONE', *, *, #267, .F. ) ;
#274 = ADVANCED_FACE ( 'NONE', ( #214 ), #33, .F. ) ;
#275 = ORIENTED_EDGE ( 'NONE', *, *, #95, .F. ) ;
#276 = SURFACE_STYLE_USAGE ( .BOTH. , #168 ) ;
#277 = PRESENTATION_LAYER_ASSIGNMENT (  '', '', ( #7 ) ) ;
#278 = FILL_AREA_STYLE_COLOUR ( '', #114 ) ;
#279 = LINE ( 'NONE', #166, #223 ) ;
#280 = DIRECTION ( 'NONE',  ( 0.000000000000000000, -1.000000000000000000, 0.000000000000000000 ) ) ;
#281 =( LENGTH_UNIT ( ) NAMED_UNIT ( * ) SI_UNIT ( .MILLI., .METRE. ) );
#282 = PLANE ( 'NONE',  #247 ) ;
#283 = COLOUR_RGB ( '',0.7921568627450980005, 0.8196078431372548767, 0.9333333333333333481 ) ;
#284 = PRESENTATION_STYLE_ASSIGNMENT (( #58 ) ) ;
#285 = FILL_AREA_STYLE ('',( #171 ) ) ;
#286 = EDGE_CURVE ( 'NONE', #164, #146, #291, .T. ) ;
#287 =( NAMED_UNIT ( * ) PLANE_ANGLE_UNIT ( ) SI_UNIT ( $, .RADIAN. ) );
#288 = LINE ( 'NONE', #115, #132 ) ;
#289 = UNCERTAINTY_MEASURE_WITH_UNIT (LENGTH_MEASURE( 1.000000000000000082E-05 ), #192, 'distance_accuracy_value', 'NONE');
#290 = EDGE_CURVE ( 'NONE', #164, #55, #195, .T. ) ;
#291 = LINE ( 'NONE', #244, #218 ) ;
#292 = STYLED_ITEM ( 'NONE', ( #107 ), #37 ) ;
ENDSEC;
END-ISO-10303-21;
