ISO-10303-21;
HEADER;
FILE_DESCRIPTION (( 'STEP AP203' ),
    '1' );
FILE_NAME ('FR060T.C_STEP_v11023.STEP',
    '2023-10-12T13:18:26',
    ( '' ),
    ( '' ),
    'SwSTEP 2.0',
    'SolidWorks 2019',
    '' );
FILE_SCHEMA (( 'CONFIG_CONTROL_DESIGN' ));
ENDSEC;

DATA;
#1 = DIRECTION ( 'NONE',  ( 0.000000000000000000, -1.000000000000000000, 0.000000000000000000 ) ) ;
#2 = CARTESIAN_POINT ( 'NONE',  ( 310.0000000000000000, 12.00000000000000000, 225.0000000000001137 ) ) ;
#3 = MANIFOLD_SOLID_BREP ( 'Fillet1', #299 ) ;
#4 = DIRECTION ( 'NONE',  ( -0.000000000000000000, 1.000000000000000000, -0.000000000000000000 ) ) ;
#5 = ORIENTED_EDGE ( 'NONE', *, *, #106, .F. ) ;
#6 = CIRCLE ( 'NONE', #53, 30.00000000000000000 ) ;
#7 =( NAMED_UNIT ( * ) SI_UNIT ( $, .STERADIAN. ) SOLID_ANGLE_UNIT ( ) );
#8 = PLANE ( 'NONE',  #279 ) ;
#9 = PERSON_AND_ORGANIZATION ( #267, #240 ) ;
#10 = ORIENTED_EDGE ( 'NONE', *, *, #277, .F. ) ;
#11 = CC_DESIGN_PERSON_AND_ORGANIZATION_ASSIGNMENT ( #248, #270, ( #123 ) ) ;
#12 = DIRECTION ( 'NONE',  ( 0.000000000000000000, 0.000000000000000000, -1.000000000000000000 ) ) ;
#13 = APPROVAL_STATUS ( 'not_yet_approved' ) ;
#14 = ORIENTED_EDGE ( 'NONE', *, *, #143, .T. ) ;
#15 = EDGE_CURVE ( 'NONE', #212, #231, #171, .T. ) ;
#16 = ORIENTED_EDGE ( 'NONE', *, *, #128, .F. ) ;
#17 = VERTEX_POINT ( 'NONE', #243 ) ;
#18 = PERSON_AND_ORGANIZATION ( #267, #240 ) ;
#19 = CARTESIAN_POINT ( 'NONE',  ( -310.0000000000000000, 12.00000000000000000, 225.0000000000001137 ) ) ;
#20 = LINE ( 'NONE', #121, #197 ) ;
#21 = AXIS2_PLACEMENT_3D ( 'NONE', #305, #22, #71 ) ;
#22 = DIRECTION ( 'NONE',  ( 0.000000000000000000, -1.000000000000000000, 0.000000000000000000 ) ) ;
#23 = APPLICATION_CONTEXT ( 'configuration controlled 3d designs of mechanical parts and assemblies' ) ;
#24 = PRODUCT_RELATED_PRODUCT_CATEGORY ( 'detail', '', ( #123 ) ) ;
#25 = EDGE_CURVE ( 'NONE', #69, #130, #57, .T. ) ;
#26 = DIRECTION ( 'NONE',  ( 0.000000000000000000, 0.000000000000000000, -1.000000000000000000 ) ) ;
#27 = APPROVAL ( #34, 'UNSPECIFIED' ) ;
#28 = PLANE ( 'NONE',  #170 ) ;
#29 = CARTESIAN_POINT ( 'NONE',  ( -310.0000000000000000, 12.00000000000000000, 255.0000000000001137 ) ) ;
#30 = CARTESIAN_POINT ( 'NONE',  ( 0.000000000000000000, 12.00000000000000000, 0.000000000000000000 ) ) ;
#31 = PLANE ( 'NONE',  #238 ) ;
#32 = CARTESIAN_POINT ( 'NONE',  ( 310.0000000000000000, 0.000000000000000000, -254.9999999999998863 ) ) ;
#33 = ORIENTED_EDGE ( 'NONE', *, *, #159, .F. ) ;
#34 = APPROVAL_STATUS ( 'not_yet_approved' ) ;
#35 = PERSON_AND_ORGANIZATION ( #267, #240 ) ;
#36 = APPROVAL_PERSON_ORGANIZATION ( #61, #237, #83 ) ;
#37 = APPLICATION_PROTOCOL_DEFINITION ( 'international standard', 'config_control_design', 1994, #148 ) ;
#38 = EDGE_LOOP ( 'NONE', ( #223, #256, #112, #271, #293, #179 ) ) ;
#39 = EDGE_CURVE ( 'NONE', #130, #297, #52, .T. ) ;
#40 = CC_DESIGN_APPROVAL ( #195, ( #109 ) ) ;
#41 = DIRECTION ( 'NONE',  ( 0.000000000000000000, 0.000000000000000000, 1.000000000000000000 ) ) ;
#42 = MECHANICAL_CONTEXT ( 'NONE', #23, 'mechanical' ) ;
#43 = VERTEX_POINT ( 'NONE', #219 ) ;
#44 = ADVANCED_FACE ( 'NONE', ( #306 ), #75, .F. ) ;
#45 = CALENDAR_DATE ( 2023, 12, 10 ) ;
#46 = VERTEX_POINT ( 'NONE', #245 ) ;
#47 = DATE_AND_TIME ( #111, #193 ) ;
#48 = CARTESIAN_POINT ( 'NONE',  ( -310.0000000000000000, 0.000000000000000000, -254.9999999999998863 ) ) ;
#49 = LINE ( 'NONE', #95, #280 ) ;
#50 = ADVANCED_FACE ( 'NONE', ( #56 ), #28, .F. ) ;
#51 = VECTOR ( 'NONE', #85, 1000.000000000000000 ) ;
#52 = LINE ( 'NONE', #78, #118 ) ;
#53 = AXIS2_PLACEMENT_3D ( 'NONE', #196, #4, #102 ) ;
#54 = FACE_OUTER_BOUND ( 'NONE', #38, .T. ) ;
#55 = APPROVAL_PERSON_ORGANIZATION ( #35, #27, #134 ) ;
#56 = FACE_OUTER_BOUND ( 'NONE', #188, .T. ) ;
#57 = LINE ( 'NONE', #98, #76 ) ;
#58 = ORIENTED_EDGE ( 'NONE', *, *, #25, .T. ) ;
#59 = ORIENTED_EDGE ( 'NONE', *, *, #187, .F. ) ;
#60 = CALENDAR_DATE ( 2023, 12, 10 ) ;
#61 = PERSON_AND_ORGANIZATION ( #267, #240 ) ;
#62 = DIRECTION ( 'NONE',  ( -0.000000000000000000, 1.000000000000000000, -0.000000000000000000 ) ) ;
#63 = EDGE_CURVE ( 'NONE', #17, #46, #127, .T. ) ;
#64 = CARTESIAN_POINT ( 'NONE',  ( -310.0000000000000000, 0.000000000000000000, 255.0000000000001137 ) ) ;
#65 = CALENDAR_DATE ( 2023, 12, 10 ) ;
#66 = VERTEX_POINT ( 'NONE', #198 ) ;
#67 = ORIENTED_EDGE ( 'NONE', *, *, #217, .F. ) ;
#68 = VECTOR ( 'NONE', #157, 1000.000000000000000 ) ;
#69 = VERTEX_POINT ( 'NONE', #32 ) ;
#70 = VECTOR ( 'NONE', #93, 1000.000000000000000 ) ;
#71 = DIRECTION ( 'NONE',  ( 0.000000000000000000, 0.000000000000000000, -1.000000000000000000 ) ) ;
#72 = EDGE_CURVE ( 'NONE', #46, #69, #129, .T. ) ;
#73 = PRODUCT_DEFINITION_SHAPE ( 'NONE', 'NONE',  #281 ) ;
#74 = ADVANCED_FACE ( 'NONE', ( #205 ), #8, .F. ) ;
#75 = PLANE ( 'NONE',  #285 ) ;
#76 = VECTOR ( 'NONE', #174, 1000.000000000000000 ) ;
#77 = CC_DESIGN_APPROVAL ( #237, ( #281 ) ) ;
#78 = CARTESIAN_POINT ( 'NONE',  ( -310.0000000000000000, 0.000000000000000000, 255.0000000000001137 ) ) ;
#79 = CARTESIAN_POINT ( 'NONE',  ( 280.0000000000000568, 12.00000000000000000, 255.0000000000001137 ) ) ;
#80 = CC_DESIGN_SECURITY_CLASSIFICATION ( #109, ( #272 ) ) ;
#81 = DIRECTION ( 'NONE',  ( 0.000000000000000000, 0.000000000000000000, 1.000000000000000000 ) ) ;
#82 = VERTEX_POINT ( 'NONE', #166 ) ;
#83 = APPROVAL_ROLE ( '' ) ;
#84 = APPROVAL_DATE_TIME ( #287, #27 ) ;
#85 = DIRECTION ( 'NONE',  ( -0.000000000000000000, 1.000000000000000000, -0.000000000000000000 ) ) ;
#86 = PERSON_AND_ORGANIZATION_ROLE ( 'creator' ) ;
#87 = ORIENTED_EDGE ( 'NONE', *, *, #227, .T. ) ;
#88 = ORIENTED_EDGE ( 'NONE', *, *, #184, .F. ) ;
#89 = APPROVAL_DATE_TIME ( #141, #195 ) ;
#90 = EDGE_LOOP ( 'NONE', ( #273, #87, #16, #158, #185, #246 ) ) ;
#91 = AXIS2_PLACEMENT_3D ( 'NONE', #140, #230, #12 ) ;
#92 = AXIS2_PLACEMENT_3D ( 'NONE', #278, #146, #235 ) ;
#93 = DIRECTION ( 'NONE',  ( -0.000000000000000000, -1.000000000000000000, -0.000000000000000000 ) ) ;
#94 = EDGE_CURVE ( 'NONE', #212, #232, #291, .T. ) ;
#95 = CARTESIAN_POINT ( 'NONE',  ( -310.0000000000000000, 12.00000000000000000, -254.9999999999998863 ) ) ;
#96 = EDGE_CURVE ( 'NONE', #43, #212, #239, .T. ) ;
#97 = UNCERTAINTY_MEASURE_WITH_UNIT (LENGTH_MEASURE( 1.000000000000000082E-05 ), #206, 'distance_accuracy_value', 'NONE');
#98 = CARTESIAN_POINT ( 'NONE',  ( -310.0000000000000000, 0.000000000000000000, -254.9999999999998863 ) ) ;
#99 = DIRECTION ( 'NONE',  ( 0.000000000000000000, 0.000000000000000000, -1.000000000000000000 ) ) ;
#100 =( GEOMETRIC_REPRESENTATION_CONTEXT ( 3 ) GLOBAL_UNCERTAINTY_ASSIGNED_CONTEXT ( ( #97 ) ) GLOBAL_UNIT_ASSIGNED_CONTEXT ( ( #206, #292, #7 ) ) REPRESENTATION_CONTEXT ( 'NONE', 'WORKASPACE' ) );
#101 = DIRECTION ( 'NONE',  ( 0.000000000000000000, -1.000000000000000000, 0.000000000000000000 ) ) ;
#102 = DIRECTION ( 'NONE',  ( 0.000000000000000000, 0.000000000000000000, -1.000000000000000000 ) ) ;
#103 = ADVANCED_FACE ( 'NONE', ( #254 ), #183, .T. ) ;
#104 = VERTEX_POINT ( 'NONE', #288 ) ;
#105 = APPROVAL_STATUS ( 'not_yet_approved' ) ;
#106 = EDGE_CURVE ( 'NONE', #82, #231, #250, .T. ) ;
#107 = AXIS2_PLACEMENT_3D ( 'NONE', #203, #251, #167 ) ;
#108 = SECURITY_CLASSIFICATION_LEVEL ( 'unclassified' ) ;
#109 = SECURITY_CLASSIFICATION ( '', '', #108 ) ;
#110 = DIRECTION ( 'NONE',  ( 1.000000000000000000, 0.000000000000000000, -0.000000000000000000 ) ) ;
#111 = CALENDAR_DATE ( 2023, 12, 10 ) ;
#112 = ORIENTED_EDGE ( 'NONE', *, *, #257, .T. ) ;
#113 = DIRECTION ( 'NONE',  ( 0.000000000000000000, 0.000000000000000000, -1.000000000000000000 ) ) ;
#114 = ORIENTED_EDGE ( 'NONE', *, *, #15, .F. ) ;
#115 = ORIENTED_EDGE ( 'NONE', *, *, #106, .T. ) ;
#116 = APPROVAL_ROLE ( '' ) ;
#117 = EDGE_LOOP ( 'NONE', ( #58, #59, #10, #14 ) ) ;
#118 = VECTOR ( 'NONE', #151, 1000.000000000000000 ) ;
#119 = DIRECTION ( 'NONE',  ( 0.000000000000000000, -0.000000000000000000, -1.000000000000000000 ) ) ;
#120 = CC_DESIGN_PERSON_AND_ORGANIZATION_ASSIGNMENT ( #180, #265, ( #272 ) ) ;
#121 = CARTESIAN_POINT ( 'NONE',  ( 310.0000000000000000, 12.00000000000000000, 255.0000000000001137 ) ) ;
#122 = CARTESIAN_POINT ( 'NONE',  ( -310.0000000000000000, 12.00000000000000000, 255.0000000000001137 ) ) ;
#123 = PRODUCT ( 'FR060T.C_STEP_v11023', 'FR060T.C_STEP_v11023', '', ( #42 ) ) ;
#124 = VECTOR ( 'NONE', #266, 1000.000000000000000 ) ;
#125 = VECTOR ( 'NONE', #269, 1000.000000000000000 ) ;
#126 = DIRECTION ( 'NONE',  ( 0.000000000000000000, -0.000000000000000000, -1.000000000000000000 ) ) ;
#127 = LINE ( 'NONE', #2, #135 ) ;
#128 = EDGE_CURVE ( 'NONE', #232, #82, #181, .T. ) ;
#129 = LINE ( 'NONE', #222, #211 ) ;
#130 = VERTEX_POINT ( 'NONE', #48 ) ;
#131 = CARTESIAN_POINT ( 'NONE',  ( 310.0000000000000000, 12.00000000000000000, 255.0000000000001137 ) ) ;
#132 = ADVANCED_FACE ( 'NONE', ( #194 ), #213, .T. ) ;
#133 = PERSON_AND_ORGANIZATION ( #267, #240 ) ;
#134 = APPROVAL_ROLE ( '' ) ;
#135 = VECTOR ( 'NONE', #101, 1000.000000000000000 ) ;
#136 = CARTESIAN_POINT ( 'NONE',  ( -280.0000000000000000, 12.00000000000000000, 225.0000000000001137 ) ) ;
#137 = DATE_TIME_ROLE ( 'creation_date' ) ;
#138 = LOCAL_TIME ( 14, 18, 26.00000000000000000, #296 ) ;
#139 = ORIENTED_EDGE ( 'NONE', *, *, #39, .T. ) ;
#140 = CARTESIAN_POINT ( 'NONE',  ( 280.0000000000000000, 12.00000000000000000, 225.0000000000001137 ) ) ;
#141 = DATE_AND_TIME ( #45, #138 ) ;
#142 = ORIENTED_EDGE ( 'NONE', *, *, #94, .F. ) ;
#143 = EDGE_CURVE ( 'NONE', #104, #69, #234, .T. ) ;
#144 = ORIENTED_EDGE ( 'NONE', *, *, #72, .T. ) ;
#145 = DIRECTION ( 'NONE',  ( 0.000000000000000000, -1.000000000000000000, 0.000000000000000000 ) ) ;
#146 = DIRECTION ( 'NONE',  ( 0.000000000000000000, -1.000000000000000000, 0.000000000000000000 ) ) ;
#147 = CARTESIAN_POINT ( 'NONE',  ( 310.0000000000000000, 12.00000000000000000, -254.9999999999998863 ) ) ;
#148 = APPLICATION_CONTEXT ( 'configuration controlled 3d designs of mechanical parts and assemblies' ) ;
#149 = AXIS2_PLACEMENT_3D ( 'NONE', #136, #62, #113 ) ;
#150 = VECTOR ( 'NONE', #244, 1000.000000000000000 ) ;
#151 = DIRECTION ( 'NONE',  ( -0.000000000000000000, -0.000000000000000000, 1.000000000000000000 ) ) ;
#152 = PLANE ( 'NONE',  #275 ) ;
#153 = CC_DESIGN_PERSON_AND_ORGANIZATION_ASSIGNMENT ( #9, #182, ( #109 ) ) ;
#154 = DIRECTION ( 'NONE',  ( 0.000000000000000000, 0.000000000000000000, -1.000000000000000000 ) ) ;
#155 = LINE ( 'NONE', #283, #150 ) ;
#156 = DIRECTION ( 'NONE',  ( -1.000000000000000000, 0.000000000000000000, 0.000000000000000000 ) ) ;
#157 = DIRECTION ( 'NONE',  ( 1.000000000000000000, 0.000000000000000000, 0.000000000000000000 ) ) ;
#158 = ORIENTED_EDGE ( 'NONE', *, *, #159, .T. ) ;
#159 = EDGE_CURVE ( 'NONE', #232, #297, #191, .T. ) ;
#160 = FACE_OUTER_BOUND ( 'NONE', #177, .T. ) ;
#161 = ORIENTED_EDGE ( 'NONE', *, *, #143, .F. ) ;
#162 = DATE_AND_TIME ( #60, #252 ) ;
#163 = COORDINATED_UNIVERSAL_TIME_OFFSET ( 0, 0, .AHEAD. ) ;
#164 = CARTESIAN_POINT ( 'NONE',  ( -310.0000000000000000, 12.00000000000000000, -254.9999999999998863 ) ) ;
#165 = AXIS2_PLACEMENT_3D ( 'NONE', #221, #1, #99 ) ;
#166 = CARTESIAN_POINT ( 'NONE',  ( 280.0000000000000568, 0.000000000000000000, 255.0000000000001137 ) ) ;
#167 = DIRECTION ( 'NONE',  ( 1.000000000000000000, 0.000000000000000000, 0.000000000000000000 ) ) ;
#168 = EDGE_LOOP ( 'NONE', ( #67, #5, #207, #263 ) ) ;
#169 = EDGE_CURVE ( 'NONE', #66, #43, #236, .T. ) ;
#170 = AXIS2_PLACEMENT_3D ( 'NONE', #282, #220, #154 ) ;
#171 = LINE ( 'NONE', #262, #68 ) ;
#172 = ORIENTED_EDGE ( 'NONE', *, *, #63, .T. ) ;
#173 = DIRECTION ( 'NONE',  ( -1.000000000000000000, -0.000000000000000000, -0.000000000000000000 ) ) ;
#174 = DIRECTION ( 'NONE',  ( -1.000000000000000000, -0.000000000000000000, -0.000000000000000000 ) ) ;
#175 = CC_DESIGN_PERSON_AND_ORGANIZATION_ASSIGNMENT ( #225, #86, ( #272 ) ) ;
#176 = LOCAL_TIME ( 14, 18, 26.00000000000000000, #224 ) ;
#177 = EDGE_LOOP ( 'NONE', ( #255, #172, #144, #161 ) ) ;
#178 = CARTESIAN_POINT ( 'NONE',  ( -280.0000000000000000, 12.00000000000000000, 255.0000000000001137 ) ) ;
#179 = ORIENTED_EDGE ( 'NONE', *, *, #96, .T. ) ;
#180 = PERSON_AND_ORGANIZATION ( #267, #240 ) ;
#181 = LINE ( 'NONE', #64, #125 ) ;
#182 = PERSON_AND_ORGANIZATION_ROLE ( 'classification_officer' ) ;
#183 = CYLINDRICAL_SURFACE ( 'NONE', #91, 30.00000000000000000 ) ;
#184 = EDGE_CURVE ( 'NONE', #297, #43, #189, .T. ) ;
#185 = ORIENTED_EDGE ( 'NONE', *, *, #39, .F. ) ;
#186 = SHAPE_DEFINITION_REPRESENTATION ( #73, #241 ) ;
#187 = EDGE_CURVE ( 'NONE', #66, #130, #155, .T. ) ;
#188 = EDGE_LOOP ( 'NONE', ( #139, #253, #210, #300 ) ) ;
#189 = LINE ( 'NONE', #19, #226 ) ;
#190 = VECTOR ( 'NONE', #301, 1000.000000000000000 ) ;
#191 = CIRCLE ( 'NONE', #21, 30.00000000000000000 ) ;
#192 = FACE_OUTER_BOUND ( 'NONE', #200, .T. ) ;
#193 = LOCAL_TIME ( 14, 18, 26.00000000000000000, #268 ) ;
#194 = FACE_OUTER_BOUND ( 'NONE', #90, .T. ) ;
#195 = APPROVAL ( #13, 'UNSPECIFIED' ) ;
#196 = CARTESIAN_POINT ( 'NONE',  ( 280.0000000000000000, 12.00000000000000000, 225.0000000000001137 ) ) ;
#197 = VECTOR ( 'NONE', #304, 1000.000000000000000 ) ;
#198 = CARTESIAN_POINT ( 'NONE',  ( -310.0000000000000000, 12.00000000000000000, -254.9999999999998863 ) ) ;
#199 = CARTESIAN_POINT ( 'NONE',  ( -310.0000000000000000, 0.000000000000000000, 225.0000000000001137 ) ) ;
#200 = EDGE_LOOP ( 'NONE', ( #274, #88, #33, #142 ) ) ;
#201 = APPLICATION_PROTOCOL_DEFINITION ( 'international standard', 'config_control_design', 1994, #23 ) ;
#202 = AXIS2_PLACEMENT_3D ( 'NONE', #259, #145, #119 ) ;
#203 = CARTESIAN_POINT ( 'NONE',  ( 0.000000000000000000, 0.000000000000000000, 0.000000000000000000 ) ) ;
#204 = CC_DESIGN_DATE_AND_TIME_ASSIGNMENT ( #47, #233, ( #109 ) ) ;
#205 = FACE_OUTER_BOUND ( 'NONE', #117, .T. ) ;
#206 =( LENGTH_UNIT ( ) NAMED_UNIT ( * ) SI_UNIT ( .MILLI., .METRE. ) );
#207 = ORIENTED_EDGE ( 'NONE', *, *, #227, .F. ) ;
#208 = CARTESIAN_POINT ( 'NONE',  ( -280.0000000000000000, 12.00000000000000000, 255.0000000000001137 ) ) ;
#209 = EDGE_LOOP ( 'NONE', ( #286, #115, #114, #229 ) ) ;
#210 = ORIENTED_EDGE ( 'NONE', *, *, #169, .F. ) ;
#211 = VECTOR ( 'NONE', #290, 1000.000000000000000 ) ;
#212 = VERTEX_POINT ( 'NONE', #178 ) ;
#213 = PLANE ( 'NONE',  #202 ) ;
#214 = LOCAL_TIME ( 14, 18, 26.00000000000000000, #249 ) ;
#215 = CARTESIAN_POINT ( 'NONE',  ( -280.0000000000000000, 0.000000000000000000, 255.0000000000001137 ) ) ;
#216 = APPROVAL_PERSON_ORGANIZATION ( #18, #195, #116 ) ;
#217 = EDGE_CURVE ( 'NONE', #231, #17, #6, .T. ) ;
#218 = ADVANCED_FACE ( 'NONE', ( #54 ), #152, .F. ) ;
#219 = CARTESIAN_POINT ( 'NONE',  ( -310.0000000000000000, 12.00000000000000000, 225.0000000000001137 ) ) ;
#220 = DIRECTION ( 'NONE',  ( 1.000000000000000000, -0.000000000000000000, 0.000000000000000000 ) ) ;
#221 = CARTESIAN_POINT ( 'NONE',  ( 280.0000000000000000, 0.000000000000000000, 225.0000000000001137 ) ) ;
#222 = CARTESIAN_POINT ( 'NONE',  ( 310.0000000000000000, 0.000000000000000000, 255.0000000000001137 ) ) ;
#223 = ORIENTED_EDGE ( 'NONE', *, *, #15, .T. ) ;
#224 = COORDINATED_UNIVERSAL_TIME_OFFSET ( 0, 0, .AHEAD. ) ;
#225 = PERSON_AND_ORGANIZATION ( #267, #240 ) ;
#226 = VECTOR ( 'NONE', #276, 1000.000000000000000 ) ;
#227 = EDGE_CURVE ( 'NONE', #46, #82, #302, .T. ) ;
#228 = DATE_AND_TIME ( #65, #214 ) ;
#229 = ORIENTED_EDGE ( 'NONE', *, *, #94, .T. ) ;
#230 = DIRECTION ( 'NONE',  ( 0.000000000000000000, -1.000000000000000000, 0.000000000000000000 ) ) ;
#231 = VERTEX_POINT ( 'NONE', #79 ) ;
#232 = VERTEX_POINT ( 'NONE', #215 ) ;
#233 = DATE_TIME_ROLE ( 'classification_date' ) ;
#234 = LINE ( 'NONE', #147, #70 ) ;
#235 = DIRECTION ( 'NONE',  ( 0.000000000000000000, 0.000000000000000000, -1.000000000000000000 ) ) ;
#236 = LINE ( 'NONE', #122, #190 ) ;
#237 = APPROVAL ( #105, 'UNSPECIFIED' ) ;
#238 = AXIS2_PLACEMENT_3D ( 'NONE', #131, #156, #81 ) ;
#239 = CIRCLE ( 'NONE', #149, 30.00000000000000000 ) ;
#240 = ORGANIZATION ( 'UNSPECIFIED', 'UNSPECIFIED', '' ) ;
#241 = ADVANCED_BREP_SHAPE_REPRESENTATION ( 'FR060T.C_STEP_v11023', ( #3, #107 ), #100 ) ;
#242 = DIRECTION ( 'NONE',  ( 0.000000000000000000, -1.000000000000000000, 0.000000000000000000 ) ) ;
#243 = CARTESIAN_POINT ( 'NONE',  ( 310.0000000000000000, 12.00000000000000000, 225.0000000000001137 ) ) ;
#244 = DIRECTION ( 'NONE',  ( -0.000000000000000000, -1.000000000000000000, -0.000000000000000000 ) ) ;
#245 = CARTESIAN_POINT ( 'NONE',  ( 310.0000000000000000, 0.000000000000000000, 225.0000000000001137 ) ) ;
#246 = ORIENTED_EDGE ( 'NONE', *, *, #25, .F. ) ;
#247 = APPROVAL_DATE_TIME ( #228, #237 ) ;
#248 = PERSON_AND_ORGANIZATION ( #267, #240 ) ;
#249 = COORDINATED_UNIVERSAL_TIME_OFFSET ( 0, 0, .AHEAD. ) ;
#250 = LINE ( 'NONE', #295, #51 ) ;
#251 = DIRECTION ( 'NONE',  ( 0.000000000000000000, 0.000000000000000000, 1.000000000000000000 ) ) ;
#252 = LOCAL_TIME ( 14, 18, 26.00000000000000000, #163 ) ;
#253 = ORIENTED_EDGE ( 'NONE', *, *, #184, .T. ) ;
#254 = FACE_OUTER_BOUND ( 'NONE', #168, .T. ) ;
#255 = ORIENTED_EDGE ( 'NONE', *, *, #257, .F. ) ;
#256 = ORIENTED_EDGE ( 'NONE', *, *, #217, .T. ) ;
#257 = EDGE_CURVE ( 'NONE', #17, #104, #20, .T. ) ;
#258 = CYLINDRICAL_SURFACE ( 'NONE', #92, 30.00000000000000000 ) ;
#259 = CARTESIAN_POINT ( 'NONE',  ( 0.000000000000000000, 0.000000000000000000, 0.000000000000000000 ) ) ;
#260 = DIRECTION ( 'NONE',  ( -1.000000000000000000, 0.000000000000000000, -0.000000000000000000 ) ) ;
#261 = CC_DESIGN_DATE_AND_TIME_ASSIGNMENT ( #162, #137, ( #281 ) ) ;
#262 = CARTESIAN_POINT ( 'NONE',  ( -310.0000000000000000, 12.00000000000000000, 255.0000000000001137 ) ) ;
#263 = ORIENTED_EDGE ( 'NONE', *, *, #63, .F. ) ;
#264 = PERSON_AND_ORGANIZATION_ROLE ( 'creator' ) ;
#265 = PERSON_AND_ORGANIZATION_ROLE ( 'design_supplier' ) ;
#266 = DIRECTION ( 'NONE',  ( 0.000000000000000000, -1.000000000000000000, 0.000000000000000000 ) ) ;
#267 = PERSON ( 'UNSPECIFIED', 'UNSPECIFIED', 'UNSPECIFIED', ('UNSPECIFIED'), ('UNSPECIFIED'), ('UNSPECIFIED') ) ;
#268 = COORDINATED_UNIVERSAL_TIME_OFFSET ( 0, 0, .AHEAD. ) ;
#269 = DIRECTION ( 'NONE',  ( 1.000000000000000000, 0.000000000000000000, 0.000000000000000000 ) ) ;
#270 = PERSON_AND_ORGANIZATION_ROLE ( 'design_owner' ) ;
#271 = ORIENTED_EDGE ( 'NONE', *, *, #277, .T. ) ;
#272 = PRODUCT_DEFINITION_FORMATION_WITH_SPECIFIED_SOURCE ( 'ANY', '', #123, .NOT_KNOWN. ) ;
#273 = ORIENTED_EDGE ( 'NONE', *, *, #72, .F. ) ;
#274 = ORIENTED_EDGE ( 'NONE', *, *, #96, .F. ) ;
#275 = AXIS2_PLACEMENT_3D ( 'NONE', #30, #242, #126 ) ;
#276 = DIRECTION ( 'NONE',  ( 0.000000000000000000, 1.000000000000000000, -0.000000000000000000 ) ) ;
#277 = EDGE_CURVE ( 'NONE', #104, #66, #49, .T. ) ;
#278 = CARTESIAN_POINT ( 'NONE',  ( -280.0000000000000000, 12.00000000000000000, 225.0000000000001137 ) ) ;
#279 = AXIS2_PLACEMENT_3D ( 'NONE', #164, #41, #110 ) ;
#280 = VECTOR ( 'NONE', #173, 1000.000000000000000 ) ;
#281 = PRODUCT_DEFINITION ( 'UNKNOWN', '', #272, #294 ) ;
#282 = CARTESIAN_POINT ( 'NONE',  ( -310.0000000000000000, 12.00000000000000000, 255.0000000000001137 ) ) ;
#283 = CARTESIAN_POINT ( 'NONE',  ( -310.0000000000000000, 12.00000000000000000, -254.9999999999998863 ) ) ;
#284 = ADVANCED_FACE ( 'NONE', ( #192 ), #258, .T. ) ;
#285 = AXIS2_PLACEMENT_3D ( 'NONE', #29, #26, #260 ) ;
#286 = ORIENTED_EDGE ( 'NONE', *, *, #128, .T. ) ;
#287 = DATE_AND_TIME ( #289, #176 ) ;
#288 = CARTESIAN_POINT ( 'NONE',  ( 310.0000000000000000, 12.00000000000000000, -254.9999999999998863 ) ) ;
#289 = CALENDAR_DATE ( 2023, 12, 10 ) ;
#290 = DIRECTION ( 'NONE',  ( 0.000000000000000000, 0.000000000000000000, -1.000000000000000000 ) ) ;
#291 = LINE ( 'NONE', #208, #124 ) ;
#292 =( NAMED_UNIT ( * ) PLANE_ANGLE_UNIT ( ) SI_UNIT ( $, .RADIAN. ) );
#293 = ORIENTED_EDGE ( 'NONE', *, *, #169, .T. ) ;
#294 = DESIGN_CONTEXT ( 'detailed design', #148, 'design' ) ;
#295 = CARTESIAN_POINT ( 'NONE',  ( 280.0000000000000568, 12.00000000000000000, 255.0000000000001137 ) ) ;
#296 = COORDINATED_UNIVERSAL_TIME_OFFSET ( 0, 0, .AHEAD. ) ;
#297 = VERTEX_POINT ( 'NONE', #199 ) ;
#298 = ADVANCED_FACE ( 'NONE', ( #160 ), #31, .F. ) ;
#299 = CLOSED_SHELL ( 'NONE', ( #298, #74, #50, #44, #218, #132, #103, #284 ) ) ;
#300 = ORIENTED_EDGE ( 'NONE', *, *, #187, .T. ) ;
#301 = DIRECTION ( 'NONE',  ( -0.000000000000000000, -0.000000000000000000, 1.000000000000000000 ) ) ;
#302 = CIRCLE ( 'NONE', #165, 30.00000000000000000 ) ;
#303 = CC_DESIGN_APPROVAL ( #27, ( #272 ) ) ;
#304 = DIRECTION ( 'NONE',  ( 0.000000000000000000, 0.000000000000000000, -1.000000000000000000 ) ) ;
#305 = CARTESIAN_POINT ( 'NONE',  ( -280.0000000000000000, 0.000000000000000000, 225.0000000000001137 ) ) ;
#306 = FACE_OUTER_BOUND ( 'NONE', #209, .T. ) ;
#307 = CC_DESIGN_PERSON_AND_ORGANIZATION_ASSIGNMENT ( #133, #264, ( #281 ) ) ;
ENDSEC;
END-ISO-10303-21;
