ISO-10303-21;
HEADER;
FILE_DESCRIPTION (( 'STEP AP214' ),
    '1' );
FILE_NAME ('AU072T.C_STEP_V11122.STEP',
    '2022-11-16T09:50:12',
    ( '' ),
    ( '' ),
    'SwSTEP 2.0',
    'SolidWorks 2019',
    '' );
FILE_SCHEMA (( 'AUTOMOTIVE_DESIGN' ));
ENDSEC;

DATA;
#1 = ORIENTED_EDGE ( 'NONE', *, *, #54, .F. ) ;
#2 = CARTESIAN_POINT ( 'NONE',  ( 0.000000000000000000, 0.000000000000000000, 0.000000000000000000 ) ) ;
#3 = ORIENTED_EDGE ( 'NONE', *, *, #70, .F. ) ;
#4 = ADVANCED_FACE ( 'NONE', ( #183 ), #61, .F. ) ;
#5 = MANIFOLD_SOLID_BREP ( 'Boss-Extrude1', #31 ) ;
#6 =( LENGTH_UNIT ( ) NAMED_UNIT ( * ) SI_UNIT ( .MILLI., .METRE. ) );
#7 = LINE ( 'NONE', #101, #15 ) ;
#8 = EDGE_LOOP ( 'NONE', ( #102, #193, #55, #150 ) ) ;
#9 = APPLICATION_CONTEXT ( 'automotive_design' ) ;
#10 = DIRECTION ( 'NONE',  ( -1.000000000000000000, 0.000000000000000000, 2.478176394252581634E-16 ) ) ;
#11 = PRODUCT_RELATED_PRODUCT_CATEGORY ( 'part', '', ( #113 ) ) ;
#12 = DIRECTION ( 'NONE',  ( -0.000000000000000000, -1.000000000000000000, -0.000000000000000000 ) ) ;
#13 = ADVANCED_FACE ( 'NONE', ( #154 ), #26, .F. ) ;
#14 = SURFACE_STYLE_FILL_AREA ( #139 ) ;
#15 = VECTOR ( 'NONE', #104, 1000.000000000000000 ) ;
#16 = PLANE ( 'NONE',  #57 ) ;
#17 = DIRECTION ( 'NONE',  ( -1.000000000000000000, 0.000000000000000000, -0.000000000000000000 ) ) ;
#18 = DIRECTION ( 'NONE',  ( -0.000000000000000000, -1.000000000000000000, -0.000000000000000000 ) ) ;
#19 = EDGE_CURVE ( 'NONE', #169, #115, #120, .T. ) ;
#20 = APPLICATION_PROTOCOL_DEFINITION ( 'draft international standard', 'automotive_design', 1998, #9 ) ;
#21 = ORIENTED_EDGE ( 'NONE', *, *, #186, .F. ) ;
#22 = UNCERTAINTY_MEASURE_WITH_UNIT (LENGTH_MEASURE( 1.000000000000000082E-05 ), #151, 'distance_accuracy_value', 'NONE');
#23 = AXIS2_PLACEMENT_3D ( 'NONE', #2, #114, #49 ) ;
#24 = ORIENTED_EDGE ( 'NONE', *, *, #85, .F. ) ;
#25 = EDGE_CURVE ( 'NONE', #167, #129, #56, .T. ) ;
#26 = PLANE ( 'NONE',  #41 ) ;
#27 =( GEOMETRIC_REPRESENTATION_CONTEXT ( 3 ) GLOBAL_UNCERTAINTY_ASSIGNED_CONTEXT ( ( #89 ) ) GLOBAL_UNIT_ASSIGNED_CONTEXT ( ( #6, #185, #90 ) ) REPRESENTATION_CONTEXT ( 'NONE', 'WORKASPACE' ) );
#28 = CARTESIAN_POINT ( 'NONE',  ( -355.5000000000000000, 0.000000000000000000, -224.0000000000000000 ) ) ;
#29 = EDGE_LOOP ( 'NONE', ( #152, #3, #179, #116 ) ) ;
#30 = DIRECTION ( 'NONE',  ( 1.000000000000000000, 0.000000000000000000, -2.478176394252581634E-16 ) ) ;
#31 = CLOSED_SHELL ( 'NONE', ( #4, #81, #13, #160, #130, #105 ) ) ;
#32 = ORIENTED_EDGE ( 'NONE', *, *, #19, .F. ) ;
#33 = STYLED_ITEM ( 'NONE', ( #164 ), #162 ) ;
#34 = CARTESIAN_POINT ( 'NONE',  ( -355.5000000000000000, 12.00000000000000000, -224.0000000000000000 ) ) ;
#35 = DIRECTION ( 'NONE',  ( 0.000000000000000000, 0.000000000000000000, 1.000000000000000000 ) ) ;
#36 = EDGE_CURVE ( 'NONE', #84, #115, #100, .T. ) ;
#37 = ORIENTED_EDGE ( 'NONE', *, *, #62, .F. ) ;
#38 = MECHANICAL_DESIGN_GEOMETRIC_PRESENTATION_REPRESENTATION (  '', ( #166 ), #27 ) ;
#39 = SURFACE_SIDE_STYLE ('',( #74 ) ) ;
#40 = VERTEX_POINT ( 'NONE', #28 ) ;
#41 = AXIS2_PLACEMENT_3D ( 'NONE', #131, #30, #181 ) ;
#42 = CARTESIAN_POINT ( 'NONE',  ( 355.5000000000000000, 12.00000000000000000, -224.0000000000000000 ) ) ;
#43 = UNCERTAINTY_MEASURE_WITH_UNIT (LENGTH_MEASURE( 1.000000000000000082E-05 ), #65, 'distance_accuracy_value', 'NONE');
#44 = CARTESIAN_POINT ( 'NONE',  ( -355.4999999999998863, 12.00000000000000000, 224.0000000000000000 ) ) ;
#45 =( NAMED_UNIT ( * ) SI_UNIT ( $, .STERADIAN. ) SOLID_ANGLE_UNIT ( ) );
#46 = CARTESIAN_POINT ( 'NONE',  ( 0.000000000000000000, 0.000000000000000000, 0.000000000000000000 ) ) ;
#47 = CARTESIAN_POINT ( 'NONE',  ( -355.5000000000000000, 12.00000000000000000, -224.0000000000000000 ) ) ;
#48 = FACE_OUTER_BOUND ( 'NONE', #8, .T. ) ;
#49 = DIRECTION ( 'NONE',  ( 1.000000000000000000, 0.000000000000000000, 0.000000000000000000 ) ) ;
#50 = ORIENTED_EDGE ( 'NONE', *, *, #85, .T. ) ;
#51 = EDGE_CURVE ( 'NONE', #86, #169, #7, .T. ) ;
#52 = SURFACE_STYLE_USAGE ( .BOTH. , #194 ) ;
#53 = PRODUCT_CONTEXT ( 'NONE', #161, 'mechanical' ) ;
#54 = EDGE_CURVE ( 'NONE', #91, #167, #171, .T. ) ;
#55 = ORIENTED_EDGE ( 'NONE', *, *, #94, .F. ) ;
#56 = LINE ( 'NONE', #44, #109 ) ;
#57 = AXIS2_PLACEMENT_3D ( 'NONE', #127, #35, #78 ) ;
#58 = CARTESIAN_POINT ( 'NONE',  ( 355.5000000000000000, 12.00000000000000000, -224.0000000000000000 ) ) ;
#59 = SURFACE_STYLE_USAGE ( .BOTH. , #39 ) ;
#60 = ORIENTED_EDGE ( 'NONE', *, *, #19, .T. ) ;
#61 = PLANE ( 'NONE',  #126 ) ;
#62 = EDGE_CURVE ( 'NONE', #86, #84, #170, .T. ) ;
#63 = CARTESIAN_POINT ( 'NONE',  ( 355.5000000000000000, 12.00000000000000000, -224.0000000000000000 ) ) ;
#64 = DIRECTION ( 'NONE',  ( 1.000000000000000000, 0.000000000000000000, 0.000000000000000000 ) ) ;
#65 =( LENGTH_UNIT ( ) NAMED_UNIT ( * ) SI_UNIT ( .MILLI., .METRE. ) );
#66 = VECTOR ( 'NONE', #87, 1000.000000000000000 ) ;
#67 = ORIENTED_EDGE ( 'NONE', *, *, #94, .T. ) ;
#68 = VECTOR ( 'NONE', #142, 1000.000000000000000 ) ;
#69 = SHAPE_DEFINITION_REPRESENTATION ( #128, #162 ) ;
#70 = EDGE_CURVE ( 'NONE', #91, #40, #71, .T. ) ;
#71 = LINE ( 'NONE', #200, #83 ) ;
#72 = EDGE_CURVE ( 'NONE', #129, #169, #174, .T. ) ;
#73 = PRODUCT_DEFINITION_FORMATION_WITH_SPECIFIED_SOURCE ( 'ANY', '', #113, .NOT_KNOWN. ) ;
#74 = SURFACE_STYLE_FILL_AREA ( #75 ) ;
#75 = FILL_AREA_STYLE ('',( #117 ) ) ;
#76 = AXIS2_PLACEMENT_3D ( 'NONE', #111, #190, #17 ) ;
#77 = FILL_AREA_STYLE_COLOUR ( '', #165 ) ;
#78 = DIRECTION ( 'NONE',  ( 1.000000000000000000, 0.000000000000000000, -0.000000000000000000 ) ) ;
#79 = VECTOR ( 'NONE', #12, 1000.000000000000000 ) ;
#80 = CARTESIAN_POINT ( 'NONE',  ( -355.4999999999998863, 0.000000000000000000, 224.0000000000000000 ) ) ;
#81 = ADVANCED_FACE ( 'NONE', ( #158 ), #16, .F. ) ;
#82 =( NAMED_UNIT ( * ) SI_UNIT ( $, .STERADIAN. ) SOLID_ANGLE_UNIT ( ) );
#83 = VECTOR ( 'NONE', #18, 1000.000000000000000 ) ;
#84 = VERTEX_POINT ( 'NONE', #63 ) ;
#85 = EDGE_CURVE ( 'NONE', #40, #129, #157, .T. ) ;
#86 = VERTEX_POINT ( 'NONE', #202 ) ;
#87 = DIRECTION ( 'NONE',  ( 2.478176394252581634E-16, 0.000000000000000000, 1.000000000000000000 ) ) ;
#88 = CARTESIAN_POINT ( 'NONE',  ( 355.5000000000000000, 12.00000000000000000, -224.0000000000000000 ) ) ;
#89 = UNCERTAINTY_MEASURE_WITH_UNIT (LENGTH_MEASURE( 1.000000000000000082E-05 ), #6, 'distance_accuracy_value', 'NONE');
#90 =( NAMED_UNIT ( * ) SI_UNIT ( $, .STERADIAN. ) SOLID_ANGLE_UNIT ( ) );
#91 = VERTEX_POINT ( 'NONE', #34 ) ;
#92 = PLANE ( 'NONE',  #76 ) ;
#93 = LINE ( 'NONE', #177, #68 ) ;
#94 = EDGE_CURVE ( 'NONE', #167, #86, #201, .T. ) ;
#95 = CARTESIAN_POINT ( 'NONE',  ( -355.4999999999998863, 12.00000000000000000, 224.0000000000000000 ) ) ;
#96 = FACE_OUTER_BOUND ( 'NONE', #163, .T. ) ;
#97 = ORIENTED_EDGE ( 'NONE', *, *, #36, .F. ) ;
#98 = COLOUR_RGB ( '',0.7921568627450980005, 0.8196078431372548767, 0.9333333333333333481 ) ;
#99 =( GEOMETRIC_REPRESENTATION_CONTEXT ( 3 ) GLOBAL_UNCERTAINTY_ASSIGNED_CONTEXT ( ( #22 ) ) GLOBAL_UNIT_ASSIGNED_CONTEXT ( ( #151, #145, #82 ) ) REPRESENTATION_CONTEXT ( 'NONE', 'WORKASPACE' ) );
#100 = LINE ( 'NONE', #42, #79 ) ;
#101 = CARTESIAN_POINT ( 'NONE',  ( 355.5000000000001137, 12.00000000000000000, 224.0000000000000000 ) ) ;
#102 = ORIENTED_EDGE ( 'NONE', *, *, #72, .T. ) ;
#103 = ORIENTED_EDGE ( 'NONE', *, *, #62, .T. ) ;
#104 = DIRECTION ( 'NONE',  ( -0.000000000000000000, -1.000000000000000000, -0.000000000000000000 ) ) ;
#105 = ADVANCED_FACE ( 'NONE', ( #96 ), #123, .F. ) ;
#106 = VECTOR ( 'NONE', #64, 1000.000000000000000 ) ;
#107 = LINE ( 'NONE', #47, #182 ) ;
#108 = DIRECTION ( 'NONE',  ( 2.478176394252581634E-16, 0.000000000000000000, 1.000000000000000000 ) ) ;
#109 = VECTOR ( 'NONE', #137, 1000.000000000000000 ) ;
#110 = DIRECTION ( 'NONE',  ( 0.000000000000000000, 1.000000000000000000, 0.000000000000000000 ) ) ;
#111 = CARTESIAN_POINT ( 'NONE',  ( -355.4999999999998863, 12.00000000000000000, 224.0000000000000000 ) ) ;
#112 = EDGE_LOOP ( 'NONE', ( #50, #149, #1, #197 ) ) ;
#113 = PRODUCT ( 'AU072T.C_STEP_V11122', 'AU072T.C_STEP_V11122', '', ( #53 ) ) ;
#114 = DIRECTION ( 'NONE',  ( 0.000000000000000000, 0.000000000000000000, 1.000000000000000000 ) ) ;
#115 = VERTEX_POINT ( 'NONE', #172 ) ;
#116 = ORIENTED_EDGE ( 'NONE', *, *, #36, .T. ) ;
#117 = FILL_AREA_STYLE_COLOUR ( '', #98 ) ;
#118 =( GEOMETRIC_REPRESENTATION_CONTEXT ( 3 ) GLOBAL_UNCERTAINTY_ASSIGNED_CONTEXT ( ( #43 ) ) GLOBAL_UNIT_ASSIGNED_CONTEXT ( ( #65, #187, #45 ) ) REPRESENTATION_CONTEXT ( 'NONE', 'WORKASPACE' ) );
#119 = EDGE_LOOP ( 'NONE', ( #103, #198, #153, #67 ) ) ;
#120 = LINE ( 'NONE', #168, #141 ) ;
#121 = DIRECTION ( 'NONE',  ( 2.478176394252581634E-16, 0.000000000000000000, 1.000000000000000000 ) ) ;
#122 = CARTESIAN_POINT ( 'NONE',  ( -355.4999999999998863, 12.00000000000000000, 224.0000000000000000 ) ) ;
#123 = PLANE ( 'NONE',  #156 ) ;
#124 = CARTESIAN_POINT ( 'NONE',  ( 0.000000000000000000, 12.00000000000000000, 0.000000000000000000 ) ) ;
#125 = PLANE ( 'NONE',  #173 ) ;
#126 = AXIS2_PLACEMENT_3D ( 'NONE', #58, #10, #121 ) ;
#127 = CARTESIAN_POINT ( 'NONE',  ( -355.5000000000000000, 12.00000000000000000, -224.0000000000000000 ) ) ;
#128 = PRODUCT_DEFINITION_SHAPE ( 'NONE', 'NONE',  #135 ) ;
#129 = VERTEX_POINT ( 'NONE', #80 ) ;
#130 = ADVANCED_FACE ( 'NONE', ( #176 ), #125, .T. ) ;
#131 = CARTESIAN_POINT ( 'NONE',  ( -355.5000000000000000, 12.00000000000000000, -224.0000000000000000 ) ) ;
#132 = PRESENTATION_STYLE_ASSIGNMENT (( #59 ) ) ;
#133 = VECTOR ( 'NONE', #138, 1000.000000000000000 ) ;
#134 = VECTOR ( 'NONE', #108, 1000.000000000000000 ) ;
#135 = PRODUCT_DEFINITION ( 'UNKNOWN', '', #73, #136 ) ;
#136 = PRODUCT_DEFINITION_CONTEXT ( 'detailed design', #9, 'design' ) ;
#137 = DIRECTION ( 'NONE',  ( -0.000000000000000000, -1.000000000000000000, -0.000000000000000000 ) ) ;
#138 = DIRECTION ( 'NONE',  ( -2.478176394252581634E-16, -0.000000000000000000, -1.000000000000000000 ) ) ;
#139 = FILL_AREA_STYLE ('',( #77 ) ) ;
#140 = DIRECTION ( 'NONE',  ( 1.000000000000000000, 0.000000000000000000, 0.000000000000000000 ) ) ;
#141 = VECTOR ( 'NONE', #196, 1000.000000000000000 ) ;
#142 = DIRECTION ( 'NONE',  ( -1.000000000000000000, -0.000000000000000000, -0.000000000000000000 ) ) ;
#143 = CARTESIAN_POINT ( 'NONE',  ( -355.4999999999998863, 0.000000000000000000, 224.0000000000000000 ) ) ;
#144 = APPLICATION_PROTOCOL_DEFINITION ( 'draft international standard', 'automotive_design', 1998, #161 ) ;
#145 =( NAMED_UNIT ( * ) PLANE_ANGLE_UNIT ( ) SI_UNIT ( $, .RADIAN. ) );
#146 = VECTOR ( 'NONE', #140, 1000.000000000000000 ) ;
#147 = PRESENTATION_LAYER_ASSIGNMENT (  '', '', ( #33 ) ) ;
#148 = PRESENTATION_LAYER_ASSIGNMENT (  '', '', ( #166 ) ) ;
#149 = ORIENTED_EDGE ( 'NONE', *, *, #25, .F. ) ;
#150 = ORIENTED_EDGE ( 'NONE', *, *, #25, .T. ) ;
#151 =( LENGTH_UNIT ( ) NAMED_UNIT ( * ) SI_UNIT ( .MILLI., .METRE. ) );
#152 = ORIENTED_EDGE ( 'NONE', *, *, #186, .T. ) ;
#153 = ORIENTED_EDGE ( 'NONE', *, *, #54, .T. ) ;
#154 = FACE_OUTER_BOUND ( 'NONE', #112, .T. ) ;
#155 = CARTESIAN_POINT ( 'NONE',  ( -355.5000000000000000, 12.00000000000000000, -224.0000000000000000 ) ) ;
#156 = AXIS2_PLACEMENT_3D ( 'NONE', #46, #188, #178 ) ;
#157 = LINE ( 'NONE', #191, #134 ) ;
#158 = FACE_OUTER_BOUND ( 'NONE', #29, .T. ) ;
#159 = DIRECTION ( 'NONE',  ( 0.000000000000000000, -0.000000000000000000, 1.000000000000000000 ) ) ;
#160 = ADVANCED_FACE ( 'NONE', ( #48 ), #92, .F. ) ;
#161 = APPLICATION_CONTEXT ( 'automotive_design' ) ;
#162 = ADVANCED_BREP_SHAPE_REPRESENTATION ( 'AU072T.C_STEP_V11122', ( #5, #23 ), #118 ) ;
#163 = EDGE_LOOP ( 'NONE', ( #32, #180, #24, #21 ) ) ;
#164 = PRESENTATION_STYLE_ASSIGNMENT (( #52 ) ) ;
#165 = COLOUR_RGB ( '',0.7921568627450980005, 0.8196078431372548767, 0.9333333333333333481 ) ;
#166 = STYLED_ITEM ( 'NONE', ( #132 ), #5 ) ;
#167 = VERTEX_POINT ( 'NONE', #122 ) ;
#168 = CARTESIAN_POINT ( 'NONE',  ( 355.5000000000000000, 0.000000000000000000, -224.0000000000000000 ) ) ;
#169 = VERTEX_POINT ( 'NONE', #189 ) ;
#170 = LINE ( 'NONE', #88, #133 ) ;
#171 = LINE ( 'NONE', #155, #66 ) ;
#172 = CARTESIAN_POINT ( 'NONE',  ( 355.5000000000000000, 0.000000000000000000, -224.0000000000000000 ) ) ;
#173 = AXIS2_PLACEMENT_3D ( 'NONE', #124, #110, #159 ) ;
#174 = LINE ( 'NONE', #143, #146 ) ;
#175 = EDGE_CURVE ( 'NONE', #84, #91, #107, .T. ) ;
#176 = FACE_OUTER_BOUND ( 'NONE', #119, .T. ) ;
#177 = CARTESIAN_POINT ( 'NONE',  ( -355.5000000000000000, 0.000000000000000000, -224.0000000000000000 ) ) ;
#178 = DIRECTION ( 'NONE',  ( 0.000000000000000000, -0.000000000000000000, 1.000000000000000000 ) ) ;
#179 = ORIENTED_EDGE ( 'NONE', *, *, #175, .F. ) ;
#180 = ORIENTED_EDGE ( 'NONE', *, *, #72, .F. ) ;
#181 = DIRECTION ( 'NONE',  ( -2.478176394252581634E-16, 0.000000000000000000, -1.000000000000000000 ) ) ;
#182 = VECTOR ( 'NONE', #199, 1000.000000000000000 ) ;
#183 = FACE_OUTER_BOUND ( 'NONE', #184, .T. ) ;
#184 = EDGE_LOOP ( 'NONE', ( #60, #97, #37, #195 ) ) ;
#185 =( NAMED_UNIT ( * ) PLANE_ANGLE_UNIT ( ) SI_UNIT ( $, .RADIAN. ) );
#186 = EDGE_CURVE ( 'NONE', #115, #40, #93, .T. ) ;
#187 =( NAMED_UNIT ( * ) PLANE_ANGLE_UNIT ( ) SI_UNIT ( $, .RADIAN. ) );
#188 = DIRECTION ( 'NONE',  ( 0.000000000000000000, 1.000000000000000000, 0.000000000000000000 ) ) ;
#189 = CARTESIAN_POINT ( 'NONE',  ( 355.5000000000001137, 0.000000000000000000, 224.0000000000000000 ) ) ;
#190 = DIRECTION ( 'NONE',  ( 0.000000000000000000, 0.000000000000000000, -1.000000000000000000 ) ) ;
#191 = CARTESIAN_POINT ( 'NONE',  ( -355.5000000000000000, 0.000000000000000000, -224.0000000000000000 ) ) ;
#192 = MECHANICAL_DESIGN_GEOMETRIC_PRESENTATION_REPRESENTATION (  '', ( #33 ), #99 ) ;
#193 = ORIENTED_EDGE ( 'NONE', *, *, #51, .F. ) ;
#194 = SURFACE_SIDE_STYLE ('',( #14 ) ) ;
#195 = ORIENTED_EDGE ( 'NONE', *, *, #51, .T. ) ;
#196 = DIRECTION ( 'NONE',  ( -2.478176394252581634E-16, -0.000000000000000000, -1.000000000000000000 ) ) ;
#197 = ORIENTED_EDGE ( 'NONE', *, *, #70, .T. ) ;
#198 = ORIENTED_EDGE ( 'NONE', *, *, #175, .T. ) ;
#199 = DIRECTION ( 'NONE',  ( -1.000000000000000000, -0.000000000000000000, -0.000000000000000000 ) ) ;
#200 = CARTESIAN_POINT ( 'NONE',  ( -355.5000000000000000, 12.00000000000000000, -224.0000000000000000 ) ) ;
#201 = LINE ( 'NONE', #95, #106 ) ;
#202 = CARTESIAN_POINT ( 'NONE',  ( 355.5000000000001137, 12.00000000000000000, 224.0000000000000000 ) ) ;
ENDSEC;
END-ISO-10303-21;
