ISO-10303-21;
HEADER;
FILE_DESCRIPTION (( 'STEP AP214' ),
    '1' );
FILE_NAME ('AU050T.C_STEP_V11122.STEP',
    '2022-11-16T09:49:40',
    ( '' ),
    ( '' ),
    'SwSTEP 2.0',
    'SolidWorks 2019',
    '' );
FILE_SCHEMA (( 'AUTOMOTIVE_DESIGN' ));
ENDSEC;

DATA;
#1 = ORIENTED_EDGE ( 'NONE', *, *, #132, .F. ) ;
#2 = FACE_OUTER_BOUND ( 'NONE', #35, .T. ) ;
#3 = DIRECTION ( 'NONE',  ( 1.449377316743024296E-16, 0.000000000000000000, 1.000000000000000000 ) ) ;
#4 = VECTOR ( 'NONE', #110, 1000.000000000000000 ) ;
#5 = UNCERTAINTY_MEASURE_WITH_UNIT (LENGTH_MEASURE( 1.000000000000000082E-05 ), #111, 'distance_accuracy_value', 'NONE');
#6 = SURFACE_STYLE_USAGE ( .BOTH. , #40 ) ;
#7 = COLOUR_RGB ( '',0.7921568627450980005, 0.8196078431372548767, 0.9333333333333333481 ) ;
#8 =( NAMED_UNIT ( * ) SI_UNIT ( $, .STERADIAN. ) SOLID_ANGLE_UNIT ( ) );
#9 =( GEOMETRIC_REPRESENTATION_CONTEXT ( 3 ) GLOBAL_UNCERTAINTY_ASSIGNED_CONTEXT ( ( #191 ) ) GLOBAL_UNIT_ASSIGNED_CONTEXT ( ( #168, #155, #64 ) ) REPRESENTATION_CONTEXT ( 'NONE', 'WORKASPACE' ) );
#10 = VECTOR ( 'NONE', #118, 1000.000000000000000 ) ;
#11 = EDGE_CURVE ( 'NONE', #73, #138, #119, .T. ) ;
#12 = CARTESIAN_POINT ( 'NONE',  ( 0.000000000000000000, 0.000000000000000000, 0.000000000000000000 ) ) ;
#13 = VECTOR ( 'NONE', #187, 1000.000000000000000 ) ;
#14 = DIRECTION ( 'NONE',  ( 0.000000000000000000, 0.000000000000000000, 1.000000000000000000 ) ) ;
#15 = ORIENTED_EDGE ( 'NONE', *, *, #197, .F. ) ;
#16 =( LENGTH_UNIT ( ) NAMED_UNIT ( * ) SI_UNIT ( .MILLI., .METRE. ) );
#17 = APPLICATION_CONTEXT ( 'automotive_design' ) ;
#18 = CARTESIAN_POINT ( 'NONE',  ( 0.000000000000000000, 0.000000000000000000, 0.000000000000000000 ) ) ;
#19 = ORIENTED_EDGE ( 'NONE', *, *, #11, .T. ) ;
#20 = VECTOR ( 'NONE', #173, 1000.000000000000000 ) ;
#21 = FACE_OUTER_BOUND ( 'NONE', #152, .T. ) ;
#22 = ADVANCED_FACE ( 'NONE', ( #21 ), #76, .F. ) ;
#23 = DIRECTION ( 'NONE',  ( -1.449377316743024296E-16, -0.000000000000000000, -1.000000000000000000 ) ) ;
#24 = CARTESIAN_POINT ( 'NONE',  ( -251.0000000000000568, 12.00000000000000000, -191.5000000000000000 ) ) ;
#25 = APPLICATION_CONTEXT ( 'automotive_design' ) ;
#26 = ORIENTED_EDGE ( 'NONE', *, *, #91, .T. ) ;
#27 = SURFACE_STYLE_USAGE ( .BOTH. , #165 ) ;
#28 = VECTOR ( 'NONE', #61, 1000.000000000000000 ) ;
#29 = FACE_OUTER_BOUND ( 'NONE', #174, .T. ) ;
#30 = ORIENTED_EDGE ( 'NONE', *, *, #55, .T. ) ;
#31 = DIRECTION ( 'NONE',  ( 0.000000000000000000, 1.000000000000000000, 0.000000000000000000 ) ) ;
#32 = PRODUCT ( 'AU050T.C_STEP_V11122', 'AU050T.C_STEP_V11122', '', ( #104 ) ) ;
#33 = ORIENTED_EDGE ( 'NONE', *, *, #197, .T. ) ;
#34 = DIRECTION ( 'NONE',  ( 1.000000000000000000, 0.000000000000000000, 0.000000000000000000 ) ) ;
#35 = EDGE_LOOP ( 'NONE', ( #19, #92, #44, #145 ) ) ;
#36 = AXIS2_PLACEMENT_3D ( 'NONE', #128, #146, #180 ) ;
#37 = CARTESIAN_POINT ( 'NONE',  ( 250.9999999999999432, 12.00000000000000000, -191.5000000000000000 ) ) ;
#38 = LINE ( 'NONE', #54, #4 ) ;
#39 = FILL_AREA_STYLE ('',( #112 ) ) ;
#40 = SURFACE_SIDE_STYLE ('',( #131 ) ) ;
#41 = VECTOR ( 'NONE', #108, 1000.000000000000000 ) ;
#42 = EDGE_CURVE ( 'NONE', #52, #86, #190, .T. ) ;
#43 = STYLED_ITEM ( 'NONE', ( #83 ), #77 ) ;
#44 = ORIENTED_EDGE ( 'NONE', *, *, #107, .F. ) ;
#45 = DIRECTION ( 'NONE',  ( -1.000000000000000000, 0.000000000000000000, -0.000000000000000000 ) ) ;
#46 = DIRECTION ( 'NONE',  ( 0.000000000000000000, -0.000000000000000000, 1.000000000000000000 ) ) ;
#47 = CARTESIAN_POINT ( 'NONE',  ( 250.9999999999999432, 0.000000000000000000, -191.5000000000000000 ) ) ;
#48 = AXIS2_PLACEMENT_3D ( 'NONE', #18, #14, #100 ) ;
#49 = DIRECTION ( 'NONE',  ( 0.000000000000000000, -0.000000000000000000, 1.000000000000000000 ) ) ;
#50 = APPLICATION_PROTOCOL_DEFINITION ( 'draft international standard', 'automotive_design', 1998, #17 ) ;
#51 = EDGE_LOOP ( 'NONE', ( #124, #105, #82, #1 ) ) ;
#52 = VERTEX_POINT ( 'NONE', #175 ) ;
#53 = PRODUCT_DEFINITION_CONTEXT ( 'detailed design', #25, 'design' ) ;
#54 = CARTESIAN_POINT ( 'NONE',  ( -251.0000000000000000, 0.000000000000000000, 191.5000000000000000 ) ) ;
#55 = EDGE_CURVE ( 'NONE', #86, #172, #85, .T. ) ;
#56 = ORIENTED_EDGE ( 'NONE', *, *, #84, .T. ) ;
#57 = PRESENTATION_LAYER_ASSIGNMENT (  '', '', ( #148 ) ) ;
#58 = SURFACE_STYLE_FILL_AREA ( #97 ) ;
#59 = EDGE_CURVE ( 'NONE', #158, #172, #140, .T. ) ;
#60 = DIRECTION ( 'NONE',  ( 1.000000000000000000, 0.000000000000000000, -0.000000000000000000 ) ) ;
#61 = DIRECTION ( 'NONE',  ( -0.000000000000000000, -1.000000000000000000, -0.000000000000000000 ) ) ;
#62 = ORIENTED_EDGE ( 'NONE', *, *, #132, .T. ) ;
#63 = PLANE ( 'NONE',  #189 ) ;
#64 =( NAMED_UNIT ( * ) SI_UNIT ( $, .STERADIAN. ) SOLID_ANGLE_UNIT ( ) );
#65 = DIRECTION ( 'NONE',  ( 0.000000000000000000, 0.000000000000000000, 1.000000000000000000 ) ) ;
#66 = ORIENTED_EDGE ( 'NONE', *, *, #107, .T. ) ;
#67 = COLOUR_RGB ( '',0.7921568627450980005, 0.8196078431372548767, 0.9333333333333333481 ) ;
#68 = PRESENTATION_STYLE_ASSIGNMENT (( #6 ) ) ;
#69 = ORIENTED_EDGE ( 'NONE', *, *, #84, .F. ) ;
#70 = CARTESIAN_POINT ( 'NONE',  ( 251.0000000000000000, 12.00000000000000000, 191.5000000000000000 ) ) ;
#71 = ADVANCED_FACE ( 'NONE', ( #78 ), #169, .F. ) ;
#72 = SHAPE_DEFINITION_REPRESENTATION ( #184, #77 ) ;
#73 = VERTEX_POINT ( 'NONE', #161 ) ;
#74 = ORIENTED_EDGE ( 'NONE', *, *, #182, .F. ) ;
#75 = MANIFOLD_SOLID_BREP ( 'Boss-Extrude1', #136 ) ;
#76 = PLANE ( 'NONE',  #123 ) ;
#77 = ADVANCED_BREP_SHAPE_REPRESENTATION ( 'AU050T.C_STEP_V11122', ( #75, #48 ), #163 ) ;
#78 = FACE_OUTER_BOUND ( 'NONE', #125, .T. ) ;
#79 = CARTESIAN_POINT ( 'NONE',  ( -251.0000000000000568, 12.00000000000000000, -191.5000000000000000 ) ) ;
#80 = DIRECTION ( 'NONE',  ( -1.000000000000000000, -0.000000000000000000, -0.000000000000000000 ) ) ;
#81 = MECHANICAL_DESIGN_GEOMETRIC_PRESENTATION_REPRESENTATION (  '', ( #148 ), #88 ) ;
#82 = ORIENTED_EDGE ( 'NONE', *, *, #11, .F. ) ;
#83 = PRESENTATION_STYLE_ASSIGNMENT (( #27 ) ) ;
#84 = EDGE_CURVE ( 'NONE', #86, #156, #159, .T. ) ;
#85 = LINE ( 'NONE', #37, #157 ) ;
#86 = VERTEX_POINT ( 'NONE', #147 ) ;
#87 = LINE ( 'NONE', #99, #144 ) ;
#88 =( GEOMETRIC_REPRESENTATION_CONTEXT ( 3 ) GLOBAL_UNCERTAINTY_ASSIGNED_CONTEXT ( ( #5 ) ) GLOBAL_UNIT_ASSIGNED_CONTEXT ( ( #111, #176, #8 ) ) REPRESENTATION_CONTEXT ( 'NONE', 'WORKASPACE' ) );
#89 = EDGE_LOOP ( 'NONE', ( #26, #15, #74, #151 ) ) ;
#90 = VECTOR ( 'NONE', #23, 1000.000000000000000 ) ;
#91 = EDGE_CURVE ( 'NONE', #138, #158, #38, .T. ) ;
#92 = ORIENTED_EDGE ( 'NONE', *, *, #202, .F. ) ;
#93 = CARTESIAN_POINT ( 'NONE',  ( -251.0000000000000000, 12.00000000000000000, 191.5000000000000000 ) ) ;
#94 = LINE ( 'NONE', #79, #106 ) ;
#95 = ORIENTED_EDGE ( 'NONE', *, *, #182, .T. ) ;
#96 = AXIS2_PLACEMENT_3D ( 'NONE', #12, #31, #49 ) ;
#97 = FILL_AREA_STYLE ('',( #198 ) ) ;
#98 = PRODUCT_RELATED_PRODUCT_CATEGORY ( 'part', '', ( #32 ) ) ;
#99 = CARTESIAN_POINT ( 'NONE',  ( -251.0000000000000000, 12.00000000000000000, 191.5000000000000000 ) ) ;
#100 = DIRECTION ( 'NONE',  ( 1.000000000000000000, 0.000000000000000000, 0.000000000000000000 ) ) ;
#101 = LINE ( 'NONE', #181, #109 ) ;
#102 = ORIENTED_EDGE ( 'NONE', *, *, #59, .T. ) ;
#103 = CARTESIAN_POINT ( 'NONE',  ( -251.0000000000000568, 12.00000000000000000, -191.5000000000000000 ) ) ;
#104 = PRODUCT_CONTEXT ( 'NONE', #17, 'mechanical' ) ;
#105 = ORIENTED_EDGE ( 'NONE', *, *, #91, .F. ) ;
#106 = VECTOR ( 'NONE', #3, 1000.000000000000000 ) ;
#107 = EDGE_CURVE ( 'NONE', #156, #113, #94, .T. ) ;
#108 = DIRECTION ( 'NONE',  ( -1.449377316743024296E-16, -0.000000000000000000, -1.000000000000000000 ) ) ;
#109 = VECTOR ( 'NONE', #34, 1000.000000000000000 ) ;
#110 = DIRECTION ( 'NONE',  ( 1.000000000000000000, 0.000000000000000000, 0.000000000000000000 ) ) ;
#111 =( LENGTH_UNIT ( ) NAMED_UNIT ( * ) SI_UNIT ( .MILLI., .METRE. ) );
#112 = FILL_AREA_STYLE_COLOUR ( '', #67 ) ;
#113 = VERTEX_POINT ( 'NONE', #93 ) ;
#114 = CARTESIAN_POINT ( 'NONE',  ( -251.0000000000000568, 12.00000000000000000, -191.5000000000000000 ) ) ;
#115 = PRESENTATION_LAYER_ASSIGNMENT (  '', '', ( #43 ) ) ;
#116 = PLANE ( 'NONE',  #96 ) ;
#117 = CARTESIAN_POINT ( 'NONE',  ( 250.9999999999999432, 12.00000000000000000, -191.5000000000000000 ) ) ;
#118 = DIRECTION ( 'NONE',  ( -1.000000000000000000, -0.000000000000000000, -0.000000000000000000 ) ) ;
#119 = LINE ( 'NONE', #142, #13 ) ;
#120 = LINE ( 'NONE', #70, #28 ) ;
#121 = UNCERTAINTY_MEASURE_WITH_UNIT (LENGTH_MEASURE( 1.000000000000000082E-05 ), #16, 'distance_accuracy_value', 'NONE');
#122 = ADVANCED_FACE ( 'NONE', ( #2 ), #127, .F. ) ;
#123 = AXIS2_PLACEMENT_3D ( 'NONE', #201, #65, #60 ) ;
#124 = ORIENTED_EDGE ( 'NONE', *, *, #59, .F. ) ;
#125 = EDGE_LOOP ( 'NONE', ( #102, #154, #164, #33 ) ) ;
#126 = VECTOR ( 'NONE', #80, 1000.000000000000000 ) ;
#127 = PLANE ( 'NONE',  #36 ) ;
#128 = CARTESIAN_POINT ( 'NONE',  ( -251.0000000000000568, 12.00000000000000000, -191.5000000000000000 ) ) ;
#129 = AXIS2_PLACEMENT_3D ( 'NONE', #192, #193, #130 ) ;
#130 = DIRECTION ( 'NONE',  ( 1.449377316743024296E-16, 0.000000000000000000, 1.000000000000000000 ) ) ;
#131 = SURFACE_STYLE_FILL_AREA ( #39 ) ;
#132 = EDGE_CURVE ( 'NONE', #172, #73, #166, .T. ) ;
#133 = CARTESIAN_POINT ( 'NONE',  ( -251.0000000000000568, 0.000000000000000000, -191.5000000000000000 ) ) ;
#134 = FACE_OUTER_BOUND ( 'NONE', #89, .T. ) ;
#135 = LINE ( 'NONE', #103, #20 ) ;
#136 = CLOSED_SHELL ( 'NONE', ( #71, #22, #122, #170, #150, #177 ) ) ;
#137 =( NAMED_UNIT ( * ) SI_UNIT ( $, .STERADIAN. ) SOLID_ANGLE_UNIT ( ) );
#138 = VERTEX_POINT ( 'NONE', #186 ) ;
#139 = PLANE ( 'NONE',  #160 ) ;
#140 = LINE ( 'NONE', #47, #90 ) ;
#141 = DIRECTION ( 'NONE',  ( -0.000000000000000000, -1.000000000000000000, -0.000000000000000000 ) ) ;
#142 = CARTESIAN_POINT ( 'NONE',  ( -251.0000000000000568, 0.000000000000000000, -191.5000000000000000 ) ) ;
#143 = PRODUCT_DEFINITION ( 'UNKNOWN', '', #194, #53 ) ;
#144 = VECTOR ( 'NONE', #141, 1000.000000000000000 ) ;
#145 = ORIENTED_EDGE ( 'NONE', *, *, #162, .T. ) ;
#146 = DIRECTION ( 'NONE',  ( 1.000000000000000000, 0.000000000000000000, -1.449377316743024296E-16 ) ) ;
#147 = CARTESIAN_POINT ( 'NONE',  ( 250.9999999999999432, 12.00000000000000000, -191.5000000000000000 ) ) ;
#148 = STYLED_ITEM ( 'NONE', ( #68 ), #75 ) ;
#149 = MECHANICAL_DESIGN_GEOMETRIC_PRESENTATION_REPRESENTATION (  '', ( #43 ), #9 ) ;
#150 = ADVANCED_FACE ( 'NONE', ( #29 ), #139, .T. ) ;
#151 = ORIENTED_EDGE ( 'NONE', *, *, #202, .T. ) ;
#152 = EDGE_LOOP ( 'NONE', ( #62, #200, #69, #30 ) ) ;
#153 = CARTESIAN_POINT ( 'NONE',  ( 0.000000000000000000, 12.00000000000000000, 0.000000000000000000 ) ) ;
#154 = ORIENTED_EDGE ( 'NONE', *, *, #55, .F. ) ;
#155 =( NAMED_UNIT ( * ) PLANE_ANGLE_UNIT ( ) SI_UNIT ( $, .RADIAN. ) );
#156 = VERTEX_POINT ( 'NONE', #114 ) ;
#157 = VECTOR ( 'NONE', #185, 1000.000000000000000 ) ;
#158 = VERTEX_POINT ( 'NONE', #179 ) ;
#159 = LINE ( 'NONE', #24, #126 ) ;
#160 = AXIS2_PLACEMENT_3D ( 'NONE', #153, #171, #46 ) ;
#161 = CARTESIAN_POINT ( 'NONE',  ( -251.0000000000000568, 0.000000000000000000, -191.5000000000000000 ) ) ;
#162 = EDGE_CURVE ( 'NONE', #156, #73, #135, .T. ) ;
#163 =( GEOMETRIC_REPRESENTATION_CONTEXT ( 3 ) GLOBAL_UNCERTAINTY_ASSIGNED_CONTEXT ( ( #121 ) ) GLOBAL_UNIT_ASSIGNED_CONTEXT ( ( #16, #196, #137 ) ) REPRESENTATION_CONTEXT ( 'NONE', 'WORKASPACE' ) );
#164 = ORIENTED_EDGE ( 'NONE', *, *, #42, .F. ) ;
#165 = SURFACE_SIDE_STYLE ('',( #58 ) ) ;
#166 = LINE ( 'NONE', #133, #10 ) ;
#167 = FACE_OUTER_BOUND ( 'NONE', #51, .T. ) ;
#168 =( LENGTH_UNIT ( ) NAMED_UNIT ( * ) SI_UNIT ( .MILLI., .METRE. ) );
#169 = PLANE ( 'NONE',  #129 ) ;
#170 = ADVANCED_FACE ( 'NONE', ( #134 ), #63, .F. ) ;
#171 = DIRECTION ( 'NONE',  ( 0.000000000000000000, 1.000000000000000000, 0.000000000000000000 ) ) ;
#172 = VERTEX_POINT ( 'NONE', #195 ) ;
#173 = DIRECTION ( 'NONE',  ( -0.000000000000000000, -1.000000000000000000, -0.000000000000000000 ) ) ;
#174 = EDGE_LOOP ( 'NONE', ( #178, #56, #66, #95 ) ) ;
#175 = CARTESIAN_POINT ( 'NONE',  ( 251.0000000000000000, 12.00000000000000000, 191.5000000000000000 ) ) ;
#176 =( NAMED_UNIT ( * ) PLANE_ANGLE_UNIT ( ) SI_UNIT ( $, .RADIAN. ) );
#177 = ADVANCED_FACE ( 'NONE', ( #167 ), #116, .F. ) ;
#178 = ORIENTED_EDGE ( 'NONE', *, *, #42, .T. ) ;
#179 = CARTESIAN_POINT ( 'NONE',  ( 251.0000000000000000, 0.000000000000000000, 191.5000000000000000 ) ) ;
#180 = DIRECTION ( 'NONE',  ( -1.449377316743024296E-16, 0.000000000000000000, -1.000000000000000000 ) ) ;
#181 = CARTESIAN_POINT ( 'NONE',  ( -251.0000000000000000, 12.00000000000000000, 191.5000000000000000 ) ) ;
#182 = EDGE_CURVE ( 'NONE', #113, #52, #101, .T. ) ;
#183 = CARTESIAN_POINT ( 'NONE',  ( -251.0000000000000000, 12.00000000000000000, 191.5000000000000000 ) ) ;
#184 = PRODUCT_DEFINITION_SHAPE ( 'NONE', 'NONE',  #143 ) ;
#185 = DIRECTION ( 'NONE',  ( -0.000000000000000000, -1.000000000000000000, -0.000000000000000000 ) ) ;
#186 = CARTESIAN_POINT ( 'NONE',  ( -251.0000000000000000, 0.000000000000000000, 191.5000000000000000 ) ) ;
#187 = DIRECTION ( 'NONE',  ( 1.449377316743024296E-16, 0.000000000000000000, 1.000000000000000000 ) ) ;
#188 = APPLICATION_PROTOCOL_DEFINITION ( 'draft international standard', 'automotive_design', 1998, #25 ) ;
#189 = AXIS2_PLACEMENT_3D ( 'NONE', #183, #199, #45 ) ;
#190 = LINE ( 'NONE', #117, #41 ) ;
#191 = UNCERTAINTY_MEASURE_WITH_UNIT (LENGTH_MEASURE( 1.000000000000000082E-05 ), #168, 'distance_accuracy_value', 'NONE');
#192 = CARTESIAN_POINT ( 'NONE',  ( 250.9999999999999432, 12.00000000000000000, -191.5000000000000000 ) ) ;
#193 = DIRECTION ( 'NONE',  ( -1.000000000000000000, 0.000000000000000000, 1.449377316743024296E-16 ) ) ;
#194 = PRODUCT_DEFINITION_FORMATION_WITH_SPECIFIED_SOURCE ( 'ANY', '', #32, .NOT_KNOWN. ) ;
#195 = CARTESIAN_POINT ( 'NONE',  ( 250.9999999999999432, 0.000000000000000000, -191.5000000000000000 ) ) ;
#196 =( NAMED_UNIT ( * ) PLANE_ANGLE_UNIT ( ) SI_UNIT ( $, .RADIAN. ) );
#197 = EDGE_CURVE ( 'NONE', #52, #158, #120, .T. ) ;
#198 = FILL_AREA_STYLE_COLOUR ( '', #7 ) ;
#199 = DIRECTION ( 'NONE',  ( 0.000000000000000000, 0.000000000000000000, -1.000000000000000000 ) ) ;
#200 = ORIENTED_EDGE ( 'NONE', *, *, #162, .F. ) ;
#201 = CARTESIAN_POINT ( 'NONE',  ( -251.0000000000000568, 12.00000000000000000, -191.5000000000000000 ) ) ;
#202 = EDGE_CURVE ( 'NONE', #113, #138, #87, .T. ) ;
ENDSEC;
END-ISO-10303-21;
