  0
SECTION
  2
HEADER
  9
$ACADVER
  1
AC1015
  9
$ACADMAINTVER
 70
     6
  9
$DWGCODEPAGE
  3
ANSI_1252
  9
$INSBASE
 10
0.0
 20
0.0
 30
0.0
  9
$EXTMIN
 10
-500.0
 20
-450.0
 30
0.0
  9
$EXTMAX
 10
500.0
 20
450.0
 30
0.0
  9
$LIMMIN
 10
0.0
 20
0.0
  9
$LIMMAX
 10
420.0
 20
297.0
  9
$ORTHOMODE
 70
     0
  9
$REGENMODE
 70
     1
  9
$FILLMODE
 70
     1
  9
$QTEXTMODE
 70
     0
  9
$MIRRTEXT
 70
     1
  9
$LTSCALE
 40
1.0
  9
$ATTMODE
 70
     1
  9
$TEXTSIZE
 40
3.5
  9
$TRACEWID
 40
1.0
  9
$TEXTSTYLE
  7
Standard
  9
$CLAYER
  8
0
  9
$CELTYPE
  6
ByLayer
  9
$CECOLOR
 62
   256
  9
$CELTSCALE
 40
1.0
  9
$DISPSILH
 70
     0
  9
$DIMSCALE
 40
1.0
  9
$DIMASZ
 40
3.302
  9
$DIMEXO
 40
1.0
  9
$DIMDLI
 40
3.75
  9
$DIMRND
 40
0.0
  9
$DIMDLE
 40
0.0
  9
$DIMEXE
 40
1.0
  9
$DIMTP
 40
0.0
  9
$DIMTM
 40
0.0
  9
$DIMTXT
 40
3.5
  9
$DIMCEN
 40
2.5
  9
$DIMTSZ
 40
0.0
  9
$DIMTOL
 70
     0
  9
$DIMLIM
 70
     0
  9
$DIMTIH
 70
     1
  9
$DIMTOH
 70
     1
  9
$DIMSE1
 70
     0
  9
$DIMSE2
 70
     0
  9
$DIMTAD
 70
     1
  9
$DIMZIN
 70
     1
  9
$DIMBLK
  1

  9
$DIMASO
 70
     1
  9
$DIMSHO
 70
     1
  9
$DIMPOST
  1

  9
$DIMAPOST
  1

  9
$DIMALT
 70
     0
  9
$DIMALTD
 70
     3
  9
$DIMALTF
 40
0.0393700787
  9
$DIMLFAC
 40
1.0
  9
$DIMTOFL
 70
     1
  9
$DIMTVP
 40
0.0
  9
$DIMTIX
 70
     0
  9
$DIMSOXD
 70
     0
  9
$DIMSAH
 70
     0
  9
$DIMBLK1
  1

  9
$DIMBLK2
  1

  9
$DIMSTYLE
  2
ISO-25
  9
$DIMCLRD
 70
     0
  9
$DIMCLRE
 70
     0
  9
$DIMCLRT
 70
     0
  9
$DIMTFAC
 40
1.0
  9
$DIMGAP
 40
1.524
  9
$DIMJUST
 70
     0
  9
$DIMSD1
 70
     0
  9
$DIMSD2
 70
     0
  9
$DIMTOLJ
 70
     0
  9
$DIMTZIN
 70
     1
  9
$DIMALTZ
 70
     0
  9
$DIMALTTZ
 70
     0
  9
$DIMUPT
 70
     0
  9
$DIMDEC
 70
     2
  9
$DIMTDEC
 70
     2
  9
$DIMALTU
 70
     2
  9
$DIMALTTD
 70
     3
  9
$DIMTXSTY
  7
Standard
  9
$DIMAUNIT
 70
     0
  9
$DIMADEC
 70
     2
  9
$DIMALTRND
 40
0.0
  9
$DIMAZIN
 70
     0
  9
$DIMDSEP
 70
    44
  9
$DIMATFIT
 70
     3
  9
$DIMFRAC
 70
     0
  9
$DIMLDRBLK
  1

  9
$DIMLUNIT
 70
     2
  9
$DIMLWD
 70
    -2
  9
$DIMLWE
 70
    -2
  9
$DIMTMOVE
 70
     0
  9
$LUNITS
 70
     2
  9
$LUPREC
 70
     2
  9
$SKETCHINC
 40
1.0
  9
$FILLETRAD
 40
10.0
  9
$AUNITS
 70
     0
  9
$AUPREC
 70
     2
  9
$MENU
  1
.
  9
$ELEVATION
 40
0.0
  9
$PELEVATION
 40
0.0
  9
$THICKNESS
 40
0.0
  9
$LIMCHECK
 70
     0
  9
$CHAMFERA
 40
0.0
  9
$CHAMFERB
 40
0.0
  9
$CHAMFERC
 40
0.0
  9
$CHAMFERD
 40
0.0
  9
$SKPOLY
 70
     0
  9
$TDCREATE
 40
2458778.512293159
  9
$TDUCREATE
 40
2458778.470626493
  9
$TDUPDATE
 40
2458778.512330787
  9
$TDUUPDATE
 40
2458778.47066412
  9
$TDINDWG
 40
0.0000000116
  9
$TDUSRTIMER
 40
0.0000000116
  9
$USRTIMER
 70
     1
  9
$ANGBASE
 50
0.0
  9
$ANGDIR
 70
     0
  9
$PDMODE
 70
     0
  9
$PDSIZE
 40
-1.0
  9
$PLINEWID
 40
0.0
  9
$SPLFRAME
 70
     0
  9
$SPLINETYPE
 70
     6
  9
$SPLINESEGS
 70
     8
  9
$HANDSEED
  5
41B
  9
$SURFTAB1
 70
     6
  9
$SURFTAB2
 70
     6
  9
$SURFTYPE
 70
     6
  9
$SURFU
 70
     6
  9
$SURFV
 70
     6
  9
$UCSBASE
  2

  9
$UCSNAME
  2

  9
$UCSORG
 10
0.0
 20
0.0
 30
0.0
  9
$UCSXDIR
 10
1.0
 20
0.0
 30
0.0
  9
$UCSYDIR
 10
0.0
 20
1.0
 30
0.0
  9
$UCSORTHOREF
  2

  9
$UCSORTHOVIEW
 70
     0
  9
$UCSORGTOP
 10
0.0
 20
0.0
 30
0.0
  9
$UCSORGBOTTOM
 10
0.0
 20
0.0
 30
0.0
  9
$UCSORGLEFT
 10
0.0
 20
0.0
 30
0.0
  9
$UCSORGRIGHT
 10
0.0
 20
0.0
 30
0.0
  9
$UCSORGFRONT
 10
0.0
 20
0.0
 30
0.0
  9
$UCSORGBACK
 10
0.0
 20
0.0
 30
0.0
  9
$PUCSBASE
  2

  9
$PUCSNAME
  2

  9
$PUCSORG
 10
0.0
 20
0.0
 30
0.0
  9
$PUCSXDIR
 10
1.0
 20
0.0
 30
0.0
  9
$PUCSYDIR
 10
0.0
 20
1.0
 30
0.0
  9
$PUCSORTHOREF
  2

  9
$PUCSORTHOVIEW
 70
     0
  9
$PUCSORGTOP
 10
0.0
 20
0.0
 30
0.0
  9
$PUCSORGBOTTOM
 10
0.0
 20
0.0
 30
0.0
  9
$PUCSORGLEFT
 10
0.0
 20
0.0
 30
0.0
  9
$PUCSORGRIGHT
 10
0.0
 20
0.0
 30
0.0
  9
$PUCSORGFRONT
 10
0.0
 20
0.0
 30
0.0
  9
$PUCSORGBACK
 10
0.0
 20
0.0
 30
0.0
  9
$USERI1
 70
     0
  9
$USERI2
 70
     0
  9
$USERI3
 70
     0
  9
$USERI4
 70
     0
  9
$USERI5
 70
     0
  9
$USERR1
 40
0.0
  9
$USERR2
 40
0.0
  9
$USERR3
 40
0.0
  9
$USERR4
 40
0.0
  9
$USERR5
 40
0.0
  9
$WORLDVIEW
 70
     1
  9
$SHADEDGE
 70
     3
  9
$SHADEDIF
 70
    70
  9
$TILEMODE
 70
     1
  9
$MAXACTVP
 70
    64
  9
$PINSBASE
 10
0.0
 20
0.0
 30
0.0
  9
$PLIMCHECK
 70
     0
  9
$PEXTMIN
 10
-500.0
 20
0.0
 30
0.0
  9
$PEXTMAX
 10
500.0
 20
25.0
 30
0.0
  9
$PLIMMIN
 10
-577.8210116732
 20
-29.1828793774
  9
$PLIMMAX
 10
577.8210116732
 20
787.9377431907
  9
$UNITMODE
 70
     0
  9
$VISRETAIN
 70
     1
  9
$PLINEGEN
 70
     0
  9
$PSLTSCALE
 70
     1
  9
$TREEDEPTH
 70
  3020
  9
$CMLSTYLE
  2
Standard
  9
$CMLJUST
 70
     0
  9
$CMLSCALE
 40
20.0
  9
$PROXYGRAPHICS
 70
     1
  9
$MEASUREMENT
 70
     1
  9
$CELWEIGHT
370
    -1
  9
$ENDCAPS
280
     0
  9
$JOINSTYLE
280
     0
  9
$LWDISPLAY
290
     1
  9
$INSUNITS
 70
     4
  9
$HYPERLINKBASE
  1

  9
$STYLESHEET
  1

  9
$XEDIT
290
     1
  9
$CEPSNTYPE
380
     0
  9
$PSTYLEMODE
290
     1
  9
$FINGERPRINTGUID
  2
{c06a69e4-d822-4ba6-b1ca-28e322fe86e0}
  9
$VERSIONGUID
  2
{FAEB1C32-E019-11D5-929B-00C0DF256EC4}
  9
$EXTNAMES
290
     1
  9
$PSVPSCALE
 40
0.0
  9
$OLESTARTUP
290
     0
  0
ENDSEC
  0
SECTION
  2
CLASSES
  0
CLASS
  1
ACDBDICTIONARYWDFLT
  2
AcDbDictionaryWithDefault
  3
ObjectDBX Classes
 90
        0
280
     0
281
     0
  0
CLASS
  1
VISUALSTYLE
  2
AcDbVisualStyle
  3
ObjectDBX Classes
 90
     4095
280
     0
281
     0
  0
CLASS
  1
MATERIAL
  2
AcDbMaterial
  3
ObjectDBX Classes
 90
     1153
280
     0
281
     0
  0
CLASS
  1
SCALE
  2
AcDbScale
  3
ObjectDBX Classes
 90
     1153
280
     0
281
     0
  0
CLASS
  1
TABLESTYLE
  2
AcDbTableStyle
  3
ObjectDBX Classes
 90
     4095
280
     0
281
     0
  0
CLASS
  1
MLEADERSTYLE
  2
AcDbMLeaderStyle
  3
ACDB_MLEADERSTYLE_CLASS
 90
     4095
280
     0
281
     0
  0
CLASS
  1
SUN
  2
AcDbSun
  3
SCENEOE
 90
     1153
280
     0
281
     0
  0
CLASS
  1
ACDBPLACEHOLDER
  2
AcDbPlaceHolder
  3
ObjectDBX Classes
 90
        0
280
     0
281
     0
  0
CLASS
  1
LAYOUT
  2
AcDbLayout
  3
ObjectDBX Classes
 90
        0
280
     0
281
     0
  0
ENDSEC
  0
SECTION
  2
TABLES
  0
TABLE
  2
VPORT
  5
8
330
0
100
AcDbSymbolTable
 70
     1
  0
VPORT
  5
29
330
8
100
AcDbSymbolTableRecord
100
AcDbViewportTableRecord
  2
*Active
 70
     0
 10
0.0
 20
0.0
 11
1.0
 21
1.0
 12
0.0
 22
0.0
 13
0.0
 23
0.0
 14
10.0
 24
10.0
 15
10.0
 25
10.0
 16
0.0
 26
0.0
 36
1.0
 17
0.0
 27
0.0
 37
0.0
 40
918.0
 41
1.1111111111
 42
50.0
 43
0.0
 44
0.0
 50
0.0
 51
0.0
 71
     0
 72
   100
 73
     1
 74
     3
 75
     0
 76
     0
 77
     0
 78
     0
281
     0
 65
     1
110
0.0
120
0.0
130
0.0
111
1.0
121
0.0
131
0.0
112
0.0
122
1.0
132
0.0
 79
     0
146
0.0
  0
ENDTAB
  0
TABLE
  2
LTYPE
  5
5
330
0
100
AcDbSymbolTable
 70
     6
  0
LTYPE
  5
14
330
5
100
AcDbSymbolTableRecord
100
AcDbLinetypeTableRecord
  2
ByBlock
 70
     0
  3

 72
    65
 73
     0
 40
0.0
  0
LTYPE
  5
15
330
5
100
AcDbSymbolTableRecord
100
AcDbLinetypeTableRecord
  2
ByLayer
 70
     0
  3

 72
    65
 73
     0
 40
0.0
  0
LTYPE
  5
16
330
5
100
AcDbSymbolTableRecord
100
AcDbLinetypeTableRecord
  2
Continuous
 70
     0
  3
Solid line
 72
    65
 73
     0
 40
0.0
  0
LTYPE
  5
6E
330
5
100
AcDbSymbolTableRecord
100
AcDbLinetypeTableRecord
  2
HIDDEN
 70
     0
  3
Hidden __ __ __ __ __ __ __ __ __ __ __ __ __ __
 72
    65
 73
     2
 40
1.905
 49
1.27
 74
     0
 49
-0.635
 74
     0
  0
LTYPE
  5
6F
330
5
100
AcDbSymbolTableRecord
100
AcDbLinetypeTableRecord
  2
PHANTOM
 70
     0
  3
Phantom ______  __  __  ______  __  __  ______
 72
    65
 73
     6
 40
12.7
 49
6.35
 74
     0
 49
-1.27
 74
     0
 49
1.27
 74
     0
 49
-1.27
 74
     0
 49
1.27
 74
     0
 49
-1.27
 74
     0
  0
LTYPE
  5
70
330
5
100
AcDbSymbolTableRecord
100
AcDbLinetypeTableRecord
  2
CENTER
 70
     0
  3
Center ____ _ ____ _ ____ _ ____ _ ____ _ ____
 72
    65
 73
     4
 40
10.16
 49
6.35
 74
     0
 49
-1.27
 74
     0
 49
1.27
 74
     0
 49
-1.27
 74
     0
  0
LTYPE
  5
71
330
5
100
AcDbSymbolTableRecord
100
AcDbLinetypeTableRecord
  2
CENTERX2
 70
     0
  3
Center (2x) ________  __  ________  __  _____
 72
    65
 73
     4
 40
20.32
 49
12.7
 74
     0
 49
-2.54
 74
     0
 49
2.54
 74
     0
 49
-2.54
 74
     0
  0
LTYPE
  5
72
330
5
100
AcDbSymbolTableRecord
100
AcDbLinetypeTableRecord
  2
DOT2
 70
     0
  3
Dot (.5x) ........................................
 72
    65
 73
     2
 40
0.635
 49
0.0
 74
     0
 49
-0.635
 74
     0
  0
ENDTAB
  0
TABLE
  2
LAYER
  5
2
330
0
100
AcDbSymbolTable
 70
     1
  0
LAYER
  5
10
330
2
100
AcDbSymbolTableRecord
100
AcDbLayerTableRecord
  2
0
 70
     0
 62
     7
  6
Continuous
370
    -3
390
F
  0
ENDTAB
  0
TABLE
  2
STYLE
  5
3
330
0
100
AcDbSymbolTable
 70
     1
  0
STYLE
  5
11
330
3
100
AcDbSymbolTableRecord
100
AcDbTextStyleTableRecord
  2
Standard
 70
     0
 40
0.0
 41
1.0
 50
0.0
 71
     0
 42
3.5
  3
txt
  4

  0
ENDTAB
  0
TABLE
  2
VIEW
  5
6
330
0
100
AcDbSymbolTable
 70
     0
  0
ENDTAB
  0
TABLE
  2
UCS
  5
7
330
0
100
AcDbSymbolTable
 70
     0
  0
ENDTAB
  0
TABLE
  2
APPID
  5
9
330
0
100
AcDbSymbolTable
 70
     1
  0
APPID
  5
12
330
9
100
AcDbSymbolTableRecord
100
AcDbRegAppTableRecord
  2
ACAD
 70
     0
  0
ENDTAB
  0
TABLE
  2
DIMSTYLE
  5
A
330
0
100
AcDbSymbolTable
 70
     1
100
AcDbDimStyleTable
  0
DIMSTYLE
105
27
330
A
100
AcDbSymbolTableRecord
100
AcDbDimStyleTableRecord
  2
ISO-25
 70
     0
 41
2.5
 42
0.625
 43
3.75
 44
1.25
 73
     0
 74
     0
 77
     1
 78
     8
140
2.5
141
2.5
143
0.0393700787
147
0.625
171
     3
172
     1
178
     0
271
     2
272
     2
274
     3
278
    44
283
     0
284
     8
340
11
  0
ENDTAB
  0
TABLE
  2
BLOCK_RECORD
  5
1
330
0
100
AcDbSymbolTable
 70
     7
  0
BLOCK_RECORD
  5
1F
330
1
100
AcDbSymbolTableRecord
100
AcDbBlockTableRecord
  2
*Model_Space
340
22
  0
BLOCK_RECORD
  5
1B
330
1
100
AcDbSymbolTableRecord
100
AcDbBlockTableRecord
  2
*Paper_Space
340
1E
  0
BLOCK_RECORD
  5
23
330
1
100
AcDbSymbolTableRecord
100
AcDbBlockTableRecord
  2
*Paper_Space0
340
26
  0
BLOCK_RECORD
  5
144
330
1
100
AcDbSymbolTableRecord
100
AcDbBlockTableRecord
  2
*Paper_Space1
340
145
  0
BLOCK_RECORD
  5
160
330
1
100
AcDbSymbolTableRecord
100
AcDbBlockTableRecord
  2
*Paper_Space2
340
161
  0
BLOCK_RECORD
  5
17C
330
1
100
AcDbSymbolTableRecord
100
AcDbBlockTableRecord
  2
*Paper_Space3
340
17D
  0
BLOCK_RECORD
  5
191
330
1
100
AcDbSymbolTableRecord
100
AcDbBlockTableRecord
  2
*Paper_Space4
340
192
  0
BLOCK_RECORD
  5
275
330
1
100
AcDbSymbolTableRecord
100
AcDbBlockTableRecord
  2
*Paper_Space5
340
276
  0
BLOCK_RECORD
  5
348
330
1
100
AcDbSymbolTableRecord
100
AcDbBlockTableRecord
  2
*Paper_Space6
340
349
  0
ENDTAB
  0
ENDSEC
  0
SECTION
  2
BLOCKS
  0
BLOCK
  5
20
330
1F
100
AcDbEntity
  8
0
100
AcDbBlockBegin
  2
*Model_Space
 70
     0
 10
0.0
 20
0.0
 30
0.0
  3
*Model_Space
  1

  0
ENDBLK
  5
21
330
1F
100
AcDbEntity
  8
0
100
AcDbBlockEnd
  0
BLOCK
  5
1C
330
1B
100
AcDbEntity
 67
     1
  8
0
100
AcDbBlockBegin
  2
*Paper_Space
 70
     0
 10
0.0
 20
0.0
 30
0.0
  3
*Paper_Space
  1

  0
ENDBLK
  5
1D
330
1B
100
AcDbEntity
 67
     1
  8
0
100
AcDbBlockEnd
  0
BLOCK
  5
24
330
23
100
AcDbEntity
  8
0
100
AcDbBlockBegin
  2
*Paper_Space0
 70
     0
 10
0.0
 20
0.0
 30
0.0
  3
*Paper_Space0
  1

  0
LINE
  5
13B
330
23
100
AcDbEntity
  8
0
  6
Continuous
 62
     7
370
    25
100
AcDbLine
 10
-495.0
 20
25.0
 30
0.0
 11
-495.0
 21
0.0
 31
0.0
  0
LINE
  5
13C
330
23
100
AcDbEntity
  8
0
  6
Continuous
 62
     7
370
    25
100
AcDbLine
 10
495.0
 20
0.0
 30
0.0
 11
495.0
 21
25.0
 31
0.0
  0
LINE
  5
13D
330
23
100
AcDbEntity
  8
0
  6
Continuous
 62
     7
370
    25
100
AcDbLine
 10
500.0
 20
20.0
 30
0.0
 11
-500.0
 21
20.0
 31
0.0
  0
LINE
  5
13E
330
23
100
AcDbEntity
  8
0
  6
Continuous
 62
     7
370
    25
100
AcDbLine
 10
500.0
 20
20.0
 30
0.0
 11
500.0
 21
0.0
 31
0.0
  0
LINE
  5
13F
330
23
100
AcDbEntity
  8
0
  6
Continuous
 62
     7
370
    25
100
AcDbLine
 10
-500.0
 20
0.0
 30
0.0
 11
500.0
 21
0.0
 31
0.0
  0
LINE
  5
140
330
23
100
AcDbEntity
  8
0
  6
Continuous
 62
     7
370
    25
100
AcDbLine
 10
-495.0
 20
25.0
 30
0.0
 11
495.0
 21
25.0
 31
0.0
  0
LINE
  5
141
330
23
100
AcDbEntity
  8
0
  6
Continuous
 62
     7
370
    25
100
AcDbLine
 10
-500.0
 20
0.0
 30
0.0
 11
-500.0
 21
20.0
 31
0.0
  0
ARC
  5
142
330
23
100
AcDbEntity
  8
0
  6
Continuous
 62
     7
370
    25
100
AcDbCircle
 10
-495.0
 20
20.0
 30
0.0
 40
5.0
100
AcDbArc
 50
90.0
 51
180.0
  0
ARC
  5
143
330
23
100
AcDbEntity
  8
0
  6
Continuous
 62
     7
370
    25
100
AcDbCircle
 10
495.0
 20
20.0
 30
0.0
 40
5.0
100
AcDbArc
 50
0.0
 51
90.0
  0
VIEWPORT
  5
40D
330
23
100
AcDbEntity
  8
0
100
AcDbViewport
 10
0.0
 20
0.0
 30
0.0
 40
205.6
 41
156.0
 68
     1
 69
     1
 12
0.0
 22
0.0
 13
0.0
 23
0.0
 14
10.0
 24
10.0
 15
10.0
 25
10.0
 16
0.0
 26
0.0
 36
1.0
 17
0.0
 27
0.0
 37
0.0
 42
50.0
 43
0.0
 44
0.0
 45
918.0
 50
0.0
 51
0.0
 72
   100
 90
   557152
  1

281
     0
 71
     1
 74
     0
110
0.0
120
0.0
130
0.0
111
1.0
121
0.0
131
0.0
112
0.0
122
1.0
132
0.0
 79
     0
146
0.0
  0
ENDBLK
  5
25
330
23
100
AcDbEntity
  8
0
100
AcDbBlockEnd
  0
BLOCK
  5
146
330
144
100
AcDbEntity
  8
0
100
AcDbBlockBegin
  2
*Paper_Space1
 70
     0
 10
0.0
 20
0.0
 30
0.0
  3
*Paper_Space1
  1

  0
LINE
  5
157
330
144
100
AcDbEntity
  8
0
  6
Continuous
 62
     7
370
    25
100
AcDbLine
 10
-445.0
 20
25.0
 30
0.0
 11
445.0
 21
25.0
 31
0.0
  0
LINE
  5
158
330
144
100
AcDbEntity
  8
0
  6
Continuous
 62
     7
370
    25
100
AcDbLine
 10
445.0
 20
0.0
 30
0.0
 11
445.0
 21
25.0
 31
0.0
  0
LINE
  5
159
330
144
100
AcDbEntity
  8
0
  6
Continuous
 62
     7
370
    25
100
AcDbLine
 10
450.0
 20
20.0
 30
0.0
 11
-450.0
 21
20.0
 31
0.0
  0
LINE
  5
15A
330
144
100
AcDbEntity
  8
0
  6
Continuous
 62
     7
370
    25
100
AcDbLine
 10
-445.0
 20
25.0
 30
0.0
 11
-445.0
 21
0.0
 31
0.0
  0
LINE
  5
15B
330
144
100
AcDbEntity
  8
0
  6
Continuous
 62
     7
370
    25
100
AcDbLine
 10
-450.0
 20
0.0
 30
0.0
 11
-450.0
 21
20.0
 31
0.0
  0
LINE
  5
15C
330
144
100
AcDbEntity
  8
0
  6
Continuous
 62
     7
370
    25
100
AcDbLine
 10
-450.0
 20
0.0
 30
0.0
 11
450.0
 21
0.0
 31
0.0
  0
LINE
  5
15D
330
144
100
AcDbEntity
  8
0
  6
Continuous
 62
     7
370
    25
100
AcDbLine
 10
450.0
 20
20.0
 30
0.0
 11
450.0
 21
0.0
 31
0.0
  0
ARC
  5
15E
330
144
100
AcDbEntity
  8
0
  6
Continuous
 62
     7
370
    25
100
AcDbCircle
 10
445.0
 20
20.0
 30
0.0
 40
5.0
100
AcDbArc
 50
0.0
 51
90.0
  0
ARC
  5
15F
330
144
100
AcDbEntity
  8
0
  6
Continuous
 62
     7
370
    25
100
AcDbCircle
 10
-445.0
 20
20.0
 30
0.0
 40
5.0
100
AcDbArc
 50
90.0
 51
180.0
  0
VIEWPORT
  5
40F
330
144
100
AcDbEntity
  8
0
100
AcDbViewport
 10
0.0
 20
0.0
 30
0.0
 40
205.6
 41
156.0
 68
     1
 69
     1
 12
0.0
 22
0.0
 13
0.0
 23
0.0
 14
10.0
 24
10.0
 15
10.0
 25
10.0
 16
0.0
 26
0.0
 36
1.0
 17
0.0
 27
0.0
 37
0.0
 42
50.0
 43
0.0
 44
0.0
 45
918.0
 50
0.0
 51
0.0
 72
   100
 90
   557152
  1

281
     0
 71
     1
 74
     0
110
0.0
120
0.0
130
0.0
111
1.0
121
0.0
131
0.0
112
0.0
122
1.0
132
0.0
 79
     0
146
0.0
  0
ENDBLK
  5
147
330
144
100
AcDbEntity
  8
0
100
AcDbBlockEnd
  0
BLOCK
  5
162
330
160
100
AcDbEntity
  8
0
100
AcDbBlockBegin
  2
*Paper_Space2
 70
     0
 10
0.0
 20
0.0
 30
0.0
  3
*Paper_Space2
  1

  0
LINE
  5
173
330
160
100
AcDbEntity
  8
0
  6
Continuous
 62
     7
370
    25
100
AcDbLine
 10
-445.0
 20
25.0
 30
0.0
 11
445.0
 21
25.0
 31
0.0
  0
LINE
  5
174
330
160
100
AcDbEntity
  8
0
  6
Continuous
 62
     7
370
    25
100
AcDbLine
 10
445.0
 20
0.0
 30
0.0
 11
445.0
 21
25.0
 31
0.0
  0
LINE
  5
175
330
160
100
AcDbEntity
  8
0
  6
Continuous
 62
     7
370
    25
100
AcDbLine
 10
450.0
 20
20.0
 30
0.0
 11
-450.0
 21
20.0
 31
0.0
  0
LINE
  5
176
330
160
100
AcDbEntity
  8
0
  6
Continuous
 62
     7
370
    25
100
AcDbLine
 10
-445.0
 20
25.0
 30
0.0
 11
-445.0
 21
0.0
 31
0.0
  0
LINE
  5
177
330
160
100
AcDbEntity
  8
0
  6
Continuous
 62
     7
370
    25
100
AcDbLine
 10
-450.0
 20
0.0
 30
0.0
 11
450.0
 21
0.0
 31
0.0
  0
LINE
  5
178
330
160
100
AcDbEntity
  8
0
  6
Continuous
 62
     7
370
    25
100
AcDbLine
 10
-450.0
 20
0.0
 30
0.0
 11
-450.0
 21
20.0
 31
0.0
  0
LINE
  5
179
330
160
100
AcDbEntity
  8
0
  6
Continuous
 62
     7
370
    25
100
AcDbLine
 10
450.0
 20
20.0
 30
0.0
 11
450.0
 21
0.0
 31
0.0
  0
ARC
  5
17A
330
160
100
AcDbEntity
  8
0
  6
Continuous
 62
     7
370
    25
100
AcDbCircle
 10
-445.0
 20
20.0
 30
0.0
 40
5.0
100
AcDbArc
 50
90.0
 51
180.0
  0
ARC
  5
17B
330
160
100
AcDbEntity
  8
0
  6
Continuous
 62
     7
370
    25
100
AcDbCircle
 10
445.0
 20
20.0
 30
0.0
 40
5.0
100
AcDbArc
 50
0.0
 51
90.0
  0
VIEWPORT
  5
411
330
160
100
AcDbEntity
  8
0
100
AcDbViewport
 10
0.0
 20
0.0
 30
0.0
 40
205.6
 41
156.0
 68
     1
 69
     1
 12
0.0
 22
0.0
 13
0.0
 23
0.0
 14
10.0
 24
10.0
 15
10.0
 25
10.0
 16
0.0
 26
0.0
 36
1.0
 17
0.0
 27
0.0
 37
0.0
 42
50.0
 43
0.0
 44
0.0
 45
918.0
 50
0.0
 51
0.0
 72
   100
 90
   557152
  1

281
     0
 71
     1
 74
     0
110
0.0
120
0.0
130
0.0
111
1.0
121
0.0
131
0.0
112
0.0
122
1.0
132
0.0
 79
     0
146
0.0
  0
ENDBLK
  5
163
330
160
100
AcDbEntity
  8
0
100
AcDbBlockEnd
  0
BLOCK
  5
17E
330
17C
100
AcDbEntity
  8
0
100
AcDbBlockBegin
  2
*Paper_Space3
 70
     0
 10
0.0
 20
0.0
 30
0.0
  3
*Paper_Space3
  1

  0
CIRCLE
  5
188
330
17C
100
AcDbEntity
  8
0
  6
Continuous
 62
     7
370
    25
100
AcDbCircle
 10
0.0
 20
-285.0
 30
0.0
 40
44.99999999999989
  0
LINE
  5
189
330
17C
100
AcDbEntity
  8
0
  6
Continuous
 62
     7
370
    25
100
AcDbLine
 10
-495.0
 20
450.0
 30
0.0
 11
495.0
 21
450.0
 31
0.0
  0
LINE
  5
18A
330
17C
100
AcDbEntity
  8
0
  6
Continuous
 62
     7
370
    25
100
AcDbLine
 10
-500.0
 20
-445.0
 30
0.0
 11
-500.0
 21
445.0
 31
0.0
  0
LINE
  5
18B
330
17C
100
AcDbEntity
  8
0
  6
Continuous
 62
     7
370
    25
100
AcDbLine
 10
495.0
 20
-450.0
 30
0.0
 11
-495.0
 21
-450.0
 31
0.0
  0
LINE
  5
18C
330
17C
100
AcDbEntity
  8
0
  6
Continuous
 62
     7
370
    25
100
AcDbLine
 10
500.0
 20
445.0
 30
0.0
 11
500.0
 21
-445.0
 31
0.0
  0
ARC
  5
18D
330
17C
100
AcDbEntity
  8
0
  6
Continuous
 62
     7
370
    25
100
AcDbCircle
 10
-495.0
 20
445.0
 30
0.0
 40
5.0
100
AcDbArc
 50
90.0
 51
180.0
  0
ARC
  5
18E
330
17C
100
AcDbEntity
  8
0
  6
Continuous
 62
     7
370
    25
100
AcDbCircle
 10
495.0
 20
445.0
 30
0.0
 40
5.0
100
AcDbArc
 50
0.0
 51
90.0
  0
ARC
  5
18F
330
17C
100
AcDbEntity
  8
0
  6
Continuous
 62
     7
370
    25
100
AcDbCircle
 10
495.0
 20
-445.0
 30
0.0
 40
5.0
100
AcDbArc
 50
270.0
 51
0.0
  0
ARC
  5
190
330
17C
100
AcDbEntity
  8
0
  6
Continuous
 62
     7
370
    25
100
AcDbCircle
 10
-495.0
 20
-445.0
 30
0.0
 40
5.0
100
AcDbArc
 50
180.0
 51
270.0
  0
VIEWPORT
  5
413
330
17C
100
AcDbEntity
  8
0
100
AcDbViewport
 10
0.0
 20
0.0
 30
0.0
 40
205.6
 41
156.0
 68
     1
 69
     1
 12
0.0
 22
0.0
 13
0.0
 23
0.0
 14
10.0
 24
10.0
 15
10.0
 25
10.0
 16
0.0
 26
0.0
 36
1.0
 17
0.0
 27
0.0
 37
0.0
 42
50.0
 43
0.0
 44
0.0
 45
918.0
 50
0.0
 51
0.0
 72
   100
 90
   557152
  1

281
     0
 71
     1
 74
     0
110
0.0
120
0.0
130
0.0
111
1.0
121
0.0
131
0.0
112
0.0
122
1.0
132
0.0
 79
     0
146
0.0
  0
ENDBLK
  5
17F
330
17C
100
AcDbEntity
  8
0
100
AcDbBlockEnd
  0
BLOCK
  5
193
330
191
100
AcDbEntity
  8
0
100
AcDbBlockBegin
  2
*Paper_Space4
 70
     0
 10
0.0
 20
0.0
 30
0.0
  3
*Paper_Space4
  1

  0
SPLINE
  5
195
330
191
100
AcDbEntity
  8
0
  6
Continuous
 62
     7
370
    25
100
AcDbSpline
210
0.0
220
0.0
230
1.0
 70
     8
 71
     3
 72
    14
 73
    10
 74
     0
 42
0.000000001
 43
0.00000001
 40
0.0
 40
0.0
 40
0.0
 40
0.0
 40
0.0921576924548193
 40
0.248975888339421
 40
0.4215221065608052
 40
0.6064499300097779
 40
0.7941582977256106
 40
0.9519955072591748
 40
1.0
 40
1.0
 40
1.0
 40
1.0
 10
37.18384745143649
 20
-318.2968300082907
 30
0.0
 10
37.11135407175864
 20
-318.335356688738
 30
0.0
 10
36.9155038597661
 20
-318.4394414833292
 30
0.0
 10
36.41572719625486
 20
-318.6043574021808
 30
0.0
 10
35.69154809674541
 20
-318.7152080992779
 30
0.0
 10
34.87410450124523
 20
-318.7051896347031
 30
0.0
 10
34.14292382513429
 20
-318.5671534373772
 30
0.0
 10
33.71634568813869
 20
-318.4014455576004
 30
0.0
 10
33.56266958316134
 20
-318.3166137059628
 30
0.0
 10
33.52683066721618
 20
-318.2968300082907
 30
0.0
  0
SPLINE
  5
199
330
191
100
AcDbEntity
  8
0
  6
Continuous
 62
     7
370
    25
100
AcDbSpline
210
0.0
220
0.0
230
1.0
 70
     8
 71
     3
 72
     9
 73
     5
 74
     0
 42
0.000000001
 43
0.00000001
 40
0.0
 40
0.0
 40
0.0
 40
0.0
 40
0.557881520681675
 40
1.0
 40
1.0
 40
1.0
 40
1.0
 10
586.1325957046104
 20
-1.355557640453975
 30
0.0
 10
586.1275149473759
 20
-1.366009503702248
 30
0.0
 10
586.1184077139466
 20
-1.384744419380246
 30
0.0
 10
585.9660637388162
 20
-1.485802830176547
 30
0.0
 10
585.8987096521985
 20
-1.530482621080048
 30
0.0
  0
SPLINE
  5
19D
330
191
100
AcDbEntity
  8
0
  6
Continuous
 62
     7
370
    25
100
AcDbSpline
210
0.0
220
0.0
230
1.0
 70
     8
 71
     3
 72
     9
 73
     5
 74
     0
 42
0.000000001
 43
0.00000001
 40
0.0
 40
0.0
 40
0.0
 40
0.0
 40
0.3767948999165374
 40
1.0
 40
1.0
 40
1.0
 40
1.0
 10
-585.8987096521986
 20
39.28992297005651
 30
0.0
 10
-585.9568594880011
 20
39.32761760962921
 30
0.0
 10
-586.1111870434312
 20
39.427657816068
 30
0.0
 10
-586.1290189124215
 20
39.455248077748
 30
0.0
 10
-586.1401318241203
 20
39.47244246953965
 30
0.0
  0
SPLINE
  5
1A0
330
191
100
AcDbEntity
  8
0
  6
Continuous
 62
     7
370
    25
100
AcDbSpline
210
0.0
220
0.0
230
1.0
 70
     8
 71
     3
 72
    30
 73
    26
 74
     0
 42
0.000000001
 43
0.00000001
 40
0.0
 40
0.0
 40
0.0
 40
0.0
 40
0.0356435939289381
 40
0.0811773933728943
 40
0.1266628385355148
 40
0.1720393876380444
 40
0.2169163700462881
 40
0.2619137823848031
 40
0.3073604808101645
 40
0.353077152952564
 40
0.39885871706037
 40
0.4444334043587047
 40
0.4896049600916988
 40
0.5342279579006032
 40
0.5786746781148818
 40
0.6235696883553323
 40
0.668891581183307
 40
0.7145011949965012
 40
0.7602582039908707
 40
0.80603379164654
 40
0.8517156309356627
 40
0.8972807521669989
 40
0.943018131116127
 40
0.9896383299597374
 40
0.9999999999999999
 40
0.9999999999999999
 40
0.9999999999999999
 40
0.9999999999999999
 10
204.443473058508
 20
90.7492172132836
 30
0.0
 10
203.3315169181766
 20
90.72190396967227
 30
0.0
 10
200.7990646296379
 20
90.6596987407229
 30
0.0
 10
196.8442893472715
 20
90.7747232083079
 30
0.0
 10
192.6129482924163
 20
91.05726366907267
 30
0.0
 10
188.4503863149608
 20
91.52171406470156
 30
0.0
 10
184.3768873317383
 20
92.16148103126037
 30
0.0
 10
180.3955170669394
 20
92.97097407998928
 30
0.0
 10
176.504816350276
 20
93.94920410904068
 30
0.0
 10
172.7286092683598
 20
95.09191723896367
 30
0.0
 10
169.1068006569449
 20
96.38842722421131
 30
0.0
 10
165.6778499567738
 20
97.82509061737055
 30
0.0
 10
162.4756004515348
 20
99.38591031093652
 30
0.0
 10
159.5191076162698
 20
101.0607203281714
 30
0.0
 10
156.8016980316439
 20
102.8483320681168
 30
0.0
 10
154.3134948926088
 20
104.7475945632527
 30
0.0
 10
152.0615545871491
 20
106.7535445129443
 30
0.0
 10
150.066071750929
 20
108.8494656778947
 30
0.0
 10
148.3465403131273
 20
111.0156942873773
 30
0.0
 10
146.9181374368486
 20
113.2319892358895
 30
0.0
 10
145.7937161461424
 20
115.479044908017
 30
0.0
 10
144.9716982584216
 20
117.7470119030145
 30
0.0
 10
144.4710933768411
 20
120.0487562063324
 30
0.0
 10
144.2520158561832
 20
121.7677412988649
 30
0.0
 10
144.2983025217223
 20
122.7209170620405
 30
0.0
 10
144.3067193596565
 20
122.8942439981669
 30
0.0
  0
SPLINE
  5
1A1
330
191
100
AcDbEntity
  8
0
  6
Continuous
 62
     7
370
    25
100
AcDbSpline
210
0.0
220
0.0
230
1.0
 70
     8
 71
     3
 72
    28
 73
    24
 74
     0
 42
0.000000001
 43
0.00000001
 40
0.0
 40
0.0
 40
0.0
 40
0.0
 40
0.0067421109454777
 40
0.0602345252222946
 40
0.1137086675497748
 40
0.1669491865100213
 40
0.2198495839584635
 40
0.2723479655004242
 40
0.3244030447433041
 40
0.3759855828591889
 40
0.427080284421506
 40
0.4776919694255371
 40
0.5277839379400517
 40
0.5773555396780793
 40
0.6272603525382304
 40
0.6777437090367034
 40
0.7287754046360994
 40
0.7802893196944122
 40
0.8321875930542685
 40
0.884348238656376
 40
0.9366344391175377
 40
0.9888695693608739
 40
1.0
 40
1.0
 40
1.0
 40
1.0
 10
258.4654767034798
 20
120.3493834054239
 30
0.0
 10
258.4553688992901
 20
120.2498774991042
 30
0.0
 10
258.3650650180097
 20
119.3608842635362
 30
0.0
 10
257.8967494787846
 20
117.6829945591932
 30
0.0
 10
257.0409666838103
 20
115.3308772069177
 30
0.0
 10
255.8487360636489
 20
113.0110020307038
 30
0.0
 10
254.3686857880668
 20
110.7425594175609
 30
0.0
 10
252.6014756521405
 20
108.542714384589
 30
0.0
 10
250.5626078116652
 20
106.427578801902
 30
0.0
 10
248.2656052254434
 20
104.4121957746661
 30
0.0
 10
245.7260556844469
 20
102.5103988983355
 30
0.0
 10
242.9615890677658
 20
100.735079764734
 30
0.0
 10
239.9905575040223
 20
99.09852068171455
 30
0.0
 10
236.8200209383405
 20
97.59863071692473
 30
0.0
 10
233.4511299858334
 20
96.23066298028003
 30
0.0
 10
229.8783191175941
 20
94.99354521957478
 30
0.0
 10
226.1156494723333
 20
93.89538637452313
 30
0.0
 10
222.1861188456655
 20
92.94574640489898
 30
0.0
 10
218.1161479693225
 20
92.15524721723936
 30
0.0
 10
213.9357737792823
 20
91.52678506439344
 30
0.0
 10
209.6764337942801
 20
91.08667694425311
 30
0.0
 10
206.5016238998053
 20
90.85018765704073
 30
0.0
 10
204.7522615592962
 20
90.81767474176561
 30
0.0
 10
204.4449786137566
 20
90.81196370972697
 30
0.0
  0
SPLINE
  5
1A2
330
191
100
AcDbEntity
  8
0
  6
Continuous
 62
     7
370
    25
100
AcDbSpline
210
0.0
220
0.0
230
1.0
 70
     8
 71
     3
 72
    36
 73
    32
 74
     0
 42
0.000000001
 43
0.00000001
 40
0.0
 40
0.0
 40
0.0
 40
0.0
 40
0.009971314686125
 40
0.0469752577782747
 40
0.0838288885683594
 40
0.1202956274885434
 40
0.1563204230148297
 40
0.1919712274320663
 40
0.2273581374982963
 40
0.2625837769346788
 40
0.2977260699489477
 40
0.3328376632244306
 40
0.367946188024438
 40
0.4030697517682473
 40
0.4382195936912201
 40
0.4733997896989722
 40
0.5086099857029684
 40
0.5438471955139424
 40
0.5791069333283972
 40
0.614383898356326
 40
0.6496723687100664
 40
0.6849664129397783
 40
0.720259798047376
 40
0.7555445993296327
 40
0.7908146953841726
 40
0.8260640016609238
 40
0.8612865986317375
 40
0.8964769901245178
 40
0.9316305745847602
 40
0.9667444519672779
 40
1.0
 40
1.0
 40
1.0
 40
1.0
 10
246.491899100897
 20
118.9231713858654
 30
0.0
 10
246.4972633869758
 20
118.736590672145
 30
0.0
 10
246.5225347508115
 20
117.8576015519177
 30
0.0
 10
246.253424200469
 20
116.2895211617585
 30
0.0
 10
245.673777485395
 20
114.2313980691609
 30
0.0
 10
244.7608792818171
 20
112.2057968182542
 30
0.0
 10
243.5554650114996
 20
110.229686443959
 30
0.0
 10
242.0604443336809
 20
108.3160851243167
 30
0.0
 10
240.2884873342446
 20
106.476076812879
 30
0.0
 10
238.2497875923843
 20
104.7205693000917
 30
0.0
 10
235.9564845173896
 20
103.06095447175
 30
0.0
 10
233.4225621051365
 20
101.5090563519349
 30
0.0
 10
230.6642741013638
 20
100.0766272488477
 30
0.0
 10
227.6999584801585
 20
98.77488843923588
 30
0.0
 10
224.5497081257074
 20
97.61418268936956
 30
0.0
 10
221.2352515840165
 20
96.60383492756256
 30
0.0
 10
217.7798052908527
 20
95.75202712323528
 30
0.0
 10
214.2078128886908
 20
95.06567864579985
 30
0.0
 10
210.5446964545884
 20
94.55037021837035
 30
0.0
 10
206.8166217814566
 20
94.21029659482197
 30
0.0
 10
203.0502768157505
 20
94.04823795600977
 30
0.0
 10
199.2726660193653
 20
94.06554270548645
 30
0.0
 10
195.5109667184161
 20
94.26211552021604
 30
0.0
 10
191.7922477436114
 20
94.63639749685866
 30
0.0
 10
188.1433016463787
 20
95.18539285435529
 30
0.0
 10
184.5902186622295
 20
95.90460566034142
 30
0.0
 10
181.1588749537713
 20
96.78837042244295
 30
0.0
 10
177.8723732132914
 20
97.8286662788867
 30
0.0
 10
174.7595544553079
 20
99.01963429353997
 30
0.0
 10
171.8729012383825
 20
100.3180962179258
 30
0.0
 10
170.1361198673753
 20
101.276418615053
 30
0.0
 10
169.2913326550347
 20
101.7425558732637
 30
0.0
  0
SPLINE
  5
1A3
330
191
100
AcDbEntity
  8
0
  6
Continuous
 62
     7
370
    25
100
AcDbSpline
210
0.0
220
0.0
230
1.0
 70
     8
 71
     3
 72
    17
 73
    13
 74
     0
 42
0.000000001
 43
0.00000001
 40
0.0
 40
0.0
 40
0.0
 40
0.0
 40
0.0544958180883291
 40
0.1583693357892957
 40
0.2622106920789625
 40
0.3660817156105832
 40
0.4701213052641923
 40
0.5745397227352076
 40
0.679623521218751
 40
0.785707132194318
 40
0.8930753935741331
 40
1.0
 40
1.0
 40
1.0
 40
1.0
 10
169.2913326550347
 20
101.7425558732637
 30
0.0
 10
168.841770070564
 20
102.008928044104
 30
0.0
 10
167.5353041728883
 20
102.7830275117063
 30
0.0
 10
165.5501586637162
 20
104.1497415103847
 30
0.0
 10
163.4327053243138
 20
105.8633921190455
 30
0.0
 10
161.5841386141997
 20
107.6597963755109
 30
0.0
 10
160.0102988814898
 20
109.5230494590894
 30
0.0
 10
158.7196329952685
 20
111.441173259269
 30
0.0
 10
157.714712989708
 20
113.4036389053879
 30
0.0
 10
157.007283052223
 20
115.4028251732963
 30
0.0
 10
156.5762136244827
 20
117.4219828218927
 30
0.0
 10
156.5455574040877
 20
118.7742492898349
 30
0.0
 10
156.5302610279936
 20
119.4489827111951
 30
0.0
  0
SPLINE
  5
1A4
330
191
100
AcDbEntity
  8
0
  6
Continuous
 62
     7
370
    25
100
AcDbSpline
210
0.0
220
0.0
230
1.0
 70
     8
 71
     3
 72
     9
 73
     5
 74
     0
 42
0.000000001
 43
0.00000001
 40
0.0
 40
0.0
 40
0.0
 40
0.0
 40
0.7033899988372649
 40
1.0
 40
1.0
 40
1.0
 40
1.0
 10
204.4507830056035
 20
90.73234861793021
 30
0.0
 10
204.4493046790037
 20
90.73230458462807
 30
0.0
 10
204.447202962172
 20
90.73224198308091
 30
0.0
 10
204.4451012270427
 20
90.73218311343389
 30
0.0
 10
204.4444778313836
 20
90.73216565210782
 30
0.0
  0
SPLINE
  5
1A5
330
191
100
AcDbEntity
  8
0
  6
Continuous
 62
     7
370
    25
100
AcDbSpline
210
0.0
220
0.0
230
1.0
 70
     8
 71
     3
 72
     9
 73
     5
 74
     0
 42
0.000000001
 43
0.00000001
 40
0.0
 40
0.0
 40
0.0
 40
0.0
 40
0.3952001360989802
 40
1.0
 40
1.0
 40
1.0
 40
1.0
 10
258.7291115000589
 20
123.3533192864494
 30
0.0
 10
258.7487386607751
 20
122.9706590884021
 30
0.0
 10
258.7984025118809
 20
122.0023896899536
 30
0.0
 10
258.6563043141887
 20
121.0353096235202
 30
0.0
 10
258.5703633435639
 20
120.4504197309598
 30
0.0
  0
SPLINE
  5
1A6
330
191
100
AcDbEntity
  8
0
  6
Continuous
 62
     7
370
    25
100
AcDbSpline
210
0.0
220
0.0
230
1.0
 70
     8
 71
     3
 72
     9
 73
     5
 74
     0
 42
0.000000001
 43
0.00000001
 40
0.0
 40
0.0
 40
0.0
 40
0.0
 40
0.7892754296894843
 40
1.0
 40
1.0
 40
1.0
 40
1.0
 10
258.6054483095229
 20
120.4649603523873
 30
0.0
 10
258.6044320703331
 20
120.4575698770589
 30
0.0
 10
258.603144510691
 20
120.448206256895
 30
0.0
 10
258.6018274733656
 20
120.438999184169
 30
0.0
 10
258.601549941241
 20
120.4370590277249
 30
0.0
  0
SPLINE
  5
1C2
330
191
100
AcDbEntity
  8
0
  6
Continuous
 62
     7
370
    25
100
AcDbSpline
210
0.0
220
0.0
230
1.0
 70
     8
 71
     3
 72
    38
 73
    34
 74
     0
 42
0.000000001
 43
0.00000001
 40
0.0
 40
0.0
 40
0.0
 40
0.0
 40
0.1250000000000007
 40
0.1250000000000007
 40
0.1875000000000011
 40
0.1875000000000011
 40
0.2187500000000012
 40
0.2187500000000012
 40
0.2500000000000014
 40
0.2500000000000014
 40
0.3750000000000008
 40
0.3750000000000008
 40
0.4062500000000007
 40
0.4062500000000007
 40
0.4375000000000005
 40
0.4375000000000005
 40
0.5000000000000002
 40
0.5000000000000002
 40
0.5625
 40
0.5625
 40
0.5937499999999999
 40
0.5937499999999999
 40
0.6249999999999998
 40
0.6249999999999998
 40
0.7499999999999997
 40
0.7499999999999997
 40
0.7812499999999998
 40
0.7812499999999998
 40
0.8124999999999999
 40
0.8124999999999999
 40
0.8750000000000001
 40
0.8750000000000001
 40
1.0
 40
1.0
 40
1.0
 40
1.0
 10
204.5011055157586
 20
90.38263835568623
 30
0.0
 10
200.3436076852785
 20
90.262808462856
 30
0.0
 10
196.2381893469521
 20
90.39533251817694
 30
0.0
 10
190.1550759681507
 20
90.95760526182204
 30
0.0
 10
188.1399784321345
 20
91.20611751973713
 30
0.0
 10
185.136797846972
 20
91.67318877815282
 30
0.0
 10
184.1371963346791
 20
91.8450542236822
 30
0.0
 10
182.1673488535704
 20
92.2165340807529
 30
0.0
 10
181.1945037378969
 20
92.41649224398999
 30
0.0
 10
176.3895958051241
 20
93.4861019260161
 30
0.0
 10
172.7335655571368
 20
94.56293472062258
 30
0.0
 10
168.4007771458441
 20
96.18819965544094
 30
0.0
 10
167.545153683265
 20
96.52779823444321
 30
0.0
 10
165.8629142332142
 20
97.23397455954502
 30
0.0
 10
165.0415621936116
 20
97.59829185250828
 30
0.0
 10
162.6355240155769
 20
98.72420607057433
 30
0.0
 10
161.1087008089215
 20
99.51867168225509
 30
0.0
 10
158.2065869846583
 20
101.1936861542968
 30
0.0
 10
156.8312984172986
 20
102.0742362351435
 30
0.0
 10
154.8835995935491
 20
103.4605220419472
 30
0.0
 10
154.2536107149352
 20
103.9335506459501
 30
0.0
 10
153.0328722025794
 20
104.9018979186933
 30
0.0
 10
152.4418191538591
 20
105.3976836854265
 30
0.0
 10
149.6196862571965
 20
107.9032814664574
 30
0.0
 10
147.7543478259888
 20
110.0144113180021
 30
0.0
 10
145.9034186946011
 20
112.7840046958915
 30
0.0
 10
145.5575172922581
 20
113.3445255452797
 30
0.0
 10
144.9150386299844
 20
114.4789796022067
 30
0.0
 10
144.6178987413827
 20
115.0541395991828
 30
0.0
 10
143.8061590345616
 20
116.7917034629465
 30
0.0
 10
143.3747141418077
 20
117.9571057449306
 30
0.0
 10
142.3993004785426
 20
121.4737758687275
 30
0.0
 10
142.1707545895906
 20
123.8452820066204
 30
0.0
 10
142.3792398651288
 20
126.2448280476182
 30
0.0
  0
SPLINE
  5
1C3
330
191
100
AcDbEntity
  8
0
  6
Continuous
 62
     7
370
    25
100
AcDbSpline
210
0.0
220
0.0
230
1.0
 70
     8
 71
     3
 72
     8
 73
     4
 74
     0
 42
0.000000001
 43
0.00000001
 40
0.0000000000000102
 40
0.0000000000000102
 40
0.0000000000000102
 40
0.0000000000000102
 40
0.0000062809730629
 40
0.0000062809730629
 40
0.0000062809730629
 40
0.0000062809730629
 10
204.5073536561135
 20
90.38300537705994
 30
0.0
 10
204.5052709577599
 20
90.38288247137561
 30
0.0
 10
204.5031882441343
 20
90.38276013088458
 30
0.0
 10
204.5011055157585
 20
90.38263835568641
 30
0.0
  0
SPLINE
  5
1C4
330
191
100
AcDbEntity
  8
0
  6
Continuous
 62
     7
370
    25
100
AcDbSpline
210
0.0
220
0.0
230
1.0
 70
     8
 71
     3
 72
    34
 73
    30
 74
     0
 42
0.000000001
 43
0.00000001
 40
0.0
 40
0.0
 40
0.0
 40
0.0
 40
0.1250000000000092
 40
0.1250000000000092
 40
0.1875000000000138
 40
0.1875000000000138
 40
0.2187500000000152
 40
0.2187500000000152
 40
0.2500000000000167
 40
0.2500000000000167
 40
0.3750000000000168
 40
0.3750000000000168
 40
0.4375000000000169
 40
0.4375000000000169
 40
0.500000000000017
 40
0.500000000000017
 40
0.6250000000000172
 40
0.6250000000000172
 40
0.6875000000000162
 40
0.6875000000000162
 40
0.7187500000000149
 40
0.7187500000000149
 40
0.7500000000000135
 40
0.7500000000000135
 40
0.875000000000008
 40
0.875000000000008
 40
0.9375000000000043
 40
0.9375000000000043
 40
1.0
 40
1.0
 40
1.0
 40
1.0
 10
260.5223115911612
 20
121.7945914782147
 30
0.0
 10
260.2313136209519
 20
119.7344063137797
 30
0.0
 10
259.6235555691418
 20
117.7204860513834
 30
0.0
 10
258.2569730471247
 20
114.7658345366577
 30
0.0
 10
257.7251214930048
 20
113.7920680637773
 30
0.0
 10
256.8111584446917
 20
112.3483069227254
 30
0.0
 10
256.4871108240442
 20
111.8698730242327
 30
0.0
 10
255.7995788449066
 20
110.9187432132922
 30
0.0
 10
255.4352827266216
 20
110.4451563224865
 30
0.0
 10
253.5319910360325
 20
108.114241148788
 30
0.0
 10
251.7401380549497
 20
106.3522470616958
 30
0.0
 10
248.6605456613217
 20
103.8590255525309
 30
0.0
 10
247.5682882675621
 20
103.0530896146261
 30
0.0
 10
245.2494780300077
 20
101.4925807894427
 30
0.0
 10
244.0174708545723
 20
100.7354289773659
 30
0.0
 10
240.1876666931659
 20
98.58512623255515
 30
0.0
 10
237.4410542684454
 20
97.29923891614126
 30
0.0
 10
233.0361823469942
 20
95.58808346960943
 30
0.0
 10
231.5201108129144
 20
95.05421421542773
 30
0.0
 10
229.1723318123686
 20
94.30969595393125
 30
0.0
 10
228.3758046383454
 20
94.07050249957234
 30
0.0
 10
226.7731864365033
 20
93.6155804908672
 30
0.0
 10
225.9656587305262
 20
93.3993434454939
 30
0.0
 10
221.897447152974
 20
92.3733527630718
 30
0.0
 10
218.5457629262116
 20
91.7278848381293
 30
0.0
 10
213.3734933178699
 20
91.02093497869346
 30
0.0
 10
211.6251368242441
 20
90.82909345192039
 30
0.0
 10
208.0782393950531
 20
90.53598047955789
 30
0.0
 10
206.2965793807453
 20
90.43612068529563
 30
0.0
 10
204.5073536561133
 20
90.38300537706064
 30
0.0
  0
SPLINE
  5
1C5
330
191
100
AcDbEntity
  8
0
  6
Continuous
 62
     7
370
    25
100
AcDbSpline
210
0.0
220
0.0
230
1.0
 70
     8
 71
     3
 72
    16
 73
    12
 74
     0
 42
0.000000001
 43
0.00000001
 40
0.0
 40
0.0
 40
0.0
 40
0.0
 40
0.5
 40
0.5
 40
0.7499999999999999
 40
0.7499999999999999
 40
0.875
 40
0.875
 40
0.9375
 40
0.9375
 40
1.0
 40
1.0
 40
1.0
 40
1.0
 10
580.4498991428055
 20
-1.734832380051649
 30
0.0
 10
527.0869801535054
 20
18.81984003582163
 30
0.0
 10
473.7314705698391
 20
39.38041905802363
 30
0.0
 10
393.7287594432945
 20
70.24571802708061
 30
0.0
 10
367.0662221280303
 20
80.5381664642297
 30
0.0
 10
327.0885494437024
 20
95.98979334504655
 30
0.0
 10
313.7652776431952
 20
101.1424303238566
 30
0.0
 10
293.7883532279815
 20
108.8779147475078
 30
0.0
 10
287.1306971895209
 20
111.4574865780839
 30
0.0
 10
273.8205533519169
 20
116.6209602461154
 30
0.0
 10
267.1674787181042
 20
119.2043172584145
 30
0.0
 10
260.5223115911605
 20
121.7945914782145
 30
0.0
  0
LWPOLYLINE
  5
1C6
330
191
100
AcDbEntity
  8
0
  6
Continuous
 62
     7
370
    25
100
AcDbPolyline
 90
        7
 70
   128
 43
0.0
 10
-35.3927111981
 20
353.8951796092
 10
-38.2211627584
 20
352.2623508704
 10
-49.5349679822
 20
345.7310364443
 10
-94.7901686093
 20
319.6057891914
 10
-275.8103916732
 20
215.1050940871
 10
-429.4582839537
 20
126.4060254518
 10
-583.1053688638
 20
37.7073718443
  0
LWPOLYLINE
  5
1C7
330
191
100
AcDbEntity
  8
0
  6
Continuous
 62
     7
370
    25
100
AcDbPolyline
 90
        3
 70
   128
 43
0.0
 10
-31.7349490127
 20
351.6719579851
 10
-34.562412963
 20
353.3905138101
 10
-35.3927111981
 20
353.8951796092
  0
SPLINE
  5
1C8
330
191
100
AcDbEntity
  8
0
  6
Continuous
 62
     7
370
    25
100
AcDbSpline
210
0.0
220
0.0
230
1.0
 70
     8
 71
     3
 72
    16
 73
    12
 74
     0
 42
0.000000001
 43
0.00000001
 40
0.0
 40
0.0
 40
0.0
 40
0.0
 40
0.0624999999999999
 40
0.0624999999999999
 40
0.1249999999999999
 40
0.1249999999999999
 40
0.2499999999999999
 40
0.2499999999999999
 40
0.4999999999999999
 40
0.4999999999999999
 40
1.0
 40
1.0
 40
1.0
 40
1.0
 10
196.7490420489513
 20
158.6101163444606
 30
0.0
 10
191.961041080491
 20
162.6200695574654
 30
0.0
 10
187.18405571775
 20
166.6351457103876
 30
0.0
 10
177.6356711710049
 20
174.6676195565787
 30
0.0
 10
172.8650899601514
 20
178.6854286415587
 30
0.0
 10
158.5588860422544
 20
190.7411728785724
 30
0.0
 10
149.0288594999256
 20
198.7814641750011
 30
0.0
 10
120.4497602218543
 20
222.9068192120459
 30
0.0
 10
101.412060034318
 20
238.9965562469085
 30
0.0
 10
44.32012848116981
 20
287.2743096561039
 30
0.0
 10
6.287394791155143
 20
319.4710410398156
 30
0.0
 10
-31.73494901271329
 20
351.6719579850814
 30
0.0
  0
SPLINE
  5
1C9
330
191
100
AcDbEntity
  8
0
  6
Continuous
 62
     7
370
    25
100
AcDbSpline
210
0.0
220
0.0
230
1.0
 70
     8
 71
     3
 72
    34
 73
    30
 74
     0
 42
0.000000001
 43
0.00000001
 40
0.0
 40
0.0
 40
0.0
 40
0.0
 40
0.1249999999999971
 40
0.1249999999999971
 40
0.1874999999999957
 40
0.1874999999999957
 40
0.2187499999999959
 40
0.2187499999999959
 40
0.2499999999999961
 40
0.2499999999999961
 40
0.3749999999999968
 40
0.3749999999999968
 40
0.4374999999999962
 40
0.4374999999999962
 40
0.4999999999999956
 40
0.4999999999999956
 40
0.6249999999999943
 40
0.6249999999999943
 40
0.6874999999999937
 40
0.6874999999999937
 40
0.7187499999999934
 40
0.7187499999999934
 40
0.7499999999999931
 40
0.7499999999999931
 40
0.8749999999999958
 40
0.8749999999999958
 40
0.9374999999999979
 40
0.9374999999999979
 40
1.0
 40
1.0
 40
1.0
 40
1.0
 10
142.3798812301337
 20
126.2484317915122
 30
0.0
 10
142.5618384858448
 20
128.3154191078012
 30
0.0
 10
143.063238285172
 20
130.3413629363162
 30
0.0
 10
144.2745345854983
 20
133.3213430995592
 30
0.0
 10
144.7553108975938
 20
134.3047866628617
 30
0.0
 10
145.5937563511261
 20
135.7648916105111
 30
0.0
 10
145.89281425658
 20
136.2490797811938
 30
0.0
 10
146.5307463526575
 20
137.2123466990465
 30
0.0
 10
146.8703992411569
 20
137.6923467092034
 30
0.0
 10
148.6525754255061
 20
140.0565934295749
 30
0.0
 10
150.3532527148781
 20
141.8492148649821
 30
0.0
 10
153.3042167184531
 20
144.3944464376334
 30
0.0
 10
154.3549244537305
 20
145.2187640523109
 30
0.0
 10
156.5932898942133
 20
146.8181320734188
 30
0.0
 10
157.786320627199
 20
147.5958818035865
 30
0.0
 10
161.5054626025303
 20
149.810217157223
 30
0.0
 10
164.1856573447169
 20
151.141934581105
 30
0.0
 10
168.5014715494819
 20
152.9265257270827
 30
0.0
 10
169.9896064268236
 20
153.4857034282867
 30
0.0
 10
172.2981375418089
 20
154.2694050966958
 30
0.0
 10
173.0820199298353
 20
154.5218966689782
 30
0.0
 10
174.6605946929168
 20
155.0036042761006
 30
0.0
 10
175.4566661292792
 20
155.2333428813233
 30
0.0
 10
179.4703790285135
 20
156.3273974629056
 30
0.0
 10
182.787250528085
 20
157.0291197436795
 30
0.0
 10
187.9204736369068
 20
157.8229239399496
 30
0.0
 10
189.6580160429959
 20
158.0441677705394
 30
0.0
 10
193.1878531387854
 20
158.3969660391571
 30
0.0
 10
194.9634492094322
 20
158.5268321213032
 30
0.0
 10
196.7490420489843
 20
158.6101163444334
 30
0.0
  0
SPLINE
  5
1CA
330
191
100
AcDbEntity
  8
0
  6
Continuous
 62
     7
370
    25
100
AcDbSpline
210
0.0
220
0.0
230
1.0
 70
     8
 71
     3
 72
    14
 73
    10
 74
     0
 42
0.000000001
 43
0.00000001
 40
0.0
 40
0.0
 40
0.0
 40
0.0
 40
0.5
 40
0.5
 40
0.75
 40
0.75
 40
0.875
 40
0.875
 40
1.0
 40
1.0
 40
1.0
 40
1.0
 10
-583.1053688637904
 20
37.70737184425491
 30
0.0
 10
-462.1960241874985
 20
52.47668430410944
 30
0.0
 10
-341.2865088643532
 20
67.2455356373095
 30
0.0
 10
-159.919902664613
 20
89.39271623503438
 30
0.0
 10
-99.46405557474272
 20
96.77428504082546
 30
0.0
 10
-8.777850848370031
 20
107.840380969855
 30
0.0
 10
21.45126923391823
 20
111.5280845863905
 30
0.0
 10
81.91197574141165
 20
118.897258475424
 30
0.0
 10
112.1428182452185
 20
122.5805268756033
 30
0.0
 10
142.3798812301359
 20
126.2484317915128
 30
0.0
  0
SPLINE
  5
1CB
330
191
100
AcDbEntity
  8
0
  6
Continuous
 62
     7
370
    25
100
AcDbSpline
210
0.0
220
0.0
230
1.0
 70
     8
 71
     3
 72
     8
 73
     4
 74
     0
 42
0.000000001
 43
0.00000001
 40
0.0
 40
0.0
 40
0.0
 40
0.0
 40
0.0000062809730722
 40
0.0000062809730722
 40
0.0000062809730722
 40
0.0000062809730722
 10
142.3792398651289
 20
126.2448280476183
 30
0.0
 10
142.3794535035993
 20
126.2460288254535
 30
0.0
 10
142.3796672919532
 20
126.2472300735409
 30
0.0
 10
142.379881230133
 20
126.2484317915123
 30
0.0
  0
SPLINE
  5
1CC
330
191
100
AcDbEntity
  8
0
  6
Continuous
 62
     7
370
    25
100
AcDbSpline
210
0.0
220
0.0
230
1.0
 70
     8
 71
     3
 72
     8
 73
     4
 74
     0
 42
0.000000001
 43
0.00000001
 40
0.0000000000000299
 40
0.0000000000000299
 40
0.0000000000000299
 40
0.0000000000000299
 40
0.0000355828292625
 40
0.0000355828292625
 40
0.0000355828292625
 40
0.0000355828292625
 10
260.5222070524229
 20
121.815079515235
 30
0.0
 10
260.5222461886443
 20
121.8082388858709
 30
0.0
 10
260.5222810353443
 20
121.8014095247414
 30
0.0
 10
260.5223115911674
 20
121.7945914782149
 30
0.0
  0
SPLINE
  5
1CD
330
191
100
AcDbEntity
  8
0
  6
Continuous
 62
     7
370
    25
100
AcDbSpline
210
0.0
220
0.0
230
1.0
 70
     8
 71
     3
 72
    16
 73
    12
 74
     0
 42
0.000000001
 43
0.00000001
 40
0.0
 40
0.0
 40
0.0
 40
0.0
 40
0.0625000000000001
 40
0.0625000000000001
 40
0.1250000000000002
 40
0.1250000000000002
 40
0.2500000000000002
 40
0.2500000000000002
 40
0.5000000000000001
 40
0.5000000000000001
 40
1.0
 40
1.0
 40
1.0
 40
1.0
 10
260.5222070524013
 20
121.8150795152169
 30
0.0
 10
267.0997070316517
 20
119.3217588176394
 30
0.0
 10
273.6696340743615
 20
116.822690057643
 30
0.0
 10
286.8055540945138
 20
111.8218144275653
 30
0.0
 10
293.3709915037313
 20
109.3195636430032
 30
0.0
 10
313.0633659397988
 20
101.8100476174061
 30
0.0
 10
326.1863247706836
 20
96.79997181741574
 30
0.0
 10
365.5472022417924
 20
81.76374491585229
 30
0.0
 10
391.7768442792357
 20
71.73132774814859
 30
0.0
 10
470.4502696034404
 20
41.62005373819925
 30
0.0
 10
522.8784265495775
 20
21.52713927698976
 30
0.0
 10
575.2993156705797
 20
1.425882725807986
 30
0.0
  0
SPLINE
  5
1CE
330
191
100
AcDbEntity
  8
0
  6
Continuous
 62
     7
370
    25
100
AcDbSpline
210
0.0
220
0.0
230
1.0
 70
     8
 71
     3
 72
     8
 73
     4
 74
     0
 42
0.000000001
 43
0.00000001
 40
0.0
 40
0.0
 40
0.0
 40
0.0
 40
1.0
 40
1.0
 40
1.0
 40
1.0
 10
580.4498991428051
 20
-1.734832380052231
 30
0.0
 10
578.7334565228585
 20
-0.7148049835268844
 30
0.0
 10
577.0163992688254
 20
0.338495041832948
 30
0.0
 10
575.2993156705787
 20
1.425882725806876
 30
0.0
  0
SPLINE
  5
1CF
330
191
100
AcDbEntity
  8
0
  6
Continuous
 62
     7
370
    25
100
AcDbSpline
210
0.0
220
0.0
230
1.0
 70
     8
 71
     3
 72
    52
 73
    48
 74
     0
 42
0.000000001
 43
0.00000001
 40
0.0
 40
0.0
 40
0.0
 40
0.0
 40
0.0624999999999986
 40
0.0624999999999986
 40
0.1249999999999973
 40
0.1249999999999973
 40
0.1874999999999959
 40
0.1874999999999959
 40
0.2187499999999956
 40
0.2187499999999956
 40
0.2499999999999954
 40
0.2499999999999954
 40
0.2812499999999951
 40
0.2812499999999951
 40
0.3124999999999948
 40
0.3124999999999948
 40
0.3749999999999947
 40
0.3749999999999947
 40
0.4374999999999946
 40
0.4374999999999946
 40
0.4687499999999946
 40
0.4687499999999946
 40
0.4999999999999947
 40
0.4999999999999947
 40
0.5624999999999947
 40
0.5624999999999947
 40
0.5937499999999947
 40
0.5937499999999947
 40
0.6249999999999946
 40
0.6249999999999946
 40
0.6562499999999946
 40
0.6562499999999946
 40
0.6874999999999944
 40
0.6874999999999944
 40
0.7499999999999948
 40
0.7499999999999948
 40
0.7812499999999952
 40
0.7812499999999952
 40
0.8124999999999957
 40
0.8124999999999957
 40
0.8437499999999961
 40
0.8437499999999961
 40
0.8749999999999964
 40
0.8749999999999964
 40
0.9374999999999982
 40
0.9374999999999982
 40
1.0
 40
1.0
 40
1.0
 40
1.0
 10
196.7846246646536
 20
158.610002625696
 30
0.0
 10
198.9207707548772
 20
158.7097007131615
 30
0.0
 10
201.0459747119047
 20
158.7417897702241
 30
0.0
 10
205.2752285424025
 20
158.675736257232
 30
0.0
 10
207.3792756156666
 20
158.5775735652322
 30
0.0
 10
211.5661339482857
 20
158.2513485895748
 30
0.0
 10
213.6489508316261
 20
158.0232984709394
 30
0.0
 10
216.7565693178962
 20
157.5802769072866
 30
0.0
 10
217.7885539536521
 20
157.4157988592625
 30
0.0
 10
219.8273070682038
 20
157.0560178760575
 30
0.0
 10
220.8364846473599
 20
156.8604109243738
 30
0.0
 10
222.8344572378001
 20
156.4378167145757
 30
0.0
 10
223.8232495448264
 20
156.2108277552782
 30
0.0
 10
225.7803472201617
 20
155.7252826072679
 30
0.0
 10
226.7484650630889
 20
155.4666730217606
 30
0.0
 10
229.5956158002711
 20
154.6511579459346
 30
0.0
 10
231.4268307911613
 20
154.0524696262112
 30
0.0
 10
234.9638050992601
 20
152.7479273058663
 30
0.0
 10
236.6696860730603
 20
152.042034956716
 30
0.0
 10
239.1372500096313
 20
150.9001451195017
 30
0.0
 10
239.9445093610686
 20
150.505611352643
 30
0.0
 10
241.5282400823935
 20
149.687816425918
 30
0.0
 10
242.3060950254363
 20
149.2636971664856
 30
0.0
 10
244.5764882621795
 20
147.9564584957734
 30
0.0
 10
246.0095530857947
 20
147.0369558599114
 30
0.0
 10
248.0374052252263
 20
145.5877569173771
 30
0.0
 10
248.69384977114
 20
145.0923724445217
 30
0.0
 10
249.9594066878912
 20
144.0830974137704
 30
0.0
 10
250.5687794652184
 20
143.5691059188797
 30
0.0
 10
251.7399965590565
 20
142.5229625135995
 30
0.0
 10
252.3018443707721
 20
141.9908192589035
 30
0.0
 10
253.3767747784304
 20
140.9085830659511
 30
0.0
 10
253.8905706564697
 20
140.3576126746003
 30
0.0
 10
255.3503540394552
 20
138.6850713556021
 30
0.0
 10
256.2148437012358
 20
137.5445512648016
 30
0.0
 10
257.3472586854651
 20
135.7958973097071
 30
0.0
 10
257.6976922175225
 20
135.2060048992203
 30
0.0
 10
258.3413916379341
 20
134.0169066867135
 30
0.0
 10
258.6345026552036
 20
133.4180812686883
 30
0.0
 10
259.1634941245592
 20
132.2117836980649
 30
0.0
 10
259.3990406181404
 20
131.6047769334854
 30
0.0
 10
259.8103036135428
 20
130.3909415515241
 30
0.0
 10
259.986517609515
 20
129.7830312013012
 30
0.0
 10
260.4285404759027
 20
127.9562345672343
 30
0.0
 10
260.6079700629994
 20
126.734299691348
 30
0.0
 10
260.7382112218779
 20
124.2815379471876
 30
0.0
 10
260.6890463574981
 20
123.0507149204223
 30
0.0
 10
260.5222070523592
 20
121.8150795152333
 30
0.0
  0
SPLINE
  5
1D0
330
191
100
AcDbEntity
  8
0
  6
Continuous
 62
     7
370
    25
100
AcDbSpline
210
0.0
220
0.0
230
1.0
 70
     8
 71
     3
 72
    16
 73
    12
 74
     0
 42
0.000000001
 43
0.00000001
 40
0.0
 40
0.0
 40
0.0
 40
0.0
 40
0.5
 40
0.5
 40
0.7500000000000001
 40
0.7500000000000001
 40
0.8750000000000001
 40
0.8750000000000001
 40
0.9375
 40
0.9375
 40
1.0
 40
1.0
 40
1.0
 40
1.0
 10
-26.14921161677269
 20
348.6347269807457
 30
0.0
 10
11.06579775484251
 20
316.9902814859918
 30
0.0
 10
48.2704371043598
 20
285.3392851402955
 30
0.0
 10
104.0332742337246
 20
237.8421574696995
 30
0.0
 10
122.6135763829292
 20
222.0063443860379
 30
0.0
 10
150.460879718319
 20
198.2441161843791
 30
0.0
 10
159.7395482259584
 20
190.322007787311
 30
0.0
 10
173.6463611161686
 20
178.435123978556
 30
0.0
 10
178.2801158805357
 20
174.4722175462395
 30
0.0
 10
187.5405037846382
 20
166.5439774507325
 30
0.0
 10
192.167925329803
 20
162.5789527637922
 30
0.0
 10
196.7846246646519
 20
158.6100026256963
 30
0.0
  0
SPLINE
  5
1D1
330
191
100
AcDbEntity
  8
0
  6
Continuous
 62
     7
370
    25
100
AcDbSpline
210
0.0
220
0.0
230
1.0
 70
     8
 71
     3
 72
    14
 73
    10
 74
     0
 42
0.000000001
 43
0.00000001
 40
0.0
 40
0.0
 40
0.0
 40
0.0
 40
0.2500000000000001
 40
0.2500000000000001
 40
0.5000000000000001
 40
0.5000000000000001
 40
0.75
 40
0.75
 40
1.0
 40
1.0
 40
1.0
 40
1.0
 10
575.2993156705791
 20
1.425882725807043
 30
0.0
 10
525.1954461514921
 20
30.35568825965604
 30
0.0
 10
475.0950424378726
 20
59.28562304803721
 30
0.0
 10
374.8889844389556
 20
117.1485271950371
 30
0.0
 10
324.7818759199171
 20
146.0815348555605
 30
0.0
 10
224.5404455112587
 20
203.9496808735036
 30
0.0
 10
174.406130446503
 20
232.8848152902491
 30
0.0
 10
74.12935044930808
 20
290.7581900017439
 30
0.0
 10
23.98833798190692
 20
319.6963930161847
 30
0.0
 10
-26.14921161677575
 20
348.6347269807444
 30
0.0
  0
SPLINE
  5
1D9
330
191
100
AcDbEntity
  8
0
  6
Continuous
 62
     7
370
    25
100
AcDbSpline
210
0.0
220
0.0
230
1.0
 70
     8
 71
     3
 72
     8
 73
     4
 74
     0
 42
0.000000001
 43
0.00000001
 40
0.0
 40
0.0
 40
0.0
 40
0.0
 40
1.0
 40
1.0
 40
1.0
 40
1.0
 10
576.4954975660041
 20
3.730528558810842
 30
0.0
 10
578.2728091953991
 20
2.705111665997878
 30
0.0
 10
580.0500058762057
 20
1.707059849230225
 30
0.0
 10
581.8266953701254
 20
0.7356368030118632
 30
0.0
  0
SPLINE
  5
1DA
330
191
100
AcDbEntity
  8
0
  6
Continuous
 62
     7
370
    25
100
AcDbSpline
210
0.0
220
0.0
230
1.0
 70
     8
 71
     3
 72
    10
 73
     6
 74
     0
 42
0.000000001
 43
0.00000001
 40
0.0
 40
0.0
 40
0.0
 40
0.0
 40
0.5
 40
0.5
 40
1.0
 40
1.0
 40
1.0
 40
1.0
 10
-24.95220824050454
 20
350.93889858295
 30
0.0
 10
75.28907269314658
 20
293.0368140430232
 30
0.0
 10
175.5303513480587
 20
235.1197268716445
 30
0.0
 10
376.0129235504629
 20
119.3836014475418
 30
0.0
 10
476.254211298654
 20
61.56456654957612
 30
0.0
 10
576.4954975660042
 20
3.730528558810814
 30
0.0
  0
SPLINE
  5
1DB
330
191
100
AcDbEntity
  8
0
  6
Continuous
 62
     7
370
    25
100
AcDbSpline
210
0.0
220
0.0
230
1.0
 70
     8
 71
     3
 72
     8
 73
     4
 74
     0
 42
0.000000001
 43
0.00000001
 40
0.0
 40
0.0
 40
0.0
 40
0.0
 40
1.0
 40
1.0
 40
1.0
 40
1.0
 10
-30.28340604459323
 20
354.0992767931648
 30
0.0
 10
-28.50671680007821
 20
353.0193779649124
 30
0.0
 10
-26.72951906927978
 20
351.9655215560703
 30
0.0
 10
-24.95220824050454
 20
350.93889858295
 30
0.0
  0
SPLINE
  5
1E6
330
191
100
AcDbEntity
  8
0
  6
Continuous
 62
     7
370
    25
100
AcDbSpline
210
0.0
220
0.0
230
1.0
 70
     8
 71
     3
 72
     8
 73
     4
 74
     0
 42
0.000000001
 43
0.00000001
 40
0.0
 40
0.0
 40
0.0
 40
0.0
 40
0.0004706759155861
 40
0.0004706759155861
 40
0.0004706759155861
 40
0.0004706759155861
 10
-584.8150188324668
 20
39.94577526762444
 30
0.0
 10
-584.7040945167829
 20
40.00769959769593
 30
0.0
 10
-584.5931513898372
 20
40.07068904646744
 30
0.0
 10
-584.4822120126239
 20
40.13473190919764
 30
0.0
  0
LWPOLYLINE
  5
1E9
330
191
100
AcDbEntity
  8
0
  6
Continuous
 62
     7
370
    25
100
AcDbPolyline
 90
        3
 70
   128
 43
0.0
 10
-584.4822120126
 20
40.1347319092
 10
-311.1269837336
 20
197.9377668682
 10
-36.7695526217
 20
356.3225104805
  0
SPLINE
  5
1EB
330
191
100
AcDbEntity
  8
0
  6
Continuous
 62
     7
370
    25
100
AcDbSpline
210
0.0
220
0.0
230
1.0
 70
     8
 71
     3
 72
     8
 73
     4
 74
     0
 42
0.000000001
 43
0.00000001
 40
0.0
 40
0.0
 40
0.0
 40
0.0
 40
0.000007164891806
 40
0.000007164891806
 40
0.000007164891806
 40
0.000007164891806
 10
144.3480945360732
 20
124.5587021679914
 30
0.0
 10
144.347974245632
 20
124.5573243507811
 30
0.0
 10
144.3478541044294
 20
124.55594710375
 30
0.0
 10
144.3477341124981
 20
124.5545704273307
 30
0.0
  0
SPLINE
  5
1EC
330
191
100
AcDbEntity
  8
0
  6
Continuous
 62
     7
370
    25
100
AcDbSpline
210
0.0
220
0.0
230
1.0
 70
     8
 71
     3
 72
    34
 73
    30
 74
     0
 42
0.000000001
 43
0.00000001
 40
0.0
 40
0.0
 40
0.0
 40
0.0
 40
0.0624999999999997
 40
0.0624999999999997
 40
0.1249999999999994
 40
0.1249999999999994
 40
0.2499999999999989
 40
0.2499999999999989
 40
0.2812499999999987
 40
0.2812499999999987
 40
0.3124999999999985
 40
0.3124999999999985
 40
0.3749999999999981
 40
0.3749999999999981
 40
0.4999999999999952
 40
0.4999999999999952
 40
0.5624999999999948
 40
0.5624999999999948
 40
0.6249999999999943
 40
0.6249999999999943
 40
0.7499999999999954
 40
0.7499999999999954
 40
0.7812499999999953
 40
0.7812499999999953
 40
0.8124999999999952
 40
0.8124999999999952
 40
0.8749999999999968
 40
0.8749999999999968
 40
1.0
 40
1.0
 40
1.0
 40
1.0
 10
196.9046200724912
 20
155.8614921372256
 30
0.0
 10
195.177725918012
 20
155.7814980841823
 30
0.0
 10
193.4604774663577
 20
155.6564039964672
 30
0.0
 10
190.0465795384164
 20
155.3160617610554
 30
0.0
 10
188.3661411591261
 20
155.1024475970104
 30
0.0
 10
183.4017392829875
 20
154.3355625375178
 30
0.0
 10
180.1940901687059
 20
153.6571682425802
 30
0.0
 10
176.3127788988697
 20
152.5989463866421
 30
0.0
 10
175.5429774321249
 20
152.3767147732132
 30
0.0
 10
174.0165157316317
 20
151.9107120156585
 30
0.0
 10
173.2585074433317
 20
151.666430391423
 30
0.0
 10
171.0262566671519
 20
150.9081770412978
 30
0.0
 10
169.5874166045122
 20
150.3671187342116
 30
0.0
 10
165.4148971501474
 20
148.6402843040153
 30
0.0
 10
162.8240756731537
 20
147.3516318370299
 30
0.0
 10
159.2294438107519
 20
145.208973058843
 30
0.0
 10
158.0764061880026
 20
144.4564025982943
 30
0.0
 10
155.913198570168
 20
142.908861405971
 30
0.0
 10
154.8978546612081
 20
142.111289011428
 30
0.0
 10
152.0464445013101
 20
139.648748185354
 30
0.0
 10
150.4034167704879
 20
137.9145291458925
 30
0.0
 10
148.6820071078659
 20
135.6275266180112
 30
0.0
 10
148.353952000674
 20
135.1632129791595
 30
0.0
 10
147.7378288332994
 20
134.231426522441
 30
0.0
 10
147.4490149202546
 20
133.7630699554806
 30
0.0
 10
146.6393557008052
 20
132.3507289158879
 30
0.0
 10
146.1751798433191
 20
131.3994862036512
 30
0.0
 10
145.0060494571702
 20
128.5171639591992
 30
0.0
 10
144.5226195781465
 20
126.5577272300832
 30
0.0
 10
144.3480945360732
 20
124.5587021679914
 30
0.0
  0
SPLINE
  5
1ED
330
191
100
AcDbEntity
  8
0
  6
Continuous
 62
     7
370
    25
100
AcDbSpline
210
0.0
220
0.0
230
1.0
 70
     8
 71
     3
 72
     8
 73
     4
 74
     0
 42
0.000000001
 43
0.00000001
 40
0.0
 40
0.0
 40
0.0
 40
0.0
 40
0.0000390615927951
 40
0.0000390615927951
 40
0.0000390615927951
 40
0.0000390615927951
 10
196.9435552848063
 20
155.8633286669329
 30
0.0
 10
196.9305765475102
 20
155.8627054954158
 30
0.0
 10
196.9175981208037
 20
155.8620933128579
 30
0.0
 10
196.9046200724911
 20
155.8614921372256
 30
0.0
  0
LWPOLYLINE
  5
1EF
330
191
100
AcDbEntity
  8
0
  6
Continuous
 62
     7
370
    25
100
AcDbPolyline
 90
        3
 70
   128
 43
0.0
 10
144.2754326382
 20
122.4622120239
 10
144.4519152819
 20
125.0552632882
 10
144.7265747852
 20
126.6031095629
  0
LWPOLYLINE
  5
1F0
330
191
100
AcDbEntity
  8
0
  6
Continuous
 62
     7
370
    25
100
AcDbPolyline
 90
        3
 70
   128
 43
0.0
 10
258.3469682556
 20
126.4980927253
 10
258.5989499944
 20
125.0552632882
 10
258.7754326382
 20
122.4622120239
  0
LWPOLYLINE
  5
1F2
330
191
100
AcDbEntity
  8
0
  6
Continuous
 62
     7
370
    25
100
AcDbPolyline
 90
       73
 70
   128
 43
0.0
 10
168.2914139224
 20
101.6435397723
 10
165.5213438116
 20
103.3886811381
 10
163.0252865566
 20
105.2665548537
 10
160.8222386603
 20
107.2628691661
 10
158.9289666474
 20
109.362430918
 10
157.3598794612
 20
111.5492611768
 10
156.1269188026
 20
113.8067168437
 10
155.2394682466
 20
116.117617318
 10
154.7042818279
 20
118.4643752518
 10
154.5254326382
 20
120.8291304001
 10
154.7042818279
 20
123.1938855484
 10
155.2394682466
 20
125.5406434822
 10
156.1269188026
 20
127.8515439565
 10
157.3598794612
 20
130.1089996234
 10
158.9289666474
 20
132.2958298822
 10
160.8222386603
 20
134.3953916341
 10
163.0252865566
 20
136.3917059465
 10
165.5213438116
 20
138.2695796621
 10
168.2914139224
 20
140.0147210279
 10
171.3144149829
 20
141.6138484645
 10
174.5673401297
 20
143.0547916465
 10
178.0254326382
 20
144.3265841262
 10
181.6623743364
 20
145.4195467948
 10
185.4504859019
 20
146.3253615466
 10
189.3609375183
 20
147.0371345843
 10
193.3639682878
 20
147.5494488854
 10
197.429112729
 20
147.8584054286
 10
201.5254326382
 20
147.9616528681
 10
205.6217525473
 20
147.8584054286
 10
209.6868969885
 20
147.5494488854
 10
213.689927758
 20
147.0371345843
 10
217.6003793745
 20
146.3253615466
 10
221.38849094
 20
145.4195467948
 10
225.0254326382
 20
144.3265841262
 10
228.4835251467
 20
143.0547916465
 10
231.7364502934
 20
141.6138484645
 10
234.7594513539
 20
140.0147210279
 10
237.5295214648
 20
138.2695796621
 10
240.0255787197
 20
136.3917059465
 10
242.228626616
 20
134.3953916341
 10
244.1218986289
 20
132.2958298822
 10
245.6909858151
 20
130.1089996234
 10
246.9239464738
 20
127.8515439565
 10
247.8113970297
 20
125.5406434822
 10
248.3465834485
 20
123.1938855484
 10
248.5254326382
 20
120.8291304001
 10
248.3465834485
 20
118.4643752518
 10
247.8113970297
 20
116.117617318
 10
246.9239464738
 20
113.8067168437
 10
245.6909858151
 20
111.5492611768
 10
244.1218986289
 20
109.362430918
 10
242.228626616
 20
107.2628691661
 10
240.0255787197
 20
105.2665548537
 10
237.5295214648
 20
103.3886811381
 10
234.7594513539
 20
101.6435397723
 10
231.7364502934
 20
100.0444123357
 10
228.4835251467
 20
98.6034691537
 10
225.0254326382
 20
97.331676674
 10
221.38849094
 20
96.2387140054
 10
217.6003793745
 20
95.3328992536
 10
213.689927758
 20
94.6211262159
 10
209.6868969885
 20
94.1088119148
 10
205.6217525473
 20
93.7998553716
 10
201.5254326382
 20
93.6966079321
 10
197.429112729
 20
93.7998553716
 10
193.3639682878
 20
94.1088119148
 10
189.3609375183
 20
94.6211262159
 10
185.4504859019
 20
95.3328992536
 10
181.6623743364
 20
96.2387140054
 10
178.0254326382
 20
97.331676674
 10
174.5673401297
 20
98.6034691537
 10
171.3144149829
 20
100.0444123357
 10
168.2914139224
 20
101.6435397723
  0
LWPOLYLINE
  5
1F6
330
191
100
AcDbEntity
  8
0
  6
Continuous
 62
     7
370
    25
100
AcDbPolyline
 90
       37
 70
   128
 43
0.0
 10
246.5045607687
 20
117.1292786944
 10
246.5006556659
 20
117.2000976443
 10
246.1927002881
 20
119.4913942504
 10
245.5351629789
 20
121.7580124912
 10
244.5331898591
 20
123.9822130061
 10
243.1946227271
 20
126.1465884101
 10
241.5299376854
 20
128.2341995312
 10
239.5521631515
 20
130.228707982
 10
237.2767778929
 20
132.1145040295
 10
234.7215898842
 20
133.8768287628
 10
231.9065969361
 20
135.5018896013
 10
228.8538301849
 20
136.9769682408
 10
225.5871816698
 20
138.2905201909
 10
222.1322173444
 20
139.4322651265
 10
218.515976989
 20
140.3932673456
 10
214.7667625873
 20
141.1660057028
 10
210.9139168256
 20
141.7444324726
 10
206.9875934457
 20
142.1240206815
 10
203.0185212516
 20
142.3017995369
 10
199.0377636147
 20
142.2763776784
 10
195.0764753609
 20
142.0479540664
 10
191.1656589415
 20
141.6183164253
 10
187.3359217977
 20
140.9908272523
 10
183.617236815
 20
140.1703975009
 10
180.0387077454
 20
139.1634481464
 10
176.6283414309
 20
137.9778599326
 10
173.4128286118
 20
136.6229116948
 10
170.4173350358
 20
135.1092077401
 10
167.6653045013
 20
133.4485948543
 10
165.1782753788
 20
131.6540695847
 10
162.9757120432
 20
129.7396765248
 10
161.0748525388
 20
127.7203983958
 10
159.4905736687
 20
125.6120387869
 10
158.2352745629
 20
123.4310984707
 10
157.3187796391
 20
121.1946462622
 10
156.7482617126
 20
118.9201854322
 10
156.5724631154
 20
117.5255360139
  0
SPLINE
  5
1FA
330
191
100
AcDbEntity
  8
0
  6
Continuous
 62
     7
370
    25
100
AcDbSpline
210
0.0
220
0.0
230
1.0
 70
     8
 71
     3
 72
     8
 73
     4
 74
     0
 42
0.000000001
 43
0.00000001
 40
0.0
 40
0.0
 40
0.0
 40
0.0
 40
1.0
 40
1.0
 40
1.0
 40
1.0
 10
-26.14921161677608
 20
348.6347269807437
 30
0.0
 10
-28.01129223432985
 20
349.6135468836667
 30
0.0
 10
-29.87341984424852
 20
350.6264662277699
 30
0.0
 10
-31.73494901270246
 20
351.6719579850786
 30
0.0
  0
SPLINE
  5
1FB
330
191
100
AcDbEntity
  8
0
  6
Continuous
 62
     7
370
    25
100
AcDbSpline
210
0.0
220
0.0
230
1.0
 70
     8
 71
     3
 72
     8
 73
     4
 74
     0
 42
0.000000001
 43
0.00000001
 40
0.0000000000000335
 40
0.0000000000000335
 40
0.0000000000000335
 40
0.0000000000000335
 40
0.0000355828292615
 40
0.0000355828292615
 40
0.0000355828292615
 40
0.0000355828292615
 10
196.7490420489846
 20
158.6101163444749
 30
0.0
 10
196.7609028992587
 20
158.6100696283823
 30
0.0
 10
196.7727637888116
 20
158.6100317270738
 30
0.0
 10
196.7846246646536
 20
158.6100026256997
 30
0.0
  0
SPLINE
  5
204
330
191
100
AcDbEntity
  8
0
  6
Continuous
 62
     8
370
    25
100
AcDbSpline
210
0.0
220
0.0
230
1.0
 70
     8
 71
     3
 72
    14
 73
    10
 74
     0
 42
0.000000001
 43
0.00000001
 40
0.0
 40
0.0
 40
0.0
 40
0.0
 40
0.125
 40
0.125
 40
0.25
 40
0.25
 40
0.5
 40
0.5
 40
1.0
 40
1.0
 40
1.0
 40
1.0
 10
142.3792398651304
 20
126.2448280476142
 30
0.0
 10
112.1685202293605
 20
122.5277816331112
 30
0.0
 10
81.9515411604024
 20
118.8266070428252
 30
0.0
 10
21.51661035028145
 20
111.4264549599923
 30
0.0
 10
-8.70209012015538
 20
107.7294321677792
 30
0.0
 10
-99.35935238067508
 20
96.6411937696238
 30
0.0
 10
-159.7991550972447
 20
89.25302168301933
 30
0.0
 10
-341.1195049110839
 20
67.09078105827197
 30
0.0
 10
-462.0013011800003
 20
52.31975655732037
 30
0.0
 10
-582.8832694248531
 20
37.54914556904354
 30
0.0
  0
SPLINE
  5
205
330
191
100
AcDbEntity
  8
0
  6
Continuous
 62
     8
370
    25
100
AcDbSpline
210
0.0
220
0.0
230
1.0
 70
     8
 71
     3
 72
    10
 73
     6
 74
     0
 42
0.000000001
 43
0.00000001
 40
0.0
 40
0.0
 40
0.0
 40
0.0
 40
0.8780419618915388
 40
0.9414435054513987
 40
0.9999999999999999
 40
0.9999999999999999
 40
0.9999999999999999
 40
0.9999999999999999
 10
36.65633905425397
 20
-318.5076746573508
 30
0.0
 10
85.7267129726736
 20
-198.8257544151588
 30
0.0
 10
138.3403542798009
 20
-70.50185712756868
 30
0.0
 10
194.3606823403613
 20
65.78452429361629
 30
0.0
 10
201.2116881726953
 20
82.40333989821997
 30
0.0
 10
204.5011055157058
 20
90.3826383556922
 30
0.0
  0
SPLINE
  5
206
330
191
100
AcDbEntity
  8
0
  6
Continuous
 62
     8
370
    25
100
AcDbSpline
210
0.0
220
0.0
230
1.0
 70
     8
 71
     3
 72
    14
 73
    10
 74
     0
 42
0.000000001
 43
0.00000001
 40
0.0
 40
0.0
 40
0.0
 40
0.0
 40
0.125
 40
0.125
 40
0.2500000000000001
 40
0.2500000000000001
 40
0.5
 40
0.5
 40
1.0
 40
1.0
 40
1.0
 40
1.0
 10
204.5073536561073
 20
90.38300537706145
 30
0.0
 10
197.5658004253125
 20
73.34666220619381
 30
0.0
 10
190.5974849171243
 20
56.31407288349148
 30
0.0
 10
176.6566019466283
 20
22.24925946478363
 30
0.0
 10
169.6808501136886
 20
5.217518875710862
 30
0.0
 10
148.7486019123311
 20
-45.87713899845618
 30
0.0
 10
134.7867643328685
 20
-79.93943263119405
 30
0.0
 10
92.8971980933784
 20
-182.1259120303094
 30
0.0
 10
64.96409015629331
 20
-250.2495150865956
 30
0.0
 10
37.03024035616315
 20
-318.3730539126981
 30
0.0
  0
LWPOLYLINE
  5
207
330
191
100
AcDbEntity
  8
0
  6
Continuous
 62
     8
370
    25
100
AcDbPolyline
 90
        3
 70
   128
 43
0.0
 10
583.0664835632
 20
-3.1654919401
 10
581.2801829341
 20
-2.1888059242
 10
580.4498991428
 20
-1.7348323801
  0
LWPOLYLINE
  5
20C
330
191
100
AcDbEntity
  8
0
  6
Continuous
 62
     8
370
    25
100
AcDbPolyline
 90
        3
 70
   128
 43
0.0
 10
585.4844148225
 20
-1.2642424978
 10
585.7331404847
 20
-1.4392028722
 10
585.8527049327
 20
-1.5570405803
  0
LWPOLYLINE
  5
20E
330
191
100
AcDbEntity
  8
0
  6
Continuous
 62
     8
370
    25
100
AcDbPolyline
 90
        3
 70
   128
 43
0.0
 10
585.4844148225
 20
-1.2642424978
 10
585.4645346146
 20
-1.602625075
 10
585.4298304068
 20
-1.8011608479
  0
LWPOLYLINE
  5
212
330
191
100
AcDbEntity
  8
0
  6
Continuous
 62
     8
370
    25
100
AcDbPolyline
 90
        3
 70
   128
 43
0.0
 10
-585.861925356
 20
39.2686878479
 10
-585.7331404847
 20
39.3971204339
 10
-585.4844148225
 20
39.5720808082
  0
LWPOLYLINE
  5
214
330
191
100
AcDbEntity
  8
0
  6
Continuous
 62
     8
370
    25
100
AcDbPolyline
 90
        3
 70
   128
 43
0.0
 10
-585.4201638828
 20
39.0136643777
 10
-585.4617879795
 20
39.2352146388
 10
-585.4844148225
 20
39.5720808082
  0
SPLINE
  5
217
330
191
100
AcDbEntity
  8
0
  6
Continuous
 62
     8
370
    25
100
AcDbSpline
210
0.0
220
0.0
230
1.0
 70
     8
 71
     3
 72
    27
 73
    23
 74
     0
 42
0.000000001
 43
0.00000001
 40
0.0
 40
0.0
 40
0.0
 40
0.0
 40
0.0357441940257702
 40
0.0833096401964501
 40
0.1311664809733957
 40
0.1817534348578225
 40
0.2323404435030506
 40
0.2832785788833767
 40
0.333865728260852
 40
0.3848037563433659
 40
0.4353910421384884
 40
0.4863309272194411
 40
0.5369310176286487
 40
0.5878836684842275
 40
0.6399447560534044
 40
0.6923885716311652
 40
0.7429898586693986
 40
0.7939425819211688
 40
0.8445437107747377
 40
0.8954961840951381
 40
0.9475566718675811
 40
1.0
 40
1.0
 40
1.0
 40
1.0
 10
258.6125510453375
 20
123.3880389241994
 30
0.0
 10
258.6424402563476
 20
124.0352652110177
 30
0.0
 10
258.7121035816196
 20
125.5437672363158
 30
0.0
 10
258.1655557088263
 20
127.9084885956416
 30
0.0
 10
257.3330896404815
 20
130.5145330243006
 30
0.0
 10
256.0824852442122
 20
133.1311243839392
 30
0.0
 10
254.4411576247319
 20
135.7399120133813
 30
0.0
 10
252.4323832317875
 20
138.2695205598913
 30
0.0
 10
250.068064622139
 20
140.7058277997191
 30
0.0
 10
247.3742996115209
 20
143.0133544506854
 30
0.0
 10
244.3575124327932
 20
145.1747174072309
 30
0.0
 10
241.0518824448144
 20
147.1550258026992
 30
0.0
 10
237.4652300159572
 20
148.9474962955323
 30
0.0
 10
233.6020246331985
 20
150.5541176652318
 30
0.0
 10
229.4629911720383
 20
151.9770364650796
 30
0.0
 10
225.1309952628649
 20
153.1916126874648
 30
0.0
 10
220.6631858011832
 20
154.192247208868
 30
0.0
 10
216.1166481969744
 20
154.9737325702758
 30
0.0
 10
211.4586502670962
 20
155.5436760455615
 30
0.0
 10
206.6981442122446
 20
155.8914191820205
 30
0.0
 10
201.8408369834274
 20
156.0286843448038
 30
0.0
 10
198.5799644890201
 20
155.918581676641
 30
0.0
 10
196.9435552848063
 20
155.8633286669329
 30
0.0
  0
LWPOLYLINE
  5
218
330
191
100
AcDbEntity
  8
0
  6
Continuous
 62
     8
370
    25
100
AcDbPolyline
 90
       39
 70
   128
 43
0.0
 10
144.7265747852
 20
126.6031095629
 10
144.9802751391
 20
127.6323275291
 10
145.8572546954
 20
130.1775162887
 10
147.0774470803
 20
132.675137632
 10
148.6333294019
 20
135.1097928927
 10
150.5153091284
 20
137.4664716116
 10
152.7117832289
 20
139.7306440807
 10
155.2092097102
 20
141.8883509239
 10
157.9921911076
 20
143.9262891609
 10
161.0435694152
 20
145.8318942248
 10
164.3445318713
 20
147.5934174267
 10
167.8747269444
 20
149.1999983904
 10
171.6123898082
 20
150.6417320099
 10
175.5344765281
 20
151.909729518
 10
179.6168061353
 20
152.9961732885
 10
183.8342097102
 20
153.8943650343
 10
188.1606855574
 20
154.5987671044
 10
192.5695595146
 20
155.105036626
 10
197.0336494077
 20
155.4100522791
 10
201.5254326382
 20
155.5119335408
 10
206.0172158686
 20
155.4100522791
 10
210.4813057617
 20
155.105036626
 10
214.8901797189
 20
154.5987671044
 10
219.2166555661
 20
153.8943650343
 10
223.4340591411
 20
152.9961732885
 10
227.5163887483
 20
151.909729518
 10
231.4384754682
 20
150.6417320099
 10
235.1761383319
 20
149.1999983904
 10
238.7063334051
 20
147.5934174267
 10
242.0072958611
 20
145.8318942248
 10
245.0586741688
 20
143.9262891609
 10
247.8416555661
 20
141.8883509239
 10
250.3390820474
 20
139.7306440807
 10
252.535556148
 20
137.4664716116
 10
254.4175358744
 20
135.1097928927
 10
255.9734181961
 20
132.675137632
 10
257.1936105809
 20
130.1775162887
 10
258.0705901372
 20
127.6323275291
 10
258.3469682556
 20
126.4980927253
  0
LWPOLYLINE
  5
219
330
191
100
AcDbEntity
  8
0
  6
Continuous
 62
     8
370
    25
100
AcDbPolyline
 90
       51
 70
   128
 43
0.0
 10
252.0167694002
 20
107.8795052435
 10
253.5691285042
 20
110.1217859597
 10
254.8928345406
 20
112.574059145
 10
255.870432497
 20
115.0798696351
 10
256.4955822754
 20
117.6229662874
 10
256.7642295396
 20
120.1868561443
 10
256.674632009
 20
122.7549113963
 10
256.227370758
 20
125.3104772194
 10
255.4253464475
 20
127.8369797888
 10
254.2737605128
 20
130.3180337659
 10
252.7800814306
 20
132.7375485633
 10
250.953996283
 20
135.0798326994
 10
248.8073479328
 20
137.3296955626
 10
246.3540582184
 20
139.4725459289
 10
243.610037665
 20
141.4944865915
 10
240.5930822987
 20
143.3824044892
 10
237.3227582329
 20
145.1240557501
 10
233.8202747741
 20
146.7081450973
 10
230.1083468715
 20
148.1243991036
 10
226.2110478019
 20
149.3636328183
 10
222.1536530453
 20
150.4178093352
 10
217.9624763637
 20
151.2800919152
 10
213.6646991461
 20
151.9448883247
 10
209.2881941269
 20
152.407887104
 10
204.8613446207
 20
152.6660855282
 10
200.4128604453
 20
152.7178090817
 10
195.9715917274
 20
152.5627223172
 10
191.5663417989
 20
152.2018310319
 10
187.2256803963
 20
151.6374757443
 10
182.9777583741
 20
150.8733165151
 10
178.8501251369
 20
149.91430921
 10
174.8695499701
 20
148.7666733594
 10
171.061848431
 20
147.4378518222
 10
167.4517149254
 20
145.9364625159
 10
164.0625625544
 20
144.2722425264
 10
160.9163712715
 20
142.4559849589
 10
158.0335453345
 20
140.4994689407
 10
155.4327809759
 20
138.415383229
 10
153.1309451506
 20
136.2172439192
 10
151.1429661471
 20
133.9193067883
 10
149.4817367721
 20
131.5364748405
 10
148.1580307357
 20
129.0842016552
 10
147.1804327793
 20
126.5783911651
 10
146.555283001
 20
124.0352945128
 10
146.2866357368
 20
121.4714046559
 10
146.3762332673
 20
118.903349404
 10
146.8234945183
 20
116.3477835808
 10
147.6255188289
 20
113.8212810114
 10
148.7771047636
 20
111.3402270344
 10
150.2707838457
 20
108.9207122369
 10
152.0369639418
 20
106.6478845429
  0
LWPOLYLINE
  5
21D
330
191
100
AcDbEntity
  8
0
  6
Continuous
 62
     8
370
    25
100
AcDbPolyline
 90
       38
 70
   128
 43
0.0
 10
246.5254326382
 20
119.1960487763
 10
246.5006556659
 20
120.0579904859
 10
246.1927002881
 20
122.349287092
 10
245.5351629789
 20
124.6159053328
 10
244.5331898591
 20
126.8401058477
 10
243.1946227271
 20
129.0044812517
 10
241.5299376854
 20
131.0920923728
 10
239.5521631515
 20
133.0866008236
 10
237.2767778929
 20
134.9723968711
 10
234.7215898842
 20
136.7347216044
 10
231.9065969361
 20
138.3597824429
 10
228.8538301849
 20
139.8348610824
 10
225.5871816698
 20
141.1484130325
 10
222.1322173444
 20
142.2901579681
 10
218.515976989
 20
143.2511601872
 10
214.7667625873
 20
144.0238985444
 10
210.9139168256
 20
144.6023253142
 10
206.9875934457
 20
144.9819135231
 10
203.0185212516
 20
145.1596923785
 10
199.0377636147
 20
145.13427052
 10
195.0764753609
 20
144.905846908
 10
191.1656589415
 20
144.4762092669
 10
187.3359217977
 20
143.8487200939
 10
183.617236815
 20
143.0282903425
 10
180.0387077454
 20
142.021340988
 10
176.6283414309
 20
140.8357527742
 10
173.4128286118
 20
139.4808045364
 10
170.4173350358
 20
137.9671005817
 10
167.6653045013
 20
136.3064876959
 10
165.1782753788
 20
134.5119624263
 10
162.9757120432
 20
132.5975693664
 10
161.0748525388
 20
130.5782912374
 10
159.4905736687
 20
128.4699316285
 10
158.2352745629
 20
126.2889913123
 10
157.3187796391
 20
124.0525391038
 10
156.7482617126
 20
121.7780782738
 10
156.5281858597
 20
119.4834095621
 10
156.5280169062
 20
119.4744531878
  0
LINE
  5
21F
330
191
100
AcDbEntity
  8
0
  6
Continuous
 62
     7
370
    25
100
AcDbLine
 10
585.8987096522
 20
-1.5304826211
 30
0.0
 11
37.1838474514
 21
-318.2968300083
 31
0.0
  0
LINE
  5
220
330
191
100
AcDbEntity
  8
0
  6
Continuous
 62
     7
370
    25
100
AcDbLine
 10
33.5268306672
 20
-318.2968300083
 30
0.0
 11
-585.8987096522
 21
39.2899229701
 31
0.0
  0
LINE
  5
221
330
191
100
AcDbEntity
  8
0
  6
Continuous
 62
     7
370
    25
100
AcDbLine
 10
669.6803743154
 20
-20.4102027956
 30
0.0
 11
669.6803743154
 21
-4.0793865579
 31
0.0
  0
LINE
  5
222
330
191
100
AcDbEntity
  8
0
  6
Continuous
 62
     7
370
    25
100
AcDbLine
 10
667.1801711469
 20
0.2508577541
 30
0.0
 11
-32.8555422277
 21
404.3728731063
 31
0.0
  0
LINE
  5
223
330
191
100
AcDbEntity
  8
0
  6
Continuous
 62
     7
370
    25
100
AcDbLine
 10
-669.6803743154
 20
36.7410190333
 30
0.0
 11
-669.6803743154
 21
20.4102027956
 31
0.0
  0
LINE
  5
224
330
191
100
AcDbEntity
  8
0
  6
Continuous
 62
     7
370
    25
100
AcDbLine
 10
-37.8551358909
 20
404.3728731063
 30
0.0
 11
-667.1801711469
 21
41.0712633452
 31
0.0
  0
LINE
  5
225
330
191
100
AcDbEntity
  8
0
  6
Continuous
 62
     7
370
    25
100
AcDbLine
 10
31.8198051534
 20
-385.7528328362
 30
0.0
 11
31.8198051534
 21
-369.4220165985
 31
0.0
  0
LINE
  5
226
330
191
100
AcDbEntity
  8
0
  6
Continuous
 62
     7
370
    25
100
AcDbLine
 10
38.8908729653
 20
-369.4220165985
 30
0.0
 11
38.8908729653
 21
-385.7528328362
 31
0.0
  0
LINE
  5
227
330
191
100
AcDbEntity
  8
0
  6
Continuous
 62
     7
370
    25
100
AcDbLine
 10
-664.6803743154
 20
40.8237230927
 30
0.0
 11
35.3553390593
 21
-363.2982922595
 31
0.0
  0
LINE
  5
228
330
191
100
AcDbEntity
  8
0
  6
Continuous
 62
     7
370
    25
100
AcDbLine
 10
31.8198051534
 20
-369.4220165985
 30
0.0
 11
-668.2159082213
 21
34.6999987537
 31
0.0
  0
LINE
  5
229
330
191
100
AcDbEntity
  8
0
  6
Continuous
 62
     7
370
    25
100
AcDbLine
 10
35.3553390593
 20
-363.2982922595
 30
0.0
 11
664.6803743154
 21
0.0033175016
 31
0.0
  0
LINE
  5
22A
330
191
100
AcDbEntity
  8
0
  6
Continuous
 62
     7
370
    25
100
AcDbLine
 10
668.2159082213
 20
-6.1204068374
 30
0.0
 11
38.8908729653
 21
-369.4220165985
 31
0.0
  0
LINE
  5
22B
330
191
100
AcDbEntity
  8
0
  6
Continuous
 62
     7
370
    25
100
AcDbLine
 10
668.2159082213
 20
-22.4512230751
 30
0.0
 11
668.2159082213
 21
-6.1204068374
 31
0.0
  0
LINE
  5
22C
330
191
100
AcDbEntity
  8
0
  6
Continuous
 62
     7
370
    25
100
AcDbLine
 10
38.8908729653
 20
-385.7528328362
 30
0.0
 11
668.2159082213
 21
-22.4512230751
 31
0.0
  0
LINE
  5
22D
330
191
100
AcDbEntity
  8
0
  6
Continuous
 62
     7
370
    25
100
AcDbLine
 10
-668.2159082213
 20
34.6999987537
 30
0.0
 11
-668.2159082213
 21
18.369182516
 31
0.0
  0
LINE
  5
22E
330
191
100
AcDbEntity
  8
0
  6
Continuous
 62
     7
370
    25
100
AcDbLine
 10
-668.2159082213
 20
18.369182516
 30
0.0
 11
31.8198051534
 21
-385.7528328362
 31
0.0
  0
LINE
  5
22F
330
191
100
AcDbEntity
  8
0
  6
Continuous
 62
     7
370
    25
100
AcDbLine
 10
-586.8986283848
 20
42.4565393164
 30
0.0
 11
-38.1837661841
 21
359.2228867036
 31
0.0
  0
LINE
  5
230
330
191
100
AcDbEntity
  8
0
  6
Continuous
 62
     7
370
    25
100
AcDbLine
 10
32.5269119346
 20
-318.3958461093
 30
0.0
 11
-586.8986283848
 21
39.1909068691
 31
0.0
  0
LINE
  5
231
330
191
100
AcDbEntity
  8
0
  6
Continuous
 62
     7
370
    25
100
AcDbLine
 10
586.8986283848
 20
-1.6294987221
 30
0.0
 11
38.1837661841
 21
-318.3958461093
 31
0.0
  0
LINE
  5
232
330
191
100
AcDbEntity
  8
0
  6
Continuous
 62
     7
370
    25
100
AcDbLine
 10
-32.5269119346
 20
359.2228867036
 30
0.0
 11
586.8986283848
 21
1.6361337252
 31
0.0
  0
LINE
  5
233
330
191
100
AcDbEntity
  8
0
  6
Continuous
 62
     7
370
    25
100
AcDbLine
 10
-35.3553390593
 20
404.1253328538
 30
0.0
 11
-664.6803743154
 21
40.8237230927
 31
0.0
  0
LINE
  5
234
330
191
100
AcDbEntity
  8
0
  6
Continuous
 62
     7
370
    25
100
AcDbLine
 10
664.6803743154
 20
0.0033175016
 30
0.0
 11
-35.3553390593
 21
404.1253328538
 31
0.0
  0
LINE
  5
235
330
191
100
AcDbEntity
  8
0
  6
Continuous
 62
     7
370
    25
100
AcDbLine
 10
585.4844148225
 20
-1.2642424978
 30
0.0
 11
585.4844148225
 21
-0.8133560104
 31
0.0
  0
LINE
  5
236
330
191
100
AcDbEntity
  8
0
  6
Continuous
 62
     7
370
    25
100
AcDbLine
 10
585.4844148225
 20
-0.8133560104
 30
0.0
 11
-33.941125497
 21
356.773396968
 31
0.0
  0
LINE
  5
237
330
191
100
AcDbEntity
  8
0
  6
Continuous
 62
     7
370
    25
100
AcDbLine
 10
581.8266953701
 20
0.735636803
 30
0.0
 11
585.4844148225
 21
-1.2642424978
 31
0.0
  0
LINE
  5
238
330
191
100
AcDbEntity
  8
0
  6
Continuous
 62
     7
370
    25
100
AcDbLine
 10
-33.941125497
 20
356.3225104805
 30
0.0
 11
-30.2834060446
 21
354.0992767932
 31
0.0
  0
LINE
  5
239
330
191
100
AcDbEntity
  8
0
  6
Continuous
 62
     7
370
    25
100
AcDbLine
 10
-33.941125497
 20
356.773396968
 30
0.0
 11
-33.941125497
 21
356.3225104805
 31
0.0
  0
LINE
  5
23A
330
191
100
AcDbEntity
  8
0
  6
Continuous
 62
     7
370
    25
100
AcDbLine
 10
-585.4844148225
 20
40.0070495808
 30
0.0
 11
-585.4844148225
 21
39.5720808082
 31
0.0
  0
LINE
  5
23B
330
191
100
AcDbEntity
  8
0
  6
Continuous
 62
     7
370
    25
100
AcDbLine
 10
-36.7695526217
 20
356.773396968
 30
0.0
 11
-585.4844148225
 21
40.0070495808
 31
0.0
  0
LINE
  5
23C
330
191
100
AcDbEntity
  8
0
  6
Continuous
 62
     7
370
    25
100
AcDbLine
 10
-585.4844148225
 20
39.5720808082
 30
0.0
 11
-584.8150188325
 21
39.9457752676
 31
0.0
  0
LINE
  5
23D
330
191
100
AcDbEntity
  8
0
  6
Continuous
 62
     7
370
    25
100
AcDbLine
 10
-36.7695526217
 20
356.3225104805
 30
0.0
 11
-36.7695526217
 21
356.773396968
 31
0.0
  0
LINE
  5
23E
330
191
100
AcDbEntity
  8
0
  6
Continuous
 62
     7
370
    25
100
AcDbLine
 10
258.6094945064
 20
122.9297050446
 30
0.0
 11
258.6125510453
 21
123.3880389242
 31
0.0
  0
LINE
  5
23F
330
191
100
AcDbEntity
  8
0
  6
Continuous
 62
     7
370
    25
100
AcDbLine
 10
258.5886483838
 20
120.2520605612
 30
0.0
 11
258.6014376606
 21
120.4361522337
 31
0.0
  0
LINE
  5
240
330
191
100
AcDbEntity
  8
0
  6
Continuous
 62
     7
370
    25
100
AcDbLine
 10
246.5224298088
 20
118.8959448712
 30
0.0
 11
246.5254326382
 21
119.1960487763
 31
0.0
  0
LINE
  5
241
330
191
100
AcDbEntity
  8
0
  6
Continuous
 62
     7
370
    25
100
AcDbLine
 10
156.5280169062
 20
119.4744531878
 30
0.0
 11
156.5254326382
 21
119.1960487763
 31
0.0
  0
LINE
  5
242
330
191
100
AcDbEntity
  8
0
  6
Continuous
 62
     8
370
    25
100
AcDbLine
 10
-583.1053688638
 20
37.7073718443
 30
0.0
 11
-583.1287956562
 21
37.6908856566
 31
0.0
  0
LINE
  5
243
330
191
100
AcDbEntity
  8
0
  6
Continuous
 62
     8
370
    25
100
AcDbLine
 10
144.3477341125
 20
124.5545704273
 30
0.0
 11
144.3173793208
 21
122.8942223514
 31
0.0
  0
ARC
  5
244
330
191
100
AcDbEntity
  8
0
  6
Continuous
 62
     7
370
    25
100
AcDbCircle
 10
664.6803743154
 20
-4.0793865579
 30
0.0
 40
5.000000000000568
100
AcDbArc
 50
0.0
 51
60.0026882663
  0
ARC
  5
245
330
191
100
AcDbEntity
  8
0
  6
Continuous
 62
     7
370
    25
100
AcDbCircle
 10
-664.6803743154
 20
36.7410190333
 30
0.0
 40
4.999999999999951
100
AcDbArc
 50
119.9973117336
 51
180.0
  0
ARC
  5
246
330
191
100
AcDbEntity
  8
0
  6
Continuous
 62
     7
370
    25
100
AcDbCircle
 10
-35.3553390593
 20
400.0426287944
 30
0.0
 40
4.999999999999614
100
AcDbArc
 50
60.0026882663
 51
119.9973117337
  0
ARC
  5
247
330
191
100
AcDbEntity
  8
0
  6
Continuous
 62
     7
370
    25
100
AcDbCircle
 10
31.2147924584
 20
-369.7713208598
 30
0.0
 40
7.684024037860421
100
AcDbArc
 50
2.6054784857
 51
57.39452166
  0
ARC
  5
248
330
191
100
AcDbEntity
  8
0
  6
Continuous
 62
     7
370
    25
100
AcDbCircle
 10
35.3553390593
 20
-362.5984611737
 30
0.0
 40
7.685109539558407
100
AcDbArc
 50
242.6096722366
 51
297.3903277634
  0
ARC
  5
249
330
191
100
AcDbEntity
  8
0
  6
Continuous
 62
     7
370
    25
100
AcDbCircle
 10
39.4958856602
 20
-369.7713208598
 30
0.0
 40
7.684024037860244
100
AcDbArc
 50
122.60547834
 51
177.3945215143
  0
ARC
  5
24A
330
191
100
AcDbEntity
  8
0
  6
Continuous
 62
     7
370
    25
100
AcDbCircle
 10
35.3553390593
 20
-378.9292774115
 30
0.0
 40
7.685109539558205
100
AcDbArc
 50
242.6096722366
 51
297.3903277634
  0
ARC
  5
24B
330
191
100
AcDbEntity
  8
0
  6
Continuous
 62
     7
370
    25
100
AcDbCircle
 10
-660.5398277144
 20
34.3506944924
 30
0.0
 40
7.684024037860238
100
AcDbArc
 50
122.60547834
 51
177.3945215143
  0
ARC
  5
24C
330
191
100
AcDbEntity
  8
0
  6
Continuous
 62
     7
370
    25
100
AcDbCircle
 10
660.5398277144
 20
-6.4697110987
 30
0.0
 40
7.684024037860722
100
AcDbArc
 50
2.6054784857
 51
57.39452166
  0
ARC
  5
24D
330
191
100
AcDbEntity
  8
0
  6
Continuous
 62
     7
370
    25
100
AcDbCircle
 10
-586.2789202777
 20
40.8237230927
 30
0.0
 40
1.746461267337069
100
AcDbArc
 50
110.7834207995
 51
249.2165792005
  0
ARC
  5
24E
330
191
100
AcDbEntity
  8
0
  6
Continuous
 62
     7
370
    25
100
AcDbCircle
 10
35.3553390593
 20
-312.9370017695
 30
0.0
 40
6.148087631646898
100
AcDbArc
 50
242.6096722366
 51
297.3903277634
  0
ARC
  5
24F
330
191
100
AcDbEntity
  8
0
  6
Continuous
 62
     7
370
    25
100
AcDbCircle
 10
586.2789202777
 20
0.0033175016
 30
0.0
 40
1.746461267337139
100
AcDbArc
 50
290.7834207995
 51
69.2165792005
  0
ARC
  5
250
330
191
100
AcDbEntity
  8
0
  6
Continuous
 62
     7
370
    25
100
AcDbCircle
 10
-35.3553390593
 20
353.7640423637
 30
0.0
 40
6.148087631647435
100
AcDbArc
 50
62.6096722366
 51
117.3903277634
  0
ARC
  5
251
330
191
100
AcDbEntity
  8
0
  6
Continuous
 62
     7
370
    25
100
AcDbCircle
 10
588.5548470252
 20
-0.9530777149
 30
0.0
 40
3.073609615143878
100
AcDbArc
 50
122.60547834
 51
177.3945215143
  0
ARC
  5
252
330
191
100
AcDbEntity
  8
0
  6
Continuous
 62
     7
370
    25
100
AcDbCircle
 10
667.1780890029
 20
-20.1606709111
 30
0.0
 40
2.514696392469501
100
AcDbArc
 50
294.3746582936
 51
354.3052007488
  0
ARC
  5
253
330
191
100
AcDbEntity
  8
0
  6
Continuous
 62
     7
370
    25
100
AcDbCircle
 10
-30.8706932942
 20
356.6336752635
 30
0.0
 40
3.073609615144213
100
AcDbArc
 50
122.60547834
 51
177.3945215143
  0
ARC
  5
254
330
191
100
AcDbEntity
  8
0
  6
Continuous
 62
     7
370
    25
100
AcDbCircle
 10
578.8218639592
 20
0.7913540058
 30
0.0
 40
3.005347935762318
100
AcDbArc
 50
302.8003069172
 51
358.9377125269
  0
ARC
  5
255
330
191
100
AcDbEntity
  8
0
  6
Continuous
 62
     7
370
    25
100
AcDbCircle
 10
573.3755614371
 20
3.8871206632
 30
0.0
 40
3.12386339896447
100
AcDbArc
 50
308.0119153207
 51
357.1266898452
  0
ARC
  5
256
330
191
100
AcDbEntity
  8
0
  6
Continuous
 62
     7
370
    25
100
AcDbCircle
 10
-28.07354284
 20
351.0974094014
 30
0.0
 40
3.125356837501557
100
AcDbArc
 50
308.0039415926
 51
357.0928442837
  0
ARC
  5
257
330
191
100
AcDbEntity
  8
0
  6
Continuous
 62
     7
370
    25
100
AcDbCircle
 10
-588.5548470252
 20
39.8673278762
 30
0.0
 40
3.073609615144154
100
AcDbArc
 50
2.6054784857
 51
57.39452166
  0
ARC
  5
258
330
191
100
AcDbEntity
  8
0
  6
Continuous
 62
     7
370
    25
100
AcDbCircle
 10
-667.1780890029
 20
20.6597346801
 30
0.0
 40
2.514696392468679
100
AcDbArc
 50
185.6947992512
 51
245.6253417064
  0
ARC
  5
259
330
191
100
AcDbEntity
  8
0
  6
Continuous
 62
     7
370
    25
100
AcDbCircle
 10
-39.8399848244
 20
356.6336752635
 30
0.0
 40
3.073609615144138
100
AcDbArc
 50
2.6054784857
 51
57.39452166
  0
ARC
  5
25A
330
191
100
AcDbEntity
  8
0
  6
Continuous
 62
     7
370
    25
100
AcDbCircle
 10
-581.4002914321
 20
40.278688412
 30
0.0
 40
3.085280852606294
100
AcDbArc
 50
182.6743418699
 51
236.4510628741
  0
ARC
  5
25B
330
191
100
AcDbEntity
  8
0
  6
Continuous
 62
     7
370
    25
100
AcDbCircle
 10
-33.687582507
 20
356.4665247935
 30
0.0
 40
3.085333030728079
100
AcDbArc
 50
182.6753713383
 51
236.4505632305
  0
ARC
  5
25C
330
191
100
AcDbEntity
  8
0
  6
Continuous
 62
     7
370
    25
100
AcDbCircle
 10
142.4583023757
 20
124.3455104072
 30
0.0
 40
1.900962487765585
100
AcDbArc
 50
6.3139250903
 51
92.3836636448
  0
ARC
  5
25D
330
191
100
AcDbEntity
  8
0
  6
Continuous
 62
     7
370
    25
100
AcDbCircle
 10
171.8989324597
 20
155.7921083288
 30
0.0
 40
25.04472409086612
100
AcDbArc
 50
0.1629337292
 51
6.4602851568
  0
ARC
  5
25E
330
191
100
AcDbEntity
  8
0
  6
Continuous
 62
     7
370
    25
100
AcDbCircle
 10
172.625875466
 20
155.8659782642
 30
0.0
 40
24.27874502097774
100
AcDbArc
 50
359.9894131208
 51
6.4898013461
  0
ARC
  5
25F
330
191
100
AcDbEntity
  8
0
  6
Continuous
 62
     7
370
    25
100
AcDbCircle
 10
142.4587900744
 20
124.349183872
 30
0.0
 40
1.900886442004288
100
AcDbArc
 50
6.3280763721
 51
92.3791233031
  0
ARC
  5
260
330
191
100
AcDbEntity
  8
0
  6
Continuous
 62
     7
370
    25
100
AcDbCircle
 10
-33.4217837796
 20
354.3283622098
 30
0.0
 40
3.146727655158528
100
AcDbArc
 50
302.4158253009
 51
355.8251075332
  0
ARC
  5
261
330
191
100
AcDbEntity
  8
0
  6
Continuous
 62
     7
370
    25
100
AcDbCircle
 10
-37.0795129573
 20
356.5516182076
 30
0.0
 40
3.146738978964654
100
AcDbArc
 50
302.4149824375
 51
355.8247152736
  0
ARC
  5
262
330
191
100
AcDbEntity
  8
0
  6
Continuous
 62
     7
370
    25
100
AcDbCircle
 10
-35.3553390593
 20
354.0439747981
 30
0.0
 40
3.074043815823738
100
AcDbArc
 50
62.6096722366
 51
117.3903277634
  0
ARC
  5
263
330
191
100
AcDbEntity
  8
0
  6
Continuous
 62
     7
370
    25
100
AcDbCircle
 10
-35.3553390593
 20
353.5930883106
 30
0.0
 40
3.074043815823183
100
AcDbArc
 50
62.6096722366
 51
117.3903277634
  0
ARC
  5
264
330
191
100
AcDbEntity
  8
0
  6
Continuous
 62
     8
370
    25
100
AcDbCircle
 10
37.597894944
 20
-319.2136954456
 30
0.0
 40
1.006043064156738
100
AcDbArc
 50
54.3838561296
 51
114.2906628287
  0
ARC
  5
265
330
191
100
AcDbEntity
  8
0
  6
Continuous
 62
     8
370
    25
100
AcDbCircle
 10
33.1127881227
 20
-319.2137092228
 30
0.0
 40
1.006057145610294
100
AcDbArc
 50
65.711952251
 51
125.6159160258
  0
ARC
  5
266
330
191
100
AcDbEntity
  8
0
  6
Continuous
 62
     8
370
    25
100
AcDbCircle
 10
586.3127882751
 20
-2.4472613803
 30
0.0
 40
1.005954471803863
100
AcDbArc
 50
54.3824225248
 51
114.3071190461
  0
ARC
  5
267
330
191
100
AcDbEntity
  8
0
  6
Continuous
 62
     8
370
    25
100
AcDbCircle
 10
-586.3127882751
 20
38.3731442108
 30
0.0
 40
1.005954471803223
100
AcDbArc
 50
65.6928809539
 51
125.6175774752
  0
ARC
  5
268
330
191
100
AcDbEntity
  8
0
  6
Continuous
 62
     8
370
    25
100
AcDbCircle
 10
666.1449745896
 20
-2.041089144
 30
0.0
 40
2.51488617950888
100
AcDbArc
 50
65.6928809539
 51
125.6175774752
  0
ARC
  5
269
330
191
100
AcDbEntity
  8
0
  6
Continuous
 62
     8
370
    25
100
AcDbCircle
 10
667.1780890029
 20
-3.8298546734
 30
0.0
 40
2.51469639246938
100
AcDbArc
 50
294.3746582936
 51
354.3052007488
  0
ARC
  5
26A
330
191
100
AcDbEntity
  8
0
  6
Continuous
 62
     8
370
    25
100
AcDbCircle
 10
585.0171269007
 20
-1.7910271836
 30
0.0
 40
1.083604597995589
100
AcDbArc
 50
18.2101624093
 51
64.4540560899
  0
ARC
  5
26B
330
191
100
AcDbEntity
  8
0
  6
Continuous
 62
     8
370
    25
100
AcDbCircle
 10
-33.8907387851
 20
402.0809262082
 30
0.0
 40
2.514886179508721
100
AcDbArc
 50
65.6928809539
 51
125.6175774752
  0
ARC
  5
26C
330
191
100
AcDbEntity
  8
0
  6
Continuous
 62
     8
370
    25
100
AcDbCircle
 10
-667.1780890029
 20
36.9905509178
 30
0.0
 40
2.514696392468561
100
AcDbArc
 50
185.6947992512
 51
245.6253417064
  0
ARC
  5
26D
330
191
100
AcDbEntity
  8
0
  6
Continuous
 62
     8
370
    25
100
AcDbCircle
 10
-666.1449745896
 20
38.7793164471
 30
0.0
 40
2.514886179508987
100
AcDbArc
 50
54.3824225248
 51
114.3071190461
  0
ARC
  5
26E
330
191
100
AcDbEntity
  8
0
  6
Continuous
 62
     8
370
    25
100
AcDbCircle
 10
-585.0170202791
 20
39.029253117
 30
0.0
 40
1.083763619852001
100
AcDbArc
 50
115.5481732556
 51
161.7673843071
  0
ARC
  5
26F
330
191
100
AcDbEntity
  8
0
  6
Continuous
 62
     8
370
    25
100
AcDbCircle
 10
-36.8199393336
 20
402.0809262082
 30
0.0
 40
2.514886179509132
100
AcDbArc
 50
54.3824225248
 51
114.3071190461
  0
ARC
  5
270
330
191
100
AcDbEntity
  8
0
  6
Continuous
 62
     8
370
    25
100
AcDbCircle
 10
-581.8737854563
 20
40.0153099188
 30
0.0
 40
2.942055206963625
100
AcDbArc
 50
181.3542958129
 51
213.8351468052
  0
ARC
  5
271
330
191
100
AcDbEntity
  8
0
  6
Continuous
 62
     8
370
    25
100
AcDbCircle
 10
203.8253816887
 20
90.4501780354
 30
0.0
 40
0.6790907882501466
100
AcDbArc
 50
354.2921523617
 51
24.511934809
  0
ARC
  5
272
330
191
100
AcDbEntity
  8
0
  6
Continuous
 62
     8
370
    25
100
AcDbCircle
 10
203.7733981613
 20
90.4433975486
 30
0.0
 40
0.7364359325354642
100
AcDbArc
 50
355.2961194652
 51
23.1016358038
  0
ARC
  5
273
330
191
100
AcDbEntity
  8
0
  6
Continuous
 62
     8
370
    25
100
AcDbCircle
 10
260.3220274404
 20
120.0404929238
 30
0.0
 40
1.765495816950092
100
AcDbArc
 50
83.4861392326
 51
167.0496498996
  0
ARC
  5
274
330
191
100
AcDbEntity
  8
0
  6
Continuous
 62
     8
370
    25
100
AcDbCircle
 10
260.3230021784
 20
120.0647466869
 30
0.0
 40
1.76163208186471
100
AcDbArc
 50
83.5071210232
 51
167.592913554
  0
VIEWPORT
  5
415
330
191
100
AcDbEntity
  8
0
100
AcDbViewport
 10
0.0
 20
0.0
 30
0.0
 40
205.6
 41
156.0
 68
     1
 69
     1
 12
0.0
 22
0.0
 13
0.0
 23
0.0
 14
10.0
 24
10.0
 15
10.0
 25
10.0
 16
0.0
 26
0.0
 36
1.0
 17
0.0
 27
0.0
 37
0.0
 42
50.0
 43
0.0
 44
0.0
 45
918.0
 50
0.0
 51
0.0
 72
   100
 90
   557152
  1

281
     0
 71
     1
 74
     0
110
0.0
120
0.0
130
0.0
111
1.0
121
0.0
131
0.0
112
0.0
122
1.0
132
0.0
 79
     0
146
0.0
  0
ENDBLK
  5
194
330
191
100
AcDbEntity
  8
0
100
AcDbBlockEnd
  0
BLOCK
  5
277
330
275
100
AcDbEntity
  8
0
100
AcDbBlockBegin
  2
*Paper_Space5
 70
     0
 10
0.0
 20
0.0
 30
0.0
  3
*Paper_Space5
  1

  0
SPLINE
  5
279
330
275
100
AcDbEntity
  8
0
  6
Continuous
 62
     7
370
    25
100
AcDbSpline
210
0.0
220
0.0
230
1.0
 70
     8
 71
     3
 72
    14
 73
    10
 74
     0
 42
0.000000001
 43
0.00000001
 40
0.0
 40
0.0
 40
0.0
 40
0.0
 40
0.0942572377566545
 40
0.2265823629478416
 40
0.3704284346870429
 40
0.5342405852089988
 40
0.7160959538447588
 40
0.9022294181857871
 40
1.0
 40
1.0
 40
1.0
 40
1.0
 10
208.4380425592548
 20
-261.8331094283892
 30
0.0
 10
208.4234112418379
 20
-261.8467008313
 30
0.0
 10
208.3882394231823
 20
-261.8793728282798
 30
0.0
 10
208.1419135018782
 20
-262.0288041373537
 30
0.0
 10
207.669818608569
 20
-262.2019638396711
 30
0.0
 10
206.9881111643049
 20
-262.3401725532186
 30
0.0
 10
206.1660818716914
 20
-262.3821858472332
 30
0.0
 10
205.448834809997
 20
-262.3146914365846
 30
0.0
 10
205.0815577214168
 20
-262.2256254106422
 30
0.0
 10
204.9550752174729
 20
-262.1949529447362
 30
0.0
  0
SPLINE
  5
27F
330
275
100
AcDbEntity
  8
0
  6
Continuous
 62
     7
370
    25
100
AcDbSpline
210
0.0
220
0.0
230
1.0
 70
     8
 71
     3
 72
    11
 73
     7
 74
     0
 42
0.000000001
 43
0.00000001
 40
0.0
 40
0.0
 40
0.0
 40
0.0
 40
0.2291444950076233
 40
0.5817513378039739
 40
0.908364640406953
 40
1.0
 40
1.0
 40
1.0
 40
1.0
 10
-569.7951993719482
 20
-51.63442920162109
 30
0.0
 10
-569.9047589655777
 20
-51.60108359055113
 30
0.0
 10
-570.18290852427
 20
-51.51642585592312
 30
0.0
 10
-570.4771102960107
 20
-51.37403471700947
 30
0.0
 10
-570.6061172364514
 20
-51.25585150892112
 30
0.0
 10
-570.5859426510973
 20
-51.2832604467191
 30
0.0
 10
-570.5815225404056
 20
-51.28926555348501
 30
0.0
  0
SPLINE
  5
284
330
275
100
AcDbEntity
  8
0
  6
Continuous
 62
     7
370
    25
100
AcDbSpline
210
0.0
220
0.0
230
1.0
 70
     8
 71
     3
 72
    31
 73
    27
 74
     0
 42
0.000000001
 43
0.00000001
 40
0.0
 40
0.0
 40
0.0
 40
0.0
 40
0.0342036037802422
 40
0.0782125210948453
 40
0.1222006756884565
 40
0.1661096444057085
 40
0.2095750374215218
 40
0.2531021405181766
 40
0.2970908369070834
 40
0.3413689778585007
 40
0.3857454959499825
 40
0.4299546691918715
 40
0.4737997493798482
 40
0.5171297658154255
 40
0.560253700709682
 40
0.6037145683855063
 40
0.647548684856079
 40
0.6915926048914227
 40
0.7356526667579695
 40
0.7795103004803186
 40
0.8230148253391568
 40
0.8660684923624361
 40
0.9089883865684314
 40
0.9525456281389139
 40
0.9964550439037726
 40
0.9999999999999999
 40
0.9999999999999999
 40
0.9999999999999999
 40
0.9999999999999999
 10
152.9507555496536
 20
110.0171837634999
 30
0.0
 10
151.9115856026658
 20
109.8262963818795
 30
0.0
 10
149.5353418032665
 20
109.3897990040697
 30
0.0
 10
145.7074441865404
 20
108.8865374773423
 30
0.0
 10
141.5180134300607
 20
108.4821338263956
 30
0.0
 10
137.2953636337129
 20
108.2428762843152
 30
0.0
 10
133.0647689316742
 20
108.1668027618414
 30
0.0
 10
128.8320457920373
 20
108.2498154772989
 30
0.0
 10
124.5963737030327
 20
108.4909549128305
 30
0.0
 10
120.3794463817579
 20
108.8908099192142
 30
0.0
 10
116.2243509995258
 20
109.4469714409088
 30
0.0
 10
112.1744724300159
 20
110.1543767667342
 30
0.0
 10
108.2705814367765
 20
111.0052031115583
 30
0.0
 10
104.536846577058
 20
111.9942532473989
 30
0.0
 10
100.9723496118559
 20
113.1187842677062
 30
0.0
 10
97.56856755457738
 20
114.3761072880095
 30
0.0
 10
94.33434000866043
 20
115.7632211193239
 30
0.0
 10
91.29744508385606
 20
117.2691558935882
 30
0.0
 10
88.48958016115219
 20
118.8782566345053
 30
0.0
 10
85.93946203936395
 20
120.5726611339095
 30
0.0
 10
83.66863453517087
 20
122.333325786135
 30
0.0
 10
81.69348535725622
 20
124.1470099604606
 30
0.0
 10
79.9857288547862
 20
126.0152535019851
 30
0.0
 10
78.58452284738904
 20
127.9340138753999
 30
0.0
 10
77.72752392774645
 20
129.2879107385465
 30
0.0
 10
77.42496547603393
 20
129.9981238210727
 30
0.0
 10
77.40236362954856
 20
130.0511784522432
 30
0.0
  0
SPLINE
  5
285
330
275
100
AcDbEntity
  8
0
  6
Continuous
 62
     7
370
    25
100
AcDbSpline
210
0.0
220
0.0
230
1.0
 70
     8
 71
     3
 72
    25
 73
    21
 74
     0
 42
0.000000001
 43
0.00000001
 40
0.0
 40
0.0
 40
0.0
 40
0.0
 40
0.014308885248485
 40
0.0791408626911253
 40
0.1436501881514631
 40
0.207242140455177
 40
0.2696519221047519
 40
0.3308782544008608
 40
0.3910615805832682
 40
0.4502767822378263
 40
0.5087045745568669
 40
0.5675008205733791
 40
0.6269372615139778
 40
0.6870158878006557
 40
0.7476777964246789
 40
0.8088162407173949
 40
0.8702904158799437
 40
0.9319394583372775
 40
0.9935633137331992
 40
1.0
 40
1.0
 40
1.0
 40
1.0
 10
190.0900344517507
 20
136.6215492544565
 30
0.0
 10
190.0972698386518
 20
136.4655944879214
 30
0.0
 10
190.1372879638454
 20
135.6030259125192
 30
0.0
 10
189.901951930012
 20
134.0352311237154
 30
0.0
 10
189.3672611158958
 20
131.9300092525852
 30
0.0
 10
188.4962156881055
 20
129.856192570211
 30
0.0
 10
187.332255658806
 20
127.8330146140922
 30
0.0
 10
185.8785435123731
 20
125.8742716807515
 30
0.0
 10
184.150100862628
 20
123.9915810165844
 30
0.0
 10
182.1571823162935
 20
122.194535140932
 30
0.0
 10
179.9056584358875
 20
120.4783574906605
 30
0.0
 10
177.3972258042037
 20
118.8392975036926
 30
0.0
 10
174.6257760387856
 20
117.2758341518266
 30
0.0
 10
171.6007301928362
 20
115.7980363307044
 30
0.0
 10
168.3385687611217
 20
114.4179100073155
 30
0.0
 10
164.8585922814634
 20
113.1492938965739
 30
0.0
 10
161.1885444447852
 20
111.998883656148
 30
0.0
 10
157.3422182514748
 20
110.9975429203983
 30
0.0
 10
154.5755006738189
 20
110.354111262372
 30
0.0
 10
153.068926790767
 20
110.0909341211523
 30
0.0
 10
152.9264456528557
 20
110.0660446822904
 30
0.0
  0
SPLINE
  5
286
330
275
100
AcDbEntity
  8
0
  6
Continuous
 62
     7
370
    25
100
AcDbSpline
210
0.0
220
0.0
230
1.0
 70
     8
 71
     3
 72
    33
 73
    29
 74
     0
 42
0.000000001
 43
0.00000001
 40
0.0
 40
0.0
 40
0.0
 40
0.0
 40
0.0314878188677005
 40
0.0742659735242436
 40
0.11650232734163
 40
0.157889720828953
 40
0.1985312482705877
 40
0.2386725899629048
 40
0.2785348938032044
 40
0.3182722928441999
 40
0.357979313104166
 40
0.3976948603914121
 40
0.4374516378350394
 40
0.477263471007924
 40
0.5171330144296082
 40
0.5570568213543745
 40
0.5970283478116561
 40
0.6370396552103426
 40
0.6770823208445682
 40
0.7171478787654998
 40
0.7572279886185981
 40
0.7973144510388478
 40
0.8373982130694951
 40
0.877469335680692
 40
0.9175194655436999
 40
0.957539987860432
 40
0.9954010816621478
 40
1.0
 40
1.0
 40
1.0
 40
1.0
 10
177.977479014173
 20
132.9630196165232
 30
0.0
 10
177.9789660832679
 20
132.5172618006402
 30
0.0
 10
177.982473427949
 20
131.4659143481
 30
0.0
 10
177.6216615080678
 20
129.8128355246948
 30
0.0
 10
176.951181740547
 20
128.0127156880022
 30
0.0
 10
175.9655130254501
 20
126.2443991728125
 30
0.0
 10
174.6902942811212
 20
124.5219315488723
 30
0.0
 10
173.1322270695505
 20
122.8542458528863
 30
0.0
 10
171.3006635965164
 20
121.2497046084115
 30
0.0
 10
169.2045645864278
 20
119.7180487886639
 30
0.0
 10
166.8556496435828
 20
118.2704184372326
 30
0.0
 10
164.2681930762386
 20
116.9183187617201
 30
0.0
 10
161.4590205983077
 20
115.6729852735046
 30
0.0
 10
158.4468264568811
 20
114.5448447216095
 30
0.0
 10
155.2523463762555
 20
113.5434707227954
 30
0.0
 10
151.8980252059623
 20
112.677376312964
 30
0.0
 10
148.4077037076975
 20
111.9538940966451
 30
0.0
 10
144.8063391381206
 20
111.3791121684163
 30
0.0
 10
141.1197562318518
 20
110.9578413645319
 30
0.0
 10
137.3744222943422
 20
110.6936000163901
 30
0.0
 10
133.5972361220683
 20
110.5886054405042
 30
0.0
 10
129.8153677301723
 20
110.6437766543543
 30
0.0
 10
126.0560626503548
 20
110.8587032297562
 30
0.0
 10
122.3465105951699
 20
111.2317189212701
 30
0.0
 10
118.7131958677664
 20
111.7596022791317
 30
0.0
 10
115.2456520635354
 20
112.4267252451443
 30
0.0
 10
112.9019870295126
 20
112.9894502280658
 30
0.0
 10
111.7254641986922
 20
113.3068434352334
 30
0.0
 10
111.5980329487016
 20
113.3412208498218
 30
0.0
  0
SPLINE
  5
287
330
275
100
AcDbEntity
  8
0
  6
Continuous
 62
     7
370
    25
100
AcDbSpline
210
0.0
220
0.0
230
1.0
 70
     8
 71
     3
 72
    21
 73
    17
 74
     0
 42
0.000000001
 43
0.00000001
 40
0.0
 40
0.0
 40
0.0
 40
0.0
 40
0.0399804485828011
 40
0.1160326467773855
 40
0.1919871570459845
 40
0.2678125723918321
 40
0.3435037855808576
 40
0.4190701801398136
 40
0.4945471563748611
 40
0.5700021616904076
 40
0.6455382335896926
 40
0.721367778299059
 40
0.7978190731819301
 40
0.8753299415568981
 40
0.9543365564248518
 40
1.0
 40
1.0
 40
1.0
 40
1.0
 10
111.5980329487016
 20
113.3412208498218
 30
0.0
 10
111.0220386873827
 20
113.5027323046643
 30
0.0
 10
109.3503681324364
 20
113.9714764597336
 30
0.0
 10
106.7055507035539
 20
114.8503434120301
 30
0.0
 10
103.7440824511846
 20
116.0120882435113
 30
0.0
 10
100.9944663496503
 20
117.2898028517536
 30
0.0
 10
98.47371822587074
 20
118.6693951966318
 30
0.0
 10
96.19945212539346
 20
120.1388000200043
 30
0.0
 10
94.18587523924565
 20
121.6842091990124
 30
0.0
 10
92.44471777167011
 20
123.291353429603
 30
0.0
 10
90.98374632442373
 20
124.9461302257071
 30
0.0
 10
89.8085662143182
 20
126.6360888795568
 30
0.0
 10
88.91596620302701
 20
128.3524840601353
 30
0.0
 10
88.32370022184442
 20
130.0918894180823
 30
0.0
 10
88.02156460658172
 20
131.5958913070217
 30
0.0
 10
88.03954694067018
 20
132.521715800543
 30
0.0
 10
88.04613340824912
 20
132.860821557357
 30
0.0
  0
SPLINE
  5
288
330
275
100
AcDbEntity
  8
0
  6
Continuous
 62
     7
370
    25
100
AcDbSpline
210
0.0
220
0.0
230
1.0
 70
     8
 71
     3
 72
    12
 73
     8
 74
     0
 42
0.000000001
 43
0.00000001
 40
0.0
 40
0.0
 40
0.0
 40
0.0
 40
0.0275296942469711
 40
0.3053600470825623
 40
0.5881392936547456
 40
0.8756104372684634
 40
1.0
 40
1.0
 40
1.0
 40
1.0
 10
77.50593011410923
 20
130.0591779774686
 30
0.0
 10
77.46962278695065
 20
130.125524201894
 30
0.0
 10
77.06690101927946
 20
130.8614381583865
 30
0.0
 10
76.57078067448286
 20
132.2909761162305
 30
0.0
 10
76.05850243572307
 20
134.3491540147709
 30
0.0
 10
75.8562660635542
 20
136.0354721997135
 30
0.0
 10
75.92504180161893
 20
137.0339613593618
 30
0.0
 10
75.9458133485342
 20
137.3355235818495
 30
0.0
  0
LWPOLYLINE
  5
299
330
275
100
AcDbEntity
  8
0
  6
Continuous
 62
     7
370
    25
100
AcDbPolyline
 90
        9
 70
   128
 43
0.0
 10
-571.9906206863
 20
-49.0665866722
 10
-572.2868363163
 20
-49.4405225206
 10
-572.435717776
 20
-49.8370367301
 10
-572.4315436345
 20
-50.2408914821
 10
-572.2744743016
 20
-50.636566865
 10
-571.9705458638
 20
-51.0088572956
 10
-571.5314381204
 20
-51.3434558616
 10
-570.9740257358
 20
-51.6275041276
 10
-570.3197297553
 20
-51.8500862782
  0
LWPOLYLINE
  5
29D
330
275
100
AcDbEntity
  8
0
  6
Continuous
 62
     7
370
    25
100
AcDbPolyline
 90
        9
 70
   128
 43
0.0
 10
571.9906206863
 20
91.9249517073
 10
572.2868363163
 20
92.2988875557
 10
572.435717776
 20
92.6954017652
 10
572.4315436345
 20
93.0992565172
 10
572.2744743016
 20
93.4949319001
 10
571.9705458638
 20
93.8672223307
 10
571.5314381204
 20
94.2018208967
 10
570.9740257358
 20
94.4858691627
 10
570.3197297553
 20
94.7084513133
  0
SPLINE
  5
2A5
330
275
100
AcDbEntity
  8
0
  6
Continuous
 62
     7
370
    25
100
AcDbSpline
210
0.0
220
0.0
230
1.0
 70
     8
 71
     3
 72
    38
 73
    34
 74
     0
 42
0.000000001
 43
0.00000001
 40
0.0
 40
0.0
 40
0.0
 40
0.0
 40
0.1250000000000007
 40
0.1250000000000007
 40
0.1875000000000011
 40
0.1875000000000011
 40
0.2187500000000012
 40
0.2187500000000012
 40
0.2500000000000014
 40
0.2500000000000014
 40
0.3750000000000008
 40
0.3750000000000008
 40
0.4062500000000007
 40
0.4062500000000007
 40
0.4375000000000005
 40
0.4375000000000005
 40
0.5000000000000002
 40
0.5000000000000002
 40
0.5625
 40
0.5625
 40
0.5937499999999999
 40
0.5937499999999999
 40
0.6249999999999998
 40
0.6249999999999998
 40
0.7499999999999997
 40
0.7499999999999997
 40
0.7812499999999998
 40
0.7812499999999998
 40
0.8124999999999999
 40
0.8124999999999999
 40
0.8750000000000001
 40
0.8750000000000001
 40
1.0
 40
1.0
 40
1.0
 40
1.0
 10
153.3213704086589
 20
109.765688477308
 30
0.0
 10
149.4109550458797
 20
109.0311773057852
 30
0.0
 10
145.4211606348491
 20
108.5196797289942
 30
0.0
 10
139.322133224398
 20
108.073658925184
 30
0.0
 10
137.2699087392481
 20
107.9789709160929
 30
0.0
 10
134.1619025465305
 20
107.9202742849787
 30
0.0
 10
133.119015745214
 20
107.9147167580282
 30
0.0
 10
131.0470856948925
 20
107.9317180787742
 30
0.0
 10
130.015384114223
 20
107.9541748024157
 30
0.0
 10
124.8778138164836
 20
108.1349894584644
 30
0.0
 10
120.8340800747233
 20
108.4967061292941
 30
0.0
 10
115.8631558408094
 20
109.2229237337307
 30
0.0
 10
114.8719722638658
 20
109.3822277320196
 30
0.0
 10
112.9035073602436
 20
109.7282419869156
 30
0.0
 10
111.9324116355769
 20
109.9138262976116
 30
0.0
 10
109.0576806122341
 20
110.5074983362055
 30
0.0
 10
107.1924984521161
 20
110.9524006686357
 30
0.0
 10
103.5628359709233
 20
111.9386225327272
 30
0.0
 10
101.7983570123523
 20
112.4799434274684
 30
0.0
 10
99.22821799903896
 20
113.3652438848137
 30
0.0
 10
98.38429374525941
 20
113.6725897989795
 30
0.0
 10
96.7225218997984
 20
114.3122476044573
 30
0.0
 10
95.90414533746922
 20
114.6449114358496
 30
0.0
 10
91.92579588498994
 20
116.3512103153932
 30
0.0
 10
89.06336547297275
 20
117.8668293299944
 30
0.0
 10
85.87770877433718
 20
119.9458571213619
 30
0.0
 10
85.26039828738539
 20
120.3709837261332
 30
0.0
 10
84.06603548742004
 20
121.2401717344123
 30
0.0
 10
83.48781725303158
 20
121.6851929445045
 30
0.0
 10
81.82309691387258
 20
123.0426751271834
 30
0.0
 10
80.81449736402729
 20
123.9703390520223
 30
0.0
 10
78.08290917251074
 20
126.8192860471027
 30
0.0
 10
76.65090389693422
 20
128.8058003446621
 30
0.0
 10
75.62206784839879
 20
130.8826940185196
 30
0.0
  0
SPLINE
  5
2A6
330
275
100
AcDbEntity
  8
0
  6
Continuous
 62
     7
370
    25
100
AcDbSpline
210
0.0
220
0.0
230
1.0
 70
     8
 71
     3
 72
     8
 73
     4
 74
     0
 42
0.000000001
 43
0.00000001
 40
0.0000000000000102
 40
0.0000000000000102
 40
0.0000000000000102
 40
0.0000000000000102
 40
0.0000062809730629
 40
0.0000062809730629
 40
0.0000062809730629
 40
0.0000062809730629
 10
153.3271503236061
 20
109.766951198797
 30
0.0
 10
153.3252237439752
 20
109.7665297176572
 30
0.0
 10
153.3232971054988
 20
109.7661088104351
 30
0.0
 10
153.3213704086587
 20
109.7656884773081
 30
0.0
  0
SPLINE
  5
2A7
330
275
100
AcDbEntity
  8
0
  6
Continuous
 62
     7
370
    25
100
AcDbSpline
210
0.0
220
0.0
230
1.0
 70
     8
 71
     3
 72
    34
 73
    30
 74
     0
 42
0.000000001
 43
0.00000001
 40
0.0
 40
0.0
 40
0.0
 40
0.0
 40
0.1250000000000092
 40
0.1250000000000092
 40
0.1875000000000138
 40
0.1875000000000138
 40
0.2187500000000152
 40
0.2187500000000152
 40
0.2500000000000167
 40
0.2500000000000167
 40
0.3750000000000168
 40
0.3750000000000168
 40
0.4375000000000169
 40
0.4375000000000169
 40
0.500000000000017
 40
0.500000000000017
 40
0.6250000000000172
 40
0.6250000000000172
 40
0.6875000000000162
 40
0.6875000000000162
 40
0.7187500000000149
 40
0.7187500000000149
 40
0.7500000000000135
 40
0.7500000000000135
 40
0.875000000000008
 40
0.875000000000008
 40
0.9375000000000043
 40
0.9375000000000043
 40
1.0
 40
1.0
 40
1.0
 40
1.0
 10
190.7835384088923
 20
145.0674107493207
 30
0.0
 10
191.5603639898071
 20
143.2673992567015
 30
0.0
 10
192.0107004590625
 20
141.4585602456561
 30
0.0
 10
192.2172864530521
 20
138.7323934463953
 30
0.0
 10
192.2074801750674
 20
137.8215123990007
 30
0.0
 10
192.073016496528
 20
136.4518677895641
 30
0.0
 10
192.0082063514212
 20
135.9947658000879
 30
0.0
 10
191.8379380574507
 20
135.0794396876412
 30
0.0
 10
191.7321600294446
 20
134.6203325532506
 30
0.0
 10
191.1060948900678
 20
132.3438767040803
 30
0.0
 10
190.2951972932675
 20
130.5692212291463
 30
0.0
 10
188.6276214833479
 20
127.9751864886743
 30
0.0
 10
187.9960691733521
 20
127.121921347217
 30
0.0
 10
186.5783038674451
 20
125.4387110283871
 30
0.0
 10
185.7881977979666
 20
124.6057372804123
 30
0.0
 10
183.228057756456
 20
122.1897221791465
 30
0.0
 10
181.2609353107708
 20
120.6754572635972
 30
0.0
 10
177.9266559167505
 20
118.5462557997054
 30
0.0
 10
176.750908225619
 20
117.8603822743744
 30
0.0
 10
174.8881120183542
 20
116.8683435314381
 30
0.0
 10
174.2492742832817
 20
116.5431982012128
 30
0.0
 10
172.9504643184085
 20
115.9114565223991
 30
0.0
 10
172.2893792386071
 20
115.6042080219988
 30
0.0
 10
168.9265300095436
 20
114.1103701656962
 30
0.0
 10
166.0538444332261
 20
113.0499975091716
 30
0.0
 10
161.4729519721712
 20
111.660135903845
 30
0.0
 10
159.9004090284242
 20
111.2305054066501
 30
0.0
 10
156.6610641882677
 20
110.4408189046928
 30
0.0
 10
155.0096707810797
 20
110.0845353954778
 30
0.0
 10
153.3271503236057
 20
109.7669511987976
 30
0.0
  0
SPLINE
  5
2A8
330
275
100
AcDbEntity
  8
0
  6
Continuous
 62
     7
370
    25
100
AcDbSpline
210
0.0
220
0.0
230
1.0
 70
     8
 71
     3
 72
    16
 73
    12
 74
     0
 42
0.000000001
 43
0.00000001
 40
0.0
 40
0.0
 40
0.0
 40
0.0
 40
0.5
 40
0.5
 40
0.7499999999999999
 40
0.7499999999999999
 40
0.875
 40
0.875
 40
0.9375
 40
0.9375
 40
1.0
 40
1.0
 40
1.0
 40
1.0
 10
563.9248072614595
 20
90.09847901656426
 30
0.0
 10
501.7120266882936
 20
99.22504179497673
 30
0.0
 10
439.5032565111156
 20
108.3577484839041
 30
0.0
 10
346.206638923982
 20
122.0822213763154
 30
0.0
 10
315.1104906252873
 20
126.661222495755
 30
0.0
 10
268.4750212226057
 20
133.5432077596794
 30
0.0
 10
252.9312858840011
 20
135.8393831140167
 30
0.0
 10
229.6200123669528
 20
139.2904422585761
 30
0.0
 10
221.8503023562266
 20
140.4419161175576
 30
0.0
 10
206.3136867429731
 20
142.7493725402782
 30
0.0
 10
198.5464620979285
 20
143.9047871068042
 30
0.0
 10
190.7835384088918
 20
145.0674107493205
 30
0.0
  0
LWPOLYLINE
  5
2A9
330
275
100
AcDbEntity
  8
0
  6
Continuous
 62
     7
370
    25
100
AcDbPolyline
 90
        3
 70
   128
 43
0.0
 10
-201.7691274178
 20
298.197683626
 10
-205.305580509
 20
299.2494146813
 10
-206.3440768323
 20
299.5582643788
  0
SPLINE
  5
2AA
330
275
100
AcDbEntity
  8
0
  6
Continuous
 62
     7
370
    25
100
AcDbSpline
210
0.0
220
0.0
230
1.0
 70
     8
 71
     3
 72
    16
 73
    12
 74
     0
 42
0.000000001
 43
0.00000001
 40
0.0
 40
0.0
 40
0.0
 40
0.0
 40
0.0624999999999999
 40
0.0624999999999999
 40
0.1249999999999999
 40
0.1249999999999999
 40
0.2499999999999999
 40
0.2499999999999999
 40
0.4999999999999999
 40
0.4999999999999999
 40
1.0
 40
1.0
 40
1.0
 40
1.0
 10
111.0187323535647
 20
166.7457758821161
 30
0.0
 10
104.4815512848539
 20
169.4696142842221
 30
0.0
 10
97.95255864590611
 20
172.1996052300249
 30
0.0
 10
84.89873040556657
 20
177.6624187984182
 30
0.0
 10
78.37450294457676
 20
180.395730847582
 30
0.0
 10
58.80594451228124
 20
188.5984911792336
 30
0.0
 10
45.76577750377795
 20
194.0708079745128
 30
0.0
 10
6.653446059216139
 20
210.4932375394688
 30
0.0
 10
-19.41025654934764
 20
221.4490590501587
 30
0.0
 10
-97.58559980855955
 20
254.3269907388872
 30
0.0
 10
-149.6812328376487
 20
276.2597720004635
 30
0.0
 10
-201.7691274177543
 20
298.1976836259736
 30
0.0
  0
SPLINE
  5
2AB
330
275
100
AcDbEntity
  8
0
  6
Continuous
 62
     7
370
    25
100
AcDbSpline
210
0.0
220
0.0
230
1.0
 70
     8
 71
     3
 72
    34
 73
    30
 74
     0
 42
0.000000001
 43
0.00000001
 40
0.0
 40
0.0
 40
0.0
 40
0.0
 40
0.1249999999999971
 40
0.1249999999999971
 40
0.1874999999999957
 40
0.1874999999999957
 40
0.2187499999999959
 40
0.2187499999999959
 40
0.2499999999999961
 40
0.2499999999999961
 40
0.3749999999999968
 40
0.3749999999999968
 40
0.4374999999999962
 40
0.4374999999999962
 40
0.4999999999999956
 40
0.4999999999999956
 40
0.6249999999999943
 40
0.6249999999999943
 40
0.6874999999999937
 40
0.6874999999999937
 40
0.7187499999999934
 40
0.7187499999999934
 40
0.7499999999999931
 40
0.7499999999999931
 40
0.8749999999999958
 40
0.8749999999999958
 40
0.9374999999999979
 40
0.9374999999999979
 40
1.0
 40
1.0
 40
1.0
 40
1.0
 10
75.6208350548586
 20
130.8858626439159
 30
0.0
 10
74.73768893470995
 20
132.6755989137065
 30
0.0
 10
74.18079003481803
 20
134.4789699740702
 30
0.0
 10
73.81441997707967
 20
137.2036938557643
 30
0.0
 10
73.77094796971204
 20
138.1152343509623
 30
0.0
 10
73.82551923269357
 20
139.4875598444803
 30
0.0
 10
73.86370274602031
 20
139.9458390802062
 30
0.0
 10
73.98073421450512
 20
140.8641037111388
 30
0.0
 10
74.05985541609452
 20
141.324993074929
 30
0.0
 10
74.55394355387335
 20
143.6117386068834
 30
0.0
 10
75.26246885765069
 20
145.3987858230919
 30
0.0
 10
76.78094647654868
 20
148.0177390662056
 30
0.0
 10
77.36350407539861
 20
148.880392106481
 30
0.0
 10
78.68465622803589
 20
150.584534729787
 30
0.0
 10
79.42700465143545
 20
151.4291431672799
 30
0.0
 10
81.84865742044015
 20
153.882902339956
 30
0.0
 10
83.72876436520855
 20
155.4260838510247
 30
0.0
 10
86.9399848326884
 20
157.6041761924428
 30
0.0
 10
88.07593416966078
 20
158.3073103880536
 30
0.0
 10
89.8808629389623
 20
159.3266525192158
 30
0.0
 10
90.50069465749114
 20
159.6611622106901
 30
0.0
 10
91.76256090794452
 20
160.311973820491
 30
0.0
 10
92.40564588711926
 20
160.6289310671629
 30
0.0
 10
95.68081879721638
 20
162.1721907684122
 30
0.0
 10
98.49065129939619
 20
163.2749037327029
 30
0.0
 10
102.9882648760914
 20
164.732264432321
 30
0.0
 10
104.5348799430522
 20
165.1850980992846
 30
0.0
 10
107.7261844244891
 20
166.0225986910674
 30
0.0
 10
109.3557865539159
 20
166.4032871069676
 30
0.0
 10
111.0187323536095
 20
166.7457758820977
 30
0.0
  0
SPLINE
  5
2AC
330
275
100
AcDbEntity
  8
0
  6
Continuous
 62
     7
370
    25
100
AcDbSpline
210
0.0
220
0.0
230
1.0
 70
     8
 71
     3
 72
     8
 73
     4
 74
     0
 42
0.000000001
 43
0.00000001
 40
0.0
 40
0.0
 40
0.0
 40
0.0
 40
0.0000062809730722
 40
0.0000062809730722
 40
0.0000062809730722
 40
0.0000062809730722
 10
75.62206784839881
 20
130.8826940185196
 30
0.0
 10
75.62165676963278
 20
130.8837497089652
 30
0.0
 10
75.6212458384194
 20
130.8848059175425
 30
0.0
 10
75.62083505485786
 20
130.8858626439158
 30
0.0
  0
LWPOLYLINE
  5
2AD
330
275
100
AcDbEntity
  8
0
  6
Continuous
 62
     7
370
    25
100
AcDbPolyline
 90
        7
 70
   128
 43
0.0
 10
-647.7998952489
 20
-85.9979351934
 10
-648.6177652244
 20
-85.7197075052
 10
-649.3145307052
 20
-85.3646471727
 10
-649.8634153844
 20
-84.9463989652
 10
-650.2433259317
 20
-84.4810359269
 10
-650.4396625978
 20
-83.9864416983
 10
-650.4664183042
 20
-83.7203901594
  0
LWPOLYLINE
  5
2B2
330
275
100
AcDbEntity
  8
0
  6
Continuous
 62
     7
370
    25
100
AcDbPolyline
 90
        3
 70
   128
 43
0.0
 10
-569.5603236246
 20
-51.0893571764
 10
-389.1439735457
 20
125.0008734786
 10
-208.0661626332
 20
301.7400161482
  0
SPLINE
  5
2B3
330
275
100
AcDbEntity
  8
0
  6
Continuous
 62
     7
370
    25
100
AcDbSpline
210
0.0
220
0.0
230
1.0
 70
     8
 71
     3
 72
     8
 73
     4
 74
     0
 42
0.000000001
 43
0.00000001
 40
0.0
 40
0.0
 40
0.0
 40
0.0
 40
0.0004706759155861
 40
0.0004706759155861
 40
0.0004706759155861
 40
0.0004706759155861
 10
-569.7799784382205
 20
-51.30042070820407
 30
0.0
 10
-569.7067676191091
 20
-51.23118064596671
 30
0.0
 10
-569.6335443844341
 20
-51.16082175254768
 30
0.0
 10
-569.5603236246086
 20
-51.08935717635499
 30
0.0
  0
SPLINE
  5
2B5
330
275
100
AcDbEntity
  8
0
  6
Continuous
 62
     7
370
    25
100
AcDbSpline
210
0.0
220
0.0
230
1.0
 70
     8
 71
     3
 72
     8
 73
     4
 74
     0
 42
0.000000001
 43
0.00000001
 40
0.0000000000000299
 40
0.0000000000000299
 40
0.0000000000000299
 40
0.0000000000000299
 40
0.0000355828292625
 40
0.0000355828292625
 40
0.0000355828292625
 40
0.0000355828292625
 10
190.7729283344615
 20
145.084847526561
 30
0.0
 10
190.776469125669
 20
145.0790240754578
 30
0.0
 10
190.780005822797
 20
145.0732118022345
 30
0.0
 10
190.7835384088982
 20
145.0674107493218
 30
0.0
  0
SPLINE
  5
2B6
330
275
100
AcDbEntity
  8
0
  6
Continuous
 62
     7
370
    25
100
AcDbSpline
210
0.0
220
0.0
230
1.0
 70
     8
 71
     3
 72
    16
 73
    12
 74
     0
 42
0.000000001
 43
0.00000001
 40
0.0
 40
0.0
 40
0.0
 40
0.0
 40
0.0625000000000001
 40
0.0625000000000001
 40
0.1250000000000002
 40
0.1250000000000002
 40
0.2500000000000002
 40
0.2500000000000002
 40
0.5000000000000001
 40
0.5000000000000001
 40
1.0
 40
1.0
 40
1.0
 40
1.0
 10
190.77292833445
 20
145.0848475265422
 30
0.0
 10
198.4206089187175
 20
143.9941880349595
 30
0.0
 10
206.0642167590651
 20
142.8975624076365
 30
0.0
 10
221.3493127217365
 20
140.7014705618167
 30
0.0
 10
228.9905024137462
 20
139.6015434619728
 30
0.0
 10
251.9119501315389
 20
136.2988949114022
 30
0.0
 10
267.190065329068
 20
134.0932574522576
 30
0.0
 10
313.0201078764009
 20
127.4701183667178
 30
0.0
 10
343.5675720857736
 20
123.0461085235252
 30
0.0
 10
435.2016343523147
 20
109.7595001398468
 30
0.0
 10
496.2798327047329
 20
100.8822863097535
 30
0.0
 10
557.3541501460716
 20
91.99639121874395
 30
0.0
  0
SPLINE
  5
2B7
330
275
100
AcDbEntity
  8
0
  6
Continuous
 62
     7
370
    25
100
AcDbSpline
210
0.0
220
0.0
230
1.0
 70
     8
 71
     3
 72
     8
 73
     4
 74
     0
 42
0.000000001
 43
0.00000001
 40
0.0
 40
0.0
 40
0.0
 40
0.0
 40
1.0
 40
1.0
 40
1.0
 40
1.0
 10
563.9248072614591
 20
90.0984790165637
 30
0.0
 10
561.735101185193
 20
90.69601043971898
 30
0.0
 10
559.5446317434846
 20
91.32830848832604
 30
0.0
 10
557.3541501460709
 20
91.99639121874277
 30
0.0
  0
SPLINE
  5
2B8
330
275
100
AcDbEntity
  8
0
  6
Continuous
 62
     7
370
    25
100
AcDbSpline
210
0.0
220
0.0
230
1.0
 70
     8
 71
     3
 72
    52
 73
    48
 74
     0
 42
0.000000001
 43
0.00000001
 40
0.0
 40
0.0
 40
0.0
 40
0.0
 40
0.0624999999999986
 40
0.0624999999999986
 40
0.1249999999999973
 40
0.1249999999999973
 40
0.1874999999999959
 40
0.1874999999999959
 40
0.2187499999999956
 40
0.2187499999999956
 40
0.2499999999999954
 40
0.2499999999999954
 40
0.2812499999999951
 40
0.2812499999999951
 40
0.3124999999999948
 40
0.3124999999999948
 40
0.3749999999999947
 40
0.3749999999999947
 40
0.4374999999999946
 40
0.4374999999999946
 40
0.4687499999999946
 40
0.4687499999999946
 40
0.4999999999999947
 40
0.4999999999999947
 40
0.5624999999999947
 40
0.5624999999999947
 40
0.5937499999999947
 40
0.5937499999999947
 40
0.6249999999999946
 40
0.6249999999999946
 40
0.6562499999999946
 40
0.6562499999999946
 40
0.6874999999999944
 40
0.6874999999999944
 40
0.7499999999999948
 40
0.7499999999999948
 40
0.7812499999999952
 40
0.7812499999999952
 40
0.8124999999999957
 40
0.8124999999999957
 40
0.8437499999999961
 40
0.8437499999999961
 40
0.8749999999999964
 40
0.8749999999999964
 40
0.9374999999999982
 40
0.9374999999999982
 40
1.0
 40
1.0
 40
1.0
 40
1.0
 10
111.0527582053534
 20
166.7510815710077
 30
0.0
 10
113.0442786142109
 20
167.1616853035549
 30
0.0
 10
115.0601898314706
 20
167.5130942738782
 30
0.0
 10
119.1391601871465
 20
168.1019689119143
 30
0.0
 10
121.2022256034504
 20
168.3394164845676
 30
0.0
 10
125.3756758476643
 20
168.7008007324808
 30
0.0
 10
127.4860484278013
 20
168.8247442356671
 30
0.0
 10
130.6886038944396
 20
168.9225579846883
 30
0.0
 10
131.7612089332358
 20
168.9403262182466
 30
0.0
 10
133.8985326349622
 20
168.9459196075453
 30
0.0
 10
134.9657165680333
 20
168.9338552534194
 30
0.0
 10
137.0971306197434
 20
168.8800571280845
 30
0.0
 10
138.1613603287002
 20
168.8383219983288
 30
0.0
 10
140.2868509964129
 20
168.7250029272157
 30
0.0
 10
141.3479651750703
 20
168.65334689543
 30
0.0
 10
144.4973735936127
 20
168.3960078616915
 30
0.0
 10
146.5618570385765
 20
168.1676272413785
 30
0.0
 10
150.624965237115
 20
167.6001152772438
 30
0.0
 10
152.62365454077
 20
167.2609422474172
 30
0.0
 10
155.5738068968359
 20
166.6662794265252
 30
0.0
 10
156.5491833381254
 20
166.4536770176896
 30
0.0
 10
158.4837855920366
 20
165.9987487183214
 30
0.0
 10
159.4447676342702
 20
165.7559000987327
 30
0.0
 10
162.2828327913763
 20
164.9870965673365
 30
0.0
 10
164.1192458417904
 20
164.4201309786803
 30
0.0
 10
166.7897686215537
 20
163.4901652417429
 30
0.0
 10
167.667043670988
 20
163.1664912939162
 30
0.0
 10
169.385165722103
 20
162.4959079047085
 30
0.0
 10
170.2263144330623
 20
162.1489525363473
 30
0.0
 10
171.8722417110791
 20
161.4322339983792
 30
0.0
 10
172.6770229815466
 20
161.062480201545
 30
0.0
 10
174.2492716644579
 20
160.3002896403482
 30
0.0
 10
175.0178594254424
 20
159.9072095967321
 30
0.0
 10
177.2562034920435
 20
158.6990160065974
 30
0.0
 10
178.6583487365384
 20
157.8555668209974
 30
0.0
 10
180.6253894587849
 20
156.5336655910139
 30
0.0
 10
181.2590473674599
 20
156.0830317603308
 30
0.0
 10
182.4769710719541
 20
155.1653061328719
 30
0.0
 10
183.0608924720166
 20
154.6985143029553
 30
0.0
 10
184.1788691479261
 20
153.7490032536076
 30
0.0
 10
184.7123695660005
 20
153.2666308032782
 30
0.0
 10
185.7224696398337
 20
152.293071219488
 30
0.0
 10
186.2000937511752
 20
151.801036075386
 30
0.0
 10
187.5522109468723
 20
150.3093064989175
 30
0.0
 10
188.346172504231
 20
149.2940401137788
 30
0.0
 10
189.7209537732596
 20
147.2214287353372
 30
0.0
 10
190.3017954569996
 20
146.1640911509466
 30
0.0
 10
190.7729283344008
 20
145.0848475265496
 30
0.0
  0
SPLINE
  5
2B9
330
275
100
AcDbEntity
  8
0
  6
Continuous
 62
     7
370
    25
100
AcDbSpline
210
0.0
220
0.0
230
1.0
 70
     8
 71
     3
 72
    16
 73
    12
 74
     0
 42
0.000000001
 43
0.00000001
 40
0.0
 40
0.0
 40
0.0
 40
0.0
 40
0.5
 40
0.5
 40
0.7500000000000001
 40
0.7500000000000001
 40
0.8750000000000001
 40
0.8750000000000001
 40
0.9375
 40
0.9375
 40
1.0
 40
1.0
 40
1.0
 40
1.0
 10
-194.9112656890508
 20
296.446012144686
 30
0.0
 10
-143.8729364053684
 20
274.8620926824658
 30
0.0
 10
-92.84236829193685
 20
253.2705468182506
 30
0.0
 10
-16.32945520601198
 20
220.8584107804584
 30
0.0
 10
9.169391769303648
 20
210.0502341001397
 30
0.0
 10
47.4003906927573
 20
193.8273847105772
 30
0.0
 10
60.1412475953292
 20
188.4180659234256
 30
0.0
 10
79.24418928492614
 20
180.2993844992385
 30
0.0
 10
85.6104580736739
 20
177.5923836249331
 30
0.0
 10
98.33768196870798
 20
172.1753253716878
 30
0.0
 10
104.6992269622045
 20
169.4656492661981
 30
0.0
 10
111.0527582053516
 20
166.7510815710077
 30
0.0
  0
SPLINE
  5
2BA
330
275
100
AcDbEntity
  8
0
  6
Continuous
 62
     7
370
    25
100
AcDbSpline
210
0.0
220
0.0
230
1.0
 70
     8
 71
     3
 72
    14
 73
    10
 74
     0
 42
0.000000001
 43
0.00000001
 40
0.0
 40
0.0
 40
0.0
 40
0.0
 40
0.2500000000000001
 40
0.2500000000000001
 40
0.5000000000000001
 40
0.5000000000000001
 40
0.75
 40
0.75
 40
1.0
 40
1.0
 40
1.0
 40
1.0
 10
557.3541501460711
 20
91.996391218743
 30
0.0
 10
494.6764821530829
 20
109.0300261018726
 30
0.0
 10
432.0011023730282
 20
126.0639292756873
 30
0.0
 10
306.6468759480788
 20
160.1347201674102
 30
0.0
 10
243.9670691723709
 20
177.17159244912
 30
0.0
 10
118.5894883655591
 20
211.2465323961188
 30
0.0
 10
55.89172287148472
 20
228.2845977409428
 30
0.0
 10
-69.50918376996174
 20
262.3636789838328
 30
0.0
 10
-132.2113669993005
 20
279.4047109196855
 30
0.0
 10
-194.9112656890532
 20
296.4460121446843
 30
0.0
  0
SPLINE
  5
2C2
330
275
100
AcDbEntity
  8
0
  6
Continuous
 62
     7
370
    25
100
AcDbSpline
210
0.0
220
0.0
230
1.0
 70
     8
 71
     3
 72
     8
 73
     4
 74
     0
 42
0.000000001
 43
0.00000001
 40
0.0
 40
0.0
 40
0.0
 40
0.0
 40
1.0
 40
1.0
 40
1.0
 40
1.0
 10
558.1433958641904
 20
94.46127597075879
 30
0.0
 10
560.3663792306733
 20
93.85775001130278
 30
0.0
 10
562.5892188245078
 20
93.28292007481376
 30
0.0
 10
564.8114240512485
 20
92.73590885397151
 30
0.0
  0
SPLINE
  5
2C3
330
275
100
AcDbEntity
  8
0
  6
Continuous
 62
     7
370
    25
100
AcDbSpline
210
0.0
220
0.0
230
1.0
 70
     8
 71
     3
 72
    10
 73
     6
 74
     0
 42
0.000000001
 43
0.00000001
 40
0.0
 40
0.0
 40
0.0
 40
0.0
 40
0.5
 40
0.5
 40
1.0
 40
1.0
 40
1.0
 40
1.0
 10
-194.1209924987525
 20
298.9106176517773
 30
0.0
 10
-68.7435986501003
 20
264.8000108193031
 30
0.0
 10
56.63379234840532
 20
230.673654302292
 30
0.0
 10
307.3885929724019
 20
162.5238725135611
 30
0.0
 10
432.7659953443816
 20
128.5004492204262
 30
0.0
 10
558.1433958641906
 20
94.46127597075879
 30
0.0
  0
SPLINE
  5
2C4
330
275
100
AcDbEntity
  8
0
  6
Continuous
 62
     7
370
    25
100
AcDbSpline
210
0.0
220
0.0
230
1.0
 70
     8
 71
     3
 72
     8
 73
     4
 74
     0
 42
0.000000001
 43
0.00000001
 40
0.0
 40
0.0
 40
0.0
 40
0.0
 40
1.0
 40
1.0
 40
1.0
 40
1.0
 10
-200.7890206857698
 20
300.8097049003409
 30
0.0
 10
-198.5668157709736
 20
300.1488206848956
 30
0.0
 10
-196.3439748638555
 20
299.515409912359
 30
0.0
 10
-194.1209924987525
 20
298.9106176517773
 30
0.0
  0
SPLINE
  5
2CA
330
275
100
AcDbEntity
  8
0
  6
Continuous
 62
     7
370
    25
100
AcDbSpline
210
0.0
220
0.0
230
1.0
 70
     8
 71
     3
 72
     8
 73
     4
 74
     0
 42
0.000000001
 43
0.00000001
 40
0.0
 40
0.0
 40
0.0
 40
0.0
 40
0.0000390615927959
 40
0.0000390615927959
 40
0.0000390615927959
 40
0.0000390615927959
 10
188.8901985111545
 20
143.136237106228
 30
0.0
 10
188.8873691594299
 20
143.1427771488834
 30
0.0
 10
188.8845354675553
 20
143.1493309411121
 30
0.0
 10
188.8816974503596
 20
143.1558984331601
 30
0.0
  0
SPLINE
  5
2CC
330
275
100
AcDbEntity
  8
0
  6
Continuous
 62
     7
370
    25
100
AcDbSpline
210
0.0
220
0.0
230
1.0
 70
     8
 71
     3
 72
     9
 73
     5
 74
     0
 42
0.000000001
 43
0.00000001
 40
0.0
 40
0.0
 40
0.0
 40
0.0
 40
0.78047728798289
 40
1.0
 40
1.0
 40
1.0
 40
1.0
 10
75.8067744044007
 20
137.3880693293982
 30
0.0
 10
75.77968983130043
 20
137.2113117555053
 30
0.0
 10
75.74498725440635
 20
136.9848380622736
 30
0.0
 10
75.76511403164727
 20
136.7582510412601
 30
0.0
 10
75.76953231637133
 20
136.7085100438993
 30
0.0
  0
SPLINE
  5
2CD
330
275
100
AcDbEntity
  8
0
  6
Continuous
 62
     7
370
    25
100
AcDbSpline
210
0.0
220
0.0
230
1.0
 70
     8
 71
     3
 72
     8
 73
     4
 74
     0
 42
0.000000001
 43
0.00000001
 40
0.0
 40
0.0
 40
0.0
 40
0.0
 40
0.0000390615927951
 40
0.0000390615927951
 40
0.0000390615927951
 40
0.0000390615927951
 10
111.7747943318463
 20
164.1119024996937
 30
0.0
 10
111.7627024861959
 20
164.1093926244591
 30
0.0
 10
111.7506122461702
 20
164.1068948371399
 30
0.0
 10
111.7385236749407
 20
164.1044091662911
 30
0.0
  0
SPLINE
  5
2CE
330
275
100
AcDbEntity
  8
0
  6
Continuous
 62
     7
370
    25
100
AcDbSpline
210
0.0
220
0.0
230
1.0
 70
     8
 71
     3
 72
    46
 73
    42
 74
     0
 42
0.000000001
 43
0.00000001
 40
0.0
 40
0.0
 40
0.0
 40
0.0
 40
0.1250000000000016
 40
0.1250000000000016
 40
0.1562500000000016
 40
0.1562500000000016
 40
0.1875000000000016
 40
0.1875000000000016
 40
0.2500000000000014
 40
0.2500000000000014
 40
0.3125000000000012
 40
0.3125000000000012
 40
0.3437500000000012
 40
0.3437500000000012
 40
0.3750000000000012
 40
0.3750000000000012
 40
0.4062500000000012
 40
0.4062500000000012
 40
0.4375000000000012
 40
0.4375000000000012
 40
0.5000000000000012
 40
0.5000000000000012
 40
0.5312500000000013
 40
0.5312500000000013
 40
0.5625000000000012
 40
0.5625000000000012
 40
0.6250000000000013
 40
0.6250000000000013
 40
0.6875000000000013
 40
0.6875000000000013
 40
0.7187500000000013
 40
0.7187500000000013
 40
0.7500000000000012
 40
0.7500000000000012
 40
0.7812500000000012
 40
0.7812500000000012
 40
0.8125000000000012
 40
0.8125000000000012
 40
0.8750000000000004
 40
0.8750000000000004
 40
1.0
 40
1.0
 40
1.0
 40
1.0
 10
188.8816974503595
 20
143.1558984331601
 30
0.0
 10
187.9761603148091
 20
145.2514135504871
 30
0.0
 10
186.6496019214973
 20
147.2637687089654
 30
0.0
 10
184.4808118717455
 20
149.6822913824921
 30
0.0
 10
184.0212411349758
 20
150.1611072290262
 30
0.0
 10
183.0497281443552
 20
151.1089568649506
 30
0.0
 10
182.5368250418725
 20
151.5787959662642
 30
0.0
 10
180.9255482251027
 20
152.9669446347803
 30
0.0
 10
179.7535542941541
 20
153.8648622028207
 30
0.0
 10
177.2374725626965
 20
155.5901541813234
 30
0.0
 10
175.8932015175162
 20
156.4183340381272
 30
0.0
 10
173.7469290791307
 20
157.6081300215907
 30
0.0
 10
173.0099541211552
 20
157.995771943659
 30
0.0
 10
171.5014377422715
 20
158.7482743780554
 30
0.0
 10
170.728839938263
 20
159.1137442704163
 30
0.0
 10
169.1470632315568
 20
159.8222738223628
 30
0.0
 10
168.3378843450874
 20
160.1653254609406
 30
0.0
 10
166.6827153707253
 20
160.8277429737171
 30
0.0
 10
165.8364477448956
 20
161.1471350381501
 30
0.0
 10
163.2576012159367
 20
162.0622782881281
 30
0.0
 10
161.4802012744333
 20
162.6168332635729
 30
0.0
 10
158.7266579400216
 20
163.3619030672817
 30
0.0
 10
157.7931430355801
 20
163.5960029484849
 30
0.0
 10
155.913781659042
 20
164.0315592143324
 30
0.0
 10
154.9659838897797
 20
164.2335945282954
 30
0.0
 10
152.0986621109441
 20
164.7945690555526
 30
0.0
 10
150.1552770877196
 20
165.1085664285257
 30
0.0
 10
146.205353426683
 20
165.6264674478993
 30
0.0
 10
144.1988152979921
 20
165.8305799715048
 30
0.0
 10
141.1403866500491
 20
166.0565627725271
 30
0.0
 10
140.1104054410908
 20
166.118543675121
 30
0.0
 10
138.0476779983314
 20
166.2145864532444
 30
0.0
 10
137.0151657005856
 20
166.2487113563255
 30
0.0
 10
134.9478585038811
 20
166.2893180211594
 30
0.0
 10
133.9130636339769
 20
166.2957959292847
 30
0.0
 10
131.8411863709333
 20
166.2809318504333
 30
0.0
 10
130.801846461371
 20
166.2594960437249
 30
0.0
 10
127.6981778673858
 20
166.1533470629248
 30
0.0
 10
125.6528705957332
 20
166.0273546399683
 30
0.0
 10
119.5860726962132
 20
165.487219211869
 30
0.0
 10
115.6329005804777
 20
164.9127203074863
 30
0.0
 10
111.7747943318463
 20
164.1119024996937
 30
0.0
  0
LWPOLYLINE
  5
2CF
330
275
100
AcDbEntity
  8
0
  6
Continuous
 62
     7
370
    25
100
AcDbPolyline
 90
       73
 70
   128
 43
0.0
 10
111.0735025654
 20
113.1255637733
 10
107.5341110977
 20
114.1916467899
 10
104.1885927205
 20
115.4125511046
 10
101.0624088487
 20
116.7789848983
 10
98.1793516293
 20
118.2805487848
 10
95.5613628684
 20
119.9058149561
 10
93.2283670415
 20
121.6424141555
 10
91.1981196553
 20
123.4771298144
 10
89.4860721184
 20
125.3959986388
 10
88.1052541464
 20
127.3844168783
 10
87.0661745977
 20
129.4272514695
 10
86.3767414952
 20
131.5089552076
 10
86.042201841
 20
133.6136850702
 10
86.065101684
 20
135.7254227922
 10
86.4452667423
 20
137.8280967744
 10
87.1798037306
 20
139.9057043982
 10
88.2631223786
 20
141.9424338151
 10
89.6869779775
 20
143.9227842844
 10
91.4405341262
 20
145.8316841432
 10
93.5104452038
 20
147.6546055111
 10
95.8809579371
 20
149.3776748557
 10
98.5340312927
 20
150.9877785788
 10
101.4494737806
 20
152.472662819
 10
104.605097123
 20
153.8210267105
 10
107.9768851207
 20
155.02260839
 10
111.5391764314
 20
156.0682630953
 10
115.2648598669
 20
156.9500327629
 10
119.1255807269
 20
157.661206593
 10
123.0919565944
 20
158.1963721234
 10
127.1338009541
 20
158.5514564213
 10
131.2203529298
 20
158.7237570808
 10
135.3205113936
 20
158.7119627898
 10
139.4030716637
 20
158.5161633099
 10
143.4369629914
 20
158.1378487936
 10
147.3914850279
 20
157.5798984426
 10
151.2365414728
 20
156.846558596
 10
154.9428691248
 20
155.9434104129
 10
158.4822605925
 20
154.8773273962
 10
161.8277789697
 20
153.6564230816
 10
164.9539628414
 20
152.2899892879
 10
167.8370200609
 20
150.7884254014
 10
170.4550088217
 20
149.16315923
 10
172.7880046487
 20
147.4265600306
 10
174.8182520348
 20
145.5918443717
 10
176.5302995717
 20
143.6729755474
 10
177.9111175437
 20
141.6845573079
 10
178.9501970924
 20
139.6417227167
 10
179.6396301949
 20
137.5600189786
 10
179.9741698491
 20
135.455289116
 10
179.9512700062
 20
133.343551394
 10
179.5711049478
 20
131.2408774118
 10
178.8365679596
 20
129.163269788
 10
177.7532493115
 20
127.1265403711
 10
176.3293937127
 20
125.1461899018
 10
174.5758375639
 20
123.2372900429
 10
172.5059264863
 20
121.4143686751
 10
170.1354137531
 20
119.6912993305
 10
167.4823403974
 20
118.0811956074
 10
164.5668979095
 20
116.5963113672
 10
161.4112745672
 20
115.2479474757
 10
158.0394865694
 20
114.0463657962
 10
154.4771952588
 20
113.0007110908
 10
150.7515118232
 20
112.1189414233
 10
146.8907909632
 20
111.4077675932
 10
142.9244150957
 20
110.8726020628
 10
138.882570736
 20
110.5175177649
 10
134.7960187603
 20
110.3452171054
 10
130.6958602965
 20
110.3570113964
 10
126.6133000264
 20
110.5528108762
 10
122.5794086987
 20
110.9311253926
 10
118.6248866622
 20
111.4890757436
 10
114.7798302173
 20
112.2224155902
 10
111.0735025654
 20
113.1255637733
  0
LWPOLYLINE
  5
2D2
330
275
100
AcDbEntity
  8
0
  6
Continuous
 62
     7
370
    25
100
AcDbPolyline
 90
       37
 70
   128
 43
0.0
 10
177.9083707157
 20
131.3628960173
 10
177.9055673447
 20
131.3843872668
 10
177.4614398375
 20
133.4219550513
 10
176.6694053459
 20
135.4313331776
 10
175.5356626135
 20
137.3967955376
 10
174.0690847146
 20
139.3029597234
 10
172.2811496096
 20
141.1349074158
 10
170.1858503149
 20
142.8783011403
 10
167.7995853884
 20
144.5194964771
 10
165.1410305885
 20
146.0456488475
 10
162.2309927112
 20
147.4448140401
 10
159.0922467484
 20
148.7060416901
 10
155.749357643
 20
149.8194609811
 10
152.2284880346
 20
150.7763578975
 10
148.5571935017
 20
151.5692434236
 10
144.7642069018
 20
152.1919121551
 10
140.8792134978
 20
152.6394908649
 10
136.9326186304
 20
152.9084766428
 10
132.9553097555
 20
152.9967643103
 10
128.9784147078
 20
152.9036628968
 10
125.0330580829
 20
152.629901047
 10
121.1501176459
 20
152.1776213186
 10
117.3599826702
 20
151.5503634137
 10
113.6923161011
 20
150.7530364758
 10
110.1758224021
 20
149.7918806693
 10
106.8380229043
 20
148.6744183417
 10
103.7050404143
 20
147.4093951506
 10
100.8013947681
 20
146.0067116178
 10
98.1498109295
 20
144.4773456437
 10
95.7710411374
 20
142.8332665907
 10
93.6837024907
 20
141.0873416064
 10
91.9041312443
 20
139.2532349211
 10
90.4462549561
 20
137.3453009065
 10
89.3214834847
 20
135.3784717329
 10
88.5386196918
 20
133.3681405055
 10
88.1037905482
 20
131.3300407917
 10
88.0917428458
 20
131.231792625
  0
SPLINE
  5
2D6
330
275
100
AcDbEntity
  8
0
  6
Continuous
 62
     7
370
    25
100
AcDbSpline
210
0.0
220
0.0
230
1.0
 70
     8
 71
     3
 72
     8
 73
     4
 74
     0
 42
0.000000001
 43
0.00000001
 40
0.0
 40
0.0
 40
0.0
 40
0.0
 40
1.0
 40
1.0
 40
1.0
 40
1.0
 10
-194.9112656890532
 20
296.4460121446837
 30
0.0
 10
-197.1974456055624
 20
296.9945901401289
 30
0.0
 10
-199.4836634360366
 20
297.5789597181479
 30
0.0
 10
-201.7691274177427
 20
298.1976836259728
 30
0.0
  0
SPLINE
  5
2D7
330
275
100
AcDbEntity
  8
0
  6
Continuous
 62
     7
370
    25
100
AcDbSpline
210
0.0
220
0.0
230
1.0
 70
     8
 71
     3
 72
     8
 73
     4
 74
     0
 42
0.000000001
 43
0.00000001
 40
0.0000000000000335
 40
0.0000000000000335
 40
0.0000000000000335
 40
0.0000000000000335
 40
0.0000355828292615
 40
0.0000355828292615
 40
0.0000355828292615
 40
0.0000355828292615
 10
111.0187323535894
 20
166.7457758821334
 30
0.0
 10
111.0300730162313
 20
166.7475347047331
 30
0.0
 10
111.041414983851
 20
166.7493032756362
 30
0.0
 10
111.0527582053516
 20
166.7510815710109
 30
0.0
  0
SPLINE
  5
2DF
330
275
100
AcDbEntity
  8
0
  6
Continuous
 62
     8
370
    25
100
AcDbSpline
210
0.0
220
0.0
230
1.0
 70
     8
 71
     3
 72
    14
 73
    10
 74
     0
 42
0.000000001
 43
0.00000001
 40
0.0
 40
0.0
 40
0.0
 40
0.0
 40
0.125
 40
0.125
 40
0.25
 40
0.25
 40
0.5
 40
0.5
 40
1.0
 40
1.0
 40
1.0
 40
1.0
 10
75.62206784840237
 20
130.8826940185164
 30
0.0
 10
48.92648600987551
 20
123.2125720308734
 30
0.0
 10
22.21705880064934
 20
115.5550280319292
 30
0.0
 10
-31.20398366826986
 20
100.241637760252
 30
0.0
 10
-57.91724941947734
 20
92.58734944996677
 30
0.0
 10
-138.0596307331134
 20
69.62670976087217
 30
0.0
 10
-191.4915087229317
 20
54.3227540384605
 30
0.0
 10
-351.7892432624126
 20
8.412674129364792
 30
0.0
 10
-458.657883918845
 20
-22.19105627959904
 30
0.0
 10
-565.5269089104326
 20
-52.79446198923041
 30
0.0
  0
SPLINE
  5
2E0
330
275
100
AcDbEntity
  8
0
  6
Continuous
 62
     8
370
    25
100
AcDbSpline
210
0.0
220
0.0
230
1.0
 70
     8
 71
     3
 72
    10
 73
     6
 74
     0
 42
0.000000001
 43
0.00000001
 40
0.0
 40
0.0
 40
0.0
 40
0.0
 40
0.8779530937895331
 40
0.941400836639967
 40
1.0
 40
1.0
 40
1.0
 40
1.0
 10
206.4771077061429
 20
-262.3461539085492
 30
0.0
 10
190.8652090746153
 20
-153.4489642037005
 30
0.0
 10
174.1250727994285
 20
-36.68201364442455
 30
0.0
 10
156.4802290830598
 20
87.35723062909904
 30
0.0
 10
154.3460618172572
 20
102.496685142688
 30
0.0
 10
153.3213704086053
 20
109.765688477305
 30
0.0
  0
SPLINE
  5
2E1
330
275
100
AcDbEntity
  8
0
  6
Continuous
 62
     8
370
    25
100
AcDbSpline
210
0.0
220
0.0
230
1.0
 70
     8
 71
     3
 72
    13
 73
     9
 74
     0
 42
0.000000001
 43
0.00000001
 40
0.0
 40
0.0
 40
0.0
 40
0.0
 40
0.0586021526954427
 40
0.1220501580440259
 40
0.2489461325426485
 40
0.5027380794551422
 40
0.8834260153333686
 40
1.0
 40
1.0
 40
1.0
 40
1.0
 10
153.3271503235949
 20
109.7669511987972
 30
0.0
 10
154.3850043634156
 20
102.4989525011488
 30
0.0
 10
156.5881871273428
 20
87.36195925242228
 30
0.0
 10
161.0435514492981
 20
56.48564032944951
 30
0.0
 10
168.969030018338
 20
1.399126034095442
 30
0.0
 10
182.5188990685353
 20
-93.0368589558957
 30
0.0
 10
195.8743459298668
 20
-186.193346562006
 30
0.0
 10
204.7143093325883
 20
-247.8710744032381
 30
0.0
 10
206.786677466133
 20
-262.3302923778584
 30
0.0
  0
LWPOLYLINE
  5
2E2
330
275
100
AcDbEntity
  8
0
  6
Continuous
 62
     8
370
    25
100
AcDbPolyline
 90
        3
 70
   128
 43
0.0
 10
567.9876857286
 20
89.0983648088
 10
564.9632941271
 20
89.8428432138
 10
563.9248072615
 20
90.0984790166
  0
LWPOLYLINE
  5
2E3
330
275
100
AcDbEntity
  8
0
  6
Continuous
 62
     8
370
    25
100
AcDbPolyline
 90
        7
 70
   128
 43
0.0
 10
-206.3440768323
 20
299.5582643788
 10
-208.2108889509
 20
297.736208712
 10
-215.6781361535
 20
290.4479868703
 10
-245.5470996128
 20
261.2951158681
 10
-365.0222287015
 20
144.6840945715
 10
-466.4307300811
 20
45.7061551736
 10
-566.9528011824
 20
-52.4069321243
  0
SPLINE
  5
2E4
330
275
100
AcDbEntity
  8
0
  6
Continuous
 62
     8
370
    25
100
AcDbSpline
210
0.0
220
0.0
230
1.0
 70
     8
 71
     3
 72
    10
 73
     6
 74
     0
 42
0.000000001
 43
0.00000001
 40
0.0
 40
0.0
 40
0.0
 40
0.0
 40
0.8780733965098335
 40
0.9414571717900584
 40
0.9999999999999999
 40
0.9999999999999999
 40
0.9999999999999999
 40
0.9999999999999999
 10
-565.8583473480139
 20
-52.70438122519158
 30
0.0
 10
-378.1312692153073
 20
1.056555656792649
 30
0.0
 10
-176.8531018665146
 20
58.69822865460325
 30
0.0
 10
37.01053618395925
 20
119.8606401024389
 30
0.0
 10
63.09596548198865
 20
127.3093693666825
 30
0.0
 10
75.62083505485651
 20
130.88586264392
 30
0.0
  0
LWPOLYLINE
  5
2E5
330
275
100
AcDbEntity
  8
0
  6
Continuous
 62
     8
370
    25
100
AcDbPolyline
 90
        7
 70
   128
 43
0.0
 10
-650.4664183042
 20
-66.5770441453
 10
-650.4396625978
 20
-66.8430956843
 10
-650.2433259317
 20
-67.3376899128
 10
-649.8634153844
 20
-67.8030529512
 10
-649.3145307052
 20
-68.2213011586
 10
-648.6177652244
 20
-68.5763614912
 10
-647.7998952489
 20
-68.8545891793
  0
LWPOLYLINE
  5
2EB
330
275
100
AcDbEntity
  8
0
  6
Continuous
 62
     8
370
    25
100
AcDbPolyline
 90
        3
 70
   128
 43
0.0
 10
-569.4449925143
 20
-51.7296079215
 10
-569.5274675911
 20
-51.4271841869
 10
-569.5603236246
 20
-51.0893571764
  0
SPLINE
  5
2F1
330
275
100
AcDbEntity
  8
0
  6
Continuous
 62
     8
370
    25
100
AcDbSpline
210
0.0
220
0.0
230
1.0
 70
     8
 71
     3
 72
    10
 73
     6
 74
     0
 42
0.000000001
 43
0.00000001
 40
0.0
 40
0.0
 40
0.0
 40
0.0
 40
0.2188929673736232
 40
0.6080155407659004
 40
0.9999999999999999
 40
0.9999999999999999
 40
0.9999999999999999
 40
0.9999999999999999
 10
190.2095054002679
 20
136.7323095259848
 30
0.0
 10
190.215090284086
 20
137.2034535945932
 30
0.0
 10
190.2306033277234
 20
138.512143038072
 30
0.0
 10
189.8263822551593
 20
140.6594030097923
 30
0.0
 10
189.2030210669259
 20
142.3086115709306
 30
0.0
 10
188.8901985111545
 20
143.136237106228
 30
0.0
  0
SPLINE
  5
2F2
330
275
100
AcDbEntity
  8
0
  6
Continuous
 62
     8
370
    25
100
AcDbSpline
210
0.0
220
0.0
230
1.0
 70
     8
 71
     3
 72
    21
 73
    17
 74
     0
 42
0.000000001
 43
0.00000001
 40
0.0
 40
0.0
 40
0.0
 40
0.0
 40
0.0772243667806159
 40
0.148210389528278
 40
0.2196892821432968
 40
0.2927226602838081
 40
0.3662931804835983
 40
0.4372792524444769
 40
0.5087581945071908
 40
0.5817916198327389
 40
0.6553621857169404
 40
0.7263482447076715
 40
0.7978271719378914
 40
0.8708605783978636
 40
0.9444311247093815
 40
1.0
 40
1.0
 40
1.0
 40
1.0
 10
111.7385236749407
 20
164.1044091662911
 30
0.0
 10
110.1581439122256
 20
163.7547120331243
 30
0.0
 10
107.1250507319343
 20
163.0835670243112
 30
0.0
 10
102.8653872152197
 20
161.8372917887072
 30
0.0
 10
98.88576277481246
 20
160.4534195127571
 30
0.0
 10
95.10515802820463
 20
158.878546400545
 30
0.0
 10
91.60649622610703
 20
157.1472320475966
 30
0.0
 10
88.42680515300358
 20
155.2828481714897
 30
0.0
 10
85.56538247682482
 20
153.2933960701865
 30
0.0
 10
83.00878036251643
 20
151.1610656640309
 30
0.0
 10
80.81951123233033
 20
148.9287695016077
 30
0.0
 10
79.01679519973214
 20
146.6261282231539
 30
0.0
 10
77.5912557500642
 20
144.2601725645073
 30
0.0
 10
76.55750090722424
 20
141.8117068789351
 30
0.0
 10
75.93458959903369
 20
139.5082820398463
 30
0.0
 10
75.8452271795618
 20
138.0259282544084
 30
0.0
 10
75.8067744044007
 20
137.3880693293982
 30
0.0
  0
LWPOLYLINE
  5
2F3
330
275
100
AcDbEntity
  8
0
  6
Continuous
 62
     8
370
    25
100
AcDbPolyline
 90
       42
 70
   128
 43
0.0
 10
75.758906579
 20
136.3967762016
 10
75.7640488535
 20
136.6708010663
 10
76.0047962826
 20
138.9827027118
 10
76.5969885638
 20
141.2777490718
 10
77.5369746349
 20
143.5417904222
 10
78.8189591692
 20
145.7608681952
 10
80.4350383056
 20
147.9213010385
 10
82.375248379
 20
150.0097691651
 10
84.6276273491
 20
152.0133964746
 10
87.1782885504
 20
153.9198299384
 10
90.0115063085
 20
155.7173157601
 10
93.1098128938
 20
157.3947718419
 10
96.454106216
 20
158.9418561094
 10
100.0237675945
 20
160.3490302735
 10
103.7967888799
 20
161.6076186375
 10
107.7499081414
 20
162.7098615858
 10
111.8587530842
 20
163.6489634239
 10
116.0979913129
 20
164.4191342768
 10
120.441486514
 20
165.015625785
 10
124.8624595954
 20
165.4347603801
 10
129.3336537879
 20
165.6739539579
 10
133.8275026924
 20
165.7317318105
 10
138.316300236
 20
165.6077377181
 10
142.7723714893
 20
165.3027361456
 10
147.1682432912
 20
164.8186075291
 10
151.4768136303
 20
164.1583366825
 10
155.6715187376
 20
163.3259943951
 10
159.7264968613
 20
162.326712334
 10
163.6167477129
 20
161.1666514053
 10
167.3182866021
 20
159.8529637705
 10
170.8082923109
 20
158.3937487505
 10
174.0652477936
 20
156.7980028913
 10
177.0690728365
 20
155.0755644968
 10
179.8012478593
 20
153.2370529723
 10
182.2449280946
 20
151.2938033528
 10
184.385047441
 20
149.2577964185
 10
186.2084113511
 20
147.1415848291
 10
187.7037781801
 20
144.9582157327
 10
188.8619284943
 20
142.7211503259
 10
189.6757219117
 20
140.4441808608
 10
190.1401411255
 20
138.1413456114
 10
190.2528253979
 20
136.6523113687
  0
LWPOLYLINE
  5
2F6
330
275
100
AcDbEntity
  8
0
  6
Continuous
 62
     8
370
    25
100
AcDbPolyline
 90
       50
 70
   128
 43
0.0
 10
184.5665691799
 20
124.3074388224
 10
184.6240414398
 20
124.3846304151
 10
186.0424220031
 20
126.5566770686
 10
187.116855194
 20
128.7804628815
 10
187.840372901
 20
131.0415657494
 10
188.2082828341
 20
133.3253215526
 10
188.2181989562
 20
135.6169192583
 10
187.8700569574
 20
137.9014969761
 10
187.1661146723
 20
140.1642383427
 10
186.1109374366
 20
142.3904686121
 10
184.7113684796
 20
144.5657498269
 10
182.976484543
 20
146.6759744534
 10
180.9175370151
 20
148.7074568754
 10
178.5478789604
 20
150.6470221497
 10
175.8828785209
 20
152.4820914513
 10
172.939819247
 20
154.2007636516
 10
169.7377880074
 20
155.7918925018
 10
166.2975512036
 20
157.2451589208
 10
162.6414200912
 20
158.5511379182
 10
158.7931060835
 20
159.701359719
 10
154.7775669735
 20
160.6883646936
 10
150.6208450734
 20
161.5057517358
 10
146.3498983196
 20
162.1482197771
 10
141.9924254408
 20
162.6116021657
 10
137.5766863207
 20
162.8928936889
 10
133.1313187219
 20
162.9902700634
 10
128.6851525591
 20
162.9030997659
 10
124.2670229261
 20
162.6319481293
 10
119.9055830889
 20
162.178573676
 10
115.6291186584
 20
161.5459167133
 10
111.4653641476
 20
160.7380802644
 10
107.4413231021
 20
159.7603034586
 10
103.5830929723
 20
158.6189275538
 10
99.9156958612
 20
157.3213548106
 10
96.4629162462
 20
155.8760004862
 10
93.2471467281
 20
154.292238258
 10
90.2892428063
 20
152.5803394319
 10
87.6083876227
 20
150.7514063286
 10
85.2219675519
 20
148.8173002811
 10
83.1454594438
 20
146.7905647093
 10
81.3923302503
 20
144.6843437711
 10
79.973949687
 20
142.5122971175
 10
78.8995164961
 20
140.2885113046
 10
78.1759987891
 20
138.0274084367
 10
77.808088856
 20
135.7436526335
 10
77.7981727339
 20
133.4520549278
 10
78.1463147327
 20
131.1674772101
 10
78.8502570179
 20
128.9047358435
 10
79.9054342536
 20
126.678505574
 10
81.1896510381
 20
124.6623752976
  0
LWPOLYLINE
  5
2F7
330
275
100
AcDbEntity
  8
0
  6
Continuous
 62
     8
370
    25
100
AcDbPolyline
 90
        5
 70
   128
 43
0.0
 10
153.3271503236
 20
109.7669511988
 10
153.1947266966
 20
109.916499294
 10
153.0677065267
 20
109.995223671
 10
152.9508807013
 20
110.0001550406
 10
152.939281005
 20
109.9963188425
  0
LWPOLYLINE
  5
2F8
330
275
100
AcDbEntity
  8
0
  6
Continuous
 62
     8
370
    25
100
AcDbPolyline
 90
       37
 70
   128
 43
0.0
 10
178.0070656239
 20
132.9836871378
 10
177.9055673447
 20
134.3844728193
 10
177.4614398375
 20
136.4220406037
 10
176.6694053459
 20
138.4314187301
 10
175.5356626135
 20
140.3968810901
 10
174.0690847146
 20
142.3030452759
 10
172.2811496096
 20
144.1349929683
 10
170.1858503149
 20
145.8783866927
 10
167.7995853884
 20
147.5195820295
 10
165.1410305885
 20
149.0457344
 10
162.2309927112
 20
150.4448995926
 10
159.0922467484
 20
151.7061272425
 10
155.749357643
 20
152.8195465335
 10
152.2284880346
 20
153.77644345
 10
148.5571935017
 20
154.5693289761
 10
144.7642069018
 20
155.1919977076
 10
140.8792134978
 20
155.6395764174
 10
136.9326186304
 20
155.9085621953
 10
132.9553097555
 20
155.9968498628
 10
128.9784147078
 20
155.9037484492
 10
125.0330580829
 20
155.6299865994
 10
121.1501176459
 20
155.177706871
 10
117.3599826702
 20
154.5504489661
 10
113.6923161011
 20
153.7531220283
 10
110.1758224021
 20
152.7919662218
 10
106.8380229043
 20
151.6745038941
 10
103.7050404143
 20
150.4094807031
 10
100.8013947681
 20
149.0067971702
 10
98.1498109295
 20
147.4774311961
 10
95.7710411374
 20
145.8333521431
 10
93.6837024907
 20
144.0874271589
 10
91.9041312443
 20
142.2533204736
 10
90.4462549561
 20
140.3453864589
 10
89.3214834847
 20
138.3785572854
 10
88.5386196918
 20
136.3682260579
 10
88.1037905482
 20
134.3301263442
 10
88.0082766549
 20
132.8667139851
  0
LINE
  5
2FA
330
275
100
AcDbEntity
  8
0
  6
Continuous
 62
     7
370
    25
100
AcDbLine
 10
204.9550752175
 20
-262.1949529447
 30
0.0
 11
-569.7951993719
 21
-51.6344292016
 31
0.0
  0
LINE
  5
2FB
330
275
100
AcDbEntity
  8
0
  6
Continuous
 62
     7
370
    25
100
AcDbLine
 10
570.593664369
 20
91.6418798517
 30
0.0
 11
208.4380425593
 21
-261.8331094284
 31
0.0
  0
LINE
  5
2FC
330
275
100
AcDbEntity
  8
0
  6
Continuous
 62
     7
370
    25
100
AcDbLine
 10
-650.4664183042
 20
-66.5770441453
 30
0.0
 11
-650.4664183042
 21
-83.7203901594
 31
0.0
  0
LINE
  5
2FD
330
275
100
AcDbEntity
  8
0
  6
Continuous
 62
     7
370
    25
100
AcDbLine
 10
-233.5999129497
 20
342.404128775
 30
0.0
 11
-648.9588090975
 21
-62.9988872808
 31
0.0
  0
LINE
  5
2FE
330
275
100
AcDbEntity
  8
0
  6
Continuous
 62
     7
370
    25
100
AcDbLine
 10
570.5946086987
 20
91.6427798273
 30
0.0
 11
570.593664369
 21
91.6418798517
 31
0.0
  0
LINE
  5
2FF
330
275
100
AcDbEntity
  8
0
  6
Continuous
 62
     7
370
    25
100
AcDbLine
 10
646.7777442626
 20
105.6887153683
 30
0.0
 11
-228.7961961981
 21
343.6509511054
 31
0.0
  0
LINE
  5
300
330
275
100
AcDbEntity
  8
0
  6
Continuous
 62
     7
370
    25
100
AcDbLine
 10
650.4664183042
 20
83.7203901594
 30
0.0
 11
650.4664183042
 21
100.8637361734
 31
0.0
  0
LINE
  5
301
330
275
100
AcDbEntity
  8
0
  6
Continuous
 62
     7
370
    25
100
AcDbLine
 10
-645.4664183042
 20
-62.2912076418
 30
0.0
 11
230.1075221564
 21
-300.2534433789
 31
0.0
  0
LINE
  5
302
330
275
100
AcDbEntity
  8
0
  6
Continuous
 62
     7
370
    25
100
AcDbLine
 10
227.7740452118
 20
-306.8168249164
 30
0.0
 11
-647.7998952489
 21
-68.8545891793
 31
0.0
  0
LINE
  5
303
330
275
100
AcDbEntity
  8
0
  6
Continuous
 62
     7
370
    25
100
AcDbLine
 10
227.7740452118
 20
-323.9601709305
 30
0.0
 11
227.7740452118
 21
-306.8168249164
 31
0.0
  0
LINE
  5
304
330
275
100
AcDbEntity
  8
0
  6
Continuous
 62
     7
370
    25
100
AcDbLine
 10
234.5296127648
 20
-305.7411093558
 30
0.0
 11
234.5296127648
 21
-322.8844553699
 31
0.0
  0
LINE
  5
305
330
275
100
AcDbEntity
  8
0
  6
Continuous
 62
     7
370
    25
100
AcDbLine
 10
230.1075221564
 20
-300.2534433789
 30
0.0
 11
645.4664183042
 21
105.1495726769
 31
0.0
  0
LINE
  5
306
330
275
100
AcDbEntity
  8
0
  6
Continuous
 62
     7
370
    25
100
AcDbLine
 10
649.8885089126
 20
99.6619067
 30
0.0
 11
234.5296127648
 21
-305.7411093558
 31
0.0
  0
LINE
  5
307
330
275
100
AcDbEntity
  8
0
  6
Continuous
 62
     7
370
    25
100
AcDbLine
 10
-647.7998952489
 20
-68.8545891793
 30
0.0
 11
-647.7998952489
 21
-85.9979351934
 31
0.0
  0
LINE
  5
308
330
275
100
AcDbEntity
  8
0
  6
Continuous
 62
     7
370
    25
100
AcDbLine
 10
-647.7998952489
 20
-85.9979351934
 30
0.0
 11
227.7740452118
 21
-323.9601709305
 31
0.0
  0
LINE
  5
309
330
275
100
AcDbEntity
  8
0
  6
Continuous
 62
     7
370
    25
100
AcDbLine
 10
-571.9906206863
 20
-49.0665866722
 30
0.0
 11
-209.8349988766
 21
304.4084026079
 31
0.0
  0
LINE
  5
30A
330
275
100
AcDbEntity
  8
0
  6
Continuous
 62
     7
370
    25
100
AcDbLine
 10
204.4305448341
 20
-262.4106100213
 30
0.0
 11
-570.3197297553
 21
-51.8500862782
 31
0.0
  0
LINE
  5
30B
330
275
100
AcDbEntity
  8
0
  6
Continuous
 62
     7
370
    25
100
AcDbLine
 10
571.9906206863
 20
91.9249517073
 30
0.0
 11
209.8349988766
 21
-261.5500375728
 31
0.0
  0
LINE
  5
30C
330
275
100
AcDbEntity
  8
0
  6
Continuous
 62
     7
370
    25
100
AcDbLine
 10
-204.4305448341
 20
305.2689750564
 30
0.0
 11
570.3197297553
 21
94.7084513133
 31
0.0
  0
LINE
  5
30D
330
275
100
AcDbEntity
  8
0
  6
Continuous
 62
     7
370
    25
100
AcDbLine
 10
-230.1075221564
 20
343.111808414
 30
0.0
 11
-645.4664183042
 21
-62.2912076418
 31
0.0
  0
LINE
  5
30E
330
275
100
AcDbEntity
  8
0
  6
Continuous
 62
     7
370
    25
100
AcDbLine
 10
645.4664183042
 20
105.1495726769
 30
0.0
 11
-230.1075221564
 21
343.111808414
 31
0.0
  0
LINE
  5
30F
330
275
100
AcDbEntity
  8
0
  6
Continuous
 62
     7
370
    25
100
AcDbLine
 10
649.8885089126
 20
82.5185606859
 30
0.0
 11
649.8885089126
 21
99.6619067
 31
0.0
  0
LINE
  5
310
330
275
100
AcDbEntity
  8
0
  6
Continuous
 62
     7
370
    25
100
AcDbLine
 10
234.5296127648
 20
-322.8844553699
 30
0.0
 11
649.8885089126
 21
82.5185606859
 31
0.0
  0
LINE
  5
311
330
275
100
AcDbEntity
  8
0
  6
Continuous
 62
     7
370
    25
100
AcDbLine
 10
-208.0661626332
 20
302.2133362171
 30
0.0
 11
-570.2217844429
 21
-51.261653063
 31
0.0
  0
LINE
  5
312
330
275
100
AcDbEntity
  8
0
  6
Continuous
 62
     7
370
    25
100
AcDbLine
 10
-208.0661626332
 20
301.7400161482
 30
0.0
 11
-208.0661626332
 21
302.2133362171
 31
0.0
  0
LINE
  5
313
330
275
100
AcDbEntity
  8
0
  6
Continuous
 62
     7
370
    25
100
AcDbLine
 10
569.3863389774
 20
91.6097786293
 30
0.0
 11
569.3863389774
 21
92.0830986983
 31
0.0
  0
LINE
  5
314
330
275
100
AcDbEntity
  8
0
  6
Continuous
 62
     7
370
    25
100
AcDbLine
 10
564.8114240512
 20
92.735908854
 30
0.0
 11
569.3863389774
 21
91.6097786293
 31
0.0
  0
LINE
  5
315
330
275
100
AcDbEntity
  8
0
  6
Continuous
 62
     7
370
    25
100
AcDbLine
 10
569.3863389774
 20
92.0830986983
 30
0.0
 11
-205.363935612
 21
302.6436224414
 31
0.0
  0
LINE
  5
316
330
275
100
AcDbEntity
  8
0
  6
Continuous
 62
     7
370
    25
100
AcDbLine
 10
-205.363935612
 20
302.1703023724
 30
0.0
 11
-200.7890206858
 21
300.8097049003
 31
0.0
  0
LINE
  5
317
330
275
100
AcDbEntity
  8
0
  6
Continuous
 62
     7
370
    25
100
AcDbLine
 10
-205.363935612
 20
302.6436224414
 30
0.0
 11
-205.363935612
 21
302.1703023724
 31
0.0
  0
LINE
  5
318
330
275
100
AcDbEntity
  8
0
  6
Continuous
 62
     7
370
    25
100
AcDbLine
 10
190.2110635079
 20
136.6036353358
 30
0.0
 11
190.2095054003
 21
136.732309526
 31
0.0
  0
LINE
  5
319
330
275
100
AcDbEntity
  8
0
  6
Continuous
 62
     7
370
    25
100
AcDbLine
 10
178.0081858451
 20
132.8201524917
 30
0.0
 11
178.0070656239
 21
132.9836871378
 31
0.0
  0
LINE
  5
31A
330
275
100
AcDbEntity
  8
0
  6
Continuous
 62
     8
370
    25
100
AcDbLine
 10
-570.2217844429
 20
-51.261653063
 30
0.0
 11
-570.2217844429
 21
-51.4809045264
 31
0.0
  0
LINE
  5
31B
330
275
100
AcDbEntity
  8
0
  6
Continuous
 62
     8
370
    25
100
AcDbLine
 10
-570.0474981651
 20
-51.553430338
 30
0.0
 11
-569.7799784382
 21
-51.3004207082
 31
0.0
  0
LINE
  5
31C
330
275
100
AcDbEntity
  8
0
  6
Continuous
 62
     8
370
    25
100
AcDbLine
 10
-569.7489914566
 20
-51.6469898481
 30
0.0
 11
-569.7799784382
 21
-51.3004207082
 31
0.0
  0
ARC
  5
31D
330
275
100
AcDbEntity
  8
0
  6
Continuous
 62
     7
370
    25
100
AcDbCircle
 10
-645.4664183042
 20
-66.5770441453
 30
0.0
 40
5.000000000000347
100
AcDbArc
 50
134.305033619
 51
180.0
  0
ARC
  5
31E
330
275
100
AcDbEntity
  8
0
  6
Continuous
 62
     7
370
    25
100
AcDbCircle
 10
645.4664183042
 20
100.8637361734
 30
0.0
 40
5.000000000000114
100
AcDbArc
 50
0.0
 51
74.7954868413
  0
ARC
  5
31F
330
275
100
AcDbEntity
  8
0
  6
Continuous
 62
     7
370
    25
100
AcDbCircle
 10
-230.1075221564
 20
338.8259719105
 30
0.0
 40
5.000000000000284
100
AcDbArc
 50
74.7954868413
 51
134.305033619
  0
ARC
  5
320
330
275
100
AcDbEntity
  8
0
  6
Continuous
 62
     7
370
    25
100
AcDbCircle
 10
228.4677517907
 20
-306.1003544119
 30
0.0
 40
6.072496643082682
100
AcDbArc
 50
3.391562315
 51
74.3338098233
  0
ARC
  5
321
330
275
100
AcDbEntity
  8
0
  6
Continuous
 62
     7
370
    25
100
AcDbCircle
 10
230.0660118103
 20
-299.4599607322
 30
0.0
 40
7.705618827393986
100
AcDbArc
 50
252.6960345908
 51
305.398914916
  0
ARC
  5
322
330
275
100
AcDbEntity
  8
0
  6
Continuous
 62
     7
370
    25
100
AcDbCircle
 10
237.9988224536
 20
-306.7555357823
 30
0.0
 40
10.22496092917808
100
AcDbArc
 50
140.5129436103
 51
180.3434369839
  0
ARC
  5
323
330
275
100
AcDbEntity
  8
0
  6
Continuous
 62
     7
370
    25
100
AcDbCircle
 10
-637.575118007
 20
-68.7933000452
 30
0.0
 40
10.22496092917734
100
AcDbArc
 50
140.5129436103
 51
180.3434369839
  0
ARC
  5
324
330
275
100
AcDbEntity
  8
0
  6
Continuous
 62
     7
370
    25
100
AcDbCircle
 10
230.0660118103
 20
-316.6033067463
 30
0.0
 40
7.705618827393577
100
AcDbArc
 50
252.6960345908
 51
305.398914916
  0
ARC
  5
325
330
275
100
AcDbEntity
  8
0
  6
Continuous
 62
     7
370
    25
100
AcDbCircle
 10
643.8266479384
 20
99.3026616439
 30
0.0
 40
6.072496643082712
100
AcDbArc
 50
3.391562315
 51
74.3338098233
  0
ARC
  5
326
330
275
100
AcDbEntity
  8
0
  6
Continuous
 62
     7
370
    25
100
AcDbCircle
 10
206.2641181129
 20
-256.5251186739
 30
0.0
 40
6.164495061915182
100
AcDbArc
 50
252.6960345908
 51
305.398914916
  0
ARC
  5
327
330
275
100
AcDbEntity
  8
0
  6
Continuous
 62
     7
370
    25
100
AcDbCircle
 10
-206.2641181129
 20
299.383483709
 30
0.0
 40
6.164495061915174
100
AcDbArc
 50
72.6960345908
 51
125.398914916
  0
ARC
  5
328
330
275
100
AcDbEntity
  8
0
  6
Continuous
 62
     7
370
    25
100
AcDbCircle
 10
571.5385677866
 20
90.5673099904
 30
0.0
 40
1.430923776970088
100
AcDbArc
 50
71.583829316
 51
131.326192755
  0
ARC
  5
329
330
275
100
AcDbEntity
  8
0
  6
Continuous
 62
     7
370
    25
100
AcDbCircle
 10
-572.6465288326
 20
-51.4053510854
 30
0.0
 40
2.428998657233382
100
AcDbArc
 50
3.391562315
 51
74.3338098233
  0
ARC
  5
32A
330
275
100
AcDbEntity
  8
0
  6
Continuous
 62
     7
370
    25
100
AcDbCircle
 10
-210.4909070229
 20
302.0696381947
 30
0.0
 40
2.428998657233203
100
AcDbArc
 50
3.391562315
 51
74.3338098233
  0
ARC
  5
32B
330
275
100
AcDbEntity
  8
0
  6
Continuous
 62
     7
370
    25
100
AcDbCircle
 10
-205.6405626496
 20
301.8840660582
 30
0.0
 40
2.429873588690828
100
AcDbArc
 50
183.3986516783
 51
253.1703554323
  0
ARC
  5
32C
330
275
100
AcDbEntity
  8
0
  6
Continuous
 62
     7
370
    25
100
AcDbCircle
 10
569.1634604385
 20
90.6421604309
 30
0.0
 40
1.458073363529414
100
AcDbArc
 50
33.0919064735
 51
81.2073973116
  0
ARC
  5
32D
330
275
100
AcDbEntity
  8
0
  6
Continuous
 62
     7
370
    25
100
AcDbCircle
 10
573.4762498742
 20
92.1076143519
 30
0.0
 40
4.089984371671822
100
AcDbArc
 50
140.5129436103
 51
180.3434369839
  0
ARC
  5
32E
330
275
100
AcDbEntity
  8
0
  6
Continuous
 62
     7
370
    25
100
AcDbCircle
 10
560.8641235028
 20
92.5951203508
 30
0.0
 40
3.949810504645678
100
AcDbArc
 50
320.7954071157
 51
2.0427046134
  0
ARC
  5
32F
330
275
100
AcDbEntity
  8
0
  6
Continuous
 62
     7
370
    25
100
AcDbCircle
 10
-201.2740247153
 20
302.668138095
 30
0.0
 40
4.089984371670952
100
AcDbArc
 50
140.5129436103
 51
180.3434369839
  0
ARC
  5
330
330
275
100
AcDbEntity
  8
0
  6
Continuous
 62
     7
370
    25
100
AcDbCircle
 10
553.8037475291
 20
94.4920141399
 30
0.0
 40
4.339757194463358
100
AcDbArc
 50
324.8961311811
 51
359.5941749713
  0
ARC
  5
331
330
275
100
AcDbEntity
  8
0
  6
Continuous
 62
     7
370
    25
100
AcDbCircle
 10
-198.4639739008
 20
298.944187226
 30
0.0
 40
4.343111140101457
100
AcDbArc
 50
324.8860773877
 51
359.5571345021
  0
ARC
  5
332
330
275
100
AcDbEntity
  8
0
  6
Continuous
 62
     7
370
    25
100
AcDbCircle
 10
648.8071391605
 20
83.7784069812
 30
0.0
 40
1.660293115197729
100
AcDbArc
 50
310.6406362013
 51
357.9974645044
  0
ARC
  5
333
330
275
100
AcDbEntity
  8
0
  6
Continuous
 62
     7
370
    25
100
AcDbCircle
 10
190.9932447683
 20
142.9681022611
 30
0.0
 40
2.109756594031632
100
AcDbArc
 50
95.7045268167
 51
175.4290255695
  0
ARC
  5
334
330
275
100
AcDbEntity
  8
0
  6
Continuous
 62
     7
370
    25
100
AcDbCircle
 10
106.6773784803
 20
164.1439684024
 30
0.0
 40
5.061299794925717
100
AcDbArc
 50
359.552170304
 51
30.9345880991
  0
ARC
  5
335
330
275
100
AcDbEntity
  8
0
  6
Continuous
 62
     7
370
    25
100
AcDbCircle
 10
106.6808962572
 20
164.1366536564
 30
0.0
 40
5.093958206979238
100
AcDbArc
 50
359.7216030565
 51
30.8799495003
  0
ARC
  5
336
330
275
100
AcDbEntity
  8
0
  6
Continuous
 62
     7
370
    25
100
AcDbCircle
 10
190.9852711834
 20
142.9850571283
 30
0.0
 40
2.110499751685157
100
AcDbArc
 50
95.7744472892
 51
175.3569255758
  0
ARC
  5
337
330
275
100
AcDbEntity
  8
0
  6
Continuous
 62
     7
370
    25
100
AcDbCircle
 10
-205.0298033719
 20
300.9110775386
 30
0.0
 40
4.241994130479401
100
AcDbArc
 50
320.2342325769
 51
358.6306493776
  0
ARC
  5
338
330
275
100
AcDbEntity
  8
0
  6
Continuous
 62
     7
370
    25
100
AcDbCircle
 10
-209.604720033
 20
302.271701346
 30
0.0
 40
4.241996494285028
100
AcDbArc
 50
320.2335025971
 51
358.6302943322
  0
ARC
  5
339
330
275
100
AcDbEntity
  8
0
  6
Continuous
 62
     7
370
    25
100
AcDbCircle
 10
-206.2807222514
 20
299.7008767677
 30
0.0
 40
3.082247530957808
100
AcDbArc
 50
72.6960345908
 51
125.398914916
  0
ARC
  5
33A
330
275
100
AcDbEntity
  8
0
  6
Continuous
 62
     7
370
    25
100
AcDbCircle
 10
-206.2807222514
 20
299.2275566987
 30
0.0
 40
3.082247530957253
100
AcDbArc
 50
72.6960345908
 51
125.398914916
  0
ARC
  5
33B
330
275
100
AcDbEntity
  8
0
  6
Continuous
 62
     8
370
    25
100
AcDbCircle
 10
209.3829362644
 20
-262.9078282425
 30
0.0
 40
1.43106817029313
100
AcDbArc
 50
71.5853443807
 51
131.2920035839
  0
ARC
  5
33C
330
275
100
AcDbEntity
  8
0
  6
Continuous
 62
     8
370
    25
100
AcDbCircle
 10
204.8688266347
 20
-262.7301443103
 30
0.0
 40
0.5423957029870122
100
AcDbArc
 50
81.148932859
 51
143.9056585624
  0
ARC
  5
33D
330
275
100
AcDbEntity
  8
0
  6
Continuous
 62
     8
370
    25
100
AcDbCircle
 10
-569.8823140582
 20
-52.1682663051
 30
0.0
 40
0.540898346881586
100
AcDbArc
 50
80.7318299956
 51
143.9675277133
  0
ARC
  5
33E
330
275
100
AcDbEntity
  8
0
  6
Continuous
 62
     8
370
    25
100
AcDbCircle
 10
-646.6078708768
 20
-65.629446269
 30
0.0
 40
3.527995338413746
100
AcDbArc
 50
71.12277008
 51
131.7872519911
  0
ARC
  5
33F
330
275
100
AcDbEntity
  8
0
  6
Continuous
 62
     8
370
    25
100
AcDbCircle
 10
-231.2376544056
 20
339.7177041218
 30
0.0
 40
3.577309442424963
100
AcDbArc
 50
71.583829316
 51
131.326192755
  0
ARC
  5
340
330
275
100
AcDbEntity
  8
0
  6
Continuous
 62
     8
370
    25
100
AcDbCircle
 10
568.9234929248
 20
89.6686100781
 30
0.0
 40
1.995585581407567
100
AcDbArc
 50
51.3731549765
 51
76.5889825341
  0
ARC
  5
341
330
275
100
AcDbEntity
  8
0
  6
Continuous
 62
     8
370
    25
100
AcDbCircle
 10
564.9786257942
 20
91.5621765663
 30
0.0
 40
4.407970220187774
100
AcDbArc
 50
343.0453520771
 51
0.618754253
  0
ARC
  5
342
330
275
100
AcDbEntity
  8
0
  6
Continuous
 62
     8
370
    25
100
AcDbCircle
 10
646.559957547
 20
104.3541226095
 30
0.0
 40
1.352245867204731
100
AcDbArc
 50
80.7318299956
 51
143.9675277132
  0
ARC
  5
343
330
275
100
AcDbEntity
  8
0
  6
Continuous
 62
     8
370
    25
100
AcDbCircle
 10
648.8071391605
 20
100.9217529952
 30
0.0
 40
1.660293115197846
100
AcDbArc
 50
310.6406362013
 51
357.9974645044
  0
ARC
  5
344
330
275
100
AcDbEntity
  8
0
  6
Continuous
 62
     8
370
    25
100
AcDbCircle
 10
-229.0139829136
 20
342.3163583465
 30
0.0
 40
1.352245867206805
100
AcDbArc
 50
80.7318299956
 51
143.9675277132
  0
ARC
  5
345
330
275
100
AcDbEntity
  8
0
  6
Continuous
 62
     8
370
    25
100
AcDbCircle
 10
75.9394690088
 20
129.2684966833
 30
0.0
 40
1.645106845629856
100
AcDbArc
 50
28.0856717479
 51
101.1242049329
  0
ARC
  5
346
330
275
100
AcDbEntity
  8
0
  6
Continuous
 62
     8
370
    25
100
AcDbCircle
 10
152.9519966673
 20
109.5939598473
 30
0.0
 40
0.4073422187209114
100
AcDbArc
 50
24.9345809963
 51
89.7936889591
  0
ARC
  5
347
330
275
100
AcDbEntity
  8
0
  6
Continuous
 62
     8
370
    25
100
AcDbCircle
 10
75.9149484712
 20
129.2220599249
 30
0.0
 40
1.689598233122572
100
AcDbArc
 50
29.5422104765
 51
100.0247163783
  0
VIEWPORT
  5
417
330
275
100
AcDbEntity
  8
0
100
AcDbViewport
 10
0.0
 20
0.0
 30
0.0
 40
205.6
 41
156.0
 68
     1
 69
     1
 12
0.0
 22
0.0
 13
0.0
 23
0.0
 14
10.0
 24
10.0
 15
10.0
 25
10.0
 16
0.0
 26
0.0
 36
1.0
 17
0.0
 27
0.0
 37
0.0
 42
50.0
 43
0.0
 44
0.0
 45
918.0
 50
0.0
 51
0.0
 72
   100
 90
   557152
  1

281
     0
 71
     1
 74
     0
110
0.0
120
0.0
130
0.0
111
1.0
121
0.0
131
0.0
112
0.0
122
1.0
132
0.0
 79
     0
146
0.0
  0
ENDBLK
  5
278
330
275
100
AcDbEntity
  8
0
100
AcDbBlockEnd
  0
BLOCK
  5
34A
330
348
100
AcDbEntity
  8
0
100
AcDbBlockBegin
  2
*Paper_Space6
 70
     0
 10
0.0
 20
0.0
 30
0.0
  3
*Paper_Space6
  1

  0
SPLINE
  5
34C
330
348
100
AcDbEntity
  8
0
  6
Continuous
 62
     7
370
    25
100
AcDbSpline
210
0.0
220
0.0
230
1.0
 70
     8
 71
     3
 72
    15
 73
    11
 74
     0
 42
0.000000001
 43
0.00000001
 40
0.0
 40
0.0
 40
0.0
 40
0.0
 40
0.0178895971609201
 40
0.1212131012403403
 40
0.2426176112959781
 40
0.3946520098559745
 40
0.5751551339592306
 40
0.7679651765044228
 40
0.9545306229084236
 40
1.0
 40
1.0
 40
1.0
 40
1.0
 10
274.992105022848
 20
-149.8535698701402
 30
0.0
 10
274.9953956251234
 20
-149.8510275340123
 30
0.0
 10
275.0176914936753
 20
-149.8338016320713
 30
0.0
 10
274.9098645493789
 20
-149.8995386634718
 30
0.0
 10
274.6303333190147
 20
-149.997553955452
 30
0.0
 10
274.0983324351498
 20
-150.1280816859066
 30
0.0
 10
273.3381100273429
 20
-150.2282339280007
 30
0.0
 10
272.445390056788
 20
-150.2609713338163
 30
0.0
 10
271.7713838586213
 20
-150.2249995558366
 30
0.0
 10
271.4345587836656
 20
-150.1851559048684
 30
0.0
 10
271.3685547842816
 20
-150.1773481716873
 30
0.0
  0
SPLINE
  5
352
330
348
100
AcDbEntity
  8
0
  6
Continuous
 62
     7
370
    25
100
AcDbSpline
210
0.0
220
0.0
230
1.0
 70
     8
 71
     3
 72
    11
 73
     7
 74
     0
 42
0.000000001
 43
0.00000001
 40
0.0
 40
0.0
 40
0.0
 40
0.0
 40
0.2045034724921471
 40
0.5400128678914522
 40
0.8114827582715666
 40
1.0
 40
1.0
 40
1.0
 40
1.0
 10
-548.0544129460661
 20
-46.93975816669842
 30
0.0
 10
-548.1964327181715
 20
-46.919375661384
 30
0.0
 10
-548.5714508217633
 20
-46.86555351833913
 30
0.0
 10
-549.0257170563939
 20
-46.75273829993884
 30
0.0
 10
-549.3228438912599
 20
-46.63151224344561
 30
0.0
 10
-549.3415773075156
 20
-46.61901624419926
 30
0.0
 10
-549.3492548526342
 20
-46.61389498939423
 30
0.0
  0
SPLINE
  5
353
330
348
100
AcDbEntity
  8
0
  6
Continuous
 62
     7
370
    25
100
AcDbSpline
210
0.0
220
0.0
230
1.0
 70
     8
 71
     3
 72
    31
 73
    27
 74
     0
 42
0.000000001
 43
0.00000001
 40
0.0
 40
0.0
 40
0.0
 40
0.0
 40
0.0336171627659854
 40
0.0774424961289241
 40
0.1212696078296897
 40
0.16503757451786
 40
0.2083868490609609
 40
0.2517635291861983
 40
0.2956128165511646
 40
0.3397660807417627
 40
0.3840366891655717
 40
0.4281706997620692
 40
0.4719683684478135
 40
0.5152758100340642
 40
0.5583226864874073
 40
0.6016858505033873
 40
0.6454258933760335
 40
0.6893766800695937
 40
0.7333296794389103
 40
0.7770467549355942
 40
0.8203389261789601
 40
0.863041165013988
 40
0.9053854979601085
 40
0.9480396580427626
 40
0.9906201420850762
 40
1.0
 40
1.0
 40
1.0
 40
1.0
 10
127.4702941607193
 20
80.84344240361722
 30
0.0
 10
126.4963748966542
 20
80.67986389817155
 30
0.0
 10
124.25279653871
 20
80.3030347212736
 30
0.0
 10
120.5811564816327
 20
79.82168797494154
 30
0.0
 10
116.5109531078785
 20
79.38634857758758
 30
0.0
 10
112.3648055993664
 20
79.05548518991206
 30
0.0
 10
108.1699600532829
 20
78.82918131710485
 30
0.0
 10
103.9332407782413
 20
78.70513765439303
 30
0.0
 10
99.65419835565196
 20
78.68269118401803
 30
0.0
 10
95.35231231172337
 20
78.76321042462592
 30
0.0
 10
91.07025662031458
 20
78.94711527703795
 30
0.0
 10
86.85183693959063
 20
79.23318794083833
 30
0.0
 10
82.73922540938949
 20
79.61836655759465
 30
0.0
 10
78.75985722075477
 20
80.10027773138387
 30
0.0
 10
74.91520532154286
 20
80.67715109518294
 30
0.0
 10
71.19743230545832
 20
81.34681238899495
 30
0.0
 10
67.61391579297585
 20
82.10815648049157
 30
0.0
 10
64.19447811010875
 20
82.95558715040497
 30
0.0
 10
60.97518440815886
 20
83.88038446476563
 30
0.0
 10
57.9904141557688
 20
84.87189188129268
 30
0.0
 10
55.26870450896065
 20
85.91787431654593
 30
0.0
 10
52.83266784351387
 20
87.00807650805416
 30
0.0
 10
50.66206725031324
 20
88.13904413672714
 30
0.0
 10
48.79119454082876
 20
89.30129887240653
 30
0.0
 10
47.54595926292927
 20
90.17907144790408
 30
0.0
 10
47.02200038168596
 20
90.65925544983905
 30
0.0
 10
46.92741555652508
 20
90.74593805317673
 30
0.0
  0
SPLINE
  5
354
330
348
100
AcDbEntity
  8
0
  6
Continuous
 62
     7
370
    25
100
AcDbSpline
210
0.0
220
0.0
230
1.0
 70
     8
 71
     3
 72
    23
 73
    19
 74
     0
 42
0.000000001
 43
0.00000001
 40
0.0
 40
0.0
 40
0.0
 40
0.0
 40
0.0263280477112609
 40
0.097786177130331
 40
0.1641139965232431
 40
0.2274020545960715
 40
0.2946051771855134
 40
0.3599242502226382
 40
0.4238118743699499
 40
0.4878789294006475
 40
0.5529318868319045
 40
0.6189880304485763
 40
0.6859636279824296
 40
0.7537126370860365
 40
0.8220515004371567
 40
0.8907764324307886
 40
0.9596782860316361
 40
1.0
 40
1.0
 40
1.0
 40
1.0
 10
157.8618191862231
 20
96.27712135889163
 30
0.0
 10
157.867726824331
 20
96.14335165787189
 30
0.0
 10
157.8896686467091
 20
95.64651164063838
 30
0.0
 10
157.6656449094563
 20
94.80150987848373
 30
0.0
 10
157.1946838174272
 20
93.71001238774753
 30
0.0
 10
156.4455395234339
 20
92.58883088470994
 30
0.0
 10
155.4086304707215
 20
91.43567577552
 30
0.0
 10
154.055213469207
 20
90.26460840647701
 30
0.0
 10
152.4229696985934
 20
89.11569666936592
 30
0.0
 10
150.514188370218
 20
87.98974840739174
 30
0.0
 10
148.3183733895831
 20
86.88600508042612
 30
0.0
 10
145.8360815855409
 20
85.81197366761613
 30
0.0
 10
143.0790849255094
 20
84.7788247620413
 30
0.0
 10
140.0630016242889
 20
83.7979011158565
 30
0.0
 10
136.8103840288504
 20
82.87821592614367
 30
0.0
 10
133.3364935974815
 20
82.03443467552863
 30
0.0
 10
130.2027887811755
 20
81.36349346720314
 30
0.0
 10
128.172598615119
 20
81.01215079346485
 30
0.0
 10
127.4231198258893
 20
80.88244674597182
 30
0.0
  0
SPLINE
  5
355
330
348
100
AcDbEntity
  8
0
  6
Continuous
 62
     7
370
    25
100
AcDbSpline
210
0.0
220
0.0
230
1.0
 70
     8
 71
     3
 72
    23
 73
    19
 74
     0
 42
0.000000001
 43
0.00000001
 40
0.0
 40
0.0
 40
0.0
 40
0.0
 40
0.023604093947002
 40
0.0945869928698213
 40
0.1590155150477837
 40
0.227679317693194
 40
0.2930766747793471
 40
0.3575144356456816
 40
0.4218966298455841
 40
0.486546090900963
 40
0.5515945967512089
 40
0.6170388080756389
 40
0.6828285317037917
 40
0.748903358975709
 40
0.8152067708279381
 40
0.8816904499606033
 40
0.9483145848592898
 40
1.0
 40
1.0
 40
1.0
 40
1.0
 10
145.7360777864866
 20
92.17246462721218
 30
0.0
 10
145.7437687917297
 20
92.07675590554959
 30
0.0
 10
145.7745884054681
 20
91.69322920912963
 30
0.0
 10
145.5961684990087
 20
91.03675275099523
 30
0.0
 10
145.1688723771046
 20
90.10389699071786
 30
0.0
 10
144.4434763963081
 20
89.11721840958069
 30
0.0
 10
143.4023981433394
 20
88.08156085304792
 30
0.0
 10
142.0798316980155
 20
87.05266978977292
 30
0.0
 10
140.4733992838067
 20
86.03630897742104
 30
0.0
 10
138.5859237903635
 20
85.04374910794866
 30
0.0
 10
136.4263080030904
 20
84.0872733043617
 30
0.0
 10
134.007486716937
 20
83.17859367130431
 30
0.0
 10
131.3463508757354
 20
82.32837818955403
 30
0.0
 10
128.4620926306225
 20
81.54636026186435
 30
0.0
 10
125.3773027533359
 20
80.83966218469824
 30
0.0
 10
122.1106369658412
 20
80.21909573107801
 30
0.0
 10
118.9588013092675
 20
79.71687103114637
 30
0.0
 10
116.8512395171492
 20
79.46739497326921
 30
0.0
 10
115.930517511833
 20
79.35840737577809
 30
0.0
  0
SPLINE
  5
357
330
348
100
AcDbEntity
  8
0
  6
Continuous
 62
     7
370
    25
100
AcDbSpline
210
0.0
220
0.0
230
1.0
 70
     8
 71
     3
 72
    23
 73
    19
 74
     0
 42
0.000000001
 43
0.00000001
 40
0.0
 40
0.0
 40
0.0
 40
0.0
 40
0.0360827870179603
 40
0.1046067754899957
 40
0.1730494252566678
 40
0.2413606391507554
 40
0.3095037579158146
 40
0.377433704523789
 40
0.4450958243131865
 40
0.5124265895274743
 40
0.5793594418162236
 40
0.6458431511786269
 40
0.7118883481629015
 40
0.7776737180145422
 40
0.8435733540917116
 40
0.9106088238977966
 40
0.98117772588888
 40
1.0
 40
1.0
 40
1.0
 40
1.0
 10
84.39570694177246
 20
79.49368328474098
 30
0.0
 10
83.77791425284929
 20
79.57459449241408
 30
0.0
 10
81.98688571956613
 20
79.80916230812831
 30
0.0
 10
79.11767975192565
 20
80.2696255375677
 30
0.0
 10
75.85869588991719
 20
80.90099753255176
 30
0.0
 10
72.77985363373433
 20
81.61736184238069
 30
0.0
 10
69.90266213363374
 20
82.4102465774781
 30
0.0
 10
67.24939897559243
 20
83.27210967365066
 30
0.0
 10
64.840322558853
 20
84.19337203947822
 30
0.0
 10
62.69410890086538
 20
85.16281313099105
 30
0.0
 10
60.82701555713524
 20
86.16697104493262
 30
0.0
 10
59.2521277270948
 20
87.18978083087836
 30
0.0
 10
57.97698289462701
 20
88.21236074628318
 30
0.0
 10
57.00457826299269
 20
89.2129470394596
 30
0.0
 10
56.31959293138286
 20
90.16937920898327
 30
0.0
 10
55.9208136486825
 20
91.07109618606715
 30
0.0
 10
55.74945746650078
 20
91.69791972712119
 30
0.0
 10
55.78080812382424
 20
92.0516358535661
 30
0.0
 10
55.78740934210364
 20
92.1261145905038
 30
0.0
  0
SPLINE
  5
35B
330
348
100
AcDbEntity
  8
0
  6
Continuous
 62
     7
370
    25
100
AcDbSpline
210
0.0
220
0.0
230
1.0
 70
     8
 71
     3
 72
    14
 73
    10
 74
     0
 42
0.000000001
 43
0.00000001
 40
0.0
 40
0.0
 40
0.0
 40
0.0
 40
0.0081686705231525
 40
0.1997487188380372
 40
0.3926065990282142
 40
0.5879384597510593
 40
0.7885670158726221
 40
0.9996411103106879
 40
1.0
 40
1.0
 40
1.0
 40
1.0
 10
47.01222945841297
 20
90.75449355495957
 30
0.0
 10
46.99070539511467
 20
90.77148884862686
 30
0.0
 10
46.46437689945112
 20
91.18707521934614
 30
0.0
 10
45.69972883526891
 20
92.00321020657483
 30
0.0
 10
44.74345845731862
 20
93.1826937111667
 30
0.0
 10
44.09210810805504
 20
94.33297520967395
 30
0.0
 10
43.72883330030693
 20
95.45639794503792
 30
0.0
 10
43.57523304483302
 20
96.17700212469882
 30
0.0
 10
43.62123545858066
 20
96.54964243625575
 30
0.0
 10
43.6213135438049
 20
96.5502749618108
 30
0.0
  0
LWPOLYLINE
  5
36E
330
348
100
AcDbEntity
  8
0
  6
Continuous
 62
     7
370
    25
100
AcDbPolyline
 90
        9
 70
   128
 43
0.0
 10
-550.6318567708
 20
-45.3198299176
 10
-550.8358612525
 20
-45.5722082047
 10
-550.8882361613
 20
-45.8330035471
 10
-550.786968759
 20
-46.0921937261
 10
-550.5359506948
 20
-46.3398182085
 10
-550.1448284524
 20
-46.5663609242
 10
-549.62863264
 20
-46.7631159637
 10
-549.0072003734
 20
-46.9225221412
 10
-548.3044129459
 20
-47.0384535668
  0
LWPOLYLINE
  5
372
330
348
100
AcDbEntity
  8
0
  6
Continuous
 62
     7
370
    25
100
AcDbPolyline
 90
        9
 70
   128
 43
0.0
 10
550.6318567708
 20
92.4602819981
 10
550.8358612525
 20
92.7126602852
 10
550.8882361613
 20
92.9734556276
 10
550.786968759
 20
93.2326458066
 10
550.5359506948
 20
93.480270289
 10
550.1448284524
 20
93.7068130047
 10
549.62863264
 20
93.9035680442
 10
549.0072003734
 20
94.0629742217
 10
548.3044129459
 20
94.1789056473
  0
SPLINE
  5
377
330
348
100
AcDbEntity
  8
0
  6
Continuous
 62
     7
370
    25
100
AcDbSpline
210
0.0
220
0.0
230
1.0
 70
     8
 71
     3
 72
    38
 73
    34
 74
     0
 42
0.000000001
 43
0.00000001
 40
0.0
 40
0.0
 40
0.0
 40
0.0
 40
0.1250000000000007
 40
0.1250000000000007
 40
0.1875000000000011
 40
0.1875000000000011
 40
0.2187500000000012
 40
0.2187500000000012
 40
0.2500000000000014
 40
0.2500000000000014
 40
0.3750000000000008
 40
0.3750000000000008
 40
0.4062500000000007
 40
0.4062500000000007
 40
0.4375000000000005
 40
0.4375000000000005
 40
0.5000000000000002
 40
0.5000000000000002
 40
0.5625
 40
0.5625
 40
0.5937499999999999
 40
0.5937499999999999
 40
0.6249999999999998
 40
0.6249999999999998
 40
0.7499999999999997
 40
0.7499999999999997
 40
0.7812499999999998
 40
0.7812499999999998
 40
0.8124999999999999
 40
0.8124999999999999
 40
0.8750000000000001
 40
0.8750000000000001
 40
1.0
 40
1.0
 40
1.0
 40
1.0
 10
127.809838199407
 20
80.75826567989299
 30
0.0
 10
124.1063161462555
 20
80.12534872300083
 30
0.0
 10
120.270384778256
 20
79.63236288721966
 30
0.0
 10
114.325768329994
 20
79.09443974980753
 30
0.0
 10
112.3121770873694
 20
78.94900584160878
 30
0.0
 10
109.2422996659523
 20
78.78313464650337
 30
0.0
 10
108.2088055005732
 20
78.73655408273665
 30
0.0
 10
106.1487901812311
 20
78.66201743060894
 30
0.0
 10
105.1196560871429
 20
78.63388668324623
 30
0.0
 10
99.97827566186623
 20
78.53809993546423
 30
0.0
 10
95.87876057748058
 20
78.6035750617361
 30
0.0
 10
90.77152536800851
 20
78.8648402010199
 30
0.0
 10
89.74967366666873
 20
78.92624449700834
 30
0.0
 10
87.71317099942421
 20
79.06722146110171
 30
0.0
 10
86.70492875769088
 20
79.14632636480937
 30
0.0
 10
83.70957860783771
 20
79.40893591109405
 30
0.0
 10
81.75176878842913
 20
79.61766135807395
 30
0.0
 10
77.91287556321934
 20
80.10116801638645
 30
0.0
 10
76.03179319553254
 20
80.37595018585584
 30
0.0
 10
73.26851678698668
 20
80.83835378547086
 30
0.0
 10
72.35716861359406
 20
81.00087840790829
 30
0.0
 10
70.55434051132866
 20
81.34303144224373
 30
0.0
 10
69.66225099655183
 20
81.52286394334583
 30
0.0
 10
65.3041194124355
 20
82.45430376208272
 30
0.0
 10
62.09916223573723
 20
83.30934315443264
 30
0.0
 10
58.43792908602216
 20
84.51278937343835
 30
0.0
 10
57.72310802378466
 20
84.76028126797722
 30
0.0
 10
56.32885900487666
 20
85.26908501700532
 30
0.0
 10
55.64804293138722
 20
85.53096448149593
 30
0.0
 10
53.6695952142779
 20
86.33388081014465
 30
0.0
 10
52.44560603467244
 20
86.88789025564543
 30
0.0
 10
49.04971610825593
 20
88.60441367282135
 30
0.0
 10
47.1508647747934
 20
89.8208243789319
 30
0.0
 10
45.63033445125159
 20
91.11190995015633
 30
0.0
  0
SPLINE
  5
378
330
348
100
AcDbEntity
  8
0
  6
Continuous
 62
     7
370
    25
100
AcDbSpline
210
0.0
220
0.0
230
1.0
 70
     8
 71
     3
 72
     8
 73
     4
 74
     0
 42
0.000000001
 43
0.00000001
 40
0.0000000000000102
 40
0.0000000000000102
 40
0.0000000000000102
 40
0.0000000000000102
 40
0.0000062809730629
 40
0.0000062809730629
 40
0.0000062809730629
 40
0.0000062809730629
 10
127.8152691090556
 20
80.75931371140634
 30
0.0
 10
127.8134588812523
 20
80.75896377136294
 30
0.0
 10
127.8116485778853
 20
80.75861442746988
 30
0.0
 10
127.8098381994068
 20
80.75826567989307
 30
0.0
  0
SPLINE
  5
379
330
348
100
AcDbEntity
  8
0
  6
Continuous
 62
     7
370
    25
100
AcDbSpline
210
0.0
220
0.0
230
1.0
 70
     8
 71
     3
 72
    34
 73
    30
 74
     0
 42
0.000000001
 43
0.00000001
 40
0.0
 40
0.0
 40
0.0
 40
0.0
 40
0.1250000000000092
 40
0.1250000000000092
 40
0.1875000000000138
 40
0.1875000000000138
 40
0.2187500000000152
 40
0.2187500000000152
 40
0.2500000000000167
 40
0.2500000000000167
 40
0.3750000000000168
 40
0.3750000000000168
 40
0.4375000000000169
 40
0.4375000000000169
 40
0.500000000000017
 40
0.500000000000017
 40
0.6250000000000172
 40
0.6250000000000172
 40
0.6875000000000162
 40
0.6875000000000162
 40
0.7187500000000149
 40
0.7187500000000149
 40
0.7500000000000135
 40
0.7500000000000135
 40
0.875000000000008
 40
0.875000000000008
 40
0.9375000000000043
 40
0.9375000000000043
 40
1.0
 40
1.0
 40
1.0
 40
1.0
 10
156.4998912607163
 20
104.9883684741195
 30
0.0
 10
157.703988654785
 20
103.8651262357617
 30
0.0
 10
158.5861401620344
 20
102.7225557672787
 30
0.0
 10
159.4469739085445
 20
100.9806872290602
 30
0.0
 10
159.6563449157558
 20
100.3953722596657
 30
0.0
 10
159.8523135952748
 20
99.51021666512307
 30
0.0
 10
159.8979257236004
 20
99.21396678872077
 30
0.0
 10
159.9490676101748
 20
98.61903525313674
 30
0.0
 10
159.9544922066017
 20
98.3197730985459
 30
0.0
 10
159.8805639166421
 20
96.83163505497355
 30
0.0
 10
159.502444352501
 20
95.65793779899322
 30
0.0
 10
158.4710370908242
 20
93.92214789205467
 30
0.0
 10
158.0493604667984
 20
93.34772029920956
 30
0.0
 10
157.0468912466387
 20
92.20738371363338
 30
0.0
 10
156.4629631082407
 20
91.63936744569611
 30
0.0
 10
154.502870452109
 20
89.98070670947692
 30
0.0
 10
152.9145796954037
 20
88.92606556376835
 30
0.0
 10
150.117313730576
 20
87.41960445918056
 30
0.0
 10
149.1153331917479
 20
86.93012929945172
 30
0.0
 10
147.5051124622898
 20
86.21544556131322
 30
0.0
 10
146.9492740340877
 20
85.98003360686491
 30
0.0
 10
145.8121687594364
 20
85.52025770913538
 30
0.0
 10
145.2299542514948
 20
85.29542857408956
 30
0.0
 10
142.2517147276823
 20
84.19616928560995
 30
0.0
 10
139.6557678890231
 20
83.39581288941389
 30
0.0
 10
135.4438560948155
 20
82.31303214576768
 30
0.0
 10
133.9865733113303
 20
81.97185714031934
 30
0.0
 10
130.9617557842367
 20
81.33032297900024
 30
0.0
 10
129.4086051080952
 20
81.0330256408089
 30
0.0
 10
127.815269109055
 20
80.75931371140668
 30
0.0
  0
SPLINE
  5
37A
330
348
100
AcDbEntity
  8
0
  6
Continuous
 62
     7
370
    25
100
AcDbSpline
210
0.0
220
0.0
230
1.0
 70
     8
 71
     3
 72
    16
 73
    12
 74
     0
 42
0.000000001
 43
0.00000001
 40
0.0
 40
0.0
 40
0.0
 40
0.0
 40
0.5
 40
0.5
 40
0.7499999999999999
 40
0.7499999999999999
 40
0.875
 40
0.875
 40
0.9375
 40
0.9375
 40
1.0
 40
1.0
 40
1.0
 40
1.0
 10
542.1009536696638
 20
89.11496191379027
 30
0.0
 10
477.8201402900682
 20
91.73721758311882
 30
0.0
 10
413.5418060203016
 20
94.36354113560192
 30
0.0
 10
317.1345281175381
 20
98.31988686296093
 30
0.0
 10
285.0004528943263
 20
99.64143576820967
 30
0.0
 10
236.8047670386035
 20
101.6327496295087
 30
0.0
 10
220.7404196512948
 20
102.2979710263504
 30
0.0
 10
196.6465815038332
 20
103.300386845727
 30
0.0
 10
188.6157443457205
 20
103.6352800510651
 30
0.0
 10
172.555809102823
 20
104.3081550602829
 30
0.0
 10
164.5265126998337
 20
104.6457240226139
 30
0.0
 10
156.4998912607158
 20
104.9883684741193
 30
0.0
  0
SPLINE
  5
37B
330
348
100
AcDbEntity
  8
0
  6
Continuous
 62
     7
370
    25
100
AcDbSpline
210
0.0
220
0.0
230
1.0
 70
     8
 71
     3
 72
     8
 73
     4
 74
     0
 42
0.000000001
 43
0.00000001
 40
0.0
 40
0.0
 40
0.0
 40
0.0
 40
0.0000062809730722
 40
0.0000062809730722
 40
0.0000062809730722
 40
0.0000062809730722
 10
45.63033445125164
 20
91.11190995015636
 30
0.0
 10
45.62967225619489
 20
91.11257021271827
 30
0.0
 10
45.62901020381634
 20
91.11323104415759
 30
0.0
 10
45.62834829427825
 20
91.11389244423083
 30
0.0
  0
LWPOLYLINE
  5
37C
330
348
100
AcDbEntity
  8
0
  6
Continuous
 62
     7
370
    25
100
AcDbPolyline
 90
        3
 70
   128
 43
0.0
 10
-267.7434786675
 20
191.145769892
 10
-271.4838414194
 20
191.7166721483
 10
-272.582216806
 20
191.8843245247
  0
SPLINE
  5
37D
330
348
100
AcDbEntity
  8
0
  6
Continuous
 62
     7
370
    25
100
AcDbSpline
210
0.0
220
0.0
230
1.0
 70
     8
 71
     3
 72
    16
 73
    12
 74
     0
 42
0.000000001
 43
0.00000001
 40
0.0
 40
0.0
 40
0.0
 40
0.0
 40
0.0624999999999999
 40
0.0624999999999999
 40
0.1249999999999999
 40
0.1249999999999999
 40
0.2499999999999999
 40
0.2499999999999999
 40
0.4999999999999999
 40
0.4999999999999999
 40
1.0
 40
1.0
 40
1.0
 40
1.0
 10
72.13578550685726
 20
115.6172467261925
 30
0.0
 10
65.03774721804052
 20
117.1801302781065
 30
0.0
 10
57.94649552160966
 20
118.7475713025483
 30
0.0
 10
43.76744006618025
 20
121.8844509987317
 30
0.0
 10
36.68014039288235
 20
123.4542639889187
 30
0.0
 10
15.42166270710254
 20
128.1657028536056
 30
0.0
 10
1.253938090883797
 20
131.3093644884313
 30
0.0
 10
-41.24246063572988
 20
140.744179211031
 30
0.0
 10
-69.56411701112076
 20
147.0393365051322
 30
0.0
 10
-154.5160042753498
 20
165.9320977375731
 30
0.0
 10
-211.1329525673813
 20
178.5371483843145
 30
0.0
 10
-267.7434786675469
 20
191.1457698920254
 30
0.0
  0
SPLINE
  5
37E
330
348
100
AcDbEntity
  8
0
  6
Continuous
 62
     7
370
    25
100
AcDbSpline
210
0.0
220
0.0
230
1.0
 70
     8
 71
     3
 72
    34
 73
    30
 74
     0
 42
0.000000001
 43
0.00000001
 40
0.0
 40
0.0
 40
0.0
 40
0.0
 40
0.1249999999999971
 40
0.1249999999999971
 40
0.1874999999999957
 40
0.1874999999999957
 40
0.2187499999999959
 40
0.2187499999999959
 40
0.2499999999999961
 40
0.2499999999999961
 40
0.3749999999999968
 40
0.3749999999999968
 40
0.4374999999999962
 40
0.4374999999999962
 40
0.4999999999999956
 40
0.4999999999999956
 40
0.6249999999999943
 40
0.6249999999999943
 40
0.6874999999999937
 40
0.6874999999999937
 40
0.7187499999999934
 40
0.7187499999999934
 40
0.7499999999999931
 40
0.7499999999999931
 40
0.8749999999999958
 40
0.8749999999999958
 40
0.9374999999999979
 40
0.9374999999999979
 40
1.0
 40
1.0
 40
1.0
 40
1.0
 10
45.62834829427897
 20
91.11389244423087
 30
0.0
 10
44.32187914420988
 20
92.22739989944803
 30
0.0
 10
43.33589405850851
 20
93.36318794257814
 30
0.0
 10
42.3176102272067
 20
95.09897231686514
 30
0.0
 10
42.05544425381915
 20
95.68295184415477
 30
0.0
 10
41.77985866799576
 20
96.56711101107085
 30
0.0
 10
41.70763672062138
 20
96.8631981537332
 30
0.0
 10
41.60313893097861
 20
97.45815690503275
 30
0.0
 10
41.57091715858532
 20
97.75762096479885
 30
0.0
 10
41.51179941870643
 20
99.24765894612061
 30
0.0
 10
41.78555523101012
 20
100.4254689178051
 30
0.0
 10
42.66321825254366
 20
102.1714838184012
 30
0.0
 10
43.03407212641667
 20
102.7500173241127
 30
0.0
 10
43.93569973488705
 20
103.8999253832628
 30
0.0
 10
44.46944920412945
 20
104.4734595171658
 30
0.0
 10
46.28304386911327
 20
106.1506424601132
 30
0.0
 10
47.77797969498769
 20
107.2201565760513
 30
0.0
 10
50.44117858806146
 20
108.7525590256741
 30
0.0
 10
51.39943773599579
 20
109.2513268832725
 30
0.0
 10
52.94551133401613
 20
109.9808535482479
 30
0.0
 10
53.48017815812779
 20
110.2213808126553
 30
0.0
 10
54.5759057613051
 20
110.6916267881961
 30
0.0
 10
55.13785144030864
 20
110.9218100110969
 30
0.0
 10
58.01681735370316
 20
112.0484528819865
 30
0.0
 10
60.53981251795503
 20
112.872644704838
 30
0.0
 10
64.6520962161696
 20
113.9938949066375
 30
0.0
 10
66.07779799001896
 20
114.3483822089151
 30
0.0
 10
69.04285258583278
 20
115.0175105277277
 30
0.0
 10
70.56819230918616
 20
115.3289758080362
 30
0.0
 10
72.13578550690589
 20
115.617246726182
 30
0.0
  0
LWPOLYLINE
  5
37F
330
348
100
AcDbEntity
  8
0
  6
Continuous
 62
     7
370
    25
100
AcDbPolyline
 90
        8
 70
   128
 43
0.0
 10
-622.1291273589
 20
-81.9758425546
 10
-623.0076116432
 20
-81.8309282727
 10
-623.7844019765
 20
-81.6316705507
 10
-624.4296467419
 20
-81.3857267513
 10
-624.918549545
 20
-81.1025483567
 10
-625.2323221252
 20
-80.7930177538
 10
-625.3589063782
 20
-80.46903003
 10
-625.3613604064
 20
-80.4168186438
  0
SPLINE
  5
383
330
348
100
AcDbEntity
  8
0
  6
Continuous
 62
     7
370
    25
100
AcDbSpline
210
0.0
220
0.0
230
1.0
 70
     8
 71
     3
 72
     8
 73
     4
 74
     0
 42
0.000000001
 43
0.00000001
 40
0.0000000000000299
 40
0.0000000000000299
 40
0.0000000000000299
 40
0.0000000000000299
 40
0.0000355828292625
 40
0.0000355828292625
 40
0.0000355828292625
 40
0.0000355828292625
 10
156.4851559460552
 20
104.9991029615997
 30
0.0
 10
156.4900716292808
 20
104.9955123603147
 30
0.0
 10
156.4949834085157
 20
104.9919341864448
 30
0.0
 10
156.4998912607219
 20
104.9883684741205
 30
0.0
  0
SPLINE
  5
384
330
348
100
AcDbEntity
  8
0
  6
Continuous
 62
     7
370
    25
100
AcDbSpline
210
0.0
220
0.0
230
1.0
 70
     8
 71
     3
 72
    16
 73
    12
 74
     0
 42
0.000000001
 43
0.00000001
 40
0.0
 40
0.0
 40
0.0
 40
0.0
 40
0.0625000000000001
 40
0.0625000000000001
 40
0.1250000000000002
 40
0.1250000000000002
 40
0.2500000000000002
 40
0.2500000000000002
 40
0.5000000000000001
 40
0.5000000000000001
 40
1.0
 40
1.0
 40
1.0
 40
1.0
 10
156.4851559460482
 20
104.9991029615868
 30
0.0
 10
164.3796271737524
 20
104.6969891884544
 30
0.0
 10
172.2716010212064
 20
104.3910834661587
 30
0.0
 10
188.0542458246769
 20
103.7775835624615
 30
0.0
 10
195.9447340624653
 20
103.4696859717967
 30
0.0
 10
219.6148951623028
 20
102.5442770727256
 30
0.0
 10
235.393251447937
 20
101.9250109974569
 30
0.0
 10
282.7256808072163
 20
100.0632891573536
 30
0.0
 10
314.2770077838787
 20
98.81669299648671
 30
0.0
 10
408.9258852687879
 20
95.06654426160381
 30
0.0
 10
472.0182883914703
 20
92.55263582474859
 30
0.0
 10
535.1083333970872
 20
90.03185972350808
 30
0.0
  0
SPLINE
  5
385
330
348
100
AcDbEntity
  8
0
  6
Continuous
 62
     7
370
    25
100
AcDbSpline
210
0.0
220
0.0
230
1.0
 70
     8
 71
     3
 72
     8
 73
     4
 74
     0
 42
0.000000001
 43
0.00000001
 40
0.0
 40
0.0
 40
0.0
 40
0.0
 40
1.0
 40
1.0
 40
1.0
 40
1.0
 10
542.1009536696637
 20
89.11496191378988
 30
0.0
 10
539.7706192563255
 20
89.38205928407304
 30
0.0
 10
537.4394792690772
 20
89.68727386689035
 30
0.0
 10
535.1083333970869
 20
90.03185972350717
 30
0.0
  0
SPLINE
  5
386
330
348
100
AcDbEntity
  8
0
  6
Continuous
 62
     7
370
    25
100
AcDbSpline
210
0.0
220
0.0
230
1.0
 70
     8
 71
     3
 72
    52
 73
    48
 74
     0
 42
0.000000001
 43
0.00000001
 40
0.0
 40
0.0
 40
0.0
 40
0.0
 40
0.0624999999999986
 40
0.0624999999999986
 40
0.1249999999999973
 40
0.1249999999999973
 40
0.1874999999999959
 40
0.1874999999999959
 40
0.2187499999999956
 40
0.2187499999999956
 40
0.2499999999999954
 40
0.2499999999999954
 40
0.2812499999999951
 40
0.2812499999999951
 40
0.3124999999999948
 40
0.3124999999999948
 40
0.3749999999999947
 40
0.3749999999999947
 40
0.4374999999999946
 40
0.4374999999999946
 40
0.4687499999999946
 40
0.4687499999999946
 40
0.4999999999999947
 40
0.4999999999999947
 40
0.5624999999999947
 40
0.5624999999999947
 40
0.5937499999999947
 40
0.5937499999999947
 40
0.6249999999999946
 40
0.6249999999999946
 40
0.6562499999999946
 40
0.6562499999999946
 40
0.6874999999999944
 40
0.6874999999999944
 40
0.7499999999999948
 40
0.7499999999999948
 40
0.7812499999999952
 40
0.7812499999999952
 40
0.8124999999999957
 40
0.8124999999999957
 40
0.8437499999999961
 40
0.8437499999999961
 40
0.8749999999999964
 40
0.8749999999999964
 40
0.9374999999999982
 40
0.9374999999999982
 40
1.0
 40
1.0
 40
1.0
 40
1.0
 10
72.16825986005401
 20
115.6220333545755
 30
0.0
 10
74.04653283393154
 20
115.9695503098883
 30
0.0
 10
75.96336919266379
 20
116.2802949933633
 30
0.0
 10
79.87158684644061
 20
116.8312344459385
 30
0.0
 10
81.86297806043882
 20
117.0714165926915
 30
0.0
 10
85.92057857334123
 20
117.4819096423527
 30
0.0
 10
87.98676845348054
 20
117.6522137228565
 30
0.0
 10
91.14455119127932
 20
117.8537554617067
 30
0.0
 10
92.20586117808729
 20
117.9118087424709
 30
0.0
 10
94.32807026409326
 20
118.0087661768863
 30
0.0
 10
95.39139307659411
 20
118.0478506888126
 30
0.0
 10
97.52247160285616
 20
118.1072785894747
 30
0.0
 10
98.59022787997948
 20
118.1276223128397
 30
0.0
 10
100.7301962985535
 20
118.149442608988
 30
0.0
 10
101.8022826230137
 20
118.1508715726932
 30
0.0
 10
104.995261386059
 20
118.1269315118364
 30
0.0
 10
107.1030392251079
 20
118.0736230345206
 30
0.0
 10
111.2794674734257
 20
117.8923786728305
 30
0.0
 10
113.3481567804481
 20
117.7643517289434
 30
0.0
 10
116.422763344192
 20
117.5121704366889
 30
0.0
 10
117.4428780804259
 20
117.4180356169969
 30
0.0
 10
119.4735216212524
 20
117.2086626971656
 30
0.0
 10
120.4859165432824
 20
117.0931570221166
 30
0.0
 10
123.4870758371728
 20
116.7167024331675
 30
0.0
 10
125.4441294597516
 20
116.4254208701324
 30
0.0
 10
128.3136219340784
 20
115.9306048629483
 30
0.0
 10
129.2603315121385
 20
115.7558130589894
 30
0.0
 10
131.1228573564787
 20
115.3891678405879
 30
0.0
 10
132.0389846836563
 20
115.1972985866439
 30
0.0
 10
133.8405089944794
 20
114.7971720830788
 30
0.0
 10
134.7259082780969
 20
114.5889245261311
 30
0.0
 10
136.4651805984724
 20
114.1564072309602
 30
0.0
 10
137.3203150959066
 20
113.931761173423
 30
0.0
 10
139.8260284708556
 20
113.2369145208569
 30
0.0
 10
141.4166053816713
 20
112.7462458770638
 30
0.0
 10
143.6816916710466
 20
111.9695339332319
 30
0.0
 10
144.4173831060828
 20
111.7035086293354
 30
0.0
 10
145.8439390311492
 20
111.1592806223718
 30
0.0
 10
146.5343887447687
 20
110.881254646147
 30
0.0
 10
147.8698273455547
 20
110.3132781105601
 30
0.0
 10
148.5141833960598
 20
110.0235295219035
 30
0.0
 10
149.7487259338092
 20
109.4363515416849
 30
0.0
 10
150.3401307990901
 20
109.1384157845206
 30
0.0
 10
152.0381821666545
 20
108.2316445680074
 30
0.0
 10
153.0688763413815
 20
107.6098908893432
 30
0.0
 10
154.9292421314555
 20
106.3312413415777
 30
0.0
 10
155.7589344710533
 20
105.6743524760723
 30
0.0
 10
156.4851559459973
 20
104.999102961589
 30
0.0
  0
SPLINE
  5
387
330
348
100
AcDbEntity
  8
0
  6
Continuous
 62
     7
370
    25
100
AcDbSpline
210
0.0
220
0.0
230
1.0
 70
     8
 71
     3
 72
    16
 73
    12
 74
     0
 42
0.000000001
 43
0.00000001
 40
0.0
 40
0.0
 40
0.0
 40
0.0
 40
0.5
 40
0.5
 40
0.7500000000000001
 40
0.7500000000000001
 40
0.8750000000000001
 40
0.8750000000000001
 40
0.9375
 40
0.9375
 40
1.0
 40
1.0
 40
1.0
 40
1.0
 10
-260.5332814331804
 20
190.2732808912212
 30
0.0
 10
-205.0461788978822
 20
177.8547410217924
 30
0.0
 10
-149.5655385336525
 20
165.4298507526634
 30
0.0
 10
-66.37195761919821
 20
146.7739561789632
 30
0.0
 10
-38.64530024619942
 20
140.5522282552728
 30
0.0
 10
2.930335510909973
 20
131.2125877489773
 30
0.0
 10
16.78654667787509
 20
128.0982492662195
 30
0.0
 10
37.5639336820273
 20
123.4237924795384
 30
0.0
 10
44.48858486651235
 20
121.8651573152667
 30
0.0
 10
58.3334720510518
 20
118.7459377902356
 30
0.0
 10
65.25419911042687
 20
117.1856177151003
 30
0.0
 10
72.16825986005223
 20
115.6220333545755
 30
0.0
  0
SPLINE
  5
388
330
348
100
AcDbEntity
  8
0
  6
Continuous
 62
     7
370
    25
100
AcDbSpline
210
0.0
220
0.0
230
1.0
 70
     8
 71
     3
 72
    14
 73
    10
 74
     0
 42
0.000000001
 43
0.00000001
 40
0.0
 40
0.0
 40
0.0
 40
0.0
 40
0.2500000000000001
 40
0.2500000000000001
 40
0.5000000000000001
 40
0.5000000000000001
 40
0.75
 40
0.75
 40
1.0
 40
1.0
 40
1.0
 40
1.0
 10
535.108333397087
 20
90.03185972350732
 30
0.0
 10
468.8132880231899
 20
98.37658956746853
 30
0.0
 10
402.5199766068167
 20
106.7206876986608
 30
0.0
 10
269.930726467014
 20
123.4135705368818
 30
0.0
 10
203.6340601720052
 20
131.7627271426486
 30
0.0
 10
71.02711220238527
 20
148.4696322025771
 30
0.0
 10
4.716839557319746
 20
156.8273795193481
 30
0.0
 10
-127.9077760476728
 20
173.548302998254
 30
0.0
 10
-194.2213937765799
 20
181.9111075563722
 30
0.0
 10
-260.5332814331824
 20
190.2732808912198
 30
0.0
  0
SPLINE
  5
389
330
348
100
AcDbEntity
  8
0
  6
Continuous
 62
     7
370
    25
100
AcDbSpline
210
0.0
220
0.0
230
1.0
 70
     8
 71
     3
 72
     8
 73
     4
 74
     0
 42
0.000000001
 43
0.00000001
 40
0.0
 40
0.0
 40
0.0
 40
0.0
 40
0.0000390615927959
 40
0.0000390615927959
 40
0.0000390615927959
 40
0.0000390615927959
 10
154.6734667833859
 20
102.8856743524192
 30
0.0
 10
154.6690849756778
 20
102.8897550149465
 30
0.0
 10
154.6646989783906
 20
102.8938508445527
 30
0.0
 10
154.6603088144618
 20
102.8979618027742
 30
0.0
  0
SPLINE
  5
38C
330
348
100
AcDbEntity
  8
0
  6
Continuous
 62
     7
370
    25
100
AcDbSpline
210
0.0
220
0.0
230
1.0
 70
     8
 71
     3
 72
     8
 73
     4
 74
     0
 42
0.000000001
 43
0.00000001
 40
0.0
 40
0.0
 40
0.0
 40
0.0
 40
0.0000390615927951
 40
0.0000390615927951
 40
0.0000390615927951
 40
0.0000390615927951
 10
73.10736271276147
 20
113.1726672295289
 30
0.0
 10
73.09596214653834
 20
113.1705457163065
 30
0.0
 10
73.08456368660222
 20
113.1684385413848
 30
0.0
 10
73.07316739251371
 20
113.1663457328334
 30
0.0
  0
SPLINE
  5
38D
330
348
100
AcDbEntity
  8
0
  6
Continuous
 62
     7
370
    25
100
AcDbSpline
210
0.0
220
0.0
230
1.0
 70
     8
 71
     3
 72
    46
 73
    42
 74
     0
 42
0.000000001
 43
0.00000001
 40
0.0
 40
0.0
 40
0.0
 40
0.0
 40
0.1250000000000016
 40
0.1250000000000016
 40
0.1562500000000016
 40
0.1562500000000016
 40
0.1875000000000016
 40
0.1875000000000016
 40
0.2500000000000014
 40
0.2500000000000014
 40
0.3125000000000012
 40
0.3125000000000012
 40
0.3437500000000012
 40
0.3437500000000012
 40
0.3750000000000012
 40
0.3750000000000012
 40
0.4062500000000012
 40
0.4062500000000012
 40
0.4375000000000012
 40
0.4375000000000012
 40
0.5000000000000012
 40
0.5000000000000012
 40
0.5312500000000013
 40
0.5312500000000013
 40
0.5625000000000012
 40
0.5625000000000012
 40
0.6250000000000013
 40
0.6250000000000013
 40
0.6875000000000013
 40
0.6875000000000013
 40
0.7187500000000013
 40
0.7187500000000013
 40
0.7500000000000012
 40
0.7500000000000012
 40
0.7812500000000012
 40
0.7812500000000012
 40
0.8125000000000012
 40
0.8125000000000012
 40
0.8750000000000004
 40
0.8750000000000004
 40
1.0
 40
1.0
 40
1.0
 40
1.0
 10
154.6603088144618
 20
102.8979618027742
 30
0.0
 10
153.2595222108318
 20
104.2096611603022
 30
0.0
 10
151.4614301756114
 20
105.4514725791707
 30
0.0
 10
148.7319864826346
 20
106.9233079399224
 30
0.0
 10
148.1617391430308
 20
107.2136212093358
 30
0.0
 10
146.9718233006806
 20
107.7861733827208
 30
0.0
 10
146.3510099262815
 20
108.0688940857815
 30
0.0
 10
144.4220442020622
 20
108.9009913969516
 30
0.0
 10
143.0461022599894
 20
109.4349164279774
 30
0.0
 10
140.1415986007787
 20
110.4526093344054
 30
0.0
 10
138.6126789621397
 20
110.9369204459937
 30
0.0
 10
136.2038339127905
 20
111.6258109332742
 30
0.0
 10
135.3817766577856
 20
111.8490310974629
 30
0.0
 10
133.7089289766853
 20
112.2795816031427
 30
0.0
 10
132.856948855841
 20
112.4872694015971
 30
0.0
 10
131.1219569855447
 20
112.8865105813483
 30
0.0
 10
130.2389452294056
 20
113.0780550975351
 30
0.0
 10
128.4416920035566
 20
113.4436548007392
 30
0.0
 10
127.5271674941489
 20
113.6177127975879
 30
0.0
 10
124.7531653133878
 20
114.1086127189125
 30
0.0
 10
122.8580126345859
 20
114.395041046648
 30
0.0
 10
119.9464030693337
 20
114.7596878584112
 30
0.0
 10
118.9632656706073
 20
114.8705146445358
 30
0.0
 10
116.9917277205131
 20
115.0690254700731
 30
0.0
 10
116.0012542704018
 20
115.1570056941169
 30
0.0
 10
113.0159595441331
 20
115.3891013662897
 30
0.0
 10
111.0073027137587
 20
115.5015296059984
 30
0.0
 10
106.9533286410799
 20
115.6521795927581
 30
0.0
 10
104.9080107204485
 20
115.6906288550742
 30
0.0
 10
101.8117878679818
 20
115.6961623204831
 30
0.0
 10
100.7726037079681
 20
115.6892002712581
 30
0.0
 10
98.698514037242
 20
115.6578180341164
 30
0.0
 10
97.6638228752822
 20
115.633442981091
 30
0.0
 10
95.59911875390124
 20
115.56740746198
 30
0.0
 10
94.56910584314569
 20
115.5257427961888
 30
0.0
 10
92.51377132621323
 20
115.4249676646537
 30
0.0
 10
91.48622858546732
 20
115.3656969505048
 30
0.0
 10
88.42825852883266
 20
115.1622812412177
 30
0.0
 10
86.42698497600398
 20
114.9930800066554
 30
0.0
 10
80.53168167469721
 20
114.3859544597768
 30
0.0
 10
76.74490466089068
 20
113.8495716208401
 30
0.0
 10
73.10736271276149
 20
113.1726672295289
 30
0.0
  0
SPLINE
  5
394
330
348
100
AcDbEntity
  8
0
  6
Continuous
 62
     7
370
    25
100
AcDbSpline
210
0.0
220
0.0
230
1.0
 70
     8
 71
     3
 72
     8
 73
     4
 74
     0
 42
0.000000001
 43
0.00000001
 40
0.0
 40
0.0
 40
0.0
 40
0.0
 40
1.0
 40
1.0
 40
1.0
 40
1.0
 10
535.7060863563676
 20
92.42273500416348
 30
0.0
 10
538.0572486432653
 20
92.12721295946022
 30
0.0
 10
540.4082588674746
 20
91.86323020931196
 30
0.0
 10
542.758598146498
 20
91.62974051076786
 30
0.0
  0
SPLINE
  5
395
330
348
100
AcDbEntity
  8
0
  6
Continuous
 62
     7
370
    25
100
AcDbSpline
210
0.0
220
0.0
230
1.0
 70
     8
 71
     3
 72
    10
 73
     6
 74
     0
 42
0.000000001
 43
0.00000001
 40
0.0
 40
0.0
 40
0.0
 40
0.0
 40
0.5
 40
0.5
 40
1.0
 40
1.0
 40
1.0
 40
1.0
 10
-259.9344417568892
 20
192.6640192584017
 30
0.0
 10
-127.3276915260425
 20
175.9178527686676
 30
0.0
 10
5.279055690315976
 20
159.15436253159
 30
0.0
 10
270.4925698240643
 20
125.7406005084468
 30
0.0
 10
403.0993290697
 20
109.0903296968904
 30
0.0
 10
535.7060863563677
 20
92.42273500416348
 30
0.0
  0
SPLINE
  5
396
330
348
100
AcDbEntity
  8
0
  6
Continuous
 62
     7
370
    25
100
AcDbSpline
210
0.0
220
0.0
230
1.0
 70
     8
 71
     3
 72
     8
 73
     4
 74
     0
 42
0.000000001
 43
0.00000001
 40
0.0
 40
0.0
 40
0.0
 40
0.0
 40
1.0
 40
1.0
 40
1.0
 40
1.0
 10
-266.9869535469765
 20
193.6480906988764
 30
0.0
 10
-264.6366145978844
 20
193.2893506167492
 30
0.0
 10
-262.285602984667
 20
192.9609342894695
 30
0.0
 10
-259.9344417568892
 20
192.6640192584017
 30
0.0
  0
LWPOLYLINE
  5
39D
330
348
100
AcDbEntity
  8
0
  6
Continuous
 62
     7
370
    25
100
AcDbPolyline
 90
       34
 70
   128
 43
0.0
 10
145.4898597425
 20
90.5136940649
 10
144.9381365952
 20
91.7227276668
 10
144.0074025889
 20
93.0129517989
 10
142.7382202791
 20
94.2707075981
 10
141.1405227381
 20
95.48615142
 10
139.2268141155
 20
96.6497707687
 10
137.0120717759
 20
97.7524587452
 10
134.5136290809
 20
98.7855853208
 10
131.7510397323
 20
99.7410648795
 10
128.7459247372
 20
100.6114194981
 10
125.521803195
 20
101.3898374718
 10
122.1039082283
 20
102.0702266244
 10
118.5189894992
 20
102.6472619883
 10
114.7951038574
 20
103.1164274794
 10
110.9613957572
 20
103.4740512417
 10
107.0478691623
 20
103.7173343843
 10
103.0851527245
 20
103.8443728868
 10
99.1042600728
 20
103.8541725006
 10
95.1363470896
 20
103.7466565305
 10
91.212468074
 20
103.5226664347
 10
87.3633326994
 20
103.1839552394
 10
83.6190656691
 20
102.733173819
 10
80.0089709491
 20
102.1738501493
 10
76.5613024254
 20
101.5103616963
 10
73.3030427787
 20
100.7479011567
 10
70.2596923085
 20
99.8924358182
 10
67.4550693586
 20
98.9506608568
 10
64.9111239061
 20
97.9299469385
 10
62.6477657734
 20
96.8382825337
 10
60.6827088068
 20
95.6842113965
 10
59.0313322412
 20
94.4767656982
 10
57.7065603373
 20
93.2253953385
 10
56.7187612316
 20
91.9398939873
 10
56.0860410176
 20
90.6592533834
  0
LWPOLYLINE
  5
39E
330
348
100
AcDbEntity
  8
0
  6
Continuous
 62
     7
370
    25
100
AcDbPolyline
 90
        3
 70
   128
 43
0.0
 10
625.3613604064
 20
80.4168186438
 10
625.2934377421
 20
80.143035852
 10
625.03843214
 20
79.8275629931
  0
SPLINE
  5
3A2
330
348
100
AcDbEntity
  8
0
  6
Continuous
 62
     7
370
    25
100
AcDbSpline
210
0.0
220
0.0
230
1.0
 70
     8
 71
     3
 72
     8
 73
     4
 74
     0
 42
0.000000001
 43
0.00000001
 40
0.0
 40
0.0
 40
0.0
 40
0.0
 40
1.0
 40
1.0
 40
1.0
 40
1.0
 10
-260.5332814331824
 20
190.2732808912194
 30
0.0
 10
-262.9369248102771
 20
190.5252224434648
 30
0.0
 10
-265.3406012929694
 20
190.8165386352167
 30
0.0
 10
-267.7434786675352
 20
191.1457698920251
 30
0.0
  0
SPLINE
  5
3A3
330
348
100
AcDbEntity
  8
0
  6
Continuous
 62
     7
370
    25
100
AcDbSpline
210
0.0
220
0.0
230
1.0
 70
     8
 71
     3
 72
     8
 73
     4
 74
     0
 42
0.000000001
 43
0.00000001
 40
0.0000000000000335
 40
0.0000000000000335
 40
0.0000000000000335
 40
0.0000000000000335
 40
0.0000355828292615
 40
0.0000355828292615
 40
0.0000355828292615
 40
0.0000355828292615
 10
72.13578550687771
 20
115.617246726205
 30
0.0
 10
72.14660850630803
 20
115.6188305375142
 30
0.0
 10
72.15743330701716
 20
115.6204260886359
 30
0.0
 10
72.16825986005152
 20
115.6220333545776
 30
0.0
  0
LWPOLYLINE
  5
3A9
330
348
100
AcDbEntity
  8
0
  6
Continuous
 62
     8
370
    25
100
AcDbPolyline
 90
        3
 70
   128
 43
0.0
 10
271.3697956264
 20
-150.1775080527
 10
271.256504474
 20
-150.1906150038
 10
271.1185547844
 20
-150.2760435718
  0
LWPOLYLINE
  5
3AA
330
348
100
AcDbEntity
  8
0
  6
Continuous
 62
     8
370
    25
100
AcDbPolyline
 90
        3
 70
   128
 43
0.0
 10
-548.3044129459
 20
-47.0384535668
 10
-548.1664632563
 20
-46.9530249988
 10
-548.0544129461
 20
-46.9397581667
  0
SPLINE
  5
3AC
330
348
100
AcDbEntity
  8
0
  6
Continuous
 62
     8
370
    25
100
AcDbSpline
210
0.0
220
0.0
230
1.0
 70
     8
 71
     3
 72
    13
 73
     9
 74
     0
 42
0.000000001
 43
0.00000001
 40
0.0
 40
0.0
 40
0.0
 40
0.0
 40
0.0590597961770671
 40
0.1230062852697325
 40
0.2508992425562749
 40
0.5066851633395916
 40
0.8903640558115682
 40
1.0
 40
1.0
 40
1.0
 40
1.0
 10
45.63033445125156
 20
91.11190995015633
 30
0.0
 10
34.12453414962583
 20
88.36865223425225
 30
0.0
 10
10.16092699603556
 20
82.65515569323436
 30
0.0
 10
-38.74168177629574
 20
71.0117018656694
 30
0.0
 10
-126.0021429348251
 20
50.24473977140129
 30
0.0
 10
-275.6138269388399
 20
14.65370590401192
 30
0.0
 10
-421.6723946969966
 20
-20.08792816391318
 30
0.0
 10
-517.859694096036
 20
-42.9661541320983
 30
0.0
 10
-539.2366821873318
 20
-48.05068781926358
 30
0.0
  0
SPLINE
  5
3AD
330
348
100
AcDbEntity
  8
0
  6
Continuous
 62
     8
370
    25
100
AcDbSpline
210
0.0
220
0.0
230
1.0
 70
     8
 71
     3
 72
    10
 73
     6
 74
     0
 42
0.000000001
 43
0.00000001
 40
0.0
 40
0.0
 40
0.0
 40
0.0
 40
0.8769937950765367
 40
0.9409402424001014
 40
0.9999999999999999
 40
0.9999999999999999
 40
0.9999999999999999
 40
0.9999999999999999
 10
271.059947111115
 20
-150.1384672595218
 30
0.0
 10
229.1289359213838
 20
-82.64337113203783
 30
0.0
 10
184.1405037860074
 20
-10.22683584119197
 30
0.0
 10
136.4622859222236
 20
66.74265924820055
 30
0.0
 10
130.6165762522889
 20
76.21179083638327
 30
0.0
 10
127.8098381993545
 20
80.75826567988881
 30
0.0
  0
SPLINE
  5
3AE
330
348
100
AcDbEntity
  8
0
  6
Continuous
 62
     8
370
    25
100
AcDbSpline
210
0.0
220
0.0
230
1.0
 70
     8
 71
     3
 72
    13
 73
     9
 74
     0
 42
0.000000001
 43
0.00000001
 40
0.0
 40
0.0
 40
0.0
 40
0.0
 40
0.0590457243924597
 40
0.1229739806893499
 40
0.2508304568105921
 40
0.5065434069525453
 40
0.8901128477923553
 40
1.0
 40
1.0
 40
1.0
 40
1.0
 10
127.8152691090444
 20
80.75931371140595
 30
0.0
 10
130.6547023771693
 20
76.21491023514588
 30
0.0
 10
136.5683636198057
 20
66.75032340715218
 30
0.0
 10
148.5926473919094
 20
47.44297007495696
 30
0.0
 10
170.0219526725063
 20
12.99555697099536
 30
0.0
 10
206.7218447621167
 20
-46.0601954705024
 30
0.0
 10
242.5516696892353
 20
-103.7337329855467
 30
0.0
 10
266.1493407057877
 20
-141.7218815820291
 30
0.0
 10
271.4042727571108
 20
-150.1814087739312
 30
0.0
  0
LWPOLYLINE
  5
3AF
330
348
100
AcDbEntity
  8
0
  6
Continuous
 62
     8
370
    25
100
AcDbPolyline
 90
        3
 70
   128
 43
0.0
 10
545.5630138375
 20
88.7710313027
 10
543.1993219393
 20
89.0058440919
 10
542.1009536697
 20
89.1149619138
  0
SPLINE
  5
3B0
330
348
100
AcDbEntity
  8
0
  6
Continuous
 62
     8
370
    25
100
AcDbSpline
210
0.0
220
0.0
230
1.0
 70
     8
 71
     3
 72
    10
 73
     6
 74
     0
 42
0.000000001
 43
0.00000001
 40
0.0
 40
0.0
 40
0.0
 40
0.0
 40
0.8770261808331672
 40
0.9409543531622699
 40
1.0
 40
1.0
 40
1.0
 40
1.0
 10
-539.5907457258079
 20
-48.00608000637526
 30
0.0
 10
-368.5403129502542
 20
-7.319885751875295
 30
0.0
 10
-185.0216759381348
 20
36.33200564435209
 30
0.0
 10
10.09576588792028
 20
82.68439627094959
 30
0.0
 10
34.10186512161556
 20
88.3794318670596
 30
0.0
 10
45.62834829427592
 20
91.11389244423349
 30
0.0
  0
LWPOLYLINE
  5
3B1
330
348
100
AcDbEntity
  8
0
  6
Continuous
 62
     8
370
    25
100
AcDbPolyline
 90
        7
 70
   128
 43
0.0
 10
-272.582216806
 20
191.8843245247
 10
-273.9964626933
 20
190.6370787304
 10
-279.6534448971
 20
185.6480966723
 10
-302.2813468996
 20
165.6921906395
 10
-392.7921883698
 20
85.8691955303
 10
-469.615890518
 20
18.1170257404
 10
-543.9671441993
 20
-47.4547056257
  0
LWPOLYLINE
  5
3B2
330
348
100
AcDbEntity
  8
0
  6
Continuous
 62
     8
370
    25
100
AcDbPolyline
 90
        8
 70
   128
 43
0.0
 10
-625.3613604064
 20
-61.5606378116
 10
-625.3589063782
 20
-61.6128491978
 10
-625.2323221252
 20
-61.9368369216
 10
-624.918549545
 20
-62.2463675245
 10
-624.4296467419
 20
-62.5295459191
 10
-623.7844019765
 20
-62.7754897185
 10
-623.0076116432
 20
-62.9747474405
 10
-622.1291273589
 20
-63.1196617224
  0
LWPOLYLINE
  5
3B7
330
348
100
AcDbEntity
  8
0
  6
Continuous
 62
     8
370
    25
100
AcDbPolyline
 90
        3
 70
   128
 43
0.0
 10
-547.6587171215
 20
-46.9896111546
 10
-411.5823125644
 20
73.0166818671
 10
-274.4035970399
 20
193.9987500332
  0
LWPOLYLINE
  5
3B9
330
348
100
AcDbEntity
  8
0
  6
Continuous
 62
     8
370
    25
100
AcDbPolyline
 90
        3
 70
   128
 43
0.0
 10
127.8098381994
 20
80.7582656799
 10
127.6335251681
 20
80.8318896954
 10
127.4710616916
 20
80.8327744235
  0
SPLINE
  5
3BA
330
348
100
AcDbEntity
  8
0
  6
Continuous
 62
     8
370
    25
100
AcDbSpline
210
0.0
220
0.0
230
1.0
 70
     8
 71
     3
 72
    12
 73
     8
 74
     0
 42
0.000000001
 43
0.00000001
 40
0.0
 40
0.0
 40
0.0
 40
0.0
 40
0.017069851914852
 40
0.2584459606381891
 40
0.5014979883098601
 40
0.7498357672924225
 40
0.9999999999999999
 40
0.9999999999999999
 40
0.9999999999999999
 40
0.9999999999999999
 10
157.9993052079965
 20
96.46751336858522
 30
0.0
 10
158.0037287037379
 20
96.50476878656234
 30
0.0
 10
158.0707026067315
 20
97.06883415374288
 30
0.0
 10
157.8256949687667
 20
98.16433567658879
 30
0.0
 10
157.2306849677072
 20
99.7504107145244
 30
0.0
 10
156.2073329607397
 20
101.3350606545728
 30
0.0
 10
155.1860028543056
 20
102.3675421555286
 30
0.0
 10
154.6734667833859
 20
102.8856743524192
 30
0.0
  0
SPLINE
  5
3BB
330
348
100
AcDbEntity
  8
0
  6
Continuous
 62
     8
370
    25
100
AcDbSpline
210
0.0
220
0.0
230
1.0
 70
     8
 71
     3
 72
    20
 73
    16
 74
     0
 42
0.000000001
 43
0.00000001
 40
0.0
 40
0.0
 40
0.0
 40
0.0
 40
0.0849374665962491
 40
0.1630135090073028
 40
0.241631648681696
 40
0.3219595344880447
 40
0.4028782116160893
 40
0.480954308155731
 40
0.5595725022166105
 40
0.6399004399207946
 40
0.7208191672961682
 40
0.7988952495702157
 40
0.8775134273171451
 40
0.9578413442714768
 40
1.0
 40
1.0
 40
1.0
 40
1.0
 10
73.07316739251372
 20
113.1663457328334
 30
0.0
 10
71.58923088139125
 20
112.876840950742
 30
0.0
 10
68.74123331899612
 20
112.3212181814941
 30
0.0
 10
64.81439031464336
 20
111.3455234314462
 30
0.0
 10
61.19836497801533
 20
110.2927249523863
 30
0.0
 10
57.82555764442708
 20
109.1250959769025
 30
0.0
 10
54.76998450759262
 20
107.8683149541174
 30
0.0
 10
52.06272209834069
 20
106.538914247044
 30
0.0
 10
49.70136033419983
 20
105.1421083774484
 30
0.0
 10
47.67625758408143
 20
103.6659253100804
 30
0.0
 10
46.04140413916038
 20
102.140605500307
 30
0.0
 10
44.80061856858038
 20
100.5860268860715
 30
0.0
 10
43.97323001224457
 20
99.0064299319931
 30
0.0
 10
43.54576077127752
 20
97.65101706140067
 30
0.0
 10
43.56085443682526
 20
96.82269390445914
 30
0.0
 10
43.56604952585069
 20
96.53759334167435
 30
0.0
  0
LWPOLYLINE
  5
3BC
330
348
100
AcDbEntity
  8
0
  6
Continuous
 62
     8
370
    25
100
AcDbPolyline
 90
       42
 70
   128
 43
0.0
 10
43.512716296
 20
95.9354307297
 10
43.5764976064
 20
96.8359794504
 10
43.9647523486
 20
98.328796361
 10
44.7031854257
 20
99.8068573767
 10
45.7872441524
 20
101.2610497597
 10
47.210244946
 20
102.6824079304
 10
48.9634145335
 20
104.0621687431
 10
51.0359440414
 20
105.3918255135
 10
53.415055636
 20
106.6631804655
 10
56.0860813034
 20
107.868395273
 10
59.0325532819
 20
109.0000393861
 10
62.2363055921
 20
110.0511358423
 10
65.6775860357
 20
111.0152042826
 10
69.3351779742
 20
111.8863009043
 10
73.1865311373
 20
112.6590551073
 10
77.2079006518
 20
113.3287026048
 10
81.3744934376
 20
113.8911147973
 10
85.6606210645
 20
114.3428242267
 10
90.0398581305
 20
114.6810459541
 10
94.4852051828
 20
114.9036947301
 10
98.9692551786
 20
115.0093978509
 10
103.4643624586
 20
114.9975036217
 10
107.9428131916
 20
114.8680853744
 10
112.3769962396
 20
114.6219410154
 10
116.7395733896
 20
114.2605881066
 10
121.0036479028
 20
113.7862545088
 10
125.1429303418
 20
113.2018646464
 10
129.131900654
 20
112.5110214773
 10
132.9459655109
 20
111.7179842793
 10
136.5616099344
 20
110.8276423904
 10
139.9565422743
 20
109.8454850644
 10
143.1098316438
 20
108.777567628
 10
146.0020369652
 20
107.630474147
 10
148.6153268312
 20
106.4112768345
 10
150.9335894406
 20
105.1274924471
 10
152.9425319335
 20
103.7870359426
 10
154.6297685115
 20
102.398171681
 10
155.9848968
 20
100.9694624723
 10
156.9995619824
 20
99.509716784
 10
157.6675083106
 20
98.0279344336
 10
157.9846176732
 20
96.533251102
 10
157.9992699565
 20
96.3490092944
  0
LWPOLYLINE
  5
3BD
330
348
100
AcDbEntity
  8
0
  6
Continuous
 62
     8
370
    25
100
AcDbPolyline
 90
       44
 70
   128
 43
0.0
 10
155.4333956125
 20
91.3898351395
 10
155.83852131
 20
92.5885269856
 10
156.0126813743
 20
94.0705191673
 10
155.8285242139
 20
95.5523770593
 10
155.2872441587
 20
97.0244902445
 10
154.3923516175
 20
98.477311504
 10
153.1496503119
 20
99.9014187344
 10
151.5671996366
 20
101.2875760538
 10
149.6552623916
 20
102.6267937003
 10
147.4262382236
 20
103.9103863333
 10
144.8945832095
 20
105.1300293622
 10
142.0767161038
 20
106.2778129338
 10
138.9909118558
 20
107.3462932313
 10
135.6571830902
 20
108.32854075
 10
132.0971503174
 20
109.2181852376
 10
128.333901716
 20
110.0094570085
 10
124.3918433971
 20
110.6972243614
 10
120.2965411218
 20
111.2770268612
 10
116.0745544967
 20
111.7451042663
 10
111.7532647252
 20
112.0984209149
 10
107.3606970298
 20
112.3346854131
 10
102.9253388974
 20
112.4523654949
 10
98.4759553277
 20
112.4506979598
 10
94.0414022803
 20
112.3296936225
 10
89.6504395334
 20
112.0901372425
 10
85.3315441655
 20
111.7335824348
 10
81.1127258703
 20
111.2623415943
 10
77.0213453034
 20
110.6794708985
 10
73.0839366376
 20
109.9887504877
 10
69.3260354791
 20
109.1946599486
 10
65.772013259
 20
108.3023492633
 10
62.4449191751
 20
107.3176054088
 10
59.3663307093
 20
106.246814827
 10
56.5562136892
 20
105.0969220057
 10
54.0327928018
 20
103.8753844411
 10
51.8124334001
 20
102.590124273
 10
49.9095353667
 20
101.2494769068
 10
48.3364397256
 20
99.8621369552
 10
47.1033486057
 20
98.43710185
 10
46.2182590761
 20
96.9836134908
 10
45.6869112819
 20
95.5110983074
 10
45.5127512176
 20
94.0291061257
 10
45.696908378
 20
92.5472482337
 10
46.0142230273
 20
91.5740415033
  0
LWPOLYLINE
  5
3BE
330
348
100
AcDbEntity
  8
0
  6
Continuous
 62
     8
370
    25
100
AcDbPolyline
 90
       65
 70
   128
 43
0.0
 10
82.2534174844
 20
79.6491727818
 10
80.3771832675
 20
79.933509848
 10
76.7638058086
 20
80.5794653993
 10
73.3330745494
 20
81.3279384268
 10
70.1110994264
 20
82.1732325987
 10
67.1224016158
 20
83.1089147161
 10
64.3897269124
 20
84.1278636731
 10
61.9338726208
 20
85.2223246527
 10
59.7735292752
 20
86.3839681462
 10
57.9251383926
 20
87.6039533451
 10
56.402767344
 20
88.8729954254
 10
55.2180022922
 20
90.1814362106
 10
54.3798600145
 20
91.5193176763
 10
53.89471928
 20
92.8764577366
 10
53.7662723023
 20
94.2425277363
 10
53.9954966407
 20
95.6071310578
 10
54.5806477595
 20
96.9598822459
 10
55.5172723054
 20
98.2904860471
 10
56.7982419999
 20
99.5888157632
 10
58.4138078904
 20
100.844990321
 10
60.3516745447
 20
102.0494494737
 10
62.5970936277
 20
103.1930265598
 10
65.1329761442
 20
104.2670182672
 10
67.940022497
 20
105.2632508706
 10
70.9968693686
 20
106.1741424381
 10
74.2802523084
 20
106.9927605351
 10
77.7651827897
 20
107.7128749835
 10
81.4251383872
 20
108.3290052776
 10
85.232264629
 20
108.8364622936
 10
89.1575869856
 20
109.2313839775
 10
93.1712313835
 20
109.5107647366
 10
97.2426515655
 20
109.6724783148
 10
101.3408615656
 20
109.715293974
 10
105.434671531
 20
109.6388858612
 10
109.4929250961
 20
109.4438354883
 10
113.4847365009
 20
109.1316273064
 10
117.37972565
 20
108.7046374084
 10
121.1482493244
 20
108.166115445
 10
124.7616267833
 20
107.5201598937
 10
128.1923580425
 20
106.7716868662
 10
131.4143331655
 20
105.9263926943
 10
134.4030309762
 20
104.9907105769
 10
137.1357056795
 20
103.9717616199
 10
139.5915599711
 20
102.8773006403
 10
141.7519033168
 20
101.7156571468
 10
143.6002941993
 20
100.4956719479
 10
145.1226652479
 20
99.2266298676
 10
146.3074302998
 20
97.9181890824
 10
147.1455725774
 20
96.5803076167
 10
147.630713312
 20
95.2231675564
 10
147.7591602896
 20
93.8570975567
 10
147.5299359512
 20
92.4924942352
 10
146.9447848324
 20
91.1397430471
 10
146.0081602866
 20
89.8091392459
 10
144.727190592
 20
88.5108095298
 10
143.1116247016
 20
87.254634972
 10
141.1737580472
 20
86.0501758193
 10
138.9283389642
 20
84.9065987332
 10
136.3924564478
 20
83.8326070258
 10
133.5854100949
 20
82.8363744224
 10
130.5285632233
 20
81.9254828549
 10
127.2451802835
 20
81.1068647579
 10
123.7602498022
 20
80.3867503095
 10
120.1002942047
 20
79.7706200155
 10
119.8639837195
 20
79.7353227773
  0
LWPOLYLINE
  5
3C0
330
348
100
AcDbEntity
  8
0
  6
Continuous
 62
     8
370
    25
100
AcDbPolyline
 90
        3
 70
   128
 43
0.0
 10
547.5973061649
 20
91.1490673322
 10
547.9486998786
 20
91.0911016195
 10
548.1419215607
 20
91.0454141326
  0
LWPOLYLINE
  5
3C1
330
348
100
AcDbEntity
  8
0
  6
Continuous
 62
     8
370
    25
100
AcDbPolyline
 90
        3
 70
   128
 43
0.0
 10
547.5973061649
 20
91.1490673322
 10
547.5933674739
 20
90.7681340923
 10
547.5792568631
 20
90.5491905122
  0
LWPOLYLINE
  5
3C2
330
348
100
AcDbEntity
  8
0
  6
Continuous
 62
     8
370
    25
100
AcDbPolyline
 90
        3
 70
   128
 43
0.0
 10
127.815269109
 20
80.7593137114
 10
127.6389565318
 20
80.8328688109
 10
127.4907092546
 20
80.836441416
  0
LWPOLYLINE
  5
3C3
330
348
100
AcDbEntity
  8
0
  6
Continuous
 62
     8
370
    25
100
AcDbPolyline
 90
       38
 70
   128
 43
0.0
 10
145.7627056535
 20
92.174510793
 10
145.7578285009
 20
92.3852721426
 10
145.5231380423
 20
93.7099646007
 10
144.9381365952
 20
95.0225593125
 10
144.0074025889
 20
96.3127834445
 10
142.7382202791
 20
97.5705392438
 10
141.1405227381
 20
98.7859830657
 10
139.2268141155
 20
99.9496024144
 10
137.0120717759
 20
101.0522903908
 10
134.5136290809
 20
102.0854169665
 10
131.7510397323
 20
103.0408965251
 10
128.7459247372
 20
103.9112511438
 10
125.521803195
 20
104.6896691174
 10
122.1039082283
 20
105.37005827
 10
118.5189894992
 20
105.9470936339
 10
114.7951038574
 20
106.4162591251
 10
110.9613957572
 20
106.7738828873
 10
107.0478691623
 20
107.0171660299
 10
103.0851527245
 20
107.1442045324
 10
99.1042600728
 20
107.1540041462
 10
95.1363470896
 20
107.0464881761
 10
91.212468074
 20
106.8224980803
 10
87.3633326994
 20
106.4837868851
 10
83.6190656691
 20
106.0330054646
 10
80.0089709491
 20
105.4736817949
 10
76.5613024254
 20
104.8101933419
 10
73.3030427787
 20
104.0477328024
 10
70.2596923085
 20
103.1922674638
 10
67.4550693586
 20
102.2504925024
 10
64.9111239061
 20
101.2297785842
 10
62.6477657734
 20
100.1381141793
 10
60.6827088068
 20
98.9840430421
 10
59.0313322412
 20
97.7765973438
 10
57.7065603373
 20
96.5252269842
 10
56.7187612316
 20
95.239725633
 10
56.0756657912
 20
93.9301540811
 10
55.7823071099
 20
92.6067615017
 10
55.762716296
 20
92.1641945633
  0
LWPOLYLINE
  5
3C4
330
348
100
AcDbEntity
  8
0
  6
Continuous
 62
     8
370
    25
100
AcDbPolyline
 90
        3
 70
   128
 43
0.0
 10
620.9863604061
 20
104.2337831843
 10
620.7062346304
 20
104.200616104
 10
620.3613604064
 20
103.987044684
  0
LWPOLYLINE
  5
3C5
330
348
100
AcDbEntity
  8
0
  6
Continuous
 62
     8
370
    25
100
AcDbPolyline
 90
        3
 70
   128
 43
0.0
 10
625.03843214
 20
98.6837438253
 10
625.2934377421
 20
98.9992166842
 10
625.3613604064
 20
99.272999476
  0
LWPOLYLINE
  5
3C6
330
348
100
AcDbEntity
  8
0
  6
Continuous
 62
     8
370
    25
100
AcDbPolyline
 90
        3
 70
   128
 43
0.0
 10
-305.0738428508
 20
220.9064020255
 10
-305.3539686265
 20
220.8732349452
 10
-305.6988428505
 20
220.6596635253
  0
LINE
  5
3C8
330
348
100
AcDbEntity
  8
0
  6
Continuous
 62
     7
370
    25
100
AcDbLine
 10
271.3685547843
 20
-150.1773481717
 30
0.0
 11
-548.0544129461
 21
-46.9397581667
 31
0.0
  0
LINE
  5
3C9
330
348
100
AcDbEntity
  8
0
  6
Continuous
 62
     7
370
    25
100
AcDbLine
 10
549.3089811152
 20
92.0746639148
 30
0.0
 11
274.9515500778
 21
-149.8858470469
 31
0.0
  0
LINE
  5
3CA
330
348
100
AcDbEntity
  8
0
  6
Continuous
 62
     7
370
    25
100
AcDbLine
 10
-625.3613604064
 20
-61.5606378116
 30
0.0
 11
-625.3613604064
 21
-80.4168186438
 31
0.0
  0
LINE
  5
3CB
330
348
100
AcDbEntity
  8
0
  6
Continuous
 62
     7
370
    25
100
AcDbLine
 10
-309.0060319894
 20
219.6956183172
 30
0.0
 11
-623.6685495452
 21
-57.8106378116
 31
0.0
  0
LINE
  5
3CC
330
348
100
AcDbEntity
  8
0
  6
Continuous
 62
     7
370
    25
100
AcDbLine
 10
84.8262063939
 20
79.4411347889
 30
0.0
 11
84.3957069418
 21
79.4936832847
 31
0.0
  0
LINE
  5
3CD
330
348
100
AcDbEntity
  8
0
  6
Continuous
 62
     7
370
    25
100
AcDbLine
 10
625.3613604064
 20
80.4168186438
 30
0.0
 11
625.3613604064
 21
99.272999476
 31
0.0
  0
LINE
  5
3CE
330
348
100
AcDbEntity
  8
0
  6
Continuous
 62
     7
370
    25
100
AcDbLine
 10
620.9863604061
 20
104.2337831843
 30
0.0
 11
-305.0738428508
 21
220.9064020255
 31
0.0
  0
LINE
  5
3CF
330
348
100
AcDbEntity
  8
0
  6
Continuous
 62
     7
370
    25
100
AcDbLine
 10
303.931075898
 20
-198.6484613959
 30
0.0
 11
303.931075898
 21
-179.7922805637
 31
0.0
  0
LINE
  5
3D0
330
348
100
AcDbEntity
  8
0
  6
Continuous
 62
     7
370
    25
100
AcDbLine
 10
310.3759145842
 20
-178.8225123035
 30
0.0
 11
310.3759145842
 21
-197.6786931357
 31
0.0
  0
LINE
  5
3D1
330
348
100
AcDbEntity
  8
0
  6
Continuous
 62
     7
370
    25
100
AcDbLine
 10
-620.3613604064
 20
-56.8465926035
 30
0.0
 11
305.6988428505
 21
-173.5192114448
 31
0.0
  0
LINE
  5
3D2
330
348
100
AcDbEntity
  8
0
  6
Continuous
 62
     7
370
    25
100
AcDbLine
 10
303.931075898
 20
-179.7922805637
 30
0.0
 11
-622.1291273589
 21
-63.1196617224
 31
0.0
  0
LINE
  5
3D3
330
348
100
AcDbEntity
  8
0
  6
Continuous
 62
     7
370
    25
100
AcDbLine
 10
-622.1291273589
 20
-63.1196617224
 30
0.0
 11
-622.1291273589
 21
-81.9758425546
 31
0.0
  0
LINE
  5
3D4
330
348
100
AcDbEntity
  8
0
  6
Continuous
 62
     7
370
    25
100
AcDbLine
 10
-622.1291273589
 20
-81.9758425546
 30
0.0
 11
303.931075898
 21
-198.6484613959
 31
0.0
  0
LINE
  5
3D5
330
348
100
AcDbEntity
  8
0
  6
Continuous
 62
     7
370
    25
100
AcDbLine
 10
305.6988428505
 20
-173.5192114448
 30
0.0
 11
620.3613604064
 21
103.987044684
 31
0.0
  0
LINE
  5
3D6
330
348
100
AcDbEntity
  8
0
  6
Continuous
 62
     7
370
    25
100
AcDbLine
 10
625.03843214
 20
98.6837438253
 30
0.0
 11
310.3759145842
 21
-178.8225123035
 31
0.0
  0
LINE
  5
3D7
330
348
100
AcDbEntity
  8
0
  6
Continuous
 62
     7
370
    25
100
AcDbLine
 10
625.03843214
 20
79.8275629931
 30
0.0
 11
625.03843214
 21
98.6837438253
 31
0.0
  0
LINE
  5
3D8
330
348
100
AcDbEntity
  8
0
  6
Continuous
 62
     7
370
    25
100
AcDbLine
 10
310.3759145842
 20
-197.6786931357
 30
0.0
 11
625.03843214
 21
79.8275629931
 31
0.0
  0
LINE
  5
3D9
330
348
100
AcDbEntity
  8
0
  6
Continuous
 62
     7
370
    25
100
AcDbLine
 10
-550.6318567708
 20
-45.3198299176
 30
0.0
 11
-276.2744257334
 21
196.6406810442
 31
0.0
  0
LINE
  5
3DA
330
348
100
AcDbEntity
  8
0
  6
Continuous
 62
     7
370
    25
100
AcDbLine
 10
271.1185547844
 20
-150.2760435718
 30
0.0
 11
-548.3044129459
 21
-47.0384535668
 31
0.0
  0
LINE
  5
3DB
330
348
100
AcDbEntity
  8
0
  6
Continuous
 62
     7
370
    25
100
AcDbLine
 10
550.6318567708
 20
92.4602819981
 30
0.0
 11
276.2744257333
 21
-149.5002289637
 31
0.0
  0
LINE
  5
3DC
330
348
100
AcDbEntity
  8
0
  6
Continuous
 62
     7
370
    25
100
AcDbLine
 10
-271.1185547844
 20
197.4164956523
 30
0.0
 11
548.3044129459
 21
94.1789056473
 31
0.0
  0
LINE
  5
3DD
330
348
100
AcDbEntity
  8
0
  6
Continuous
 62
     7
370
    25
100
AcDbLine
 10
-305.6988428505
 20
220.6596635253
 30
0.0
 11
-620.3613604064
 21
-56.8465926035
 31
0.0
  0
LINE
  5
3DE
330
348
100
AcDbEntity
  8
0
  6
Continuous
 62
     7
370
    25
100
AcDbLine
 10
620.3613604064
 20
103.987044684
 30
0.0
 11
-305.6988428505
 21
220.6596635253
 31
0.0
  0
LINE
  5
3DF
330
348
100
AcDbEntity
  8
0
  6
Continuous
 62
     7
370
    25
100
AcDbLine
 10
-274.4035970399
 20
193.9987500332
 30
0.0
 11
-274.4035970399
 21
194.5193607007
 31
0.0
  0
LINE
  5
3E0
330
348
100
AcDbEntity
  8
0
  6
Continuous
 62
     7
370
    25
100
AcDbLine
 10
157.9729622358
 20
96.2305945285
 30
0.0
 11
157.999305208
 21
96.4675133686
 31
0.0
  0
LINE
  5
3E1
330
348
100
AcDbEntity
  8
0
  6
Continuous
 62
     7
370
    25
100
AcDbLine
 10
43.5660495259
 20
96.5375933417
 30
0.0
 11
43.5641987734
 21
96.4447689339
 31
0.0
  0
LINE
  5
3E2
330
348
100
AcDbEntity
  8
0
  6
Continuous
 62
     7
370
    25
100
AcDbLine
 10
547.5973061649
 20
91.1490673322
 30
0.0
 11
547.5973061649
 21
91.6696779997
 31
0.0
  0
LINE
  5
3E3
330
348
100
AcDbEntity
  8
0
  6
Continuous
 62
     7
370
    25
100
AcDbLine
 10
542.7585981465
 20
91.6297405108
 30
0.0
 11
547.5973061649
 21
91.1490673322
 31
0.0
  0
LINE
  5
3E4
330
348
100
AcDbEntity
  8
0
  6
Continuous
 62
     7
370
    25
100
AcDbLine
 10
547.5973061649
 20
91.6696779997
 30
0.0
 11
-271.8256615654
 21
194.9072680047
 31
0.0
  0
LINE
  5
3E5
330
348
100
AcDbEntity
  8
0
  6
Continuous
 62
     7
370
    25
100
AcDbLine
 10
-271.8256615654
 20
194.3866573372
 30
0.0
 11
-266.986953547
 21
193.6480906989
 31
0.0
  0
LINE
  5
3E6
330
348
100
AcDbEntity
  8
0
  6
Continuous
 62
     7
370
    25
100
AcDbLine
 10
-271.8256615654
 20
194.9072680047
 30
0.0
 11
-271.8256615654
 21
194.3866573372
 31
0.0
  0
LINE
  5
3E7
330
348
100
AcDbEntity
  8
0
  6
Continuous
 62
     7
370
    25
100
AcDbLine
 10
55.762716296
 20
92.1641945633
 30
0.0
 11
55.7630940267
 21
92.1027348937
 31
0.0
  0
LINE
  5
3E8
330
348
100
AcDbEntity
  8
0
  6
Continuous
 62
     8
370
    25
100
AcDbLine
 10
-274.4035970399
 20
194.5193607007
 30
0.0
 11
-548.1719229472
 21
-46.9216083709
 31
0.0
  0
ARC
  5
3E9
330
348
100
AcDbEntity
  8
0
  6
Continuous
 62
     7
370
    25
100
AcDbCircle
 10
-620.3613604064
 20
-61.5606378116
 30
0.0
 40
4.999999999999886
100
AcDbArc
 50
131.40962211
 51
180.0
  0
ARC
  5
3EA
330
348
100
AcDbEntity
  8
0
  6
Continuous
 62
     7
370
    25
100
AcDbCircle
 10
620.3613604064
 20
99.272999476
 30
0.0
 40
4.999999999999886
100
AcDbArc
 50
0.0
 51
82.8192442221
  0
ARC
  5
3EB
330
348
100
AcDbEntity
  8
0
  6
Continuous
 62
     7
370
    25
100
AcDbCircle
 10
-305.6988428505
 20
215.9456183172
 30
0.0
 40
4.999999999999647
100
AcDbArc
 50
82.8192442221
 51
131.40962211
  0
ARC
  5
3EC
330
348
100
AcDbEntity
  8
0
  6
Continuous
 62
     7
370
    25
100
AcDbCircle
 10
304.9162864009
 20
-178.9234065704
 30
0.0
 40
5.460560369788496
100
AcDbArc
 50
1.0587090425
 51
81.7605351794
  0
ARC
  5
3ED
330
348
100
AcDbEntity
  8
0
  6
Continuous
 62
     7
370
    25
100
AcDbCircle
 10
305.7712878401
 20
-170.1215897862
 30
0.0
 40
9.844218613218752
100
AcDbArc
 50
259.2261330329
 51
297.8883001309
  0
ARC
  5
3EE
330
348
100
AcDbEntity
  8
0
  6
Continuous
 62
     7
370
    25
100
AcDbCircle
 10
313.7559434415
 20
-179.1753382258
 30
0.0
 40
9.844218612742528
100
AcDbArc
 50
144.9309440897
 51
183.5931111895
  0
ARC
  5
3EF
330
348
100
AcDbEntity
  8
0
  6
Continuous
 62
     7
370
    25
100
AcDbCircle
 10
305.7712878401
 20
-188.9777706184
 30
0.0
 40
9.84421861321878
100
AcDbArc
 50
259.2261330329
 51
297.8883001309
  0
ARC
  5
3F0
330
348
100
AcDbEntity
  8
0
  6
Continuous
 62
     7
370
    25
100
AcDbCircle
 10
-612.3042598154
 20
-62.5027193845
 30
0.0
 40
9.84421861274277
100
AcDbArc
 50
144.9309440897
 51
183.5931111895
  0
ARC
  5
3F1
330
348
100
AcDbEntity
  8
0
  6
Continuous
 62
     7
370
    25
100
AcDbCircle
 10
619.5788039568
 20
98.5828495585
 30
0.0
 40
5.46056036978848
100
AcDbArc
 50
1.0587090425
 51
81.7605351794
  0
ARC
  5
3F2
330
348
100
AcDbEntity
  8
0
  6
Continuous
 62
     7
370
    25
100
AcDbCircle
 10
272.5907243381
 20
-142.5394909498
 30
0.0
 40
7.875374890574798
100
AcDbArc
 50
259.2261330329
 51
297.8883001309
  0
ARC
  5
3F3
330
348
100
AcDbEntity
  8
0
  6
Continuous
 62
     7
370
    25
100
AcDbCircle
 10
-272.5907243381
 20
189.6799430303
 30
0.0
 40
7.875374890574707
100
AcDbArc
 50
79.2261330329
 51
117.8883001309
  0
ARC
  5
3F4
330
348
100
AcDbEntity
  8
0
  6
Continuous
 62
     7
370
    25
100
AcDbCircle
 10
-276.5874483132
 20
194.479002994
 30
0.0
 40
2.184224147915594
100
AcDbArc
 50
1.0587090425
 51
81.7605351794
  0
ARC
  5
3F5
330
348
100
AcDbEntity
  8
0
  6
Continuous
 62
     7
370
    25
100
AcDbCircle
 10
-272.217305484
 20
194.0403488654
 30
0.0
 40
2.186687273121669
100
AcDbArc
 50
181.090042153
 51
260.393616116
  0
ARC
  5
3F6
330
348
100
AcDbEntity
  8
0
  6
Continuous
 62
     7
370
    25
100
AcDbCircle
 10
551.5272531823
 20
91.9164549349
 30
0.0
 40
3.937687445097513
100
AcDbArc
 50
144.9309440897
 51
183.5931111895
  0
ARC
  5
3F7
330
348
100
AcDbEntity
  8
0
  6
Continuous
 62
     7
370
    25
100
AcDbCircle
 10
538.9644816261
 20
91.2785668322
 30
0.0
 40
3.810333728516037
100
AcDbArc
 50
325.4012651485
 51
5.2880837218
  0
ARC
  5
3F8
330
348
100
AcDbEntity
  8
0
  6
Continuous
 62
     7
370
    25
100
AcDbCircle
 10
-267.895714548
 20
195.1540449399
 30
0.0
 40
3.937687445097224
100
AcDbArc
 50
144.9309440897
 51
183.5931111895
  0
ARC
  5
3F9
330
348
100
AcDbEntity
  8
0
  6
Continuous
 62
     7
370
    25
100
AcDbCircle
 10
531.27553378
 20
92.2602753839
 30
0.0
 40
4.433530112711228
100
AcDbArc
 50
329.8259907367
 51
2.0999823385
  0
ARC
  5
3FA
330
348
100
AcDbEntity
  8
0
  6
Continuous
 62
     7
370
    25
100
AcDbCircle
 10
156.8482289677
 20
102.8412245133
 30
0.0
 40
2.175216390726388
100
AcDbArc
 50
99.2149838307
 51
178.8290978908
  0
ARC
  5
3FB
330
348
100
AcDbEntity
  8
0
  6
Continuous
 62
     7
370
    25
100
AcDbCircle
 10
-264.3683066246
 20
192.504258888
 30
0.0
 40
4.436742165309998
100
AcDbArc
 50
329.8118304617
 51
2.0635804106
  0
ARC
  5
3FC
330
348
100
AcDbEntity
  8
0
  6
Continuous
 62
     7
370
    25
100
AcDbCircle
 10
69.8927363254
 20
113.3546527146
 30
0.0
 40
3.186000830464129
100
AcDbArc
 50
356.6115869079
 51
45.2485392677
  0
ARC
  5
3FD
330
348
100
AcDbEntity
  8
0
  6
Continuous
 62
     7
370
    25
100
AcDbCircle
 10
69.9125962901
 20
113.3524851936
 30
0.0
 40
3.199822963163206
100
AcDbArc
 50
356.7784964971
 51
45.1757986176
  0
ARC
  5
3FE
330
348
100
AcDbEntity
  8
0
  6
Continuous
 62
     7
370
    25
100
AcDbCircle
 10
156.8368721225
 20
102.850623385
 30
0.0
 40
2.177078032558338
100
AcDbArc
 50
99.2971211068
 51
178.7540615071
  0
ARC
  5
3FF
330
348
100
AcDbEntity
  8
0
  6
Continuous
 62
     7
370
    25
100
AcDbCircle
 10
-271.0584090491
 20
193.5134910609
 30
0.0
 40
4.073679782230704
100
AcDbArc
 50
324.4633093037
 51
1.8934711394
  0
ARC
  5
400
330
348
100
AcDbEntity
  8
0
  6
Continuous
 62
     7
370
    25
100
AcDbCircle
 10
-275.8970797736
 20
194.2520749649
 30
0.0
 40
4.073641938220362
100
AcDbArc
 50
324.462423182
 51
1.8932457626
  0
ARC
  5
401
330
348
100
AcDbEntity
  8
0
  6
Continuous
 62
     7
370
    25
100
AcDbCircle
 10
-272.5617463423
 20
191.0389916938
 30
0.0
 40
3.937687445287446
100
AcDbArc
 50
79.2261330329
 51
117.8883001309
  0
ARC
  5
402
330
348
100
AcDbEntity
  8
0
  6
Continuous
 62
     7
370
    25
100
AcDbCircle
 10
-272.5617463423
 20
190.5183810262
 30
0.0
 40
3.937687445287446
100
AcDbArc
 50
79.2261330329
 51
117.8883001309
  0
ARC
  5
403
330
348
100
AcDbEntity
  8
0
  6
Continuous
 62
     8
370
    25
100
AcDbCircle
 10
276.0378436212
 20
-151.1505669673
 30
0.0
 40
1.667209231627173
100
AcDbArc
 50
81.8420161641
 51
130.6311733164
  0
ARC
  5
404
330
348
100
AcDbEntity
  8
0
  6
Continuous
 62
     8
370
    25
100
AcDbCircle
 10
550.3952707474
 20
90.8100047161
 30
0.0
 40
1.667149679448092
100
AcDbArc
 50
81.8415869733
 51
130.6612067915
  0
ARC
  5
405
330
348
100
AcDbEntity
  8
0
  6
Continuous
 62
     8
370
    25
100
AcDbCircle
 10
-620.9528254649
 20
-60.9722858083
 30
0.0
 40
4.167874198619814
100
AcDbArc
 50
81.8415869733
 51
130.6612067915
  0
ARC
  5
406
330
348
100
AcDbEntity
  8
0
  6
Continuous
 62
     8
370
    25
100
AcDbCircle
 10
-306.2903079091
 20
216.5339703205
 30
0.0
 40
4.167874198620041
100
AcDbArc
 50
81.8415869733
 51
130.6612067915
  0
ARC
  5
407
330
348
100
AcDbEntity
  8
0
  6
Continuous
 62
     8
370
    25
100
AcDbCircle
 10
-550.9553738165
 20
-47.4967074242
 30
0.0
 40
2.200785986398975
100
AcDbArc
 50
19.1197648022
 51
81.5468484061
  0
ARC
  5
408
330
348
100
AcDbEntity
  8
0
  6
Continuous
 62
     8
370
    25
100
AcDbCircle
 10
45.8473480453
 20
89.481546895
 30
0.0
 40
1.644742712870225
100
AcDbArc
 50
49.3886282179
 51
97.5819312178
  0
ARC
  5
409
330
348
100
AcDbEntity
  8
0
  6
Continuous
 62
     8
370
    25
100
AcDbCircle
 10
547.3404482675
 20
88.7722464479
 30
0.0
 40
2.908794523043141
100
AcDbArc
 50
65.2294438068
 51
84.9339608689
  0
ARC
  5
40A
330
348
100
AcDbEntity
  8
0
  6
Continuous
 62
     8
370
    25
100
AcDbCircle
 10
45.8449412614
 20
89.4816939597
 30
0.0
 40
1.646506728323856
100
AcDbArc
 50
50.3289473804
 51
97.5589948
  0
VIEWPORT
  5
419
330
348
100
AcDbEntity
  8
0
100
AcDbViewport
 10
0.0
 20
0.0
 30
0.0
 40
205.6
 41
156.0
 68
     1
 69
     1
 12
0.0
 22
0.0
 13
0.0
 23
0.0
 14
10.0
 24
10.0
 15
10.0
 25
10.0
 16
0.0
 26
0.0
 36
1.0
 17
0.0
 27
0.0
 37
0.0
 42
50.0
 43
0.0
 44
0.0
 45
918.0
 50
0.0
 51
0.0
 72
   100
 90
   557152
  1

281
     0
 71
     1
 74
     0
110
0.0
120
0.0
130
0.0
111
1.0
121
0.0
131
0.0
112
0.0
122
1.0
132
0.0
 79
     0
146
0.0
  0
ENDBLK
  5
34B
330
348
100
AcDbEntity
  8
0
100
AcDbBlockEnd
  0
ENDSEC
  0
SECTION
  2
ENTITIES
  0
LWPOLYLINE
  5
9F
330
1F
100
AcDbEntity
  8
0
  6
Continuous
 62
     7
370
    25
100
AcDbPolyline
 90
        9
 70
   128
 43
0.0
 10
-438.0
 20
-390.0
 10
-438.0000014354
 20
-389.9623701949
 10
-438.0000028169
 20
-389.8508967818
 10
-438.0000040923
 20
-389.6697744835
 10
-438.0000052137
 20
-389.4258188969
 10
-438.000006139
 20
-389.128210023
 10
-438.0000068332
 20
-388.7881468259
 10
-438.0000072703
 20
-388.4184258173
 10
-438.0000074338
 20
-388.0329595267
  0
LWPOLYLINE
  5
A0
330
1F
100
AcDbEntity
  8
0
  6
Continuous
 62
     7
370
    25
100
AcDbPolyline
 90
        7
 70
   128
 43
0.0
 10
-438.0000074338
 20
-388.0329595267
 10
-434.0000074339
 20
-388.032974675
 10
-418.0000074341
 20
-388.0330349242
 10
-354.0000074349
 20
-388.0332681906
 10
-98.0000074363
 20
-388.033926225
 10
169.9999999979
 20
-388.0338036908
 10
438.0000074338
 20
-388.0329595267
  0
LWPOLYLINE
  5
A1
330
1F
100
AcDbEntity
  8
0
  6
Continuous
 62
     7
370
    25
100
AcDbPolyline
 90
        9
 70
   128
 43
0.0
 10
438.0
 20
-390.0
 10
438.0000014354
 20
-389.9623701949
 10
438.0000028169
 20
-389.8508967818
 10
438.0000040923
 20
-389.6697744835
 10
438.0000052137
 20
-389.4258188969
 10
438.000006139
 20
-389.128210023
 10
438.0000068332
 20
-388.7881468259
 10
438.0000072703
 20
-388.4184258173
 10
438.0000074338
 20
-388.0329595267
  0
SPLINE
  5
A8
330
1F
100
AcDbEntity
  8
0
  6
Continuous
 62
     7
370
    25
100
AcDbSpline
210
0.0
220
0.0
230
1.0
 70
     8
 71
     3
 72
     8
 73
     4
 74
     0
 42
0.000000001
 43
0.00000001
 40
0.0000000000000127
 40
0.0000000000000127
 40
0.0000000000000127
 40
0.0000000000000127
 40
0.0005063725916627
 40
0.0005063725916627
 40
0.0005063725916627
 40
0.0005063725916627
 10
438.0000110294365
 20
-387.086286163438
 30
0.0
 10
438.0176191410534
 20
-386.9184390321823
 30
0.0
 10
438.0352280585948
 20
-386.7505576123909
 30
0.0
 10
438.052832945147
 20
-386.5826879945888
 30
0.0
  0
LWPOLYLINE
  5
A9
330
1F
100
AcDbEntity
  8
0
  6
Continuous
 62
     7
370
    25
100
AcDbPolyline
 90
        9
 70
   128
 43
0.0
 10
440.0
 20
-386.5826711941
 10
439.9628484113
 20
-386.5826744184
 10
439.8527738859
 20
-386.5826775229
 10
439.6738658671
 20
-386.5826803923
 10
439.4327710721
 20
-386.58268292
 10
439.1384465557
 20
-386.582685012
 10
438.801826941
 20
-386.5826865907
 10
438.4354181817
 20
-386.5826875973
 10
438.0528329451
 20
-386.5826879946
  0
SPLINE
  5
AA
330
1F
100
AcDbEntity
  8
0
  6
Continuous
 62
     7
370
    25
100
AcDbSpline
210
0.0
220
0.0
230
1.0
 70
     8
 71
     3
 72
     8
 73
     4
 74
     0
 42
0.000000001
 43
0.00000001
 40
0.000000000000001
 40
0.000000000000001
 40
0.000000000000001
 40
0.000000000000001
 40
0.000506372591648
 40
0.000506372591648
 40
0.000506372591648
 40
0.000506372591648
 10
-438.0528329451469
 20
-386.5826879945913
 30
0.0
 10
-438.0352280585952
 20
-386.7505576123886
 30
0.0
 10
-438.0176191410535
 20
-386.9184390321751
 30
0.0
 10
-438.0000110294371
 20
-387.0862861634259
 30
0.0
  0
LWPOLYLINE
  5
AB
330
1F
100
AcDbEntity
  8
0
  6
Continuous
 62
     7
370
    25
100
AcDbPolyline
 90
        9
 70
   128
 43
0.0
 10
-438.0528329451
 20
-386.5826879946
 10
-438.4354181817
 20
-386.5826875973
 10
-438.801826941
 20
-386.5826865907
 10
-439.1384465557
 20
-386.582685012
 10
-439.4327710721
 20
-386.58268292
 10
-439.6738658671
 20
-386.5826803923
 10
-439.8527738859
 20
-386.5826775229
 10
-439.9628484113
 20
-386.5826744184
 10
-440.0
 20
-386.5826711941
  0
LWPOLYLINE
  5
AC
330
1F
100
AcDbEntity
  8
0
  6
Continuous
 62
     7
370
    25
100
AcDbPolyline
 90
        7
 70
   128
 43
0.0
 10
-438.0528689712
 20
388.0000167857
 10
-438.0529035285
 20
384.0000167859
 10
-438.0530403192
 20
368.000016787
 10
-438.0535588179
 20
304.000016791
 10
-438.0548133427
 20
48.000016795
 10
-438.0543940425
 20
-169.2913355983
 10
-438.0528329451
 20
-386.5826879946
  0
LWPOLYLINE
  5
AD
330
1F
100
AcDbEntity
  8
0
  6
Continuous
 62
     7
370
    25
100
AcDbPolyline
 90
        9
 70
   128
 43
0.0
 10
-438.0528689712
 20
388.0000167857
 10
-438.4354489591
 20
388.0000163887
 10
-438.8018517026
 20
388.0000153829
 10
-439.1384650746
 20
388.0000138056
 10
-439.4327836442
 20
388.0000117154
 10
-439.6738732636
 20
388.00000919
 10
-439.8527772786
 20
388.0000063232
 10
-439.9628492756
 20
388.0000032214
 10
-440.0
 20
388.0
  0
LWPOLYLINE
  5
AE
330
1F
100
AcDbEntity
  8
0
  6
Continuous
 62
     7
370
    25
100
AcDbPolyline
 90
        7
 70
   128
 43
0.0
 10
438.0528329451
 20
-386.5826879946
 10
438.052867612
 20
-382.5826879949
 10
438.053004896
 20
-366.582687996
 10
438.0535262859
 20
-302.582688
 10
438.0548068835
 20
-46.5826880041
 10
438.0544155802
 20
170.7086643891
 10
438.0528689712
 20
388.0000167857
  0
LWPOLYLINE
  5
AF
330
1F
100
AcDbEntity
  8
0
  6
Continuous
 62
     7
370
    25
100
AcDbPolyline
 90
        9
 70
   128
 43
0.0
 10
440.0
 20
388.0
 10
439.9628492756
 20
388.0000032214
 10
439.8527772786
 20
388.0000063232
 10
439.6738732636
 20
388.00000919
 10
439.4327836442
 20
388.0000117154
 10
439.1384650746
 20
388.0000138056
 10
438.8018517026
 20
388.0000153829
 10
438.4354489591
 20
388.0000163887
 10
438.0528689712
 20
388.0000167857
  0
LWPOLYLINE
  5
B1
330
1F
100
AcDbEntity
  8
0
  6
Continuous
 62
     7
370
    25
100
AcDbPolyline
 90
        3
 70
   128
 43
0.0
 10
-432.8800574704
 20
388.0000621754
 10
-436.8786601473
 20
388.0000269867
 10
-438.0528689712
 20
388.0000167857
  0
LWPOLYLINE
  5
B4
330
1F
100
AcDbEntity
  8
0
  6
Continuous
 62
     7
370
    25
100
AcDbPolyline
 90
        3
 70
   128
 43
0.0
 10
438.0528689712
 20
388.0000167857
 10
434.0542664749
 20
388.0000517691
 10
432.8800574704
 20
388.0000621754
  0
SPLINE
  5
B6
330
1F
100
AcDbEntity
  8
0
  6
Continuous
 62
     7
370
    25
100
AcDbSpline
210
0.0
220
0.0
230
1.0
 70
     8
 71
     3
 72
    14
 73
    10
 74
     0
 42
0.000000001
 43
0.00000001
 40
0.0
 40
0.0
 40
0.0
 40
0.0
 40
0.2500000000000001
 40
0.2500000000000001
 40
0.5000000000000001
 40
0.5000000000000001
 40
0.75
 40
0.75
 40
1.0
 40
1.0
 40
1.0
 40
1.0
 10
425.2883321795454
 20
388.3077624657478
 30
0.0
 10
354.4069468936154
 20
388.331575950413
 30
0.0
 10
283.5255634204732
 20
388.3602890113871
 30
0.0
 10
141.7627930004764
 20
388.4102931773704
 30
0.0
 10
70.88140527214787
 20
388.429528466774
 30
0.0
 10
-70.881385126764
 20
388.4295284700821
 30
0.0
 10
-141.7627781436433
 20
388.410293182098
 30
0.0
 10
-283.5255562391148
 20
388.3602890144331
 30
0.0
 10
-354.4069430389069
 20
388.331575951708
 30
0.0
 10
-425.2883321795576
 20
388.3077624657478
 30
0.0
  0
SPLINE
  5
B9
330
1F
100
AcDbEntity
  8
0
  6
Continuous
 62
     7
370
    25
100
AcDbSpline
210
0.0
220
0.0
230
1.0
 70
     8
 71
     3
 72
     8
 73
     4
 74
     0
 42
0.000000001
 43
0.00000001
 40
0.0
 40
0.0
 40
0.0
 40
0.0
 40
1.0
 40
1.0
 40
1.0
 40
1.0
 10
432.880057470433
 20
388.000062175417
 30
0.0
 10
430.3500490760813
 20
388.1026541376053
 30
0.0
 10
427.8191843656948
 20
388.2052331919667
 30
0.0
 10
425.2883321795454
 20
388.3077624657474
 30
0.0
  0
SPLINE
  5
BA
330
1F
100
AcDbEntity
  8
0
  6
Continuous
 62
     7
370
    25
100
AcDbSpline
210
0.0
220
0.0
230
1.0
 70
     8
 71
     3
 72
     8
 73
     4
 74
     0
 42
0.000000001
 43
0.00000001
 40
0.0
 40
0.0
 40
0.0
 40
0.0
 40
1.0
 40
1.0
 40
1.0
 40
1.0
 10
-425.2883321795572
 20
388.3077624657469
 30
0.0
 10
-427.8191826392931
 20
388.2052332619062
 30
0.0
 10
-430.3500496139972
 20
388.1026541157939
 30
0.0
 10
-432.8800574704033
 20
388.0000621754193
 30
0.0
  0
SPLINE
  5
BB
330
1F
100
AcDbEntity
  8
0
  6
Continuous
 62
     7
370
    25
100
AcDbSpline
210
0.0
220
0.0
230
1.0
 70
     8
 71
     3
 72
    14
 73
    10
 74
     0
 42
0.000000001
 43
0.00000001
 40
0.0
 40
0.0
 40
0.0
 40
0.0
 40
0.125
 40
0.125
 40
0.2499999999999999
 40
0.2499999999999999
 40
0.5
 40
0.5
 40
1.0
 40
1.0
 40
1.0
 40
1.0
 10
-43.92679246150743
 20
245.2814444791463
 30
0.0
 10
-60.31444450885932
 20
218.9128277155825
 30
0.0
 10
-76.72556155849358
 20
192.5588124114987
 30
0.0
 10
-109.5514459343063
 20
139.8530592938395
 30
0.0
 10
-125.9690224205301
 20
113.5030695493944
 30
0.0
 10
-175.2261038380636
 20
34.45581059080991
 30
0.0
 10
-208.070266263056
 20
-18.23855634103053
 30
0.0
 10
-306.6062832980996
 20
-176.3194584961314
 30
0.0
 10
-372.3028248622246
 20
-281.7030731263793
 30
0.0
 10
-438.0000110294375
 20
-387.0862861634258
 30
0.0
  0
SPLINE
  5
BC
330
1F
100
AcDbEntity
  8
0
  6
Continuous
 62
     7
370
    25
100
AcDbSpline
210
0.0
220
0.0
230
1.0
 70
     8
 71
     3
 72
    38
 73
    34
 74
     0
 42
0.000000001
 43
0.00000001
 40
0.0
 40
0.0
 40
0.0
 40
0.0
 40
0.1250000000000007
 40
0.1250000000000007
 40
0.1875000000000011
 40
0.1875000000000011
 40
0.2187500000000012
 40
0.2187500000000012
 40
0.2500000000000014
 40
0.2500000000000014
 40
0.3750000000000008
 40
0.3750000000000008
 40
0.4062500000000007
 40
0.4062500000000007
 40
0.4375000000000005
 40
0.4375000000000005
 40
0.5000000000000002
 40
0.5000000000000002
 40
0.5625
 40
0.5625
 40
0.5937499999999999
 40
0.5937499999999999
 40
0.6249999999999998
 40
0.6249999999999998
 40
0.7499999999999997
 40
0.7499999999999997
 40
0.7812499999999998
 40
0.7812499999999998
 40
0.8124999999999999
 40
0.8124999999999999
 40
0.8750000000000001
 40
0.8750000000000001
 40
1.0
 40
1.0
 40
1.0
 40
1.0
 10
43.9267924615197
 20
245.281444479157
 30
0.0
 10
41.13441892099908
 20
242.194228202276
 30
0.0
 10
38.06973107716036
 20
239.4529777528383
 30
0.0
 10
33.08046391880271
 20
235.8394234694418
 30
0.0
 10
31.35145552924309
 20
234.7186535940627
 30
0.0
 10
28.65616018000676
 20
233.1668102295066
 30
0.0
 10
27.7389420651814
 20
232.6703783286787
 30
0.0
 10
25.89126425223307
 20
231.7322711180367
 30
0.0
 10
24.95854737104528
 20
231.2891772425505
 30
0.0
 10
20.25136358392134
 20
229.2011950651931
 30
0.0
 10
16.34751003169253
 20
227.934641056272
 30
0.0
 10
11.29331113258077
 20
226.8613518212406
 30
0.0
 10
10.27237999120344
 20
226.672248657554
 30
0.0
 10
8.217966596301988
 20
226.3476162070345
 30
0.0
 10
7.190975155053692
 20
226.213040454394
 30
0.0
 10
4.110632605898592
 20
225.890731180585
 30
0.0
 10
2.057911584657079
 20
225.7841981156285
 30
0.0
 10
-2.045880374432845
 20
225.783781344895
 30
0.0
 10
-4.096951289955642
 20
225.8899005162809
 30
0.0
 10
-7.172302845667536
 20
226.2107899800281
 30
0.0
 10
-8.197210476590842
 20
226.3447587946715
 30
0.0
 10
-10.24659845063643
 20
226.6677618084323
 30
0.0
 10
-11.2718657144313
 20
226.8571538346451
 30
0.0
 10
-16.33676155362743
 20
227.9309510565616
 30
0.0
 10
-20.24196938214611
 20
229.1981719772506
 30
0.0
 10
-24.94372597025594
 20
231.2823194847606
 30
0.0
 10
-25.87499718775324
 20
231.7244122478205
 30
0.0
 10
-27.71909701330315
 20
232.6599100356475
 30
0.0
 10
-28.63382779827918
 20
233.154421560241
 30
0.0
 10
-31.33649730549218
 20
234.7091177649509
 30
0.0
 10
-33.06932835819248
 20
235.831793598902
 30
0.0
 10
-38.06740060182378
 20
239.4504226110198
 30
0.0
 10
-41.1344192253634
 20
242.1942285387787
 30
0.0
 10
-43.92679246151349
 20
245.2814444791501
 30
0.0
  0
SPLINE
  5
BD
330
1F
100
AcDbEntity
  8
0
  6
Continuous
 62
     7
370
    25
100
AcDbSpline
210
0.0
220
0.0
230
1.0
 70
     8
 71
     3
 72
    14
 73
    10
 74
     0
 42
0.000000001
 43
0.00000001
 40
0.0
 40
0.0
 40
0.0
 40
0.0
 40
0.5000000000000001
 40
0.5000000000000001
 40
0.75
 40
0.75
 40
0.8750000000000001
 40
0.8750000000000001
 40
1.0
 40
1.0
 40
1.0
 40
1.0
 10
438.0000110294366
 20
-387.0862861634253
 30
0.0
 10
372.302825347287
 20
-281.7030739044565
 30
0.0
 10
306.6062843131157
 20
-176.3194601242346
 30
0.0
 10
208.0702683904545
 20
-18.23855975414911
 30
0.0
 10
175.2261063165285
 20
34.45580661426783
 30
0.0
 10
125.969025271691
 20
113.5030649734439
 30
0.0
 10
109.551448732396
 20
139.8530548021619
 30
0.0
 10
76.72556301379657
 20
192.5588100738589
 30
0.0
 10
60.31444521707279
 20
218.9128265757238
 30
0.0
 10
43.92679246151684
 20
245.2814444791533
 30
0.0
  0
SPLINE
  5
BE
330
1F
100
AcDbEntity
  8
0
  6
Continuous
 62
     7
370
    25
100
AcDbSpline
210
0.0
220
0.0
230
1.0
 70
     8
 71
     3
 72
     8
 73
     4
 74
     0
 42
0.000000001
 43
0.00000001
 40
0.0000000000000102
 40
0.0000000000000102
 40
0.0000000000000102
 40
0.0000000000000102
 40
0.0000062809730629
 40
0.0000062809730629
 40
0.0000062809730629
 40
0.0000062809730629
 10
43.93075705039151
 20
245.2863160951147
 30
0.0
 10
43.92943563740001
 20
245.2846921278483
 30
0.0
 10
43.92811410766637
 20
245.2830682557261
 30
0.0
 10
43.92679246151946
 20
245.2814444791572
 30
0.0
  0
SPLINE
  5
BF
330
1F
100
AcDbEntity
  8
0
  6
Continuous
 62
     7
370
    25
100
AcDbSpline
210
0.0
220
0.0
230
1.0
 70
     8
 71
     3
 72
    14
 73
    10
 74
     0
 42
0.000000001
 43
0.00000001
 40
0.0
 40
0.0
 40
0.0
 40
0.0
 40
0.1249999999999999
 40
0.1249999999999999
 40
0.2499999999999999
 40
0.2499999999999999
 40
0.4999999999999999
 40
0.4999999999999999
 40
1.0
 40
1.0
 40
1.0
 40
1.0
 10
43.93075705038525
 20
245.2863160951122
 30
0.0
 10
60.38456215719506
 20
218.9784584916065
 30
0.0
 10
76.81492116396865
 20
192.655951970553
 30
0.0
 10
109.6719707980939
 20
140.008653971748
 30
0.0
 10
126.0958603279269
 20
113.6821120415036
 30
0.0
 10
175.3631821370802
 20
34.69977223301912
 30
0.0
 10
208.2019594521115
 20
-17.95893024578683
 30
0.0
 10
306.7147705124956
 20
-175.9372363318268
 30
0.0
 10
372.3841232777545
 20
-281.2597613386154
 30
0.0
 10
438.052832945147
 20
-386.5826879945886
 30
0.0
  0
SPLINE
  5
C0
330
1F
100
AcDbEntity
  8
0
  6
Continuous
 62
     7
370
    25
100
AcDbSpline
210
0.0
220
0.0
230
1.0
 70
     8
 71
     3
 72
    14
 73
    10
 74
     0
 42
0.000000001
 43
0.00000001
 40
0.0
 40
0.0
 40
0.0
 40
0.0
 40
0.5
 40
0.5
 40
0.75
 40
0.75
 40
0.875
 40
0.875
 40
1.0
 40
1.0
 40
1.0
 40
1.0
 10
-438.0528329451481
 20
-386.5826879945905
 30
0.0
 10
-372.3841237633862
 20
-281.2597621174974
 30
0.0
 10
-306.7147715288942
 20
-175.9372379620398
 30
0.0
 10
-208.2019615814156
 20
-17.95893366026577
 30
0.0
 10
-175.3631846177391
 20
34.69976825530626
 30
0.0
 10
-126.0958631830446
 20
113.6821074647911
 30
0.0
 10
-109.6719736001967
 20
140.0086494809201
 30
0.0
 10
-76.81492262162725
 20
192.655949635907
 30
0.0
 10
-60.38456286869162
 20
218.9784573538201
 30
0.0
 10
-43.93075705038981
 20
245.2863160951178
 30
0.0
  0
SPLINE
  5
C1
330
1F
100
AcDbEntity
  8
0
  6
Continuous
 62
     7
370
    25
100
AcDbSpline
210
0.0
220
0.0
230
1.0
 70
     8
 71
     3
 72
     8
 73
     4
 74
     0
 42
0.000000001
 43
0.00000001
 40
0.0
 40
0.0
 40
0.0
 40
0.0
 40
0.0000062809730722
 40
0.0000062809730722
 40
0.0000062809730722
 40
0.0000062809730722
 10
-43.92679246151346
 20
245.2814444791502
 30
0.0
 10
-43.92811410766233
 20
245.2830682557214
 30
0.0
 10
-43.92943563739768
 20
245.2846921278463
 30
0.0
 10
-43.93075705039113
 20
245.2863160951151
 30
0.0
  0
SPLINE
  5
C2
330
1F
100
AcDbEntity
  8
0
  6
Continuous
 62
     7
370
    25
100
AcDbSpline
210
0.0
220
0.0
230
1.0
 70
     8
 71
     3
 72
    16
 73
    12
 74
     0
 42
0.000000001
 43
0.00000001
 40
0.0
 40
0.0
 40
0.0
 40
0.0
 40
0.0624999999999999
 40
0.0624999999999999
 40
0.1249999999999999
 40
0.1249999999999999
 40
0.2499999999999999
 40
0.2499999999999999
 40
0.4999999999999999
 40
0.4999999999999999
 40
1.0
 40
1.0
 40
1.0
 40
1.0
 10
-45.09451135176602
 20
323.3396750013066
 30
0.0
 10
-53.17898197127615
 20
324.6528897145647
 30
0.0
 10
-61.26125483286167
 20
325.979485088904
 30
0.0
 10
-77.42467511866249
 20
328.6394504499442
 30
0.0
 10
-85.50565910327163
 20
329.973813785762
 30
0.0
 10
-109.7474914136933
 20
333.9836184894187
 30
0.0
 10
-125.9072135015283
 20
336.6658477913168
 30
0.0
 10
-174.3841714237234
 20
344.7258559140561
 30
0.0
 10
-206.6991189778886
 20
350.1174296666146
 30
0.0
 10
-303.6396696232125
 20
366.3177964073998
 30
0.0
 10
-368.2609181362138
 20
377.152637121858
 30
0.0
 10
-432.8800574704142
 20
388.0000621754149
 30
0.0
  0
SPLINE
  5
C3
330
1F
100
AcDbEntity
  8
0
  6
Continuous
 62
     7
370
    25
100
AcDbSpline
210
0.0
220
0.0
230
1.0
 70
     8
 71
     3
 72
    34
 73
    30
 74
     0
 42
0.000000001
 43
0.00000001
 40
0.0
 40
0.0
 40
0.0
 40
0.0
 40
0.1249999999999971
 40
0.1249999999999971
 40
0.1874999999999957
 40
0.1874999999999957
 40
0.2187499999999959
 40
0.2187499999999959
 40
0.2499999999999961
 40
0.2499999999999961
 40
0.3749999999999968
 40
0.3749999999999968
 40
0.4374999999999962
 40
0.4374999999999962
 40
0.4999999999999956
 40
0.4999999999999956
 40
0.6249999999999943
 40
0.6249999999999943
 40
0.6874999999999937
 40
0.6874999999999937
 40
0.7187499999999934
 40
0.7187499999999934
 40
0.7499999999999931
 40
0.7499999999999931
 40
0.8749999999999958
 40
0.8749999999999958
 40
0.9374999999999979
 40
0.9374999999999979
 40
1.0
 40
1.0
 40
1.0
 40
1.0
 10
-43.93075705039055
 20
245.2863160951155
 30
0.0
 10
-46.33244385027725
 20
247.945329313801
 30
0.0
 10
-48.45783991286667
 20
250.7798117727701
 30
0.0
 10
-51.24876782096717
 20
255.2837713368445
 30
0.0
 10
-52.11246923281626
 20
256.8273931297267
 30
0.0
 10
-53.30658323045702
 20
259.2072480590629
 30
0.0
 10
-53.68768957158474
 20
260.0112861460184
 30
0.0
 10
-54.41546453755803
 20
261.6412333341376
 30
0.0
 10
-54.76270938092988
 20
262.4688198989244
 30
0.0
 10
-56.39575559532975
 20
266.6222438437692
 30
0.0
 10
-57.38668448655641
 20
270.0182936228457
 30
0.0
 10
-58.41411032349071
 20
275.2190127757106
 30
0.0
 10
-58.67963766639924
 20
276.9704652479388
 30
0.0
 10
-59.05353302609236
 20
280.5098873711098
 30
0.0
 10
-59.16140398124673
 20
282.3049585691805
 30
0.0
 10
-59.24041997598639
 20
287.6436355858248
 30
0.0
 10
-58.97431094523685
 20
291.1678943092766
 30
0.0
 10
-58.10590452306359
 20
296.4029708681643
 30
0.0
 10
-57.73778958572775
 20
298.1393964570057
 30
0.0
 10
-57.06441902080232
 20
300.7307819040527
 30
0.0
 10
-56.81912737738718
 20
301.5940673650899
 30
0.0
 10
-56.29247196504843
 20
303.299853791921
 30
0.0
 10
-56.01077242985234
 20
304.1439692786464
 30
0.0
 10
-54.51194447976039
 20
308.3213885461234
 30
0.0
 10
-53.02609222310612
 20
311.526300948812
 30
0.0
 10
-50.36966352155665
 20
316.1293459864452
 30
0.0
 10
-49.41250947116314
 20
317.6294479719412
 30
0.0
 10
-47.34992727603353
 20
320.5588092706448
 30
0.0
 10
-46.25423305316592
 20
321.9741870921822
 30
0.0
 10
-45.09451135171083
 20
323.3396750012981
 30
0.0
  0
SPLINE
  5
C4
330
1F
100
AcDbEntity
  8
0
  6
Continuous
 62
     7
370
    25
100
AcDbSpline
210
0.0
220
0.0
230
1.0
 70
     8
 71
     3
 72
    34
 73
    30
 74
     0
 42
0.000000001
 43
0.00000001
 40
0.0
 40
0.0
 40
0.0
 40
0.0
 40
0.1250000000000092
 40
0.1250000000000092
 40
0.1875000000000138
 40
0.1875000000000138
 40
0.2187500000000152
 40
0.2187500000000152
 40
0.2500000000000167
 40
0.2500000000000167
 40
0.3750000000000168
 40
0.3750000000000168
 40
0.4375000000000169
 40
0.4375000000000169
 40
0.500000000000017
 40
0.500000000000017
 40
0.6250000000000172
 40
0.6250000000000172
 40
0.6875000000000162
 40
0.6875000000000162
 40
0.7187500000000149
 40
0.7187500000000149
 40
0.7500000000000135
 40
0.7500000000000135
 40
0.875000000000008
 40
0.875000000000008
 40
0.9375000000000043
 40
0.9375000000000043
 40
1.0
 40
1.0
 40
1.0
 40
1.0
 10
45.09451135171166
 20
323.3396750012973
 30
0.0
 10
47.41395960602682
 20
320.6086934708891
 30
0.0
 10
49.4522997290796
 20
317.7108536683251
 30
0.0
 10
52.10606948433939
 20
313.1244443763267
 30
0.0
 10
52.92292577815996
 20
311.5554364015006
 30
0.0
 10
54.04510143988765
 20
309.1407218013406
 30
0.0
 10
54.40194947444893
 20
308.325601226805
 30
0.0
 10
55.08064748958175
 20
306.6745861622105
 30
0.0
 10
55.40301429134964
 20
305.8370268492441
 30
0.0
 10
56.91148043905391
 20
301.6368997795567
 30
0.0
 10
57.80139566822798
 20
298.2129217627566
 30
0.0
 10
58.6751249146336
 20
292.9839911867014
 30
0.0
 10
58.88901119004028
 20
291.2254196914374
 30
0.0
 10
59.15872493638476
 20
287.676413058574
 30
0.0
 10
59.21385056190723
 20
285.8789661766099
 30
0.0
 10
59.13618496949148
 20
280.5404707827318
 30
0.0
 10
58.76670744678638
 20
277.0256517638147
 30
0.0
 10
57.74441853350399
 20
271.8185110652644
 30
0.0
 10
57.32516927926606
 20
270.0937113944789
 30
0.0
 10
56.57528010936007
 20
267.5233396603582
 30
0.0
 10
56.30446826058481
 20
266.6676919768312
 30
0.0
 10
55.72736101472293
 20
264.978354826342
 30
0.0
 10
55.42067149871298
 20
264.1430277085671
 30
0.0
 10
53.79806093269484
 20
260.0123182870076
 30
0.0
 10
52.21674719125989
 20
256.8536347381633
 30
0.0
 10
49.42264840653609
 20
252.3330396945201
 30
0.0
 10
48.42051115940257
 20
250.8626274765048
 30
0.0
 10
46.26987912344062
 20
247.9971890637586
 30
0.0
 10
45.13159915789031
 20
246.6158212735371
 30
0.0
 10
43.93075705039053
 20
245.2863160951155
 30
0.0
  0
SPLINE
  5
C5
330
1F
100
AcDbEntity
  8
0
  6
Continuous
 62
     7
370
    25
100
AcDbSpline
210
0.0
220
0.0
230
1.0
 70
     8
 71
     3
 72
    16
 73
    12
 74
     0
 42
0.000000001
 43
0.00000001
 40
0.0
 40
0.0
 40
0.0
 40
0.0
 40
0.5
 40
0.5
 40
0.7499999999999999
 40
0.7499999999999999
 40
0.875
 40
0.875
 40
0.9375
 40
0.9375
 40
1.0
 40
1.0
 40
1.0
 40
1.0
 10
432.8800574704327
 20
388.0000621754181
 30
0.0
 10
368.2609186716289
 20
377.1526372117366
 30
0.0
 10
303.6396735397328
 20
366.3177970630841
 30
0.0
 10
206.6991214259065
 20
350.1174300751341
 30
0.0
 10
174.3841733822228
 20
344.7258562402924
 30
0.0
 10
125.9072147256801
 20
336.665847994546
 30
0.0
 10
109.7474923930514
 20
333.9836186517144
 30
0.0
 10
85.50565971540479
 20
329.9738138868636
 30
0.0
 10
77.42467560838199
 20
328.6394505306803
 30
0.0
 10
61.26125507772871
 20
325.9794851290573
 30
0.0
 10
53.17898209371211
 20
324.6528897344556
 30
0.0
 10
45.0945113517114
 20
323.3396750012966
 30
0.0
  0
SPLINE
  5
C6
330
1F
100
AcDbEntity
  8
0
  6
Continuous
 62
     7
370
    25
100
AcDbSpline
210
0.0
220
0.0
230
1.0
 70
     8
 71
     3
 72
    52
 73
    48
 74
     0
 42
0.000000001
 43
0.00000001
 40
0.0
 40
0.0
 40
0.0
 40
0.0
 40
0.0624999999999986
 40
0.0624999999999986
 40
0.1249999999999973
 40
0.1249999999999973
 40
0.1874999999999959
 40
0.1874999999999959
 40
0.2187499999999956
 40
0.2187499999999956
 40
0.2499999999999954
 40
0.2499999999999954
 40
0.2812499999999951
 40
0.2812499999999951
 40
0.3124999999999948
 40
0.3124999999999948
 40
0.3749999999999947
 40
0.3749999999999947
 40
0.4374999999999946
 40
0.4374999999999946
 40
0.4687499999999946
 40
0.4687499999999946
 40
0.4999999999999947
 40
0.4999999999999947
 40
0.5624999999999947
 40
0.5624999999999947
 40
0.5937499999999947
 40
0.5937499999999947
 40
0.6249999999999946
 40
0.6249999999999946
 40
0.6562499999999946
 40
0.6562499999999946
 40
0.6874999999999944
 40
0.6874999999999944
 40
0.7499999999999948
 40
0.7499999999999948
 40
0.7812499999999952
 40
0.7812499999999952
 40
0.8124999999999957
 40
0.8124999999999957
 40
0.8437499999999961
 40
0.8437499999999961
 40
0.8749999999999964
 40
0.8749999999999964
 40
0.9374999999999982
 40
0.9374999999999982
 40
1.0
 40
1.0
 40
1.0
 40
1.0
 10
-45.06927672278302
 20
323.3647617900345
 30
0.0
 10
-43.67684796405466
 20
324.9932998033106
 30
0.0
 10
-42.208740555674
 20
326.5306846537673
 30
0.0
 10
-39.12623309428725
 20
329.4292453181888
 30
0.0
 10
-37.51181358808261
 20
330.7903977188657
 30
0.0
 10
-34.13614225955726
 20
333.3358382280651
 30
0.0
 10
-32.3749286435423
 20
334.5201724964098
 30
0.0
 10
-29.61830186201296
 20
336.1583819248449
 30
0.0
 10
-28.68110601955862
 20
336.6806327504373
 30
0.0
 10
-26.7857519539694
 20
337.6685109897774
 30
0.0
 10
-25.825498448259
 20
338.1354501033525
 30
0.0
 10
-23.87985796631075
 20
339.0153695560544
 30
0.0
 10
-22.89446769806476
 20
339.4283427787752
 30
0.0
 10
-20.89842453907385
 20
340.2000536951324
 30
0.0
 10
-19.88782673760632
 20
340.5585812771079
 30
0.0
 10
-16.84688821803297
 20
341.5441219441782
 30
0.0
 10
-14.79799607105826
 20
342.0849588729413
 30
0.0
 10
-10.65965155942404
 20
342.9486513975856
 30
0.0
 10
-8.57023688511297
 20
343.2717167322169
 30
0.0
 10
-5.406552200501122
 20
343.5976944327267
 30
0.0
 10
-4.347046395847481
 20
343.679825751228
 30
0.0
 10
-2.218052918762634
 20
343.7905657393878
 30
0.0
 10
-1.146547013542986
 20
343.8191128441782
 30
0.0
 10
2.060340569921916
 20
343.8230461680358
 30
0.0
 10
4.192329660600216
 20
343.717716786674
 30
0.0
 10
7.381349966969701
 20
343.3965124783759
 30
0.0
 10
8.444296876494334
 20
343.2619183486282
 30
0.0
 10
10.55776981703275
 20
342.9382131637144
 30
0.0
 10
11.60860667428536
 20
342.749159552699
 30
0.0
 10
13.69830826202265
 20
342.3158090635507
 30
0.0
 10
14.73717394182239
 20
342.0715161790689
 30
0.0
 10
16.80262807453072
 20
341.5262432074782
 30
0.0
 10
17.83077157185036
 20
341.2247168091731
 30
0.0
 10
20.88274071441775
 20
340.2371931249506
 30
0.0
 10
22.87347762098983
 20
339.4690292226
 30
0.0
 10
25.79321089962489
 20
338.1507725728966
 30
0.0
 10
26.75645592073187
 20
337.6831154055354
 30
0.0
 10
28.65503014734137
 20
336.6948696293638
 30
0.0
 10
29.58977959084968
 20
336.1746417617589
 30
0.0
 10
31.43032732778835
 20
335.0822009351626
 30
0.0
 10
32.33532498765828
 20
334.5103163210846
 30
0.0
 10
34.10363583428003
 20
333.3236191802633
 30
0.0
 10
34.96861545173292
 20
332.7078437857941
 30
0.0
 10
37.50709121411622
 20
330.7944827559353
 30
0.0
 10
39.12428063222947
 20
329.4310450933852
 30
0.0
 10
42.20963150769821
 20
326.5298830311816
 30
0.0
 10
43.67780833355635
 20
324.9921765873253
 30
0.0
 10
45.06927672278323
 20
323.3647617900342
 30
0.0
  0
SPLINE
  5
C7
330
1F
100
AcDbEntity
  8
0
  6
Continuous
 62
     7
370
    25
100
AcDbSpline
210
0.0
220
0.0
230
1.0
 70
     8
 71
     3
 72
    16
 73
    12
 74
     0
 42
0.000000001
 43
0.00000001
 40
0.0
 40
0.0
 40
0.0
 40
0.0
 40
0.5
 40
0.5
 40
0.7500000000000001
 40
0.7500000000000001
 40
0.8750000000000001
 40
0.8750000000000001
 40
0.9375
 40
0.9375
 40
1.0
 40
1.0
 40
1.0
 40
1.0
 10
-425.2883321795566
 20
388.3077624657511
 30
0.0
 10
-361.9061831282568
 20
377.5555843916314
 30
0.0
 10
-298.5262290343728
 20
366.7909358490347
 30
0.0
 10
-203.4654387104083
 20
350.59070606982
 30
0.0
 10
-171.7800229702754
 20
345.1818056220823
 30
0.0
 10
-124.2566691562847
 20
337.0404858605175
 30
0.0
 10
-108.416326518048
 20
334.3221620665486
 30
0.0
 10
-84.65810659788184
 20
330.2311455451027
 30
0.0
 10
-76.7390775693138
 20
328.8652353490136
 30
0.0
 10
-60.90248785630094
 20
326.1248118028183
 30
0.0
 10
-52.98476071180242
 20
324.7512469663093
 30
0.0
 10
-45.06927672278459
 20
323.3647617900336
 30
0.0
  0
SPLINE
  5
C8
330
1F
100
AcDbEntity
  8
0
  6
Continuous
 62
     7
370
    25
100
AcDbSpline
210
0.0
220
0.0
230
1.0
 70
     8
 71
     3
 72
    16
 73
    12
 74
     0
 42
0.000000001
 43
0.00000001
 40
0.0
 40
0.0
 40
0.0
 40
0.0
 40
0.0625000000000001
 40
0.0625000000000001
 40
0.1250000000000002
 40
0.1250000000000002
 40
0.2500000000000002
 40
0.2500000000000002
 40
0.5000000000000001
 40
0.5000000000000001
 40
1.0
 40
1.0
 40
1.0
 40
1.0
 10
45.06927672283446
 20
323.3647617900425
 30
0.0
 10
52.98477816637095
 20
324.7512500236707
 30
0.0
 10
60.90249506706363
 20
326.1248130505799
 30
0.0
 10
76.73907027721428
 20
328.865234087177
 30
0.0
 10
84.65809196914928
 20
330.231143022269
 30
0.0
 10
108.4163004147876
 20
334.3221575794466
 30
0.0
 10
124.256642979961
 20
337.0404813713743
 30
0.0
 10
171.7800080262418
 20
345.1818030716412
 30
0.0
 10
203.4654231827675
 20
350.5907034206593
 30
0.0
 10
298.5262177614646
 20
366.7909339337996
 30
0.0
 10
361.9061786643449
 20
377.5555836343717
 30
0.0
 10
425.2883321795451
 20
388.3077624657492
 30
0.0
  0
SPLINE
  5
C9
330
1F
100
AcDbEntity
  8
0
  6
Continuous
 62
     7
370
    25
100
AcDbSpline
210
0.0
220
0.0
230
1.0
 70
     8
 71
     3
 72
     8
 73
     4
 74
     0
 42
0.000000001
 43
0.00000001
 40
0.0000000000000299
 40
0.0000000000000299
 40
0.0000000000000299
 40
0.0000000000000299
 40
0.0000355828292625
 40
0.0000355828292625
 40
0.0000355828292625
 40
0.0000355828292625
 10
45.06927672282806
 20
323.3647617900793
 30
0.0
 10
45.07769130205453
 20
323.356402557828
 30
0.0
 10
45.0861028578267
 20
323.3480402827317
 30
0.0
 10
45.09451135171599
 20
323.3396750013017
 30
0.0
  0
SPLINE
  5
CA
330
1F
100
AcDbEntity
  8
0
  6
Continuous
 62
     7
370
    25
100
AcDbSpline
210
0.0
220
0.0
230
1.0
 70
     8
 71
     3
 72
     8
 73
     4
 74
     0
 42
0.000000001
 43
0.00000001
 40
0.0000000000000335
 40
0.0000000000000335
 40
0.0000000000000335
 40
0.0000000000000335
 40
0.0000355828292615
 40
0.0000355828292615
 40
0.0000355828292615
 40
0.0000355828292615
 10
-45.09451135175942
 20
323.339675001347
 30
0.0
 10
-45.08610285787032
 20
323.3480402827769
 30
0.0
 10
-45.0776913020136
 20
323.3564025577877
 30
0.0
 10
-45.06927672278734
 20
323.3647617900389
 30
0.0
  0
SPLINE
  5
CB
330
1F
100
AcDbEntity
  8
0
  6
Continuous
 62
     7
370
    25
100
AcDbSpline
210
0.0
220
0.0
230
1.0
 70
     8
 71
     3
 72
    46
 73
    42
 74
     0
 42
0.000000001
 43
0.00000001
 40
0.0
 40
0.0
 40
0.0
 40
0.0
 40
0.1250000000000016
 40
0.1250000000000016
 40
0.1562500000000016
 40
0.1562500000000016
 40
0.1875000000000016
 40
0.1875000000000016
 40
0.2500000000000014
 40
0.2500000000000014
 40
0.3125000000000012
 40
0.3125000000000012
 40
0.3437500000000012
 40
0.3437500000000012
 40
0.3750000000000012
 40
0.3750000000000012
 40
0.4062500000000012
 40
0.4062500000000012
 40
0.4375000000000012
 40
0.4375000000000012
 40
0.5000000000000012
 40
0.5000000000000012
 40
0.5312500000000013
 40
0.5312500000000013
 40
0.5625000000000012
 40
0.5625000000000012
 40
0.6250000000000013
 40
0.6250000000000013
 40
0.6875000000000013
 40
0.6875000000000013
 40
0.7187500000000013
 40
0.7187500000000013
 40
0.7500000000000012
 40
0.7500000000000012
 40
0.7812500000000012
 40
0.7812500000000012
 40
0.8125000000000012
 40
0.8125000000000012
 40
0.8750000000000004
 40
0.8750000000000004
 40
1.0
 40
1.0
 40
1.0
 40
1.0
 10
43.59188331208639
 20
322.1121302178337
 30
0.0
 10
40.89874019878549
 20
325.2754943160054
 30
0.0
 10
37.9103784482221
 20
328.0961840511923
 30
0.0
 10
33.81690889242047
 20
331.206453919643
 30
0.0
 10
32.98011561445296
 20
331.8074977889763
 30
0.0
 10
31.26980747830386
 20
332.9669575382629
 30
0.0
 10
30.39472158910214
 20
333.5262917895611
 30
0.0
 10
27.72594297175569
 20
335.1312773388587
 30
0.0
 10
25.88697164284712
 20
336.104986632677
 30
0.0
 10
22.12520697688468
 20
337.8425034966521
 30
0.0
 10
20.2015881126709
 20
338.6074828514929
 30
0.0
 10
17.25179320731112
 20
339.5986639133134
 30
0.0
 10
16.25804359659278
 20
339.9027492107471
 30
0.0
 10
14.26094882569552
 20
340.455037562676
 30
0.0
 10
13.25613643985591
 20
340.7037575664885
 30
0.0
 10
11.2340065028414
 20
341.1465124316043
 30
0.0
 10
10.21668888014957
 20
341.3405474632094
 30
0.0
 10
8.169458922112122
 20
341.6736090349629
 30
0.0
 10
7.139272344888036
 20
341.8125605937618
 30
0.0
 10
4.048362689934187
 20
342.1442758539125
 30
0.0
 10
1.981158892109308
 20
342.2532817701909
 30
0.0
 10
-1.129579553300527
 20
342.2482466197517
 30
0.0
 10
-2.169250264807811
 20
342.2182242819708
 30
0.0
 10
-4.23322345947554
 20
342.1026326524046
 30
0.0
 10
-5.259766491574093
 20
342.0171282528773
 30
0.0
 10
-8.323370946377098
 20
341.6789751768035
 30
0.0
 10
-10.34445400293918
 20
341.3449188602341
 30
0.0
 10
-14.3444859468249
 20
340.4616383900316
 30
0.0
 10
-16.32343884315324
 20
339.9124229246298
 30
0.0
 10
-19.25951013203801
 20
338.9230966864276
 30
0.0
 10
-20.23500408900541
 20
338.5647544362226
 30
0.0
 10
-22.16197859373887
 20
337.7966382746624
 30
0.0
 10
-23.11331925732711
 20
337.3871005343863
 30
0.0
 10
-24.99185875159114
 20
336.5173837226963
 30
0.0
 10
-25.91905748183759
 20
336.0572045232183
 30
0.0
 10
-27.74924969450121
 20
335.0860740711903
 30
0.0
 10
-28.65416818856635
 20
334.5739336034689
 30
0.0
 10
-31.31698015229509
 20
332.9698263926385
 30
0.0
 10
-33.01932227538052
 20
331.8133438956967
 30
0.0
 10
-37.9147823947505
 20
328.0910781583329
 30
0.0
 10
-40.89880006425591
 20
325.2754239980638
 30
0.0
 10
-43.59188331208616
 20
322.112130217834
 30
0.0
  0
SPLINE
  5
CF
330
1F
100
AcDbEntity
  8
0
  6
Continuous
 62
     7
370
    25
100
AcDbSpline
210
0.0
220
0.0
230
1.0
 70
     8
 71
     3
 72
    34
 73
    30
 74
     0
 42
0.000000001
 43
0.00000001
 40
0.0
 40
0.0
 40
0.0
 40
0.0
 40
0.0624999999999991
 40
0.0624999999999991
 40
0.1249999999999983
 40
0.1249999999999983
 40
0.2499999999999948
 40
0.2499999999999948
 40
0.2812499999999945
 40
0.2812499999999945
 40
0.3124999999999942
 40
0.3124999999999942
 40
0.3749999999999936
 40
0.3749999999999936
 40
0.4999999999999925
 40
0.4999999999999925
 40
0.5624999999999929
 40
0.5624999999999929
 40
0.6249999999999933
 40
0.6249999999999933
 40
0.7499999999999942
 40
0.7499999999999942
 40
0.7812499999999949
 40
0.7812499999999949
 40
0.8124999999999956
 40
0.8124999999999956
 40
0.874999999999997
 40
0.874999999999997
 40
1.0
 40
1.0
 40
1.0
 40
1.0
 10
42.46941797378108
 20
246.6084509694088
 30
0.0
 10
43.63125473580614
 20
247.8936955690583
 30
0.0
 10
44.73262707645204
 20
249.229122369504
 30
0.0
 10
46.81363927758684
 20
251.9992910802688
 30
0.0
 10
47.78341768062164
 20
253.4208554297623
 30
0.0
 10
50.48755577759965
 20
257.7913851929464
 30
0.0
 10
52.01831611484477
 20
260.845363257871
 30
0.0
 10
53.58960802562007
 20
264.8393145978761
 30
0.0
 10
53.88662967364171
 20
265.6469952408369
 30
0.0
 10
54.4456134852271
 20
267.2804395367814
 30
0.0
 10
54.70795223695639
 20
268.1077704751943
 30
0.0
 10
55.43449182998623
 20
270.5930766410573
 30
0.0
 10
55.84086800745555
 20
272.2608434688675
 30
0.0
 10
56.83233896662247
 20
277.2959527918121
 30
0.0
 10
57.19158295774583
 20
280.6948517344169
 30
0.0
 10
57.26944421448086
 20
285.8576130041051
 30
0.0
 10
57.21700325402509
 20
287.5959287739143
 30
0.0
 10
56.95775565004526
 20
291.0281322878724
 30
0.0
 10
56.75163299545633
 20
292.728842871239
 30
0.0
 10
55.90856912968459
 20
297.7857669691085
 30
0.0
 10
55.04875968670444
 20
301.0971405819723
 30
0.0
 10
53.59026193063402
 20
305.1591520736504
 30
0.0
 10
53.27852828213379
 20
305.9691665409498
 30
0.0
 10
52.62216063396203
 20
307.5658089051938
 30
0.0
 10
52.27702238235178
 20
308.3540610479506
 30
0.0
 10
51.19159040967637
 20
310.6891128245638
 30
0.0
 10
50.40137907054195
 20
312.2062669568988
 30
0.0
 10
47.83396437097776
 20
316.6408635837587
 30
0.0
 10
45.86162976831022
 20
319.4424198829319
 30
0.0
 10
43.6171947098314
 20
322.0823789102676
 30
0.0
  0
SPLINE
  5
D2
330
1F
100
AcDbEntity
  8
0
  6
Continuous
 62
     7
370
    25
100
AcDbSpline
210
0.0
220
0.0
230
1.0
 70
     8
 71
     3
 72
    34
 73
    30
 74
     0
 42
0.000000001
 43
0.00000001
 40
0.0
 40
0.0
 40
0.0
 40
0.0
 40
0.0624999999999997
 40
0.0624999999999997
 40
0.1249999999999994
 40
0.1249999999999994
 40
0.2499999999999989
 40
0.2499999999999989
 40
0.2812499999999987
 40
0.2812499999999987
 40
0.3124999999999985
 40
0.3124999999999985
 40
0.3749999999999981
 40
0.3749999999999981
 40
0.4999999999999952
 40
0.4999999999999952
 40
0.5624999999999948
 40
0.5624999999999948
 40
0.6249999999999943
 40
0.6249999999999943
 40
0.7499999999999954
 40
0.7499999999999954
 40
0.7812499999999953
 40
0.7812499999999953
 40
0.8124999999999952
 40
0.8124999999999952
 40
0.8749999999999968
 40
0.8749999999999968
 40
1.0
 40
1.0
 40
1.0
 40
1.0
 10
-43.61719470983063
 20
322.0823789102685
 30
0.0
 10
-44.73941228094995
 20
320.7623993473406
 30
0.0
 10
-45.79966784133103
 20
319.3940988574279
 30
0.0
 10
-47.7954816385005
 20
316.5619319043454
 30
0.0
 10
-48.72158436973313
 20
315.1115358888535
 30
0.0
 10
-51.29157227202228
 20
310.660799328837
 30
0.0
 10
-52.72875921666679
 20
307.5616853927304
 30
0.0
 10
-54.17787623088768
 20
303.5217993693574
 30
0.0
 10
-54.45020053092612
 20
302.7054599947907
 30
0.0
 10
-54.95925597774639
 20
301.0557726023303
 30
0.0
 10
-55.19631580199071
 20
300.2208468248695
 30
0.0
 10
-55.846945653612
 20
297.7145973541996
 30
0.0
 10
-56.20242009228581
 20
296.0352446622025
 30
0.0
 10
-57.04032390345056
 20
290.9723148717389
 30
0.0
 10
-57.29604737873841
 20
287.5640634765749
 30
0.0
 10
-57.21688221203982
 20
282.4013211783292
 30
0.0
 10
-57.11160637796345
 20
280.6654039002343
 30
0.0
 10
-56.74811151729637
 20
277.2426714881968
 30
0.0
 10
-56.49036865597568
 20
275.549015500352
 30
0.0
 10
-55.49392280247665
 20
270.5200667268369
 30
0.0
 10
-54.53381818077938
 20
267.2363700048558
 30
0.0
 10
-52.95247660815667
 20
263.220587540953
 30
0.0
 10
-52.6162561067604
 20
262.4204270577602
 30
0.0
 10
-51.91164118028172
 20
260.8444823918881
 30
0.0
 10
-51.54269331034563
 20
260.0670899691219
 30
0.0
 10
-50.38675886766326
 20
257.7661244773938
 30
0.0
 10
-49.55077921703325
 20
256.2737010337808
 30
0.0
 10
-46.84970416712385
 20
251.9192259355972
 30
0.0
 10
-44.7930915564369
 20
249.1789402335385
 30
0.0
 10
-42.4694179737811
 20
246.6084509694089
 30
0.0
  0
LWPOLYLINE
  5
D4
330
1F
100
AcDbEntity
  8
0
  6
Continuous
 62
     7
370
    25
100
AcDbPolyline
 90
        9
 70
   128
 43
0.0
 10
-43.9267924615
 20
245.2814444792
 10
-43.6404490074
 20
245.5403494883
 10
-43.3657115445
 20
245.7887446319
 10
-43.1129446576
 20
246.0172591
 10
-42.8916840827
 20
246.2172720891
 10
-42.710276967
 20
246.3812380261
 10
-42.5755669694
 20
246.5029712279
 10
-42.4926360804
 20
246.5778792588
 10
-42.4646129025
 20
246.6031361822
  0
SPLINE
  5
D5
330
1F
100
AcDbEntity
  8
0
  6
Continuous
 62
     7
370
    25
100
AcDbSpline
210
0.0
220
0.0
230
1.0
 70
     8
 71
     3
 72
    38
 73
    34
 74
     0
 42
0.000000001
 43
0.00000001
 40
0.0
 40
0.0
 40
0.0
 40
0.0
 40
0.1250000000000002
 40
0.1250000000000002
 40
0.1875000000000004
 40
0.1875000000000004
 40
0.2187500000000008
 40
0.2187500000000008
 40
0.2500000000000011
 40
0.2500000000000011
 40
0.3750000000000013
 40
0.3750000000000013
 40
0.4062500000000014
 40
0.4062500000000014
 40
0.4375000000000014
 40
0.4375000000000014
 40
0.5000000000000014
 40
0.5000000000000014
 40
0.5625000000000014
 40
0.5625000000000014
 40
0.5937500000000016
 40
0.5937500000000016
 40
0.6250000000000016
 40
0.6250000000000016
 40
0.7500000000000017
 40
0.7500000000000017
 40
0.7812500000000018
 40
0.7812500000000018
 40
0.8125000000000018
 40
0.8125000000000018
 40
0.8750000000000013
 40
0.8750000000000013
 40
1.0
 40
1.0
 40
1.0
 40
1.0
 10
-42.46461290245986
 20
246.6031361821796
 30
0.0
 10
-39.76551163475295
 20
243.6180931572719
 30
0.0
 10
-36.80082335463229
 20
240.9650358438906
 30
0.0
 10
-31.96933037692038
 20
237.4660283880728
 30
0.0
 10
-30.29422676990166
 20
236.3804504776808
 30
0.0
 10
-27.68154922277239
 20
234.8771120099599
 30
0.0
 10
-26.7972745598876
 20
234.3989361301298
 30
0.0
 10
-25.01456390653258
 20
233.4943383581312
 30
0.0
 10
-24.1142897509828
 20
233.0668470654811
 30
0.0
 10
-19.56900898353595
 20
231.0515256004948
 30
0.0
 10
-15.79370049108876
 20
229.8261282105246
 30
0.0
 10
-10.89718562646451
 20
228.7877592677751
 30
0.0
 10
-9.90599724785541
 20
228.6046148923805
 30
0.0
 10
-7.924732222827155
 20
228.2922680571008
 30
0.0
 10
-6.933893055716955
 20
228.1627191916087
 30
0.0
 10
-3.96076746231868
 20
227.852416748303
 30
0.0
 10
-1.977874562783151
 20
227.749798759324
 30
0.0
 10
1.98950736659284
 20
227.7502018316023
 30
0.0
 10
3.973996374838883
 20
227.8532201107
 30
0.0
 10
6.951949643127321
 20
228.1648960070868
 30
0.0
 10
7.944804433746707
 20
228.2950320202349
 30
0.0
 10
9.930930444947021
 20
228.608955218277
 30
0.0
 10
10.91792593944848
 20
228.7918202917103
 30
0.0
 10
15.80409362257867
 20
229.8296973745163
 30
0.0
 10
19.57809178048335
 20
231.0544492054979
 30
0.0
 10
24.12862040716711
 20
233.0734795213968
 30
0.0
 10
25.03029250200222
 20
233.5019391039016
 30
0.0
 10
26.81646308589252
 20
234.409060827486
 30
0.0
 10
27.7031454265156
 20
234.8890955421841
 30
0.0
 10
30.30869179367292
 20
236.3896744490613
 30
0.0
 10
31.98009880763897
 20
237.473408766452
 30
0.0
 10
36.80307712474988
 20
240.9675075625043
 30
0.0
 10
39.76551163503442
 20
243.6180931575823
 30
0.0
 10
42.46461290246587
 20
246.6031361821862
 30
0.0
  0
LWPOLYLINE
  5
D6
330
1F
100
AcDbEntity
  8
0
  6
Continuous
 62
     7
370
    25
100
AcDbPolyline
 90
        9
 70
   128
 43
0.0
 10
43.9267924615
 20
245.2814444791
 10
43.6404490074
 20
245.5403494883
 10
43.3657115444
 20
245.7887446319
 10
43.1129446576
 20
246.0172590999
 10
42.8916840827
 20
246.217272089
 10
42.710276967
 20
246.3812380261
 10
42.5755669693
 20
246.5029712279
 10
42.4926360804
 20
246.5778792588
 10
42.4646129025
 20
246.6031361822
  0
SPLINE
  5
D7
330
1F
100
AcDbEntity
  8
0
  6
Continuous
 62
     7
370
    25
100
AcDbSpline
210
0.0
220
0.0
230
1.0
 70
     8
 71
     3
 72
     8
 73
     4
 74
     0
 42
0.000000001
 43
0.00000001
 40
0.0
 40
0.0
 40
0.0
 40
0.0
 40
0.0000390615927951
 40
0.0000390615927951
 40
0.0000390615927951
 40
0.0000390615927951
 10
-43.59188331208617
 20
322.112130217834
 30
0.0
 10
-43.60032381238807
 20
322.1022160118292
 30
0.0
 10
-43.60876095966861
 20
322.0922988920432
 30
0.0
 10
-43.61719470983064
 20
322.0823789102685
 30
0.0
  0
SPLINE
  5
D8
330
1F
100
AcDbEntity
  8
0
  6
Continuous
 62
     7
370
    25
100
AcDbSpline
210
0.0
220
0.0
230
1.0
 70
     8
 71
     3
 72
     8
 73
     4
 74
     0
 42
0.000000001
 43
0.00000001
 40
0.0
 40
0.0
 40
0.0
 40
0.0
 40
0.0000390615927959
 40
0.0000390615927959
 40
0.0000390615927959
 40
0.0000390615927959
 10
43.61719470983139
 20
322.0823789102676
 30
0.0
 10
43.60876095966918
 20
322.0922988920424
 30
0.0
 10
43.60032381238848
 20
322.1022160118287
 30
0.0
 10
43.5918833120864
 20
322.1121302178337
 30
0.0
  0
SPLINE
  5
D9
330
1F
100
AcDbEntity
  8
0
  6
Continuous
 62
     7
370
    25
100
AcDbSpline
210
0.0
220
0.0
230
1.0
 70
     8
 71
     3
 72
     8
 73
     4
 74
     0
 42
0.000000001
 43
0.00000001
 40
0.0
 40
0.0
 40
0.0
 40
0.0
 40
0.000007164891806
 40
0.000007164891806
 40
0.000007164891806
 40
0.000007164891806
 10
-42.46941797378111
 20
246.6084509694089
 30
0.0
 10
-42.46781639433424
 20
246.6066792735887
 30
0.0
 10
-42.46621470374841
 20
246.6049076776848
 30
0.0
 10
-42.46461290245986
 20
246.6031361821796
 30
0.0
  0
SPLINE
  5
DA
330
1F
100
AcDbEntity
  8
0
  6
Continuous
 62
     7
370
    25
100
AcDbSpline
210
0.0
220
0.0
230
1.0
 70
     8
 71
     3
 72
     8
 73
     4
 74
     0
 42
0.000000001
 43
0.00000001
 40
0.0
 40
0.0
 40
0.0
 40
0.0
 40
0.000007164891797
 40
0.000007164891797
 40
0.000007164891797
 40
0.000007164891797
 10
42.46461290246586
 20
246.6031361821862
 30
0.0
 10
42.46621470375241
 20
246.6049076776892
 30
0.0
 10
42.46781639433622
 20
246.6066792735909
 30
0.0
 10
42.46941797378108
 20
246.6084509694088
 30
0.0
  0
CIRCLE
  5
DB
330
1F
100
AcDbEntity
  8
0
  6
Continuous
 62
     7
370
    25
100
AcDbCircle
 10
0.0
 20
285.0
 30
0.0
 40
55.25000000000006
  0
CIRCLE
  5
DC
330
1F
100
AcDbEntity
  8
0
  6
Continuous
 62
     7
370
    25
100
AcDbCircle
 10
0.0
 20
285.0
 30
0.0
 40
46.99999999999983
  0
CIRCLE
  5
DD
330
1F
100
AcDbEntity
  8
0
  6
Continuous
 62
     7
370
    25
100
AcDbCircle
 10
0.0
 20
285.0
 30
0.0
 40
44.99999999999989
  0
LINE
  5
DE
330
1F
100
AcDbEntity
  8
0
  6
Continuous
 62
     7
370
    25
100
AcDbLine
 10
-442.0
 20
-388.0
 30
0.0
 11
-442.0
 21
388.0
 31
0.0
  0
LINE
  5
DF
330
1F
100
AcDbEntity
  8
0
  6
Continuous
 62
     7
370
    25
100
AcDbLine
 10
438.0
 20
-392.0
 30
0.0
 11
-438.0
 21
-392.0
 31
0.0
  0
LINE
  5
E0
330
1F
100
AcDbEntity
  8
0
  6
Continuous
 62
     7
370
    25
100
AcDbLine
 10
442.0
 20
388.0
 30
0.0
 11
442.0
 21
-388.0
 31
0.0
  0
LINE
  5
E1
330
1F
100
AcDbEntity
  8
0
  6
Continuous
 62
     7
370
    25
100
AcDbLine
 10
-438.0
 20
392.0
 30
0.0
 11
438.0
 21
392.0
 31
0.0
  0
LINE
  5
E2
330
1F
100
AcDbEntity
  8
0
  6
Continuous
 62
     7
370
    25
100
AcDbLine
 10
-495.0
 20
450.0
 30
0.0
 11
-495.0
 21
-450.0
 31
0.0
  0
LINE
  5
E3
330
1F
100
AcDbEntity
  8
0
  6
Continuous
 62
     7
370
    25
100
AcDbLine
 10
500.0
 20
445.0
 30
0.0
 11
-500.0
 21
445.0
 31
0.0
  0
LINE
  5
E4
330
1F
100
AcDbEntity
  8
0
  6
Continuous
 62
     7
370
    25
100
AcDbLine
 10
495.0
 20
-450.0
 30
0.0
 11
495.0
 21
450.0
 31
0.0
  0
LINE
  5
E5
330
1F
100
AcDbEntity
  8
0
  6
Continuous
 62
     7
370
    25
100
AcDbLine
 10
-500.0
 20
-445.0
 30
0.0
 11
500.0
 21
-445.0
 31
0.0
  0
LINE
  5
E6
330
1F
100
AcDbEntity
  8
0
  6
Continuous
 62
     7
370
    25
100
AcDbLine
 10
500.0
 20
445.0
 30
0.0
 11
500.0
 21
-445.0
 31
0.0
  0
LINE
  5
E7
330
1F
100
AcDbEntity
  8
0
  6
Continuous
 62
     7
370
    25
100
AcDbLine
 10
-438.0
 20
-390.0
 30
0.0
 11
438.0
 21
-390.0
 31
0.0
  0
LINE
  5
E8
330
1F
100
AcDbEntity
  8
0
  6
Continuous
 62
     7
370
    25
100
AcDbLine
 10
438.0
 20
-390.0
 30
0.0
 11
438.0
 21
-392.0
 31
0.0
  0
LINE
  5
E9
330
1F
100
AcDbEntity
  8
0
  6
Continuous
 62
     7
370
    25
100
AcDbLine
 10
-438.0
 20
-392.0
 30
0.0
 11
-438.0
 21
-390.0
 31
0.0
  0
LINE
  5
EA
330
1F
100
AcDbEntity
  8
0
  6
Continuous
 62
     7
370
    25
100
AcDbLine
 10
440.0
 20
-388.0
 30
0.0
 11
442.0
 21
-388.0
 31
0.0
  0
LINE
  5
EB
330
1F
100
AcDbEntity
  8
0
  6
Continuous
 62
     7
370
    25
100
AcDbLine
 10
-442.0
 20
-388.0
 30
0.0
 11
-440.0
 21
-388.0
 31
0.0
  0
LINE
  5
EC
330
1F
100
AcDbEntity
  8
0
  6
Continuous
 62
     7
370
    25
100
AcDbLine
 10
440.0
 20
-388.0
 30
0.0
 11
440.0
 21
388.0
 31
0.0
  0
LINE
  5
ED
330
1F
100
AcDbEntity
  8
0
  6
Continuous
 62
     7
370
    25
100
AcDbLine
 10
440.0
 20
388.0
 30
0.0
 11
442.0
 21
388.0
 31
0.0
  0
LINE
  5
EE
330
1F
100
AcDbEntity
  8
0
  6
Continuous
 62
     7
370
    25
100
AcDbLine
 10
-495.0
 20
450.0
 30
0.0
 11
495.0
 21
450.0
 31
0.0
  0
LINE
  5
EF
330
1F
100
AcDbEntity
  8
0
  6
Continuous
 62
     7
370
    25
100
AcDbLine
 10
438.0
 20
390.0
 30
0.0
 11
-438.0
 21
390.0
 31
0.0
  0
LINE
  5
F0
330
1F
100
AcDbEntity
  8
0
  6
Continuous
 62
     7
370
    25
100
AcDbLine
 10
-438.0
 20
392.0
 30
0.0
 11
-438.0
 21
390.0
 31
0.0
  0
LINE
  5
F1
330
1F
100
AcDbEntity
  8
0
  6
Continuous
 62
     7
370
    25
100
AcDbLine
 10
438.0
 20
390.0
 30
0.0
 11
438.0
 21
392.0
 31
0.0
  0
LINE
  5
F2
330
1F
100
AcDbEntity
  8
0
  6
Continuous
 62
     7
370
    25
100
AcDbLine
 10
-442.0
 20
388.0
 30
0.0
 11
-440.0
 21
388.0
 31
0.0
  0
LINE
  5
F3
330
1F
100
AcDbEntity
  8
0
  6
Continuous
 62
     7
370
    25
100
AcDbLine
 10
-440.0
 20
388.0
 30
0.0
 11
-440.0
 21
-388.0
 31
0.0
  0
LINE
  5
F4
330
1F
100
AcDbEntity
  8
0
  6
Continuous
 62
     7
370
    25
100
AcDbLine
 10
495.0
 20
-450.0
 30
0.0
 11
-495.0
 21
-450.0
 31
0.0
  0
LINE
  5
F5
330
1F
100
AcDbEntity
  8
0
  6
Continuous
 62
     7
370
    25
100
AcDbLine
 10
-500.0
 20
-445.0
 30
0.0
 11
-500.0
 21
445.0
 31
0.0
  0
LINE
  5
F6
330
1F
100
AcDbEntity
  8
0
  6
Continuous
 62
     7
370
    25
100
AcDbLine
 10
438.0000074338
 20
-388.0329595267
 30
0.0
 11
438.0000110294
 21
-387.0862861634
 31
0.0
  0
LINE
  5
F7
330
1F
100
AcDbEntity
  8
0
  6
Continuous
 62
     7
370
    25
100
AcDbLine
 10
-438.0000110294
 20
-387.0862861634
 30
0.0
 11
-438.0000074338
 21
-388.0329595267
 31
0.0
  0
LINE
  5
F8
330
1F
100
AcDbEntity
  8
0
  6
Continuous
 62
     7
370
    25
100
AcDbLine
 10
-425.2877513049
 20
390.0
 30
0.0
 11
-425.2883321796
 21
388.3077624658
 31
0.0
  0
LINE
  5
F9
330
1F
100
AcDbEntity
  8
0
  6
Continuous
 62
     7
370
    25
100
AcDbLine
 10
425.2883321795
 20
388.3077624657
 30
0.0
 11
425.2877513049
 21
390.0
 31
0.0
  0
LINE
  5
FA
330
1F
100
AcDbEntity
  8
0
  6
Continuous
 62
     7
370
    25
100
AcDbLine
 10
-45.0692767228
 20
323.36476179
 30
0.0
 11
-43.5918833121
 21
322.1121302178
 31
0.0
  0
LINE
  5
FB
330
1F
100
AcDbEntity
  8
0
  6
Continuous
 62
     7
370
    25
100
AcDbLine
 10
43.5918833121
 20
322.1121302178
 30
0.0
 11
45.0692767228
 21
323.36476179
 31
0.0
  0
LINE
  5
FC
330
1F
100
AcDbEntity
  8
0
  6
Continuous
 62
     7
370
    25
100
AcDbLine
 10
42.4694179738
 20
246.6084509694
 30
0.0
 11
43.9307570504
 21
245.2863160951
 31
0.0
  0
LINE
  5
FD
330
1F
100
AcDbEntity
  8
0
  6
Continuous
 62
     7
370
    25
100
AcDbLine
 10
45.0945113517
 20
323.3396750013
 30
0.0
 11
43.6171947098
 21
322.0823789103
 31
0.0
  0
LINE
  5
FE
330
1F
100
AcDbEntity
  8
0
  6
Continuous
 62
     7
370
    25
100
AcDbLine
 10
-43.6171947098
 20
322.0823789103
 30
0.0
 11
-45.0945113518
 21
323.3396750013
 31
0.0
  0
LINE
  5
FF
330
1F
100
AcDbEntity
  8
0
  6
Continuous
 62
     7
370
    25
100
AcDbLine
 10
-43.9307570504
 20
245.2863160951
 30
0.0
 11
-42.4694179738
 21
246.6084509694
 31
0.0
  0
ARC
  5
100
330
1F
100
AcDbEntity
  8
0
  6
Continuous
 62
     7
370
    25
100
AcDbCircle
 10
-438.0
 20
-388.0
 30
0.0
 40
3.999999999999886
100
AcDbArc
 50
180.0
 51
270.0
  0
ARC
  5
101
330
1F
100
AcDbEntity
  8
0
  6
Continuous
 62
     7
370
    25
100
AcDbCircle
 10
438.0
 20
-388.0
 30
0.0
 40
3.999999999999943
100
AcDbArc
 50
270.0
 51
0.0
  0
ARC
  5
102
330
1F
100
AcDbEntity
  8
0
  6
Continuous
 62
     7
370
    25
100
AcDbCircle
 10
438.0
 20
388.0
 30
0.0
 40
3.999999999999943
100
AcDbArc
 50
0.0
 51
90.0
  0
ARC
  5
103
330
1F
100
AcDbEntity
  8
0
  6
Continuous
 62
     7
370
    25
100
AcDbCircle
 10
-438.0
 20
388.0
 30
0.0
 40
3.999999999999886
100
AcDbArc
 50
90.0
 51
180.0
  0
ARC
  5
104
330
1F
100
AcDbEntity
  8
0
  6
Continuous
 62
     7
370
    25
100
AcDbCircle
 10
438.0
 20
-388.0
 30
0.0
 40
2.0
100
AcDbArc
 50
270.0
 51
0.0
  0
ARC
  5
105
330
1F
100
AcDbEntity
  8
0
  6
Continuous
 62
     7
370
    25
100
AcDbCircle
 10
-438.0
 20
-388.0
 30
0.0
 40
1.999999999999943
100
AcDbArc
 50
180.0
 51
270.0
  0
ARC
  5
106
330
1F
100
AcDbEntity
  8
0
  6
Continuous
 62
     7
370
    25
100
AcDbCircle
 10
438.0
 20
388.0
 30
0.0
 40
2.0
100
AcDbArc
 50
0.0
 51
90.0
  0
ARC
  5
107
330
1F
100
AcDbEntity
  8
0
  6
Continuous
 62
     7
370
    25
100
AcDbCircle
 10
-438.0
 20
388.0
 30
0.0
 40
2.0
100
AcDbArc
 50
90.0
 51
180.0
  0
ARC
  5
108
330
1F
100
AcDbEntity
  8
0
  6
Continuous
 62
     7
370
    25
100
AcDbCircle
 10
-495.0
 20
445.0
 30
0.0
 40
5.0
100
AcDbArc
 50
90.0
 51
180.0
  0
ARC
  5
109
330
1F
100
AcDbEntity
  8
0
  6
Continuous
 62
     7
370
    25
100
AcDbCircle
 10
495.0
 20
445.0
 30
0.0
 40
5.0
100
AcDbArc
 50
0.0
 51
90.0
  0
ARC
  5
10A
330
1F
100
AcDbEntity
  8
0
  6
Continuous
 62
     7
370
    25
100
AcDbCircle
 10
495.0
 20
-445.0
 30
0.0
 40
5.0
100
AcDbArc
 50
270.0
 51
0.0
  0
ARC
  5
10B
330
1F
100
AcDbEntity
  8
0
  6
Continuous
 62
     7
370
    25
100
AcDbCircle
 10
-495.0
 20
-445.0
 30
0.0
 40
5.0
100
AcDbArc
 50
180.0
 51
270.0
  0
ARC
  5
10C
330
1F
100
AcDbEntity
  8
0
  6
Continuous
 62
     7
370
    25
100
AcDbCircle
 10
438.4998685609
 20
-357.6681497435
 30
0.0
 40
30.36892382542408
100
AcDbArc
 50
269.0568903123
 51
272.8313875526
  0
ARC
  5
10D
330
1F
100
AcDbEntity
  8
0
  6
Continuous
 62
     7
370
    25
100
AcDbCircle
 10
438.4998707032
 20
-356.7174324621
 30
0.0
 40
30.37296717186411
100
AcDbArc
 50
269.0570186152
 51
272.8310062759
  0
ARC
  5
10E
330
1F
100
AcDbEntity
  8
0
  6
Continuous
 62
     7
370
    25
100
AcDbCircle
 10
-438.4998685609
 20
-357.6681497435
 30
0.0
 40
30.36892382545935
100
AcDbArc
 50
267.1686124474
 51
270.9431096877
  0
ARC
  5
10F
330
1F
100
AcDbEntity
  8
0
  6
Continuous
 62
     7
370
    25
100
AcDbCircle
 10
-438.4998707028
 20
-356.7174324458
 30
0.0
 40
30.37296718816934
100
AcDbArc
 50
267.1689937248
 51
270.9429813835
  0
ARC
  5
110
330
1F
100
AcDbEntity
  8
0
  6
Continuous
 62
     7
370
    25
100
AcDbCircle
 10
-419.0987440133
 20
388.499660432
 30
0.0
 40
18.9607092877322
100
AcDbArc
 50
175.4615048714
 51
181.510006085
  0
ARC
  5
111
330
1F
100
AcDbEntity
  8
0
  6
Continuous
 62
     7
370
    25
100
AcDbCircle
 10
-413.9211361638
 20
388.4996871934
 30
0.0
 40
18.96550348051847
100
AcDbArc
 50
175.4627356407
 51
181.509567993
  0
ARC
  5
112
330
1F
100
AcDbEntity
  8
0
  6
Continuous
 62
     7
370
    25
100
AcDbCircle
 10
419.0987440133
 20
388.499660432
 30
0.0
 40
18.96070928772276
100
AcDbArc
 50
358.489993915
 51
4.5384951286
  0
ARC
  5
113
330
1F
100
AcDbEntity
  8
0
  6
Continuous
 62
     7
370
    25
100
AcDbCircle
 10
413.9211361585
 20
388.4996871934
 30
0.0
 40
18.96550348579746
100
AcDbArc
 50
358.4904320074
 51
4.537264358
  0
LINE
  5
123
330
1B
100
AcDbEntity
 67
     1
  8
0
  6
Continuous
 62
     7
370
    25
100
AcDbLine
 10
495.0
 20
0.0
 30
0.0
 11
495.0
 21
25.0
 31
0.0
  0
LINE
  5
124
330
1B
100
AcDbEntity
 67
     1
  8
0
  6
Continuous
 62
     7
370
    25
100
AcDbLine
 10
-495.0
 20
25.0
 30
0.0
 11
-495.0
 21
0.0
 31
0.0
  0
LINE
  5
125
330
1B
100
AcDbEntity
 67
     1
  8
0
  6
Continuous
 62
     7
370
    25
100
AcDbLine
 10
500.0
 20
20.0
 30
0.0
 11
-500.0
 21
20.0
 31
0.0
  0
LINE
  5
126
330
1B
100
AcDbEntity
 67
     1
  8
0
  6
Continuous
 62
     7
370
    25
100
AcDbLine
 10
-500.0
 20
0.0
 30
0.0
 11
-500.0
 21
20.0
 31
0.0
  0
LINE
  5
127
330
1B
100
AcDbEntity
 67
     1
  8
0
  6
Continuous
 62
     7
370
    25
100
AcDbLine
 10
-500.0
 20
0.0
 30
0.0
 11
500.0
 21
0.0
 31
0.0
  0
LINE
  5
128
330
1B
100
AcDbEntity
 67
     1
  8
0
  6
Continuous
 62
     7
370
    25
100
AcDbLine
 10
-495.0
 20
25.0
 30
0.0
 11
495.0
 21
25.0
 31
0.0
  0
LINE
  5
129
330
1B
100
AcDbEntity
 67
     1
  8
0
  6
Continuous
 62
     7
370
    25
100
AcDbLine
 10
500.0
 20
20.0
 30
0.0
 11
500.0
 21
0.0
 31
0.0
  0
ARC
  5
12A
330
1B
100
AcDbEntity
 67
     1
  8
0
  6
Continuous
 62
     7
370
    25
100
AcDbCircle
 10
495.0
 20
20.0
 30
0.0
 40
5.0
100
AcDbArc
 50
0.0
 51
90.0
  0
ARC
  5
12B
330
1B
100
AcDbEntity
 67
     1
  8
0
  6
Continuous
 62
     7
370
    25
100
AcDbCircle
 10
-495.0
 20
20.0
 30
0.0
 40
5.0
100
AcDbArc
 50
90.0
 51
180.0
  0
VIEWPORT
  5
40B
330
1B
100
AcDbEntity
 67
     1
  8
0
100
AcDbViewport
 10
0.0
 20
0.0
 30
0.0
 40
205.6
 41
156.0
 68
     1
 69
     1
 12
0.0
 22
0.0
 13
0.0
 23
0.0
 14
10.0
 24
10.0
 15
10.0
 25
10.0
 16
0.0
 26
0.0
 36
1.0
 17
0.0
 27
0.0
 37
0.0
 42
50.0
 43
0.0
 44
0.0
 45
918.0
 50
0.0
 51
0.0
 72
   100
 90
   557152
  1

281
     0
 71
     1
 74
     0
110
0.0
120
0.0
130
0.0
111
1.0
121
0.0
131
0.0
112
0.0
122
1.0
132
0.0
 79
     0
146
0.0
  0
ENDSEC
  0
SECTION
  2
OBJECTS
  0
DICTIONARY
  5
C
330
0
100
AcDbDictionary
281
     1
  3
ACAD_GROUP
350
D
  3
ACAD_LAYOUT
350
1A
  3
ACAD_MLINESTYLE
350
17
  3
ACAD_PLOTSETTINGS
350
19
  3
ACAD_PLOTSTYLENAME
350
E
  3
ACAD_SCALELIST
350
47
  0
DICTIONARY
  5
D
102
{ACAD_REACTORS
330
C
102
}
330
C
100
AcDbDictionary
281
     1
  0
DICTIONARY
  5
1A
102
{ACAD_REACTORS
330
C
102
}
330
C
100
AcDbDictionary
281
     1
  3
_Back
350
26
  3
_Bottom
350
17D
  3
_Dimetric
350
349
  3
_Front
350
1E
  3
_Isometric
350
192
  3
_Left
350
145
  3
_Right
350
161
  3
_Trimetric
350
276
  3
Model
350
22
  0
DICTIONARY
  5
17
102
{ACAD_REACTORS
330
C
102
}
330
C
100
AcDbDictionary
281
     1
  3
Standard
350
18
  0
DICTIONARY
  5
19
102
{ACAD_REACTORS
330
C
102
}
330
C
100
AcDbDictionary
281
     1
  0
ACDBDICTIONARYWDFLT
  5
E
102
{ACAD_REACTORS
330
C
102
}
330
C
100
AcDbDictionary
281
     1
  3
Normal
350
F
100
AcDbDictionaryWithDefault
340
F
  0
DICTIONARY
  5
47
102
{ACAD_REACTORS
330
C
102
}
330
C
100
AcDbDictionary
281
     1
  3
A0
350
48
  3
A1
350
49
  3
A2
350
4A
  3
A3
350
4B
  3
A4
350
4C
  3
A5
350
4D
  3
A6
350
4E
  3
A7
350
4F
  3
A8
350
50
  3
A9
350
51
  3
B0
350
52
  3
B1
350
53
  3
B2
350
54
  3
B3
350
55
  3
B4
350
56
  3
B5
350
57
  3
B6
350
58
  3
B7
350
59
  3
B8
350
5A
  3
B9
350
5B
  3
C0
350
5C
  3
C1
350
5D
  3
C2
350
5E
  3
C3
350
5F
  3
C4
350
60
  3
C5
350
61
  3
C6
350
62
  3
C7
350
63
  3
C8
350
64
  3
C9
350
65
  3
D0
350
66
  3
D1
350
67
  3
D2
350
68
  0
LAYOUT
  5
26
102
{ACAD_REACTORS
330
1A
102
}
330
1A
100
AcDbPlotSettings
  1

  2
none_device
  4
ISO_A4_(210.00_x_297.00_MM)
  6

 40
7.5
 41
20.0
 42
7.5
 43
20.0
 44
210.0
 45
297.0
 46
0.0
 47
0.0
 48
0.0
 49
0.0
140
0.0
141
0.0
142
1.0
143
3.8910505837
 70
   688
 72
     1
 73
     1
 74
     1
  7

 75
     0
147
0.257
148
500.0
149
0.0
100
AcDbLayout
  1
_Back
 70
     1
 71
     2
 10
0.0
 20
0.0
 11
0.0
 21
0.0
 12
0.0
 22
0.0
 32
0.0
 14
0.0
 24
0.0
 34
0.0
 15
0.0
 25
0.0
 35
0.0
146
0.0
 13
0.0
 23
0.0
 33
0.0
 16
1.0
 26
0.0
 36
0.0
 17
0.0
 27
1.0
 37
0.0
 76
     0
330
23
331
40D
  0
LAYOUT
  5
17D
102
{ACAD_REACTORS
330
1A
102
}
330
1A
100
AcDbPlotSettings
  1

  2
none_device
  4
ISO_A4_(210.00_x_297.00_MM)
  6

 40
7.5
 41
20.0
 42
7.5
 43
20.0
 44
210.0
 45
297.0
 46
0.0
 47
0.0
 48
0.0
 49
0.0
140
0.0
141
0.0
142
1.0
143
3.8910505837
 70
   688
 72
     1
 73
     1
 74
     1
  7

 75
     0
147
0.257
148
500.0
149
0.0
100
AcDbLayout
  1
_Bottom
 70
     1
 71
     5
 10
0.0
 20
0.0
 11
0.0
 21
0.0
 12
0.0
 22
0.0
 32
0.0
 14
0.0
 24
0.0
 34
0.0
 15
0.0
 25
0.0
 35
0.0
146
0.0
 13
0.0
 23
0.0
 33
0.0
 16
1.0
 26
0.0
 36
0.0
 17
0.0
 27
1.0
 37
0.0
 76
     0
330
17C
331
413
  0
LAYOUT
  5
349
102
{ACAD_REACTORS
330
1A
102
}
330
1A
100
AcDbPlotSettings
  1

  2
none_device
  4
ISO_A4_(210.00_x_297.00_MM)
  6

 40
7.5
 41
20.0
 42
7.5
 43
20.0
 44
210.0
 45
297.0
 46
0.0
 47
0.0
 48
0.0
 49
0.0
140
0.0
141
0.0
142
1.0
143
3.8910505837
 70
   688
 72
     1
 73
     1
 74
     1
  7

 75
     0
147
0.257
148
500.0
149
0.0
100
AcDbLayout
  1
_Dimetric
 70
     1
 71
     8
 10
0.0
 20
0.0
 11
0.0
 21
0.0
 12
0.0
 22
0.0
 32
0.0
 14
0.0
 24
0.0
 34
0.0
 15
0.0
 25
0.0
 35
0.0
146
0.0
 13
0.0
 23
0.0
 33
0.0
 16
1.0
 26
0.0
 36
0.0
 17
0.0
 27
1.0
 37
0.0
 76
     0
330
348
331
419
  0
LAYOUT
  5
1E
102
{ACAD_REACTORS
330
1A
102
}
330
1A
100
AcDbPlotSettings
  1

  2
none_device
  4
ISO_A4_(210.00_x_297.00_MM)
  6

 40
7.5
 41
20.0
 42
7.5
 43
20.0
 44
210.0
 45
297.0
 46
0.0
 47
0.0
 48
0.0
 49
0.0
140
0.0
141
0.0
142
1.0
143
3.8910505837
 70
   688
 72
     1
 73
     1
 74
     1
  7

 75
     0
147
0.257
148
500.0
149
0.0
100
AcDbLayout
  1
_Front
 70
     1
 71
     1
 10
-577.8210116732
 20
-29.1828793774
 11
577.8210116732
 21
787.9377431907
 12
0.0
 22
0.0
 32
0.0
 14
-500.0
 24
0.0
 34
0.0
 15
500.0
 25
25.0
 35
0.0
146
0.0
 13
0.0
 23
0.0
 33
0.0
 16
1.0
 26
0.0
 36
0.0
 17
0.0
 27
1.0
 37
0.0
 76
     0
330
1B
331
40B
  0
LAYOUT
  5
192
102
{ACAD_REACTORS
330
1A
102
}
330
1A
100
AcDbPlotSettings
  1

  2
none_device
  4
ISO_A4_(210.00_x_297.00_MM)
  6

 40
7.5
 41
20.0
 42
7.5
 43
20.0
 44
210.0
 45
297.0
 46
0.0
 47
0.0
 48
0.0
 49
0.0
140
0.0
141
0.0
142
1.0
143
3.8910505837
 70
   688
 72
     1
 73
     1
 74
     1
  7

 75
     0
147
0.257
148
500.0
149
0.0
100
AcDbLayout
  1
_Isometric
 70
     1
 71
     6
 10
0.0
 20
0.0
 11
0.0
 21
0.0
 12
0.0
 22
0.0
 32
0.0
 14
0.0
 24
0.0
 34
0.0
 15
0.0
 25
0.0
 35
0.0
146
0.0
 13
0.0
 23
0.0
 33
0.0
 16
1.0
 26
0.0
 36
0.0
 17
0.0
 27
1.0
 37
0.0
 76
     0
330
191
331
415
  0
LAYOUT
  5
145
102
{ACAD_REACTORS
330
1A
102
}
330
1A
100
AcDbPlotSettings
  1

  2
none_device
  4
ISO_A4_(210.00_x_297.00_MM)
  6

 40
7.5
 41
20.0
 42
7.5
 43
20.0
 44
210.0
 45
297.0
 46
0.0
 47
0.0
 48
0.0
 49
0.0
140
0.0
141
0.0
142
1.0
143
3.8910505837
 70
   688
 72
     1
 73
     1
 74
     1
  7

 75
     0
147
0.257
148
500.0
149
0.0
100
AcDbLayout
  1
_Left
 70
     1
 71
     3
 10
0.0
 20
0.0
 11
0.0
 21
0.0
 12
0.0
 22
0.0
 32
0.0
 14
0.0
 24
0.0
 34
0.0
 15
0.0
 25
0.0
 35
0.0
146
0.0
 13
0.0
 23
0.0
 33
0.0
 16
1.0
 26
0.0
 36
0.0
 17
0.0
 27
1.0
 37
0.0
 76
     0
330
144
331
40F
  0
LAYOUT
  5
161
102
{ACAD_REACTORS
330
1A
102
}
330
1A
100
AcDbPlotSettings
  1

  2
none_device
  4
ISO_A4_(210.00_x_297.00_MM)
  6

 40
7.5
 41
20.0
 42
7.5
 43
20.0
 44
210.0
 45
297.0
 46
0.0
 47
0.0
 48
0.0
 49
0.0
140
0.0
141
0.0
142
1.0
143
3.8910505837
 70
   688
 72
     1
 73
     1
 74
     1
  7

 75
     0
147
0.257
148
500.0
149
0.0
100
AcDbLayout
  1
_Right
 70
     1
 71
     4
 10
0.0
 20
0.0
 11
0.0
 21
0.0
 12
0.0
 22
0.0
 32
0.0
 14
0.0
 24
0.0
 34
0.0
 15
0.0
 25
0.0
 35
0.0
146
0.0
 13
0.0
 23
0.0
 33
0.0
 16
1.0
 26
0.0
 36
0.0
 17
0.0
 27
1.0
 37
0.0
 76
     0
330
160
331
411
  0
LAYOUT
  5
276
102
{ACAD_REACTORS
330
1A
102
}
330
1A
100
AcDbPlotSettings
  1

  2
none_device
  4
ISO_A4_(210.00_x_297.00_MM)
  6

 40
7.5
 41
20.0
 42
7.5
 43
20.0
 44
210.0
 45
297.0
 46
0.0
 47
0.0
 48
0.0
 49
0.0
140
0.0
141
0.0
142
1.0
143
3.8910505837
 70
   688
 72
     1
 73
     1
 74
     1
  7

 75
     0
147
0.257
148
500.0
149
0.0
100
AcDbLayout
  1
_Trimetric
 70
     1
 71
     7
 10
0.0
 20
0.0
 11
0.0
 21
0.0
 12
0.0
 22
0.0
 32
0.0
 14
0.0
 24
0.0
 34
0.0
 15
0.0
 25
0.0
 35
0.0
146
0.0
 13
0.0
 23
0.0
 33
0.0
 16
1.0
 26
0.0
 36
0.0
 17
0.0
 27
1.0
 37
0.0
 76
     0
330
275
331
417
  0
LAYOUT
  5
22
102
{ACAD_REACTORS
330
1A
102
}
330
1A
100
AcDbPlotSettings
  1

  2
none_device
  4
ANSI_A_(11.00_x_8.50_Inches)
  6

 40
6.35
 41
19.05
 42
6.35000508
 43
19.05000254
 44
279.4
 45
215.9
 46
133.34999746
 47
88.89999873
 48
0.0
 49
0.0
140
0.0
141
0.0
142
0.00935
143
1.0
 70
  1696
 72
     0
 73
     0
 74
     0
  7

 75
     0
147
0.0179189148
148
-1300.4909072572
149
0.0
100
AcDbLayout
  1
Model
 70
     1
 71
     0
 10
0.0
 20
0.0
 11
420.0
 21
297.0
 12
0.0
 22
0.0
 32
0.0
 14
-500.0
 24
-450.0
 34
0.0
 15
500.0
 25
450.0
 35
0.0
146
0.0
 13
0.0
 23
0.0
 33
0.0
 16
1.0
 26
0.0
 36
0.0
 17
0.0
 27
1.0
 37
0.0
 76
     0
330
1F
331
29
  0
MLINESTYLE
  5
18
102
{ACAD_REACTORS
330
17
102
}
330
17
100
AcDbMlineStyle
  2
Standard
 70
     0
  3

 62
   256
 51
90.0
 52
90.0
 71
     2
 49
0.5
 62
   256
  6
BYLAYER
 49
-0.5
 62
   256
  6
BYLAYER
  0
ACDBPLACEHOLDER
  5
F
102
{ACAD_REACTORS
330
E
102
}
330
E
  0
SCALE
  5
48
102
{ACAD_REACTORS
330
47
102
}
330
47
100
AcDbScale
 70
     0
300
1:1
140
1.0
141
1.0
290
     1
  0
SCALE
  5
49
102
{ACAD_REACTORS
330
47
102
}
330
47
100
AcDbScale
 70
     0
300
1:2
140
1.0
141
2.0
290
     0
  0
SCALE
  5
4A
102
{ACAD_REACTORS
330
47
102
}
330
47
100
AcDbScale
 70
     0
300
1:4
140
1.0
141
4.0
290
     0
  0
SCALE
  5
4B
102
{ACAD_REACTORS
330
47
102
}
330
47
100
AcDbScale
 70
     0
300
1:5
140
1.0
141
5.0
290
     0
  0
SCALE
  5
4C
102
{ACAD_REACTORS
330
47
102
}
330
47
100
AcDbScale
 70
     0
300
1:8
140
1.0
141
8.0
290
     0
  0
SCALE
  5
4D
102
{ACAD_REACTORS
330
47
102
}
330
47
100
AcDbScale
 70
     0
300
1:10
140
1.0
141
10.0
290
     0
  0
SCALE
  5
4E
102
{ACAD_REACTORS
330
47
102
}
330
47
100
AcDbScale
 70
     0
300
1:16
140
1.0
141
16.0
290
     0
  0
SCALE
  5
4F
102
{ACAD_REACTORS
330
47
102
}
330
47
100
AcDbScale
 70
     0
300
1:20
140
1.0
141
20.0
290
     0
  0
SCALE
  5
50
102
{ACAD_REACTORS
330
47
102
}
330
47
100
AcDbScale
 70
     0
300
1:30
140
1.0
141
30.0
290
     0
  0
SCALE
  5
51
102
{ACAD_REACTORS
330
47
102
}
330
47
100
AcDbScale
 70
     0
300
1:40
140
1.0
141
40.0
290
     0
  0
SCALE
  5
52
102
{ACAD_REACTORS
330
47
102
}
330
47
100
AcDbScale
 70
     0
300
1:50
140
1.0
141
50.0
290
     0
  0
SCALE
  5
53
102
{ACAD_REACTORS
330
47
102
}
330
47
100
AcDbScale
 70
     0
300
1:100
140
1.0
141
100.0
290
     0
  0
SCALE
  5
54
102
{ACAD_REACTORS
330
47
102
}
330
47
100
AcDbScale
 70
     0
300
2:1
140
2.0
141
1.0
290
     0
  0
SCALE
  5
55
102
{ACAD_REACTORS
330
47
102
}
330
47
100
AcDbScale
 70
     0
300
4:1
140
4.0
141
1.0
290
     0
  0
SCALE
  5
56
102
{ACAD_REACTORS
330
47
102
}
330
47
100
AcDbScale
 70
     0
300
8:1
140
8.0
141
1.0
290
     0
  0
SCALE
  5
57
102
{ACAD_REACTORS
330
47
102
}
330
47
100
AcDbScale
 70
     0
300
10:1
140
10.0
141
1.0
290
     0
  0
SCALE
  5
58
102
{ACAD_REACTORS
330
47
102
}
330
47
100
AcDbScale
 70
     0
300
100:1
140
100.0
141
1.0
290
     0
  0
SCALE
  5
59
102
{ACAD_REACTORS
330
47
102
}
330
47
100
AcDbScale
 70
     0
300
1/128" = 1'-0"
140
0.0078125
141
12.0
290
     0
  0
SCALE
  5
5A
102
{ACAD_REACTORS
330
47
102
}
330
47
100
AcDbScale
 70
     0
300
1/64" = 1'-0"
140
0.015625
141
12.0
290
     0
  0
SCALE
  5
5B
102
{ACAD_REACTORS
330
47
102
}
330
47
100
AcDbScale
 70
     0
300
1/32" = 1'-0"
140
0.03125
141
12.0
290
     0
  0
SCALE
  5
5C
102
{ACAD_REACTORS
330
47
102
}
330
47
100
AcDbScale
 70
     0
300
1/16" = 1'-0"
140
0.0625
141
12.0
290
     0
  0
SCALE
  5
5D
102
{ACAD_REACTORS
330
47
102
}
330
47
100
AcDbScale
 70
     0
300
3/32" = 1'-0"
140
0.09375
141
12.0
290
     0
  0
SCALE
  5
5E
102
{ACAD_REACTORS
330
47
102
}
330
47
100
AcDbScale
 70
     0
300
1/8" = 1'-0"
140
0.125
141
12.0
290
     0
  0
SCALE
  5
5F
102
{ACAD_REACTORS
330
47
102
}
330
47
100
AcDbScale
 70
     0
300
3/16" = 1'-0"
140
0.1875
141
12.0
290
     0
  0
SCALE
  5
60
102
{ACAD_REACTORS
330
47
102
}
330
47
100
AcDbScale
 70
     0
300
1/4" = 1'-0"
140
0.25
141
12.0
290
     0
  0
SCALE
  5
61
102
{ACAD_REACTORS
330
47
102
}
330
47
100
AcDbScale
 70
     0
300
3/8" = 1'-0"
140
0.375
141
12.0
290
     0
  0
SCALE
  5
62
102
{ACAD_REACTORS
330
47
102
}
330
47
100
AcDbScale
 70
     0
300
1/2" = 1'-0"
140
0.5
141
12.0
290
     0
  0
SCALE
  5
63
102
{ACAD_REACTORS
330
47
102
}
330
47
100
AcDbScale
 70
     0
300
3/4" = 1'-0"
140
0.75
141
12.0
290
     0
  0
SCALE
  5
64
102
{ACAD_REACTORS
330
47
102
}
330
47
100
AcDbScale
 70
     0
300
1" = 1'-0"
140
1.0
141
12.0
290
     0
  0
SCALE
  5
65
102
{ACAD_REACTORS
330
47
102
}
330
47
100
AcDbScale
 70
     0
300
1-1/2" = 1'-0"
140
1.5
141
12.0
290
     0
  0
SCALE
  5
66
102
{ACAD_REACTORS
330
47
102
}
330
47
100
AcDbScale
 70
     0
300
3" = 1'-0"
140
3.0
141
12.0
290
     0
  0
SCALE
  5
67
102
{ACAD_REACTORS
330
47
102
}
330
47
100
AcDbScale
 70
     0
300
6" = 1'-0"
140
6.0
141
12.0
290
     0
  0
SCALE
  5
68
102
{ACAD_REACTORS
330
47
102
}
330
47
100
AcDbScale
 70
     0
300
1'-0" = 1'-0"
140
12.0
141
12.0
290
     0
  0
ENDSEC
  0
EOF
